  0
SECTION
  2
HEADER
  9
$ACADVER
  1
AC1015
  9
$ACADMAINTVER
 70
    18
  9
$DWGCODEPAGE
  3
ANSI_1252
  9
$INSBASE
 10
0.0
 20
0.0
 30
0.0
  9
$EXTMIN
 10
-198.6181633158333
 20
-170.0218043159947
 30
-0.0015258207003583
  9
$EXTMAX
 10
257.8729255938356
 20
181.1067357860817
 30
0.0000000349246037
  9
$LIMMIN
 10
0.0
 20
0.0
  9
$LIMMAX
 10
420.0
 20
297.0
  9
$ORTHOMODE
 70
     0
  9
$REGENMODE
 70
     1
  9
$FILLMODE
 70
     1
  9
$QTEXTMODE
 70
     0
  9
$MIRRTEXT
 70
     0
  9
$LTSCALE
 40
1.0
  9
$ATTMODE
 70
     1
  9
$TEXTSIZE
 40
2.5
  9
$TRACEWID
 40
1.0
  9
$TEXTSTYLE
  7
Standard
  9
$CLAYER
  8
0
  9
$CELTYPE
  6
ByLayer
  9
$CECOLOR
 62
   256
  9
$CELTSCALE
 40
1.0
  9
$DISPSILH
 70
     0
  9
$DIMSCALE
 40
1.0
  9
$DIMASZ
 40
2.5
  9
$DIMEXO
 40
0.625
  9
$DIMDLI
 40
3.75
  9
$DIMRND
 40
0.0
  9
$DIMDLE
 40
0.0
  9
$DIMEXE
 40
1.25
  9
$DIMTP
 40
0.0
  9
$DIMTM
 40
0.0
  9
$DIMTXT
 40
2.5
  9
$DIMCEN
 40
2.5
  9
$DIMTSZ
 40
0.0
  9
$DIMTOL
 70
     0
  9
$DIMLIM
 70
     0
  9
$DIMTIH
 70
     0
  9
$DIMTOH
 70
     0
  9
$DIMSE1
 70
     0
  9
$DIMSE2
 70
     0
  9
$DIMTAD
 70
     1
  9
$DIMZIN
 70
     8
  9
$DIMBLK
  1

  9
$DIMASO
 70
     1
  9
$DIMSHO
 70
     1
  9
$DIMPOST
  1

  9
$DIMAPOST
  1

  9
$DIMALT
 70
     0
  9
$DIMALTD
 70
     3
  9
$DIMALTF
 40
0.03937007874016
  9
$DIMLFAC
 40
1.0
  9
$DIMTOFL
 70
     1
  9
$DIMTVP
 40
0.0
  9
$DIMTIX
 70
     0
  9
$DIMSOXD
 70
     0
  9
$DIMSAH
 70
     0
  9
$DIMBLK1
  1

  9
$DIMBLK2
  1

  9
$DIMSTYLE
  2
ISO-25
  9
$DIMCLRD
 70
     0
  9
$DIMCLRE
 70
     0
  9
$DIMCLRT
 70
     0
  9
$DIMTFAC
 40
1.0
  9
$DIMGAP
 40
0.625
  9
$DIMJUST
 70
     0
  9
$DIMSD1
 70
     0
  9
$DIMSD2
 70
     0
  9
$DIMTOLJ
 70
     0
  9
$DIMTZIN
 70
     8
  9
$DIMALTZ
 70
     0
  9
$DIMALTTZ
 70
     0
  9
$DIMUPT
 70
     0
  9
$DIMDEC
 70
     2
  9
$DIMTDEC
 70
     2
  9
$DIMALTU
 70
     2
  9
$DIMALTTD
 70
     3
  9
$DIMTXSTY
  7
Standard
  9
$DIMAUNIT
 70
     0
  9
$DIMADEC
 70
     0
  9
$DIMALTRND
 40
0.0
  9
$DIMAZIN
 70
     0
  9
$DIMDSEP
 70
    44
  9
$DIMATFIT
 70
     3
  9
$DIMFRAC
 70
     0
  9
$DIMLDRBLK
  1

  9
$DIMLUNIT
 70
     2
  9
$DIMLWD
 70
    -2
  9
$DIMLWE
 70
    -2
  9
$DIMTMOVE
 70
     0
  9
$LUNITS
 70
     2
  9
$LUPREC
 70
     4
  9
$SKETCHINC
 40
1.0
  9
$FILLETRAD
 40
0.0
  9
$AUNITS
 70
     0
  9
$AUPREC
 70
     0
  9
$MENU
  1
.
  9
$ELEVATION
 40
0.0
  9
$PELEVATION
 40
0.0
  9
$THICKNESS
 40
0.0
  9
$LIMCHECK
 70
     0
  9
$CHAMFERA
 40
0.0
  9
$CHAMFERB
 40
0.0
  9
$CHAMFERC
 40
0.0
  9
$CHAMFERD
 40
0.0
  9
$SKPOLY
 70
     0
  9
$TDCREATE
 40
2460398.356956019
  9
$TDUCREATE
 40
2460398.065289352
  9
$TDUPDATE
 40
2460398.371365741
  9
$TDUUPDATE
 40
2460398.079699074
  9
$TDINDWG
 40
0.0069097222
  9
$TDUSRTIMER
 40
0.0069097222
  9
$USRTIMER
 70
     1
  9
$ANGBASE
 50
0.0
  9
$ANGDIR
 70
     0
  9
$PDMODE
 70
     0
  9
$PDSIZE
 40
0.0
  9
$PLINEWID
 40
0.0
  9
$SPLFRAME
 70
     0
  9
$SPLINETYPE
 70
     6
  9
$SPLINESEGS
 70
     8
  9
$HANDSEED
  5
3829
  9
$SURFTAB1
 70
     6
  9
$SURFTAB2
 70
     6
  9
$SURFTYPE
 70
     6
  9
$SURFU
 70
     6
  9
$SURFV
 70
     6
  9
$UCSBASE
  2

  9
$UCSNAME
  2

  9
$UCSORG
 10
0.0
 20
0.0
 30
0.0
  9
$UCSXDIR
 10
1.0
 20
0.0
 30
0.0
  9
$UCSYDIR
 10
0.0
 20
1.0
 30
0.0
  9
$UCSORTHOREF
  2

  9
$UCSORTHOVIEW
 70
     0
  9
$UCSORGTOP
 10
0.0
 20
0.0
 30
0.0
  9
$UCSORGBOTTOM
 10
0.0
 20
0.0
 30
0.0
  9
$UCSORGLEFT
 10
0.0
 20
0.0
 30
0.0
  9
$UCSORGRIGHT
 10
0.0
 20
0.0
 30
0.0
  9
$UCSORGFRONT
 10
0.0
 20
0.0
 30
0.0
  9
$UCSORGBACK
 10
0.0
 20
0.0
 30
0.0
  9
$PUCSBASE
  2

  9
$PUCSNAME
  2

  9
$PUCSORG
 10
0.0
 20
0.0
 30
0.0
  9
$PUCSXDIR
 10
1.0
 20
0.0
 30
0.0
  9
$PUCSYDIR
 10
0.0
 20
1.0
 30
0.0
  9
$PUCSORTHOREF
  2

  9
$PUCSORTHOVIEW
 70
     0
  9
$PUCSORGTOP
 10
0.0
 20
0.0
 30
0.0
  9
$PUCSORGBOTTOM
 10
0.0
 20
0.0
 30
0.0
  9
$PUCSORGLEFT
 10
0.0
 20
0.0
 30
0.0
  9
$PUCSORGRIGHT
 10
0.0
 20
0.0
 30
0.0
  9
$PUCSORGFRONT
 10
0.0
 20
0.0
 30
0.0
  9
$PUCSORGBACK
 10
0.0
 20
0.0
 30
0.0
  9
$USERI1
 70
     0
  9
$USERI2
 70
     0
  9
$USERI3
 70
     0
  9
$USERI4
 70
     0
  9
$USERI5
 70
     0
  9
$USERR1
 40
0.0
  9
$USERR2
 40
0.0
  9
$USERR3
 40
0.0
  9
$USERR4
 40
0.0
  9
$USERR5
 40
0.0
  9
$WORLDVIEW
 70
     1
  9
$SHADEDGE
 70
     3
  9
$SHADEDIF
 70
    70
  9
$TILEMODE
 70
     1
  9
$MAXACTVP
 70
    48
  9
$PINSBASE
 10
0.0
 20
0.0
 30
0.0
  9
$PLIMCHECK
 70
     0
  9
$PEXTMIN
 10
0.0
 20
0.0
 30
0.0
  9
$PEXTMAX
 10
0.0
 20
0.0
 30
0.0
  9
$PLIMMIN
 10
0.0
 20
0.0
  9
$PLIMMAX
 10
12.0
 20
9.0
  9
$UNITMODE
 70
     0
  9
$VISRETAIN
 70
     1
  9
$PLINEGEN
 70
     0
  9
$PSLTSCALE
 70
     1
  9
$TREEDEPTH
 70
  3020
  9
$CMLSTYLE
  2
Standard
  9
$CMLJUST
 70
     0
  9
$CMLSCALE
 40
20.0
  9
$PROXYGRAPHICS
 70
     1
  9
$MEASUREMENT
 70
     1
  9
$CELWEIGHT
370
    -1
  9
$ENDCAPS
280
     0
  9
$JOINSTYLE
280
     0
  9
$LWDISPLAY
290
     0
  9
$INSUNITS
 70
     4
  9
$HYPERLINKBASE
  1

  9
$STYLESHEET
  1

  9
$XEDIT
290
     1
  9
$CEPSNTYPE
380
     0
  9
$PSTYLEMODE
290
     1
  9
$FINGERPRINTGUID
  2
{6C1266EE-7BC1-BF4A-B059-A6E7702B10CE}
  9
$VERSIONGUID
  2
{A52C82D8-9531-D54E-9DEE-387209EC50A6}
  9
$EXTNAMES
290
     1
  9
$PSVPSCALE
 40
0.0
  9
$OLESTARTUP
290
     0
  0
ENDSEC
  0
SECTION
  2
CLASSES
  0
CLASS
  1
ACDBDICTIONARYWDFLT
  2
AcDbDictionaryWithDefault
  3
ObjectDBX Classes
 90
        0
280
     0
281
     0
  0
CLASS
  1
ACDBPLACEHOLDER
  2
AcDbPlaceHolder
  3
ObjectDBX Classes
 90
        0
280
     0
281
     0
  0
CLASS
  1
LAYOUT
  2
AcDbLayout
  3
ObjectDBX Classes
 90
        0
280
     0
281
     0
  0
CLASS
  1
DICTIONARYVAR
  2
AcDbDictionaryVar
  3
ObjectDBX Classes
 90
        0
280
     0
281
     0
  0
CLASS
  1
TABLESTYLE
  2
AcDbTableStyle
  3
ObjectDBX Classes
 90
     4095
280
     0
281
     0
  0
CLASS
  1
MATERIAL
  2
AcDbMaterial
  3
ObjectDBX Classes
 90
     1153
280
     0
281
     0
  0
CLASS
  1
VISUALSTYLE
  2
AcDbVisualStyle
  3
ObjectDBX Classes
 90
     4095
280
     0
281
     0
  0
CLASS
  1
SCALE
  2
AcDbScale
  3
ObjectDBX Classes
 90
     1153
280
     0
281
     0
  0
CLASS
  1
MLEADERSTYLE
  2
AcDbMLeaderStyle
  3
ACDB_MLEADERSTYLE_CLASS
 90
     4095
280
     0
281
     0
  0
CLASS
  1
CELLSTYLEMAP
  2
AcDbCellStyleMap
  3
ObjectDBX Classes
 90
     1152
280
     0
281
     0
  0
CLASS
  1
EXACXREFPANELOBJECT
  2
ExAcXREFPanelObject
  3
EXAC_ESW
 90
    33793
280
     0
281
     0
  0
CLASS
  1
NPOCOLLECTION
  2
AcDbImpNonPersistentObjectsCollection
  3
ObjectDBX Classes
 90
    33921
280
     0
281
     0
  0
CLASS
  1
LAYER_INDEX
  2
AcDbLayerIndex
  3
ObjectDBX Classes
 90
    32768
280
     0
281
     0
  0
CLASS
  1
SPATIAL_INDEX
  2
AcDbSpatialIndex
  3
ObjectDBX Classes
 90
    32768
280
     0
281
     0
  0
CLASS
  1
IDBUFFER
  2
AcDbIdBuffer
  3
ObjectDBX Classes
 90
    32768
280
     0
281
     0
  0
CLASS
  1
ACDBSECTIONVIEWSTYLE
  2
AcDbSectionViewStyle
  3
ObjectDBX Classes
 90
     1025
280
     0
281
     0
  0
CLASS
  1
ACDBDETAILVIEWSTYLE
  2
AcDbDetailViewStyle
  3
ObjectDBX Classes
 90
     1025
280
     0
281
     0
  0
CLASS
  1
XRECORD
  2
AcDbXrecord
  3
ObjectDBX Classes
 90
        0
280
     0
281
     0
  0
ENDSEC
  0
SECTION
  2
TABLES
  0
TABLE
  2
VPORT
  5
8
102
{ACAD_XDICTIONARY
360
3737
102
}
330
0
100
AcDbSymbolTable
 70
     1
  0
VPORT
  5
EA
330
8
100
AcDbSymbolTableRecord
100
AcDbViewportTableRecord
  2
*Active
 70
     0
 10
0.0
 20
0.0
 11
1.0
 21
1.0
 12
29.62738113900116
 22
5.542465735043464
 13
0.0
 23
0.0
 14
10.0
 24
10.0
 15
10.0
 25
10.0
 16
0.0
 26
0.0
 36
1.0
 17
0.0
 27
0.0
 37
0.0
 40
493.0999316232121
 41
0.9846153846153846
 42
50.0
 43
0.0
 44
0.0
 50
0.0
 51
0.0
 71
     0
 72
  1000
 73
     1
 74
     3
 75
     0
 76
     1
 77
     0
 78
     0
281
     0
 65
     1
110
0.0
120
0.0
130
0.0
111
1.0
121
0.0
131
0.0
112
0.0
122
1.0
132
0.0
 79
     0
146
0.0
1001
ACAD_NAV_VCDISPLAY
1070
     3
  0
ENDTAB
  0
TABLE
  2
LTYPE
  5
5
330
0
100
AcDbSymbolTable
 70
     1
  0
LTYPE
  5
14
330
5
100
AcDbSymbolTableRecord
100
AcDbLinetypeTableRecord
  2
ByBlock
 70
     0
  3

 72
    65
 73
     0
 40
0.0
  0
LTYPE
  5
15
330
5
100
AcDbSymbolTableRecord
100
AcDbLinetypeTableRecord
  2
ByLayer
 70
     0
  3

 72
    65
 73
     0
 40
0.0
  0
LTYPE
  5
16
330
5
100
AcDbSymbolTableRecord
100
AcDbLinetypeTableRecord
  2
Continuous
 70
     0
  3
Solid line
 72
    65
 73
     0
 40
0.0
  0
ENDTAB
  0
TABLE
  2
LAYER
  5
2
102
{ACAD_XDICTIONARY
360
1FF
102
}
330
0
100
AcDbSymbolTable
 70
     1
  0
LAYER
  5
10
102
{ACAD_XDICTIONARY
360
13C
102
}
330
2
100
AcDbSymbolTableRecord
100
AcDbLayerTableRecord
  2
0
 70
     0
 62
     7
  6
Continuous
370
    -3
390
F
  0
ENDTAB
  0
TABLE
  2
STYLE
  5
3
330
0
100
AcDbSymbolTable
 70
     1
  0
STYLE
  5
11
330
3
100
AcDbSymbolTableRecord
100
AcDbTextStyleTableRecord
  2
Standard
 70
     0
 40
0.0
 41
1.0
 50
0.0
 71
     0
 42
2.5
  3
arial.ttf
  4

1001
ACAD
1000
Arial
1071
       34
  0
ENDTAB
  0
TABLE
  2
VIEW
  5
6
330
0
100
AcDbSymbolTable
 70
     0
  0
ENDTAB
  0
TABLE
  2
UCS
  5
7
330
0
100
AcDbSymbolTable
 70
     0
  0
ENDTAB
  0
TABLE
  2
APPID
  5
9
330
0
100
AcDbSymbolTable
 70
     8
  0
APPID
  5
12
330
9
100
AcDbSymbolTableRecord
100
AcDbRegAppTableRecord
  2
ACAD
 70
     0
  0
APPID
  5
9E
330
9
100
AcDbSymbolTableRecord
100
AcDbRegAppTableRecord
  2
ACAD_PSEXT
 70
     0
  0
APPID
  5
133
330
9
100
AcDbSymbolTableRecord
100
AcDbRegAppTableRecord
  2
AcadAnnoPO
 70
     0
  0
APPID
  5
134
330
9
100
AcDbSymbolTableRecord
100
AcDbRegAppTableRecord
  2
AcadAnnotative
 70
     0
  0
APPID
  5
135
330
9
100
AcDbSymbolTableRecord
100
AcDbRegAppTableRecord
  2
ACAD_DSTYLE_DIMJAG
 70
     0
  0
APPID
  5
136
330
9
100
AcDbSymbolTableRecord
100
AcDbRegAppTableRecord
  2
ACAD_DSTYLE_DIMTALN
 70
     0
  0
APPID
  5
165
330
9
100
AcDbSymbolTableRecord
100
AcDbRegAppTableRecord
  2
ACAD_MLEADERVER
 70
     0
  0
APPID
  5
217
330
9
100
AcDbSymbolTableRecord
100
AcDbRegAppTableRecord
  2
ACAD_NAV_VCDISPLAY
 70
     0
  0
ENDTAB
  0
TABLE
  2
DIMSTYLE
  5
A
330
0
100
AcDbSymbolTable
 70
     1
100
AcDbDimStyleTable
 71
     0
  0
DIMSTYLE
105
27
330
A
100
AcDbSymbolTableRecord
100
AcDbDimStyleTableRecord
  2
ISO-25
 70
     0
 41
2.5
 42
0.625
 43
3.75
 44
1.25
 73
     0
 74
     0
 77
     1
 78
     8
140
2.5
141
2.5
143
0.03937007874016
147
0.625
171
     3
172
     1
271
     2
272
     2
274
     3
278
    44
283
     0
284
     8
340
11
  0
ENDTAB
  0
TABLE
  2
BLOCK_RECORD
  5
1
330
0
100
AcDbSymbolTable
 70
     7
  0
BLOCK_RECORD
  5
1F
102
{ACAD_XDICTIONARY
360
1CE
102
}
330
1
100
AcDbSymbolTableRecord
100
AcDbBlockTableRecord
  2
*Model_Space
340
22
  0
BLOCK_RECORD
  5
D2
102
{ACAD_XDICTIONARY
360
36EA
102
}
330
1
100
AcDbSymbolTableRecord
100
AcDbBlockTableRecord
  2
*Paper_Space
340
D3
  0
BLOCK_RECORD
  5
D6
102
{ACAD_XDICTIONARY
360
36EC
102
}
330
1
100
AcDbSymbolTableRecord
100
AcDbBlockTableRecord
  2
*Paper_Space0
340
D7
  0
BLOCK_RECORD
  5
3577
330
1
100
AcDbSymbolTableRecord
100
AcDbBlockTableRecord
  2
SAE200_76_2-Front
340
0
102
{BLKREFS
331
36E0
102
}
  0
BLOCK_RECORD
  5
35BC
330
1
100
AcDbSymbolTableRecord
100
AcDbBlockTableRecord
  2
SAE200_76_2-Left
340
0
102
{BLKREFS
331
36E1
102
}
  0
BLOCK_RECORD
  5
35DA
330
1
100
AcDbSymbolTableRecord
100
AcDbBlockTableRecord
  2
SAE200_76_2-Right
340
0
102
{BLKREFS
331
36E2
102
}
  0
BLOCK_RECORD
  5
35F7
330
1
100
AcDbSymbolTableRecord
100
AcDbBlockTableRecord
  2
SAE200_76_2-Top
340
0
102
{BLKREFS
331
36E3
102
}
  0
BLOCK_RECORD
  5
3631
330
1
100
AcDbSymbolTableRecord
100
AcDbBlockTableRecord
  2
SAE200_76_2-Bottom
340
0
102
{BLKREFS
331
36E4
102
}
  0
BLOCK_RECORD
  5
366D
330
1
100
AcDbSymbolTableRecord
100
AcDbBlockTableRecord
  2
SAE200_76_2-ISO
340
0
102
{BLKREFS
331
36E5
102
}
  0
ENDTAB
  0
ENDSEC
  0
SECTION
  2
BLOCKS
  0
BLOCK
  5
20
330
1F
100
AcDbEntity
  8
0
100
AcDbBlockBegin
  2
*Model_Space
 70
     0
 10
0.0
 20
0.0
 30
0.0
  3
*Model_Space
  1

  0
ENDBLK
  5
21
330
1F
100
AcDbEntity
  8
0
100
AcDbBlockEnd
  0
BLOCK
  5
D4
330
D2
100
AcDbEntity
 67
     1
  8
0
100
AcDbBlockBegin
  2
*Paper_Space
 70
     0
 10
0.0
 20
0.0
 30
0.0
  3
*Paper_Space
  1

  0
ENDBLK
  5
D5
330
D2
100
AcDbEntity
 67
     1
  8
0
100
AcDbBlockEnd
  0
BLOCK
  5
D8
330
D6
100
AcDbEntity
 67
     1
  8
0
100
AcDbBlockBegin
  2
*Paper_Space0
 70
     0
 10
0.0
 20
0.0
 30
0.0
  3
*Paper_Space0
  1

  0
ENDBLK
  5
D9
330
D6
100
AcDbEntity
 67
     1
  8
0
100
AcDbBlockEnd
  0
BLOCK
  5
3578
330
3577
100
AcDbEntity
  8
0
100
AcDbBlockBegin
  2
SAE200_76_2-Front
 70
     0
 10
0.0
 20
0.0
 30
0.0
  3
SAE200_76_2-Front
  1

  0
LINE
  5
357A
330
3577
100
AcDbEntity
  8
0
100
AcDbLine
 10
40.0
 20
4.033763830000003
 30
0.0
 11
42.0
 21
4.033763830000003
 31
0.0
  0
SPLINE
  5
357B
330
3577
100
AcDbEntity
  8
0
100
AcDbSpline
210
0.0
220
0.0
230
1.0
 70
     8
 71
     3
 72
    14
 73
    10
 74
     0
 42
0.000000001
 43
0.0000000001
 40
-0.5485825423864249
 40
-0.5485825423864249
 40
-0.5485825423864249
 40
-0.5485825423864249
 40
-0.362347993698239
 40
-0.362347993698239
 40
-0.362347993698239
 40
-0.0780614795333602
 40
-0.0780614795333602
 40
-0.0780614795333602
 40
0.0
 40
0.0
 40
0.0
 40
0.0
 10
39.42864789500181
 20
-0.0631095007751563
 30
0.0
 10
39.78966275586559
 20
0.3883429364412974
 30
0.0
 10
40.12487191745955
 20
0.883067008008313
 30
0.0
 10
40.46107939606158
 20
1.38212273285515
 30
0.0
 10
40.97429916543941
 20
2.143929891570242
 30
0.0
 10
41.48932161283837
 20
2.919135851556378
 30
0.0
 10
42.08671902150029
 20
3.550843875397354
 30
0.0
 10
42.25075679067317
 20
3.724302905344592
 30
0.0
 10
42.42195152465166
 20
3.88553112044226
 30
0.0
 10
42.59587679528175
 20
4.033763830000028
 30
0.0
  0
SPLINE
  5
357C
330
3577
100
AcDbEntity
  8
0
100
AcDbSpline
210
0.0
220
0.0
230
1.0
 70
     8
 71
     3
 72
    22
 73
    18
 74
     0
 42
0.000000001
 43
0.0000000001
 40
0.0
 40
0.0
 40
0.0
 40
0.0
 40
0.0663152768974439
 40
0.0663152768974439
 40
0.1317374997661525
 40
0.1317374997661525
 40
0.1612517977899655
 40
0.1612517977899655
 40
0.1975109781519542
 40
0.1975109781519542
 40
0.2170807381940305
 40
0.2170807381940305
 40
0.2348924349671374
 40
0.2348924349671374
 40
0.252606209286909
 40
0.252606209286909
 40
0.2732732211166537
 40
0.2732732211166537
 40
0.2732732211166537
 40
0.2732732211166537
 10
38.4240522390179
 20
-1.181818762811021
 30
0.0
 10
38.25832580158519
 20
-1.308076595417344
 30
0.0
 10
38.08614502760887
 20
-1.420278408360677
 30
0.0
 10
37.72534466638945
 20
-1.618574019900232
 30
0.0
 10
37.53058043238914
 20
-1.707775157045428
 30
0.0
 10
37.23252825337327
 20
-1.812685811842571
 30
0.0
 10
37.13713511413938
 20
-1.841992113163385
 30
0.0
 10
36.92920061225838
 20
-1.89719872366522
 30
0.0
 10
36.81472436219907
 20
-1.921551449493623
 30
0.0
 10
36.65173675925003
 20
-1.949780090011136
 30
0.0
 10
36.60127223841939
 20
-1.957439677398357
 30
0.0
 10
36.49560581902597
 20
-1.971524473493261
 30
0.0
 10
36.43900138530589
 20
-1.978087224177438
 30
0.0
 10
36.32413247276865
 20
-1.988580792604688
 30
0.0
 10
36.26518770796962
 20
-1.992615046765383
 30
0.0
 10
36.1376050466618
 20
-1.998475399924871
 30
0.0
 10
36.06662894540514
 20
-1.999846867718738
 30
0.0
 10
36.00000079611095
 20
-2.000166591460143
 30
0.0
  0
LINE
  5
357D
330
3577
100
AcDbEntity
  8
0
100
AcDbLine
 10
37.25266351466454
 20
-1.798793867282694
 30
0.0
 11
37.25251543883844
 21
-1.798845575696276
 31
0.0
  0
SPLINE
  5
357E
330
3577
100
AcDbEntity
  8
0
100
AcDbSpline
210
0.0
220
0.0
230
1.0
 70
     8
 71
     3
 72
    16
 73
    12
 74
     0
 42
0.000000001
 43
0.0000000001
 40
0.1997164106916029
 40
0.1997164106916029
 40
0.1997164106916029
 40
0.1997164106916029
 40
0.2087440330129658
 40
0.2087440330129658
 40
0.239765805182032
 40
0.239765805182032
 40
0.2643994607516334
 40
0.2643994607516334
 40
0.2866850297220127
 40
0.2866850297220127
 40
0.2913537886904004
 40
0.2913537886904004
 40
0.2913537886904004
 40
0.2913537886904004
 10
36.86649653905877
 20
-1.909305412919249
 30
0.0
 10
36.83873775897868
 20
-1.91553360557296
 30
0.0
 10
36.81090106638113
 20
-1.921441048663927
 30
0.0
 10
36.68788304408027
 20
-1.945941640767672
 30
0.0
 10
36.5949665499671
 20
-1.9604380297179
 30
0.0
 10
36.43073737589141
 20
-1.980342887861218
 30
0.0
 10
36.35052350037323
 20
-1.987841235192614
 30
0.0
 10
36.19561125564519
 20
-1.997000404870953
 30
0.0
 10
36.12092343197438
 20
-1.999225675554456
 30
0.0
 10
36.03110620201338
 20
-2.000162066902996
 30
0.0
 10
36.01555293449101
 20
-2.000264662583582
 30
0.0
 10
36.00000115099986
 20
-2.000319282141313
 30
0.0
  0
SPLINE
  5
357F
330
3577
100
AcDbEntity
  8
0
100
AcDbSpline
210
0.0
220
0.0
230
1.0
 70
     8
 71
     3
 72
     8
 73
     4
 74
     0
 42
0.000000001
 43
0.0000000001
 40
0.4165892264695963
 40
0.4165892264695963
 40
0.4165892264695963
 40
0.4165892264695963
 40
0.417996719299633
 40
0.417996719299633
 40
0.417996719299633
 40
0.417996719299633
 10
39.99556508866288
 20
1.804884981005884
 30
0.0
 10
39.99556508868634
 20
1.8048849815379
 30
0.0
 10
39.99554918432129
 20
1.804522632840962
 30
0.0
 10
39.99551015955809
 20
1.803635148770852
 30
0.0
  0
SPLINE
  5
3580
330
3577
100
AcDbEntity
  8
0
100
AcDbSpline
210
0.0
220
0.0
230
1.0
 70
     8
 71
     3
 72
     8
 73
     4
 74
     0
 42
0.000000001
 43
0.0000000001
 40
0.0
 40
0.0
 40
0.0
 40
0.0
 40
0.0046129890053187
 40
0.0046129890053187
 40
0.0046129890053187
 40
0.0046129890053187
 10
38.00002152882978
 20
3.98763394761743
 30
0.0
 10
38.00000887499992
 20
4.002999449190451
 30
0.0
 10
37.99999999999997
 20
4.018405786502817
 30
0.0
 10
37.99999999999997
 20
4.033763830000006
 30
0.0
  0
SPLINE
  5
3581
330
3577
100
AcDbEntity
  8
0
100
AcDbSpline
210
0.0
220
0.0
230
1.0
 70
     8
 71
     3
 72
     8
 73
     4
 74
     0
 42
0.000000001
 43
0.0000000001
 40
0.0
 40
0.0
 40
0.0
 40
0.0
 40
0.0533738975394512
 40
0.0533738975394512
 40
0.0533738975394512
 40
0.0533738975394512
 10
37.9999660429873
 20
2.158979469741336
 30
0.0
 10
37.99966670473227
 20
2.336624334585764
 30
0.0
 10
37.99997947916163
 20
2.514805817848172
 30
0.0
 10
37.99999820889357
 20
2.692718444166357
 30
0.0
  0
SPLINE
  5
3582
330
3577
100
AcDbEntity
  8
0
100
AcDbSpline
210
0.0
220
0.0
230
1.0
 70
     8
 71
     3
 72
    10
 73
     6
 74
     0
 42
0.000000001
 43
0.0000000001
 40
0.0
 40
0.0
 40
0.0
 40
0.0
 40
0.0050495804515161
 40
0.0050495804515161
 40
0.0077829746992873
 40
0.0077829746992873
 40
0.0077829746992873
 40
0.0077829746992873
 10
35.99999493348131
 20
0.0001953624355125
 30
0.0
 10
36.00876432238669
 20
0.000503614349094
 30
0.0
 10
36.01513629391428
 20
0.0007805094419261
 30
0.0
 10
36.01982888174461
 20
0.0009938280546121
 30
0.0
 10
36.02059238362146
 20
0.0010317898574699
 30
0.0
 10
36.02059238353236
 20
0.0010317898530843
 30
0.0
  0
SPLINE
  5
3583
330
3577
100
AcDbEntity
  8
0
100
AcDbSpline
210
0.0
220
0.0
230
1.0
 70
     8
 71
     3
 72
    10
 73
     6
 74
     0
 42
0.000000001
 43
0.0000000001
 40
0.0026016530906426
 40
0.0026016530906426
 40
0.0026016530906426
 40
0.0026016530906426
 40
0.0080073084684886
 40
0.0080073084684886
 40
0.0087732387709384
 40
0.0087732387709384
 40
0.0087732387709384
 40
0.0087732387709384
 10
36.00498545156581
 20
0.0003765289665057
 30
0.0
 10
36.00817011539608
 20
0.0005982343034689
 30
0.0
 10
36.0105791687908
 20
0.0007746277026931
 30
0.0
 10
36.01119216093629
 20
0.0008197553273648
 30
0.0
 10
36.01123124804933
 20
0.0008226469530036
 30
0.0
 10
36.01123124577774
 20
0.000822646784978
 30
0.0
  0
SPLINE
  5
3584
330
3577
100
AcDbEntity
  8
0
100
AcDbSpline
210
0.0
220
0.0
230
1.0
 70
     8
 71
     3
 72
    18
 73
    14
 74
     0
 42
0.000000001
 43
0.0000000001
 40
0.0005256873332524
 40
0.0005256873332524
 40
0.0005256873332524
 40
0.0005256873332524
 40
0.001120762025882
 40
0.001120762025882
 40
0.0025490537237166
 40
0.0025490537237166
 40
0.0068310114203011
 40
0.0068310114203011
 40
0.0196760846809625
 40
0.0196760846809625
 40
0.0583479254271806
 40
0.0583479254271806
 40
0.0666623269992707
 40
0.0666623269992707
 40
0.0666623269992707
 40
0.0666623269992707
 10
36.00473755099852
 20
0.0003672521279906
 30
0.0
 10
36.00658861742399
 20
0.0005098608984886
 30
0.0
 10
36.00848833000179
 20
0.0006573050058152
 30
0.0
 10
36.0149405795304
 20
0.0011619918149241
 30
0.0
 10
36.01957146689708
 20
0.0015307870974611
 30
0.0
 10
36.03810189049786
 20
0.0030341699908498
 30
0.0
 10
36.05209306020539
 20
0.0042311151694451
 30
0.0
 10
36.10795268470596
 20
0.0092714999027376
 30
0.0
 10
36.14976490947892
 20
0.0136316446459618
 30
0.0
 10
36.31630069860815
 20
0.033665245469445
 30
0.0
 10
36.44082994487672
 20
0.0548981609321949
 30
0.0
 10
36.58187652869812
 20
0.0890007522913768
 30
0.0
 10
36.60648022740773
 20
0.0953551738820783
 30
0.0
 10
36.63023380573289
 20
0.101894273198838
 30
0.0
  0
SPLINE
  5
3585
330
3577
100
AcDbEntity
  8
0
100
AcDbSpline
210
0.0
220
0.0
230
1.0
 70
     8
 71
     3
 72
    14
 73
    10
 74
     0
 42
0.000000001
 43
0.0000000001
 40
-0.5478931144640346
 40
-0.5478931144640346
 40
-0.5478931144640346
 40
-0.5478931144640346
 40
-0.3511288258588771
 40
-0.3511288258588771
 40
-0.3511288258588771
 40
-0.0571430165433998
 40
-0.0571430165433998
 40
-0.0571430165433998
 40
0.0
 40
0.0
 40
0.0
 40
0.0
 10
-39.43374779588238
 20
-0.0563158844569283
 30
0.0
 10
-39.81385055279543
 20
0.4202318036767313
 30
0.0
 10
-40.16577110147273
 20
0.9444183287309463
 30
0.0
 10
-40.52409868271035
 20
1.470768132295777
 30
0.0
 10
-41.05947644214511
 20
2.25718813808535
 30
0.0
 10
-41.58645728333438
 20
3.063336455657753
 30
0.0
 10
-42.22135538549552
 20
3.690942749704305
 30
0.0
 10
-42.34476267797552
 20
3.812932708767121
 30
0.0
 10
-42.470604438601
 20
3.926996615554704
 30
0.0
 10
-42.59587679522851
 20
4.033763830015637
 30
0.0
  0
SPLINE
  5
3586
330
3577
100
AcDbEntity
  8
0
100
AcDbSpline
210
0.0
220
0.0
230
1.0
 70
     8
 71
     3
 72
    36
 73
    32
 74
     0
 42
0.000000001
 43
0.0000000001
 40
0.0000286112211719
 40
0.0000286112211719
 40
0.0000286112211719
 40
0.0000286112211719
 40
0.0365014375121341
 40
0.0365014375121341
 40
0.0685117289235904
 40
0.0685117289235904
 40
0.0868778833684747
 40
0.0868778833684747
 40
0.132913118734296
 40
0.132913118734296
 40
0.1615410426488207
 40
0.1615410426488207
 40
0.1902532120423713
 40
0.1902532120423713
 40
0.1998078065412916
 40
0.1998078065412916
 40
0.2031755643673094
 40
0.2031755643673094
 40
0.2048397884215404
 40
0.2048397884215404
 40
0.2059273910212704
 40
0.2059273910212704
 40
0.2070560745239129
 40
0.2070560745239129
 40
0.2078536348059458
 40
0.2078536348059458
 40
0.2088050321366468
 40
0.2088050321366468
 40
0.2113149395477317
 40
0.2113149395477317
 40
0.2132230857986659
 40
0.2132230857986659
 40
0.2132230857986659
 40
0.2132230857986659
 10
-37.62832114045957
 20
0.8387204243102024
 30
0.0
 10
-37.56062574455956
 20
0.7438004468440224
 30
0.0
 10
-37.48298480907087
 20
0.6530646007486234
 30
0.0
 10
-37.32736162309917
 20
0.5006522937853906
 30
0.0
 10
-37.24910711976575
 20
0.4354390992991774
 30
0.0
 10
-37.1282942634982
 20
0.3486122375183652
 30
0.0
 10
-37.08493666025727
 20
0.3202899676880534
 30
0.0
 10
-36.93876125382902
 20
0.2325070573631541
 30
0.0
 10
-36.83718476205988
 20
0.1840960167510084
 30
0.0
 10
-36.63400763961162
 20
0.1126759432165757
 30
0.0
 10
-36.54946522757978
 20
0.0886188643247609
 30
0.0
 10
-36.37464709029199
 20
0.0489557177991762
 30
0.0
 10
-36.28325369790954
 20
0.0330146414996075
 30
0.0
 10
-36.15984440416077
 20
0.0165277149133954
 30
0.0
 10
-36.12885429202274
 20
0.0127937180555305
 30
0.0
 10
-36.08647333655798
 20
0.0082006653084496
 30
0.0
 10
-36.07535158909187
 20
0.0070422763839561
 30
0.0
 10
-36.05866997583572
 20
0.0053740372591896
 30
0.0
 10
-36.05311314606266
 20
0.0048297369975092
 30
0.0
 10
-36.04405477062048
 20
0.0039604935831222
 30
0.0
 10
-36.04047945721232
 20
0.0036221996446747
 30
0.0
 10
-36.03353189380067
 20
0.0029732331623211
 30
0.0
 10
-36.03012019835037
 20
0.0026593106900375
 30
0.0
 10
-36.02508447657093
 20
0.0022009321652952
 30
0.0
 10
-36.02319648276726
 20
0.0020306492042786
 30
0.0
 10
-36.01955121530008
 20
0.0017038257290506
 30
0.0
 10
-36.01785729219395
 20
0.00155334249676
 30
0.0
 10
-36.01247459291242
 20
0.0010776312098481
 30
0.0
 10
-36.00986756961615
 20
0.0008519700192923
 30
0.0
 10
-36.00586518987237
 20
0.0005076210208111
 30
0.0
 10
-36.00432929037665
 20
0.0003766775232168
 30
0.0
 10
-36.00293126742557
 20
0.0002583778874081
 30
0.0
  0
SPLINE
  5
3587
330
3577
100
AcDbEntity
  8
0
100
AcDbSpline
210
0.0
220
0.0
230
1.0
 70
     8
 71
     3
 72
     8
 73
     4
 74
     0
 42
0.000000001
 43
0.0000000001
 40
0.0
 40
0.0
 40
0.0
 40
0.0
 40
0.0046521292195431
 40
0.0046521292195431
 40
0.0046521292195431
 40
0.0046521292195431
 10
-38.0000000000001
 20
4.033763829999799
 30
0.0
 10
-38.0000000000001
 20
4.018274806754802
 30
0.0
 10
-38.00000905235517
 20
4.002738540924562
 30
0.0
 10
-38.00002191577595
 20
3.987242542979277
 30
0.0
  0
SPLINE
  5
3588
330
3577
100
AcDbEntity
  8
0
100
AcDbSpline
210
0.0
220
0.0
230
1.0
 70
     8
 71
     3
 72
     8
 73
     4
 74
     0
 42
0.000000001
 43
0.0000000001
 40
0.0
 40
0.0
 40
0.0
 40
0.0
 40
0.015299178244717
 40
0.015299178244717
 40
0.015299178244717
 40
0.015299178244717
 10
-37.95114882091232
 20
1.560749501086104
 30
0.0
 10
-37.93996705892482
 20
1.510993907602021
 30
0.0
 10
-37.92685862499381
 20
1.461630954028563
 30
0.0
 10
-37.91188239200066
 20
1.412882557326709
 30
0.0
  0
SPLINE
  5
3589
330
3577
100
AcDbEntity
  8
0
100
AcDbSpline
210
0.0
220
0.0
230
1.0
 70
     8
 71
     3
 72
     8
 73
     4
 74
     0
 42
0.000000001
 43
0.0000000001
 40
0.0178772719627906
 40
0.0178772719627906
 40
0.0178772719627906
 40
0.0178772719627906
 40
0.0184640636872883
 40
0.0184640636872883
 40
0.0184640636872883
 40
0.0184640636872883
 10
-36.00354331465328
 20
0.0003102309749656
 30
0.0
 10
-36.00238410288874
 20
0.0002788482945601
 30
0.0
 10
-36.00119864823807
 20
0.0002473350259249
 30
0.0
 10
-35.99999510184259
 20
0.0002160105530895
 30
0.0
  0
SPLINE
  5
358A
330
3577
100
AcDbEntity
  8
0
100
AcDbSpline
210
0.0
220
0.0
230
1.0
 70
     8
 71
     3
 72
     8
 73
     4
 74
     0
 42
0.000000001
 43
0.0000000001
 40
0.0081020291668655
 40
0.0081020291668655
 40
0.0081020291668655
 40
0.0081020291668655
 40
0.0135651101684162
 40
0.0135651101684162
 40
0.0135651101684162
 40
0.0135651101684162
 10
-36.00844106546085
 20
0.0006136409266256
 30
0.0
 10
-36.00844106896632
 20
0.000613641182266
 30
0.0
 10
-36.00610125508247
 20
0.0004448285958693
 30
0.0
 10
-36.00339676068081
 20
0.0002650359476014
 30
0.0
  0
SPLINE
  5
358B
330
3577
100
AcDbEntity
  8
0
100
AcDbSpline
210
0.0
220
0.0
230
1.0
 70
     8
 71
     3
 72
    12
 73
     8
 74
     0
 42
0.000000001
 43
0.0000000001
 40
0.0077527405999147
 40
0.0077527405999147
 40
0.0077527405999147
 40
0.0077527405999147
 40
0.0087218399468528
 40
0.0087218399468528
 40
0.0122653176759514
 40
0.0122653176759514
 40
0.0149745332592288
 40
0.0149745332592288
 40
0.0149745332592288
 40
0.0149745332592288
 10
-36.01934175686136
 20
0.0006058950315506
 30
0.0
 10
-36.01934175685324
 20
0.000605895031291
 30
0.0
 10
-36.01919621988407
 20
0.000601232864074
 30
0.0
 10
-36.01787001029379
 20
0.0005614814292404
 30
0.0
 10
-36.01489013181315
 20
0.0004772861291526
 30
0.0
 10
-36.00771895435605
 20
0.0003304866575496
 30
0.0
 10
-36.0039800618296
 20
0.0002675313341372
 30
0.0
 10
-35.99999725541233
 20
0.0002202052181381
 30
0.0
  0
SPLINE
  5
358C
330
3577
100
AcDbEntity
  8
0
100
AcDbSpline
210
0.0
220
0.0
230
1.0
 70
     8
 71
     3
 72
    24
 73
    20
 74
     0
 42
0.000000001
 43
0.0000000001
 40
0.0
 40
0.0
 40
0.0
 40
0.0
 40
0.0021514435184276
 40
0.0021514435184276
 40
0.0048632491668879
 40
0.0048632491668879
 40
0.0123981213931619
 40
0.0123981213931619
 40
0.0350578019510319
 40
0.0350578019510319
 40
0.0548240508286897
 40
0.0548240508286897
 40
0.075914038309377
 40
0.075914038309377
 40
0.1033027018837873
 40
0.1033027018837873
 40
0.1242857462865638
 40
0.1242857462865638
 40
0.1266078836404315
 40
0.1266078836404315
 40
0.1266078836404315
 40
0.1266078836404315
 10
-36.00000053872221
 20
-2.00003324766222
 30
0.0
 10
-36.00634883977563
 20
-2.000031500664511
 30
0.0
 10
-36.01329887852843
 20
-2.000022187820222
 30
0.0
 10
-36.02907541836883
 20
-1.999977704120799
 30
0.0
 10
-36.03805929545291
 20
-1.999936502916616
 30
0.0
 10
-36.07198003283855
 20
-1.999708400490176
 30
0.0
 10
-36.09706889627426
 20
-1.999391498464873
 30
0.0
 10
-36.19733630198625
 20
-1.997331671968835
 30
0.0
 10
-36.27289025500389
 20
-1.993859121883945
 30
0.0
 10
-36.40919862177873
 20
-1.983142731195962
 30
0.0
 10
-36.47112061524642
 20
-1.976403669755366
 30
0.0
 10
-36.58609299078974
 20
-1.96123606485245
 30
0.0
 10
-36.63888443143417
 20
-1.952914827719243
 30
0.0
 10
-36.7668656101297
 20
-1.929907603171765
 30
0.0
 10
-36.84538126550045
 20
-1.913311314769563
 30
0.0
 10
-36.97651550212565
 20
-1.881012839096968
 30
0.0
 10
-37.03149417198832
 20
-1.865879239044497
 30
0.0
 10
-37.08175430304018
 20
-1.851096393685065
 30
0.0
 10
-37.08665617673484
 20
-1.849643234243641
 30
0.0
 10
-37.09143896409062
 20
-1.8482152990269
 30
0.0
  0
SPLINE
  5
358D
330
3577
100
AcDbEntity
  8
0
100
AcDbSpline
210
0.0
220
0.0
230
1.0
 70
     8
 71
     3
 72
    26
 73
    22
 74
     0
 42
0.000000001
 43
0.0000000001
 40
0.0
 40
0.0
 40
0.0
 40
0.0
 40
0.0155577580602911
 40
0.0155577580602911
 40
0.0213911346508047
 40
0.0213911346508047
 40
0.0257686830141595
 40
0.0257686830141595
 40
0.0274133682007969
 40
0.0274133682007969
 40
0.028194991588074
 40
0.028194991588074
 40
0.0285854455784525
 40
0.0285854455784525
 40
0.0289769780307566
 40
0.0289769780307566
 40
0.029368672898247
 40
0.029368672898247
 40
0.0301581897465299
 40
0.0301581897465299
 40
0.0303420764455207
 40
0.0303420764455207
 40
0.0303420764455207
 40
0.0303420764455207
 10
-39.73560184208544
 20
0.5698674260249335
 30
0.0
 10
-39.75414336708066
 20
0.61829865227638
 30
0.0
 10
-39.77174887085896
 20
0.6671046319353671
 30
0.0
 10
-39.79463271043658
 20
0.7346190272529639
 30
0.0
 10
-39.80073980135358
 20
0.7530778325368659
 30
0.0
 10
-39.81118303131685
 20
0.7854293244399955
 30
0.0
 10
-39.81559759659954
 20
0.7993666598460301
 30
0.0
 10
-39.82148723708583
 20
0.8183149714779071
 30
0.0
 10
-39.82308950660725
 20
0.8235080626608882
 30
0.0
 10
-39.82533043546396
 20
0.8308207418399305
 30
0.0
 10
-39.82603972564483
 20
0.8331434328680074
 30
0.0
 10
-39.82700444004144
 20
0.8363115207022044
 30
0.0
 10
-39.82731087213777
 20
0.8373194321983897
 30
0.0
 10
-39.82786509180039
 20
0.8391445306793606
 30
0.0
 10
-39.82811505111529
 20
0.8399688597511856
 30
0.0
 10
-39.8285313523131
 20
0.8413428806562725
 30
0.0
 10
-39.82870019966492
 20
0.8419008047211892
 30
0.0
 10
-39.82908831658455
 20
0.8431837834790481
 30
0.0
 10
-39.82919380927758
 20
0.8435331618518178
 30
0.0
 10
-39.82923232915749
 20
0.8436606428275609
 30
0.0
 10
-39.82923558504693
 20
0.8436714184819591
 30
0.0
 10
-39.82923558544666
 20
0.8436714198048884
 30
0.0
  0
ARC
  5
358E
330
3577
100
AcDbEntity
  8
0
100
AcDbCircle
 10
-35.99999999999998
 20
2.0
 30
0.0
 40
4.000000000000003
100
AcDbArc
 50
192.6896680595522
 51
269.9999999999999
  0
SPLINE
  5
358F
330
3577
100
AcDbEntity
  8
0
100
AcDbSpline
210
0.0
220
0.0
230
1.0
 70
     8
 71
     3
 72
     8
 73
     4
 74
     0
 42
0.000000001
 43
0.0000000001
 40
-1.0
 40
-1.0
 40
-1.0
 40
-1.0
 40
0.0
 40
0.0
 40
0.0
 40
0.0
 10
-39.90229668861827
 20
1.121318855329912
 30
0.0
 10
-39.96716576013226
 20
1.409407844718428
 30
0.0
 10
-39.99999999999999
 20
1.704698015167529
 30
0.0
 10
-39.99999999999999
 20
2.000000000000001
 30
0.0
  0
LINE
  5
3590
330
3577
100
AcDbEntity
  8
0
100
AcDbLine
 10
-37.95114834430913
 20
1.560659427664957
 30
0.0
 11
-39.90229668861827
 21
1.121318855329913
 31
0.0
  0
SPLINE
  5
3591
330
3577
100
AcDbEntity
  8
0
100
AcDbSpline
210
0.0
220
0.0
230
1.0
 70
     8
 71
     3
 72
     8
 73
     4
 74
     0
 42
0.000000001
 43
0.0000000001
 40
0.0
 40
0.0
 40
0.0
 40
0.0
 40
1.0
 40
1.0
 40
1.0
 40
1.0
 10
-37.99999999999998
 20
2.000000000000001
 30
0.0
 10
-37.99999999999998
 20
1.852349007583765
 30
0.0
 10
-37.98358288006612
 20
1.704703922359214
 30
0.0
 10
-37.95114834430913
 20
1.560659427664955
 30
0.0
  0
ARC
  5
3592
330
3577
100
AcDbEntity
  8
0
100
AcDbCircle
 10
-35.99999999999998
 20
2.0
 30
0.0
 40
2.000000000000002
100
AcDbArc
 50
192.6896680595522
 51
270.0
  0
SPLINE
  5
3593
330
3577
100
AcDbEntity
  8
0
100
AcDbSpline
210
0.0
220
0.0
230
1.0
 70
     8
 71
     3
 72
     8
 73
     4
 74
     0
 42
0.000000001
 43
0.0000000001
 40
0.0
 40
0.0
 40
0.0
 40
0.0
 40
1.0
 40
1.0
 40
1.0
 40
1.0
 10
39.99999999999999
 20
2.000000000000001
 30
0.0
 10
39.99999999999999
 20
1.704698015167529
 30
0.0
 10
39.96716576013226
 20
1.409407844718428
 30
0.0
 10
39.90229668861827
 20
1.121318855329912
 30
0.0
  0
ARC
  5
3594
330
3577
100
AcDbEntity
  8
0
100
AcDbCircle
 10
35.99999999999998
 20
2.0
 30
0.0
 40
4.000000000000003
100
AcDbArc
 50
270.0000000000001
 51
347.3103319404477
  0
LINE
  5
3595
330
3577
100
AcDbEntity
  8
0
100
AcDbLine
 10
42.59587679528181
 20
4.033763830000002
 30
0.0
 11
79.50000000000009
 21
34.99999999999998
 31
0.0
  0
LINE
  5
3596
330
3577
100
AcDbEntity
  8
0
100
AcDbLine
 10
39.99999999999999
 20
2.000000000000001
 30
0.0
 11
38.54647908947203
 21
2.000000000000001
 31
0.0
  0
LINE
  5
3597
330
3577
100
AcDbEntity
  8
0
100
AcDbLine
 10
38.54647908947203
 20
2.000000000000001
 30
0.0
 11
37.99999999999999
 21
2.000000000000001
 31
0.0
  0
SPLINE
  5
3598
330
3577
100
AcDbEntity
  8
0
100
AcDbSpline
210
0.0
220
0.0
230
1.0
 70
     8
 71
     3
 72
     8
 73
     4
 74
     0
 42
0.000000001
 43
0.0000000001
 40
-1.0
 40
-1.0
 40
-1.0
 40
-1.0
 40
0.0
 40
0.0
 40
0.0
 40
0.0
 10
37.95114834430913
 20
1.560659427664955
 30
0.0
 10
37.98358288006612
 20
1.704703922359214
 30
0.0
 10
37.99999999999998
 20
1.852349007583765
 30
0.0
 10
37.99999999999998
 20
2.000000000000001
 30
0.0
  0
LINE
  5
3599
330
3577
100
AcDbEntity
  8
0
100
AcDbLine
 10
39.90229668861827
 20
1.121318855329913
 30
0.0
 11
37.95114834430913
 21
1.560659427664957
 31
0.0
  0
LINE
  5
359A
330
3577
100
AcDbEntity
  8
0
100
AcDbLine
 10
37.99999999999999
 20
34.99999999999998
 30
0.0
 11
37.99999999999999
 21
61.99999999999997
 31
0.0
  0
LINE
  5
359B
330
3577
100
AcDbEntity
  8
0
100
AcDbLine
 10
40.0
 20
34.99999999999998
 30
0.0
 11
37.99999999999999
 21
34.99999999999998
 31
0.0
  0
LINE
  5
359C
330
3577
100
AcDbEntity
  8
0
100
AcDbLine
 10
40.0
 20
61.99999999999997
 30
0.0
 11
40.0
 21
34.99999999999998
 31
0.0
  0
LINE
  5
359D
330
3577
100
AcDbEntity
  8
0
100
AcDbLine
 10
37.99999999999999
 20
61.99999999999997
 30
0.0
 11
40.0
 21
61.99999999999997
 31
0.0
  0
LINE
  5
359E
330
3577
100
AcDbEntity
  8
0
100
AcDbLine
 10
37.99999999999999
 20
2.000000000000001
 30
0.0
 11
37.99999999999999
 21
34.99999999999998
 31
0.0
  0
LINE
  5
359F
330
3577
100
AcDbEntity
  8
0
100
AcDbLine
 10
40.0
 20
34.99999999999998
 30
0.0
 11
39.99999999999999
 21
2.000000000000001
 31
0.0
  0
LINE
  5
35A0
330
3577
100
AcDbEntity
  8
0
100
AcDbLine
 10
79.50000000000009
 20
34.99999999999998
 30
0.0
 11
79.50000000000001
 21
61.99999999999999
 31
0.0
  0
ARC
  5
35A1
330
3577
100
AcDbEntity
  8
0
100
AcDbCircle
 10
35.99999999999998
 20
2.0
 30
0.0
 40
2.000000000000002
100
AcDbArc
 50
270.0
 51
347.3103319404478
  0
LINE
  5
35A2
330
3577
100
AcDbEntity
  8
0
100
AcDbLine
 10
42.00000000000001
 20
61.99999999999999
 30
0.0
 11
40.0
 21
61.99999999999999
 31
0.0
  0
LINE
  5
35A3
330
3577
100
AcDbEntity
  8
0
100
AcDbLine
 10
79.50000000000001
 20
61.99999999999999
 30
0.0
 11
42.00000000000001
 21
61.99999999999999
 31
0.0
  0
CIRCLE
  5
35A4
330
3577
100
AcDbEntity
  8
0
100
AcDbCircle
 10
60.0
 20
41.99999999999999
 30
0.0
 40
5.5
  0
CIRCLE
  5
35A5
330
3577
100
AcDbEntity
  8
0
100
AcDbCircle
 10
71.0
 20
36.99999999999999
 30
0.0
 40
2.5
  0
CIRCLE
  5
35A6
330
3577
100
AcDbEntity
  8
0
100
AcDbCircle
 10
49.0
 20
26.99999999999999
 30
0.0
 40
2.5
  0
CIRCLE
  5
35A7
330
3577
100
AcDbEntity
  8
0
100
AcDbCircle
 10
49.0
 20
46.99999999999999
 30
0.0
 40
2.5
  0
CIRCLE
  5
35A8
330
3577
100
AcDbEntity
  8
0
100
AcDbCircle
 10
71.0
 20
56.99999999999999
 30
0.0
 40
2.5
  0
LINE
  5
35A9
330
3577
100
AcDbEntity
  8
0
100
AcDbLine
 10
-79.50000000000009
 20
34.99999999999998
 30
0.0
 11
-42.59587679528181
 21
4.033763830000003
 31
0.0
  0
LINE
  5
35AA
330
3577
100
AcDbEntity
  8
0
100
AcDbLine
 10
-39.99999999999999
 20
2.000000000000001
 30
0.0
 11
-38.54647908947203
 21
2.000000000000001
 31
0.0
  0
LINE
  5
35AB
330
3577
100
AcDbEntity
  8
0
100
AcDbLine
 10
-38.54647908947203
 20
2.000000000000001
 30
0.0
 11
-37.99999999999999
 21
2.000000000000001
 31
0.0
  0
LINE
  5
35AC
330
3577
100
AcDbEntity
  8
0
100
AcDbLine
 10
-37.99999999999999
 20
61.99999999999997
 30
0.0
 11
-37.99999999999999
 21
34.99999999999998
 31
0.0
  0
LINE
  5
35AD
330
3577
100
AcDbEntity
  8
0
100
AcDbLine
 10
-40.0
 20
61.99999999999997
 30
0.0
 11
-37.99999999999999
 21
61.99999999999997
 31
0.0
  0
LINE
  5
35AE
330
3577
100
AcDbEntity
  8
0
100
AcDbLine
 10
-40.0
 20
34.99999999999998
 30
0.0
 11
-40.0
 21
61.99999999999997
 31
0.0
  0
LINE
  5
35AF
330
3577
100
AcDbEntity
  8
0
100
AcDbLine
 10
-40.0
 20
34.99999999999998
 30
0.0
 11
-37.99999999999999
 21
34.99999999999998
 31
0.0
  0
LINE
  5
35B0
330
3577
100
AcDbEntity
  8
0
100
AcDbLine
 10
-37.99999999999999
 20
34.99999999999998
 30
0.0
 11
-37.99999999999999
 21
2.000000000000001
 31
0.0
  0
LINE
  5
35B1
330
3577
100
AcDbEntity
  8
0
100
AcDbLine
 10
-39.99999999999999
 20
2.000000000000001
 30
0.0
 11
-40.0
 21
34.99999999999998
 31
0.0
  0
LINE
  5
35B2
330
3577
100
AcDbEntity
  8
0
100
AcDbLine
 10
-35.99999999999998
 20
0.0
 30
0.0
 11
35.99999999999999
 21
0.0
 31
0.0
  0
LINE
  5
35B3
330
3577
100
AcDbEntity
  8
0
100
AcDbLine
 10
35.99999999999999
 20
-2.0
 30
0.0
 11
-35.99999999999998
 21
-2.000000000000003
 31
0.0
  0
CIRCLE
  5
35B4
330
3577
100
AcDbEntity
  8
0
100
AcDbCircle
 10
-60.0
 20
41.99999999999999
 30
0.0
 40
5.5
  0
CIRCLE
  5
35B5
330
3577
100
AcDbEntity
  8
0
100
AcDbCircle
 10
-71.0
 20
36.99999999999999
 30
0.0
 40
2.5
  0
CIRCLE
  5
35B6
330
3577
100
AcDbEntity
  8
0
100
AcDbCircle
 10
-71.0
 20
56.99999999999999
 30
0.0
 40
2.5
  0
CIRCLE
  5
35B7
330
3577
100
AcDbEntity
  8
0
100
AcDbCircle
 10
-49.0
 20
46.99999999999999
 30
0.0
 40
2.5
  0
CIRCLE
  5
35B8
330
3577
100
AcDbEntity
  8
0
100
AcDbCircle
 10
-49.0
 20
26.99999999999999
 30
0.0
 40
2.5
  0
LINE
  5
35B9
330
3577
100
AcDbEntity
  8
0
100
AcDbLine
 10
-79.50000000000001
 20
61.99999999999999
 30
0.0
 11
-42.00000000000001
 21
61.99999999999999
 31
0.0
  0
LINE
  5
35BA
330
3577
100
AcDbEntity
  8
0
100
AcDbLine
 10
-79.50000000000009
 20
34.99999999999998
 30
0.0
 11
-79.50000000000001
 21
61.99999999999999
 31
0.0
  0
LINE
  5
35BB
330
3577
100
AcDbEntity
  8
0
100
AcDbLine
 10
-42.00000000000001
 20
61.99999999999999
 30
0.0
 11
-40.0
 21
61.99999999999999
 31
0.0
  0
ENDBLK
  5
3579
330
3577
100
AcDbEntity
  8
0
100
AcDbBlockEnd
  0
BLOCK
  5
35BD
330
35BC
100
AcDbEntity
  8
0
100
AcDbBlockBegin
  2
SAE200_76_2-Left
 70
     0
 10
0.0
 20
0.0
 30
0.0
  3
SAE200_76_2-Left
  1

  0
SPLINE
  5
35BF
330
35BC
100
AcDbEntity
  8
0
100
AcDbSpline
210
0.0
220
0.0
230
1.0
 70
     8
 71
     3
 72
     8
 73
     4
 74
     0
 42
0.000000001
 43
0.0000000001
 40
0.9976586123505175
 40
0.9976586123505175
 40
0.9976586123505175
 40
0.9976586123505175
 40
1.0
 40
1.0
 40
1.0
 40
1.0
 10
1.999827372143828
 20
0.0000427682754666
 30
0.0
 10
1.999893963158123
 20
0.000014029899953
 30
0.0
 10
1.999951503737086
 20
-0.0000002621142105
 30
0.0
 10
2.000000000000043
 20
-0.0000000000054062
 30
0.0
  0
SPLINE
  5
35C0
330
35BC
100
AcDbEntity
  8
0
100
AcDbSpline
210
0.0
220
0.0
230
1.0
 70
     8
 71
     3
 72
    18
 73
    14
 74
     0
 42
0.000000001
 43
0.0000000001
 40
0.0008155289128651
 40
0.0008155289128651
 40
0.0008155289128651
 40
0.0008155289128651
 40
0.0246528512202443
 40
0.0246528512202443
 40
0.0696384637262456
 40
0.0696384637262456
 40
0.1370795348890265
 40
0.1370795348890265
 40
0.2318211018063993
 40
0.2318211018063993
 40
0.3481741721985989
 40
0.3481741721985989
 40
0.450502054464057
 40
0.450502054464057
 40
0.450502054464057
 40
0.450502054464057
 10
1.99997417235932
 20
-1.993656404110111
 30
0.0
 10
1.999809149735446
 20
-1.980414629846766
 30
0.0
 10
1.999448632348903
 20
-1.9567556406867
 30
0.0
 10
1.997923437418204
 20
-1.882120830408337
 30
0.0
 10
1.996368152378266
 20
-1.824585928753749
 30
0.0
 10
1.990086238709723
 20
-1.665622668550961
 30
0.0
 10
1.983738421118998
 20
-1.543975795593535
 30
0.0
 10
1.957316626457449
 20
-1.211292607083639
 30
0.0
 10
1.932311048104603
 20
-0.9798152601834354
 30
0.0
 10
1.836792796853522
 20
-0.431201826660009
 30
0.0
 10
1.755429355610332
 20
-0.1020357163417586
 30
0.0
 10
1.524447334243935
 20
0.5009838925805406
 30
0.0
 10
1.382506223987114
 20
0.7794149212046858
 30
0.0
 10
1.212176775630938
 20
1.037736313246723
 30
0.0
  0
LINE
  5
35C1
330
35BC
100
AcDbEntity
  8
0
100
AcDbLine
 10
2.000000000000001
 20
-2.0
 30
0.0
 11
2.000000000000001
 21
-1.987327792959914
 31
0.0
  0
SPLINE
  5
35C2
330
35BC
100
AcDbEntity
  8
0
100
AcDbSpline
210
0.0
220
0.0
230
1.0
 70
     8
 71
     3
 72
    17
 73
    13
 74
     0
 42
0.000000001
 43
0.0000000001
 40
-1.0
 40
-1.0
 40
-1.0
 40
-1.0
 40
-0.7874084979350692
 40
-0.7874084979350692
 40
-0.7874084979350692
 40
-0.3511288258588771
 40
-0.3511288258588771
 40
-0.3511288258588771
 40
-0.0571430165433998
 40
-0.0571430165433998
 40
-0.0571430165433998
 40
0.0
 40
0.0
 40
0.0
 40
0.0
 10
1.999999999999902
 20
-2.000000000000091
 30
0.0
 10
2.00081841777436
 20
-1.999171945323127
 30
0.0
 10
1.999024513947105
 20
-1.819557199722958
 30
0.0
 10
1.998785802416522
 20
-1.502788425648661
 30
0.0
 10
1.998295919296681
 20
-0.8527164541222447
 30
0.0
 10
2.001656293033308
 20
0.3037081880116932
 30
0.0
 10
1.996515219165462
 20
1.470768132295777
 30
0.0
 10
1.993050921242534
 20
2.25718813808535
 30
0.0
 10
1.998971037114626
 20
3.063336455657753
 30
0.0
 10
2.000340602077476
 20
3.690942749704305
 30
0.0
 10
2.000606809053628
 20
3.812932708767121
 30
0.0
 10
2.000127030147761
 20
3.926996615554704
 30
0.0
 10
1.999999999999969
 20
4.033763830015637
 30
0.0
  0
SPLINE
  5
35C3
330
35BC
100
AcDbEntity
  8
0
100
AcDbSpline
210
0.0
220
0.0
230
1.0
 70
     8
 71
     3
 72
    14
 73
    10
 74
     0
 42
0.000000001
 43
0.0000000001
 40
-0.5628183855080971
 40
-0.5628183855080971
 40
-0.5628183855080971
 40
-0.5628183855080971
 40
-0.4266457557441274
 40
-0.4266457557441274
 40
-0.4266457557441274
 40
-0.1335164768055025
 40
-0.1335164768055025
 40
-0.1335164768055025
 40
0.0
 40
0.0
 40
0.0
 40
0.0
 10
1.189245661570357
 20
1.074376930657374
 30
0.0
 10
1.055596729393587
 20
1.271430930894356
 30
0.0
 10
0.9171616462281416
 20
1.488507070917247
 30
0.0
 10
0.7836426964297056
 20
1.719560338447048
 30
0.0
 10
0.4962258084185312
 20
2.216932518339723
 30
0.0
 10
0.2295843526387597
 20
2.771827515440127
 30
0.0
 10
0.0933532998243058
 20
3.314272700186366
 30
0.0
 10
0.0313018723137205
 20
3.561349246717879
 30
0.0
 10
0.0004728133348831
 20
3.804359577784639
 30
0.0
 10
-0.0000000000001142
 20
4.033763829936338
 30
0.0
  0
LINE
  5
35C4
330
35BC
100
AcDbEntity
  8
0
100
AcDbLine
 10
4.000000000000003
 20
-2.0
 30
0.0
 11
2.000000000000001
 21
-2.0
 31
0.0
  0
SPLINE
  5
35C5
330
35BC
100
AcDbEntity
  8
0
100
AcDbSpline
210
0.0
220
0.0
230
1.0
 70
     8
 71
     3
 72
    20
 73
    16
 74
     0
 42
0.000000001
 43
0.0000000001
 40
0.0144538586426044
 40
0.0144538586426044
 40
0.0144538586426044
 40
0.0144538586426044
 40
0.0195831132572273
 40
0.0195831132572273
 40
0.0326173961764337
 40
0.0326173961764337
 40
0.0687998170505566
 40
0.0687998170505566
 40
0.1545604537193536
 40
0.1545604537193536
 40
0.2522286902175094
 40
0.2522286902175094
 40
0.3667472585523461
 40
0.3667472585523461
 40
0.4797656269547701
 40
0.4797656269547701
 40
0.4797656269547701
 40
0.4797656269547701
 10
2.000023015399735
 20
-1.99474438323171
 30
0.0
 10
2.000023015427905
 20
-1.994744386826329
 30
0.0
 10
2.000012857229844
 20
-1.993486845778769
 30
0.0
 10
1.999947120777365
 20
-1.986675998529184
 30
0.0
 10
1.999847288932943
 20
-1.97775723236349
 30
0.0
 10
1.999323894662721
 20
-1.940691581745038
 30
0.0
 10
1.998716580012025
 20
-1.908535786399293
 30
0.0
 10
1.994568917862969
 20
-1.763868200462308
 30
0.0
 10
1.988822106340755
 20
-1.620371173248463
 30
0.0
 10
1.961631842137205
 20
-1.254534796534308
 30
0.0
 10
1.937625381422088
 20
-1.01879391804416
 30
0.0
 10
1.845205199073053
 20
-0.4707332714544674
 30
0.0
 10
1.768228505097447
 20
-0.1478115657817203
 30
0.0
 10
1.536229313867269
 20
0.4806067155309432
 30
0.0
 10
1.379615259604142
 20
0.789409877529141
 30
0.0
 10
1.188820313758442
 20
1.072812276882378
 30
0.0
  0
SPLINE
  5
35C6
330
35BC
100
AcDbEntity
  8
0
100
AcDbSpline
210
0.0
220
0.0
230
1.0
 70
     8
 71
     3
 72
     8
 73
     4
 74
     0
 42
0.000000001
 43
0.0000000001
 40
0.0
 40
0.0
 40
0.0
 40
0.0
 40
0.0046067690459996
 40
0.0046067690459996
 40
0.0046067690459996
 40
0.0046067690459996
 10
2.000058409902826
 20
4.033766356909386
 30
0.0
 10
2.000067856707502
 20
4.03037737079038
 30
0.0
 10
2.000074457664428
 20
4.028818521369721
 30
0.0
 10
2.000074457664426
 20
4.028818521370255
 30
0.0
  0
SPLINE
  5
35C7
330
35BC
100
AcDbEntity
  8
0
100
AcDbSpline
210
0.0
220
0.0
230
1.0
 70
     8
 71
     3
 72
    20
 73
    16
 74
     0
 42
0.000000001
 43
0.0000000001
 40
0.0
 40
0.0
 40
0.0
 40
0.0
 40
0.006857608876785
 40
0.006857608876785
 40
0.0118589450450963
 40
0.0118589450450963
 40
0.0147578147574936
 40
0.0147578147574936
 40
0.0171927185200013
 40
0.0171927185200013
 40
0.0191020245676433
 40
0.0191020245676433
 40
0.020543714632575
 40
0.020543714632575
 40
0.0215081802736389
 40
0.0215081802736389
 40
0.0215081802736389
 40
0.0215081802736389
 10
2.000093350592827
 20
4.033764456613712
 30
0.0
 10
2.000309496086901
 20
4.011601834063267
 30
0.0
 10
2.000510014117209
 20
3.988976408104922
 30
0.0
 10
2.000799219741574
 20
3.951602592512677
 30
0.0
 10
2.00090479192018
 20
3.936292943669
 30
0.0
 10
2.001046373195462
 20
3.914657250926554
 30
0.0
 10
2.001093783983875
 20
3.907153595219001
 30
0.0
 10
2.001172150906084
 20
3.894730699594532
 30
0.0
 10
2.001204895921101
 20
3.889537498420331
 30
0.0
 10
2.001255404388607
 20
3.881729298675161
 30
0.0
 10
2.001275091186521
 20
3.878770167187031
 30
0.0
 10
2.001302035872128
 20
3.874859486174652
 30
0.0
 10
2.001311232133928
 20
3.873581987661869
 30
0.0
 10
2.001320442752508
 20
3.872337166488669
 30
0.0
 10
2.001322522830977
 20
3.872070308145435
 30
0.0
 10
2.001322522849019
 20
3.872070305839422
 30
0.0
  0
LINE
  5
35C8
330
35BC
100
AcDbEntity
  8
0
100
AcDbLine
 10
4.000000000000003
 20
-2.000000000000015
 30
0.0
 11
85.99999999999997
 21
-2.000000000000003
 31
0.0
  0
LINE
  5
35C9
330
35BC
100
AcDbEntity
  8
0
100
AcDbLine
 10
85.99999999999997
 20
-2.000000000000003
 30
0.0
 11
85.99999999999997
 21
1.121318855329913
 31
0.0
  0
SPLINE
  5
35CA
330
35BC
100
AcDbEntity
  8
0
100
AcDbSpline
210
0.0
220
0.0
230
1.0
 70
     8
 71
     3
 72
     8
 73
     4
 74
     0
 42
0.000000001
 43
0.0000000001
 40
-1.0
 40
-1.0
 40
-1.0
 40
-1.0
 40
0.0
 40
0.0
 40
0.0
 40
0.0
 10
85.99999999999997
 20
1.121318855329912
 30
0.0
 10
85.77595618520311
 20
1.409407844718428
 30
0.0
 10
85.5519123704061
 20
1.704698015167529
 30
0.0
 10
85.32786855560891
 20
2.000000000000001
 30
0.0
  0
LINE
  5
35CB
330
35BC
100
AcDbEntity
  8
0
100
AcDbLine
 10
85.99999999999997
 20
1.560659427664957
 30
0.0
 11
85.99999999999997
 21
1.121318855329913
 31
0.0
  0
SPLINE
  5
35CC
330
35BC
100
AcDbEntity
  8
0
100
AcDbSpline
210
0.0
220
0.0
230
1.0
 70
     8
 71
     3
 72
     8
 73
     4
 74
     0
 42
0.000000001
 43
0.0000000001
 40
0.0
 40
0.0
 40
0.0
 40
0.0
 40
1.0
 40
1.0
 40
1.0
 40
1.0
 10
85.32786855560891
 20
2.000000000000001
 30
0.0
 10
85.5519123704061
 20
1.852349007583765
 30
0.0
 10
85.77595618520311
 20
1.704703922359214
 30
0.0
 10
85.99999999999997
 20
1.560659427664955
 30
0.0
  0
LINE
  5
35CD
330
35BC
100
AcDbEntity
  8
0
100
AcDbLine
 10
0.0
 20
4.033763830000003
 30
0.0
 11
0.0
 21
34.99999999999998
 31
0.0
  0
LINE
  5
35CE
330
35BC
100
AcDbEntity
  8
0
100
AcDbLine
 10
2.000000000000001
 20
34.99999999999998
 30
0.0
 11
1.999999999999999
 21
4.033763830000003
 31
0.0
  0
LINE
  5
35CF
330
35BC
100
AcDbEntity
  8
0
100
AcDbLine
 10
0.0
 20
34.99999999999998
 30
0.0
 11
2.000000000000001
 21
34.99999999999998
 31
0.0
  0
LINE
  5
35D0
330
35BC
100
AcDbEntity
  8
0
100
AcDbLine
 10
45.99999999999998
 20
34.99999999999998
 30
0.0
 11
45.99999999999998
 21
61.99999999999997
 31
0.0
  0
LINE
  5
35D1
330
35BC
100
AcDbEntity
  8
0
100
AcDbLine
 10
85.32786855560889
 20
2.000000000000001
 30
0.0
 11
45.99999999999998
 21
34.99999999999998
 31
0.0
  0
LINE
  5
35D2
330
35BC
100
AcDbEntity
  8
0
100
AcDbLine
 10
0.0
 20
34.99999999999998
 30
0.0
 11
0.0
 21
61.99999999999999
 31
0.0
  0
LINE
  5
35D3
330
35BC
100
AcDbEntity
  8
0
100
AcDbLine
 10
2.000000000000001
 20
34.99999999999998
 30
0.0
 11
2.00000000000001
 21
61.99999999999999
 31
0.0
  0
LINE
  5
35D4
330
35BC
100
AcDbEntity
  8
0
100
AcDbLine
 10
4.000000000000003
 20
61.99999999999999
 30
0.0
 11
45.99999999999998
 21
61.99999999999997
 31
0.0
  0
LINE
  5
35D5
330
35BC
100
AcDbEntity
  8
0
100
AcDbLine
 10
0.0
 20
61.99999999999999
 30
0.0
 11
2.00000000000001
 21
61.99999999999999
 31
0.0
  0
LINE
  5
35D6
330
35BC
100
AcDbEntity
  8
0
100
AcDbLine
 10
2.000000000000001
 20
61.99999999999999
 30
0.0
 11
4.000000000000003
 21
61.99999999999999
 31
0.0
  0
CIRCLE
  5
35D7
330
35BC
100
AcDbEntity
  8
0
100
AcDbCircle
 10
38.49999999999996
 20
36.99999999999997
 30
0.0
 40
2.5
  0
CIRCLE
  5
35D8
330
35BC
100
AcDbEntity
  8
0
100
AcDbCircle
 10
38.49999999999997
 20
56.99999999999997
 30
0.0
 40
2.5
  0
CIRCLE
  5
35D9
330
35BC
100
AcDbEntity
  8
0
100
AcDbCircle
 10
38.49999999999996
 20
16.99999999999997
 30
0.0
 40
2.5
  0
ENDBLK
  5
35BE
330
35BC
100
AcDbEntity
  8
0
100
AcDbBlockEnd
  0
BLOCK
  5
35DB
330
35DA
100
AcDbEntity
  8
0
100
AcDbBlockBegin
  2
SAE200_76_2-Right
 70
     0
 10
0.0
 20
0.0
 30
0.0
  3
SAE200_76_2-Right
  1

  0
LINE
  5
35DD
330
35DA
100
AcDbEntity
  8
0
100
AcDbLine
 10
-2.000000000000001
 20
-2.0
 30
0.0
 11
-4.000000000000003
 21
-2.0
 31
0.0
  0
SPLINE
  5
35DE
330
35DA
100
AcDbEntity
  8
0
100
AcDbSpline
210
0.0
220
0.0
230
1.0
 70
     8
 71
     3
 72
    17
 73
    13
 74
     0
 42
0.000000001
 43
0.0000000001
 40
-1.0
 40
-1.0
 40
-1.0
 40
-1.0
 40
-0.7709507150581035
 40
-0.7709507150581035
 40
-0.7709507150581035
 40
-0.362347993698239
 40
-0.362347993698239
 40
-0.362347993698239
 40
-0.0780614795333602
 40
-0.0780614795333602
 40
-0.0780614795333602
 40
0.0
 40
0.0
 40
0.0
 40
0.0
 10
-1.999999999999984
 20
-2.00000000000001
 30
0.0
 10
-2.000933528117029
 20
-1.999996024071602
 30
0.0
 10
-2.000278432490861
 20
-1.788748497330734
 30
0.0
 10
-2.00023788650797
 20
-1.428878757304854
 30
0.0
 10
-2.000165556227813
 20
-0.786904454058536
 30
0.0
 10
-1.999512902665056
 20
0.2871834279893548
 30
0.0
 10
-1.999889171488252
 20
1.38212273285515
 30
0.0
 10
-2.000150961600122
 20
2.143929891570242
 30
0.0
 10
-2.000815016120613
 20
2.919135851556378
 30
0.0
 10
-2.000482543262381
 20
3.550843875397354
 30
0.0
 10
-2.0003912504225
 20
3.724302905344592
 30
0.0
 10
-1.999990252883905
 20
3.88553112044226
 30
0.0
 10
-1.999999999999991
 20
4.033763830000028
 30
0.0
  0
SPLINE
  5
35DF
330
35DA
100
AcDbEntity
  8
0
100
AcDbSpline
210
0.0
220
0.0
230
1.0
 70
     8
 71
     3
 72
    11
 73
     7
 74
     0
 42
0.000000001
 43
0.0000000001
 40
0.0
 40
0.0
 40
0.0
 40
0.0
 40
0.2758400376573816
 40
0.2758400376573816
 40
0.2758400376573816
 40
0.5628838244115924
 40
0.5628838244115924
 40
0.5628838244115924
 40
0.5628838244115924
 10
0.0000000000000191
 20
4.033763829999972
 30
0.0
 10
0.000001815442362
 20
3.557493422101077
 30
0.0
 10
-0.1486267931470264
 20
3.029414317771546
 30
0.0
 10
-0.3719618310772291
 20
2.52292946456082
 30
0.0
 10
-0.6043680312315639
 20
1.995872800002803
 30
0.0
 10
-0.9074294508039287
 20
1.489451923789749
 30
0.0
 10
-1.188353545058104
 20
1.073090207351436
 30
0.0
  0
LINE
  5
35E0
330
35DA
100
AcDbEntity
  8
0
100
AcDbLine
 10
-1.999999999999975
 20
-1.974020429539904
 30
0.0
 11
-1.999999999999975
 21
-1.993452830986163
 31
0.0
  0
LINE
  5
35E1
330
35DA
100
AcDbEntity
  8
0
100
AcDbLine
 10
-1.999999999999975
 20
-1.993651218451987
 30
0.0
 11
-1.999999999999975
 21
-2.0
 31
0.0
  0
SPLINE
  5
35E2
330
35DA
100
AcDbEntity
  8
0
100
AcDbSpline
210
0.0
220
0.0
230
1.0
 70
     8
 71
     3
 72
    14
 73
    10
 74
     0
 42
0.000000001
 43
0.0000000001
 40
0.0
 40
0.0
 40
0.0
 40
0.0
 40
0.1737634215875591
 40
0.1737634215875591
 40
0.3230070113718408
 40
0.3230070113718408
 40
0.4435476913246367
 40
0.4435476913246367
 40
0.453647678976967
 40
0.453647678976967
 40
0.453647678976967
 40
0.453647678976967
 10
-1.188820667909491
 20
1.072811750834433
 30
0.0
 10
-1.48216391763625
 20
0.6370863376547349
 30
0.0
 10
-1.689108553649584
 20
0.1352111892947301
 30
0.0
 10
-1.907750887867631
 20
-0.7466092675527517
 30
0.0
 10
-1.953060162826933
 20
-1.142717772703938
 30
0.0
 10
-1.9937174654934
 20
-1.683474584421164
 30
0.0
 10
-1.998110603721619
 20
-1.87177967409754
 30
0.0
 10
-1.999825880586655
 20
-1.982277621544796
 30
0.0
 10
-1.999926311271621
 20
-1.989710117511213
 30
0.0
 10
-1.999990384407411
 20
-1.994967993328962
 30
0.0
  0
SPLINE
  5
35E3
330
35DA
100
AcDbEntity
  8
0
100
AcDbSpline
210
0.0
220
0.0
230
1.0
 70
     8
 71
     3
 72
    11
 73
     7
 74
     0
 42
0.000000001
 43
0.0000000001
 40
-0.5713878778003556
 40
-0.5713878778003556
 40
-0.5713878778003556
 40
-0.5713878778003556
 40
-0.4266457557441274
 40
-0.4266457557441274
 40
-0.4266457557441274
 40
-0.3254977126180697
 40
-0.3254977126180697
 40
-0.3254977126180697
 40
-0.3254977126180697
 10
-1.214418399134713
 20
1.037413849365965
 30
0.0
 10
-1.07303994077724
 20
1.244164607744881
 30
0.0
 10
-0.9255641395423371
 20
1.473966636480241
 30
0.0
 10
-0.7836426964297056
 20
1.719560338447048
 30
0.0
 10
-0.6844657875621387
 20
1.891185032110007
 30
0.0
 10
-0.5877625764712582
 20
2.069658876416408
 30
0.0
 10
-0.4980375358769945
 20
2.252106969326385
 30
0.0
  0
SPLINE
  5
35E4
330
35DA
100
AcDbEntity
  8
0
100
AcDbSpline
210
0.0
220
0.0
230
1.0
 70
     8
 71
     3
 72
     8
 73
     4
 74
     0
 42
0.000000001
 43
0.0000000001
 40
-0.1082361149298996
 40
-0.1082361149298996
 40
-0.1082361149298996
 40
-0.1082361149298996
 40
0.0
 40
0.0
 40
0.0
 40
0.0
 10
-0.0614585028463621
 20
3.45411698886507
 30
0.0
 10
-0.0207156522970837
 20
3.65288589423243
 30
0.0
 10
-0.0003832896109628
 20
3.847795583953715
 30
0.0
 10
0.0000000000001142
 20
4.033763829936338
 30
0.0
  0
SPLINE
  5
35E5
330
35DA
100
AcDbEntity
  8
0
100
AcDbSpline
210
0.0
220
0.0
230
1.0
 70
     8
 71
     3
 72
    20
 73
    16
 74
     0
 42
0.000000001
 43
0.0000000001
 40
0.0049519578876486
 40
0.0049519578876486
 40
0.0049519578876486
 40
0.0049519578876486
 40
0.1737634463968752
 40
0.1737634463968752
 40
0.3230068930751888
 40
0.3230068930751888
 40
0.3824485071570603
 40
0.3824485071570603
 40
0.4275889739112217
 40
0.4275889739112217
 40
0.451475110332385
 40
0.451475110332385
 40
0.4638428385413037
 40
0.4638428385413037
 40
0.464486854761353
 40
0.464486854761353
 40
0.464486854761353
 40
0.464486854761353
 10
-1.213716049854704
 20
1.03542175252189
 30
0.0
 10
-1.494509222266529
 20
0.6089808488697696
 30
0.0
 10
-1.692460370855678
 20
0.1216926180060445
 30
0.0
 10
-1.907750733916773
 20
-0.7466085212873191
 30
0.0
 10
-1.953060370836102
 20
-1.142725989773075
 30
0.0
 10
-1.984509899037713
 20
-1.56101131438434
 30
0.0
 10
-1.990009600786488
 20
-1.666287377162658
 30
0.0
 10
-1.996315076142954
 20
-1.820468236350037
 30
0.0
 10
-1.997964898284408
 20
-1.87826892283495
 30
0.0
 10
-1.999330481584719
 20
-1.942192063014427
 30
0.0
 10
-1.999660139031567
 20
-1.963191823561009
 30
0.0
 10
-1.999953714829209
 20
-1.987014261593999
 30
0.0
 10
-2.00001648398734
 20
-1.993934862976023
 30
0.0
 10
-2.000022855549267
 20
-1.994724001115317
 30
0.0
 10
-2.000023015398257
 20
-1.9947443830432
 30
0.0
 10
-2.000023015399732
 20
-1.994744383231402
 30
0.0
  0
SPLINE
  5
35E6
330
35DA
100
AcDbEntity
  8
0
100
AcDbSpline
210
0.0
220
0.0
230
1.0
 70
     8
 71
     3
 72
     8
 73
     4
 74
     0
 42
0.000000001
 43
0.0000000001
 40
0.0
 40
0.0
 40
0.0
 40
0.0
 40
1.0
 40
1.0
 40
1.0
 40
1.0
 10
-85.32786855560891
 20
2.000000000000001
 30
0.0
 10
-85.5519123704061
 20
1.704698015167529
 30
0.0
 10
-85.77595618520311
 20
1.409407844718428
 30
0.0
 10
-85.99999999999997
 20
1.121318855329912
 30
0.0
  0
LINE
  5
35E7
330
35DA
100
AcDbEntity
  8
0
100
AcDbLine
 10
-85.99999999999997
 20
-2.000000000000003
 30
0.0
 11
-85.99999999999997
 21
1.121318855329913
 31
0.0
  0
LINE
  5
35E8
330
35DA
100
AcDbEntity
  8
0
100
AcDbLine
 10
-4.000000000000003
 20
-2.0
 30
0.0
 11
-86.00000000000001
 21
-2.0
 31
0.0
  0
LINE
  5
35E9
330
35DA
100
AcDbEntity
  8
0
100
AcDbLine
 10
0.0
 20
34.99999999999998
 30
0.0
 11
0.0
 21
4.033763830000003
 31
0.0
  0
LINE
  5
35EA
330
35DA
100
AcDbEntity
  8
0
100
AcDbLine
 10
-2.000000000000001
 20
34.99999999999998
 30
0.0
 11
0.0
 21
34.99999999999998
 31
0.0
  0
LINE
  5
35EB
330
35DA
100
AcDbEntity
  8
0
100
AcDbLine
 10
-1.999999999999999
 20
4.033763830000002
 30
0.0
 11
-2.000000000000001
 21
34.99999999999998
 31
0.0
  0
LINE
  5
35EC
330
35DA
100
AcDbEntity
  8
0
100
AcDbLine
 10
0.0
 20
34.99999999999998
 30
0.0
 11
0.0
 21
61.99999999999999
 31
0.0
  0
CIRCLE
  5
35ED
330
35DA
100
AcDbEntity
  8
0
100
AcDbCircle
 10
-38.5
 20
46.99999999999997
 30
0.0
 40
2.5
  0
CIRCLE
  5
35EE
330
35DA
100
AcDbEntity
  8
0
100
AcDbCircle
 10
-38.5
 20
26.99999999999997
 30
0.0
 40
2.5
  0
SPLINE
  5
35EF
330
35DA
100
AcDbEntity
  8
0
100
AcDbSpline
210
0.0
220
0.0
230
1.0
 70
     8
 71
     3
 72
     8
 73
     4
 74
     0
 42
0.000000001
 43
0.0000000001
 40
-1.0
 40
-1.0
 40
-1.0
 40
-1.0
 40
0.0
 40
0.0
 40
0.0
 40
0.0
 10
-85.99999999999997
 20
1.560659427664955
 30
0.0
 10
-85.77595618520311
 20
1.704703922359214
 30
0.0
 10
-85.5519123704061
 20
1.852349007583765
 30
0.0
 10
-85.32786855560891
 20
2.000000000000001
 30
0.0
  0
LINE
  5
35F0
330
35DA
100
AcDbEntity
  8
0
100
AcDbLine
 10
-85.99999999999997
 20
1.121318855329913
 30
0.0
 11
-85.99999999999997
 21
1.560659427664957
 31
0.0
  0
LINE
  5
35F1
330
35DA
100
AcDbEntity
  8
0
100
AcDbLine
 10
-45.99999999999998
 20
61.99999999999997
 30
0.0
 11
-45.99999999999998
 21
34.99999999999998
 31
0.0
  0
LINE
  5
35F2
330
35DA
100
AcDbEntity
  8
0
100
AcDbLine
 10
-45.99999999999998
 20
34.99999999999998
 30
0.0
 11
-85.32786855560889
 21
2.000000000000001
 31
0.0
  0
LINE
  5
35F3
330
35DA
100
AcDbEntity
  8
0
100
AcDbLine
 10
0.0
 20
61.99999999999999
 30
0.0
 11
-2.00000000000001
 21
61.99999999999999
 31
0.0
  0
LINE
  5
35F4
330
35DA
100
AcDbEntity
  8
0
100
AcDbLine
 10
-2.000000000000001
 20
34.99999999999998
 30
0.0
 11
-2.00000000000001
 21
61.99999999999999
 31
0.0
  0
LINE
  5
35F5
330
35DA
100
AcDbEntity
  8
0
100
AcDbLine
 10
-2.000000000000001
 20
61.99999999999999
 30
0.0
 11
-4.000000000000003
 21
61.99999999999999
 31
0.0
  0
LINE
  5
35F6
330
35DA
100
AcDbEntity
  8
0
100
AcDbLine
 10
-4.000000000000003
 20
61.99999999999999
 30
0.0
 11
-45.99999999999998
 21
61.99999999999997
 31
0.0
  0
ENDBLK
  5
35DC
330
35DA
100
AcDbEntity
  8
0
100
AcDbBlockEnd
  0
BLOCK
  5
35F8
330
35F7
100
AcDbEntity
  8
0
100
AcDbBlockBegin
  2
SAE200_76_2-Top
 70
     0
 10
0.0
 20
0.0
 30
0.0
  3
SAE200_76_2-Top
  1

  0
LINE
  5
35FA
330
35F7
100
AcDbEntity
  8
0
100
AcDbLine
 10
37.99999999999999
 20
-4.000000000000003
 30
0.0
 11
35.99999999999998
 21
-4.000000000000003
 31
0.0
  0
SPLINE
  5
35FB
330
35F7
100
AcDbEntity
  8
0
100
AcDbSpline
210
0.0
220
0.0
230
1.0
 70
     8
 71
     3
 72
    14
 73
    10
 74
     0
 42
0.000000001
 43
0.0000000001
 40
0.5785953995008044
 40
0.5785953995008044
 40
0.5785953995008044
 40
0.5785953995008044
 40
0.6379200188286909
 40
0.6379200188286909
 40
0.6379200188286909
 40
0.8806486445120622
 40
0.8806486445120622
 40
0.8806486445120622
 40
1.0
 40
1.0
 40
1.0
 40
1.0
 10
39.11013535697934
 20
-1.234269183438529
 30
0.0
 10
38.9842142011257
 20
-1.291770704871822
 30
0.0
 10
38.85637389347413
 20
-1.34810969592951
 30
0.0
 10
38.72622225561124
 20
-1.402466987603415
 30
0.0
 10
38.19370256063785
 20
-1.62487162927425
 30
0.0
 10
37.6143116038837
 20
-1.81900582942143
 30
0.0
 10
36.98093406774813
 20
-1.921270654019762
 30
0.0
 10
36.66949792270933
 20
-1.971554980395294
 30
0.0
 10
36.35975990856623
 20
-1.997527921221785
 30
0.0
 10
35.99999999999827
 20
-2.000000000000043
 30
0.0
  0
LINE
  5
35FC
330
35F7
100
AcDbEntity
  8
0
100
AcDbLine
 10
36.00000000000001
 20
-4.000000000000003
 30
0.0
 11
36.00000000000001
 21
-2.000000000000001
 31
0.0
  0
SPLINE
  5
35FD
330
35F7
100
AcDbEntity
  8
0
100
AcDbSpline
210
0.0
220
0.0
230
1.0
 70
     8
 71
     3
 72
    12
 73
     8
 74
     0
 42
0.000000001
 43
0.0000000001
 40
0.0
 40
0.0
 40
0.0
 40
0.0
 40
0.0448875045914085
 40
0.0448875045914085
 40
0.0844790086873313
 40
0.0844790086873313
 40
0.0922896180042732
 40
0.0922896180042732
 40
0.0922896180042732
 40
0.0922896180042732
 10
42.57793417043446
 20
-2.000020932320472
 30
0.0
 10
42.44271298927812
 20
-2.000150541245927
 30
0.0
 10
42.3177628685694
 20
-2.000216541583847
 30
0.0
 10
42.08894288783255
 20
-2.001983957259559
 30
0.0
 10
41.98056065794721
 20
-2.003394720396042
 30
0.0
 10
41.84121205845797
 20
-2.008527723796186
 30
0.0
 10
41.81798322931288
 20
-2.009477789178264
 30
0.0
 10
41.79427404589721
 20
-2.010603467185072
 30
0.0
  0
SPLINE
  5
35FE
330
35F7
100
AcDbEntity
  8
0
100
AcDbSpline
210
0.0
220
0.0
230
1.0
 70
     8
 71
     3
 72
    10
 73
     6
 74
     0
 42
0.000000001
 43
0.0000000001
 40
0.0248481795143023
 40
0.0248481795143023
 40
0.0248481795143023
 40
0.0248481795143023
 40
0.0255977132322652
 40
0.0255977132322652
 40
0.0282616125132144
 40
0.0282616125132144
 40
0.0282616125132144
 40
0.0282616125132144
 10
40.00038956555676
 20
-3.968622756495417
 30
0.0
 10
40.00036943601915
 20
-3.970759535704861
 30
0.0
 10
40.0003498104376
 20
-3.97293691670313
 30
0.0
 10
40.00026356539527
 20
-3.983009568471982
 30
0.0
 10
40.00020396884896
 20
-3.991404231644096
 30
0.0
 10
40.00015640430061
 20
-4.000000856987543
 30
0.0
  0
SPLINE
  5
35FF
330
35F7
100
AcDbEntity
  8
0
100
AcDbSpline
210
0.0
220
0.0
230
1.0
 70
     8
 71
     3
 72
    16
 73
    12
 74
     0
 42
0.000000001
 43
0.0000000001
 40
0.1106252406985485
 40
0.1106252406985485
 40
0.1106252406985485
 40
0.1106252406985485
 40
0.1108687602246946
 40
0.1108687602246946
 40
0.111975850044551
 40
0.111975850044551
 40
0.1130741682394463
 40
0.1130741682394463
 40
0.1146586281584049
 40
0.1146586281584049
 40
0.1164186105230877
 40
0.1164186105230877
 40
0.1164186105230877
 40
0.1164186105230877
 10
40.00081960955333
 20
-3.94274818644217
 30
0.0
 10
40.00080563352302
 20
-3.943463016257299
 30
0.0
 10
40.00079210435078
 20
-3.944161398615846
 30
0.0
 10
40.00072043063677
 20
-3.947902418062532
 30
0.0
 10
40.00067143817787
 20
-3.95059751286071
 30
0.0
 10
40.00059246543172
 20
-3.955068872721042
 30
0.0
 10
40.00056120091193
 20
-3.95691394124571
 30
0.0
 10
40.00049893383908
 20
-3.960660409697926
 30
0.0
 10
40.00047342991762
 20
-3.9622685015114
 30
0.0
 10
40.00043374829862
 20
-3.964798673584297
 30
0.0
 10
40.00042141814481
 20
-3.965612860737526
 30
0.0
 10
40.00042141815483
 20
-3.965612860080327
 30
0.0
  0
SPLINE
  5
3600
330
35F7
100
AcDbEntity
  8
0
100
AcDbSpline
210
0.0
220
0.0
230
1.0
 70
     8
 71
     3
 72
    12
 73
     8
 74
     0
 42
0.000000001
 43
0.0000000001
 40
0.1297082568931776
 40
0.1297082568931776
 40
0.1297082568931776
 40
0.1297082568931776
 40
0.1329730391431299
 40
0.1329730391431299
 40
0.1419633109937572
 40
0.1419633109937572
 40
0.1497547189009853
 40
0.1497547189009853
 40
0.1497547189009853
 40
0.1497547189009853
 10
40.00073081626297
 20
-3.947212186187262
 30
0.0
 10
40.0007308162678
 20
-3.947212185923531
 30
0.0
 10
40.00071843081189
 20
-3.947882420524095
 30
0.0
 10
40.00063361599702
 20
-3.952644834082108
 30
0.0
 10
40.00049473552838
 20
-3.960686209914738
 30
0.0
 10
40.00024706677549
 20
-3.979296170491225
 30
0.0
 10
40.00013651596285
 20
-3.989438056678815
 30
0.0
 10
40.00005597081568
 20
-4.000000408010423
 30
0.0
  0
SPLINE
  5
3601
330
35F7
100
AcDbEntity
  8
0
100
AcDbSpline
210
0.0
220
0.0
230
1.0
 70
     8
 71
     3
 72
    18
 73
    14
 74
     0
 42
0.000000001
 43
0.0000000001
 40
0.0
 40
0.0
 40
0.0
 40
0.0
 40
0.001463151531006
 40
0.001463151531006
 40
0.0032094313280419
 40
0.0032094313280419
 40
0.0071383410798302
 40
0.0071383410798302
 40
0.0170760077463495
 40
0.0170760077463495
 40
0.0213541188248747
 40
0.0213541188248747
 40
0.0236721396702286
 40
0.0236721396702286
 40
0.0236721396702286
 40
0.0236721396702286
 10
37.99999702484073
 20
-3.999998124442057
 30
0.0
 10
37.99999699428472
 20
-3.995806984422171
 30
0.0
 10
38.00000190525714
 20
-3.992078999126345
 30
0.0
 10
38.00001819067043
 20
-3.984646702082478
 30
0.0
 10
38.00003080316698
 20
-3.981013592671787
 30
0.0
 10
38.00007944213471
 20
-3.969931578072665
 30
0.0
 10
38.00012528232205
 20
-3.963277968093742
 30
0.0
 10
38.00031503537514
 20
-3.941148430848077
 30
0.0
 10
38.00051360538538
 20
-3.927378406428823
 30
0.0
 10
38.00076228121224
 20
-3.912757605391699
 30
0.0
 10
38.00083166731361
 20
-3.909065257974546
 30
0.0
 10
38.00089624420881
 20
-3.905708366862938
 30
0.0
 10
38.00091085158338
 20
-3.904969670376859
 30
0.0
 10
38.00091085158554
 20
-3.904969670267054
 30
0.0
  0
SPLINE
  5
3602
330
35F7
100
AcDbEntity
  8
0
100
AcDbSpline
210
0.0
220
0.0
230
1.0
 70
     8
 71
     3
 72
    22
 73
    18
 74
     0
 42
0.000000001
 43
0.0000000001
 40
0.0
 40
0.0
 40
0.0
 40
0.0
 40
0.0073936022450605
 40
0.0073936022450605
 40
0.0188459498617316
 40
0.0188459498617316
 40
0.0219182842863239
 40
0.0219182842863239
 40
0.0241193616051919
 40
0.0241193616051919
 40
0.0254134098601751
 40
0.0254134098601751
 40
0.0273741452872299
 40
0.0273741452872299
 40
0.0291310001016667
 40
0.0291310001016667
 40
0.0292103979765768
 40
0.0292103979765768
 40
0.0292103979765768
 40
0.0292103979765768
 10
37.99983897799849
 20
-4.000005109274195
 30
0.0
 10
37.99982219773134
 20
-3.975366708815608
 30
0.0
 10
37.99997266530189
 20
-3.950776698378813
 30
0.0
 10
38.00085126805711
 20
-3.888122056709286
 30
0.0
 10
38.00189547711145
 20
-3.848987667373649
 30
0.0
 10
38.00379768470009
 20
-3.801822635907656
 30
0.0
 10
38.00423416647952
 20
-3.791931046747718
 30
0.0
 10
38.00498441207396
 20
-3.776106262796938
 30
0.0
 10
38.00530195193205
 20
-3.769762107476632
 30
0.0
 10
38.00575610013869
 20
-3.761011397171665
 30
0.0
 10
38.0059146142963
 20
-3.758031699980209
 30
0.0
 10
38.00626295569592
 20
-3.751580767818937
 30
0.0
 10
38.00642894803915
 20
-3.748601669835557
 30
0.0
 10
38.00662216804596
 20
-3.745149340892787
 30
0.0
 10
38.006665679607
 20
-3.744381666846852
 30
0.0
 10
38.00666930738757
 20
-3.744317287080058
 30
0.0
 10
38.00666938526953
 20
-3.744315904721383
 30
0.0
 10
38.00666938526857
 20
-3.744315904738707
 30
0.0
  0
SPLINE
  5
3603
330
35F7
100
AcDbEntity
  8
0
100
AcDbSpline
210
0.0
220
0.0
230
1.0
 70
     8
 71
     3
 72
    18
 73
    14
 74
     0
 42
0.000000001
 43
0.0000000001
 40
0.0
 40
0.0
 40
0.0
 40
0.0
 40
0.0031877914433782
 40
0.0031877914433782
 40
0.0081832574188534
 40
0.0081832574188534
 40
0.0134878735497688
 40
0.0134878735497688
 40
0.0167085864183001
 40
0.0167085864183001
 40
0.0191255120904553
 40
0.0191255120904553
 40
0.0198579181224086
 40
0.0198579181224086
 40
0.0198579181224086
 40
0.0198579181224086
 10
41.80408130656726
 20
-0.0047609207117464
 30
0.0
 10
41.8143699535871
 20
-0.004246755451919
 30
0.0
 10
41.82434197565534
 20
-0.0037811877399119
 30
0.0
 10
41.85064434558273
 20
-0.0026461507170984
 30
0.0
 10
41.86758632798514
 20
-0.0020129045313057
 30
0.0
 10
41.90188572338128
 20
-0.0009986874174259
 30
0.0
 10
41.91946894128093
 20
-0.0006233156533332
 30
0.0
 10
41.94750674227505
 20
-0.0002368672780328
 30
0.0
 10
41.95807351092589
 20
-0.0001391669938046
 30
0.0
 10
41.97663983826918
 20
-0.0000349408081547
 30
0.0
 10
41.98463437627004
 20
-0.0000117182530156
 30
0.0
 10
41.99510889691068
 20
-0.0000011075025604
 30
0.0
 10
41.99755435582677
 20
0.000000000001313
 30
0.0
 10
41.99999999999999
 20
0.000000000001313
 30
0.0
  0
SPLINE
  5
3604
330
35F7
100
AcDbEntity
  8
0
100
AcDbSpline
210
0.0
220
0.0
230
1.0
 70
     8
 71
     3
 72
    11
 73
     7
 74
     0
 42
0.000000001
 43
0.0000000001
 40
-1.0
 40
-1.0
 40
-1.0
 40
-1.0
 40
-0.8532915114882547
 40
-0.8532915114882547
 40
-0.8532915114882547
 40
-0.5785233236906655
 40
-0.5785233236906655
 40
-0.5785233236906655
 40
-0.5785233236906655
 10
-36.00000000000028
 20
-2.000000000000015
 30
0.0
 10
-36.45097454300777
 20
-1.996935636615264
 30
0.0
 10
-36.81370294528481
 20
-1.95943624084734
 30
0.0
 10
-37.19280467279264
 20
-1.885008726444775
 30
0.0
 10
-37.90281876751163
 20
-1.745614520546221
 30
0.0
 10
-38.52816203324132
 20
-1.502469299895307
 30
0.0
 10
-39.11151847312207
 20
-1.235281424408402
 30
0.0
  0
LINE
  5
3605
330
35F7
100
AcDbEntity
  8
0
100
AcDbLine
 10
-36.00000000000001
 20
-2.000000000000001
 30
0.0
 11
-36.00000000000001
 21
-3.897277090693194
 31
0.0
  0
SPLINE
  5
3606
330
35F7
100
AcDbEntity
  8
0
100
AcDbSpline
210
0.0
220
0.0
230
1.0
 70
     8
 71
     3
 72
    22
 73
    18
 74
     0
 42
0.000000001
 43
0.0000000001
 40
0.0
 40
0.0
 40
0.0
 40
0.0
 40
0.063569703236528
 40
0.063569703236528
 40
0.0700187439033286
 40
0.0700187439033286
 40
0.0748554267381062
 40
0.0748554267381062
 40
0.0766691466673406
 40
0.0766691466673406
 40
0.0829975004313055
 40
0.0829975004313055
 40
0.1019873000093717
 40
0.1019873000093717
 40
0.1590862723105793
 40
0.1590862723105793
 40
0.2064693725930948
 40
0.2064693725930948
 40
0.2064693725930948
 40
0.2064693725930948
 10
-41.69315725905296
 20
-0.0117834454646608
 30
0.0
 10
-41.48219174016039
 20
-0.0279912338998855
 30
0.0
 10
-41.27120861340602
 20
-0.0612376273071171
 30
0.0
 10
-41.04431590418674
 20
-0.1157826085918789
 30
0.0
 10
-41.02345582322337
 20
-0.1209752511605511
 30
0.0
 10
-40.98702659832394
 20
-0.1303555531148113
 30
0.0
 10
-40.97143772372891
 20
-0.1344701033422413
 30
0.0
 10
-40.95003842715278
 20
-0.1402567562392371
 30
0.0
 10
-40.9442058810653
 20
-0.1418481401543922
 30
0.0
 10
-40.91803903192157
 20
-0.1490513868071656
 30
0.0
 10
-40.8977446562579
 20
-0.154811043533693
 30
0.0
 10
-40.81674198474838
 20
-0.1784941182188374
 30
0.0
 10
-40.75639097571339
 20
-0.1977055219257222
 30
0.0
 10
-40.51660562805463
 20
-0.2803540082347771
 30
0.0
 10
-40.34065721017184
 20
-0.3554414724114338
 30
0.0
 10
-40.03090719934036
 20
-0.5146564302949788
 30
0.0
 10
-39.89448001955842
 20
-0.5953367669492432
 30
0.0
 10
-39.76353073420296
 20
-0.6836458041462667
 30
0.0
  0
SPLINE
  5
3607
330
35F7
100
AcDbEntity
  8
0
100
AcDbSpline
210
0.0
220
0.0
230
1.0
 70
     8
 71
     3
 72
    10
 73
     6
 74
     0
 42
0.000000001
 43
0.0000000001
 40
0.0
 40
0.0
 40
0.0
 40
0.0
 40
0.0051994562805935
 40
0.0051994562805935
 40
0.0107786689102193
 40
0.0107786689102193
 40
0.0107786689102193
 40
0.0107786689102193
 10
-41.90587170316933
 20
-0.0010692852450196
 30
0.0
 10
-41.8890050510426
 20
-0.0014576577801162
 30
0.0
 10
-41.87183978385088
 20
-0.0019671998338015
 30
0.0
 10
-41.83598044148635
 20
-0.0032915232689147
 30
0.0
 10
-41.81741090036206
 20
-0.0041195381972374
 30
0.0
 10
-41.79940051719085
 20
-0.0050309900542426
 30
0.0
  0
SPLINE
  5
3608
330
35F7
100
AcDbEntity
  8
0
100
AcDbSpline
210
0.0
220
0.0
230
1.0
 70
     8
 71
     3
 72
    30
 73
    26
 74
     0
 42
0.000000001
 43
0.0000000001
 40
0.1667418957326209
 40
0.1667418957326209
 40
0.1667418957326209
 40
0.1667418957326209
 40
0.1832627450459995
 40
0.1832627450459995
 40
0.2103241585793157
 40
0.2103241585793157
 40
0.2177870073374436
 40
0.2177870073374436
 40
0.2253810427738798
 40
0.2253810427738798
 40
0.2324866574889248
 40
0.2324866574889248
 40
0.2377374275323695
 40
0.2377374275323695
 40
0.2406943090586867
 40
0.2406943090586867
 40
0.2416156685041182
 40
0.2416156685041182
 40
0.2424536592328185
 40
0.2424536592328185
 40
0.2435811385952929
 40
0.2435811385952929
 40
0.2445072185265409
 40
0.2445072185265409
 40
0.2458827910090497
 40
0.2458827910090497
 40
0.2458827910090497
 40
0.2458827910090497
 10
-38.05717486744878
 20
-3.326111380275809
 30
0.0
 10
-38.0475156194965
 20
-3.380282837983423
 30
0.0
 10
-38.03909594341848
 20
-3.4346049079247
 30
0.0
 10
-38.0202443680726
 20
-3.577668328360117
 30
0.0
 10
-38.01185221226633
 20
-3.668884216329374
 30
0.0
 10
-38.00556156436224
 20
-3.776280444449483
 30
0.0
 10
-38.00445594690303
 20
-3.799067910614373
 30
0.0
 10
-38.00282960212781
 20
-3.838068891735027
 30
0.0
 10
-38.00230267530026
 20
-3.853978452225458
 30
0.0
 10
-38.00153791905189
 20
-3.879793255034579
 30
0.0
 10
-38.00126348543695
 20
-3.890714390587364
 30
0.0
 10
-38.00082499316838
 20
-3.911327981020728
 30
0.0
 10
-38.00065360582058
 20
-3.920513660573351
 30
0.0
 10
-38.00040543974247
 20
-3.937409692115787
 30
0.0
 10
-38.00031923296385
 20
-3.944052889914615
 30
0.0
 10
-38.00021503794897
 20
-3.954352423630824
 30
0.0
 10
-38.00019081389103
 20
-3.956940465562599
 30
0.0
 10
-38.00014681644421
 20
-3.962162448813763
 30
0.0
 10
-38.00012661478366
 20
-3.964802997170767
 30
0.0
 10
-38.000083646531
 20
-3.971179560377543
 30
0.0
 10
-38.00006201839062
 20
-3.975074751051513
 30
0.0
 10
-38.00003255936132
 20
-3.981839373620672
 30
0.0
 10
-38.00002249335863
 20
-3.984830278869592
 30
0.0
 10
-38.00000463904666
 20
-3.991960792985245
 30
0.0
 10
-37.99999997116882
 20
-3.996020181360592
 30
0.0
 10
-37.99999996884756
 20
-3.999999658314424
 30
0.0
  0
SPLINE
  5
3609
330
35F7
100
AcDbEntity
  8
0
100
AcDbSpline
210
0.0
220
0.0
230
1.0
 70
     8
 71
     3
 72
    22
 73
    18
 74
     0
 42
0.000000001
 43
0.0000000001
 40
0.010501380051042
 40
0.010501380051042
 40
0.010501380051042
 40
0.010501380051042
 40
0.0109501628720517
 40
0.0109501628720517
 40
0.0114758618968496
 40
0.0114758618968496
 40
0.0120274340219532
 40
0.0120274340219532
 40
0.0127424896005227
 40
0.0127424896005227
 40
0.0138087671377133
 40
0.0138087671377133
 40
0.0156250655496439
 40
0.0156250655496439
 40
0.0192221472140876
 40
0.0192221472140876
 40
0.0205283622176639
 40
0.0205283622176639
 40
0.0205283622176639
 40
0.0205283622176639
 10
-38.00079812789236
 20
-3.91166626571282
 30
0.0
 10
-38.00079812816623
 20
-3.9116662521686
 30
0.0
 10
-38.00079389621495
 20
-3.911874741717491
 30
0.0
 10
-38.00077583744582
 20
-3.912762170086821
 30
0.0
 10
-38.00076024336716
 20
-3.913527933096534
 30
0.0
 10
-38.00072062334296
 20
-3.915497274397756
 30
0.0
 10
-38.00069598851203
 20
-3.916733154532129
 30
0.0
 10
-38.00063536379672
 20
-3.919839636919871
 30
0.0
 10
-38.00059774331553
 20
-3.921812692526943
 30
0.0
 10
-38.00050353937776
 20
-3.926936529353424
 30
0.0
 10
-38.00044601907656
 20
-3.930228156275728
 30
0.0
 10
-38.00029835546354
 20
-3.939279518304389
 30
0.0
 10
-38.00021258842972
 20
-3.945213214037451
 30
0.0
 10
-37.99999419872591
 20
-3.962963212452145
 30
0.0
 10
-37.99989612226913
 20
-3.974968173288274
 30
0.0
 10
-37.99983774959398
 20
-3.991292486890996
 30
0.0
 10
-37.99982936629309
 20
-3.995644623815004
 30
0.0
 10
-37.99982836075409
 20
-3.999997496494465
 30
0.0
  0
SPLINE
  5
360A
330
35F7
100
AcDbEntity
  8
0
100
AcDbSpline
210
0.0
220
0.0
230
1.0
 70
     8
 71
     3
 72
     8
 73
     4
 74
     0
 42
0.000000001
 43
0.0000000001
 40
0.0
 40
0.0
 40
0.0
 40
0.0
 40
0.0045712662951152
 40
0.0045712662951152
 40
0.0045712662951152
 40
0.0045712662951152
 10
-40.00003998730012
 20
-3.999999750976534
 30
0.0
 10
-40.0000294696794
 20
-3.988966816502459
 30
0.0
 10
-40.00010140341359
 20
-3.979165336345915
 30
0.0
 10
-40.0002204683196
 20
-3.970269784659027
 30
0.0
  0
SPLINE
  5
360B
330
35F7
100
AcDbEntity
  8
0
100
AcDbSpline
210
0.0
220
0.0
230
1.0
 70
     8
 71
     3
 72
    38
 73
    34
 74
     0
 42
0.000000001
 43
0.0000000001
 40
0.1426793892224515
 40
0.1426793892224515
 40
0.1426793892224515
 40
0.1426793892224515
 40
0.1428724404285874
 40
0.1428724404285874
 40
0.1433011039754218
 40
0.1433011039754218
 40
0.1441525244153757
 40
0.1441525244153757
 40
0.1450092647570655
 40
0.1450092647570655
 40
0.1472562359193555
 40
0.1472562359193555
 40
0.1530221441617093
 40
0.1530221441617093
 40
0.1703124338880955
 40
0.1703124338880955
 40
0.2226452134513684
 40
0.2226452134513684
 40
0.2530128085426256
 40
0.2530128085426256
 40
0.2739641066107791
 40
0.2739641066107791
 40
0.2848470547020218
 40
0.2848470547020218
 40
0.3000856580042142
 40
0.3000856580042142
 40
0.3109365245917204
 40
0.3109365245917204
 40
0.3397520710545778
 40
0.3397520710545778
 40
0.3686425678448755
 40
0.3686425678448755
 40
0.3746002054612687
 40
0.3746002054612687
 40
0.3746002054612687
 40
0.3746002054612687
 10
-40.60680266604337
 20
-2.565382351284951
 30
0.0
 10
-40.60680266598795
 20
-2.565382351338796
 30
0.0
 10
-40.60686684338936
 20
-2.56531998532799
 30
0.0
 10
-40.60724579428875
 20
-2.564951866252205
 30
0.0
 10
-40.60777431659996
 20
-2.564438614482082
 30
0.0
 10
-40.60963707265116
 20
-2.562632693586513
 30
0.0
 10
-40.61127336956412
 20
-2.561050012060864
 30
0.0
 10
-40.6146485223978
 20
-2.557798552613041
 30
0.0
 10
-40.61644249519567
 20
-2.556076226323027
 30
0.0
 10
-40.62306789153219
 20
-2.549740511053444
 30
0.0
 10
-40.62813048434406
 20
-2.544946267999594
 30
0.0
 10
-40.64638756215651
 20
-2.527843959971869
 30
0.0
 10
-40.66004731308779
 20
-2.515386585635597
 30
0.0
 10
-40.71539255297112
 20
-2.466324907904397
 30
0.0
 10
-40.7589112104278
 20
-2.430864154783565
 30
0.0
 10
-40.93886665236239
 20
-2.296480471717359
 30
0.0
 10
-41.08508938209229
 20
-2.214359356354494
 30
0.0
 10
-41.32242852912056
 20
-2.117934410365097
 30
0.0
 10
-41.41121842926451
 20
-2.08914144556049
 30
0.0
 10
-41.57089181772855
 20
-2.050340797666106
 30
0.0
 10
-41.64016817971236
 20
-2.037141857099563
 30
0.0
 10
-41.74524061209898
 20
-2.022337113498891
 30
0.0
 10
-41.78160397006148
 20
-2.018143913660942
 30
0.0
 10
-41.86595243529514
 20
-2.010331465210765
 30
0.0
 10
-41.9132851986752
 20
-2.00751047559703
 30
0.0
 10
-41.98827488756658
 20
-2.004408001819292
 30
0.0
 10
-42.01802978743898
 20
-2.003598674025932
 30
0.0
 10
-42.12339381697622
 20
-2.001523907124174
 30
0.0
 10
-42.19495665425026
 20
-2.00149698599705
 30
0.0
 10
-42.36173808685564
 20
-2.000673583712293
 30
0.0
 10
-42.44753811687927
 20
-2.000226160342984
 30
0.0
 10
-42.54435509206637
 20
-2.000067129472814
 30
0.0
 10
-42.56088002437163
 20
-2.000046602429935
 30
0.0
 10
-42.57744948843214
 20
-2.000027009229703
 30
0.0
  0
SPLINE
  5
360C
330
35F7
100
AcDbEntity
  8
0
100
AcDbSpline
210
0.0
220
0.0
230
1.0
 70
     8
 71
     3
 72
    30
 73
    26
 74
     0
 42
0.000000001
 43
0.0000000001
 40
0.0080567057141151
 40
0.0080567057141151
 40
0.0080567057141151
 40
0.0080567057141151
 40
0.0083579353764877
 40
0.0083579353764877
 40
0.0138035606500635
 40
0.0138035606500635
 40
0.0291927542616544
 40
0.0291927542616544
 40
0.0435029674050513
 40
0.0435029674050513
 40
0.0866938543084787
 40
0.0866938543084787
 40
0.098936499744457
 40
0.098936499744457
 40
0.1040494072108386
 40
0.1040494072108386
 40
0.1048937216092228
 40
0.1048937216092228
 40
0.1053636159441109
 40
0.1053636159441109
 40
0.1058370943782547
 40
0.1058370943782547
 40
0.1060619439326772
 40
0.1060619439326772
 40
0.1062181343917173
 40
0.1062181343917173
 40
0.1062181343917173
 40
0.1062181343917173
 10
-40.00664516552633
 20
-3.837100032214407
 30
0.0
 10
-40.0067254620277
 20
-3.836122237487754
 30
0.0
 10
-40.00680655093167
 20
-3.835143086979408
 30
0.0
 10
-40.00836726342391
 20
-3.816466958508009
 30
0.0
 10
-40.0100671374696
 20
-3.798850537351333
 30
0.0
 10
-40.0175883402924
 20
-3.73057298789832
 30
0.0
 10
-40.02522612489539
 20
-3.679304839489133
 30
0.0
 10
-40.04348463229603
 20
-3.582565309908249
 30
0.0
 10
-40.05392135933656
 20
-3.536406129960166
 30
0.0
 10
-40.10220665679887
 20
-3.353121623187726
 30
0.0
 10
-40.15388314701174
 20
-3.217507423216448
 30
0.0
 10
-40.23804614467002
 20
-3.053010381825651
 30
0.0
 10
-40.25790378708752
 20
-3.01699799434316
 30
0.0
 10
-40.28689142373074
 20
-2.96798034825888
 30
0.0
 10
-40.29573142869944
 20
-2.953473593314536
 30
0.0
 10
-40.30536441215615
 20
-2.938067877501176
 30
0.0
 10
-40.30671280635291
 20
-2.935921102358325
 30
0.0
 10
-40.30869356004564
 20
-2.93277971570512
 30
0.0
 10
-40.30938181508481
 20
-2.931690743482842
 30
0.0
 10
-40.31064750948402
 20
-2.92969187089878
 30
0.0
 10
-40.31124083320764
 20
-2.928757044737156
 30
0.0
 10
-40.31185607449394
 20
-2.927788733576279
 30
0.0
 10
-40.31201482042898
 20
-2.927539082090548
 30
0.0
 10
-40.31217410235949
 20
-2.927288628833593
 30
0.0
 10
-40.31220911295584
 20
-2.92723359534383
 30
0.0
 10
-40.31220912255534
 20
-2.927233580252944
 30
0.0
  0
SPLINE
  5
360D
330
35F7
100
AcDbEntity
  8
0
100
AcDbSpline
210
0.0
220
0.0
230
1.0
 70
     8
 71
     3
 72
     8
 73
     4
 74
     0
 42
0.000000001
 43
0.0000000001
 40
-1.0
 40
-1.0
 40
-1.0
 40
-1.0
 40
0.0
 40
0.0
 40
0.0
 40
0.0
 10
-39.90229668861827
 20
-85.99999999999997
 30
0.0
 10
-39.96716576013226
 20
-85.77595618520311
 30
0.0
 10
-39.99999999999999
 20
-85.5519123704061
 30
0.0
 10
-39.99999999999999
 20
-85.32786855560891
 30
0.0
  0
LINE
  5
360E
330
35F7
100
AcDbEntity
  8
0
100
AcDbLine
 10
-37.95114834430913
 20
-85.99999999999997
 30
0.0
 11
-39.90229668861827
 21
-85.99999999999997
 31
0.0
  0
SPLINE
  5
360F
330
35F7
100
AcDbEntity
  8
0
100
AcDbSpline
210
0.0
220
0.0
230
1.0
 70
     8
 71
     3
 72
     8
 73
     4
 74
     0
 42
0.000000001
 43
0.0000000001
 40
0.0
 40
0.0
 40
0.0
 40
0.0
 40
1.0
 40
1.0
 40
1.0
 40
1.0
 10
-37.99999999999998
 20
-85.32786855560891
 30
0.0
 10
-37.99999999999998
 20
-85.5519123704061
 30
0.0
 10
-37.98358288006612
 20
-85.77595618520311
 30
0.0
 10
-37.95114834430913
 20
-85.99999999999997
 30
0.0
  0
LINE
  5
3610
330
35F7
100
AcDbEntity
  8
0
100
AcDbLine
 10
-37.95114834430913
 20
-85.99999999999997
 30
0.0
 11
-35.99999999999998
 21
-85.99999999999997
 31
0.0
  0
SPLINE
  5
3611
330
35F7
100
AcDbEntity
  8
0
100
AcDbSpline
210
0.0
220
0.0
230
1.0
 70
     8
 71
     3
 72
     8
 73
     4
 74
     0
 42
0.000000001
 43
0.0000000001
 40
0.0
 40
0.0
 40
0.0
 40
0.0
 40
1.0
 40
1.0
 40
1.0
 40
1.0
 10
39.99999999999999
 20
-85.32786855560891
 30
0.0
 10
39.99999999999999
 20
-85.5519123704061
 30
0.0
 10
39.96716576013226
 20
-85.77595618520311
 30
0.0
 10
39.90229668861827
 20
-85.99999999999997
 30
0.0
  0
LINE
  5
3612
330
35F7
100
AcDbEntity
  8
0
100
AcDbLine
 10
42.00000000000001
 20
0.0
 30
0.0
 11
79.50000000000001
 21
0.0
 31
0.0
  0
ARC
  5
3613
330
35F7
100
AcDbEntity
  8
0
100
AcDbCircle
 10
42.0
 20
-4.000000000000003
 30
0.0
 40
3.999999999999999
100
AcDbArc
 50
89.99999999999987
 51
180.0
  0
LINE
  5
3614
330
35F7
100
AcDbEntity
  8
0
100
AcDbLine
 10
39.99999999999999
 20
-85.32786855560889
 30
0.0
 11
38.54647908947203
 21
-85.32786855560889
 31
0.0
  0
LINE
  5
3615
330
35F7
100
AcDbEntity
  8
0
100
AcDbLine
 10
38.54647908947203
 20
-85.32786855560889
 30
0.0
 11
37.99999999999999
 21
-85.32786855560889
 31
0.0
  0
SPLINE
  5
3616
330
35F7
100
AcDbEntity
  8
0
100
AcDbSpline
210
0.0
220
0.0
230
1.0
 70
     8
 71
     3
 72
     8
 73
     4
 74
     0
 42
0.000000001
 43
0.0000000001
 40
-1.0
 40
-1.0
 40
-1.0
 40
-1.0
 40
0.0
 40
0.0
 40
0.0
 40
0.0
 10
37.95114834430913
 20
-85.99999999999997
 30
0.0
 10
37.98358288006612
 20
-85.77595618520311
 30
0.0
 10
37.99999999999998
 20
-85.5519123704061
 30
0.0
 10
37.99999999999998
 20
-85.32786855560891
 30
0.0
  0
LINE
  5
3617
330
35F7
100
AcDbEntity
  8
0
100
AcDbLine
 10
39.90229668861827
 20
-85.99999999999997
 30
0.0
 11
37.95114834430913
 21
-85.99999999999997
 31
0.0
  0
LINE
  5
3618
330
35F7
100
AcDbEntity
  8
0
100
AcDbLine
 10
37.99999999999999
 20
-45.99999999999998
 30
0.0
 11
40.0
 21
-45.99999999999998
 31
0.0
  0
LINE
  5
3619
330
35F7
100
AcDbEntity
  8
0
100
AcDbLine
 10
37.99999999999999
 20
-85.32786855560889
 30
0.0
 11
37.99999999999999
 21
-45.99999999999998
 31
0.0
  0
LINE
  5
361A
330
35F7
100
AcDbEntity
  8
0
100
AcDbLine
 10
40.0
 20
-45.99999999999998
 30
0.0
 11
39.99999999999999
 21
-85.32786855560889
 31
0.0
  0
LINE
  5
361B
330
35F7
100
AcDbEntity
  8
0
100
AcDbLine
 10
37.99999999999999
 20
-45.99999999999998
 30
0.0
 11
38.0
 21
-4.000000000000003
 31
0.0
  0
LINE
  5
361C
330
35F7
100
AcDbEntity
  8
0
100
AcDbLine
 10
79.50000000000001
 20
0.0
 30
0.0
 11
79.50000000000001
 21
-2.00000000000001
 31
0.0
  0
LINE
  5
361D
330
35F7
100
AcDbEntity
  8
0
100
AcDbLine
 10
37.95114834430913
 20
-85.99999999999997
 30
0.0
 11
35.99999999999998
 21
-85.99999999999997
 31
0.0
  0
ARC
  5
361E
330
35F7
100
AcDbEntity
  8
0
100
AcDbCircle
 10
42.0
 20
-4.000000000000003
 30
0.0
 40
2.000000000000001
100
AcDbArc
 50
89.99999999999975
 51
180.0
  0
LINE
  5
361F
330
35F7
100
AcDbEntity
  8
0
100
AcDbLine
 10
40.0
 20
-4.000000000000003
 30
0.0
 11
40.0
 21
-45.99999999999998
 31
0.0
  0
LINE
  5
3620
330
35F7
100
AcDbEntity
  8
0
100
AcDbLine
 10
79.50000000000001
 20
-2.00000000000001
 30
0.0
 11
42.00000000000001
 21
-2.000000000000001
 31
0.0
  0
LINE
  5
3621
330
35F7
100
AcDbEntity
  8
0
100
AcDbLine
 10
-42.00000000000001
 20
0.0
 30
0.0
 11
-79.50000000000001
 21
0.0
 31
0.0
  0
LINE
  5
3622
330
35F7
100
AcDbEntity
  8
0
100
AcDbLine
 10
-79.50000000000001
 20
-2.00000000000001
 30
0.0
 11
-42.00000000000001
 21
-2.000000000000001
 31
0.0
  0
LINE
  5
3623
330
35F7
100
AcDbEntity
  8
0
100
AcDbLine
 10
-37.99999999999999
 20
-45.99999999999998
 30
0.0
 11
-38.0
 21
-4.000000000000003
 31
0.0
  0
LINE
  5
3624
330
35F7
100
AcDbEntity
  8
0
100
AcDbLine
 10
-40.0
 20
-4.000000000000003
 30
0.0
 11
-40.0
 21
-45.99999999999998
 31
0.0
  0
LINE
  5
3625
330
35F7
100
AcDbEntity
  8
0
100
AcDbLine
 10
-79.50000000000001
 20
0.0
 30
0.0
 11
-79.50000000000001
 21
-2.00000000000001
 31
0.0
  0
CIRCLE
  5
3626
330
35F7
100
AcDbEntity
  8
0
100
AcDbCircle
 10
0.0
 20
-68.0
 30
0.0
 40
2.5
  0
CIRCLE
  5
3627
330
35F7
100
AcDbEntity
  8
0
100
AcDbCircle
 10
0.0
 20
-48.0
 30
0.0
 40
2.5
  0
LINE
  5
3628
330
35F7
100
AcDbEntity
  8
0
100
AcDbLine
 10
36.00000000000001
 20
-1.999999999999975
 30
0.0
 11
-36.00000000000001
 21
-2.000000000000001
 31
0.0
  0
LINE
  5
3629
330
35F7
100
AcDbEntity
  8
0
100
AcDbLine
 10
-35.99999999999998
 20
-85.99999999999997
 30
0.0
 11
35.99999999999999
 21
-86.00000000000001
 31
0.0
  0
ARC
  5
362A
330
35F7
100
AcDbEntity
  8
0
100
AcDbCircle
 10
-42.0
 20
-4.000000000000003
 30
0.0
 40
2.000000000000001
100
AcDbArc
 50
0.0
 51
90.00000000000026
  0
ARC
  5
362B
330
35F7
100
AcDbEntity
  8
0
100
AcDbCircle
 10
-42.0
 20
-4.000000000000003
 30
0.0
 40
3.999999999999999
100
AcDbArc
 50
0.0
 51
90.00000000000007
  0
LINE
  5
362C
330
35F7
100
AcDbEntity
  8
0
100
AcDbLine
 10
-39.99999999999999
 20
-85.32786855560889
 30
0.0
 11
-38.54647908947203
 21
-85.32786855560889
 31
0.0
  0
LINE
  5
362D
330
35F7
100
AcDbEntity
  8
0
100
AcDbLine
 10
-38.54647908947203
 20
-85.32786855560889
 30
0.0
 11
-37.99999999999999
 21
-85.32786855560889
 31
0.0
  0
LINE
  5
362E
330
35F7
100
AcDbEntity
  8
0
100
AcDbLine
 10
-40.0
 20
-45.99999999999998
 30
0.0
 11
-37.99999999999999
 21
-45.99999999999998
 31
0.0
  0
LINE
  5
362F
330
35F7
100
AcDbEntity
  8
0
100
AcDbLine
 10
-37.99999999999999
 20
-45.99999999999998
 30
0.0
 11
-37.99999999999999
 21
-85.32786855560889
 31
0.0
  0
LINE
  5
3630
330
35F7
100
AcDbEntity
  8
0
100
AcDbLine
 10
-39.99999999999999
 20
-85.32786855560889
 30
0.0
 11
-40.0
 21
-45.99999999999998
 31
0.0
  0
ENDBLK
  5
35F9
330
35F7
100
AcDbEntity
  8
0
100
AcDbBlockEnd
  0
BLOCK
  5
3632
330
3631
100
AcDbEntity
  8
0
100
AcDbBlockBegin
  2
SAE200_76_2-Bottom
 70
     0
 10
0.0
 20
0.0
 30
0.0
  3
SAE200_76_2-Bottom
  1

  0
ARC
  5
3634
330
3631
100
AcDbEntity
  8
0
100
AcDbCircle
 10
42.0
 20
4.000000000000003
 30
0.0
 40
2.000000000000001
100
AcDbArc
 50
180.4925031125589
 51
264.0747208142135
  0
LINE
  5
3635
330
3631
100
AcDbEntity
  8
0
100
AcDbLine
 10
38.80637814452959
 20
4.000000000000003
 30
0.0
 11
40.0
 21
4.000000000000003
 31
0.0
  0
LINE
  5
3636
330
3631
100
AcDbEntity
  8
0
100
AcDbLine
 10
35.99999999999998
 20
4.000000000000002
 30
0.0
 11
38.80637814452959
 21
4.000000000000003
 31
0.0
  0
LINE
  5
3637
330
3631
100
AcDbEntity
  8
0
100
AcDbLine
 10
36.00000000000001
 20
2.000000000000001
 30
0.0
 11
36.00000000000001
 21
4.000000000000003
 31
0.0
  0
SPLINE
  5
3638
330
3631
100
AcDbEntity
  8
0
100
AcDbSpline
210
0.0
220
0.0
230
1.0
 70
     8
 71
     3
 72
    17
 73
    13
 74
     0
 42
0.000000001
 43
0.0000000001
 40
-1.0
 40
-1.0
 40
-1.0
 40
-1.0
 40
-0.7709507150581035
 40
-0.7709507150581035
 40
-0.7709507150581035
 40
-0.362347993698239
 40
-0.362347993698239
 40
-0.362347993698239
 40
-0.0780614795333602
 40
-0.0780614795333602
 40
-0.0780614795333602
 40
0.0
 40
0.0
 40
0.0
 40
0.0
 10
36.0
 20
1.999999999999984
 30
0.0
 10
36.78219949239376
 20
2.000933528117029
 30
0.0
 10
37.41266428711632
 20
2.000278432490861
 30
0.0
 10
37.97946741642956
 20
2.00023788650797
 30
0.0
 10
38.99059173044531
 20
2.000165556227813
 30
0.0
 10
39.72343274743499
 20
1.999512902665056
 30
0.0
 10
40.46107939606158
 20
1.999889171488252
 30
0.0
 10
40.97429916543941
 20
2.000150961600122
 30
0.0
 10
41.48932161283837
 20
2.000815016120613
 30
0.0
 10
42.08671902150029
 20
2.000482543262381
 30
0.0
 10
42.25075679067317
 20
2.0003912504225
 30
0.0
 10
42.42195152465166
 20
1.999990252883905
 30
0.0
 10
42.59587679528175
 20
1.999999999999991
 30
0.0
  0
ARC
  5
3639
330
3631
100
AcDbEntity
  8
0
100
AcDbCircle
 10
42.0
 20
4.000000000000003
 30
0.0
 40
3.999999999999999
100
AcDbArc
 50
266.1039878827801
 51
267.1925762009358
  0
ARC
  5
363A
330
3631
100
AcDbEntity
  8
0
100
AcDbCircle
 10
42.0
 20
4.000000000000003
 30
0.0
 40
3.999999999999998
100
AcDbArc
 50
253.5129983973231
 51
255.1196481213034
  0
ARC
  5
363B
330
3631
100
AcDbEntity
  8
0
100
AcDbCircle
 10
42.0
 20
4.000000000000003
 30
0.0
 40
3.999999999999999
100
AcDbArc
 50
230.2804135519286
 51
236.0095110762368
  0
ARC
  5
363C
330
3631
100
AcDbEntity
  8
0
100
AcDbCircle
 10
42.0
 20
4.000000000000003
 30
0.0
 40
3.999999999999998
100
AcDbArc
 50
223.7367589921553
 51
228.6082030889795
  0
LINE
  5
363D
330
3631
100
AcDbEntity
  8
0
100
AcDbLine
 10
42.59587679528181
 20
0.0
 30
0.0
 11
42.45157876329128
 21
0.0
 31
0.0
  0
LINE
  5
363E
330
3631
100
AcDbEntity
  8
0
100
AcDbLine
 10
42.3153879677985
 20
0.0
 30
0.0
 11
42.15665377318297
 21
0.0
 31
0.0
  0
SPLINE
  5
363F
330
3631
100
AcDbEntity
  8
0
100
AcDbSpline
210
0.0
220
0.0
230
1.0
 70
     8
 71
     3
 72
    17
 73
    13
 74
     0
 42
0.000000001
 43
0.0000000001
 40
0.0
 40
0.0
 40
0.0
 40
0.0
 40
0.2758400376573816
 40
0.2758400376573816
 40
0.2758400376573816
 40
0.6379200188286909
 40
0.6379200188286909
 40
0.6379200188286909
 40
0.8806486445120622
 40
0.8806486445120622
 40
0.8806486445120622
 40
1.0
 40
1.0
 40
1.0
 40
1.0
 10
42.5958767952818
 20
-0.0000000000000191
 30
0.0
 10
42.02925930500142
 20
-0.000001815442362
 30
0.0
 10
41.4820830330952
 20
0.1486267931470264
 30
0.0
 10
40.94017806066776
 20
0.3719618310772291
 30
0.0
 10
40.22884933594911
 20
0.6651213992654532
 30
0.0
 10
39.52058559280094
 20
1.070704434909556
 30
0.0
 10
38.72622225561124
 20
1.402466987603415
 30
0.0
 10
38.19370256063785
 20
1.62487162927425
 30
0.0
 10
37.6143116038837
 20
1.81900582942143
 30
0.0
 10
36.98093406774813
 20
1.921270654019762
 30
0.0
 10
36.66949792270933
 20
1.971554980395294
 30
0.0
 10
36.35975990856623
 20
1.997527921221785
 30
0.0
 10
35.99999999999827
 20
2.000000000000043
 30
0.0
  0
SPLINE
  5
3640
330
3631
100
AcDbEntity
  8
0
100
AcDbSpline
210
0.0
220
0.0
230
1.0
 70
     8
 71
     3
 72
    28
 73
    24
 74
     0
 42
0.000000001
 43
0.0000000001
 40
0.0725747276945658
 40
0.0725747276945658
 40
0.0725747276945658
 40
0.0725747276945658
 40
0.0737296096630014
 40
0.0737296096630014
 40
0.0751430405573285
 40
0.0751430405573285
 40
0.0765601923480781
 40
0.0765601923480781
 40
0.0779782773355891
 40
0.0779782773355891
 40
0.0793933450730518
 40
0.0793933450730518
 40
0.0822444466518458
 40
0.0822444466518458
 40
0.0879461712177805
 40
0.0879461712177805
 40
0.0941270334385601
 40
0.0941270334385601
 40
0.1075436741789051
 40
0.1075436741789051
 40
0.135198453277549
 40
0.135198453277549
 40
0.1991364960347731
 40
0.1991364960347731
 40
0.1991364960347731
 40
0.1991364960347731
 10
41.49942050623962
 20
2.034132558006144
 30
0.0
 10
41.49942050811384
 20
2.034132557767941
 30
0.0
 10
41.49966580912693
 20
2.034101324383201
 30
0.0
 10
41.50088037980307
 20
2.033948664599424
 30
0.0
 10
41.50201269974512
 20
2.033806877002791
 30
0.0
 10
41.50534884187002
 20
2.033396078854345
 30
0.0
 10
41.50758778401833
 20
2.033122882002663
 30
0.0
 10
41.51308253289315
 20
2.032465600932618
 30
0.0
 10
41.51638177884551
 20
2.032076574128621
 30
0.0
 10
41.52366613648992
 20
2.031236351414426
 30
0.0
 10
41.52769475842937
 20
2.030780164395188
 30
0.0
 10
41.54037964897219
 20
2.029375892876698
 30
0.0
 10
41.54973190832357
 20
2.02838333173618
 30
0.0
 10
41.5777765683116
 20
2.025541263599467
 30
0.0
 10
41.59709642532416
 20
2.023757422969849
 30
0.0
 10
41.63616998928006
 20
2.020441347187323
 30
0.0
 10
41.65624833392839
 20
2.018900433472411
 30
0.0
 10
41.7187274363669
 20
2.014509172270219
 30
0.0
 10
41.76019281088197
 20
2.012195553210435
 30
0.0
 10
41.88383124225269
 20
2.00645653301573
 30
0.0
 10
41.96355961601418
 20
2.004382326182305
 30
0.0
 10
42.2172465896774
 20
1.999941712606411
 30
0.0
 10
42.38532427284386
 20
2.00020554808588
 30
0.0
 10
42.57793417043462
 20
2.000020932320471
 30
0.0
  0
SPLINE
  5
3641
330
3631
100
AcDbEntity
  8
0
100
AcDbSpline
210
0.0
220
0.0
230
1.0
 70
     8
 71
     3
 72
    10
 73
     6
 74
     0
 42
0.000000001
 43
0.0000000001
 40
0.0061286129098555
 40
0.0061286129098555
 40
0.0061286129098555
 40
0.0061286129098555
 40
0.0072496152578103
 40
0.0072496152578103
 40
0.0079525977850281
 40
0.0079525977850281
 40
0.0079525977850281
 40
0.0079525977850281
 10
40.00048186265444
 20
3.959438086467694
 30
0.0
 10
40.00050668778347
 20
3.9577829422083
 30
0.0
 10
40.00052757043982
 20
3.956439602760683
 30
0.0
 10
40.00054825213196
 20
3.955123546279655
 30
0.0
 10
40.00055293014391
 20
3.954830170839766
 30
0.0
 10
40.00055293014117
 20
3.954830171011558
 30
0.0
  0
SPLINE
  5
3642
330
3631
100
AcDbEntity
  8
0
100
AcDbSpline
210
0.0
220
0.0
230
1.0
 70
     8
 71
     3
 72
    10
 73
     6
 74
     0
 42
0.000000001
 43
0.0000000001
 40
0.0083843476398726
 40
0.0083843476398726
 40
0.0083843476398726
 40
0.0083843476398726
 40
0.0145647133054211
 40
0.0145647133054211
 40
0.0200117900546527
 40
0.0200117900546527
 40
0.0200117900546527
 40
0.0200117900546527
 10
40.00039423467608
 20
3.968555726647382
 30
0.0
 10
40.00048577195807
 20
3.96188327573882
 30
0.0
 10
40.00057229363501
 20
3.956316760651225
 30
0.0
 10
40.00069492757194
 20
3.949132512378782
 30
0.0
 10
40.00073081626267
 20
3.947212186201873
 30
0.0
 10
40.00073081626272
 20
3.947212186199577
 30
0.0
  0
SPLINE
  5
3643
330
3631
100
AcDbEntity
  8
0
100
AcDbSpline
210
0.0
220
0.0
230
1.0
 70
     8
 71
     3
 72
    34
 73
    30
 74
     0
 42
0.000000001
 43
0.0000000001
 40
0.0332864911313718
 40
0.0332864911313718
 40
0.0332864911313718
 40
0.0332864911313718
 40
0.0345917670217699
 40
0.0345917670217699
 40
0.0360468003345375
 40
0.0360468003345375
 40
0.0375129674989622
 40
0.0375129674989622
 40
0.0382414258856603
 40
0.0382414258856603
 40
0.038971679557085
 40
0.038971679557085
 40
0.039703331047912
 40
0.039703331047912
 40
0.0404344896604992
 40
0.0404344896604992
 40
0.0419130657004126
 40
0.0419130657004126
 40
0.0448749535045861
 40
0.0448749535045861
 40
0.0477911349020285
 40
0.0477911349020285
 40
0.0528953287445642
 40
0.0528953287445642
 40
0.0585944607975957
 40
0.0585944607975957
 40
0.0726419751726495
 40
0.0726419751726495
 40
0.0868266955542524
 40
0.0868266955542524
 40
0.0868266955542524
 40
0.0868266955542524
 10
40.0004214181547
 20
3.965612860090648
 30
0.0
 10
40.00042141809991
 20
3.96561286367987
 30
0.0
 10
40.00042748465789
 20
3.965212566846981
 30
0.0
 10
40.00045375938278
 20
3.96351791685055
 30
0.0
 10
40.00047257344046
 20
3.962315099357364
 30
0.0
 10
40.00052589031395
 20
3.959025096862973
 30
0.0
 10
40.00056082850078
 20
3.956906810346616
 30
0.0
 10
40.0006329835008
 20
3.952764858364451
 30
0.0
 10
40.00066046931087
 20
3.95121676600801
 30
0.0
 10
40.00072362590365
 20
3.947763032750908
 30
0.0
 10
40.00075974334797
 20
3.945834127657734
 30
0.0
 10
40.00084037934755
 20
3.941669573982049
 30
0.0
 10
40.00088554771124
 20
3.939402209694291
 30
0.0
 10
40.00098204393736
 20
3.934724581694497
 30
0.0
 10
40.00103404987434
 20
3.93228172095642
 30
0.0
 10
40.00119599894509
 20
3.924924430339978
 30
0.0
 10
40.00131353875151
 20
3.91992043498164
 30
0.0
 10
40.00166364900379
 20
3.905843631055114
 30
0.0
 10
40.00190462456318
 20
3.897214578871431
 30
0.0
 10
40.0023682216623
 20
3.881826544244373
 30
0.0
 10
40.00259650826399
 20
3.874850776468263
 30
0.0
 10
40.00320677273212
 20
3.857233145435378
 30
0.0
 10
40.00357044540627
 20
3.847920337604526
 30
0.0
 10
40.00419238743015
 20
3.832738761942273
 30
0.0
 10
40.00446389793662
 20
3.82660138081882
 30
0.0
 10
40.00537282465971
 20
3.806789069728439
 30
0.0
 10
40.00603879871937
 20
3.794030129569959
 30
0.0
 10
40.00717827060157
 20
3.773748846240306
 30
0.0
 10
40.00757971931913
 20
3.767420468882495
 30
0.0
 10
40.00757971897577
 20
3.767420474377084
 30
0.0
  0
SPLINE
  5
3644
330
3631
100
AcDbEntity
  8
0
100
AcDbSpline
210
0.0
220
0.0
230
1.0
 70
     8
 71
     3
 72
    14
 73
    10
 74
     0
 42
0.000000001
 43
0.0000000001
 40
0.0
 40
0.0
 40
0.0
 40
0.0
 40
0.0038105988913821
 40
0.0038105988913821
 40
0.0074881959293662
 40
0.0074881959293662
 40
0.0110580516874849
 40
0.0110580516874849
 40
0.0141134811274353
 40
0.0141134811274353
 40
0.0141134811274353
 40
0.0141134811274353
 10
40.00015640430061
 20
4.000000856987544
 30
0.0
 10
40.00022444344026
 20
3.98770373628273
 30
0.0
 10
40.000318015193
 20
3.975775794478613
 30
0.0
 10
40.00052378952569
 20
3.954960818220003
 30
0.0
 10
40.00063766213485
 20
3.945714612305706
 30
0.0
 10
40.00084334747646
 20
3.930973206475338
 30
0.0
 10
40.00093784797665
 20
3.92517983342204
 30
0.0
 10
40.00105609876815
 20
3.918284201330435
 30
0.0
 10
40.00108899135253
 20
3.916546371404783
 30
0.0
 10
40.0010889913392
 20
3.916546372119338
 30
0.0
  0
SPLINE
  5
3645
330
3631
100
AcDbEntity
  8
0
100
AcDbSpline
210
0.0
220
0.0
230
1.0
 70
     8
 71
     3
 72
     8
 73
     4
 74
     0
 42
0.000000001
 43
0.0000000001
 40
0.0
 40
0.0
 40
0.0
 40
0.0
 40
0.0765677967701367
 40
0.0765677967701367
 40
0.0765677967701367
 40
0.0765677967701367
 10
41.72821631928529
 20
0.0092398361540747
 30
0.0
 10
41.4749689053655
 20
0.0266168800989844
 30
0.0
 10
41.21946400704806
 20
0.0686219642191909
 30
0.0
 10
40.97279495510918
 20
0.1341450512936413
 30
0.0
  0
SPLINE
  5
3646
330
3631
100
AcDbEntity
  8
0
100
AcDbSpline
210
0.0
220
0.0
230
1.0
 70
     8
 71
     3
 72
     8
 73
     4
 74
     0
 42
0.000000001
 43
0.0000000001
 40
0.0
 40
0.0
 40
0.0
 40
0.0
 40
0.1217227719993236
 40
0.1217227719993236
 40
0.1217227719993236
 40
0.1217227719993236
 10
40.86480873117062
 20
0.1644633959411793
 30
0.0
 10
40.47574859027206
 20
0.2796121413778429
 30
0.0
 10
40.1001923949224
 20
0.4566459391655266
 30
0.0
 10
39.76377890128042
 20
0.6834784593178006
 30
0.0
  0
SPLINE
  5
3647
330
3631
100
AcDbEntity
  8
0
100
AcDbSpline
210
0.0
220
0.0
230
1.0
 70
     8
 71
     3
 72
     8
 73
     4
 74
     0
 42
0.000000001
 43
0.0000000001
 40
0.0
 40
0.0
 40
0.0
 40
0.0
 40
0.0116738170129924
 40
0.0116738170129924
 40
0.0116738170129924
 40
0.0116738170129924
 10
39.4438768085961
 20
0.923275405841065
 30
0.0
 10
39.41394587590265
 20
0.9481418344703758
 30
0.0
 10
39.38437469076971
 20
0.9734477643112132
 30
0.0
 10
39.35518214215746
 20
0.9991770297408384
 30
0.0
  0
SPLINE
  5
3648
330
3631
100
AcDbEntity
  8
0
100
AcDbSpline
210
0.0
220
0.0
230
1.0
 70
     8
 71
     3
 72
     8
 73
     4
 74
     0
 42
0.000000001
 43
0.0000000001
 40
0.0
 40
0.0
 40
0.0
 40
0.0
 40
0.0136190795693057
 40
0.0136190795693057
 40
0.0136190795693057
 40
0.0136190795693057
 10
42.45157876329128
 20
0.0000165207506895
 30
0.0
 10
42.40628897470483
 20
0.0000236682200837
 30
0.0
 10
42.36066006529688
 20
0.0000237583167191
 30
0.0
 10
42.3153879677985
 20
0.0000239065569089
 30
0.0
  0
SPLINE
  5
3649
330
3631
100
AcDbEntity
  8
0
100
AcDbSpline
210
0.0
220
0.0
230
1.0
 70
     8
 71
     3
 72
    20
 73
    16
 74
     0
 42
0.000000001
 43
0.0000000001
 40
0.0
 40
0.0
 40
0.0
 40
0.0
 40
0.0086515880157248
 40
0.0086515880157248
 40
0.0123750738468453
 40
0.0123750738468453
 40
0.0137047672922953
 40
0.0137047672922953
 40
0.0164052631393538
 40
0.0164052631393538
 40
0.0217415128056807
 40
0.0217415128056807
 40
0.0306694780285978
 40
0.0306694780285978
 40
0.0357043729574751
 40
0.0357043729574751
 40
0.0357043729574751
 40
0.0357043729574751
 10
42.15665377318297
 20
0.0000071783212229
 30
0.0
 10
42.1283982522801
 20
0.0000139705087541
 30
0.0
 10
42.09983760254282
 20
0.0000456261055803
 30
0.0
 10
42.0585946988147
 20
0.000048968576418
 30
0.0
 10
42.04594846276273
 20
0.0000438676462412
 30
0.0
 10
42.0297348426947
 20
0.0000279567022432
 30
0.0
 10
42.02555161076943
 20
0.0000229896834449
 30
0.0
 10
42.01280258227626
 20
0.0000074461634274
 30
0.0
 10
42.00360171359633
 20
-0.0000046103117112
 30
0.0
 10
41.97684952852841
 20
0.0000147451069696
 30
0.0
 10
41.95932436698712
 20
0.0001012074361285
 30
0.0
 10
41.9124383499685
 20
0.0006835719161264
 30
0.0
 10
41.8821132629065
 20
0.0014629825856056
 30
0.0
 10
41.83609533364255
 20
0.0032387659140486
 30
0.0
 10
41.82033150913707
 20
0.0039488324351788
 30
0.0
 10
41.80408130656726
 20
0.0047609207117464
 30
0.0
  0
SPLINE
  5
364A
330
3631
100
AcDbEntity
  8
0
100
AcDbSpline
210
0.0
220
0.0
230
1.0
 70
     8
 71
     3
 72
    17
 73
    13
 74
     0
 42
0.000000001
 43
0.0000000001
 40
-1.0
 40
-1.0
 40
-1.0
 40
-1.0
 40
-0.7874084979350692
 40
-0.7874084979350692
 40
-0.7874084979350692
 40
-0.3511288258588771
 40
-0.3511288258588771
 40
-0.3511288258588771
 40
-0.0571430165433998
 40
-0.0571430165433998
 40
-0.0571430165433998
 40
0.0
 40
0.0
 40
0.0
 40
0.0
 10
-36.00000000000064
 20
1.999999999999902
 30
0.0
 10
-36.68502997391784
 20
2.00081841777436
 30
0.0
 10
-37.31783708595289
 20
1.999024513947105
 30
0.0
 10
-37.8580191003996
 20
1.998785802416522
 30
0.0
 10
-38.96657908438377
 20
1.998295919296681
 30
0.0
 10
-39.72958947198709
 20
2.001656293033308
 30
0.0
 10
-40.52409868271035
 20
1.996515219165462
 30
0.0
 10
-41.05947644214511
 20
1.993050921242534
 30
0.0
 10
-41.58645728333438
 20
1.998971037114626
 30
0.0
 10
-42.22135538549552
 20
2.000340602077476
 30
0.0
 10
-42.34476267797552
 20
2.000606809053628
 30
0.0
 10
-42.470604438601
 20
2.000127030147761
 30
0.0
 10
-42.59587679522851
 20
1.999999999999969
 30
0.0
  0
SPLINE
  5
364B
330
3631
100
AcDbEntity
  8
0
100
AcDbSpline
210
0.0
220
0.0
230
1.0
 70
     8
 71
     3
 72
    17
 73
    13
 74
     0
 42
0.000000001
 43
0.0000000001
 40
-1.0
 40
-1.0
 40
-1.0
 40
-1.0
 40
-0.8532915114882547
 40
-0.8532915114882547
 40
-0.8532915114882547
 40
-0.4266457557441274
 40
-0.4266457557441274
 40
-0.4266457557441274
 40
-0.1335164768055025
 40
-0.1335164768055025
 40
-0.1335164768055025
 40
0.0
 40
0.0
 40
0.0
 40
0.0
 10
-36.00000000000028
 20
2.000000000000015
 30
0.0
 10
-36.45097454300777
 20
1.996935636615264
 30
0.0
 10
-36.81370294528481
 20
1.95943624084734
 30
0.0
 10
-37.19280467279264
 20
1.885008726444775
 30
0.0
 10
-38.29527764267488
 20
1.668564651173035
 30
0.0
 10
-39.1936070110546
 20
1.201974143370657
 30
0.0
 10
-40.0475895800541
 20
0.7836426964297056
 30
0.0
 10
-40.63432293274004
 20
0.4962258084185312
 30
0.0
 10
-41.19546967762084
 20
0.2295843526387597
 30
0.0
 10
-41.78204021867482
 20
0.0933532998243058
 30
0.0
 10
-42.04921527646161
 20
0.0313018723137205
 30
0.0
 10
-42.32295353885627
 20
0.0004728133348831
 30
0.0
 10
-42.59587679504501
 20
-0.0000000000001142
 30
0.0
  0
LINE
  5
364C
330
3631
100
AcDbEntity
  8
0
100
AcDbLine
 10
-42.0
 20
0.0
 30
0.0
 11
-42.59587679528181
 21
0.0
 31
0.0
  0
ARC
  5
364D
330
3631
100
AcDbEntity
  8
0
100
AcDbCircle
 10
-42.0
 20
4.000000000000003
 30
0.0
 40
3.999999999999998
100
AcDbArc
 50
270.0
 51
270.7954416989596
  0
ARC
  5
364E
330
3631
100
AcDbEntity
  8
0
100
AcDbCircle
 10
-42.0
 20
4.000000000000003
 30
0.0
 40
3.999999999999998
100
AcDbArc
 50
311.3717676018808
 51
316.2632335587489
  0
ARC
  5
364F
330
3631
100
AcDbEntity
  8
0
100
AcDbCircle
 10
-42.0
 20
4.000000000000003
 30
0.0
 40
3.999999999999999
100
AcDbArc
 50
303.9947763385402
 51
309.7201001411864
  0
ARC
  5
3650
330
3631
100
AcDbEntity
  8
0
100
AcDbCircle
 10
-42.0
 20
4.000000000000003
 30
0.0
 40
3.999999999999998
100
AcDbArc
 50
272.8745801502896
 51
274.3995173025884
  0
ARC
  5
3651
330
3631
100
AcDbEntity
  8
0
100
AcDbCircle
 10
-42.0
 20
4.000000000000003
 30
0.0
 40
3.999999999999998
100
AcDbArc
 50
270.7954416989596
 51
271.3484000655745
  0
ARC
  5
3652
330
3631
100
AcDbEntity
  8
0
100
AcDbCircle
 10
-42.0
 20
4.000000000000003
 30
0.0
 40
2.000000000000001
100
AcDbArc
 50
310.1014528409479
 51
331.7856759707372
  0
ARC
  5
3653
330
3631
100
AcDbEntity
  8
0
100
AcDbCircle
 10
-42.0
 20
4.000000000000003
 30
0.0
 40
2.000000000000001
100
AcDbArc
 50
355.4725742066694
 51
358.6537686699868
  0
SPLINE
  5
3654
330
3631
100
AcDbEntity
  8
0
100
AcDbSpline
210
0.0
220
0.0
230
1.0
 70
     8
 71
     3
 72
     8
 73
     4
 74
     0
 42
0.000000001
 43
0.0000000001
 40
0.0
 40
0.0
 40
0.0
 40
0.0
 40
0.0115304148850958
 40
0.0115304148850958
 40
0.0115304148850958
 40
0.0115304148850958
 10
-39.35623132364368
 20
0.9982526446316008
 30
0.0
 10
-39.38507415060175
 20
0.972849520876473
 30
0.0
 10
-39.41428618546265
 20
0.9478595556752239
 30
0.0
 10
-39.44384922390677
 20
0.9232983232369617
 30
0.0
  0
SPLINE
  5
3655
330
3631
100
AcDbEntity
  8
0
100
AcDbSpline
210
0.0
220
0.0
230
1.0
 70
     8
 71
     3
 72
    10
 73
     6
 74
     0
 42
0.000000001
 43
0.0000000001
 40
0.0
 40
0.0
 40
0.0
 40
0.0
 40
0.1297168122412809
 40
0.1297168122412809
 40
0.2059229557922465
 40
0.2059229557922465
 40
0.2059229557922465
 40
0.2059229557922465
 10
-39.76353073408532
 20
0.6836458042256001
 30
0.0
 10
-40.12201981056827
 20
0.4418894242167545
 30
0.0
 10
-40.52536589525658
 20
0.2566857575668591
 30
0.0
 10
-41.18734486720377
 20
0.075190988559143
 30
0.0
 10
-41.44025583276831
 20
0.031213032032649
 30
0.0
 10
-41.69315725905331
 20
0.0117834454646346
 30
0.0
  0
SPLINE
  5
3656
330
3631
100
AcDbEntity
  8
0
100
AcDbSpline
210
0.0
220
0.0
230
1.0
 70
     8
 71
     3
 72
    10
 73
     6
 74
     0
 42
0.000000001
 43
0.0000000001
 40
0.0
 40
0.0
 40
0.0
 40
0.0
 40
0.0051845791201972
 40
0.0051845791201972
 40
0.0107833521016429
 40
0.0107833521016429
 40
0.0107833521016429
 40
0.0107833521016429
 10
-41.79940051719087
 20
0.0050309900542408
 30
0.0
 10
-41.81613697495563
 20
0.0041840077682816
 30
0.0
 10
-41.83326379135961
 20
0.0034126463743178
 30
0.0
 10
-41.86917081717903
 20
0.0020478219447641
 30
0.0
 10
-41.88770969715981
 20
0.0014874846756691
 30
0.0
 10
-41.90587170316937
 20
0.001069285245019
 30
0.0
  0
SPLINE
  5
3657
330
3631
100
AcDbEntity
  8
0
100
AcDbSpline
210
0.0
220
0.0
230
1.0
 70
     8
 71
     3
 72
    18
 73
    14
 74
     0
 42
0.000000001
 43
0.0000000001
 40
0.0130071958710677
 40
0.0130071958710677
 40
0.0130071958710677
 40
0.0130071958710677
 40
0.0142212583332627
 40
0.0142212583332627
 40
0.0159643820177492
 40
0.0159643820177492
 40
0.017953476675341
 40
0.017953476675341
 40
0.020258265375868
 40
0.020258265375868
 40
0.0230369639348962
 40
0.0230369639348962
 40
0.0267928353748806
 40
0.0267928353748806
 40
0.0267928353748806
 40
0.0267928353748806
 10
-40.00114898611033
 20
3.899507608100077
 30
0.0
 10
-40.00114898611365
 20
3.899507607974792
 30
0.0
 10
-40.00113638537422
 20
3.899980228073174
 30
0.0
 10
-40.00108160995761
 20
3.902128311487433
 30
0.0
 10
-40.00102828218182
 20
3.904267122490768
 30
0.0
 10
-40.00089145242944
 20
3.910231157040974
 30
0.0
 10
-40.00080360759871
 20
3.91431366182841
 30
0.0
 10
-40.00061289019422
 20
3.924338095437862
 30
0.0
 10
-40.00050821733748
 20
3.930571121973864
 30
0.0
 10
-40.00030471210071
 20
3.945193670357155
 30
0.0
 10
-40.0002095728466
 20
3.95389849904298
 30
0.0
 10
-40.00004748185371
 20
3.97483000561086
 30
0.0
 10
-40.00000000000063
 20
3.987480680950757
 30
0.0
 10
-40.00000000000063
 20
4.000000000000013
 30
0.0
  0
SPLINE
  5
3658
330
3631
100
AcDbEntity
  8
0
100
AcDbSpline
210
0.0
220
0.0
230
1.0
 70
     8
 71
     3
 72
    20
 73
    16
 74
     0
 42
0.000000001
 43
0.0000000001
 40
0.0147821767725998
 40
0.0147821767725998
 40
0.0147821767725998
 40
0.0147821767725998
 40
0.0160519414721434
 40
0.0160519414721434
 40
0.0216579728191469
 40
0.0216579728191469
 40
0.0244181517980511
 40
0.0244181517980511
 40
0.0259118917441073
 40
0.0259118917441073
 40
0.0280155292587012
 40
0.0280155292587012
 40
0.0300514448844473
 40
0.0300514448844473
 40
0.0313105873343444
 40
0.0313105873343444
 40
0.0313105873343444
 40
0.0313105873343444
 10
-40.00113928757418
 20
3.912094078246128
 30
0.0
 10
-40.00113928764044
 20
3.912094075832559
 30
0.0
 10
-40.00113533374761
 20
3.912237771324424
 30
0.0
 10
-40.00109456877995
 20
3.913737459632507
 30
0.0
 10
-40.00099239711079
 20
3.917350393732159
 30
0.0
 10
-40.00075142643695
 20
3.927943741808286
 30
0.0
 10
-40.00065473605119
 20
3.93242563848085
 30
0.0
 10
-40.00049150790033
 20
3.941390705478945
 30
0.0
 10
-40.00043106460788
 20
3.944972047226093
 30
0.0
 10
-40.00028998046961
 20
3.95446501981943
 30
0.0
 10
-40.00021021682086
 20
3.960858035877956
 30
0.0
 10
-40.00008927160526
 20
3.973916730642945
 30
0.0
 10
-40.00004563129891
 20
3.980666572573932
 30
0.0
 10
-40.00000729280208
 20
3.991594708571249
 30
0.0
 10
-39.99999997565474
 20
3.995803638829043
 30
0.0
 10
-39.99999997889519
 20
3.999999927187634
 30
0.0
  0
SPLINE
  5
3659
330
3631
100
AcDbEntity
  8
0
100
AcDbSpline
210
0.0
220
0.0
230
1.0
 70
     8
 71
     3
 72
    20
 73
    16
 74
     0
 42
0.000000001
 43
0.0000000001
 40
0.0170344274555969
 40
0.0170344274555969
 40
0.0170344274555969
 40
0.0170344274555969
 40
0.0239778448899937
 40
0.0239778448899937
 40
0.0477696591464803
 40
0.0477696591464803
 40
0.0555014446242007
 40
0.0555014446242007
 40
0.0593765944274231
 40
0.0593765944274231
 40
0.0613231032409523
 40
0.0613231032409523
 40
0.0623052713521133
 40
0.0623052713521133
 40
0.0633065364479887
 40
0.0633065364479887
 40
0.0633065364479887
 40
0.0633065364479887
 10
-40.00100202818646
 20
3.928253012408873
 30
0.0
 10
-40.00100202816709
 20
3.928253013013865
 30
0.0
 10
-40.00096182233754
 20
3.929503769864108
 30
0.0
 10
-40.00072368840825
 20
3.937591893252958
 30
0.0
 10
-40.00041301879902
 20
3.950037404988566
 30
0.0
 10
-40.00016854852431
 20
3.968561471666557
 30
0.0
 10
-40.00011826201752
 20
3.973319954659503
 30
0.0
 10
-40.00005984426647
 20
3.981132599626509
 30
0.0
 10
-40.00004314509449
 20
3.983836958253205
 30
0.0
 10
-40.00002262942344
 20
3.988451424075068
 30
0.0
 10
-40.00001651798664
 20
3.990079874301246
 30
0.0
 10
-40.00000877650373
 20
3.992959018958988
 30
0.0
 10
-40.00000641761679
 20
3.993996409310072
 30
0.0
 10
-40.00000247029361
 20
3.996460671464727
 30
0.0
 10
-40.00000064064097
 20
3.997831196885102
 30
0.0
 10
-40.00000059788901
 20
3.99999998045404
 30
0.0
  0
SPLINE
  5
365A
330
3631
100
AcDbEntity
  8
0
100
AcDbSpline
210
0.0
220
0.0
230
1.0
 70
     8
 71
     3
 72
    38
 73
    34
 74
     0
 42
0.000000001
 43
0.0000000001
 40
0.0554649234999586
 40
0.0554649234999586
 40
0.0554649234999586
 40
0.0554649234999586
 40
0.0555377838820741
 40
0.0555377838820741
 40
0.0558198412292474
 40
0.0558198412292474
 40
0.0563876784132493
 40
0.0563876784132493
 40
0.0586634579407974
 40
0.0586634579407974
 40
0.0608789648740775
 40
0.0608789648740775
 40
0.067535386224043
 40
0.067535386224043
 40
0.0828098173040153
 40
0.0828098173040153
 40
0.1090474835580287
 40
0.1090474835580287
 40
0.1381609955947899
 40
0.1381609955947899
 40
0.1535839110095969
 40
0.1535839110095969
 40
0.1551878818173164
 40
0.1551878818173164
 40
0.1563950694216632
 40
0.1563950694216632
 40
0.1569526058334345
 40
0.1569526058334345
 40
0.1572310263102216
 40
0.1572310263102216
 40
0.1575107272704716
 40
0.1575107272704716
 40
0.1576766100573217
 40
0.1576766100573217
 40
0.1576766100573217
 40
0.1576766100573217
 10
-40.3122091225572
 20
2.927233580249971
 30
0.0
 10
-40.31220912252726
 20
2.927233580297062
 30
0.0
 10
-40.31220175754532
 20
2.927245158159219
 30
0.0
 10
-40.31213109661337
 20
2.927356246142274
 30
0.0
 10
-40.31196171299888
 20
2.927622531823845
 30
0.0
 10
-40.31124987419985
 20
2.928742717577766
 30
0.0
 10
-40.31050998739278
 20
2.92990845832092
 30
0.0
 10
-40.30659588022795
 20
2.936093541513746
 30
0.0
 10
-40.30264840994409
 20
2.942390066949068
 30
0.0
 10
-40.29518568156064
 20
2.954455460087356
 30
0.0
 10
-40.29145194666988
 20
2.960562860742145
 30
0.0
 10
-40.27655658906213
 20
2.985231657716362
 30
0.0
 10
-40.26544008333643
 20
3.004332449431487
 30
0.0
 10
-40.22988684485709
 20
3.067857900795897
 30
0.0
 10
-40.206538626865
 20
3.113592388174851
 30
0.0
 10
-40.14854645106143
 20
3.238782902090168
 30
0.0
 10
-40.11708781694751
 20
3.320323433660815
 30
0.0
 10
-40.06242136897265
 20
3.495069130250932
 30
0.0
 10
-40.04035842411586
 20
3.588714542062927
 30
0.0
 10
-40.01696592026777
 20
3.73507240894304
 30
0.0
 10
-40.01081514978468
 20
3.786490794944717
 30
0.0
 10
-40.00626266691747
 20
3.841740858830072
 30
0.0
 10
-40.00585506861142
 20
3.846933953525428
 30
0.0
 10
-40.00519058596217
 20
3.855823339921864
 30
0.0
 10
-40.00491709269
 20
3.859636304948232
 30
0.0
 10
-40.00456974533207
 20
3.864653135655834
 30
0.0
 10
-40.00446629125799
 20
3.866176746399482
 30
0.0
 10
-40.00434142382772
 20
3.86803906546277
 30
0.0
 10
-40.00430460749421
 20
3.868592640470686
 30
0.0
 10
-40.0042470765767
 20
3.869461222573153
 30
0.0
 10
-40.00422615738668
 20
3.869779130865673
 30
0.0
 10
-40.0042087094155
 20
3.870044446340837
 30
0.0
 10
-40.00420553767185
 20
3.870092764110965
 30
0.0
 10
-40.00420553745738
 20
3.870092767376265
 30
0.0
  0
SPLINE
  5
365B
330
3631
100
AcDbEntity
  8
0
100
AcDbSpline
210
0.0
220
0.0
230
1.0
 70
     8
 71
     3
 72
    18
 73
    14
 74
     0
 42
0.000000001
 43
0.0000000001
 40
0.0104927382546495
 40
0.0104927382546495
 40
0.0104927382546495
 40
0.0104927382546495
 40
0.0105835437143073
 40
0.0105835437143073
 40
0.0113570919429014
 40
0.0113570919429014
 40
0.0127211687597471
 40
0.0127211687597471
 40
0.0157208784975039
 40
0.0157208784975039
 40
0.0233621082318269
 40
0.0233621082318269
 40
0.0251430383161742
 40
0.0251430383161742
 40
0.0251430383161742
 40
0.0251430383161742
 10
-40.00127597355282
 20
3.927420744285626
 30
0.0
 10
-40.00127597363612
 20
3.927420741980852
 30
0.0
 10
-40.00127579924583
 20
3.927425566375028
 30
0.0
 10
-40.00127262123696
 20
3.927513520867318
 30
0.0
 10
-40.00125846949532
 20
3.927904737046877
 30
0.0
 10
-40.00120525444425
 20
3.929401206069187
 30
0.0
 10
-40.00115557916332
 20
3.930822349420066
 30
0.0
 10
-40.00098585048307
 20
3.935904363718138
 30
0.0
 10
-40.000851776973
 20
3.940242584693717
 30
0.0
 10
-40.00041245401636
 20
3.956714478944626
 30
0.0
 10
-40.00014451610758
 20
3.970791320834185
 30
0.0
 10
-40.00004454622725
 20
3.991595448535191
 30
0.0
 10
-40.00003588971623
 20
3.995701404817126
 30
0.0
 10
-40.00003998730012
 20
3.999999750976532
 30
0.0
  0
SPLINE
  5
365C
330
3631
100
AcDbEntity
  8
0
100
AcDbSpline
210
0.0
220
0.0
230
1.0
 70
     8
 71
     3
 72
    32
 73
    28
 74
     0
 42
0.000000001
 43
0.0000000001
 40
0.0
 40
0.0
 40
0.0
 40
0.0
 40
0.0564621963173957
 40
0.0564621963173957
 40
0.0817854816218242
 40
0.0817854816218242
 40
0.0964798590139018
 40
0.0964798590139018
 40
0.112717450884263
 40
0.112717450884263
 40
0.1322389021309588
 40
0.1322389021309588
 40
0.1609774432459318
 40
0.1609774432459318
 40
0.1958260461905491
 40
0.1958260461905491
 40
0.2242343490760174
 40
0.2242343490760174
 40
0.2299777340854052
 40
0.2299777340854052
 40
0.2309875199958292
 40
0.2309875199958292
 40
0.2314949219367271
 40
0.2314949219367271
 40
0.2317484274929886
 40
0.2317484274929886
 40
0.2318871415900648
 40
0.2318871415900648
 40
0.2318871415900648
 40
0.2318871415900648
 10
-42.57744948843196
 20
2.000027009229703
 30
0.0
 10
-42.42041604784744
 20
2.00021269946284
 30
0.0
 10
-42.2490077130282
 20
2.00054126084567
 30
0.0
 10
-42.03737616764065
 20
2.002918971866065
 30
0.0
 10
-41.96851929693781
 20
2.004232822039391
 30
0.0
 10
-41.84628813310282
 20
2.011955391465198
 30
0.0
 10
-41.79762417900978
 20
2.016208858055223
 30
0.0
 10
-41.69561405322825
 20
2.028715273185517
 30
0.0
 10
-41.64135506998672
 20
2.037378253915958
 30
0.0
 10
-41.5262192855119
 20
2.060289731236133
 30
0.0
 10
-41.46563005218201
 20
2.07538025927594
 30
0.0
 10
-41.32162753913
 20
2.118473055760682
 30
0.0
 10
-41.23808640512215
 20
2.1499652173713
 30
0.0
 10
-41.0592878833901
 20
2.232083727637117
 30
0.0
 10
-40.96239874089646
 20
2.286754688229164
 30
0.0
 10
-40.79469325933714
 20
2.401550707122686
 30
0.0
 10
-40.72167951945992
 20
2.459417325090839
 30
0.0
 10
-40.64119769886825
 20
2.532631949627979
 30
0.0
 10
-40.62751758135203
 20
2.545447966601066
 30
0.0
 10
-40.61351294221764
 20
2.558889801121529
 30
0.0
 10
-40.61146183854098
 20
2.560867926373084
 30
0.0
 10
-40.60886080388264
 20
2.563384911319764
 30
0.0
 10
-40.60805788022301
 20
2.564163572264854
 30
0.0
 10
-40.6072270670859
 20
2.564970046336494
 30
0.0
 10
-40.60701211291255
 20
2.565178859655201
 30
0.0
 10
-40.60683576682253
 20
2.565350186254305
 30
0.0
 10
-40.60680266511595
 20
2.565382352186085
 30
0.0
 10
-40.60680266604933
 20
2.565382351279151
 30
0.0
  0
LINE
  5
365D
330
3631
100
AcDbEntity
  8
0
100
AcDbLine
 10
-35.99999999999998
 20
85.99999999999997
 30
0.0
 11
-39.90229668861827
 21
85.99999999999997
 31
0.0
  0
SPLINE
  5
365E
330
3631
100
AcDbEntity
  8
0
100
AcDbSpline
210
0.0
220
0.0
230
1.0
 70
     8
 71
     3
 72
     8
 73
     4
 74
     0
 42
0.000000001
 43
0.0000000001
 40
-1.0
 40
-1.0
 40
-1.0
 40
-1.0
 40
0.0
 40
0.0
 40
0.0
 40
0.0
 10
-39.90229668861827
 20
85.99999999999997
 30
0.0
 10
-39.96716576013226
 20
85.77595618520311
 30
0.0
 10
-39.99999999999999
 20
85.5519123704061
 30
0.0
 10
-39.99999999999999
 20
85.32786855560891
 30
0.0
  0
LINE
  5
365F
330
3631
100
AcDbEntity
  8
0
100
AcDbLine
 10
-40.0
 20
4.000000000000003
 30
0.0
 11
-39.99999999999999
 21
85.32786855560889
 31
0.0
  0
LINE
  5
3660
330
3631
100
AcDbEntity
  8
0
100
AcDbLine
 10
39.99999999999999
 20
85.32786855560889
 30
0.0
 11
40.0
 21
4.000000000000003
 31
0.0
  0
SPLINE
  5
3661
330
3631
100
AcDbEntity
  8
0
100
AcDbSpline
210
0.0
220
0.0
230
1.0
 70
     8
 71
     3
 72
     8
 73
     4
 74
     0
 42
0.000000001
 43
0.0000000001
 40
0.0
 40
0.0
 40
0.0
 40
0.0
 40
1.0
 40
1.0
 40
1.0
 40
1.0
 10
39.99999999999999
 20
85.32786855560891
 30
0.0
 10
39.99999999999999
 20
85.5519123704061
 30
0.0
 10
39.96716576013226
 20
85.77595618520311
 30
0.0
 10
39.90229668861827
 20
85.99999999999997
 30
0.0
  0
LINE
  5
3662
330
3631
100
AcDbEntity
  8
0
100
AcDbLine
 10
35.99999999999998
 20
85.99999999999997
 30
0.0
 11
39.90229668861827
 21
85.99999999999997
 31
0.0
  0
LINE
  5
3663
330
3631
100
AcDbEntity
  8
0
100
AcDbLine
 10
79.50000000000009
 20
0.0
 30
0.0
 11
42.59587679528181
 21
0.0
 31
0.0
  0
LINE
  5
3664
330
3631
100
AcDbEntity
  8
0
100
AcDbLine
 10
79.50000000000009
 20
2.000000000000001
 30
0.0
 11
79.50000000000009
 21
0.0
 31
0.0
  0
LINE
  5
3665
330
3631
100
AcDbEntity
  8
0
100
AcDbLine
 10
42.59587679528181
 20
1.999999999999999
 30
0.0
 11
79.50000000000009
 21
2.000000000000001
 31
0.0
  0
LINE
  5
3666
330
3631
100
AcDbEntity
  8
0
100
AcDbLine
 10
-42.59587679528181
 20
0.0
 30
0.0
 11
-79.50000000000009
 21
0.0
 31
0.0
  0
LINE
  5
3667
330
3631
100
AcDbEntity
  8
0
100
AcDbLine
 10
-79.50000000000009
 20
2.000000000000001
 30
0.0
 11
-42.59587679528181
 21
1.999999999999999
 31
0.0
  0
LINE
  5
3668
330
3631
100
AcDbEntity
  8
0
100
AcDbLine
 10
-79.50000000000009
 20
0.0
 30
0.0
 11
-79.50000000000009
 21
2.000000000000001
 31
0.0
  0
CIRCLE
  5
3669
330
3631
100
AcDbEntity
  8
0
100
AcDbCircle
 10
0.0
 20
48.0
 30
0.0
 40
2.5
  0
CIRCLE
  5
366A
330
3631
100
AcDbEntity
  8
0
100
AcDbCircle
 10
0.0
 20
68.0
 30
0.0
 40
2.5
  0
LINE
  5
366B
330
3631
100
AcDbEntity
  8
0
100
AcDbLine
 10
36.00000000000001
 20
1.999999999999975
 30
0.0
 11
-36.00000000000001
 21
2.000000000000001
 31
0.0
  0
LINE
  5
366C
330
3631
100
AcDbEntity
  8
0
100
AcDbLine
 10
35.99999999999999
 20
86.00000000000001
 30
0.0
 11
-35.99999999999998
 21
85.99999999999997
 31
0.0
  0
ENDBLK
  5
3633
330
3631
100
AcDbEntity
  8
0
100
AcDbBlockEnd
  0
BLOCK
  5
366E
330
366D
100
AcDbEntity
  8
0
100
AcDbBlockBegin
  2
SAE200_76_2-ISO
 70
     0
 10
0.0
 20
0.0
 30
0.0
  3
SAE200_76_2-ISO
  1

  0
LINE
  5
3670
330
366D
100
AcDbEntity
  8
0
100
AcDbLine
 10
58.68561485585073
 20
-21.60600637550283
 30
0.0
 11
59.10696337854621
 21
-21.84927205850371
 31
0.0
  0
ELLIPSE
  5
3671
330
366D
100
AcDbEntity
  8
0
100
AcDbEllipse
 10
57.27140129347763
 20
-22.42250295643056
 30
0.0
 11
2.000000000000001
 21
-0.0000000000001193
 31
0.0
210
0.0
220
0.0
230
1.0
 40
0.5773502691896259
 41
0.7853981633976899
 42
2.356194490192581
  0
LINE
  5
3672
330
366D
100
AcDbEntity
  8
0
100
AcDbLine
 10
55.85718773110453
 20
-23.14325558606285
 30
0.0
 11
55.85718773110453
 21
-21.60600637550283
 31
0.0
  0
LINE
  5
3673
330
366D
100
AcDbEntity
  8
0
100
AcDbLine
 10
55.85718773110453
 20
-23.26656758911231
 30
0.0
 11
55.85718773110453
 21
-23.14325558606285
 31
0.0
  0
ELLIPSE
  5
3674
330
366D
100
AcDbEntity
  8
0
100
AcDbEllipse
 10
53.02876060635835
 20
-21.63357442725685
 30
0.0
 11
2.000000000000001
 21
-3.464101615137758
 31
0.0
210
0.0
220
0.0
230
0.9999999999999998
 40
0.5773502691896258
 41
0.0
 42
0.7853981633974483
  0
SPLINE
  5
3675
330
366D
100
AcDbEntity
  8
0
100
AcDbSpline
210
0.0
220
0.0
230
1.0
 70
     8
 71
     3
 72
    14
 73
    10
 74
     0
 42
0.000000001
 43
0.0000000001
 40
-0.6726959263377039
 40
-0.6726959263377039
 40
-0.6726959263377039
 40
-0.6726959263377039
 40
-0.362347993698239
 40
-0.362347993698239
 40
-0.362347993698239
 40
-0.0780614795333602
 40
-0.0780614795333602
 40
-0.0780614795333602
 40
0.0
 40
0.0
 40
0.0
 40
0.0
 10
56.3270200616191
 20
-24.269918982613
 30
0.0
 10
56.80711791819632
 20
-24.03468691229613
 30
0.0
 10
57.2015446665888
 20
-23.59294488323236
 30
0.0
 10
57.59751202869039
 20
-23.14275531390111
 30
0.0
 10
57.9602280942931
 20
-22.73037034233036
 30
0.0
 10
58.32393440185767
 20
-22.30794545931079
 30
0.0
 10
58.74659325439839
 20
-22.03590875703779
 30
0.0
 10
58.86265002713741
 20
-21.96121092084536
 30
0.0
 10
58.98398653251581
 20
-21.89929488539256
 30
0.0
 10
59.10696337854617
 20
-21.84927205850367
 30
0.0
  0
SPLINE
  5
3676
330
366D
100
AcDbEntity
  8
0
100
AcDbSpline
210
0.0
220
0.0
230
1.0
 70
     8
 71
     3
 72
    16
 73
    12
 74
     0
 42
0.000000001
 43
0.0000000001
 40
0.0
 40
0.0
 40
0.0
 40
0.0
 40
0.0194209007616789
 40
0.0194209007616789
 40
0.0405330770513968
 40
0.0405330770513968
 40
0.0754614671197965
 40
0.0754614671197965
 40
0.1510476168017258
 40
0.1510476168017258
 40
0.2045243661605115
 40
0.2045243661605115
 40
0.2045243661605115
 40
0.2045243661605115
 10
56.32713866251059
 20
-24.26867716500464
 30
0.0
 10
56.27505774212308
 20
-24.29423890299697
 30
0.0
 10
56.22742578925553
 20
-24.31891223685191
 30
0.0
 10
56.14044256337201
 20
-24.36574687561948
 30
0.0
 10
56.10130587064219
 20
-24.38791980109139
 30
0.0
 10
56.00651784501988
 20
-24.44362505758796
 30
0.0
 10
55.95526640349627
 20
-24.47591325396463
 30
0.0
 10
55.77901795500962
 20
-24.59214568324787
 30
0.0
 10
55.62755878324333
 20
-24.70189988517035
 30
0.0
 10
55.32931082424015
 20
-24.90767904176864
 30
0.0
 10
55.19481251760215
 20
-24.99690001794456
 30
0.0
 10
55.05608223864751
 20
-25.08146490204345
 30
0.0
  0
LINE
  5
3677
330
366D
100
AcDbEntity
  8
0
100
AcDbLine
 10
59.08614157228637
 20
-21.83725058305514
 30
0.0
 11
59.08612157303963
 21
-21.83726394451944
 31
0.0
  0
SPLINE
  5
3678
330
366D
100
AcDbEntity
  8
0
100
AcDbSpline
210
0.0
220
0.0
230
1.0
 70
     8
 71
     3
 72
    14
 73
    10
 74
     0
 42
0.000000001
 43
0.0000000001
 40
0.1720105255745845
 40
0.1720105255745845
 40
0.1720105255745845
 40
0.1720105255745845
 40
0.1773676462718835
 40
0.1773676462718835
 40
0.2228421930013672
 40
0.2228421930013672
 40
0.3200402737573296
 40
0.3200402737573296
 40
0.3651491506783575
 40
0.3651491506783575
 40
0.3651491506783575
 40
0.3651491506783575
 10
59.01073454587234
 20
-21.88824233079474
 30
0.0
 10
58.99833555018786
 20
-21.89672769880492
 30
0.0
 10
58.98584528918508
 20
-21.90532555203108
 30
0.0
 10
58.86676734455007
 20
-21.98778774481783
 30
0.0
 10
58.75527126200553
 20
-22.06881007980526
 30
0.0
 10
58.40906447852191
 20
-22.33536103823031
 30
0.0
 10
58.17601781237699
 20
-22.53717205499857
 30
0.0
 10
57.86088263179526
 20
-22.85117132063091
 30
0.0
 10
57.76443614198885
 20
-22.95364211697109
 30
0.0
 10
57.67217667868106
 20
-23.05787529022728
 30
0.0
  0
SPLINE
  5
3679
330
366D
100
AcDbEntity
  8
0
100
AcDbSpline
210
0.0
220
0.0
230
1.0
 70
     8
 71
     3
 72
    11
 73
     7
 74
     0
 42
0.000000001
 43
0.0000000001
 40
-1.0
 40
-1.0
 40
-1.0
 40
-1.0
 40
-0.8532915114882547
 40
-0.8532915114882547
 40
-0.8532915114882547
 40
-0.606106031265939
 40
-0.606106031265939
 40
-0.606106031265939
 40
-0.606106031265939
 10
3.531285923299822
 20
6.943805905213777
 30
0.0
 10
3.2145655979261
 20
7.130376793626177
 30
0.0
 10
2.984593961984938
 20
7.337226685870531
 30
0.0
 10
2.769156759845534
 20
7.596384500581558
 30
0.0
 10
2.40617198092242
 20
8.033033051272491
 30
0.0
 10
2.151014634815981
 20
8.564546059481196
 30
0.0
 10
1.940674813829676
 20
9.150396391889307
 30
0.0
  0
ELLIPSE
  5
367A
330
366D
100
AcDbEntity
  8
0
100
AcDbEllipse
 10
-2.125568326192355
 20
11.87035344253395
 30
0.0
 11
3.999999999999998
 21
-0.0000000000000003
 31
0.0
210
0.0
220
0.0
230
1.0
 40
0.577350269189626
 41
5.497787143782137
 42
6.283175974368385
  0
ELLIPSE
  5
367B
330
366D
100
AcDbEntity
  8
0
100
AcDbEllipse
 10
-2.125568326192355
 20
11.87035344253395
 30
0.0
 11
3.999999999999998
 21
0.0
 31
0.0
210
0.0
220
0.0
230
1.0
 40
0.577350269189626
 41
6.283175974368385
 42
6.283185307179588
  0
LINE
  5
367C
330
366D
100
AcDbEntity
  8
0
100
AcDbLine
 10
0.7028587985538337
 20
10.2373602806785
 30
0.0
 11
0.7028587985538337
 21
8.576799067069018
 31
0.0
  0
ELLIPSE
  5
367D
330
366D
100
AcDbEntity
  8
0
100
AcDbEllipse
 10
2.117072360926934
 20
7.760302486141287
 30
0.0
 11
1.000000000000103
 21
-1.732050807568819
 31
0.0
210
0.0
220
0.0
230
1.0
 40
0.5773502691896257
 41
3.926990816987
 42
5.497787143781903
  0
LINE
  5
367E
330
366D
100
AcDbEntity
  8
0
100
AcDbLine
 10
2.18970842668098
 20
6.169245776401818
 30
0.0
 11
2.117072360926925
 21
6.12730932428584
 31
0.0
  0
LINE
  5
367F
330
366D
100
AcDbEntity
  8
0
100
AcDbLine
 10
3.531285923300022
 20
6.943805905213568
 30
0.0
 11
2.18970842668098
 21
6.169245776401818
 31
0.0
  0
SPLINE
  5
3680
330
366D
100
AcDbEntity
  8
0
100
AcDbSpline
210
0.0
220
0.0
230
1.0
 70
     8
 71
     3
 72
    26
 73
    22
 74
     0
 42
0.000000001
 43
0.0000000001
 40
0.0
 40
0.0
 40
0.0
 40
0.0
 40
0.014679408547215
 40
0.014679408547215
 40
0.0290259033425107
 40
0.0290259033425107
 40
0.0506340306412613
 40
0.0506340306412613
 40
0.1153664260960321
 40
0.1153664260960321
 40
0.2681495294113707
 40
0.2681495294113707
 40
0.2911138545529189
 40
0.2911138545529189
 40
0.3046550892971744
 40
0.3046550892971744
 40
0.3105361393139678
 40
0.3105361393139678
 40
0.3170542748790933
 40
0.3170542748790933
 40
0.3175168334932813
 40
0.3175168334932813
 40
0.3175168334932813
 40
0.3175168334932813
 10
1.874431674010823
 20
11.87033188933704
 30
0.0
 10
1.874430881471331
 20
11.82141149249964
 30
0.0
 10
1.873530964361496
 20
11.77211709088973
 30
0.0
 10
1.871123979199098
 20
11.68110425648053
 30
0.0
 10
1.869645588914572
 20
11.63839026121223
 30
0.0
 10
1.86601091561918
 20
11.53668223623978
 30
0.0
 10
1.863853343294601
 20
11.4791912287553
 30
0.0
 10
1.855768788459912
 20
11.24862981253951
 30
0.0
 10
1.850945359084961
 20
11.07776315519608
 30
0.0
 10
1.839768373401491
 20
10.45820729747897
 30
0.0
 10
1.830327946215621
 20
9.961289532772804
 30
0.0
 10
1.892027612309119
 20
9.420012027007885
 30
0.0
 10
1.901894116609907
 20
9.349453984709411
 30
0.0
 10
1.919934544826995
 20
9.247354591680682
 30
0.0
 10
1.927435448856384
 20
9.210696537310697
 30
0.0
 10
1.93640177856635
 20
9.172264532556823
 30
0.0
 10
1.938865781568979
 20
9.162482015335278
 30
0.0
 10
1.942643392890821
 20
9.148198644281853
 30
0.0
 10
1.943807187194699
 20
9.144310758520928
 30
0.0
 10
1.943952619795767
 20
9.143828291320154
 30
0.0
 10
1.943957423535445
 20
9.143812492185109
 30
0.0
 10
1.943957423059452
 20
9.143812493750697
 30
0.0
  0
ELLIPSE
  5
3681
330
366D
100
AcDbEntity
  8
0
100
AcDbEllipse
 10
-55.86568369636992
 20
-25.71605733189548
 30
0.0
 11
2.000000000000208
 21
-3.464101615137639
 31
0.0
210
0.0
220
0.0
230
1.0
 40
0.5773502691896257
 41
4.148467305611465
 42
5.497787143781955
  0
SPLINE
  5
3682
330
366D
100
AcDbEntity
  8
0
100
AcDbSpline
210
0.0
220
0.0
230
1.0
 70
     8
 71
     3
 72
     8
 73
     4
 74
     0
 42
0.000000001
 43
0.0000000001
 40
-1.0
 40
-1.0
 40
-1.0
 40
-1.0
 40
0.0
 40
0.0
 40
0.0
 40
0.0
 10
-58.62502414709372
 20
-24.84039153023307
 30
0.0
 10
-58.51247060672477
 20
-24.48721966346503
 30
0.0
 10
-58.37726501966447
 20
-24.14124622223721
 30
0.0
 10
-58.21884211893848
 20
-23.80866765690037
 30
0.0
  0
LINE
  5
3683
330
366D
100
AcDbEntity
  8
0
100
AcDbLine
 10
-55.86568369636992
 20
-27.34905049375094
 30
0.0
 11
2.117072360926952
 21
6.127309324285818
 31
0.0
  0
LINE
  5
3684
330
366D
100
AcDbEntity
  8
0
100
AcDbLine
 10
-57.24535392173184
 20
-25.27822443106427
 30
0.0
 11
-58.62502414709372
 21
-24.84039153023307
 31
0.0
  0
SPLINE
  5
3685
330
366D
100
AcDbEntity
  8
0
100
AcDbSpline
210
0.0
220
0.0
230
1.0
 70
     8
 71
     3
 72
     8
 73
     4
 74
     0
 42
0.000000001
 43
0.0000000001
 40
0.0
 40
0.0
 40
0.0
 40
0.0
 40
1.0
 40
1.0
 40
1.0
 40
1.0
 10
-56.80462855656539
 20
-24.6251642378281
 30
0.0
 10
-56.96305145729138
 20
-24.8371862726865
 30
0.0
 10
-57.10986570118447
 20
-25.05590574549034
 30
0.0
 10
-57.24535392173184
 20
-25.27822443106427
 30
0.0
  0
LINE
  5
3686
330
366D
100
AcDbEntity
  8
0
100
AcDbLine
 10
-56.80462855656539
 20
-24.62516423782809
 30
0.0
 11
0.7028587985538426
 21
8.576799067069016
 31
0.0
  0
ELLIPSE
  5
3687
330
366D
100
AcDbEntity
  8
0
100
AcDbEllipse
 10
-55.86568369636992
 20
-25.71605733189548
 30
0.0
 11
1.000000000000104
 21
-1.732050807568819
 31
0.0
210
0.0
220
0.0
230
1.0
 40
0.5773502691896254
 41
4.148467305611465
 42
5.497787143781953
  0
LINE
  5
3688
330
366D
100
AcDbEntity
  8
0
100
AcDbLine
 10
-55.86568369636992
 20
-28.98204365560639
 30
0.0
 11
-55.86568369636992
 21
-27.34905049375094
 31
0.0
  0
LINE
  5
3689
330
366D
100
AcDbEntity
  8
0
100
AcDbLine
 10
-1.650299624014701
 20
-56.4685308940094
 30
0.0
 11
55.85718773110453
 21
-23.26656758911231
 31
0.0
  0
SPLINE
  5
368A
330
366D
100
AcDbEntity
  8
0
100
AcDbSpline
210
0.0
220
0.0
230
1.0
 70
     8
 71
     3
 72
     8
 73
     4
 74
     0
 42
0.000000001
 43
0.0000000001
 40
0.0
 40
0.0
 40
0.0
 40
0.0
 40
1.0
 40
1.0
 40
1.0
 40
1.0
 10
-1.650299624014714
 20
-56.4685308940094
 30
0.0
 10
-1.808722524740713
 20
-56.80110945934625
 30
0.0
 10
-1.990362739132156
 20
-57.12027385598471
 30
0.0
 10
-2.194655000214735
 20
-57.4204803476536
 30
0.0
  0
ELLIPSE
  5
368B
330
366D
100
AcDbEntity
  8
0
100
AcDbEllipse
 10
-4.953995450938539
 20
-55.10993424529361
 30
0.0
 11
2.000000000000001
 21
-3.46410161513776
 31
0.0
210
0.0
220
0.0
230
1.0
 40
0.5773502691896257
 41
5.497787143782137
 42
6.847106981952687
  0
LINE
  5
368C
330
366D
100
AcDbEntity
  8
0
100
AcDbLine
 10
85.20211915034634
 20
-11.63149131089227
 30
0.0
 11
86.61633271271941
 21
-10.81499472996454
 31
0.0
  0
LINE
  5
368D
330
366D
100
AcDbEntity
  8
0
100
AcDbLine
 10
59.10696337854621
 20
-21.84927205850371
 30
0.0
 11
85.20211915034634
 21
-11.63149131089227
 31
0.0
  0
ELLIPSE
  5
368E
330
366D
100
AcDbEntity
  8
0
100
AcDbEllipse
 10
72.82775047958167
 20
2.861323000574919
 30
0.0
 11
-2.749999999999997
 21
4.763139720814415
 31
0.0
210
0.0
220
0.0
230
1.0
 40
0.5773502691896257
 41
0.260050897727897
 42
2.881541755861893
  0
ELLIPSE
  5
368F
330
366D
100
AcDbEntity
  8
0
100
AcDbEllipse
 10
80.60592507263368
 20
-5.711891099166202
 30
0.0
 11
1.250000000000127
 21
-2.165063509461023
 31
0.0
210
0.0
220
0.0
230
1.0
 40
0.5773502691896255
 41
3.742856870268578
 42
5.681921090500122
  0
ELLIPSE
  5
3690
330
366D
100
AcDbEntity
  8
0
100
AcDbEllipse
 10
65.04957588652965
 20
-4.895394518238483
 30
0.0
 11
1.250000000000127
 21
-2.165063509461023
 31
0.0
210
0.0
220
0.0
230
1.0
 40
0.5773502691896255
 41
3.742856870268578
 42
5.681921090500122
  0
ELLIPSE
  5
3691
330
366D
100
AcDbEntity
  8
0
100
AcDbEllipse
 10
65.04957588652965
 20
11.43453710031604
 30
0.0
 11
1.250000000000127
 21
-2.165063509461023
 31
0.0
210
0.0
220
0.0
230
1.0
 40
0.5773502691896255
 41
3.742856870268578
 42
5.681921090500122
  0
ELLIPSE
  5
3692
330
366D
100
AcDbEntity
  8
0
100
AcDbEllipse
 10
80.60592507263368
 20
10.61804051938832
 30
0.0
 11
1.250000000000127
 21
-2.165063509461023
 31
0.0
210
0.0
220
0.0
230
1.0
 40
0.5773502691896255
 41
3.742856870268578
 42
5.681921090500122
  0
LINE
  5
3693
330
366D
100
AcDbEntity
  8
0
100
AcDbLine
 10
60.09982841822384
 20
26.53972384747899
 30
0.0
 11
86.61633271271936
 21
11.23041295508411
 31
0.0
  0
LINE
  5
3694
330
366D
100
AcDbEntity
  8
0
100
AcDbLine
 10
86.61633271271941
 20
-10.81499472996454
 30
0.0
 11
86.61633271271936
 21
11.23041295508411
 31
0.0
  0
ELLIPSE
  5
3695
330
366D
100
AcDbEntity
  8
0
100
AcDbEllipse
 10
57.27140129347763
 20
24.90673068562353
 30
0.0
 11
3.999999999999998
 21
-0.0000000000002387
 31
0.0
210
0.0
220
0.0
230
1.0
 40
0.5773502691896261
 41
0.7853981633976881
 42
2.356194490192585
  0
LINE
  5
3696
330
366D
100
AcDbEntity
  8
0
100
AcDbLine
 10
-4.953995450938557
 20
-56.74292740714908
 30
0.0
 11
-3.064513186387798
 21
-55.65203431308167
 31
0.0
  0
ELLIPSE
  5
3697
330
366D
100
AcDbEntity
  8
0
100
AcDbEllipse
 10
30.04779021779556
 20
0.2077091125598096
 30
0.0
 11
1.24999999999987
 21
2.165063509461172
 31
0.0
210
0.0
220
0.0
230
0.9999999999999998
 40
0.5773502691896259
 41
3.742856870268575
 42
5.681921090500118
  0
ELLIPSE
  5
3698
330
366D
100
AcDbEntity
  8
0
100
AcDbEllipse
 10
31.46200378016865
 20
-0.6087874683679184
 30
0.0
 11
-1.25
 21
-2.165063509461097
 31
0.0
210
0.0
220
0.0
230
1.0
 40
0.5773502691896258
 41
0.0
 42
6.283185307179586
  0
ELLIPSE
  5
3699
330
366D
100
AcDbEntity
  8
0
100
AcDbEllipse
 10
30.04779021779556
 20
-16.12222250599471
 30
0.0
 11
1.24999999999987
 21
2.165063509461172
 31
0.0
210
0.0
220
0.0
230
0.9999999999999998
 40
0.5773502691896259
 41
3.742856870268575
 42
5.681921090500118
  0
ELLIPSE
  5
369A
330
366D
100
AcDbEntity
  8
0
100
AcDbEllipse
 10
31.46200378016865
 20
-16.93871908692244
 30
0.0
 11
-1.25
 21
-2.165063509461097
 31
0.0
210
0.0
220
0.0
230
1.0
 40
0.5773502691896258
 41
0.0
 42
6.283185307179586
  0
LINE
  5
369B
330
366D
100
AcDbEntity
  8
0
100
AcDbLine
 10
-1.650299624014701
 20
-56.4685308940094
 30
0.0
 11
-2.678094116445466
 21
-55.87513346713287
 31
0.0
  0
LINE
  5
369C
330
366D
100
AcDbEntity
  8
0
100
AcDbLine
 10
-2.678094116445466
 20
-55.87513346713287
 30
0.0
 11
-3.064513186387798
 21
-55.65203431308166
 31
0.0
  0
SPLINE
  5
369D
330
366D
100
AcDbEntity
  8
0
100
AcDbSpline
210
0.0
220
0.0
230
1.0
 70
     8
 71
     3
 72
     8
 73
     4
 74
     0
 42
0.000000001
 43
0.0000000001
 40
-1.0
 40
-1.0
 40
-1.0
 40
-1.0
 40
0.0
 40
0.0
 40
0.0
 40
0.0
 10
-3.574325225576635
 20
-56.26520729647361
 30
0.0
 10
-3.392967644672459
 20
-56.06937129844924
 30
0.0
 10
-3.22293608711381
 20
-55.86405634794008
 30
0.0
 10
-3.064513186387811
 20
-55.65203431308167
 30
0.0
  0
LINE
  5
369E
330
366D
100
AcDbEntity
  8
0
100
AcDbLine
 10
-2.194655000214735
 20
-57.4204803476536
 30
0.0
 11
-3.574325225576635
 21
-56.26520729647361
 31
0.0
  0
LINE
  5
369F
330
366D
100
AcDbEntity
  8
0
100
AcDbLine
 10
24.74448935889645
 20
-12.65211203705187
 30
0.0
 11
24.74448935889645
 21
9.393295647996726
 31
0.0
  0
LINE
  5
36A0
330
366D
100
AcDbEntity
  8
0
100
AcDbLine
 10
26.15870292126955
 20
-13.46860861797959
 30
0.0
 11
24.74448935889645
 21
-12.65211203705187
 31
0.0
  0
LINE
  5
36A1
330
366D
100
AcDbEntity
  8
0
100
AcDbLine
 10
26.15870292126955
 20
8.576799067069005
 30
0.0
 11
26.15870292126955
 21
-13.46860861797959
 31
0.0
  0
LINE
  5
36A2
330
366D
100
AcDbEntity
  8
0
100
AcDbLine
 10
24.74448935889645
 20
9.393295647996724
 30
0.0
 11
26.15870292126955
 21
8.576799067069005
 31
0.0
  0
LINE
  5
36A3
330
366D
100
AcDbEntity
  8
0
100
AcDbLine
 10
-3.064513186387798
 20
-55.65203431308166
 30
0.0
 11
24.74448935889645
 21
-12.65211203705187
 31
0.0
  0
LINE
  5
36A4
330
366D
100
AcDbEntity
  8
0
100
AcDbLine
 10
26.15870292126955
 20
-13.46860861797959
 30
0.0
 11
-1.650299624014701
 21
-56.4685308940094
 31
0.0
  0
LINE
  5
36A5
330
366D
100
AcDbEntity
  8
0
100
AcDbLine
 10
24.74448935889645
 20
9.393295647996724
 30
0.0
 11
54.44297416873144
 21
26.53972384747899
 31
0.0
  0
LINE
  5
36A6
330
366D
100
AcDbEntity
  8
0
100
AcDbLine
 10
86.61633271271936
 20
11.23041295508411
 30
0.0
 11
85.20211915034625
 21
10.41391637415638
 31
0.0
  0
LINE
  5
36A7
330
366D
100
AcDbEntity
  8
0
100
AcDbLine
 10
85.20211915034634
 20
-11.63149131089227
 30
0.0
 11
85.20211915034625
 21
10.41391637415638
 31
0.0
  0
ELLIPSE
  5
36A8
330
366D
100
AcDbEntity
  8
0
100
AcDbEllipse
 10
-4.953995450938539
 20
-55.10993424529361
 30
0.0
 11
1.0
 21
-1.732050807568879
 31
0.0
210
0.0
220
0.0
230
1.0
 40
0.5773502691896257
 41
5.49778714378214
 42
6.84710698195269
  0
LINE
  5
36A9
330
366D
100
AcDbEntity
  8
0
100
AcDbLine
 10
-4.953995450938557
 20
-56.74292740714908
 30
0.0
 11
-4.953995450938557
 21
-58.37592056900454
 31
0.0
  0
LINE
  5
36AA
330
366D
100
AcDbEntity
  8
0
100
AcDbLine
 10
58.68561485585073
 20
-21.60600637550283
 30
0.0
 11
58.68561485585074
 21
25.72322726655126
 31
0.0
  0
ELLIPSE
  5
36AB
330
366D
100
AcDbEntity
  8
0
100
AcDbEllipse
 10
57.27140129347763
 20
24.90673068562353
 30
0.0
 11
-2.000000000000001
 21
-0.0000000000001192
 31
0.0
210
0.0
220
0.0
230
1.0
 40
0.5773502691896259
 41
3.926990816986991
 42
5.497787143781896
  0
LINE
  5
36AC
330
366D
100
AcDbEntity
  8
0
100
AcDbLine
 10
55.85718773110453
 20
-21.60600637550283
 30
0.0
 11
55.85718773110453
 21
25.72322726655126
 31
0.0
  0
LINE
  5
36AD
330
366D
100
AcDbEntity
  8
0
100
AcDbLine
 10
55.85718773110453
 20
25.72322726655126
 30
0.0
 11
26.15870292126955
 21
8.576799067069007
 31
0.0
  0
LINE
  5
36AE
330
366D
100
AcDbEntity
  8
0
100
AcDbLine
 10
55.85718773110453
 20
25.72322726655126
 30
0.0
 11
54.44297416873144
 21
26.53972384747899
 31
0.0
  0
LINE
  5
36AF
330
366D
100
AcDbEntity
  8
0
100
AcDbLine
 10
58.68561485585074
 20
25.72322726655126
 30
0.0
 11
60.09982841822384
 21
26.53972384747899
 31
0.0
  0
LINE
  5
36B0
330
366D
100
AcDbEntity
  8
0
100
AcDbLine
 10
85.20211915034625
 20
10.41391637415638
 30
0.0
 11
58.68561485585074
 21
25.72322726655126
 31
0.0
  0
ELLIPSE
  5
36B1
330
366D
100
AcDbEntity
  8
0
100
AcDbEllipse
 10
71.41353691720857
 20
2.044826419647195
 30
0.0
 11
-2.749999999999998
 21
4.763139720814414
 31
0.0
210
0.0
220
0.0
230
1.0
 40
0.5773502691896255
 41
0.0
 42
6.283185307179586
  0
ELLIPSE
  5
36B2
330
366D
100
AcDbEntity
  8
0
100
AcDbEllipse
 10
79.1917115102606
 20
-6.528387680093926
 30
0.0
 11
-1.249999999999998
 21
2.165063509461097
 31
0.0
210
0.0
220
0.0
230
0.9999999999999998
 40
0.5773502691896255
 41
0.0
 42
6.283185307179586
  0
ELLIPSE
  5
36B3
330
366D
100
AcDbEntity
  8
0
100
AcDbEllipse
 10
63.63536232415656
 20
-5.711891099166207
 30
0.0
 11
-1.249999999999998
 21
2.165063509461097
 31
0.0
210
0.0
220
0.0
230
0.9999999999999998
 40
0.5773502691896255
 41
0.0
 42
6.283185307179586
  0
ELLIPSE
  5
36B4
330
366D
100
AcDbEntity
  8
0
100
AcDbEllipse
 10
63.63536232415656
 20
10.61804051938832
 30
0.0
 11
-1.249999999999998
 21
2.165063509461097
 31
0.0
210
0.0
220
0.0
230
0.9999999999999998
 40
0.5773502691896255
 41
0.0
 42
6.283185307179586
  0
ELLIPSE
  5
36B5
330
366D
100
AcDbEntity
  8
0
100
AcDbEllipse
 10
79.1917115102606
 20
9.801543938460598
 30
0.0
 11
-1.249999999999998
 21
2.165063509461097
 31
0.0
210
0.0
220
0.0
230
0.9999999999999998
 40
0.5773502691896255
 41
0.0
 42
6.283185307179586
  0
LINE
  5
36B6
330
366D
100
AcDbEntity
  8
0
100
AcDbLine
 10
-2.953995450938537
 20
-58.57403586043137
 30
0.0
 11
55.02876060635834
 21
-25.09767604239461
 31
0.0
  0
ELLIPSE
  5
36B7
330
366D
100
AcDbEntity
  8
0
100
AcDbEllipse
 10
-19.80323785585604
 20
68.58929776525688
 30
0.0
 11
1.250000000000129
 21
-2.165063509461022
 31
0.0
210
0.0
220
0.0
230
1.0
 40
0.5773502691896259
 41
3.742856870268571
 42
5.681921090500116
  0
ELLIPSE
  5
36B8
330
366D
100
AcDbEntity
  8
0
100
AcDbEllipse
 10
-19.80323785585604
 20
52.25936614670235
 30
0.0
 11
1.250000000000129
 21
-2.165063509461022
 31
0.0
210
0.0
220
0.0
230
1.0
 40
0.5773502691896259
 41
3.742856870268571
 42
5.681921090500116
  0
ELLIPSE
  5
36B9
330
366D
100
AcDbEntity
  8
0
100
AcDbEllipse
 10
-21.21745141822913
 20
51.44286956577463
 30
0.0
 11
1.25
 21
-2.165063509461097
 31
0.0
210
0.0
220
0.0
230
1.0
 40
0.5773502691896259
 41
0.0
 42
6.283185307179586
  0
ELLIPSE
  5
36BA
330
366D
100
AcDbEntity
  8
0
100
AcDbEllipse
 10
-21.21745141822913
 20
67.77280118432916
 30
0.0
 11
1.25
 21
-2.165063509461097
 31
0.0
210
0.0
220
0.0
230
1.0
 40
0.5773502691896259
 41
0.0
 42
6.283185307179586
  0
ELLIPSE
  5
36BB
330
366D
100
AcDbEntity
  8
0
100
AcDbEllipse
 10
-12.02506326280402
 20
51.85111785623849
 30
0.0
 11
-2.750000000000002
 21
4.763139720814413
 31
0.0
210
0.0
220
0.0
230
1.0
 40
0.5773502691896259
 41
0.2600508977278952
 42
1.570796326794896
  0
ELLIPSE
  5
36BC
330
366D
100
AcDbEntity
  8
0
100
AcDbEllipse
 10
-13.43927682517711
 20
51.03462127531077
 30
0.0
 11
-2.75
 21
4.763139720814414
 31
0.0
210
0.0
220
0.0
230
1.0
 40
0.5773502691896259
 41
4.712388980384689
 42
7.853981633974482
  0
LINE
  5
36BD
330
366D
100
AcDbEntity
  8
0
100
AcDbLine
 10
0.7028587985538293
 20
60.8325802464435
 30
0.0
 11
-25.81364549594171
 21
76.14189113883836
 31
0.0
  0
LINE
  5
36BE
330
366D
100
AcDbEntity
  8
0
100
AcDbLine
 10
-27.2278590583148
 20
75.32539455791064
 30
0.0
 11
-0.711354763819263
 21
60.01608366551578
 31
0.0
  0
LINE
  5
36BF
330
366D
100
AcDbEntity
  8
0
100
AcDbLine
 10
-27.22785905831486
 20
53.27998687286205
 30
0.0
 11
-27.2278590583148
 21
75.32539455791064
 31
0.0
  0
LINE
  5
36C0
330
366D
100
AcDbEntity
  8
0
100
AcDbLine
 10
-28.99562601128114
 20
40.42016572325032
 30
0.0
 11
0.7028587985538337
 21
57.56659392273258
 31
0.0
  0
LINE
  5
36C1
330
366D
100
AcDbEntity
  8
0
100
AcDbLine
 10
-0.7113547638192586
 20
58.38309050366031
 30
0.0
 11
-30.40983957365424
 21
41.23666230417804
 31
0.0
  0
LINE
  5
36C2
330
366D
100
AcDbEntity
  8
0
100
AcDbLine
 10
-25.81364549594171
 20
76.14189113883836
 30
0.0
 11
-27.2278590583148
 21
75.32539455791064
 31
0.0
  0
LINE
  5
36C3
330
366D
100
AcDbEntity
  8
0
100
AcDbLine
 10
-27.22785905831486
 20
53.27998687286205
 30
0.0
 11
-22.42179275554808
 21
45.84856328491098
 31
0.0
  0
LINE
  5
36C4
330
366D
100
AcDbEntity
  8
0
100
AcDbLine
 10
-58.21884211893848
 20
-23.80866765690036
 30
0.0
 11
-57.19104762650772
 21
-24.40206508377688
 31
0.0
  0
LINE
  5
36C5
330
366D
100
AcDbEntity
  8
0
100
AcDbLine
 10
-57.19104762650772
 20
-24.40206508377688
 30
0.0
 11
-56.80462855656539
 21
-24.62516423782809
 31
0.0
  0
LINE
  5
36C6
330
366D
100
AcDbEntity
  8
0
100
AcDbLine
 10
-28.99562601128114
 20
40.42016572325032
 30
0.0
 11
-28.99562601128114
 21
18.37475803820172
 31
0.0
  0
LINE
  5
36C7
330
366D
100
AcDbEntity
  8
0
100
AcDbLine
 10
-30.40983957365424
 20
41.23666230417804
 30
0.0
 11
-28.99562601128114
 21
40.42016572325032
 31
0.0
  0
LINE
  5
36C8
330
366D
100
AcDbEntity
  8
0
100
AcDbLine
 10
-30.40983957365424
 20
19.19125461912944
 30
0.0
 11
-30.40983957365424
 21
41.23666230417804
 31
0.0
  0
LINE
  5
36C9
330
366D
100
AcDbEntity
  8
0
100
AcDbLine
 10
-30.40983957365424
 20
19.19125461912944
 30
0.0
 11
-28.99562601128114
 21
18.37475803820172
 31
0.0
  0
LINE
  5
36CA
330
366D
100
AcDbEntity
  8
0
100
AcDbLine
 10
-28.99562601128114
 20
18.37475803820172
 30
0.0
 11
-56.80462855656539
 21
-24.62516423782809
 31
0.0
  0
LINE
  5
36CB
330
366D
100
AcDbEntity
  8
0
100
AcDbLine
 10
-58.21884211893848
 20
-23.80866765690036
 30
0.0
 11
-30.40983957365424
 21
19.19125461912944
 31
0.0
  0
ELLIPSE
  5
36CC
330
366D
100
AcDbEntity
  8
0
100
AcDbEllipse
 10
-17.68191751229639
 20
-34.69751972210048
 30
0.0
 11
-2.499999999999999
 21
0.0000000000001492
 31
0.0
210
0.0
220
0.0
230
1.0
 40
0.5773502691896261
 41
0.0
 42
6.283185307179586
  0
ELLIPSE
  5
36CD
330
366D
100
AcDbEntity
  8
0
100
AcDbEllipse
 10
-3.539781888565443
 20
-26.53255391282321
 30
0.0
 11
-2.499999999999999
 21
0.0000000000001492
 31
0.0
210
0.0
220
0.0
230
1.0
 40
0.5773502691896261
 41
0.0
 42
6.283185307179586
  0
LINE
  5
36CE
330
366D
100
AcDbEntity
  8
0
100
AcDbLine
 10
24.74448935889647
 20
-5.303642808702329
 30
0.0
 11
3.531285923300022
 21
6.943805905213568
 31
0.0
  0
LINE
  5
36CF
330
366D
100
AcDbEntity
  8
0
100
AcDbLine
 10
-55.86568369636992
 20
-27.34905049375094
 30
0.0
 11
-4.953995450938561
 21
-56.74292740714908
 31
0.0
  0
ELLIPSE
  5
36D0
330
366D
100
AcDbEntity
  8
0
100
AcDbEllipse
 10
-3.539781888565443
 20
-28.16554707467866
 30
0.0
 11
-2.5
 21
-0.0000000000001492
 31
0.0
210
0.0
220
0.0
230
1.0
 40
0.577350269189626
 41
3.742856870268582
 42
5.681921090500122
  0
ELLIPSE
  5
36D1
330
366D
100
AcDbEntity
  8
0
100
AcDbEllipse
 10
-17.68191751229639
 20
-36.33051288395593
 30
0.0
 11
-2.5
 21
-0.0000000000001492
 31
0.0
210
0.0
220
0.0
230
1.0
 40
0.577350269189626
 41
3.742856870268582
 42
5.681921090500122
  0
LINE
  5
36D2
330
366D
100
AcDbEntity
  8
0
100
AcDbLine
 10
-4.953995450938557
 20
-58.37592056900454
 30
0.0
 11
-55.86568369636991
 21
-28.98204365560639
 31
0.0
  0
LINE
  5
36D3
330
366D
100
AcDbEntity
  8
0
100
AcDbLine
 10
-0.7113547638192586
 20
58.38309050366031
 30
0.0
 11
-0.711354763819263
 21
60.01608366551578
 31
0.0
  0
ELLIPSE
  5
36D4
330
366D
100
AcDbEntity
  8
0
100
AcDbEllipse
 10
-2.125568326192355
 20
59.19958708458803
 30
0.0
 11
2.000000000000001
 21
0.0000000000000003
 31
0.0
210
0.0
220
0.0
230
1.0
 40
0.5773502691896259
 41
5.497787143782136
 42
7.068583470577036
  0
LINE
  5
36D5
330
366D
100
AcDbEntity
  8
0
100
AcDbLine
 10
-0.7113547638192586
 20
58.38309050366031
 30
0.0
 11
0.7028587985538337
 21
57.56659392273258
 31
0.0
  0
LINE
  5
36D6
330
366D
100
AcDbEntity
  8
0
100
AcDbLine
 10
0.7028587985538337
 20
57.56659392273258
 30
0.0
 11
0.7028587985538337
 21
10.2373602806785
 31
0.0
  0
ELLIPSE
  5
36D7
330
366D
100
AcDbEntity
  8
0
100
AcDbEllipse
 10
-2.125568326192355
 20
59.19958708458803
 30
0.0
 11
3.999999999999998
 21
0.0
 31
0.0
210
0.0
220
0.0
230
1.0
 40
0.5773502691896261
 41
5.497787143782137
 42
7.068583470577036
  0
LINE
  5
36D8
330
366D
100
AcDbEntity
  8
0
100
AcDbLine
 10
-0.711354763819263
 20
60.01608366551578
 30
0.0
 11
0.7028587985538293
 21
60.8325802464435
 31
0.0
  0
LINE
  5
36D9
330
366D
100
AcDbEntity
  8
0
100
AcDbLine
 10
1.874431673807643
 20
11.87035344253395
 30
0.0
 11
1.874431673807643
 21
59.19958708458803
 31
0.0
  0
ELLIPSE
  5
36DA
330
366D
100
AcDbEntity
  8
0
100
AcDbEllipse
 10
-25.10653871475511
 20
23.88610995946387
 30
0.0
 11
1.24999999999987
 21
2.165063509461172
 31
0.0
210
0.0
220
0.0
230
0.9999999999999998
 40
0.5773502691896257
 41
3.742856870268578
 42
5.681921090500117
  0
ELLIPSE
  5
36DB
330
366D
100
AcDbEntity
  8
0
100
AcDbEllipse
 10
-23.69232515238202
 20
23.06961337853616
 30
0.0
 11
1.249999999999999
 21
2.165063509461097
 31
0.0
210
0.0
220
0.0
230
1.0
 40
0.5773502691896257
 41
0.0
 42
6.283185307179586
  0
ELLIPSE
  5
36DC
330
366D
100
AcDbEntity
  8
0
100
AcDbEllipse
 10
-25.10653871475512
 20
40.21604157801839
 30
0.0
 11
1.24999999999987
 21
2.165063509461172
 31
0.0
210
0.0
220
0.0
230
1.0
 40
0.5773502691896255
 41
3.742856870268582
 42
5.681921090500117
  0
ELLIPSE
  5
36DD
330
366D
100
AcDbEntity
  8
0
100
AcDbEllipse
 10
-23.69232515238202
 20
39.39954499709067
 30
0.0
 11
1.249999999999999
 21
2.165063509461097
 31
0.0
210
0.0
220
0.0
230
1.0
 40
0.5773502691896257
 41
0.0
 42
6.283185307179586
  0
ELLIPSE
  5
36DE
330
366D
100
AcDbEntity
  8
0
100
AcDbEllipse
 10
-25.10653871475511
 20
7.55617834090935
 30
0.0
 11
1.24999999999987
 21
2.165063509461172
 31
0.0
210
0.0
220
0.0
230
1.0
 40
0.5773502691896255
 41
3.742856870268582
 42
5.681921090500116
  0
ELLIPSE
  5
36DF
330
366D
100
AcDbEntity
  8
0
100
AcDbEllipse
 10
-23.69232515238202
 20
6.739681759981626
 30
0.0
 11
1.249999999999999
 21
2.165063509461097
 31
0.0
210
0.0
220
0.0
230
1.0
 40
0.5773502691896257
 41
0.0
 42
6.283185307179586
  0
ENDBLK
  5
366F
330
366D
100
AcDbEntity
  8
0
100
AcDbBlockEnd
  0
ENDSEC
  0
SECTION
  2
ENTITIES
  0
INSERT
  5
36E0
330
1F
100
AcDbEntity
  8
0
100
AcDbBlockReference
  2
SAE200_76_2-Front
 10
0.0
 20
0.0
 30
0.0
  0
INSERT
  5
36E1
330
1F
100
AcDbEntity
  8
0
100
AcDbBlockReference
  2
SAE200_76_2-Left
 10
112.6000001815445
 20
0.0
 30
0.0
  0
INSERT
  5
36E2
330
1F
100
AcDbEntity
  8
0
100
AcDbBlockReference
  2
SAE200_76_2-Right
 10
-112.6000019969867
 20
0.0
 30
0.0
  0
INSERT
  5
36E3
330
1F
100
AcDbEntity
  8
0
100
AcDbBlockReference
  2
SAE200_76_2-Top
 10
0.0
 20
-35.1003194636869
 30
0.0
  0
INSERT
  5
36E4
330
1F
100
AcDbEntity
  8
0
100
AcDbBlockReference
  2
SAE200_76_2-Bottom
 10
0.0
 20
95.10000479185597
 30
0.0
  0
INSERT
  5
36E5
330
1F
100
AcDbEntity
  8
0
100
AcDbBlockReference
  2
SAE200_76_2-ISO
 10
171.2250243286382
 20
-111.2422106025239
 30
0.0
  0
MTEXT
  5
36E6
330
1F
100
AcDbEntity
  8
0
100
AcDbMText
 10
0.0
 20
-154.2003196452311
 30
0.0
 40
11.03333339384809
 41
0.0
 71
     5
 72
     5
  1
SAE200/76/2
 73
     1
 44
1.0
1001
ACAD
1000
MTEXTBEGIN
1070
    73
1070
     1
1070
    44
1040
1.0
1070
    74
1070
     0
1000
MTEXTEND
  0
ENDSEC
  0
SECTION
  2
OBJECTS
  0
DICTIONARY
  5
C
330
0
100
AcDbDictionary
281
     1
  3
ACAD_CIP_PREVIOUS_PRODUCT_INFO
350
216
  3
ACAD_COLOR
350
6B
  3
ACAD_DETAILVIEWSTYLE
350
21B
  3
ACAD_GROUP
350
D
  3
ACAD_LAYOUT
350
1A
  3
ACAD_MATERIAL
350
6A
  3
ACAD_MLEADERSTYLE
350
12D
  3
ACAD_MLINESTYLE
350
17
  3
ACAD_PLOTSETTINGS
350
19
  3
ACAD_PLOTSTYLENAME
350
E
  3
ACAD_SCALELIST
350
10C
  3
ACAD_SECTIONVIEWSTYLE
350
219
  3
ACAD_TABLESTYLE
350
7E
  3
ACAD_VISUALSTYLE
350
EF
  3
ACDB_RECOMPOSE_DATA
350
37E7
  3
AcDbVariableDictionary
350
5E
  3
DWGPROPS
350
37E8
  0
DICTIONARY
  5
3737
330
8
100
AcDbDictionary
280
     1
281
     1
  0
DICTIONARY
  5
1FF
330
2
100
AcDbDictionary
280
     1
281
     1
  3
ACAD_LAYERSTATES
360
200
  0
DICTIONARY
  5
13C
330
10
100
AcDbDictionary
280
     1
281
     1
  0
DICTIONARY
  5
1CE
330
1F
100
AcDbDictionary
280
     1
281
     1
  3
ACAD_LAYOUTSELFREF
360
373F
  0
DICTIONARY
  5
36EA
330
D2
100
AcDbDictionary
280
     1
281
     1
  3
ACAD_LAYOUTSELFREF
360
3748
  0
DICTIONARY
  5
36EC
330
D6
100
AcDbDictionary
280
     1
281
     1
  3
ACAD_LAYOUTSELFREF
360
374B
  0
XRECORD
  5
216
102
{ACAD_REACTORS
330
C
102
}
330
C
100
AcDbXrecord
280
     1
300
ACD
300
2021
300
87393ACD_2021_0F
  0
DICTIONARY
  5
6B
102
{ACAD_REACTORS
330
C
102
}
330
C
100
AcDbDictionary
281
     1
  0
DICTIONARY
  5
21B
102
{ACAD_REACTORS
330
C
102
}
330
C
100
AcDbDictionary
281
     1
  3
Metric50
350
21C
  0
DICTIONARY
  5
D
102
{ACAD_REACTORS
330
C
102
}
330
C
100
AcDbDictionary
281
     1
  0
DICTIONARY
  5
1A
102
{ACAD_REACTORS
330
C
102
}
330
C
100
AcDbDictionary
281
     1
  3
Layout1
350
D3
  3
Layout2
350
D7
  3
Model
350
22
  0
DICTIONARY
  5
6A
102
{ACAD_REACTORS
330
C
102
}
330
C
100
AcDbDictionary
281
     1
  3
ByBlock
350
ED
  3
ByLayer
350
EC
  3
Global
350
EE
  0
DICTIONARY
  5
12D
102
{ACAD_REACTORS
330
C
102
}
330
C
100
AcDbDictionary
281
     1
  3
Standard
350
12E
  0
DICTIONARY
  5
17
102
{ACAD_REACTORS
330
C
102
}
330
C
100
AcDbDictionary
281
     1
  3
Standard
350
18
  0
DICTIONARY
  5
19
102
{ACAD_REACTORS
330
C
102
}
330
C
100
AcDbDictionary
281
     1
  0
ACDBDICTIONARYWDFLT
  5
E
102
{ACAD_REACTORS
330
C
102
}
330
C
100
AcDbDictionary
281
     1
  3
Normal
350
F
100
AcDbDictionaryWithDefault
340
F
  0
DICTIONARY
  5
10C
102
{ACAD_REACTORS
330
C
102
}
330
C
100
AcDbDictionary
281
     1
  3
A0
350
10D
  3
A1
350
1BE
  3
A2
350
1BF
  3
A3
350
1C0
  3
A4
350
1C1
  3
A5
350
1C2
  3
A6
350
1C3
  3
A7
350
1C4
  3
A8
350
1C5
  3
A9
350
1C6
  3
B0
350
1C7
  3
B1
350
1C8
  3
B2
350
1C9
  3
B3
350
1CA
  3
B4
350
1CB
  3
B5
350
1CC
  3
B6
350
1CD
  0
DICTIONARY
  5
219
102
{ACAD_REACTORS
330
C
102
}
330
C
100
AcDbDictionary
281
     1
  3
Metric50
350
21A
  0
DICTIONARY
  5
7E
102
{ACAD_REACTORS
330
C
102
}
330
C
100
AcDbDictionary
281
     1
  3
Standard
350
7F
  0
DICTIONARY
  5
EF
102
{ACAD_REACTORS
330
C
102
}
330
C
100
AcDbDictionary
281
     1
  3
2dWireframe
350
F5
  3
Basic
350
F4
  3
Brighten
350
FB
  3
ColorChange
350
FF
  3
Conceptual
350
F8
  3
Dim
350
FA
  3
EdgeColorOff
350
1E6
  3
Facepattern
350
FE
  3
Flat
350
F0
  3
FlatWithEdges
350
F1
  3
Gouraud
350
F2
  3
GouraudWithEdges
350
F3
  3
Hidden
350
F7
  3
JitterOff
350
1E4
  3
Linepattern
350
FD
  3
OverhangOff
350
1E5
  3
Realistic
350
F9
  3
Shaded
350
1F3
  3
Shaded with edges
350
1F2
  3
Shades of Gray
350
1EF
  3
Sketchy
350
1F0
  3
Thicken
350
FC
  3
Wireframe
350
F6
  3
X-Ray
350
1F1
  0
XRECORD
  5
37E7
102
{ACAD_REACTORS
330
C
102
}
330
C
100
AcDbXrecord
280
     1
 90
        1
330
7F
  0
DICTIONARY
  5
5E
102
{ACAD_REACTORS
330
C
102
}
330
C
100
AcDbDictionary
281
     1
  3
CANNOSCALE
350
146
  3
CENTEREXE
350
259
  3
CENTERLTYPEFILE
350
25A
  3
CMLEADERSTYLE
350
145
  3
CTABLESTYLE
350
84
  3
CVIEWDETAILSTYLE
350
227
  3
CVIEWSECTIONSTYLE
350
228
  3
DIMASSOC
350
5F
  3
HIDETEXT
350
63
  3
INDEXCTL
350
3794
  3
LAYEREVAL
350
1AE
  3
LAYERNOTIFY
350
1AF
  3
LIGHTINGUNITS
350
3792
  3
MSLTSCALE
350
3791
  3
PSOLHEIGHT
350
37E4
  3
PSOLWIDTH
350
37E3
  3
SORTENTS
350
3793
  3
XCLIPFRAME
350
37E5
  0
XRECORD
  5
37E8
102
{ACAD_REACTORS
330
C
102
}
330
C
100
AcDbXrecord
280
     1
  1
DWGPROPS COOKIE
  2

  3

  4

  6

  7

  8
truole
  9

300
=
301
=
302
=
303
=
304
=
305
=
306
=
307
=
308
=
309
=
 40
0.0069097222222222
 41
2460398.356956019
 42
2460398.371365741
  1

 90
        0
  0
DICTIONARY
  5
200
102
{ACAD_REACTORS
330
1FF
102
}
330
1FF
100
AcDbDictionary
281
     1
  0
XRECORD
  5
373F
102
{ACAD_REACTORS
330
1CE
102
}
330
1CE
100
AcDbXrecord
280
     1
340
1F
  0
XRECORD
  5
3748
102
{ACAD_REACTORS
330
36EA
102
}
330
36EA
100
AcDbXrecord
280
     1
340
D2
  0
XRECORD
  5
374B
102
{ACAD_REACTORS
330
36EC
102
}
330
36EC
100
AcDbXrecord
280
     1
340
D6
  0
ACDBDETAILVIEWSTYLE
  5
21C
102
{ACAD_XDICTIONARY
360
3827
102
}
102
{ACAD_REACTORS
330
21B
102
}
330
21B
100
AcDbModelDocViewStyle
 70
     0
  3
Metric50
290
     0
100
AcDbDetailViewStyle
 70
     0
 71
     0
 90
        3
 71
     1
340
11
 40
5.0
340
0
 40
5.0
300

 40
0.0
280
     1
 71
     2
340
16
 90
       25
 71
     3
340
11
 40
5.0
 90
        0
 40
15.0
 90
        1
300
%<\AcVar ViewDetailId>% (%<\AcVar ViewScale \f "%sn">%)
 71
     4
340
16
 90
       25
340
16
 90
       25
280
     0
  0
LAYOUT
  5
D3
102
{ACAD_XDICTIONARY
360
37EC
102
}
102
{ACAD_REACTORS
330
1A
102
}
330
1A
100
AcDbPlotSettings
  1

  2
C:\Documents and Settings\basas\Application Data\Autodesk\AutoCAD 2005\R16.1\enu\plotters\Default Windows System Printer.pc3
  4

  6

 40
0.0
 41
0.0
 42
0.0
 43
0.0
 44
0.0
 45
0.0
 46
0.0
 47
0.0
 48
0.0
 49
0.0
140
0.0
141
0.0
142
1.0
143
1.0
 70
   688
 72
     0
 73
     0
 74
     5
  7

 75
    16
147
1.0
148
0.0
149
0.0
100
AcDbLayout
  1
Layout1
 70
     1
 71
     1
 10
0.0
 20
0.0
 11
12.0
 21
9.0
 12
0.0
 22
0.0
 32
0.0
 14
0.0
 24
0.0
 34
0.0
 15
0.0
 25
0.0
 35
0.0
146
0.0
 13
0.0
 23
0.0
 33
0.0
 16
1.0
 26
0.0
 36
0.0
 17
0.0
 27
1.0
 37
0.0
 76
     0
330
D2
  0
LAYOUT
  5
D7
102
{ACAD_XDICTIONARY
360
37EE
102
}
102
{ACAD_REACTORS
330
1A
102
}
330
1A
100
AcDbPlotSettings
  1

  2
C:\Documents and Settings\basas\Application Data\Autodesk\AutoCAD 2005\R16.1\enu\plotters\Default Windows System Printer.pc3
  4

  6

 40
0.0
 41
0.0
 42
0.0
 43
0.0
 44
0.0
 45
0.0
 46
0.0
 47
0.0
 48
0.0
 49
0.0
140
0.0
141
0.0
142
1.0
143
1.0
 70
   688
 72
     0
 73
     0
 74
     5
  7

 75
    16
147
1.0
148
0.0
149
0.0
100
AcDbLayout
  1
Layout2
 70
     1
 71
     2
 10
0.0
 20
0.0
 11
12.0
 21
9.0
 12
0.0
 22
0.0
 32
0.0
 14
0.0
 24
0.0
 34
0.0
 15
0.0
 25
0.0
 35
0.0
146
0.0
 13
0.0
 23
0.0
 33
0.0
 16
1.0
 26
0.0
 36
0.0
 17
0.0
 27
1.0
 37
0.0
 76
     0
330
D6
  0
LAYOUT
  5
22
102
{ACAD_XDICTIONARY
360
37E9
102
}
102
{ACAD_REACTORS
330
1A
102
}
330
1A
100
AcDbPlotSettings
  1

  2
none_device
  4
ISO_A4_(210.00_x_297.00_MM)
  6

 40
7.5
 41
20.0
 42
7.5
 43
20.0
 44
210.0
 45
297.0
 46
11.54999923706054
 47
-13.65000009536743
 48
0.0
 49
0.0
140
0.0
141
0.0
142
1.0
143
8.704084754739808
 70
 11952
 72
     1
 73
     0
 74
     0
  7

 75
     0
147
0.1148885871608098
148
0.0
149
0.0
100
AcDbLayout
  1
Model
 70
     1
 71
     0
 10
0.0
 20
0.0
 11
12.0
 21
9.0
 12
0.0
 22
0.0
 32
0.0
 14
0.0
 24
0.0
 34
0.0
 15
0.0
 25
0.0
 35
0.0
146
0.0
 13
0.0
 23
0.0
 33
0.0
 16
1.0
 26
0.0
 36
0.0
 17
0.0
 27
1.0
 37
0.0
 76
     0
330
1F
331
EA
1001
ACAD_PSEXT
1000
None
1000
None
1000
Not applicable
1000
The layout will not be plotted unless a new plotter configuration name is selected.
1070
     0
  0
MATERIAL
  5
ED
102
{ACAD_XDICTIONARY
360
1F9
102
}
102
{ACAD_REACTORS
330
6A
102
}
330
6A
100
AcDbMaterial
  1
ByBlock
  0
MATERIAL
  5
EC
102
{ACAD_XDICTIONARY
360
1F7
102
}
102
{ACAD_REACTORS
330
6A
102
}
330
6A
100
AcDbMaterial
  1
ByLayer
  0
MATERIAL
  5
EE
102
{ACAD_XDICTIONARY
360
173
102
}
102
{ACAD_REACTORS
330
6A
102
}
330
6A
100
AcDbMaterial
  1
Global
 43
0.0007999999797903
 43
0.0
 43
0.0
 43
0.0
 43
0.0
 43
0.0007999999797903
 43
0.0
 43
0.0
 43
0.0
 43
0.0
 43
1.0
 43
0.0
 43
0.0
 43
0.0
 43
0.0
 43
1.0
 49
0.0007999999797903
 49
0.0
 49
0.0
 49
0.0
 49
0.0
 49
0.0007999999797903
 49
0.0
 49
0.0
 49
0.0
 49
0.0
 49
1.0
 49
0.0
 49
0.0
 49
0.0
 49
0.0
 49
1.0
142
0.0007999999797903
142
0.0
142
0.0
142
0.0
142
0.0
142
0.0007999999797903
142
0.0
142
0.0
142
0.0
142
0.0
142
1.0
142
0.0
142
0.0
142
0.0
142
0.0
142
1.0
144
0.0007999999797903
144
0.0
144
0.0
144
0.0
144
0.0
144
0.0007999999797903
144
0.0
144
0.0
144
0.0
144
0.0
144
1.0
144
0.0
144
0.0
144
0.0
144
0.0
144
1.0
1001
ACAD
1070
    -1
1070
     3
1070
     0
1000

1071
        0
1070
     0
  0
MLEADERSTYLE
  5
12E
102
{ACAD_XDICTIONARY
360
3813
102
}
102
{ACAD_REACTORS
330
12D
102
}
330
12D
100
AcDbMLeaderStyle
170
     2
171
     1
172
     0
 90
        2
 40
0.0
 41
0.0
173
     1
 91
-1056964608
340
14
 92
       -2
290
     1
 42
2.0
291
     1
 43
8.0
  3
Standard
 44
4.0
300

342
11
174
     1
178
     1
175
     1
176
     0
 93
-1056964608
 45
4.0
292
     0
297
     0
 46
4.0
 94
-1056964608
 47
1.0
 49
1.0
140
1.0
293
     1
141
0.0
294
     1
177
     0
142
1.0
295
     0
296
     0
143
3.75
1001
ACAD_MLEADERVER
1070
     2
  0
MLINESTYLE
  5
18
102
{ACAD_REACTORS
330
17
102
}
330
17
100
AcDbMlineStyle
  2
STANDARD
 70
     0
  3

 62
   256
 51
90.0
 52
90.0
 71
     2
 49
0.5
 62
   256
  6
BYLAYER
 49
-0.5
 62
   256
  6
BYLAYER
  0
ACDBPLACEHOLDER
  5
F
102
{ACAD_REACTORS
330
E
102
}
330
E
  0
SCALE
  5
10D
102
{ACAD_REACTORS
330
10C
102
}
330
10C
100
AcDbScale
 70
     0
300
1:1
140
1.0
141
1.0
290
     1
  0
SCALE
  5
1BE
102
{ACAD_REACTORS
330
10C
102
}
330
10C
100
AcDbScale
 70
     0
300
1:2
140
1.0
141
2.0
290
     0
  0
SCALE
  5
1BF
102
{ACAD_REACTORS
330
10C
102
}
330
10C
100
AcDbScale
 70
     0
300
1:4
140
1.0
141
4.0
290
     0
  0
SCALE
  5
1C0
102
{ACAD_REACTORS
330
10C
102
}
330
10C
100
AcDbScale
 70
     0
300
1:5
140
1.0
141
5.0
290
     0
  0
SCALE
  5
1C1
102
{ACAD_REACTORS
330
10C
102
}
330
10C
100
AcDbScale
 70
     0
300
1:8
140
1.0
141
8.0
290
     0
  0
SCALE
  5
1C2
102
{ACAD_REACTORS
330
10C
102
}
330
10C
100
AcDbScale
 70
     0
300
1:10
140
1.0
141
10.0
290
     0
  0
SCALE
  5
1C3
102
{ACAD_REACTORS
330
10C
102
}
330
10C
100
AcDbScale
 70
     0
300
1:16
140
1.0
141
16.0
290
     0
  0
SCALE
  5
1C4
102
{ACAD_REACTORS
330
10C
102
}
330
10C
100
AcDbScale
 70
     0
300
1:20
140
1.0
141
20.0
290
     0
  0
SCALE
  5
1C5
102
{ACAD_REACTORS
330
10C
102
}
330
10C
100
AcDbScale
 70
     0
300
1:30
140
1.0
141
30.0
290
     0
  0
SCALE
  5
1C6
102
{ACAD_REACTORS
330
10C
102
}
330
10C
100
AcDbScale
 70
     0
300
1:40
140
1.0
141
40.0
290
     0
  0
SCALE
  5
1C7
102
{ACAD_REACTORS
330
10C
102
}
330
10C
100
AcDbScale
 70
     0
300
1:50
140
1.0
141
50.0
290
     0
  0
SCALE
  5
1C8
102
{ACAD_REACTORS
330
10C
102
}
330
10C
100
AcDbScale
 70
     0
300
1:100
140
1.0
141
100.0
290
     0
  0
SCALE
  5
1C9
102
{ACAD_REACTORS
330
10C
102
}
330
10C
100
AcDbScale
 70
     0
300
2:1
140
2.0
141
1.0
290
     0
  0
SCALE
  5
1CA
102
{ACAD_REACTORS
330
10C
102
}
330
10C
100
AcDbScale
 70
     0
300
4:1
140
4.0
141
1.0
290
     0
  0
SCALE
  5
1CB
102
{ACAD_REACTORS
330
10C
102
}
330
10C
100
AcDbScale
 70
     0
300
8:1
140
8.0
141
1.0
290
     0
  0
SCALE
  5
1CC
102
{ACAD_REACTORS
330
10C
102
}
330
10C
100
AcDbScale
 70
     0
300
10:1
140
10.0
141
1.0
290
     0
  0
SCALE
  5
1CD
102
{ACAD_REACTORS
330
10C
102
}
330
10C
100
AcDbScale
 70
     0
300
100:1
140
100.0
141
1.0
290
     0
  0
ACDBSECTIONVIEWSTYLE
  5
21A
102
{ACAD_XDICTIONARY
360
3825
102
}
102
{ACAD_REACTORS
330
219
102
}
330
219
100
AcDbModelDocViewStyle
 70
     0
  3
Metric50
290
     0
100
AcDbSectionViewStyle
 70
     0
 71
     0
 90
      102
 71
     1
340
11
 40
5.0
340
0
340
0
 40
5.0
300
I, O, Q, S, X, Z
 40
10.0
 90
        0
 40
2.5
 90
        0
 71
     2
340
16
 90
       25
340
16
 90
       50
 40
5.0
 40
2.5
 40
5.0
 71
     3
340
11
 40
5.0
 90
        0
 40
15.0
 90
        1
300
%<\AcVar ViewSectionStartId>%-%<\AcVar ViewSectionEndId>% (%<\AcVar ViewScale \f "%sn">%)
 71
     4
300
ANSI31
 40
1.0
 90
        0
290
     0
290
     0
 90
        6
 40
0.0
 40
1.570796326794896
 40
0.2617993877991494
 40
1.308996938995747
 40
-0.2617993877991494
 40
1.832595714594046
  0
TABLESTYLE
  5
7F
102
{ACAD_XDICTIONARY
360
162
102
}
102
{ACAD_REACTORS
330
7E
102
}
330
7E
100
AcDbTableStyle
  3
Standard
 70
     0
 71
     0
 40
1.5
 41
1.5
280
     0
281
     0
  7
Standard
140
4.5
170
     2
 62
     0
 63
     7
283
     0
274
    -2
284
     1
 64
     0
275
    -2
285
     1
 65
     0
276
    -2
286
     1
 66
     0
277
    -2
287
     1
 67
     0
278
    -2
288
     1
 68
     0
279
    -2
289
     1
 69
     0
  7
Standard
140
6.0
170
     5
 62
     0
 63
     7
283
     0
274
    -2
284
     1
 64
     0
275
    -2
285
     1
 65
     0
276
    -2
286
     1
 66
     0
277
    -2
287
     1
 67
     0
278
    -2
288
     1
 68
     0
279
    -2
289
     1
 69
     0
  7
Standard
140
4.5
170
     5
 62
     0
 63
     7
283
     0
274
    -2
284
     1
 64
     0
275
    -2
285
     1
 65
     0
276
    -2
286
     1
 66
     0
277
    -2
287
     1
 67
     0
278
    -2
288
     1
 68
     0
279
    -2
289
     1
 69
     0
  0
VISUALSTYLE
  5
F5
102
{ACAD_XDICTIONARY
360
37FD
102
}
102
{ACAD_REACTORS
330
EF
102
}
330
EF
100
AcDbVisualStyle
  2
2dWireframe
 70
     4
 71
     0
 72
     2
 73
     1
 90
        0
 40
-0.6
 41
-30.0
 62
     5
 63
     7
 74
     1
 91
        4
 64
     7
 65
   257
 75
     1
175
     1
 42
1.0
 92
        0
 66
   257
 43
1.0
 76
     1
 77
     6
 78
     2
 67
     7
 79
     5
170
     0
171
     0
290
     0
174
     0
 93
        1
 44
0.0
173
     0
291
     0
 45
0.0
1001
ACAD
1000
AcDbSavedByObjectVersion
1070
     0
  0
VISUALSTYLE
  5
F4
102
{ACAD_XDICTIONARY
360
37FB
102
}
102
{ACAD_REACTORS
330
EF
102
}
330
EF
100
AcDbVisualStyle
  2
Basic
 70
     7
 71
     1
 72
     0
 73
     1
 90
        0
 40
-0.6
 41
-30.0
 62
     5
 63
     7
 74
     0
 91
        4
 64
     7
 65
   257
 75
     1
175
     1
 42
1.0
 92
        8
 66
     7
 43
1.0
 76
     1
 77
     6
 78
     2
 67
     7
 79
     5
170
     0
171
     0
290
     0
174
     0
 93
        1
 44
0.0
173
     0
291
     1
 45
0.0
1001
ACAD
1000
AcDbSavedByObjectVersion
1070
     0
  0
VISUALSTYLE
  5
FB
102
{ACAD_XDICTIONARY
360
3809
102
}
102
{ACAD_REACTORS
330
EF
102
}
330
EF
100
AcDbVisualStyle
  2
Brighten
 70
    12
 71
     2
 72
     2
 73
     1
 90
        0
 40
-0.6
 41
-30.0
 62
     5
 63
     7
 74
     1
 91
        4
 64
     7
 65
   257
 75
     1
175
     1
 42
1.0
 92
        8
 66
     7
 43
1.0
 76
     1
 77
     6
 78
     2
 67
     7
 79
     5
170
     0
171
     0
290
     0
174
     0
 93
        1
 44
50.0
173
     0
291
     1
 45
0.0
1001
ACAD
1000
AcDbSavedByObjectVersion
1070
     0
  0
VISUALSTYLE
  5
FF
102
{ACAD_XDICTIONARY
360
3811
102
}
102
{ACAD_REACTORS
330
EF
102
}
330
EF
100
AcDbVisualStyle
  2
ColorChange
 70
    16
 71
     2
 72
     2
 73
     3
 90
        0
 40
-0.6
 41
-30.0
 62
     5
 63
     8
 74
     1
 91
        4
 64
     7
 65
   257
 75
     1
175
     1
 42
1.0
 92
        8
 66
     8
 43
1.0
 76
     1
 77
     6
 78
     2
 67
     7
 79
     5
170
     0
171
     0
290
     0
174
     0
 93
        1
 44
0.0
173
     0
291
     1
 45
0.0
1001
ACAD
1000
AcDbSavedByObjectVersion
1070
     0
  0
VISUALSTYLE
  5
F8
102
{ACAD_XDICTIONARY
360
3803
102
}
102
{ACAD_REACTORS
330
EF
102
}
330
EF
100
AcDbVisualStyle
  2
Conceptual
 70
     9
 71
     3
 72
     2
 73
     1
 90
        0
 40
-0.6
 41
-30.0
 62
     5
 63
     7
 74
     2
 91
        2
 64
     7
 65
   257
 75
     1
175
     1
 42
40.0
 92
        8
 66
     7
 43
1.0
 76
     1
 77
     6
 78
     2
 67
     7
 79
     3
170
     0
171
     0
290
     0
174
     0
 93
        1
 44
0.0
173
     0
291
     0
 45
0.0
1001
ACAD
1000
AcDbSavedByObjectVersion
1070
     0
  0
VISUALSTYLE
  5
FA
102
{ACAD_XDICTIONARY
360
3807
102
}
102
{ACAD_REACTORS
330
EF
102
}
330
EF
100
AcDbVisualStyle
  2
Dim
 70
    11
 71
     2
 72
     2
 73
     1
 90
        0
 40
-0.6
 41
-30.0
 62
     5
 63
     7
 74
     1
 91
        4
 64
     7
 65
   257
 75
     1
175
     1
 42
1.0
 92
        8
 66
     7
 43
1.0
 76
     1
 77
     6
 78
     2
 67
     7
 79
     5
170
     0
171
     0
290
     0
174
     0
 93
        1
 44
-50.0
173
     0
291
     1
 45
0.0
1001
ACAD
1000
AcDbSavedByObjectVersion
1070
     0
  0
VISUALSTYLE
  5
1E6
102
{ACAD_XDICTIONARY
360
3819
102
}
102
{ACAD_REACTORS
330
EF
102
}
330
EF
100
AcDbVisualStyle
  2
EdgeColorOff
 70
    22
 71
     2
 72
     2
 73
     0
 90
        0
 40
-0.6
 41
-30.0
 62
     5
 63
     7
 74
     1
 91
        4
 64
     7
 65
   257
 75
     1
175
     1
 42
1.0
 92
        8
 66
     7
 43
1.0
 76
     1
 77
     6
 78
     2
 67
     7
 79
     5
170
     0
171
     0
290
     0
174
     0
 93
        1
 44
0.0
173
     0
291
     1
 45
0.0
1001
ACAD
1000
AcDbSavedByObjectVersion
1070
     0
  0
VISUALSTYLE
  5
FE
102
{ACAD_XDICTIONARY
360
380F
102
}
102
{ACAD_REACTORS
330
EF
102
}
330
EF
100
AcDbVisualStyle
  2
Facepattern
 70
    15
 71
     2
 72
     2
 73
     1
 90
        0
 40
-0.6
 41
-30.0
 62
     5
 63
     7
 74
     1
 91
        4
 64
     7
 65
   257
 75
     1
175
     1
 42
1.0
 92
        8
 66
     7
 43
1.0
 76
     1
 77
     6
 78
     2
 67
     7
 79
     5
170
     0
171
     0
290
     0
174
     0
 93
        1
 44
0.0
173
     0
291
     1
 45
0.0
1001
ACAD
1000
AcDbSavedByObjectVersion
1070
     0
  0
VISUALSTYLE
  5
F0
102
{ACAD_XDICTIONARY
360
37F3
102
}
102
{ACAD_REACTORS
330
EF
102
}
330
EF
100
AcDbVisualStyle
  2
Flat
 70
     0
 71
     2
 72
     1
 73
     1
 90
        2
 40
-0.6
 41
30.0
 62
     5
 63
     7
 74
     0
 91
        0
 64
     7
 65
   257
 75
     1
175
     1
 42
1.0
 92
        8
 66
     7
 43
1.0
 76
     1
 77
     6
 78
     2
 67
     7
 79
     5
170
     0
171
     0
290
     0
174
     0
 93
       13
 44
0.0
173
     0
291
     1
 45
0.0
1001
ACAD
1000
AcDbSavedByObjectVersion
1070
     0
  0
VISUALSTYLE
  5
F1
102
{ACAD_XDICTIONARY
360
37F5
102
}
102
{ACAD_REACTORS
330
EF
102
}
330
EF
100
AcDbVisualStyle
  2
FlatWithEdges
 70
     1
 71
     2
 72
     1
 73
     1
 90
        2
 40
-0.6
 41
30.0
 62
     5
 63
     7
 74
     1
 91
        0
 64
     7
 65
   257
 75
     1
175
     1
 42
1.0
 92
        0
 66
   257
 43
1.0
 76
     1
 77
     6
 78
     2
 67
     7
 79
     5
170
     0
171
     0
290
     0
174
     0
 93
       13
 44
0.0
173
     0
291
     1
 45
0.0
1001
ACAD
1000
AcDbSavedByObjectVersion
1070
     0
  0
VISUALSTYLE
  5
F2
102
{ACAD_XDICTIONARY
360
37F7
102
}
102
{ACAD_REACTORS
330
EF
102
}
330
EF
100
AcDbVisualStyle
  2
Gouraud
 70
     2
 71
     2
 72
     2
 73
     1
 90
        2
 40
-0.6
 41
30.0
 62
     5
 63
     7
 74
     0
 91
        0
 64
     7
 65
   257
 75
     1
175
     1
 42
1.0
 92
        0
 66
     7
 43
1.0
 76
     1
 77
     6
 78
     2
 67
     7
 79
     5
170
     0
171
     0
290
     0
174
     0
 93
       13
 44
0.0
173
     0
291
     1
 45
0.0
1001
ACAD
1000
AcDbSavedByObjectVersion
1070
     0
  0
VISUALSTYLE
  5
F3
102
{ACAD_XDICTIONARY
360
37F9
102
}
102
{ACAD_REACTORS
330
EF
102
}
330
EF
100
AcDbVisualStyle
  2
GouraudWithEdges
 70
     3
 71
     2
 72
     2
 73
     1
 90
        2
 40
-0.6
 41
30.0
 62
     5
 63
     7
 74
     1
 91
        0
 64
     7
 65
   257
 75
     1
175
     1
 42
1.0
 92
        0
 66
   257
 43
1.0
 76
     1
 77
     6
 78
     2
 67
     7
 79
     5
170
     0
171
     0
290
     0
174
     0
 93
       13
 44
0.0
173
     0
291
     1
 45
0.0
1001
ACAD
1000
AcDbSavedByObjectVersion
1070
     0
  0
VISUALSTYLE
  5
F7
102
{ACAD_XDICTIONARY
360
3801
102
}
102
{ACAD_REACTORS
330
EF
102
}
330
EF
100
AcDbVisualStyle
  2
Hidden
 70
     6
 71
     1
 72
     2
 73
     2
 90
        0
 40
-0.6
 41
-30.0
 62
     5
 63
     7
 74
     2
 91
        2
 64
     7
 65
   257
 75
     2
175
     1
 42
40.0
 92
        0
 66
   257
 43
1.0
 76
     1
 77
     6
 78
     2
 67
     7
 79
     3
170
     0
171
     0
290
     0
174
     0
 93
        1
 44
0.0
173
     0
291
     0
 45
0.0
1001
ACAD
1000
AcDbSavedByObjectVersion
1070
     0
  0
VISUALSTYLE
  5
1E4
102
{ACAD_XDICTIONARY
360
3815
102
}
102
{ACAD_REACTORS
330
EF
102
}
330
EF
100
AcDbVisualStyle
  2
JitterOff
 70
    20
 71
     2
 72
     2
 73
     0
 90
        0
 40
-0.6
 41
-30.0
 62
     5
 63
     7
 74
     1
 91
        4
 64
     7
 65
   257
 75
     1
175
     1
 42
1.0
 92
       10
 66
     7
 43
1.0
 76
     1
 77
     6
 78
     2
 67
     7
 79
     5
170
     0
171
     0
290
     0
174
     0
 93
        1
 44
0.0
173
     0
291
     1
 45
0.0
1001
ACAD
1000
AcDbSavedByObjectVersion
1070
     0
  0
VISUALSTYLE
  5
FD
102
{ACAD_XDICTIONARY
360
380D
102
}
102
{ACAD_REACTORS
330
EF
102
}
330
EF
100
AcDbVisualStyle
  2
Linepattern
 70
    14
 71
     2
 72
     2
 73
     1
 90
        0
 40
-0.6
 41
-30.0
 62
     5
 63
     7
 74
     1
 91
        4
 64
     7
 65
   257
 75
     7
175
     7
 42
1.0
 92
        8
 66
     7
 43
1.0
 76
     1
 77
     6
 78
     2
 67
     7
 79
     5
170
     0
171
     0
290
     0
174
     0
 93
        1
 44
0.0
173
     0
291
     1
 45
0.0
1001
ACAD
1000
AcDbSavedByObjectVersion
1070
     0
  0
VISUALSTYLE
  5
1E5
102
{ACAD_XDICTIONARY
360
3817
102
}
102
{ACAD_REACTORS
330
EF
102
}
330
EF
100
AcDbVisualStyle
  2
OverhangOff
 70
    21
 71
     2
 72
     2
 73
     0
 90
        0
 40
-0.6
 41
-30.0
 62
     5
 63
     7
 74
     1
 91
        4
 64
     7
 65
   257
 75
     1
175
     1
 42
1.0
 92
        9
 66
     7
 43
1.0
 76
     1
 77
     6
 78
     2
 67
     7
 79
     5
170
     0
171
     0
290
     0
174
     0
 93
        1
 44
0.0
173
     0
291
     1
 45
0.0
1001
ACAD
1000
AcDbSavedByObjectVersion
1070
     0
  0
VISUALSTYLE
  5
F9
102
{ACAD_XDICTIONARY
360
3805
102
}
102
{ACAD_REACTORS
330
EF
102
}
330
EF
100
AcDbVisualStyle
  2
Realistic
 70
     8
 71
     2
 72
     2
 73
     0
 90
        2
 40
-0.6
 41
30.0
 62
     5
 63
     7
 74
     0
 91
        0
 64
     7
 65
   257
 75
     1
175
     1
 42
1.0
 92
        8
 66
   257
 43
1.0
 76
     1
 77
     6
 78
     2
 67
     7
 79
     3
170
     0
171
     0
290
     0
174
     0
 93
       13
 44
0.0
173
     0
291
     0
 45
0.0
1001
ACAD
1000
AcDbSavedByObjectVersion
1070
     0
  0
VISUALSTYLE
  5
1F3
102
{ACAD_XDICTIONARY
360
3823
102
}
102
{ACAD_REACTORS
330
EF
102
}
330
EF
100
AcDbVisualStyle
  2
Shaded
 70
    27
 71
     2
 72
     2
 73
     1
 90
        2
 40
-0.6
 41
30.0
 62
     5
 63
     7
 74
     0
 91
        4
 64
     7
 65
   257
 75
     1
175
     1
 42
1.0
 92
        8
 66
   257
 43
1.0
 76
     1
 77
     6
 78
     2
 67
     8
 79
     3
170
     0
171
     0
290
     0
174
     0
 93
        5
 44
0.0
173
     0
291
     0
 45
0.0
1001
ACAD
1000
AcDbSavedByObjectVersion
1070
     0
  0
VISUALSTYLE
  5
1F2
102
{ACAD_XDICTIONARY
360
3821
102
}
102
{ACAD_REACTORS
330
EF
102
}
330
EF
100
AcDbVisualStyle
  2
Shaded with edges
 70
    26
 71
     2
 72
     2
 73
     1
 90
        2
 40
-0.6
 41
30.0
 62
     5
 63
     7
 74
     1
 91
        2
 64
     7
 65
   257
 75
     2
175
     1
 42
1.0
 92
        8
 66
   257
 43
1.0
 76
     1
 77
     6
 78
     2
 67
     7
 79
     3
170
     0
171
     0
290
     0
174
     0
 93
        5
 44
0.0
173
     0
291
     0
 45
0.0
1001
ACAD
1000
AcDbSavedByObjectVersion
1070
     0
  0
VISUALSTYLE
  5
1EF
102
{ACAD_XDICTIONARY
360
381B
102
}
102
{ACAD_REACTORS
330
EF
102
}
330
EF
100
AcDbVisualStyle
  2
Shades of Gray
 70
    23
 71
     2
 72
     2
 73
     3
 90
        0
 40
-0.6
 41
-30.0
 62
     5
 63
     7
 74
     2
 91
        2
 64
     7
 65
     7
 75
     1
175
     1
 42
40.0
 92
        8
 66
     7
 43
1.0
 76
     1
 77
     6
 78
     2
 67
     7
 79
     3
170
     0
171
     0
290
     0
174
     0
 93
        1
 44
0.0
173
     0
291
     0
 45
0.0
1001
ACAD
1000
AcDbSavedByObjectVersion
1070
     0
  0
VISUALSTYLE
  5
1F0
102
{ACAD_XDICTIONARY
360
381D
102
}
102
{ACAD_REACTORS
330
EF
102
}
330
EF
100
AcDbVisualStyle
  2
Sketchy
 70
    24
 71
     1
 72
     2
 73
     2
 90
        0
 40
-0.6
 41
-30.0
 62
     5
 63
     7
 74
     2
 91
        2
 64
     7
 65
     7
 75
     1
175
     1
 42
40.0
 92
       11
 66
     7
 43
1.0
 76
     1
 77
     6
 78
     2
 67
     7
 79
     6
170
     0
171
     0
290
     0
174
     0
 93
        1
 44
0.0
173
     0
291
     0
 45
0.0
1001
ACAD
1000
AcDbSavedByObjectVersion
1070
     0
  0
VISUALSTYLE
  5
FC
102
{ACAD_XDICTIONARY
360
380B
102
}
102
{ACAD_REACTORS
330
EF
102
}
330
EF
100
AcDbVisualStyle
  2
Thicken
 70
    13
 71
     2
 72
     2
 73
     1
 90
        0
 40
-0.6
 41
-30.0
 62
     5
 63
     7
 74
     1
 91
        4
 64
     7
 65
   257
 75
     1
175
     1
 42
1.0
 92
       12
 66
     7
 43
1.0
 76
     1
 77
     6
 78
     2
 67
     7
 79
     5
170
     0
171
     0
290
     0
174
     0
 93
        1
 44
0.0
173
     0
291
     1
 45
0.0
1001
ACAD
1000
AcDbSavedByObjectVersion
1070
     0
  0
VISUALSTYLE
  5
F6
102
{ACAD_XDICTIONARY
360
37FF
102
}
102
{ACAD_REACTORS
330
EF
102
}
330
EF
100
AcDbVisualStyle
  2
Wireframe
 70
     5
 71
     0
 72
     2
 73
     0
 90
        0
 40
-0.6
 41
-30.0
 62
     5
 63
     7
 74
     1
 91
        4
 64
     7
 65
   257
 75
     1
175
     1
 42
1.0
 92
        0
 66
   257
 43
1.0
 76
     1
 77
     6
 78
     2
 67
     7
 79
     3
170
     0
171
     0
290
     0
174
     0
 93
        1
 44
0.0
173
     0
291
     0
 45
0.0
1001
ACAD
1000
AcDbSavedByObjectVersion
1070
     0
  0
VISUALSTYLE
  5
1F1
102
{ACAD_XDICTIONARY
360
381F
102
}
102
{ACAD_REACTORS
330
EF
102
}
330
EF
100
AcDbVisualStyle
  2
X-Ray
 70
    25
 71
     2
 72
     2
 73
     1
 90
        1
 40
0.5
 41
-30.0
 62
     5
 63
     7
 74
     1
 91
        0
 64
     7
 65
   257
 75
     1
175
     1
 42
1.0
 92
        8
 66
     7
 43
1.0
 76
     1
 77
     6
 78
     2
 67
     7
 79
     3
170
     0
171
     0
290
     0
174
     0
 93
       13
 44
0.0
173
     0
291
     0
 45
0.0
1001
ACAD
1000
AcDbSavedByObjectVersion
1070
     0
  0
DICTIONARYVAR
  5
146
102
{ACAD_REACTORS
330
5E
102
}
330
5E
100
DictionaryVariables
280
     0
  1
1:1
  0
DICTIONARYVAR
  5
259
102
{ACAD_REACTORS
330
5E
102
}
330
5E
100
DictionaryVariables
280
     0
  1
3.500000
  0
DICTIONARYVAR
  5
25A
102
{ACAD_REACTORS
330
5E
102
}
330
5E
100
DictionaryVariables
280
     0
  1
acadiso.lin
  0
DICTIONARYVAR
  5
145
102
{ACAD_REACTORS
330
5E
102
}
330
5E
100
DictionaryVariables
280
     0
  1
STANDARD
  0
DICTIONARYVAR
  5
84
102
{ACAD_REACTORS
330
5E
102
}
330
5E
100
DictionaryVariables
280
     0
  1
STANDARD
  0
DICTIONARYVAR
  5
227
102
{ACAD_REACTORS
330
5E
102
}
330
5E
100
DictionaryVariables
280
     0
  1
Metric50
  0
DICTIONARYVAR
  5
228
102
{ACAD_REACTORS
330
5E
102
}
330
5E
100
DictionaryVariables
280
     0
  1
Metric50
  0
DICTIONARYVAR
  5
5F
102
{ACAD_REACTORS
330
5E
102
}
330
5E
100
DictionaryVariables
280
     0
  1
2
  0
DICTIONARYVAR
  5
63
102
{ACAD_REACTORS
330
5E
102
}
330
5E
100
DictionaryVariables
280
     0
  1
1
  0
DICTIONARYVAR
  5
3794
102
{ACAD_REACTORS
330
5E
102
}
330
5E
100
DictionaryVariables
280
     0
  1
0
  0
DICTIONARYVAR
  5
1AE
102
{ACAD_REACTORS
330
5E
102
}
330
5E
100
DictionaryVariables
280
     0
  1
0
  0
DICTIONARYVAR
  5
1AF
102
{ACAD_REACTORS
330
5E
102
}
330
5E
100
DictionaryVariables
280
     0
  1
0
  0
DICTIONARYVAR
  5
3792
102
{ACAD_REACTORS
330
5E
102
}
330
5E
100
DictionaryVariables
280
     0
  1
2
  0
DICTIONARYVAR
  5
3791
102
{ACAD_REACTORS
330
5E
102
}
330
5E
100
DictionaryVariables
280
     0
  1
1
  0
DICTIONARYVAR
  5
37E4
102
{ACAD_REACTORS
330
5E
102
}
330
5E
100
DictionaryVariables
280
     0
  1
80.000000
  0
DICTIONARYVAR
  5
37E3
102
{ACAD_REACTORS
330
5E
102
}
330
5E
100
DictionaryVariables
280
     0
  1
5.000000
  0
DICTIONARYVAR
  5
3793
102
{ACAD_REACTORS
330
5E
102
}
330
5E
100
DictionaryVariables
280
     0
  1
127
  0
DICTIONARYVAR
  5
37E5
102
{ACAD_REACTORS
330
5E
102
}
330
5E
100
DictionaryVariables
280
     0
  1
2
  0
DICTIONARY
  5
3827
330
21C
100
AcDbDictionary
280
     1
281
     1
  3
ACAD_XREC_ROUNDTRIP
360
3828
  0
DICTIONARY
  5
37EC
330
D3
100
AcDbDictionary
280
     1
281
     1
  3
ACAD_XREC_ROUNDTRIP
360
37ED
  0
DICTIONARY
  5
37EE
330
D7
100
AcDbDictionary
280
     1
281
     1
  3
ACAD_XREC_ROUNDTRIP
360
37EF
  0
DICTIONARY
  5
37E9
330
22
100
AcDbDictionary
280
     1
281
     1
  3
ACAD_XREC_ROUNDTRIP
360
37EA
  0
DICTIONARY
  5
1F9
330
ED
100
AcDbDictionary
280
     1
281
     1
  3
ACAD_XREC_ROUNDTRIP
360
37F1
  3
FBXASSET
360
1FA
  0
DICTIONARY
  5
1F7
330
EC
100
AcDbDictionary
280
     1
281
     1
  3
ACAD_XREC_ROUNDTRIP
360
37F0
  3
FBXASSET
360
1F8
  0
DICTIONARY
  5
173
330
EE
100
AcDbDictionary
280
     1
281
     1
  3
ACAD_XREC_ROUNDTRIP
360
37F2
  3
BUMPTILE
360
175
  3
DIFFUSETILE
360
174
  3
FBXASSET
360
1FB
  3
OPACITYTILE
360
176
  3
REFLECTIONTILE
360
177
  0
DICTIONARY
  5
3813
330
12E
100
AcDbDictionary
280
     1
281
     1
  3
ACAD_XREC_ROUNDTRIP
360
3814
  0
DICTIONARY
  5
3825
330
21A
100
AcDbDictionary
280
     1
281
     1
  3
ACAD_XREC_ROUNDTRIP
360
3826
  0
DICTIONARY
  5
162
330
7F
100
AcDbDictionary
280
     1
281
     1
  3
ACAD_ROUNDTRIP_2008_TABLESTYLE_CELLSTYLEMAP
360
37E6
  3
ACAD_XREC_ROUNDTRIP
360
37EB
  0
DICTIONARY
  5
37FD
330
F5
100
AcDbDictionary
280
     1
281
     1
  3
ACAD_XREC_ROUNDTRIP
360
37FE
  0
DICTIONARY
  5
37FB
330
F4
100
AcDbDictionary
280
     1
281
     1
  3
ACAD_XREC_ROUNDTRIP
360
37FC
  0
DICTIONARY
  5
3809
330
FB
100
AcDbDictionary
280
     1
281
     1
  3
ACAD_XREC_ROUNDTRIP
360
380A
  0
DICTIONARY
  5
3811
330
FF
100
AcDbDictionary
280
     1
281
     1
  3
ACAD_XREC_ROUNDTRIP
360
3812
  0
DICTIONARY
  5
3803
330
F8
100
AcDbDictionary
280
     1
281
     1
  3
ACAD_XREC_ROUNDTRIP
360
3804
  0
DICTIONARY
  5
3807
330
FA
100
AcDbDictionary
280
     1
281
     1
  3
ACAD_XREC_ROUNDTRIP
360
3808
  0
DICTIONARY
  5
3819
330
1E6
100
AcDbDictionary
280
     1
281
     1
  3
ACAD_XREC_ROUNDTRIP
360
381A
  0
DICTIONARY
  5
380F
330
FE
100
AcDbDictionary
280
     1
281
     1
  3
ACAD_XREC_ROUNDTRIP
360
3810
  0
DICTIONARY
  5
37F3
330
F0
100
AcDbDictionary
280
     1
281
     1
  3
ACAD_XREC_ROUNDTRIP
360
37F4
  0
DICTIONARY
  5
37F5
330
F1
100
AcDbDictionary
280
     1
281
     1
  3
ACAD_XREC_ROUNDTRIP
360
37F6
  0
DICTIONARY
  5
37F7
330
F2
100
AcDbDictionary
280
     1
281
     1
  3
ACAD_XREC_ROUNDTRIP
360
37F8
  0
DICTIONARY
  5
37F9
330
F3
100
AcDbDictionary
280
     1
281
     1
  3
ACAD_XREC_ROUNDTRIP
360
37FA
  0
DICTIONARY
  5
3801
330
F7
100
AcDbDictionary
280
     1
281
     1
  3
ACAD_XREC_ROUNDTRIP
360
3802
  0
DICTIONARY
  5
3815
330
1E4
100
AcDbDictionary
280
     1
281
     1
  3
ACAD_XREC_ROUNDTRIP
360
3816
  0
DICTIONARY
  5
380D
330
FD
100
AcDbDictionary
280
     1
281
     1
  3
ACAD_XREC_ROUNDTRIP
360
380E
  0
DICTIONARY
  5
3817
330
1E5
100
AcDbDictionary
280
     1
281
     1
  3
ACAD_XREC_ROUNDTRIP
360
3818
  0
DICTIONARY
  5
3805
330
F9
100
AcDbDictionary
280
     1
281
     1
  3
ACAD_XREC_ROUNDTRIP
360
3806
  0
DICTIONARY
  5
3823
330
1F3
100
AcDbDictionary
280
     1
281
     1
  3
ACAD_XREC_ROUNDTRIP
360
3824
  0
DICTIONARY
  5
3821
330
1F2
100
AcDbDictionary
280
     1
281
     1
  3
ACAD_XREC_ROUNDTRIP
360
3822
  0
DICTIONARY
  5
381B
330
1EF
100
AcDbDictionary
280
     1
281
     1
  3
ACAD_XREC_ROUNDTRIP
360
381C
  0
DICTIONARY
  5
381D
330
1F0
100
AcDbDictionary
280
     1
281
     1
  3
ACAD_XREC_ROUNDTRIP
360
381E
  0
DICTIONARY
  5
380B
330
FC
100
AcDbDictionary
280
     1
281
     1
  3
ACAD_XREC_ROUNDTRIP
360
380C
  0
DICTIONARY
  5
37FF
330
F6
100
AcDbDictionary
280
     1
281
     1
  3
ACAD_XREC_ROUNDTRIP
360
3800
  0
DICTIONARY
  5
381F
330
1F1
100
AcDbDictionary
280
     1
281
     1
  3
ACAD_XREC_ROUNDTRIP
360
3820
  0
XRECORD
  5
3828
102
{ACAD_REACTORS
330
3827
102
}
330
3827
100
AcDbXrecord
280
     1
102
DISPLAYNAME
  1
Metric50
102
FLAGS
 90
        0
  0
XRECORD
  5
37ED
102
{ACAD_REACTORS
330
37EC
102
}
330
37EC
100
AcDbXrecord
280
     1
102
SHADEPLOT
 70
     0
102
SHADEPLOTRESLEVEL
 70
     2
102
SHADEPLOTCUSTOMDPI
 70
   300
  0
XRECORD
  5
37EF
102
{ACAD_REACTORS
330
37EE
102
}
330
37EE
100
AcDbXrecord
280
     1
102
SHADEPLOT
 70
     0
102
SHADEPLOTRESLEVEL
 70
     2
102
SHADEPLOTCUSTOMDPI
 70
   300
  0
XRECORD
  5
37EA
102
{ACAD_REACTORS
330
37E9
102
}
330
37E9
100
AcDbXrecord
280
     1
102
SHADEPLOT
 70
     0
102
SHADEPLOTRESLEVEL
 70
     2
102
SHADEPLOTCUSTOMDPI
 70
   300
  0
XRECORD
  5
37F1
102
{ACAD_REACTORS
330
1F9
102
}
330
1F9
100
AcDbXrecord
280
     1
102
MATERIAL
148
0.0
149
0.0
149
0.0
 93
        0
 94
       63
282
     0
 72
     1
 77
     1
171
     1
175
     1
179
     1
273
     0
  0
XRECORD
  5
1FA
102
{ACAD_REACTORS
330
1F9
102
}
330
1F9
100
AcDbXrecord
280
     1
 70
     1
 90
429727718
  1
D62C5603-E3A1-4AEA-B7FB-FE5D8D0755AF
310
504B03040A0000080000CC70623B3DEE336E79000000790000001B0000006175746F6465736B2D64657369676E2D7061636B6167652E786D6C3C3F786D6C2076657273696F6E3D22312E302220656E636F64696E673D227574662D3822203F3E3C666F726D6174733E3C666F726D61743E687474703A2F2F736368656D612E
310
6175746F6465736B2E636F6D2F64657369676E2D7061636B6167652F323030393C2F666F726D61743E3C2F666F726D6174733E504B0304140006080800CC70623BD486FD9CA0000000F4000000130000005B436F6E74656E745F54797065735D2E786D6C7D8EC10E82300C865F65E91D8A1E8C310C0EEA1BF002731658846E
310
D98AC1B77784ABF1D8FE5FBFBF75BBCE937A534CCEB38643598122B6FEE978D0B0485F9C41B54DDD7D022595594E1A469170414C76A4D9A4D207E29CF43ECE46F218070CC6BECC4078ACAA135ACF422C856C0E68EA1BF5669944DDD7BCDE7B1F8E415D77AECB980613C2E4AC91FC167A2B244592486606FC29C8FD7F045B9A
310
EF7053A7E60B504B0304140006080800CC70623B853B8169EB0000007C01000008000000636F72652E786D6C8D90416EC3201045AF62CDB6C206821CC7C244919D9CA01740401C94182C03558F5F9C3852BBEB6A467FFE9B197D7EFC9E1EC5975982F5AE035262288C535E5B377690E21535501C055FBC8FBF6C503839990E
310
5619041F179FE64D52DE45E362569DD7661365082642A11EB9E920A89B99642953CC8E702F67A9EE7234257977194EC9EAE275C4EABCCF5EAD5940D4AC6F0E35A568B8F43562CD7046CD199FD07E60174276A7BE677B5EADB0E0D14EEFFB6A31321A0D82627C4084204C3F096B71DD52F6819B16635EADF63F509AF53FA164
310
5DDCD1EDDD17164090FCC8732078B56691CB33A85CD7DCC40F504B0304140006080800CC70623B55019EA25F0000007C00000007000000636E782E786D6C4DCB3B0E80201045D1AD90E915ED2CF8AC45050C11660C8261F98AB1B07AC9C97D42D718D865D3E909258CFD00CCE24AC6E326A164D74DC0B4128928FF32603847
310
2BA13128B1252AC747C6BAB984FC68F0B87FE8960A5C09FE86CFB69FBA01504B0304140006080800CC70623BDBABAAF470010000D40300000C0000006662782F636F72652E786D6CC553D16E823014FD95A6AF4B694182CC941A83FA05FB810A9511A125A5257EFE2E82712ECEB8A7F100CD39F7F69E734AF9FADC366850B6
310
AF8DCE7018308C942E4C59EB2AC3DE1D498AD15A706B8CFB56869196ADCAF00863C12B6B7C374385D14E6907A836A59A41D9F7CA615434B0C8705F7CAA5606D23BA8E84F41278B93AC54100640439DE0BDB320004D43C63716C7C399D30917DCFBBA9CD9BA8469F5B156168B24CED3F7248AC8769F27244EB73B92EED8862C
310
B7F13E0C179B3C8F979C8ECD82BBBABDAA2BAC924E9558448CBD9330242CFA08E3154B5651FCC6D215639C8EE5774DBE2B5F6CF2B5768B68963BB5F5588420E442FC700B1139D4CB01F450C1E918227C2E09DF070D8140C84E1E9AAB8F1340832A9CB13130A5F1376A908D57309505ECF2A0DF179C4E9D30F5B239B87E3823
310
7A79C6F31DE1A8A5AEC08474B03C7837EAE4938639B44E5932B833D2C6B6B279CDC613877FA26EE21F4A2A4C63EC7F29A2F301D1F9F7A0E37D145F504B0304140006080800CC70623B9C113CC27E0000009D0000000B0000006662782F636E782E786D6C4DCCDF0A83201C86E15B91DFB94BFB330DD428C8FB886521330DA7
310
6397BF1A1DECE883878F57749FCDA1B7892F1BBC047A23808C7F84D9FA55424E0BE6803A256208E9EF06C84F9B91703228B1C690F78B66B34CD9A5439DF5CF0BFBF65E35BCA1B8D6A5C6F540381E886698B5741C695F9503EBA150A2F8958E3DC3EA0B504B0304140006080800CC70623B7DF2F77C2A010000120200003100
310
00006662782F41393633353835312D344632462D344230382D423046372D3739314545314133324237412F636F72652E786D6C8D51DB8EC22014FC15C2939B0D2DB4B45643319AE817EC0F6041255A68B86CFCFC856D4D76DF7CE190393373060EDB3DC707F856CE6B6B7A480A0C81328395DA5C7B18C3057510EC3873D686
310
3F34088C18550F330C39BB3A1BA7051AAC09CA84841A2BD5020AEF55806078A44B0FFD7053A328440C89E1EFC52486BBB8AA8214A99D789CF9E05200300FC927E4FB4D5B375D43103D5527440FB843077C5AA3F5861C8F645F5787F59E95B390B318B55CE45AA638FAA2957BD7248B390B7A7CC51F9C124149C82B8C378810
310
84AB2F42B7B8DD56F413775B8C5999E9FF4471926F8AA236A1AE96B8B3CC434E5839373893369E1FAF30EA395917409EB7F26AF8801C171837A4A6AC9C89E9F9C9B1A58BA30FD6A5EF5DDDCF894B9AD9B6A59C957943A9FCAE2FD5BC4DFE03504B0304140006080800CC70623BAD7543B64E01000033030000300000006662
310
782F41393633353835312D344632462D344230382D423046372D3739314545314133324237412F636E782E786D6CD593CD6EC32010845F0571AD6CE3D48AD20813A9873E410FBD12D82434182C7EAAE6EDBB2424CD25871E7B41D6EC30B3FA84F9E67BB2E40B4234DE8DB46F1925E094D7C6ED479AD3AE5951B2113C789FEE
310
6C943839C1488B4C05DF079FE72A69D8C96C13AAD6B8631503449F83828872B949AC57D26200B826A308D316B4064D6E46FCDA41C05550DC9E483A00797BFD207EFB092A45DE9514C1BBD22178396BD39D891265658C238DEA00936C654E5E433CB65A26D9F6EDB5EBC14EBF49A45CB856E66048291F6939A9A81BB5C89177
310
38143CA680F4AA299D66A042CEB3354A2684DC9D8D178FE0D9B8B41CAAD720F880EE7EF93C0C18769E099ECC04D5A102C8049A8A05632F4DDF376CF1DE0F6BB65C2F8627B65A33C6BB62177CEBBDAD973006829F89F22E814B54F4BC2BE347F8AA8F681390B50FA73F804400B5F542E796F19FF974E7F78DB802FE05E20750
310
4B0304140006080800CC70623BE75B7789680500003C100000340000006662782F41393633353835312D344632462D344230382D423046372D3739314545314133324237412F6F626A656374732E786D6CAD575B8F9B3818FD2B887D06C22499CB8AA1CA655245D5B455A356FB305264C061D8018C6C3393D95FBFC7600890
310
A4CD5EF210B0B1BFEBF98E3F7B1FF6596ABC522E1296DF9BAE3D320D9A872C4AF2F8DE2CE5CEBA358D0FBEC719939D65A691938CDE9B6ADAF4BD98B3B2D05311DD91329583D9D5FC0F438434A7A611A644887B5384CF34233629258BA878B12322891DEFF6B66BD70BFB62634E8AE781D082709A4B588AF91C528CDA28B73F
310
1C998EEF39EABBEFA97FBD6A7C7E9553F9D3D79FE442923C3C523610337627CB87ABE99D359D4CC6D6E4FACAB5E6ABF9D2726FC6A3C5F56271377BB88362213924694B38DD99FE47C48627A1E7D49F5A8BB5E1A74C0A599ED3B0F21F1E56366B89112D681E218F0915D0D6F17AD41FBA2A369DCF6335D62ABBD39779D5DDD1
310
11D4D8DE3CBB96B2E04FB8202E41051754A1AA8E8F76B4C6DFE810B580B1547F4B84911149794252234D024EF8BBE963A95AE27B3D310A9D5C215C7960FAEE415ED75694C6AFB17BCACA5D99A60A9AA65F217B0BFC53292ACB92BF283FAD0D3621576592CB5BED907C2FA8E9DF794E35E97BEA31BED21FEB401ABB94C44839
310
DCACBF0E1C5DA8DA5B2F4DFFD32AD86F543D9E565E7056502E157C00AD2671CD534549AB752FCA9CDA00677A313F04E51B22FF19E57B300579E3C97EB29F682D92935CEC18CF901B7B54FD8C51F362B56FC72FE0B3C1EAE335EDCCBF5AEC39ADB17DC238973F804BA5E6F6BFE7AF1FB32E523BE9F3BD571418E3631DCA4D48
310
5250CF639223210A9446CA30052EDF057BD35F8329C1ECD84552BF0DC8D18BE7BCE23BFE6BD960AB4A7DE79923A103BEBD80F911CBAA2C60DB19B01CF164A5583B772EE6D3FFA56666CBCDA74DC97724A48F9A58967497E489C4D979006FD7A05E227A1EBDD0F737C623387A9C844D3709995625106D157315F8B8392CD4E0
310
A0B9A720C4BE9829CEF37EA1E13111214D53925356365ADA634861B52519DD27A00AEB808EAF0628E6F435519D446F45CF2C9CF5214F0A15B2F6D06B79DA3EE3CBF7F56780D2F4E7EF73A0F5E5B02A38D07DC852C6B7C1FBB6664213E0C39E3EBA7FF4E1AD23EA2829407C85E586727488B751B2DB9502BC7B228A3FD68B6E
310
A65A22397E690AA8D158D7E404EC8CDA235CC3B7D1898680131CEC2CDF2638C65196279577750F15884AEE19F94199155B92B13297978469D4F8D358DF0AEF7631E28DC8F0D9F437D5D39A83B2231A1D52D543813A824EF8D44BCFF2FA6A31BD1E8DAD87F1CCB526B3879935BF59CDADD5C37479BB1CDD4CA7B3556B516589
310
EF352754B706114D9C885EC9131DE6EFEB43D99AFE2391C2F958179413D7CFEF6B1B6DB1E7600F00DE6E5C67454A339A4BA2E0FBA85ED26F045D454F463DBFCE484C2F90F2E5E3666003662ED8F755951A7D1BECD5B30B550B2785C8E7320B7292A4838DDA71BBC863ED7613CAF659337A3354231D4FF4A182A54904C2898C
310
98B28C4AD0CE056CCF332A80986E571EE9DBC305BB5FEB7E509220A58D25CF042D712A806AC0AD0C657FDEF80D2D9CEAA2EE4D1C76F60BFE74219A06527D6F82DF6412526107381E55E353090704D085B52408A8913C4ED159D79BDA71BB4BC506F4831350EB6F975CD22D69BF7AC49B91A2C0A9DDA3D5CA36AD20FC478E37
310
E61844E2352865EBCB61A275A65283CAAA9DD27703B4102F5AF51EF5F573B75CBB5AD38BC845F7A49F82A0966A49C2E3EA5EA0ECD326CD965F1DB402C6FA8B51A4658C5C5E2EC9E214602E55810345408596591009A82E7E7FFACA19EEA299B14A0081A705CB3296EBC14CDF658DCD336EA6D1136881AAEB87B81AB9EE53D5
310
F5EB8BC8362082DA24122F98680A4E7930C01A0079749CEA14382A0783E5EBA5A10F8C098456A03D6A4AEB6BB881E2513747552A5DB22C7EDAF83BD5528081A365F7FF06504B0304140006080000CC70623B000000000000000000000000350000006662782F41393633353835312D344632462D344230382D423046372D37
310
39314545314133324237412F76657274696365732E62696E504B0304140006080800CC70623BF270F1330600000004000000360000006662782F41393633353835312D344632462D344230382D423046372D3739314545314133324237412F747269616E676C65732E62696E636660600000504B0304140006080000CC7062
310
3B000000000000000000000000370000006662782F41393633353835312D344632462D344230382D423046372D3739314545314133324237412F617474726962757465732E62696E504B0304140006080800CC70623B08DA0BD19000000041010000360000006662782F41393633353835312D344632462D344230382D4230
310
46372D3739314545314133324237412F6469726563746F72792E786D6C858F410AC3201045AF22B36F53E9A60B35CBEEBAE80D244E44489C6234F4F835464A48035D0DF398FF9F8AF63D0E6CC63039F212F8F9020C7D47C6792B21C5FE7403D62A1188E2E60C98D7234A5830286103A55745067B9D86B8A3CF9C7F90C11DE6
310
07FB144396D7B6A82D282E9A152AD114D5EF2CB866EEE831B8EEA07A7BB5A8D7D61A2BAAEB7FD5F70921FF497D00504B0304140006080800CC70623BEDD1DC58FD000000A00100003B0000006662782F41393633353835312D344632462D344230382D423046372D3739314545314133324237412F7265736F75726365732F
310
636F72652E786D6C8D504B6E833010BD0A9A6D65B00922041947112427E8052C33A156828DFCA97AFC9A40A576D7CDCCE87D344F8F9FBFE667F689CE6B6B3A6039850C8DB2A336530731DC4903D95970676DF82583CCC8193B5861107C72362E3BA4AC096842428D1D7107A5F7182053CF7474E0D507CE32973124857FE48B
310
540F3961CEF244279DE03EB81420DB9EAC1384436FA353E879B1B182C7A8C75DA3C7F453DF353A1075D537A7BA6464B8F535A99AE14A9A2BBD90E350DD183B5CFABE3AF262350B1EF4FC9351399401471025A527C218A1E53BAB5A5AB765F5469B96525EACF23FA6B88CFF34456DC2A1DCE36E360F82A5202F42F062ED2BAD
310
579969AFDD8A6F504B010214000A0000080000CC70623B3DEE336E79000000790000001B00000000000000000000000000000000006175746F6465736B2D64657369676E2D7061636B6167652E786D6C504B01021400140006080800CC70623BD486FD9CA0000000F40000001300000000000000000000000000B20000005B
310
436F6E74656E745F54797065735D2E786D6C504B01021400140006080800CC70623B853B8169EB0000007C010000080000000000000000000000000083010000636F72652E786D6C504B01021400140006080800CC70623B55019EA25F0000007C000000070000000000000000000000000094020000636E782E786D6C504B
310
01021400140006080800CC70623BDBABAAF470010000D40300000C00000000000000000000000000180300006662782F636F72652E786D6C504B01021400140006080800CC70623B9C113CC27E0000009D0000000B00000000000000000000000000B20400006662782F636E782E786D6C504B01021400140006080800CC70
310
623B7DF2F77C2A010000120200003100000000000000000000000000590500006662782F41393633353835312D344632462D344230382D423046372D3739314545314133324237412F636F72652E786D6C504B01021400140006080800CC70623BAD7543B64E010000330300003000000000000000000000000000D2060000
310
6662782F41393633353835312D344632462D344230382D423046372D3739314545314133324237412F636E782E786D6C504B01021400140006080800CC70623BE75B7789680500003C10000034000000000000000000000000006E0800006662782F41393633353835312D344632462D344230382D423046372D3739314545
310
314133324237412F6F626A656374732E786D6C504B01021400140006080000CC70623B0000000000000000000000003500000000000000000000000000280E00006662782F41393633353835312D344632462D344230382D423046372D3739314545314133324237412F76657274696365732E62696E504B01021400140006
310
080800CC70623BF270F133060000000400000036000000000000000000000000007B0E00006662782F41393633353835312D344632462D344230382D423046372D3739314545314133324237412F747269616E676C65732E62696E504B01021400140006080000CC70623B0000000000000000000000003700000000000000
310
000000000000D50E00006662782F41393633353835312D344632462D344230382D423046372D3739314545314133324237412F617474726962757465732E62696E504B01021400140006080800CC70623B08DA0BD1900000004101000036000000000000000000000000002A0F00006662782F41393633353835312D344632
310
462D344230382D423046372D3739314545314133324237412F6469726563746F72792E786D6C504B01021400140006080800CC70623BEDD1DC58FD000000A00100003B000000000000000000000000000E1000006662782F41393633353835312D344632462D344230382D423046372D3739314545314133324237412F7265
310
736F75726365732F636F72652E786D6C504B0506000000000E000E0080040000641100000000
  0
XRECORD
  5
37F0
102
{ACAD_REACTORS
330
1F7
102
}
330
1F7
100
AcDbXrecord
280
     1
102
MATERIAL
148
0.0
149
0.0
149
0.0
 93
        0
 94
       63
282
     0
 72
     1
 77
     1
171
     1
175
     1
179
     1
273
     0
  0
XRECORD
  5
1F8
102
{ACAD_REACTORS
330
1F7
102
}
330
1F7
100
AcDbXrecord
280
     1
 70
     1
 90
429727718
  1
30362254-06B7-45E0-A893-8CFA70E3D6BC
310
504B03040A0000080000CC70623B3DEE336E79000000790000001B0000006175746F6465736B2D64657369676E2D7061636B6167652E786D6C3C3F786D6C2076657273696F6E3D22312E302220656E636F64696E673D227574662D3822203F3E3C666F726D6174733E3C666F726D61743E687474703A2F2F736368656D612E
310
6175746F6465736B2E636F6D2F64657369676E2D7061636B6167652F323030393C2F666F726D61743E3C2F666F726D6174733E504B0304140006080800CC70623BD486FD9CA0000000F4000000130000005B436F6E74656E745F54797065735D2E786D6C7D8EC10E82300C865F65E91D8A1E8C310C0EEA1BF002731658846E
310
D98AC1B77784ABF1D8FE5FBFBF75BBCE937A534CCEB38643598122B6FEE978D0B0485F9C41B54DDD7D022595594E1A469170414C76A4D9A4D207E29CF43ECE46F218070CC6BECC4078ACAA135ACF422C856C0E68EA1BF5669944DDD7BCDE7B1F8E415D77AECB980613C2E4AC91FC167A2B244592486606FC29C8FD7F045B9A
310
EF7053A7E60B504B0304140006080800CC70623B1EC5D7A3EB0000007C01000008000000636F72652E786D6C8D90416EC3201045AF82665B6103C6756C6122AB4D4ED00B204C5C94182C03558F5F9C3852BBEB6A467FFE9B197D71FC9E6FE8CBACC17AD7032D0820E3B41FAD9B7A48F1820F808E52ACDEC75F36404ECDA687
310
4D0629A6D5A76597B477D1B89855E747B38B2A041301E95B6E7A08FAD3CCAA50296647B8168BD2573599823EBB0CA76447F43862C7BCCF5EAC59410E4DDD9C7973C2755553CCCFA4C603E3040F1565ED3B1FDE4E432BCA0D9622DAF9795FAF464533826484B498524CD807E51D79ED187F21878E10516EF63F505AC67F42C9
310
BA58B1FDDD071640D2FCC87D2045B96591CB3DA85CB7DCE40F504B0304140006080800CC70623B55019EA25F0000007C00000007000000636E782E786D6C4DCB3B0E80201045D1AD90E915ED2CF8AC45050C11660C8261F98AB1B07AC9C97D42D718D865D3E909258CFD00CCE24AC6E326A164D74DC0B4128928FF32603847
310
2BA13128B1252AC747C6BAB984FC68F0B87FE8960A5C09FE86CFB69FBA01504B0304140006080800CC70623B8C9102E971010000D40300000C0000006662782F636F72652E786D6CC5535B6E833010BC8AE5DF0A6C08340F1947A84D4ED00B38C6A128602363A31CBFCB234A53A551FA553EC09AD9F5CE8C31DB9E9B1AF5CA
310
7695D1198E428A91D2D214952E33ECDD315861B4E5CC1AE3BE9561A445A3323CC098B3D21ADFCE9034DA29ED00D5A6503328BA4E398C640D8B0C77F253352214DE4145770A5B214FA2546114020D759C75CE8200340D19DE981F0F6746269C33EFAB6266AB02A655C74A59CCF365BADC27CB5D902ED22848F6340DF238A141
310
BE88E2F57B92BFEDF23523433367AE6A2EEAA455C2A902F398D2751045018D3FA264435F3771F242571B4A1919CA6F9A7C5B3CD9E42BED16F12C776AEB308F40C848FC700B1139D4891EF410CEC810227CC6846F8386402064270EF5C5C709A05E49676C024C61FC95EA45ED154CA5211D1FF4FB8291A913A68E9B83EBBB33
310
E2A7673CDE118E5AE8124C0807CB8377834E366998436B950D7A7746DAD846D4CFD978E0F04FD455FC5D49D2D4C6FE9722321F10997F0F32DC47FE05504B0304140006080800CC70623BFFEA85907E0000009D0000000B0000006662782F636E782E786D6C4DCCD10A83201886E15B91FFDC95D95A811AB6F23E625948A6C3
310
E9D8E5AF46073BFAE0E1E365ED67B3E8ADC3CB78C7815C7240DA3DFC64DCC221C519D7805AC182F7F1EF06C88D9BE6703008B6049F9E274D7A1E938DBB5AE3D6131B2589BA0D3D965551E0B2EA732C9B9A624AAEB41E3A557677029960D9AFB4EF11165F504B0304140006080800CC70623B4FEEA4082C0100001202000031
310
0000006662782F39464131463745442D413632322D343644302D413938332D3331353338454246344243312F636F72652E786D6C8D515B6EC32010BC0AE2AB55850DD871ED0813254D72825EC00192A2C460F1A872FC42ED48ED5F7E00CDCECCCEB26C731F6FE05B39AFADE921293004CA082BB5B9F43086336A21D870E6AC
310
0D7F68109861543DCC30E4ECE26C9C164858139409093556AA051CBC570102714B8F1E7AF1A5C6A11862480C7F2DA6415C878B2A4891CA89C7990F2E050073937C42DE1DB7E4F87ED8A36D4329AA9B3D46DBAEAD504556557BD81DEBDD0761E52CE42C462D17B996298E3E6BE59E35C962CE821E1FF18553435012728A7187
310
0841987E927A8D9B35ADDF70BBC6989599FE4F1427F9A4286A132ABAC49D651EF234CD5CE04CDA78BA3DC2A8FB645D00B9DF8B57E215725C60BCA2A463E54C4CE327C7A65E1C7DB02E7DEFCBF594B864C5CA6CDBD49C957943E9FA5D5FBAF336F90F504B0304140006080800CC70623BAD7543B64E01000033030000300000
310
006662782F39464131463745442D413632322D343644302D413938332D3331353338454246344243312F636E782E786D6CD593CD6EC32010845F0571AD6CE3D48AD20813A9873E410FBD12D82434182C7EAAE6EDBB2424CD25871E7B41D6EC30B3FA84F9E67BB2E40B4234DE8DB46F1925E094D7C6ED479AD3AE5951B2113C
310
789FEE6C943839C1488B4C05DF079FE72A69D8C96C13AAD6B8631503449F83828872B949AC57D26200B826A308D316B4064D6E46FCDA41C05550DC9E483A00797BFD207EFB092A45DE9514C1BBD22178396BD39D891265658C238DEA00936C654E5E433CB65A26D9F6EDB5EBC14EBF49A45CB856E66048291F6939A9A81BB5
310
C8917738143CA680F4AA299D66A042CEB3354A2684DC9D8D178FE0D9B8B41CAAD720F880EE7EF93C0C18769E099ECC04D5A102C8049A8A05632F4DDF376CF1DE0F6BB65C2F8627B65A33C6BB62177CEBBDAD973006829F89F22E814B54F4BC2BE347F8AA8F681390B50FA73F804400B5F542E796F19FF974E7F78DB802FE05
310
E207504B0304140006080800CC70623B16AB87BA640500003C100000340000006662782F39464131463745442D413632322D343644302D413938332D3331353338454246344243312F6F626A656374732E786D6CAD575B6FA33818FD2B887DE6924B3BED8A326A92B68A663B534DD4D13E548A0C38942D60649B369D5FBFC7
310
600890A493BDE42160637FD7F31D7FF63E6FB3D478A55C242CBF3247B66B1A340F5994E4F19559CA8D75611A9F7D8F33263BCB4C232719BD32D5B4E97B316765A1A722BA21652A07B3B7B33F0D11D29C9A46981221AE4C113ED38CD8A4942CA2E2C58E882476BCD9DA23BB5ED8171B73523C0F841684D35CC252CCE79062D4
310
468DFA43D7747CCF51DF7D4FFDEB5593E3AB9CCA9FBEFE241792E4E19EB28198C968BAB8199F5D5A67D3E9C49A9E8F47D6EC76B6B0469F26EEFC7C3EBFBCBEB98462213924694B38DD98FE1D62C393D073EA4FADC5DAF04326852CCF6958F90F0F2B9BB5C48816348F90C7840A68EB78EDF68723159BCEE7891A6B95DDE9D3
310
BCEAEEE8086A6C6F9E5D4B59F0175C10A7A0820BAA5055C7473B5AE3CFDD452D602CD5DF12616444529E90D448938013FE6EFA58AA96F85E4F8C42275708571E98FE6827AF6B2B4AE3D7D83D64E5A64C53054DD3AF90BD06FEA9149565C94FCA0F6B834DC85599E4F2423B24DF0B6AFA979E534DFA9E7A4CC6FA631D486393
310
921829879BF5D781A373557BCB85E97FB90DB62B558F8795179C15944B051F40AB495CF35451D26A4727654E6D8033BD98EF82F21D91FF8AF2DD9982BCF1643BDD4EB516C9492E368C67C88DED563FC36D5EACF66DFF057C3658BDBFA69DF9578B3DA735B64F18C7F20770A9D45CFCF7FCF563D6456A277DBEF78A02637CA2
310
43B90A490AEAB94F72244481D24819A6C0E59B606BFA4B3025981DBB48EAB701D97BF19C577CC77F2D1B6C55A9EF3C732474C0B727303F625995056C3B02963D9EAC146BE78EC5FCEC7FA999EBC5EACBAAE41B12D27B4D2C0BBA49F244E2ECDC81B76B502F113D8F5EE8FB1BE3111CDD4FC2AA9B844CAB1288B68AB90A7CDC
310
1C166AB0D3DC5310625FCC14E779BFD0709F8890A629C9292B1B2DED31A4B0DA928CEE135085754027E3018A397D4D5427D15BD1330B677DC8934285AC3DF45A9EB68FF8F2B8FC0A509AFEECFD0FF2DE25CC6047F7214B195F07EFEB9A094D800F7BFAE8FED187B78EA8A3A400F115961BCAD1215E47C966530AF0EE8128FE
310
58CEBB996A8964FFA529A046635D9353B0336A8F700DDF46271A024E70B0B37C9DE01847591E54DED53D54202AB947E4076556AC49C6CA5C9E1226B7F1A7B1BE15DEED62C41B91E1B3E9AFAAA735036547343A925075041DF0A9979E893B391F8FCFA6967B3EFB644DCF6E5CEBFAE272625DCC6FAF3FB93793C5F90CE1EF57
310
407342756B10D1C489E8953CD1617E5CEECAD6F4EF8914CE5D5D504E5C3F1F9736DA62CFC11E00BCDDB8CC8A9466349744C1F75EBDA4DF09BA8A9E8C7A7E9991989E20E5DBDD6A6003664ED8F7A04A8DBE0DF6EAD9B9AA858342E47399053949D2C146EDB85DE4B176BB0965FBAC19BD19AA918E27FA50C1D22402E144464C
310
59462568E704B6E71915404CB72B8FF4EDE184DDAF753F284990D2C6926782963815403548A70C657FDEF80D2D9CEAA2AE4C1C76F60BFE74219A06527D6582DF6412526107381E55E353090704D085B52408D0933C4ED159D79BDA71BB4BC506F4831350EB6F979CD22D69BF7AC49B91A2C0A9DDA3D5CA36AD20FC478E37E6
310
1844E2352865EBCB6EA275A652E3836BE04EFB400BF1A2556F515F1FBB35B2AB35BD889C744FFA1004B5544B121E57F70215746DD2F5E2C1412B602CBF19455AC6C8E5E9922C4E01E65215385004546899059180EAFCF7A707CE7017CD8CDB0410789AB32C63B91E5CEBBBACB17AC6CD347A022D5075FD106377347AAABA7E
310
7D11590744509B44E205134DC1290F06580320F78E537D3D73540E06CB970B431F185308AD40BBD794D6D77003C5A36E8EAA54BA64597CD8F83BD552A080A365F7FF06504B0304140006080000CC70623B000000000000000000000000350000006662782F39464131463745442D413632322D343644302D413938332D3331
310
353338454246344243312F76657274696365732E62696E504B0304140006080800CC70623BF270F1330600000004000000360000006662782F39464131463745442D413632322D343644302D413938332D3331353338454246344243312F747269616E676C65732E62696E636660600000504B0304140006080000CC70623B
310
000000000000000000000000370000006662782F39464131463745442D413632322D343644302D413938332D3331353338454246344243312F617474726962757465732E62696E504B0304140006080800CC70623B08DA0BD19000000041010000360000006662782F39464131463745442D413632322D343644302D413938
310
332D3331353338454246344243312F6469726563746F72792E786D6C858F410AC3201045AF22B36F53E9A60B35CBEEBAE80D244E44489C6234F4F835464A48035D0DF398FF9F8AF63D0E6CC63039F212F8F9020C7D47C6792B21C5FE7403D62A1188E2E60C98D7234A5830286103A55745067B9D86B8A3CF9C7F90C11DE607
310
FB144396D7B6A82D282E9A152AD114D5EF2CB866EEE831B8EEA07A7BB5A8D7D61A2BAAEB7FD5F70921FF497D00504B0304140006080800CC70623B0D6EF93BFE000000A00100003B0000006662782F39464131463745442D413632322D343644302D413938332D3331353338454246344243312F7265736F75726365732F63
310
6F72652E786D6C8D50596E833010BD0A9ADFCA60B334011947A8694ED00B586642AC041B79A97AFC9A40A5F6AF3F33A3B7689E1E3F7DCD8FEC139DD7D6F4C0720A191A65476DA61E62B892236427C19DB5E1970C322367EC618541F0C9D9B8EC90B226A009093576C41D94DE63804C3DD2D18357379C652E63480A7FCF17A9
310
EE72C29CE5894E3AC17D702940B63D59270887DE46A7D0F36263058F518FBB468FE9A7BE6A7420864373B8D4873369AA8691FA421B3294352543C5CAF65C0F6FEF43CB8BD52C78D0F34F46E550061C419494B6843142CB0F5677F4B52BEB177AEC28E5C52AFF638ACBF84F53D42654E51E77B379102C05791282176B5F693D
310
CB4C7BED567C03504B010214000A0000080000CC70623B3DEE336E79000000790000001B00000000000000000000000000000000006175746F6465736B2D64657369676E2D7061636B6167652E786D6C504B01021400140006080800CC70623BD486FD9CA0000000F40000001300000000000000000000000000B20000005B
310
436F6E74656E745F54797065735D2E786D6C504B01021400140006080800CC70623B1EC5D7A3EB0000007C010000080000000000000000000000000083010000636F72652E786D6C504B01021400140006080800CC70623B55019EA25F0000007C000000070000000000000000000000000094020000636E782E786D6C504B
310
01021400140006080800CC70623B8C9102E971010000D40300000C00000000000000000000000000180300006662782F636F72652E786D6C504B01021400140006080800CC70623BFFEA85907E0000009D0000000B00000000000000000000000000B30400006662782F636E782E786D6C504B01021400140006080800CC70
310
623B4FEEA4082C0100001202000031000000000000000000000000005A0500006662782F39464131463745442D413632322D343644302D413938332D3331353338454246344243312F636F72652E786D6C504B01021400140006080800CC70623BAD7543B64E010000330300003000000000000000000000000000D5060000
310
6662782F39464131463745442D413632322D343644302D413938332D3331353338454246344243312F636E782E786D6C504B01021400140006080800CC70623B16AB87BA640500003C1000003400000000000000000000000000710800006662782F39464131463745442D413632322D343644302D413938332D3331353338
310
454246344243312F6F626A656374732E786D6C504B01021400140006080000CC70623B0000000000000000000000003500000000000000000000000000270E00006662782F39464131463745442D413632322D343644302D413938332D3331353338454246344243312F76657274696365732E62696E504B01021400140006
310
080800CC70623BF270F133060000000400000036000000000000000000000000007A0E00006662782F39464131463745442D413632322D343644302D413938332D3331353338454246344243312F747269616E676C65732E62696E504B01021400140006080000CC70623B0000000000000000000000003700000000000000
310
000000000000D40E00006662782F39464131463745442D413632322D343644302D413938332D3331353338454246344243312F617474726962757465732E62696E504B01021400140006080800CC70623B08DA0BD190000000410100003600000000000000000000000000290F00006662782F39464131463745442D413632
310
322D343644302D413938332D3331353338454246344243312F6469726563746F72792E786D6C504B01021400140006080800CC70623B0D6EF93BFE000000A00100003B000000000000000000000000000D1000006662782F39464131463745442D413632322D343644302D413938332D3331353338454246344243312F7265
310
736F75726365732F636F72652E786D6C504B0506000000000E000E0080040000641100000000
  0
XRECORD
  5
37F2
102
{ACAD_REACTORS
330
173
102
}
330
173
100
AcDbXrecord
280
     1
102
MATERIAL
148
0.0
149
0.0
149
0.0
 93
        0
 94
       63
282
     0
 72
     1
 77
     1
171
     1
175
     1
179
     1
273
     0
  0
XRECORD
  5
175
102
{ACAD_REACTORS
330
173
102
}
330
173
100
AcDbXrecord
280
     1
270
     1
271
     1
  0
XRECORD
  5
174
102
{ACAD_REACTORS
330
173
102
}
330
173
100
AcDbXrecord
280
     1
270
     1
271
     1
  0
XRECORD
  5
1FB
102
{ACAD_REACTORS
330
173
102
}
330
173
100
AcDbXrecord
280
     1
 70
     0
 90
1673772943
  1
ECE7A1D2-D628-4531-984C-D00F80459256
310
504B03040A0000080000CC70623B3DEE336E79000000790000001B0000006175746F6465736B2D64657369676E2D7061636B6167652E786D6C3C3F786D6C2076657273696F6E3D22312E302220656E636F64696E673D227574662D3822203F3E3C666F726D6174733E3C666F726D61743E687474703A2F2F736368656D612E
310
6175746F6465736B2E636F6D2F64657369676E2D7061636B6167652F323030393C2F666F726D61743E3C2F666F726D6174733E504B0304140006080800CC70623BD486FD9CA0000000F4000000130000005B436F6E74656E745F54797065735D2E786D6C7D8EC10E82300C865F65E91D8A1E8C310C0EEA1BF002731658846E
310
D98AC1B77784ABF1D8FE5FBFBF75BBCE937A534CCEB38643598122B6FEE978D0B0485F9C41B54DDD7D022595594E1A469170414C76A4D9A4D207E29CF43ECE46F218070CC6BECC4078ACAA135ACF422C856C0E68EA1BF5669944DDD7BCDE7B1F8E415D77AECB980613C2E4AC91FC167A2B244592486606FC29C8FD7F045B9A
310
EF7053A7E60B504B0304140006080800CC70623BD9DDAED0EC0000007C01000008000000636F72652E786D6C8D90416EC3201045AF82665B61836D9CD8C2444DD39CA01740405C94182C03558F5F9C3852BBEB6A467FFE9B197D7EF89E6EE8CB2CC17A37002D0820E394D7D68D03A478C17B4007C117EFE32F1B20272733C0
310
2A83E0E3E2D3BC49CABB685CCCAAF3DA6CA20CC14440EA969B0182FA34932C648AD911AEC52CD5558EA6A0CF2EC329598D1E47ACCEFBECC59A050463A7EA5833865FEBDD0E37353BE3EE8DBDE3F6786A48D375FBF6CC78B9C282473B3DEFABC5C86834888A900E538A49F5419B9EB47DD5BC907D4F082F57FB1F28CDFA9F50
310
B22ED6D5F6EE030B20687EE43E10BC5CB3C8E51E54AE6B6EE207504B0304140006080800CC70623B55019EA25F0000007C00000007000000636E782E786D6C4DCB3B0E80201045D1AD90E915ED2CF8AC45050C11660C8261F98AB1B07AC9C97D42D718D865D3E909258CFD00CCE24AC6E326A164D74DC0B4128928FF326038
310
472BA13128B1252AC747C6BAB984FC68F0B87FE8960A5C09FE86CFB69FBA01504B0304140006080800CC70623BA24EB22D72010000D40300000C0000006662782F636F72652E786D6CC5535B6E833010BC8AE5DF0A6C5E49888CA3A6694ED00B38E05014B091B1518EDFE511A5A9D228FD2A1F60CDEC7A67C6986DCE4D8D7A
310
69BA4AAB0C073EC548AA5C17952A33ECECD15B61B4E1CC686DBF9561A44423333CC098B3D268D7CE50AE9595CA02AA74216750749DB418E5352C32DCE59FB211BE70162ABA93DF8AFC244AE9073ED050C759670D0840D390E18DF9F1706664C23973AE2A66B62A605A75ACA4C13C4976E1364A12EF355A2EBD384AF65EFA96
310
BC7B8BED2EA6719AAE16FB8491A199335B351775B991C2CA02F390D2D40B028F861F41BCA68B7518BFD0D59A524686F29B26D7164F36B94AD9289CE54E6D1DE6010819891F6E21228B3AD1831EC219194284CF98F06DD01008846CC5A1BEF83801D4CBDC6A1303536877A57A513B0953A94FC707FDBE6064EA84A9E3E6E0FA
310
EE8CF0E9198F7784A316AA0413C2C2F2E0ECA0934D1AE6D05A69BCDE9E91D2A611F573361E38FC1375157F5752AE6B6DFE4B11990F88CCBF0719EE23FF02504B0304140006080800CC70623B408A7D3B7C0000009D0000000B0000006662782F636E782E786D6C4DCCD10A83201886E15B91FFDC552A92A0064DBC8F581632
310
D3703A76F9ABD1C18E3E78F878E5F0D9027ABBFCF2292AE86E2D20171F69F6715550CB827B40839639A5F2770314A7CD293819B45C73AAFB45B35BA61ACAA1C1C7E7855C58C15BC331339661262CC762340413D68D77DA5B42298546CBE6573AF60CEB2F504B0304140006080800CC70623B449FB9BD290100001202000031
310
0000006662782F36394639363044362D344446342D343946362D394244322D3234314243333846323333332F636F72652E786D6C8D515B6EC32010BC0AE22B55850D98B871848994463E412FE002495162B07854397EA176A4F62F3F2C9A9D991D587EB84F37F0AD7D30CEF6905418026DA553C65E7A98E219ED203808EE9D
310
8B7F6810D871D23D2C3014FCE25D9A57483A1BB58D19B54EE9151C43D0110279CB971E06F9A5A7B11A53CC8C70ADE6515EC78BAE4895DB992778883E0700CB907242D17643D7E2538BD869608875438BBAE38922CAC8F1BDD90DB4691A5E2F42C153326A951B95E398B3D1FE599322163C9AE9115F7A3D46ADA0A018778810
310
84E907617BDCEE297BC5BB3DC6BC2EF47FA234AB2745C9D8D8D035EE220B50105E2F0DC1954B9FB747187D9F9D8FA0CCDB042D5FA0C015C65B42DF78BD10F3F3B363CB56C7109DCFDFBBB97E662ED92EB62D13BC2E1BCAE5777DB9966D8A1F504B0304140006080800CC70623BAD7543B64E01000033030000300000006662
310
782F36394639363044362D344446342D343946362D394244322D3234314243333846323333332F636E782E786D6CD593CD6EC32010845F0571AD6CE3D48AD20813A9873E410FBD12D82434182C7EAAE6EDBB2424CD25871E7B41D6EC30B3FA84F9E67BB2E40B4234DE8DB46F1925E094D7C6ED479AD3AE5951B2113C789FEE
310
6C943839C1488B4C05DF079FE72A69D8C96C13AAD6B8631503449F83828872B949AC57D26200B826A308D316B4064D6E46FCDA41C05550DC9E483A00797BFD207EFB092A45DE9514C1BBD22178396BD39D891265658C238DEA00936C654E5E433CB65A26D9F6EDB5EBC14EBF49A45CB856E66048291F6939A9A81BB5C89177
310
38143CA680F4AA299D66A042CEB3354A2684DC9D8D178FE0D9B8B41CAAD720F880EE7EF93C0C18769E099ECC04D5A102C8049A8A05632F4DDF376CF1DE0F6BB65C2F8627B65A33C6BB62177CEBBDAD973006829F89F22E814B54F4BC2BE347F8AA8F681390B50FA73F804400B5F542E796F19FF974E7F78DB802FE05E20750
310
4B0304140006080800CC70623B8D05915C650500003B100000340000006662782F36394639363044362D344446342D343946362D394244322D3234314243333846323333332F6F626A656374732E786D6CAD575B6FA33814FE2B887D06429276DA1565D4266D158D3A339A6846FB502932E050B66023DB74D2FDF5FB190C01
310
9276B2973C046C8ECFF53B17071F77456EBD502133CEAE6CDF9DD81665314F32965ED995DA3A17B6F5310C04E7AA47665B8C14F4CAD6DB7618A48257A5D94AE89654B91AEDDEDDFC61C998326A5B714EA4BCB265FC440BE2924AF184CA6737218AB8E976E7FA6E4338649B0A523E8D98964450A6A029F619B8588D52FE7039
310
B1BD30F0F4F730D0FF866AF6369557DB33949F31A9088B0F848DD8CCFCF9F2767A76E99CCDE733677E3EF59D9BBB9BA5E37F984D16E78BC5E5F5ED25044B25C0C96822E8D60EEFE11B91C581D77CEA34368A1F5329E68CD1B8B61F16D63A1B8E092D294B10C78C4A48EB593D192E7DED9BDEE7995E1B91FDEDD3ACEA9FE831
310
6A756F9F7D4D79F4274C90A7A04248AA51D5F8C718DAE06FB2F75AC4796EBE65D22A88A22223B995679120E2D50E41AA49C260C046A35368846B0BECD0DFF3EBEB8AD4F835768F69B9ADF25C43D30E6B646F807FAA64AD59F61715C7A54127C4AACA98BA3006A9D792DAE165E0D59B61A01FB3A9F9D838D2DAE62445C86166
310
F37564E842E7DE6A69879FEEA2DD5AE7E371E1A5E025154AC307D06A03D73EB5978C58FFA4C8E9033066E0F3BD53BEC1F39F91BE7B55103791EDE6BBB991A2046172CB4581D8B893FA674DDA17A77B3B7C413D1B511FD2743BFF8A38F03A658705E3ADF8015C3A3417FF3D7E439FF591DA0B5F18BC20C1B8981957AE6392A3
310
F43C640C01D1A0B4728E2DD4F26DB4B3C3152A252A3B4E913CEC1C72F012782FF88EFF8637AA552DBEF76408E8A8DE9E50F9E1CB3A2DA0DB1B6039A893B56063DC5B3E3FFB5F72E67AB9FEB4AEC496C4F4C1149625DD662C53E89D7BF0F6151A046260D1337DFDC94502430F83B0EE07A130A224BCAD7DAE1D9FB6CD422FF6
310
920702629C4BB9AE79C12F243C6432A6794E18E5552BA56B431AAB5D91317302B2B071E86C3A42B1A02F999E24061403B5D0EB639195DA655DD3EBEAB4FB862DDF579F014AD0E73C22F99E28DA57FB98E75C6CA2D74D53086D600F4786E0FE3144B771A8A7B900F03594DB8A633CBC49B2EDB69228BB479CF863B5E807AAAB
310
23872F6DFEB4129B949CA33823F58830E86D65621E10047D9DB34D862E8EAC3C2ABC2F7B2C40D67CDFE01F5545B92105AF983AC54D93D69E56FB8E797F88913F898A9FEC705D3F9D1B54EC8426FB500D40A03BD0119B06E1B95DDC7EB8F6975367793EBD70E66733DFB9BC982F9CE564727731999F5D4ECFCE3B8D6A4DC2A0
310
6D50FD148437D110834A64C6CDDF57FBACB5C307A2A477DFE4939736CFEF2B175371E0E10CF0DD1D5C15654E0BCA14D1E87DD02FF93782A162C0A3D95F1524A52770F972BF1EE9809D13CE7DD599467F8ECE9ADD85CE85A34CD45355448C64F9E8A031DC2D596ACC6E5DD93D9B82DE2EF5CAF81363A8E47996A0DE24564A79
310
4115AACE09C55E14540231FDA13C319787134EBF34E3A022514E5B4D9E0826E25C02D5805B15ABE1BEF51B26383D445DD9E875EE33FE4C22DA16427D65A3BCA92CA6D28DD01DF5DC53330704308475351050232CCD31583787BA75774AFB06E5070DD0C8EF484E19968C5D83BA5B90B244D31E54D55A372320FE4786B7EA58
310
44E135AA5467CB7EA333A61683CC6A8C3257034C10CF46F40EF9F5BE59BE5BD30C3C72D235E95D10345C1D45445A5F0BB47E46A5EBE5570F9380B5FA629579952296A773720405982B9DE04011506178964401AA8BDF1FBF0A8EAB6861DD6580C0E38217056766716DAEB2D6FA0917D3E4116581EADB879C4E7CFFB11EFACD
310
3D641311495D92C8676CB409A72D18610D803CE8A626049E8EC1887CB5B44CC39883690DDA8399B4B9855B481E7D71D4A9D22F96E5BB73BF5793020C02137BF837504B0304140006080000CC70623B000000000000000000000000350000006662782F36394639363044362D344446342D343946362D394244322D32343142
310
43333846323333332F76657274696365732E62696E504B0304140006080800CC70623BF270F1330600000004000000360000006662782F36394639363044362D344446342D343946362D394244322D3234314243333846323333332F747269616E676C65732E62696E636660600000504B0304140006080000CC70623B0000
310
00000000000000000000370000006662782F36394639363044362D344446342D343946362D394244322D3234314243333846323333332F617474726962757465732E62696E504B0304140006080800CC70623B08DA0BD19000000041010000360000006662782F36394639363044362D344446342D343946362D394244322D
310
3234314243333846323333332F6469726563746F72792E786D6C858F410AC3201045AF22B36F53E9A60B35CBEEBAE80D244E44489C6234F4F835464A48035D0DF398FF9F8AF63D0E6CC63039F212F8F9020C7D47C6792B21C5FE7403D62A1188E2E60C98D7234A5830286103A55745067B9D86B8A3CF9C7F90C11DE607FB14
310
4396D7B6A82D282E9A152AD114D5EF2CB866EEE831B8EEA07A7BB5A8D7D61A2BAAEB7FD5F70921FF497D00504B0304140006080800CC70623BCA768048FE000000A00100003B0000006662782F36394639363044362D344446342D343946362D394244322D3234314243333846323333332F7265736F75726365732F636F72
310
652E786D6C8D50596E833010BD0A9ADFCA60D600328E9AA639412F609909B1126CE4A5EAF16B0295DABFFECC8CDEA2797AECF8353F924FB44E193D409E5248504B332A3D0D10FC95B4901C39B3C6F85F3248B49871801506CE266BC2B243D2688FDA47549B11775038871E12F988C7004EDE7016A9083E2ADC3D5D84BC8B09
310
D33C8D74D471E6BC8D0192EDC93A815B742658898E651BCB59086ADC356A8C3FD555A1055ED7E7E254D615792D0F075295F585746FF53B694EE78A565DD736979A65AB9933AFE69F8CD2A2F038022F28ED489E135A7CE4554F9BBEA85E68DB53CAB255FEC71496F19FA6A0B42F8B3DEE6673C0F318E4497096AD7DC5F52C33
310
EEB55BFE0D504B010214000A0000080000CC70623B3DEE336E79000000790000001B00000000000000000000000000000000006175746F6465736B2D64657369676E2D7061636B6167652E786D6C504B01021400140006080800CC70623BD486FD9CA0000000F40000001300000000000000000000000000B20000005B436F
310
6E74656E745F54797065735D2E786D6C504B01021400140006080800CC70623BD9DDAED0EC0000007C010000080000000000000000000000000083010000636F72652E786D6C504B01021400140006080800CC70623B55019EA25F0000007C000000070000000000000000000000000095020000636E782E786D6C504B0102
310
1400140006080800CC70623BA24EB22D72010000D40300000C00000000000000000000000000190300006662782F636F72652E786D6C504B01021400140006080800CC70623B408A7D3B7C0000009D0000000B00000000000000000000000000B50400006662782F636E782E786D6C504B01021400140006080800CC70623B
310
449FB9BD290100001202000031000000000000000000000000005A0500006662782F36394639363044362D344446342D343946362D394244322D3234314243333846323333332F636F72652E786D6C504B01021400140006080800CC70623BAD7543B64E010000330300003000000000000000000000000000D20600006662
310
782F36394639363044362D344446342D343946362D394244322D3234314243333846323333332F636E782E786D6C504B01021400140006080800CC70623B8D05915C650500003B10000034000000000000000000000000006E0800006662782F36394639363044362D344446342D343946362D394244322D32343142433338
310
46323333332F6F626A656374732E786D6C504B01021400140006080000CC70623B0000000000000000000000003500000000000000000000000000250E00006662782F36394639363044362D344446342D343946362D394244322D3234314243333846323333332F76657274696365732E62696E504B010214001400060808
310
00CC70623BF270F13306000000040000003600000000000000000000000000780E00006662782F36394639363044362D344446342D343946362D394244322D3234314243333846323333332F747269616E676C65732E62696E504B01021400140006080000CC70623B00000000000000000000000037000000000000000000
310
00000000D20E00006662782F36394639363044362D344446342D343946362D394244322D3234314243333846323333332F617474726962757465732E62696E504B01021400140006080800CC70623B08DA0BD190000000410100003600000000000000000000000000270F00006662782F36394639363044362D344446342D
310
343946362D394244322D3234314243333846323333332F6469726563746F72792E786D6C504B01021400140006080800CC70623BCA768048FE000000A00100003B000000000000000000000000000B1000006662782F36394639363044362D344446342D343946362D394244322D3234314243333846323333332F7265736F
310
75726365732F636F72652E786D6C504B0506000000000E000E0080040000621100000000
  0
XRECORD
  5
176
102
{ACAD_REACTORS
330
173
102
}
330
173
100
AcDbXrecord
280
     1
270
     1
271
     1
  0
XRECORD
  5
177
102
{ACAD_REACTORS
330
173
102
}
330
173
100
AcDbXrecord
280
     1
270
     1
271
     1
  0
XRECORD
  5
3814
102
{ACAD_REACTORS
330
3813
102
}
330
3813
100
AcDbXrecord
280
     1
102
ACAD_ROUNDTRIP_2012_MLEADER_STYLE
298
     1
  0
XRECORD
  5
3826
102
{ACAD_REACTORS
330
3825
102
}
330
3825
100
AcDbXrecord
280
     1
102
DISPLAYNAME
  1
Metric50
102
FLAGS
 90
        0
  0
CELLSTYLEMAP
  5
37E6
102
{ACAD_REACTORS
330
162
102
}
330
162
100
AcDbCellStyleMap
 90
        3
300
CELLSTYLE
  1
TABLEFORMAT_BEGIN
 90
        5
170
     1
 91
        0
 92
    32768
 62
   257
 93
        1
300
CONTENTFORMAT
  1
CONTENTFORMAT_BEGIN
 90
        0
 91
        0
 92
      512
 93
        0
300

 40
0.0
140
1.0
 94
        5
 62
     0
340
11
144
6.0
309
CONTENTFORMAT_END
171
     1
301
MARGIN
  1
CELLMARGIN_BEGIN
 40
1.5
 40
1.5
 40
1.5
 40
1.5
 40
4.5
 40
4.5
309
CELLMARGIN_END
 94
        6
 95
        1
302
GRIDFORMAT
  1
GRIDFORMAT_BEGIN
 90
        0
 91
        1
 62
     0
 92
       -2
340
14
 93
        0
 40
1.125
309
GRIDFORMAT_END
 95
        2
302
GRIDFORMAT
  1
GRIDFORMAT_BEGIN
 90
        0
 91
        1
 62
     0
 92
       -2
340
14
 93
        0
 40
1.125
309
GRIDFORMAT_END
 95
        4
302
GRIDFORMAT
  1
GRIDFORMAT_BEGIN
 90
        0
 91
        1
 62
     0
 92
       -2
340
14
 93
        0
 40
1.125
309
GRIDFORMAT_END
 95
        8
302
GRIDFORMAT
  1
GRIDFORMAT_BEGIN
 90
        0
 91
        1
 62
     0
 92
       -2
340
14
 93
        0
 40
1.125
309
GRIDFORMAT_END
 95
       16
302
GRIDFORMAT
  1
GRIDFORMAT_BEGIN
 90
        0
 91
        1
 62
     0
 92
       -2
340
14
 93
        0
 40
1.125
309
GRIDFORMAT_END
 95
       32
302
GRIDFORMAT
  1
GRIDFORMAT_BEGIN
 90
        0
 91
        1
 62
     0
 92
       -2
340
14
 93
        0
 40
1.125
309
GRIDFORMAT_END
309
TABLEFORMAT_END
  1
CELLSTYLE_BEGIN
 90
        1
 91
        1
300
_TITLE
309
CELLSTYLE_END
300
CELLSTYLE
  1
TABLEFORMAT_BEGIN
 90
        5
170
     1
 91
        0
 92
        0
 62
   257
 93
        1
300
CONTENTFORMAT
  1
CONTENTFORMAT_BEGIN
 90
        0
 91
        0
 92
      512
 93
        0
300

 40
0.0
140
1.0
 94
        5
 62
     0
340
11
144
4.5
309
CONTENTFORMAT_END
171
     1
301
MARGIN
  1
CELLMARGIN_BEGIN
 40
1.5
 40
1.5
 40
1.5
 40
1.5
 40
4.5
 40
4.5
309
CELLMARGIN_END
 94
        6
 95
        1
302
GRIDFORMAT
  1
GRIDFORMAT_BEGIN
 90
        0
 91
        1
 62
     0
 92
       -2
340
14
 93
        0
 40
1.125
309
GRIDFORMAT_END
 95
        2
302
GRIDFORMAT
  1
GRIDFORMAT_BEGIN
 90
        0
 91
        1
 62
     0
 92
       -2
340
14
 93
        0
 40
1.125
309
GRIDFORMAT_END
 95
        4
302
GRIDFORMAT
  1
GRIDFORMAT_BEGIN
 90
        0
 91
        1
 62
     0
 92
       -2
340
14
 93
        0
 40
1.125
309
GRIDFORMAT_END
 95
        8
302
GRIDFORMAT
  1
GRIDFORMAT_BEGIN
 90
        0
 91
        1
 62
     0
 92
       -2
340
14
 93
        0
 40
1.125
309
GRIDFORMAT_END
 95
       16
302
GRIDFORMAT
  1
GRIDFORMAT_BEGIN
 90
        0
 91
        1
 62
     0
 92
       -2
340
14
 93
        0
 40
1.125
309
GRIDFORMAT_END
 95
       32
302
GRIDFORMAT
  1
GRIDFORMAT_BEGIN
 90
        0
 91
        1
 62
     0
 92
       -2
340
14
 93
        0
 40
1.125
309
GRIDFORMAT_END
309
TABLEFORMAT_END
  1
CELLSTYLE_BEGIN
 90
        2
 91
        1
300
_HEADER
309
CELLSTYLE_END
300
CELLSTYLE
  1
TABLEFORMAT_BEGIN
 90
        5
170
     1
 91
        0
 92
        0
 62
   257
 93
        1
300
CONTENTFORMAT
  1
CONTENTFORMAT_BEGIN
 90
        0
 91
        0
 92
      512
 93
        0
300

 40
0.0
140
1.0
 94
        2
 62
     0
340
11
144
4.5
309
CONTENTFORMAT_END
171
     1
301
MARGIN
  1
CELLMARGIN_BEGIN
 40
1.5
 40
1.5
 40
1.5
 40
1.5
 40
4.5
 40
4.5
309
CELLMARGIN_END
 94
        6
 95
        1
302
GRIDFORMAT
  1
GRIDFORMAT_BEGIN
 90
        0
 91
        1
 62
     0
 92
       -2
340
14
 93
        0
 40
1.125
309
GRIDFORMAT_END
 95
        2
302
GRIDFORMAT
  1
GRIDFORMAT_BEGIN
 90
        0
 91
        1
 62
     0
 92
       -2
340
14
 93
        0
 40
1.125
309
GRIDFORMAT_END
 95
        4
302
GRIDFORMAT
  1
GRIDFORMAT_BEGIN
 90
        0
 91
        1
 62
     0
 92
       -2
340
14
 93
        0
 40
1.125
309
GRIDFORMAT_END
 95
        8
302
GRIDFORMAT
  1
GRIDFORMAT_BEGIN
 90
        0
 91
        1
 62
     0
 92
       -2
340
14
 93
        0
 40
1.125
309
GRIDFORMAT_END
 95
       16
302
GRIDFORMAT
  1
GRIDFORMAT_BEGIN
 90
        0
 91
        1
 62
     0
 92
       -2
340
14
 93
        0
 40
1.125
309
GRIDFORMAT_END
 95
       32
302
GRIDFORMAT
  1
GRIDFORMAT_BEGIN
 90
        0
 91
        1
 62
     0
 92
       -2
340
14
 93
        0
 40
1.125
309
GRIDFORMAT_END
309
TABLEFORMAT_END
  1
CELLSTYLE_BEGIN
 90
        3
 91
        2
300
_DATA
309
CELLSTYLE_END
  0
XRECORD
  5
37EB
102
{ACAD_REACTORS
330
162
102
}
330
162
100
AcDbXrecord
280
     1
102
ACAD_ROUNDTRIP_PRE2007_TABLESTYLE
 90
      512
 91
        0
  1

 92
      512
 93
        0
  2

 94
      512
 95
        0
  3

  0
XRECORD
  5
37FE
102
{ACAD_REACTORS
330
37FD
102
}
330
37FD
100
AcDbXrecord
280
     1
102
RTVSPost2010Prop28
280
     1
102
RTVSPost2010PropOp28
 70
     1
102
RTVSPost2010Prop29
280
     1
102
RTVSPost2010PropOp29
 70
     1
102
RTVSPost2010Prop30
280
     0
102
RTVSPost2010PropOp30
 70
     1
102
RTVSPost2010Prop31
280
     0
102
RTVSPost2010PropOp31
 70
     1
102
RTVSPost2010Prop32
280
     0
102
RTVSPost2010PropOp32
 70
     1
102
RTVSPost2010Prop33
280
     0
102
RTVSPost2010PropOp33
 70
     1
102
RTVSPost2010Prop34
280
     0
102
RTVSPost2010PropOp34
 70
     1
102
RTVSPost2010Prop35
280
     0
102
RTVSPost2010PropOp35
 70
     1
102
RTVSPost2010Prop36
280
     0
102
RTVSPost2010PropOp36
 70
     1
102
RTVSPost2010Prop37
 90
       50
102
RTVSPost2010PropOp37
 70
     1
102
RTVSPost2010Prop38
140
0.0
102
RTVSPost2010PropOp38
 70
     1
102
RTVSPost2010Prop39
140
1.0
102
RTVSPost2010PropOp39
 70
     1
102
RTVSPost2010Prop40
 90
        0
102
RTVSPost2010PropOp40
 70
     1
102
RTVSPost2010Prop41ColorIndex
 90
       18
102
RTVSPost2010Prop41ColorRGB
 90
        0
102
RTVSPost2010PropOp41
 70
     1
102
RTVSPost2010Prop42
 90
       50
102
RTVSPost2010PropOp42
 70
     1
102
RTVSPost2010Prop43
 90
        3
102
RTVSPost2010PropOp43
 70
     1
102
RTVSPost2010Prop44ColorIndex
 90
        5
102
RTVSPost2010Prop44ColorRGB
 90
      255
102
RTVSPost2010PropOp44
 70
     1
102
RTVSPost2010Prop45
280
     0
102
RTVSPost2010PropOp45
 70
     1
102
RTVSPost2010Prop46
 90
       50
102
RTVSPost2010PropOp46
 70
     1
102
RTVSPost2010Prop47
 90
       50
102
RTVSPost2010PropOp47
 70
     1
102
RTVSPost2010Prop48
 90
       50
102
RTVSPost2010PropOp48
 70
     1
102
RTVSPost2010Prop49
280
     0
102
RTVSPost2010PropOp49
 70
     1
102
RTVSPost2010Prop50
 90
       50
102
RTVSPost2010PropOp50
 70
     1
102
RTVSPost2010Prop51ColorIndex
 90
      256
102
RTVSPost2010Prop51ColorRGB
 90
-16777216
102
RTVSPost2010PropOp51
 70
     0
102
RTVSPost2010Prop52
140
1.0
102
RTVSPost2010PropOp52
 70
     0
102
RTVSPost2010Prop53
 90
        2
102
RTVSPost2010PropOp53
 70
     1
102
RTVSPost2010Prop54
  1
strokes_ogs.tif
102
RTVSPost2010PropOp54
 70
     1
102
RTVSPost2010Prop55
280
     0
102
RTVSPost2010PropOp55
 70
     1
102
RTVSPost2010Prop56
140
1.0
102
RTVSPost2010PropOp56
 70
     1
102
RTVSPost2010Prop57
140
1.0
102
RTVSPost2010PropOp57
 70
     1
102
RTVSPropertyOp0
 70
     1
102
RTVSPropertyOp1
 70
     1
102
RTVSPropertyOp2
 70
     1
102
RTVSPropertyOp3
 70
     1
102
RTVSPropertyOp4
 70
     1
102
RTVSPropertyOp5
 70
     1
102
RTVSPropertyOp6
 70
     1
102
RTVSPropertyOp7
 70
     1
102
RTVSPropertyOp8
 70
     1
102
RTVSPropertyOp9
 70
     1
102
RTVSPropertyOp10
 70
     1
102
RTVSPropertyOp11
 70
     1
102
RTVSPropertyOp12
 70
     1
102
RTVSPropertyOp13
 70
     1
102
RTVSPropertyOp14
 70
     1
102
RTVSPropertyOp15
 70
     1
102
RTVSPropertyOp16
 70
     1
102
RTVSPropertyOp17
 70
     1
102
RTVSPropertyOp18
 70
     1
102
RTVSPropertyOp19
 70
     1
102
RTVSPropertyOp20
 70
     1
102
RTVSPropertyOp21
 70
     1
102
RTVSPropertyOp22
 70
     1
102
RTVSPropertyOp23
 70
     1
102
RTVSPropertyOp24
 70
     1
102
RTVSPropertyOp25
 70
     1
102
RTVSPropertyOp26
 70
     1
102
RTVSPropertyOp27
 70
     1
102
RTVSPropertyOp28
 70
     1
102
RTVSPropertyOp29
 70
     1
102
RTVSPropertyOp30
 70
     1
102
RTVSPropertyOp31
 70
     1
102
RTVSPropertyOp32
 70
     1
102
RTVSPropertyOp33
 70
     1
102
RTVSPropertyOp34
 70
     1
102
RTVSPropertyOp35
 70
     1
102
RTVSPropertyOp36
 70
     1
102
RTVSPropertyOp37
 70
     1
102
RTVSPropertyOp38
 70
     1
102
RTVSPropertyOp39
 70
     1
102
RTVSPropertyOp40
 70
     1
102
RTVSPropertyOp41
 70
     1
102
RTVSPropertyOp42
 70
     1
102
RTVSPropertyOp43
 70
     1
102
RTVSPropertyOp44
 70
     1
102
RTVSPropertyOp45
 70
     1
102
RTVSPropertyOp46
 70
     1
102
RTVSPropertyOp47
 70
     1
102
RTVSPropertyOp48
 70
     1
102
RTVSPropertyOp49
 70
     1
102
RTVSPropertyOp50
 70
     1
102
RTVSPropertyOp51
 70
     0
102
RTVSPropertyOp52
 70
     0
102
RTVSPropertyOp53
 70
     1
102
RTVSPropertyOp54
 70
     1
102
RTVSPropertyOp55
 70
     1
102
RTVSPropertyOp56
 70
     1
102
RTVSPropertyOp57
 70
     1
102
RTVSPropertyOp58
 70
     1
102
RTVSPropertyOp59
 70
     1
102
RTVSPropertyOp60
 70
     1
102
RTVSPropertyOp61
 70
     1
102
RTVSPropertyOp62
 70
     1
  0
XRECORD
  5
37FC
102
{ACAD_REACTORS
330
37FB
102
}
330
37FB
100
AcDbXrecord
280
     1
102
RTVSPost2010Prop28
280
     0
102
RTVSPost2010PropOp28
 70
     1
102
RTVSPost2010Prop29
280
     1
102
RTVSPost2010PropOp29
 70
     1
102
RTVSPost2010Prop30
280
     1
102
RTVSPost2010PropOp30
 70
     1
102
RTVSPost2010Prop31
280
     0
102
RTVSPost2010PropOp31
 70
     1
102
RTVSPost2010Prop32
280
     0
102
RTVSPost2010PropOp32
 70
     1
102
RTVSPost2010Prop33
280
     0
102
RTVSPost2010PropOp33
 70
     1
102
RTVSPost2010Prop34
280
     0
102
RTVSPost2010PropOp34
 70
     1
102
RTVSPost2010Prop35
280
     0
102
RTVSPost2010PropOp35
 70
     1
102
RTVSPost2010Prop36
280
     0
102
RTVSPost2010PropOp36
 70
     1
102
RTVSPost2010Prop37
 90
       50
102
RTVSPost2010PropOp37
 70
     1
102
RTVSPost2010Prop38
140
0.0
102
RTVSPost2010PropOp38
 70
     1
102
RTVSPost2010Prop39
140
1.0
102
RTVSPost2010PropOp39
 70
     1
102
RTVSPost2010Prop40
 90
        0
102
RTVSPost2010PropOp40
 70
     1
102
RTVSPost2010Prop41ColorIndex
 90
       18
102
RTVSPost2010Prop41ColorRGB
 90
        0
102
RTVSPost2010PropOp41
 70
     1
102
RTVSPost2010Prop42
 90
       50
102
RTVSPost2010PropOp42
 70
     1
102
RTVSPost2010Prop43
 90
        3
102
RTVSPost2010PropOp43
 70
     1
102
RTVSPost2010Prop44ColorIndex
 90
        5
102
RTVSPost2010Prop44ColorRGB
 90
      255
102
RTVSPost2010PropOp44
 70
     1
102
RTVSPost2010Prop45
280
     0
102
RTVSPost2010PropOp45
 70
     1
102
RTVSPost2010Prop46
 90
       50
102
RTVSPost2010PropOp46
 70
     1
102
RTVSPost2010Prop47
 90
       50
102
RTVSPost2010PropOp47
 70
     1
102
RTVSPost2010Prop48
 90
       50
102
RTVSPost2010PropOp48
 70
     1
102
RTVSPost2010Prop49
280
     0
102
RTVSPost2010PropOp49
 70
     1
102
RTVSPost2010Prop50
 90
       50
102
RTVSPost2010PropOp50
 70
     1
102
RTVSPost2010Prop51ColorIndex
 90
      256
102
RTVSPost2010Prop51ColorRGB
 90
-16777216
102
RTVSPost2010PropOp51
 70
     0
102
RTVSPost2010Prop52
140
1.0
102
RTVSPost2010PropOp52
 70
     0
102
RTVSPost2010Prop53
 90
        2
102
RTVSPost2010PropOp53
 70
     1
102
RTVSPost2010Prop54
  1
strokes_ogs.tif
102
RTVSPost2010PropOp54
 70
     1
102
RTVSPost2010Prop55
280
     0
102
RTVSPost2010PropOp55
 70
     1
102
RTVSPost2010Prop56
140
1.0
102
RTVSPost2010PropOp56
 70
     1
102
RTVSPost2010Prop57
140
1.0
102
RTVSPost2010PropOp57
 70
     1
102
RTVSPropertyOp0
 70
     1
102
RTVSPropertyOp1
 70
     1
102
RTVSPropertyOp2
 70
     1
102
RTVSPropertyOp3
 70
     1
102
RTVSPropertyOp4
 70
     1
102
RTVSPropertyOp5
 70
     1
102
RTVSPropertyOp6
 70
     1
102
RTVSPropertyOp7
 70
     1
102
RTVSPropertyOp8
 70
     1
102
RTVSPropertyOp9
 70
     1
102
RTVSPropertyOp10
 70
     1
102
RTVSPropertyOp11
 70
     1
102
RTVSPropertyOp12
 70
     1
102
RTVSPropertyOp13
 70
     1
102
RTVSPropertyOp14
 70
     1
102
RTVSPropertyOp15
 70
     1
102
RTVSPropertyOp16
 70
     1
102
RTVSPropertyOp17
 70
     1
102
RTVSPropertyOp18
 70
     1
102
RTVSPropertyOp19
 70
     1
102
RTVSPropertyOp20
 70
     1
102
RTVSPropertyOp21
 70
     1
102
RTVSPropertyOp22
 70
     1
102
RTVSPropertyOp23
 70
     1
102
RTVSPropertyOp24
 70
     1
102
RTVSPropertyOp25
 70
     1
102
RTVSPropertyOp26
 70
     1
102
RTVSPropertyOp27
 70
     1
102
RTVSPropertyOp28
 70
     1
102
RTVSPropertyOp29
 70
     1
102
RTVSPropertyOp30
 70
     1
102
RTVSPropertyOp31
 70
     1
102
RTVSPropertyOp32
 70
     1
102
RTVSPropertyOp33
 70
     1
102
RTVSPropertyOp34
 70
     1
102
RTVSPropertyOp35
 70
     1
102
RTVSPropertyOp36
 70
     1
102
RTVSPropertyOp37
 70
     1
102
RTVSPropertyOp38
 70
     1
102
RTVSPropertyOp39
 70
     1
102
RTVSPropertyOp40
 70
     1
102
RTVSPropertyOp41
 70
     1
102
RTVSPropertyOp42
 70
     1
102
RTVSPropertyOp43
 70
     1
102
RTVSPropertyOp44
 70
     1
102
RTVSPropertyOp45
 70
     1
102
RTVSPropertyOp46
 70
     1
102
RTVSPropertyOp47
 70
     1
102
RTVSPropertyOp48
 70
     1
102
RTVSPropertyOp49
 70
     1
102
RTVSPropertyOp50
 70
     1
102
RTVSPropertyOp51
 70
     0
102
RTVSPropertyOp52
 70
     0
102
RTVSPropertyOp53
 70
     1
102
RTVSPropertyOp54
 70
     1
102
RTVSPropertyOp55
 70
     1
102
RTVSPropertyOp56
 70
     1
102
RTVSPropertyOp57
 70
     1
102
RTVSPropertyOp58
 70
     1
102
RTVSPropertyOp59
 70
     1
102
RTVSPropertyOp60
 70
     1
102
RTVSPropertyOp61
 70
     1
102
RTVSPropertyOp62
 70
     1
  0
XRECORD
  5
380A
102
{ACAD_REACTORS
330
3809
102
}
330
3809
100
AcDbXrecord
280
     1
102
RTVSPost2010Prop28
280
     0
102
RTVSPost2010PropOp28
 70
     1
102
RTVSPost2010Prop29
280
     1
102
RTVSPost2010PropOp29
 70
     1
102
RTVSPost2010Prop30
280
     1
102
RTVSPost2010PropOp30
 70
     1
102
RTVSPost2010Prop31
280
     0
102
RTVSPost2010PropOp31
 70
     1
102
RTVSPost2010Prop32
280
     0
102
RTVSPost2010PropOp32
 70
     1
102
RTVSPost2010Prop33
280
     0
102
RTVSPost2010PropOp33
 70
     1
102
RTVSPost2010Prop34
280
     0
102
RTVSPost2010PropOp34
 70
     1
102
RTVSPost2010Prop35
280
     0
102
RTVSPost2010PropOp35
 70
     1
102
RTVSPost2010Prop36
280
     0
102
RTVSPost2010PropOp36
 70
     1
102
RTVSPost2010Prop37
 90
       50
102
RTVSPost2010PropOp37
 70
     1
102
RTVSPost2010Prop38
140
0.0
102
RTVSPost2010PropOp38
 70
     1
102
RTVSPost2010Prop39
140
1.0
102
RTVSPost2010PropOp39
 70
     1
102
RTVSPost2010Prop40
 90
        0
102
RTVSPost2010PropOp40
 70
     1
102
RTVSPost2010Prop41ColorIndex
 90
       18
102
RTVSPost2010Prop41ColorRGB
 90
        0
102
RTVSPost2010PropOp41
 70
     1
102
RTVSPost2010Prop42
 90
       50
102
RTVSPost2010PropOp42
 70
     1
102
RTVSPost2010Prop43
 90
        3
102
RTVSPost2010PropOp43
 70
     1
102
RTVSPost2010Prop44ColorIndex
 90
        5
102
RTVSPost2010Prop44ColorRGB
 90
      255
102
RTVSPost2010PropOp44
 70
     1
102
RTVSPost2010Prop45
280
     0
102
RTVSPost2010PropOp45
 70
     1
102
RTVSPost2010Prop46
 90
       50
102
RTVSPost2010PropOp46
 70
     1
102
RTVSPost2010Prop47
 90
       50
102
RTVSPost2010PropOp47
 70
     1
102
RTVSPost2010Prop48
 90
       50
102
RTVSPost2010PropOp48
 70
     1
102
RTVSPost2010Prop49
280
     0
102
RTVSPost2010PropOp49
 70
     1
102
RTVSPost2010Prop50
 90
       50
102
RTVSPost2010PropOp50
 70
     1
102
RTVSPost2010Prop51ColorIndex
 90
      256
102
RTVSPost2010Prop51ColorRGB
 90
-16777216
102
RTVSPost2010PropOp51
 70
     0
102
RTVSPost2010Prop52
140
1.0
102
RTVSPost2010PropOp52
 70
     0
102
RTVSPost2010Prop53
 90
        2
102
RTVSPost2010PropOp53
 70
     1
102
RTVSPost2010Prop54
  1
strokes_ogs.tif
102
RTVSPost2010PropOp54
 70
     1
102
RTVSPost2010Prop55
280
     0
102
RTVSPost2010PropOp55
 70
     1
102
RTVSPost2010Prop56
140
1.0
102
RTVSPost2010PropOp56
 70
     1
102
RTVSPost2010Prop57
140
1.0
102
RTVSPost2010PropOp57
 70
     1
102
RTVSPropertyOp0
 70
     1
102
RTVSPropertyOp1
 70
     1
102
RTVSPropertyOp2
 70
     1
102
RTVSPropertyOp3
 70
     1
102
RTVSPropertyOp4
 70
     1
102
RTVSPropertyOp5
 70
     1
102
RTVSPropertyOp6
 70
     1
102
RTVSPropertyOp7
 70
     1
102
RTVSPropertyOp8
 70
     1
102
RTVSPropertyOp9
 70
     1
102
RTVSPropertyOp10
 70
     1
102
RTVSPropertyOp11
 70
     1
102
RTVSPropertyOp12
 70
     1
102
RTVSPropertyOp13
 70
     1
102
RTVSPropertyOp14
 70
     1
102
RTVSPropertyOp15
 70
     1
102
RTVSPropertyOp16
 70
     1
102
RTVSPropertyOp17
 70
     1
102
RTVSPropertyOp18
 70
     1
102
RTVSPropertyOp19
 70
     1
102
RTVSPropertyOp20
 70
     1
102
RTVSPropertyOp21
 70
     1
102
RTVSPropertyOp22
 70
     1
102
RTVSPropertyOp23
 70
     1
102
RTVSPropertyOp24
 70
     1
102
RTVSPropertyOp25
 70
     1
102
RTVSPropertyOp26
 70
     1
102
RTVSPropertyOp27
 70
     1
102
RTVSPropertyOp28
 70
     1
102
RTVSPropertyOp29
 70
     1
102
RTVSPropertyOp30
 70
     1
102
RTVSPropertyOp31
 70
     1
102
RTVSPropertyOp32
 70
     1
102
RTVSPropertyOp33
 70
     1
102
RTVSPropertyOp34
 70
     1
102
RTVSPropertyOp35
 70
     1
102
RTVSPropertyOp36
 70
     1
102
RTVSPropertyOp37
 70
     1
102
RTVSPropertyOp38
 70
     1
102
RTVSPropertyOp39
 70
     1
102
RTVSPropertyOp40
 70
     1
102
RTVSPropertyOp41
 70
     1
102
RTVSPropertyOp42
 70
     1
102
RTVSPropertyOp43
 70
     1
102
RTVSPropertyOp44
 70
     1
102
RTVSPropertyOp45
 70
     1
102
RTVSPropertyOp46
 70
     1
102
RTVSPropertyOp47
 70
     1
102
RTVSPropertyOp48
 70
     1
102
RTVSPropertyOp49
 70
     1
102
RTVSPropertyOp50
 70
     1
102
RTVSPropertyOp51
 70
     0
102
RTVSPropertyOp52
 70
     0
102
RTVSPropertyOp53
 70
     1
102
RTVSPropertyOp54
 70
     1
102
RTVSPropertyOp55
 70
     1
102
RTVSPropertyOp56
 70
     1
102
RTVSPropertyOp57
 70
     1
102
RTVSPropertyOp58
 70
     1
102
RTVSPropertyOp59
 70
     1
102
RTVSPropertyOp60
 70
     1
102
RTVSPropertyOp61
 70
     1
102
RTVSPropertyOp62
 70
     1
  0
XRECORD
  5
3812
102
{ACAD_REACTORS
330
3811
102
}
330
3811
100
AcDbXrecord
280
     1
102
RTVSPost2010Prop28
280
     0
102
RTVSPost2010PropOp28
 70
     1
102
RTVSPost2010Prop29
280
     1
102
RTVSPost2010PropOp29
 70
     1
102
RTVSPost2010Prop30
280
     1
102
RTVSPost2010PropOp30
 70
     1
102
RTVSPost2010Prop31
280
     0
102
RTVSPost2010PropOp31
 70
     1
102
RTVSPost2010Prop32
280
     0
102
RTVSPost2010PropOp32
 70
     1
102
RTVSPost2010Prop33
280
     0
102
RTVSPost2010PropOp33
 70
     1
102
RTVSPost2010Prop34
280
     0
102
RTVSPost2010PropOp34
 70
     1
102
RTVSPost2010Prop35
280
     0
102
RTVSPost2010PropOp35
 70
     1
102
RTVSPost2010Prop36
280
     0
102
RTVSPost2010PropOp36
 70
     1
102
RTVSPost2010Prop37
 90
       50
102
RTVSPost2010PropOp37
 70
     1
102
RTVSPost2010Prop38
140
0.0
102
RTVSPost2010PropOp38
 70
     1
102
RTVSPost2010Prop39
140
1.0
102
RTVSPost2010PropOp39
 70
     1
102
RTVSPost2010Prop40
 90
        0
102
RTVSPost2010PropOp40
 70
     1
102
RTVSPost2010Prop41ColorIndex
 90
       18
102
RTVSPost2010Prop41ColorRGB
 90
        0
102
RTVSPost2010PropOp41
 70
     1
102
RTVSPost2010Prop42
 90
       50
102
RTVSPost2010PropOp42
 70
     1
102
RTVSPost2010Prop43
 90
        3
102
RTVSPost2010PropOp43
 70
     1
102
RTVSPost2010Prop44ColorIndex
 90
        5
102
RTVSPost2010Prop44ColorRGB
 90
      255
102
RTVSPost2010PropOp44
 70
     1
102
RTVSPost2010Prop45
280
     0
102
RTVSPost2010PropOp45
 70
     1
102
RTVSPost2010Prop46
 90
       50
102
RTVSPost2010PropOp46
 70
     1
102
RTVSPost2010Prop47
 90
       50
102
RTVSPost2010PropOp47
 70
     1
102
RTVSPost2010Prop48
 90
       50
102
RTVSPost2010PropOp48
 70
     1
102
RTVSPost2010Prop49
280
     0
102
RTVSPost2010PropOp49
 70
     1
102
RTVSPost2010Prop50
 90
       50
102
RTVSPost2010PropOp50
 70
     1
102
RTVSPost2010Prop51ColorIndex
 90
      256
102
RTVSPost2010Prop51ColorRGB
 90
-16777216
102
RTVSPost2010PropOp51
 70
     0
102
RTVSPost2010Prop52
140
1.0
102
RTVSPost2010PropOp52
 70
     0
102
RTVSPost2010Prop53
 90
        2
102
RTVSPost2010PropOp53
 70
     1
102
RTVSPost2010Prop54
  1
strokes_ogs.tif
102
RTVSPost2010PropOp54
 70
     1
102
RTVSPost2010Prop55
280
     0
102
RTVSPost2010PropOp55
 70
     1
102
RTVSPost2010Prop56
140
1.0
102
RTVSPost2010PropOp56
 70
     1
102
RTVSPost2010Prop57
140
1.0
102
RTVSPost2010PropOp57
 70
     1
102
RTVSPropertyOp0
 70
     1
102
RTVSPropertyOp1
 70
     1
102
RTVSPropertyOp2
 70
     1
102
RTVSPropertyOp3
 70
     1
102
RTVSPropertyOp4
 70
     1
102
RTVSPropertyOp5
 70
     1
102
RTVSPropertyOp6
 70
     1
102
RTVSPropertyOp7
 70
     1
102
RTVSPropertyOp8
 70
     1
102
RTVSPropertyOp9
 70
     1
102
RTVSPropertyOp10
 70
     1
102
RTVSPropertyOp11
 70
     1
102
RTVSPropertyOp12
 70
     1
102
RTVSPropertyOp13
 70
     1
102
RTVSPropertyOp14
 70
     1
102
RTVSPropertyOp15
 70
     1
102
RTVSPropertyOp16
 70
     1
102
RTVSPropertyOp17
 70
     1
102
RTVSPropertyOp18
 70
     1
102
RTVSPropertyOp19
 70
     1
102
RTVSPropertyOp20
 70
     1
102
RTVSPropertyOp21
 70
     1
102
RTVSPropertyOp22
 70
     1
102
RTVSPropertyOp23
 70
     1
102
RTVSPropertyOp24
 70
     1
102
RTVSPropertyOp25
 70
     1
102
RTVSPropertyOp26
 70
     1
102
RTVSPropertyOp27
 70
     1
102
RTVSPropertyOp28
 70
     1
102
RTVSPropertyOp29
 70
     1
102
RTVSPropertyOp30
 70
     1
102
RTVSPropertyOp31
 70
     1
102
RTVSPropertyOp32
 70
     1
102
RTVSPropertyOp33
 70
     1
102
RTVSPropertyOp34
 70
     1
102
RTVSPropertyOp35
 70
     1
102
RTVSPropertyOp36
 70
     1
102
RTVSPropertyOp37
 70
     1
102
RTVSPropertyOp38
 70
     1
102
RTVSPropertyOp39
 70
     1
102
RTVSPropertyOp40
 70
     1
102
RTVSPropertyOp41
 70
     1
102
RTVSPropertyOp42
 70
     1
102
RTVSPropertyOp43
 70
     1
102
RTVSPropertyOp44
 70
     1
102
RTVSPropertyOp45
 70
     1
102
RTVSPropertyOp46
 70
     1
102
RTVSPropertyOp47
 70
     1
102
RTVSPropertyOp48
 70
     1
102
RTVSPropertyOp49
 70
     1
102
RTVSPropertyOp50
 70
     1
102
RTVSPropertyOp51
 70
     0
102
RTVSPropertyOp52
 70
     0
102
RTVSPropertyOp53
 70
     1
102
RTVSPropertyOp54
 70
     1
102
RTVSPropertyOp55
 70
     1
102
RTVSPropertyOp56
 70
     1
102
RTVSPropertyOp57
 70
     1
102
RTVSPropertyOp58
 70
     1
102
RTVSPropertyOp59
 70
     1
102
RTVSPropertyOp60
 70
     1
102
RTVSPropertyOp61
 70
     1
102
RTVSPropertyOp62
 70
     1
  0
XRECORD
  5
3804
102
{ACAD_REACTORS
330
3803
102
}
330
3803
100
AcDbXrecord
280
     1
102
RTVSPost2010Prop28
280
     0
102
RTVSPost2010PropOp28
 70
     1
102
RTVSPost2010Prop29
280
     1
102
RTVSPost2010PropOp29
 70
     1
102
RTVSPost2010Prop30
280
     1
102
RTVSPost2010PropOp30
 70
     1
102
RTVSPost2010Prop31
280
     0
102
RTVSPost2010PropOp31
 70
     1
102
RTVSPost2010Prop32
280
     0
102
RTVSPost2010PropOp32
 70
     1
102
RTVSPost2010Prop33
280
     0
102
RTVSPost2010PropOp33
 70
     1
102
RTVSPost2010Prop34
280
     0
102
RTVSPost2010PropOp34
 70
     1
102
RTVSPost2010Prop35
280
     0
102
RTVSPost2010PropOp35
 70
     1
102
RTVSPost2010Prop36
280
     0
102
RTVSPost2010PropOp36
 70
     1
102
RTVSPost2010Prop37
 90
       50
102
RTVSPost2010PropOp37
 70
     1
102
RTVSPost2010Prop38
140
0.0
102
RTVSPost2010PropOp38
 70
     1
102
RTVSPost2010Prop39
140
1.0
102
RTVSPost2010PropOp39
 70
     1
102
RTVSPost2010Prop40
 90
        0
102
RTVSPost2010PropOp40
 70
     1
102
RTVSPost2010Prop41ColorIndex
 90
       18
102
RTVSPost2010Prop41ColorRGB
 90
        0
102
RTVSPost2010PropOp41
 70
     1
102
RTVSPost2010Prop42
 90
       50
102
RTVSPost2010PropOp42
 70
     1
102
RTVSPost2010Prop43
 90
        3
102
RTVSPost2010PropOp43
 70
     1
102
RTVSPost2010Prop44ColorIndex
 90
        5
102
RTVSPost2010Prop44ColorRGB
 90
      255
102
RTVSPost2010PropOp44
 70
     1
102
RTVSPost2010Prop45
280
     0
102
RTVSPost2010PropOp45
 70
     1
102
RTVSPost2010Prop46
 90
       50
102
RTVSPost2010PropOp46
 70
     1
102
RTVSPost2010Prop47
 90
       50
102
RTVSPost2010PropOp47
 70
     1
102
RTVSPost2010Prop48
 90
       50
102
RTVSPost2010PropOp48
 70
     1
102
RTVSPost2010Prop49
280
     0
102
RTVSPost2010PropOp49
 70
     1
102
RTVSPost2010Prop50
 90
       50
102
RTVSPost2010PropOp50
 70
     1
102
RTVSPost2010Prop51ColorIndex
 90
      256
102
RTVSPost2010Prop51ColorRGB
 90
-16777216
102
RTVSPost2010PropOp51
 70
     0
102
RTVSPost2010Prop52
140
1.0
102
RTVSPost2010PropOp52
 70
     0
102
RTVSPost2010Prop53
 90
        2
102
RTVSPost2010PropOp53
 70
     1
102
RTVSPost2010Prop54
  1
strokes_ogs.tif
102
RTVSPost2010PropOp54
 70
     1
102
RTVSPost2010Prop55
280
     0
102
RTVSPost2010PropOp55
 70
     1
102
RTVSPost2010Prop56
140
1.0
102
RTVSPost2010PropOp56
 70
     1
102
RTVSPost2010Prop57
140
1.0
102
RTVSPost2010PropOp57
 70
     1
102
RTVSPropertyOp0
 70
     1
102
RTVSPropertyOp1
 70
     1
102
RTVSPropertyOp2
 70
     1
102
RTVSPropertyOp3
 70
     1
102
RTVSPropertyOp4
 70
     1
102
RTVSPropertyOp5
 70
     1
102
RTVSPropertyOp6
 70
     1
102
RTVSPropertyOp7
 70
     1
102
RTVSPropertyOp8
 70
     1
102
RTVSPropertyOp9
 70
     1
102
RTVSPropertyOp10
 70
     1
102
RTVSPropertyOp11
 70
     1
102
RTVSPropertyOp12
 70
     1
102
RTVSPropertyOp13
 70
     1
102
RTVSPropertyOp14
 70
     1
102
RTVSPropertyOp15
 70
     1
102
RTVSPropertyOp16
 70
     1
102
RTVSPropertyOp17
 70
     1
102
RTVSPropertyOp18
 70
     1
102
RTVSPropertyOp19
 70
     1
102
RTVSPropertyOp20
 70
     1
102
RTVSPropertyOp21
 70
     1
102
RTVSPropertyOp22
 70
     1
102
RTVSPropertyOp23
 70
     1
102
RTVSPropertyOp24
 70
     1
102
RTVSPropertyOp25
 70
     1
102
RTVSPropertyOp26
 70
     1
102
RTVSPropertyOp27
 70
     1
102
RTVSPropertyOp28
 70
     1
102
RTVSPropertyOp29
 70
     1
102
RTVSPropertyOp30
 70
     1
102
RTVSPropertyOp31
 70
     1
102
RTVSPropertyOp32
 70
     1
102
RTVSPropertyOp33
 70
     1
102
RTVSPropertyOp34
 70
     1
102
RTVSPropertyOp35
 70
     1
102
RTVSPropertyOp36
 70
     1
102
RTVSPropertyOp37
 70
     1
102
RTVSPropertyOp38
 70
     1
102
RTVSPropertyOp39
 70
     1
102
RTVSPropertyOp40
 70
     1
102
RTVSPropertyOp41
 70
     1
102
RTVSPropertyOp42
 70
     1
102
RTVSPropertyOp43
 70
     1
102
RTVSPropertyOp44
 70
     1
102
RTVSPropertyOp45
 70
     1
102
RTVSPropertyOp46
 70
     1
102
RTVSPropertyOp47
 70
     1
102
RTVSPropertyOp48
 70
     1
102
RTVSPropertyOp49
 70
     1
102
RTVSPropertyOp50
 70
     1
102
RTVSPropertyOp51
 70
     0
102
RTVSPropertyOp52
 70
     0
102
RTVSPropertyOp53
 70
     1
102
RTVSPropertyOp54
 70
     1
102
RTVSPropertyOp55
 70
     1
102
RTVSPropertyOp56
 70
     1
102
RTVSPropertyOp57
 70
     1
102
RTVSPropertyOp58
 70
     1
102
RTVSPropertyOp59
 70
     1
102
RTVSPropertyOp60
 70
     1
102
RTVSPropertyOp61
 70
     1
102
RTVSPropertyOp62
 70
     1
  0
XRECORD
  5
3808
102
{ACAD_REACTORS
330
3807
102
}
330
3807
100
AcDbXrecord
280
     1
102
RTVSPost2010Prop28
280
     0
102
RTVSPost2010PropOp28
 70
     1
102
RTVSPost2010Prop29
280
     1
102
RTVSPost2010PropOp29
 70
     1
102
RTVSPost2010Prop30
280
     1
102
RTVSPost2010PropOp30
 70
     1
102
RTVSPost2010Prop31
280
     0
102
RTVSPost2010PropOp31
 70
     1
102
RTVSPost2010Prop32
280
     0
102
RTVSPost2010PropOp32
 70
     1
102
RTVSPost2010Prop33
280
     0
102
RTVSPost2010PropOp33
 70
     1
102
RTVSPost2010Prop34
280
     0
102
RTVSPost2010PropOp34
 70
     1
102
RTVSPost2010Prop35
280
     0
102
RTVSPost2010PropOp35
 70
     1
102
RTVSPost2010Prop36
280
     0
102
RTVSPost2010PropOp36
 70
     1
102
RTVSPost2010Prop37
 90
       50
102
RTVSPost2010PropOp37
 70
     1
102
RTVSPost2010Prop38
140
0.0
102
RTVSPost2010PropOp38
 70
     1
102
RTVSPost2010Prop39
140
1.0
102
RTVSPost2010PropOp39
 70
     1
102
RTVSPost2010Prop40
 90
        0
102
RTVSPost2010PropOp40
 70
     1
102
RTVSPost2010Prop41ColorIndex
 90
       18
102
RTVSPost2010Prop41ColorRGB
 90
        0
102
RTVSPost2010PropOp41
 70
     1
102
RTVSPost2010Prop42
 90
       50
102
RTVSPost2010PropOp42
 70
     1
102
RTVSPost2010Prop43
 90
        3
102
RTVSPost2010PropOp43
 70
     1
102
RTVSPost2010Prop44ColorIndex
 90
        5
102
RTVSPost2010Prop44ColorRGB
 90
      255
102
RTVSPost2010PropOp44
 70
     1
102
RTVSPost2010Prop45
280
     0
102
RTVSPost2010PropOp45
 70
     1
102
RTVSPost2010Prop46
 90
       50
102
RTVSPost2010PropOp46
 70
     1
102
RTVSPost2010Prop47
 90
       50
102
RTVSPost2010PropOp47
 70
     1
102
RTVSPost2010Prop48
 90
       50
102
RTVSPost2010PropOp48
 70
     1
102
RTVSPost2010Prop49
280
     0
102
RTVSPost2010PropOp49
 70
     1
102
RTVSPost2010Prop50
 90
       50
102
RTVSPost2010PropOp50
 70
     1
102
RTVSPost2010Prop51ColorIndex
 90
      256
102
RTVSPost2010Prop51ColorRGB
 90
-16777216
102
RTVSPost2010PropOp51
 70
     0
102
RTVSPost2010Prop52
140
1.0
102
RTVSPost2010PropOp52
 70
     0
102
RTVSPost2010Prop53
 90
        2
102
RTVSPost2010PropOp53
 70
     1
102
RTVSPost2010Prop54
  1
strokes_ogs.tif
102
RTVSPost2010PropOp54
 70
     1
102
RTVSPost2010Prop55
280
     0
102
RTVSPost2010PropOp55
 70
     1
102
RTVSPost2010Prop56
140
1.0
102
RTVSPost2010PropOp56
 70
     1
102
RTVSPost2010Prop57
140
1.0
102
RTVSPost2010PropOp57
 70
     1
102
RTVSPropertyOp0
 70
     1
102
RTVSPropertyOp1
 70
     1
102
RTVSPropertyOp2
 70
     1
102
RTVSPropertyOp3
 70
     1
102
RTVSPropertyOp4
 70
     1
102
RTVSPropertyOp5
 70
     1
102
RTVSPropertyOp6
 70
     1
102
RTVSPropertyOp7
 70
     1
102
RTVSPropertyOp8
 70
     1
102
RTVSPropertyOp9
 70
     1
102
RTVSPropertyOp10
 70
     1
102
RTVSPropertyOp11
 70
     1
102
RTVSPropertyOp12
 70
     1
102
RTVSPropertyOp13
 70
     1
102
RTVSPropertyOp14
 70
     1
102
RTVSPropertyOp15
 70
     1
102
RTVSPropertyOp16
 70
     1
102
RTVSPropertyOp17
 70
     1
102
RTVSPropertyOp18
 70
     1
102
RTVSPropertyOp19
 70
     1
102
RTVSPropertyOp20
 70
     1
102
RTVSPropertyOp21
 70
     1
102
RTVSPropertyOp22
 70
     1
102
RTVSPropertyOp23
 70
     1
102
RTVSPropertyOp24
 70
     1
102
RTVSPropertyOp25
 70
     1
102
RTVSPropertyOp26
 70
     1
102
RTVSPropertyOp27
 70
     1
102
RTVSPropertyOp28
 70
     1
102
RTVSPropertyOp29
 70
     1
102
RTVSPropertyOp30
 70
     1
102
RTVSPropertyOp31
 70
     1
102
RTVSPropertyOp32
 70
     1
102
RTVSPropertyOp33
 70
     1
102
RTVSPropertyOp34
 70
     1
102
RTVSPropertyOp35
 70
     1
102
RTVSPropertyOp36
 70
     1
102
RTVSPropertyOp37
 70
     1
102
RTVSPropertyOp38
 70
     1
102
RTVSPropertyOp39
 70
     1
102
RTVSPropertyOp40
 70
     1
102
RTVSPropertyOp41
 70
     1
102
RTVSPropertyOp42
 70
     1
102
RTVSPropertyOp43
 70
     1
102
RTVSPropertyOp44
 70
     1
102
RTVSPropertyOp45
 70
     1
102
RTVSPropertyOp46
 70
     1
102
RTVSPropertyOp47
 70
     1
102
RTVSPropertyOp48
 70
     1
102
RTVSPropertyOp49
 70
     1
102
RTVSPropertyOp50
 70
     1
102
RTVSPropertyOp51
 70
     0
102
RTVSPropertyOp52
 70
     0
102
RTVSPropertyOp53
 70
     1
102
RTVSPropertyOp54
 70
     1
102
RTVSPropertyOp55
 70
     1
102
RTVSPropertyOp56
 70
     1
102
RTVSPropertyOp57
 70
     1
102
RTVSPropertyOp58
 70
     1
102
RTVSPropertyOp59
 70
     1
102
RTVSPropertyOp60
 70
     1
102
RTVSPropertyOp61
 70
     1
102
RTVSPropertyOp62
 70
     1
  0
XRECORD
  5
381A
102
{ACAD_REACTORS
330
3819
102
}
330
3819
100
AcDbXrecord
280
     1
102
RTVSPost2010Prop28
280
     0
102
RTVSPost2010PropOp28
 70
     1
102
RTVSPost2010Prop29
280
     1
102
RTVSPost2010PropOp29
 70
     1
102
RTVSPost2010Prop30
280
     1
102
RTVSPost2010PropOp30
 70
     1
102
RTVSPost2010Prop31
280
     0
102
RTVSPost2010PropOp31
 70
     1
102
RTVSPost2010Prop32
280
     0
102
RTVSPost2010PropOp32
 70
     1
102
RTVSPost2010Prop33
280
     0
102
RTVSPost2010PropOp33
 70
     1
102
RTVSPost2010Prop34
280
     0
102
RTVSPost2010PropOp34
 70
     1
102
RTVSPost2010Prop35
280
     0
102
RTVSPost2010PropOp35
 70
     1
102
RTVSPost2010Prop36
280
     0
102
RTVSPost2010PropOp36
 70
     1
102
RTVSPost2010Prop37
 90
       50
102
RTVSPost2010PropOp37
 70
     1
102
RTVSPost2010Prop38
140
0.0
102
RTVSPost2010PropOp38
 70
     1
102
RTVSPost2010Prop39
140
1.0
102
RTVSPost2010PropOp39
 70
     1
102
RTVSPost2010Prop40
 90
        0
102
RTVSPost2010PropOp40
 70
     1
102
RTVSPost2010Prop41ColorIndex
 90
       18
102
RTVSPost2010Prop41ColorRGB
 90
        0
102
RTVSPost2010PropOp41
 70
     1
102
RTVSPost2010Prop42
 90
       50
102
RTVSPost2010PropOp42
 70
     1
102
RTVSPost2010Prop43
 90
        3
102
RTVSPost2010PropOp43
 70
     1
102
RTVSPost2010Prop44ColorIndex
 90
        5
102
RTVSPost2010Prop44ColorRGB
 90
      255
102
RTVSPost2010PropOp44
 70
     1
102
RTVSPost2010Prop45
280
     0
102
RTVSPost2010PropOp45
 70
     1
102
RTVSPost2010Prop46
 90
       50
102
RTVSPost2010PropOp46
 70
     1
102
RTVSPost2010Prop47
 90
       50
102
RTVSPost2010PropOp47
 70
     1
102
RTVSPost2010Prop48
 90
       50
102
RTVSPost2010PropOp48
 70
     1
102
RTVSPost2010Prop49
280
     0
102
RTVSPost2010PropOp49
 70
     1
102
RTVSPost2010Prop50
 90
       50
102
RTVSPost2010PropOp50
 70
     1
102
RTVSPost2010Prop51ColorIndex
 90
      256
102
RTVSPost2010Prop51ColorRGB
 90
-16777216
102
RTVSPost2010PropOp51
 70
     0
102
RTVSPost2010Prop52
140
1.0
102
RTVSPost2010PropOp52
 70
     0
102
RTVSPost2010Prop53
 90
        2
102
RTVSPost2010PropOp53
 70
     1
102
RTVSPost2010Prop54
  1
strokes_ogs.tif
102
RTVSPost2010PropOp54
 70
     1
102
RTVSPost2010Prop55
280
     0
102
RTVSPost2010PropOp55
 70
     1
102
RTVSPost2010Prop56
140
1.0
102
RTVSPost2010PropOp56
 70
     1
102
RTVSPost2010Prop57
140
1.0
102
RTVSPost2010PropOp57
 70
     1
102
RTVSPropertyOp0
 70
     0
102
RTVSPropertyOp1
 70
     0
102
RTVSPropertyOp2
 70
     0
102
RTVSPropertyOp3
 70
     0
102
RTVSPropertyOp4
 70
     0
102
RTVSPropertyOp5
 70
     0
102
RTVSPropertyOp6
 70
     0
102
RTVSPropertyOp7
 70
     0
102
RTVSPropertyOp8
 70
     0
102
RTVSPropertyOp9
 70
     0
102
RTVSPropertyOp10
 70
     0
102
RTVSPropertyOp11
 70
     0
102
RTVSPropertyOp12
 70
     0
102
RTVSPropertyOp13
 70
     0
102
RTVSPropertyOp14
 70
     2
102
RTVSPropertyOp15
 70
     0
102
RTVSPropertyOp16
 70
     0
102
RTVSPropertyOp17
 70
     0
102
RTVSPropertyOp18
 70
     0
102
RTVSPropertyOp19
 70
     0
102
RTVSPropertyOp20
 70
     0
102
RTVSPropertyOp21
 70
     0
102
RTVSPropertyOp22
 70
     0
102
RTVSPropertyOp23
 70
     0
102
RTVSPropertyOp24
 70
     0
102
RTVSPropertyOp25
 70
     0
102
RTVSPropertyOp26
 70
     0
102
RTVSPropertyOp27
 70
     0
102
RTVSPropertyOp28
 70
     1
102
RTVSPropertyOp29
 70
     1
102
RTVSPropertyOp30
 70
     1
102
RTVSPropertyOp31
 70
     1
102
RTVSPropertyOp32
 70
     1
102
RTVSPropertyOp33
 70
     1
102
RTVSPropertyOp34
 70
     1
102
RTVSPropertyOp35
 70
     1
102
RTVSPropertyOp36
 70
     1
102
RTVSPropertyOp37
 70
     1
102
RTVSPropertyOp38
 70
     1
102
RTVSPropertyOp39
 70
     1
102
RTVSPropertyOp40
 70
     1
102
RTVSPropertyOp41
 70
     1
102
RTVSPropertyOp42
 70
     1
102
RTVSPropertyOp43
 70
     1
102
RTVSPropertyOp44
 70
     1
102
RTVSPropertyOp45
 70
     1
102
RTVSPropertyOp46
 70
     1
102
RTVSPropertyOp47
 70
     1
102
RTVSPropertyOp48
 70
     1
102
RTVSPropertyOp49
 70
     1
102
RTVSPropertyOp50
 70
     1
102
RTVSPropertyOp51
 70
     0
102
RTVSPropertyOp52
 70
     0
102
RTVSPropertyOp53
 70
     1
102
RTVSPropertyOp54
 70
     1
102
RTVSPropertyOp55
 70
     1
102
RTVSPropertyOp56
 70
     1
102
RTVSPropertyOp57
 70
     1
102
RTVSPropertyOp58
 70
     1
102
RTVSPropertyOp59
 70
     1
102
RTVSPropertyOp60
 70
     1
102
RTVSPropertyOp61
 70
     1
102
RTVSPropertyOp62
 70
     1
  0
XRECORD
  5
3810
102
{ACAD_REACTORS
330
380F
102
}
330
380F
100
AcDbXrecord
280
     1
102
RTVSPost2010Prop28
280
     0
102
RTVSPost2010PropOp28
 70
     1
102
RTVSPost2010Prop29
280
     1
102
RTVSPost2010PropOp29
 70
     1
102
RTVSPost2010Prop30
280
     1
102
RTVSPost2010PropOp30
 70
     1
102
RTVSPost2010Prop31
280
     0
102
RTVSPost2010PropOp31
 70
     1
102
RTVSPost2010Prop32
280
     0
102
RTVSPost2010PropOp32
 70
     1
102
RTVSPost2010Prop33
280
     0
102
RTVSPost2010PropOp33
 70
     1
102
RTVSPost2010Prop34
280
     0
102
RTVSPost2010PropOp34
 70
     1
102
RTVSPost2010Prop35
280
     0
102
RTVSPost2010PropOp35
 70
     1
102
RTVSPost2010Prop36
280
     0
102
RTVSPost2010PropOp36
 70
     1
102
RTVSPost2010Prop37
 90
       50
102
RTVSPost2010PropOp37
 70
     1
102
RTVSPost2010Prop38
140
0.0
102
RTVSPost2010PropOp38
 70
     1
102
RTVSPost2010Prop39
140
1.0
102
RTVSPost2010PropOp39
 70
     1
102
RTVSPost2010Prop40
 90
        0
102
RTVSPost2010PropOp40
 70
     1
102
RTVSPost2010Prop41ColorIndex
 90
       18
102
RTVSPost2010Prop41ColorRGB
 90
        0
102
RTVSPost2010PropOp41
 70
     1
102
RTVSPost2010Prop42
 90
       50
102
RTVSPost2010PropOp42
 70
     1
102
RTVSPost2010Prop43
 90
        3
102
RTVSPost2010PropOp43
 70
     1
102
RTVSPost2010Prop44ColorIndex
 90
        5
102
RTVSPost2010Prop44ColorRGB
 90
      255
102
RTVSPost2010PropOp44
 70
     1
102
RTVSPost2010Prop45
280
     0
102
RTVSPost2010PropOp45
 70
     1
102
RTVSPost2010Prop46
 90
       50
102
RTVSPost2010PropOp46
 70
     1
102
RTVSPost2010Prop47
 90
       50
102
RTVSPost2010PropOp47
 70
     1
102
RTVSPost2010Prop48
 90
       50
102
RTVSPost2010PropOp48
 70
     1
102
RTVSPost2010Prop49
280
     0
102
RTVSPost2010PropOp49
 70
     1
102
RTVSPost2010Prop50
 90
       50
102
RTVSPost2010PropOp50
 70
     1
102
RTVSPost2010Prop51ColorIndex
 90
      256
102
RTVSPost2010Prop51ColorRGB
 90
-16777216
102
RTVSPost2010PropOp51
 70
     0
102
RTVSPost2010Prop52
140
1.0
102
RTVSPost2010PropOp52
 70
     0
102
RTVSPost2010Prop53
 90
        2
102
RTVSPost2010PropOp53
 70
     1
102
RTVSPost2010Prop54
  1
strokes_ogs.tif
102
RTVSPost2010PropOp54
 70
     1
102
RTVSPost2010Prop55
280
     0
102
RTVSPost2010PropOp55
 70
     1
102
RTVSPost2010Prop56
140
1.0
102
RTVSPost2010PropOp56
 70
     1
102
RTVSPost2010Prop57
140
1.0
102
RTVSPost2010PropOp57
 70
     1
102
RTVSPropertyOp0
 70
     1
102
RTVSPropertyOp1
 70
     1
102
RTVSPropertyOp2
 70
     1
102
RTVSPropertyOp3
 70
     1
102
RTVSPropertyOp4
 70
     1
102
RTVSPropertyOp5
 70
     1
102
RTVSPropertyOp6
 70
     1
102
RTVSPropertyOp7
 70
     1
102
RTVSPropertyOp8
 70
     1
102
RTVSPropertyOp9
 70
     1
102
RTVSPropertyOp10
 70
     1
102
RTVSPropertyOp11
 70
     1
102
RTVSPropertyOp12
 70
     1
102
RTVSPropertyOp13
 70
     1
102
RTVSPropertyOp14
 70
     1
102
RTVSPropertyOp15
 70
     1
102
RTVSPropertyOp16
 70
     1
102
RTVSPropertyOp17
 70
     1
102
RTVSPropertyOp18
 70
     1
102
RTVSPropertyOp19
 70
     1
102
RTVSPropertyOp20
 70
     1
102
RTVSPropertyOp21
 70
     1
102
RTVSPropertyOp22
 70
     1
102
RTVSPropertyOp23
 70
     1
102
RTVSPropertyOp24
 70
     1
102
RTVSPropertyOp25
 70
     1
102
RTVSPropertyOp26
 70
     1
102
RTVSPropertyOp27
 70
     1
102
RTVSPropertyOp28
 70
     1
102
RTVSPropertyOp29
 70
     1
102
RTVSPropertyOp30
 70
     1
102
RTVSPropertyOp31
 70
     1
102
RTVSPropertyOp32
 70
     1
102
RTVSPropertyOp33
 70
     1
102
RTVSPropertyOp34
 70
     1
102
RTVSPropertyOp35
 70
     1
102
RTVSPropertyOp36
 70
     1
102
RTVSPropertyOp37
 70
     1
102
RTVSPropertyOp38
 70
     1
102
RTVSPropertyOp39
 70
     1
102
RTVSPropertyOp40
 70
     1
102
RTVSPropertyOp41
 70
     1
102
RTVSPropertyOp42
 70
     1
102
RTVSPropertyOp43
 70
     1
102
RTVSPropertyOp44
 70
     1
102
RTVSPropertyOp45
 70
     1
102
RTVSPropertyOp46
 70
     1
102
RTVSPropertyOp47
 70
     1
102
RTVSPropertyOp48
 70
     1
102
RTVSPropertyOp49
 70
     1
102
RTVSPropertyOp50
 70
     1
102
RTVSPropertyOp51
 70
     0
102
RTVSPropertyOp52
 70
     0
102
RTVSPropertyOp53
 70
     1
102
RTVSPropertyOp54
 70
     1
102
RTVSPropertyOp55
 70
     1
102
RTVSPropertyOp56
 70
     1
102
RTVSPropertyOp57
 70
     1
102
RTVSPropertyOp58
 70
     1
102
RTVSPropertyOp59
 70
     1
102
RTVSPropertyOp60
 70
     1
102
RTVSPropertyOp61
 70
     1
102
RTVSPropertyOp62
 70
     1
  0
XRECORD
  5
37F4
102
{ACAD_REACTORS
330
37F3
102
}
330
37F3
100
AcDbXrecord
280
     1
102
RTVSPost2010Prop28
280
     0
102
RTVSPost2010PropOp28
 70
     1
102
RTVSPost2010Prop29
280
     1
102
RTVSPost2010PropOp29
 70
     1
102
RTVSPost2010Prop30
280
     1
102
RTVSPost2010PropOp30
 70
     1
102
RTVSPost2010Prop31
280
     0
102
RTVSPost2010PropOp31
 70
     1
102
RTVSPost2010Prop32
280
     0
102
RTVSPost2010PropOp32
 70
     1
102
RTVSPost2010Prop33
280
     0
102
RTVSPost2010PropOp33
 70
     1
102
RTVSPost2010Prop34
280
     0
102
RTVSPost2010PropOp34
 70
     1
102
RTVSPost2010Prop35
280
     0
102
RTVSPost2010PropOp35
 70
     1
102
RTVSPost2010Prop36
280
     0
102
RTVSPost2010PropOp36
 70
     1
102
RTVSPost2010Prop37
 90
       50
102
RTVSPost2010PropOp37
 70
     1
102
RTVSPost2010Prop38
140
0.0
102
RTVSPost2010PropOp38
 70
     1
102
RTVSPost2010Prop39
140
1.0
102
RTVSPost2010PropOp39
 70
     1
102
RTVSPost2010Prop40
 90
        0
102
RTVSPost2010PropOp40
 70
     1
102
RTVSPost2010Prop41ColorIndex
 90
       18
102
RTVSPost2010Prop41ColorRGB
 90
        0
102
RTVSPost2010PropOp41
 70
     1
102
RTVSPost2010Prop42
 90
       50
102
RTVSPost2010PropOp42
 70
     1
102
RTVSPost2010Prop43
 90
        3
102
RTVSPost2010PropOp43
 70
     1
102
RTVSPost2010Prop44ColorIndex
 90
        5
102
RTVSPost2010Prop44ColorRGB
 90
      255
102
RTVSPost2010PropOp44
 70
     1
102
RTVSPost2010Prop45
280
     0
102
RTVSPost2010PropOp45
 70
     1
102
RTVSPost2010Prop46
 90
       50
102
RTVSPost2010PropOp46
 70
     1
102
RTVSPost2010Prop47
 90
       50
102
RTVSPost2010PropOp47
 70
     1
102
RTVSPost2010Prop48
 90
       50
102
RTVSPost2010PropOp48
 70
     1
102
RTVSPost2010Prop49
280
     0
102
RTVSPost2010PropOp49
 70
     1
102
RTVSPost2010Prop50
 90
       50
102
RTVSPost2010PropOp50
 70
     1
102
RTVSPost2010Prop51ColorIndex
 90
      256
102
RTVSPost2010Prop51ColorRGB
 90
-16777216
102
RTVSPost2010PropOp51
 70
     0
102
RTVSPost2010Prop52
140
1.0
102
RTVSPost2010PropOp52
 70
     0
102
RTVSPost2010Prop53
 90
        2
102
RTVSPost2010PropOp53
 70
     1
102
RTVSPost2010Prop54
  1
strokes_ogs.tif
102
RTVSPost2010PropOp54
 70
     1
102
RTVSPost2010Prop55
280
     0
102
RTVSPost2010PropOp55
 70
     1
102
RTVSPost2010Prop56
140
1.0
102
RTVSPost2010PropOp56
 70
     1
102
RTVSPost2010Prop57
140
1.0
102
RTVSPost2010PropOp57
 70
     1
102
RTVSPropertyOp0
 70
     1
102
RTVSPropertyOp1
 70
     1
102
RTVSPropertyOp2
 70
     1
102
RTVSPropertyOp3
 70
     1
102
RTVSPropertyOp4
 70
     1
102
RTVSPropertyOp5
 70
     1
102
RTVSPropertyOp6
 70
     1
102
RTVSPropertyOp7
 70
     1
102
RTVSPropertyOp8
 70
     1
102
RTVSPropertyOp9
 70
     1
102
RTVSPropertyOp10
 70
     1
102
RTVSPropertyOp11
 70
     1
102
RTVSPropertyOp12
 70
     1
102
RTVSPropertyOp13
 70
     1
102
RTVSPropertyOp14
 70
     1
102
RTVSPropertyOp15
 70
     1
102
RTVSPropertyOp16
 70
     1
102
RTVSPropertyOp17
 70
     1
102
RTVSPropertyOp18
 70
     1
102
RTVSPropertyOp19
 70
     1
102
RTVSPropertyOp20
 70
     1
102
RTVSPropertyOp21
 70
     1
102
RTVSPropertyOp22
 70
     1
102
RTVSPropertyOp23
 70
     1
102
RTVSPropertyOp24
 70
     1
102
RTVSPropertyOp25
 70
     1
102
RTVSPropertyOp26
 70
     1
102
RTVSPropertyOp27
 70
     1
102
RTVSPropertyOp28
 70
     1
102
RTVSPropertyOp29
 70
     1
102
RTVSPropertyOp30
 70
     1
102
RTVSPropertyOp31
 70
     1
102
RTVSPropertyOp32
 70
     1
102
RTVSPropertyOp33
 70
     1
102
RTVSPropertyOp34
 70
     1
102
RTVSPropertyOp35
 70
     1
102
RTVSPropertyOp36
 70
     1
102
RTVSPropertyOp37
 70
     1
102
RTVSPropertyOp38
 70
     1
102
RTVSPropertyOp39
 70
     1
102
RTVSPropertyOp40
 70
     1
102
RTVSPropertyOp41
 70
     1
102
RTVSPropertyOp42
 70
     1
102
RTVSPropertyOp43
 70
     1
102
RTVSPropertyOp44
 70
     1
102
RTVSPropertyOp45
 70
     1
102
RTVSPropertyOp46
 70
     1
102
RTVSPropertyOp47
 70
     1
102
RTVSPropertyOp48
 70
     1
102
RTVSPropertyOp49
 70
     1
102
RTVSPropertyOp50
 70
     1
102
RTVSPropertyOp51
 70
     0
102
RTVSPropertyOp52
 70
     0
102
RTVSPropertyOp53
 70
     1
102
RTVSPropertyOp54
 70
     1
102
RTVSPropertyOp55
 70
     1
102
RTVSPropertyOp56
 70
     1
102
RTVSPropertyOp57
 70
     1
102
RTVSPropertyOp58
 70
     1
102
RTVSPropertyOp59
 70
     1
102
RTVSPropertyOp60
 70
     1
102
RTVSPropertyOp61
 70
     1
102
RTVSPropertyOp62
 70
     1
  0
XRECORD
  5
37F6
102
{ACAD_REACTORS
330
37F5
102
}
330
37F5
100
AcDbXrecord
280
     1
102
RTVSPost2010Prop28
280
     0
102
RTVSPost2010PropOp28
 70
     1
102
RTVSPost2010Prop29
280
     1
102
RTVSPost2010PropOp29
 70
     1
102
RTVSPost2010Prop30
280
     1
102
RTVSPost2010PropOp30
 70
     1
102
RTVSPost2010Prop31
280
     0
102
RTVSPost2010PropOp31
 70
     1
102
RTVSPost2010Prop32
280
     0
102
RTVSPost2010PropOp32
 70
     1
102
RTVSPost2010Prop33
280
     0
102
RTVSPost2010PropOp33
 70
     1
102
RTVSPost2010Prop34
280
     0
102
RTVSPost2010PropOp34
 70
     1
102
RTVSPost2010Prop35
280
     0
102
RTVSPost2010PropOp35
 70
     1
102
RTVSPost2010Prop36
280
     0
102
RTVSPost2010PropOp36
 70
     1
102
RTVSPost2010Prop37
 90
       50
102
RTVSPost2010PropOp37
 70
     1
102
RTVSPost2010Prop38
140
0.0
102
RTVSPost2010PropOp38
 70
     1
102
RTVSPost2010Prop39
140
1.0
102
RTVSPost2010PropOp39
 70
     1
102
RTVSPost2010Prop40
 90
        0
102
RTVSPost2010PropOp40
 70
     1
102
RTVSPost2010Prop41ColorIndex
 90
       18
102
RTVSPost2010Prop41ColorRGB
 90
        0
102
RTVSPost2010PropOp41
 70
     1
102
RTVSPost2010Prop42
 90
       50
102
RTVSPost2010PropOp42
 70
     1
102
RTVSPost2010Prop43
 90
        3
102
RTVSPost2010PropOp43
 70
     1
102
RTVSPost2010Prop44ColorIndex
 90
        5
102
RTVSPost2010Prop44ColorRGB
 90
      255
102
RTVSPost2010PropOp44
 70
     1
102
RTVSPost2010Prop45
280
     0
102
RTVSPost2010PropOp45
 70
     1
102
RTVSPost2010Prop46
 90
       50
102
RTVSPost2010PropOp46
 70
     1
102
RTVSPost2010Prop47
 90
       50
102
RTVSPost2010PropOp47
 70
     1
102
RTVSPost2010Prop48
 90
       50
102
RTVSPost2010PropOp48
 70
     1
102
RTVSPost2010Prop49
280
     0
102
RTVSPost2010PropOp49
 70
     1
102
RTVSPost2010Prop50
 90
       50
102
RTVSPost2010PropOp50
 70
     1
102
RTVSPost2010Prop51ColorIndex
 90
      256
102
RTVSPost2010Prop51ColorRGB
 90
-16777216
102
RTVSPost2010PropOp51
 70
     0
102
RTVSPost2010Prop52
140
1.0
102
RTVSPost2010PropOp52
 70
     0
102
RTVSPost2010Prop53
 90
        2
102
RTVSPost2010PropOp53
 70
     1
102
RTVSPost2010Prop54
  1
strokes_ogs.tif
102
RTVSPost2010PropOp54
 70
     1
102
RTVSPost2010Prop55
280
     0
102
RTVSPost2010PropOp55
 70
     1
102
RTVSPost2010Prop56
140
1.0
102
RTVSPost2010PropOp56
 70
     1
102
RTVSPost2010Prop57
140
1.0
102
RTVSPost2010PropOp57
 70
     1
102
RTVSPropertyOp0
 70
     1
102
RTVSPropertyOp1
 70
     1
102
RTVSPropertyOp2
 70
     1
102
RTVSPropertyOp3
 70
     1
102
RTVSPropertyOp4
 70
     1
102
RTVSPropertyOp5
 70
     1
102
RTVSPropertyOp6
 70
     1
102
RTVSPropertyOp7
 70
     1
102
RTVSPropertyOp8
 70
     1
102
RTVSPropertyOp9
 70
     1
102
RTVSPropertyOp10
 70
     1
102
RTVSPropertyOp11
 70
     1
102
RTVSPropertyOp12
 70
     1
102
RTVSPropertyOp13
 70
     1
102
RTVSPropertyOp14
 70
     1
102
RTVSPropertyOp15
 70
     1
102
RTVSPropertyOp16
 70
     1
102
RTVSPropertyOp17
 70
     1
102
RTVSPropertyOp18
 70
     1
102
RTVSPropertyOp19
 70
     1
102
RTVSPropertyOp20
 70
     1
102
RTVSPropertyOp21
 70
     1
102
RTVSPropertyOp22
 70
     1
102
RTVSPropertyOp23
 70
     1
102
RTVSPropertyOp24
 70
     1
102
RTVSPropertyOp25
 70
     1
102
RTVSPropertyOp26
 70
     1
102
RTVSPropertyOp27
 70
     1
102
RTVSPropertyOp28
 70
     1
102
RTVSPropertyOp29
 70
     1
102
RTVSPropertyOp30
 70
     1
102
RTVSPropertyOp31
 70
     1
102
RTVSPropertyOp32
 70
     1
102
RTVSPropertyOp33
 70
     1
102
RTVSPropertyOp34
 70
     1
102
RTVSPropertyOp35
 70
     1
102
RTVSPropertyOp36
 70
     1
102
RTVSPropertyOp37
 70
     1
102
RTVSPropertyOp38
 70
     1
102
RTVSPropertyOp39
 70
     1
102
RTVSPropertyOp40
 70
     1
102
RTVSPropertyOp41
 70
     1
102
RTVSPropertyOp42
 70
     1
102
RTVSPropertyOp43
 70
     1
102
RTVSPropertyOp44
 70
     1
102
RTVSPropertyOp45
 70
     1
102
RTVSPropertyOp46
 70
     1
102
RTVSPropertyOp47
 70
     1
102
RTVSPropertyOp48
 70
     1
102
RTVSPropertyOp49
 70
     1
102
RTVSPropertyOp50
 70
     1
102
RTVSPropertyOp51
 70
     0
102
RTVSPropertyOp52
 70
     0
102
RTVSPropertyOp53
 70
     1
102
RTVSPropertyOp54
 70
     1
102
RTVSPropertyOp55
 70
     1
102
RTVSPropertyOp56
 70
     1
102
RTVSPropertyOp57
 70
     1
102
RTVSPropertyOp58
 70
     1
102
RTVSPropertyOp59
 70
     1
102
RTVSPropertyOp60
 70
     1
102
RTVSPropertyOp61
 70
     1
102
RTVSPropertyOp62
 70
     1
  0
XRECORD
  5
37F8
102
{ACAD_REACTORS
330
37F7
102
}
330
37F7
100
AcDbXrecord
280
     1
102
RTVSPost2010Prop28
280
     0
102
RTVSPost2010PropOp28
 70
     1
102
RTVSPost2010Prop29
280
     1
102
RTVSPost2010PropOp29
 70
     1
102
RTVSPost2010Prop30
280
     1
102
RTVSPost2010PropOp30
 70
     1
102
RTVSPost2010Prop31
280
     0
102
RTVSPost2010PropOp31
 70
     1
102
RTVSPost2010Prop32
280
     0
102
RTVSPost2010PropOp32
 70
     1
102
RTVSPost2010Prop33
280
     0
102
RTVSPost2010PropOp33
 70
     1
102
RTVSPost2010Prop34
280
     0
102
RTVSPost2010PropOp34
 70
     1
102
RTVSPost2010Prop35
280
     0
102
RTVSPost2010PropOp35
 70
     1
102
RTVSPost2010Prop36
280
     0
102
RTVSPost2010PropOp36
 70
     1
102
RTVSPost2010Prop37
 90
       50
102
RTVSPost2010PropOp37
 70
     1
102
RTVSPost2010Prop38
140
0.0
102
RTVSPost2010PropOp38
 70
     1
102
RTVSPost2010Prop39
140
1.0
102
RTVSPost2010PropOp39
 70
     1
102
RTVSPost2010Prop40
 90
        0
102
RTVSPost2010PropOp40
 70
     1
102
RTVSPost2010Prop41ColorIndex
 90
       18
102
RTVSPost2010Prop41ColorRGB
 90
        0
102
RTVSPost2010PropOp41
 70
     1
102
RTVSPost2010Prop42
 90
       50
102
RTVSPost2010PropOp42
 70
     1
102
RTVSPost2010Prop43
 90
        3
102
RTVSPost2010PropOp43
 70
     1
102
RTVSPost2010Prop44ColorIndex
 90
        5
102
RTVSPost2010Prop44ColorRGB
 90
      255
102
RTVSPost2010PropOp44
 70
     1
102
RTVSPost2010Prop45
280
     0
102
RTVSPost2010PropOp45
 70
     1
102
RTVSPost2010Prop46
 90
       50
102
RTVSPost2010PropOp46
 70
     1
102
RTVSPost2010Prop47
 90
       50
102
RTVSPost2010PropOp47
 70
     1
102
RTVSPost2010Prop48
 90
       50
102
RTVSPost2010PropOp48
 70
     1
102
RTVSPost2010Prop49
280
     0
102
RTVSPost2010PropOp49
 70
     1
102
RTVSPost2010Prop50
 90
       50
102
RTVSPost2010PropOp50
 70
     1
102
RTVSPost2010Prop51ColorIndex
 90
      256
102
RTVSPost2010Prop51ColorRGB
 90
-16777216
102
RTVSPost2010PropOp51
 70
     0
102
RTVSPost2010Prop52
140
1.0
102
RTVSPost2010PropOp52
 70
     0
102
RTVSPost2010Prop53
 90
        2
102
RTVSPost2010PropOp53
 70
     1
102
RTVSPost2010Prop54
  1
strokes_ogs.tif
102
RTVSPost2010PropOp54
 70
     1
102
RTVSPost2010Prop55
280
     0
102
RTVSPost2010PropOp55
 70
     1
102
RTVSPost2010Prop56
140
1.0
102
RTVSPost2010PropOp56
 70
     1
102
RTVSPost2010Prop57
140
1.0
102
RTVSPost2010PropOp57
 70
     1
102
RTVSPropertyOp0
 70
     1
102
RTVSPropertyOp1
 70
     1
102
RTVSPropertyOp2
 70
     1
102
RTVSPropertyOp3
 70
     1
102
RTVSPropertyOp4
 70
     1
102
RTVSPropertyOp5
 70
     1
102
RTVSPropertyOp6
 70
     1
102
RTVSPropertyOp7
 70
     1
102
RTVSPropertyOp8
 70
     1
102
RTVSPropertyOp9
 70
     1
102
RTVSPropertyOp10
 70
     1
102
RTVSPropertyOp11
 70
     1
102
RTVSPropertyOp12
 70
     1
102
RTVSPropertyOp13
 70
     1
102
RTVSPropertyOp14
 70
     1
102
RTVSPropertyOp15
 70
     1
102
RTVSPropertyOp16
 70
     1
102
RTVSPropertyOp17
 70
     1
102
RTVSPropertyOp18
 70
     1
102
RTVSPropertyOp19
 70
     1
102
RTVSPropertyOp20
 70
     1
102
RTVSPropertyOp21
 70
     1
102
RTVSPropertyOp22
 70
     1
102
RTVSPropertyOp23
 70
     1
102
RTVSPropertyOp24
 70
     1
102
RTVSPropertyOp25
 70
     1
102
RTVSPropertyOp26
 70
     1
102
RTVSPropertyOp27
 70
     1
102
RTVSPropertyOp28
 70
     1
102
RTVSPropertyOp29
 70
     1
102
RTVSPropertyOp30
 70
     1
102
RTVSPropertyOp31
 70
     1
102
RTVSPropertyOp32
 70
     1
102
RTVSPropertyOp33
 70
     1
102
RTVSPropertyOp34
 70
     1
102
RTVSPropertyOp35
 70
     1
102
RTVSPropertyOp36
 70
     1
102
RTVSPropertyOp37
 70
     1
102
RTVSPropertyOp38
 70
     1
102
RTVSPropertyOp39
 70
     1
102
RTVSPropertyOp40
 70
     1
102
RTVSPropertyOp41
 70
     1
102
RTVSPropertyOp42
 70
     1
102
RTVSPropertyOp43
 70
     1
102
RTVSPropertyOp44
 70
     1
102
RTVSPropertyOp45
 70
     1
102
RTVSPropertyOp46
 70
     1
102
RTVSPropertyOp47
 70
     1
102
RTVSPropertyOp48
 70
     1
102
RTVSPropertyOp49
 70
     1
102
RTVSPropertyOp50
 70
     1
102
RTVSPropertyOp51
 70
     0
102
RTVSPropertyOp52
 70
     0
102
RTVSPropertyOp53
 70
     1
102
RTVSPropertyOp54
 70
     1
102
RTVSPropertyOp55
 70
     1
102
RTVSPropertyOp56
 70
     1
102
RTVSPropertyOp57
 70
     1
102
RTVSPropertyOp58
 70
     1
102
RTVSPropertyOp59
 70
     1
102
RTVSPropertyOp60
 70
     1
102
RTVSPropertyOp61
 70
     1
102
RTVSPropertyOp62
 70
     1
  0
XRECORD
  5
37FA
102
{ACAD_REACTORS
330
37F9
102
}
330
37F9
100
AcDbXrecord
280
     1
102
RTVSPost2010Prop28
280
     0
102
RTVSPost2010PropOp28
 70
     1
102
RTVSPost2010Prop29
280
     1
102
RTVSPost2010PropOp29
 70
     1
102
RTVSPost2010Prop30
280
     1
102
RTVSPost2010PropOp30
 70
     1
102
RTVSPost2010Prop31
280
     0
102
RTVSPost2010PropOp31
 70
     1
102
RTVSPost2010Prop32
280
     0
102
RTVSPost2010PropOp32
 70
     1
102
RTVSPost2010Prop33
280
     0
102
RTVSPost2010PropOp33
 70
     1
102
RTVSPost2010Prop34
280
     0
102
RTVSPost2010PropOp34
 70
     1
102
RTVSPost2010Prop35
280
     0
102
RTVSPost2010PropOp35
 70
     1
102
RTVSPost2010Prop36
280
     0
102
RTVSPost2010PropOp36
 70
     1
102
RTVSPost2010Prop37
 90
       50
102
RTVSPost2010PropOp37
 70
     1
102
RTVSPost2010Prop38
140
0.0
102
RTVSPost2010PropOp38
 70
     1
102
RTVSPost2010Prop39
140
1.0
102
RTVSPost2010PropOp39
 70
     1
102
RTVSPost2010Prop40
 90
        0
102
RTVSPost2010PropOp40
 70
     1
102
RTVSPost2010Prop41ColorIndex
 90
       18
102
RTVSPost2010Prop41ColorRGB
 90
        0
102
RTVSPost2010PropOp41
 70
     1
102
RTVSPost2010Prop42
 90
       50
102
RTVSPost2010PropOp42
 70
     1
102
RTVSPost2010Prop43
 90
        3
102
RTVSPost2010PropOp43
 70
     1
102
RTVSPost2010Prop44ColorIndex
 90
        5
102
RTVSPost2010Prop44ColorRGB
 90
      255
102
RTVSPost2010PropOp44
 70
     1
102
RTVSPost2010Prop45
280
     0
102
RTVSPost2010PropOp45
 70
     1
102
RTVSPost2010Prop46
 90
       50
102
RTVSPost2010PropOp46
 70
     1
102
RTVSPost2010Prop47
 90
       50
102
RTVSPost2010PropOp47
 70
     1
102
RTVSPost2010Prop48
 90
       50
102
RTVSPost2010PropOp48
 70
     1
102
RTVSPost2010Prop49
280
     0
102
RTVSPost2010PropOp49
 70
     1
102
RTVSPost2010Prop50
 90
       50
102
RTVSPost2010PropOp50
 70
     1
102
RTVSPost2010Prop51ColorIndex
 90
      256
102
RTVSPost2010Prop51ColorRGB
 90
-16777216
102
RTVSPost2010PropOp51
 70
     0
102
RTVSPost2010Prop52
140
1.0
102
RTVSPost2010PropOp52
 70
     0
102
RTVSPost2010Prop53
 90
        2
102
RTVSPost2010PropOp53
 70
     1
102
RTVSPost2010Prop54
  1
strokes_ogs.tif
102
RTVSPost2010PropOp54
 70
     1
102
RTVSPost2010Prop55
280
     0
102
RTVSPost2010PropOp55
 70
     1
102
RTVSPost2010Prop56
140
1.0
102
RTVSPost2010PropOp56
 70
     1
102
RTVSPost2010Prop57
140
1.0
102
RTVSPost2010PropOp57
 70
     1
102
RTVSPropertyOp0
 70
     1
102
RTVSPropertyOp1
 70
     1
102
RTVSPropertyOp2
 70
     1
102
RTVSPropertyOp3
 70
     1
102
RTVSPropertyOp4
 70
     1
102
RTVSPropertyOp5
 70
     1
102
RTVSPropertyOp6
 70
     1
102
RTVSPropertyOp7
 70
     1
102
RTVSPropertyOp8
 70
     1
102
RTVSPropertyOp9
 70
     1
102
RTVSPropertyOp10
 70
     1
102
RTVSPropertyOp11
 70
     1
102
RTVSPropertyOp12
 70
     1
102
RTVSPropertyOp13
 70
     1
102
RTVSPropertyOp14
 70
     1
102
RTVSPropertyOp15
 70
     1
102
RTVSPropertyOp16
 70
     1
102
RTVSPropertyOp17
 70
     1
102
RTVSPropertyOp18
 70
     1
102
RTVSPropertyOp19
 70
     1
102
RTVSPropertyOp20
 70
     1
102
RTVSPropertyOp21
 70
     1
102
RTVSPropertyOp22
 70
     1
102
RTVSPropertyOp23
 70
     1
102
RTVSPropertyOp24
 70
     1
102
RTVSPropertyOp25
 70
     1
102
RTVSPropertyOp26
 70
     1
102
RTVSPropertyOp27
 70
     1
102
RTVSPropertyOp28
 70
     1
102
RTVSPropertyOp29
 70
     1
102
RTVSPropertyOp30
 70
     1
102
RTVSPropertyOp31
 70
     1
102
RTVSPropertyOp32
 70
     1
102
RTVSPropertyOp33
 70
     1
102
RTVSPropertyOp34
 70
     1
102
RTVSPropertyOp35
 70
     1
102
RTVSPropertyOp36
 70
     1
102
RTVSPropertyOp37
 70
     1
102
RTVSPropertyOp38
 70
     1
102
RTVSPropertyOp39
 70
     1
102
RTVSPropertyOp40
 70
     1
102
RTVSPropertyOp41
 70
     1
102
RTVSPropertyOp42
 70
     1
102
RTVSPropertyOp43
 70
     1
102
RTVSPropertyOp44
 70
     1
102
RTVSPropertyOp45
 70
     1
102
RTVSPropertyOp46
 70
     1
102
RTVSPropertyOp47
 70
     1
102
RTVSPropertyOp48
 70
     1
102
RTVSPropertyOp49
 70
     1
102
RTVSPropertyOp50
 70
     1
102
RTVSPropertyOp51
 70
     0
102
RTVSPropertyOp52
 70
     0
102
RTVSPropertyOp53
 70
     1
102
RTVSPropertyOp54
 70
     1
102
RTVSPropertyOp55
 70
     1
102
RTVSPropertyOp56
 70
     1
102
RTVSPropertyOp57
 70
     1
102
RTVSPropertyOp58
 70
     1
102
RTVSPropertyOp59
 70
     1
102
RTVSPropertyOp60
 70
     1
102
RTVSPropertyOp61
 70
     1
102
RTVSPropertyOp62
 70
     1
  0
XRECORD
  5
3802
102
{ACAD_REACTORS
330
3801
102
}
330
3801
100
AcDbXrecord
280
     1
102
RTVSPost2010Prop28
280
     0
102
RTVSPost2010PropOp28
 70
     1
102
RTVSPost2010Prop29
280
     1
102
RTVSPost2010PropOp29
 70
     1
102
RTVSPost2010Prop30
280
     1
102
RTVSPost2010PropOp30
 70
     1
102
RTVSPost2010Prop31
280
     0
102
RTVSPost2010PropOp31
 70
     1
102
RTVSPost2010Prop32
280
     0
102
RTVSPost2010PropOp32
 70
     1
102
RTVSPost2010Prop33
280
     0
102
RTVSPost2010PropOp33
 70
     1
102
RTVSPost2010Prop34
280
     0
102
RTVSPost2010PropOp34
 70
     1
102
RTVSPost2010Prop35
280
     0
102
RTVSPost2010PropOp35
 70
     1
102
RTVSPost2010Prop36
280
     0
102
RTVSPost2010PropOp36
 70
     1
102
RTVSPost2010Prop37
 90
       50
102
RTVSPost2010PropOp37
 70
     1
102
RTVSPost2010Prop38
140
0.0
102
RTVSPost2010PropOp38
 70
     1
102
RTVSPost2010Prop39
140
1.0
102
RTVSPost2010PropOp39
 70
     1
102
RTVSPost2010Prop40
 90
        0
102
RTVSPost2010PropOp40
 70
     1
102
RTVSPost2010Prop41ColorIndex
 90
       18
102
RTVSPost2010Prop41ColorRGB
 90
        0
102
RTVSPost2010PropOp41
 70
     1
102
RTVSPost2010Prop42
 90
       50
102
RTVSPost2010PropOp42
 70
     1
102
RTVSPost2010Prop43
 90
        3
102
RTVSPost2010PropOp43
 70
     1
102
RTVSPost2010Prop44ColorIndex
 90
        5
102
RTVSPost2010Prop44ColorRGB
 90
      255
102
RTVSPost2010PropOp44
 70
     1
102
RTVSPost2010Prop45
280
     0
102
RTVSPost2010PropOp45
 70
     1
102
RTVSPost2010Prop46
 90
       50
102
RTVSPost2010PropOp46
 70
     1
102
RTVSPost2010Prop47
 90
       50
102
RTVSPost2010PropOp47
 70
     1
102
RTVSPost2010Prop48
 90
       50
102
RTVSPost2010PropOp48
 70
     1
102
RTVSPost2010Prop49
280
     0
102
RTVSPost2010PropOp49
 70
     1
102
RTVSPost2010Prop50
 90
       50
102
RTVSPost2010PropOp50
 70
     1
102
RTVSPost2010Prop51ColorIndex
 90
      256
102
RTVSPost2010Prop51ColorRGB
 90
-16777216
102
RTVSPost2010PropOp51
 70
     0
102
RTVSPost2010Prop52
140
1.0
102
RTVSPost2010PropOp52
 70
     0
102
RTVSPost2010Prop53
 90
        2
102
RTVSPost2010PropOp53
 70
     1
102
RTVSPost2010Prop54
  1
strokes_ogs.tif
102
RTVSPost2010PropOp54
 70
     1
102
RTVSPost2010Prop55
280
     0
102
RTVSPost2010PropOp55
 70
     1
102
RTVSPost2010Prop56
140
1.0
102
RTVSPost2010PropOp56
 70
     1
102
RTVSPost2010Prop57
140
1.0
102
RTVSPost2010PropOp57
 70
     1
102
RTVSPropertyOp0
 70
     1
102
RTVSPropertyOp1
 70
     1
102
RTVSPropertyOp2
 70
     1
102
RTVSPropertyOp3
 70
     1
102
RTVSPropertyOp4
 70
     1
102
RTVSPropertyOp5
 70
     1
102
RTVSPropertyOp6
 70
     1
102
RTVSPropertyOp7
 70
     1
102
RTVSPropertyOp8
 70
     1
102
RTVSPropertyOp9
 70
     1
102
RTVSPropertyOp10
 70
     1
102
RTVSPropertyOp11
 70
     1
102
RTVSPropertyOp12
 70
     1
102
RTVSPropertyOp13
 70
     1
102
RTVSPropertyOp14
 70
     1
102
RTVSPropertyOp15
 70
     1
102
RTVSPropertyOp16
 70
     1
102
RTVSPropertyOp17
 70
     1
102
RTVSPropertyOp18
 70
     1
102
RTVSPropertyOp19
 70
     1
102
RTVSPropertyOp20
 70
     1
102
RTVSPropertyOp21
 70
     1
102
RTVSPropertyOp22
 70
     1
102
RTVSPropertyOp23
 70
     1
102
RTVSPropertyOp24
 70
     1
102
RTVSPropertyOp25
 70
     1
102
RTVSPropertyOp26
 70
     1
102
RTVSPropertyOp27
 70
     1
102
RTVSPropertyOp28
 70
     1
102
RTVSPropertyOp29
 70
     1
102
RTVSPropertyOp30
 70
     1
102
RTVSPropertyOp31
 70
     1
102
RTVSPropertyOp32
 70
     1
102
RTVSPropertyOp33
 70
     1
102
RTVSPropertyOp34
 70
     1
102
RTVSPropertyOp35
 70
     1
102
RTVSPropertyOp36
 70
     1
102
RTVSPropertyOp37
 70
     1
102
RTVSPropertyOp38
 70
     1
102
RTVSPropertyOp39
 70
     1
102
RTVSPropertyOp40
 70
     1
102
RTVSPropertyOp41
 70
     1
102
RTVSPropertyOp42
 70
     1
102
RTVSPropertyOp43
 70
     1
102
RTVSPropertyOp44
 70
     1
102
RTVSPropertyOp45
 70
     1
102
RTVSPropertyOp46
 70
     1
102
RTVSPropertyOp47
 70
     1
102
RTVSPropertyOp48
 70
     1
102
RTVSPropertyOp49
 70
     1
102
RTVSPropertyOp50
 70
     1
102
RTVSPropertyOp51
 70
     0
102
RTVSPropertyOp52
 70
     0
102
RTVSPropertyOp53
 70
     1
102
RTVSPropertyOp54
 70
     1
102
RTVSPropertyOp55
 70
     1
102
RTVSPropertyOp56
 70
     1
102
RTVSPropertyOp57
 70
     1
102
RTVSPropertyOp58
 70
     1
102
RTVSPropertyOp59
 70
     1
102
RTVSPropertyOp60
 70
     1
102
RTVSPropertyOp61
 70
     1
102
RTVSPropertyOp62
 70
     1
  0
XRECORD
  5
3816
102
{ACAD_REACTORS
330
3815
102
}
330
3815
100
AcDbXrecord
280
     1
102
RTVSPost2010Prop28
280
     0
102
RTVSPost2010PropOp28
 70
     1
102
RTVSPost2010Prop29
280
     1
102
RTVSPost2010PropOp29
 70
     1
102
RTVSPost2010Prop30
280
     1
102
RTVSPost2010PropOp30
 70
     1
102
RTVSPost2010Prop31
280
     0
102
RTVSPost2010PropOp31
 70
     1
102
RTVSPost2010Prop32
280
     0
102
RTVSPost2010PropOp32
 70
     1
102
RTVSPost2010Prop33
280
     0
102
RTVSPost2010PropOp33
 70
     1
102
RTVSPost2010Prop34
280
     0
102
RTVSPost2010PropOp34
 70
     1
102
RTVSPost2010Prop35
280
     0
102
RTVSPost2010PropOp35
 70
     1
102
RTVSPost2010Prop36
280
     0
102
RTVSPost2010PropOp36
 70
     1
102
RTVSPost2010Prop37
 90
       50
102
RTVSPost2010PropOp37
 70
     1
102
RTVSPost2010Prop38
140
0.0
102
RTVSPost2010PropOp38
 70
     1
102
RTVSPost2010Prop39
140
1.0
102
RTVSPost2010PropOp39
 70
     1
102
RTVSPost2010Prop40
 90
        0
102
RTVSPost2010PropOp40
 70
     1
102
RTVSPost2010Prop41ColorIndex
 90
       18
102
RTVSPost2010Prop41ColorRGB
 90
        0
102
RTVSPost2010PropOp41
 70
     1
102
RTVSPost2010Prop42
 90
       50
102
RTVSPost2010PropOp42
 70
     1
102
RTVSPost2010Prop43
 90
        3
102
RTVSPost2010PropOp43
 70
     1
102
RTVSPost2010Prop44ColorIndex
 90
        5
102
RTVSPost2010Prop44ColorRGB
 90
      255
102
RTVSPost2010PropOp44
 70
     1
102
RTVSPost2010Prop45
280
     0
102
RTVSPost2010PropOp45
 70
     1
102
RTVSPost2010Prop46
 90
       50
102
RTVSPost2010PropOp46
 70
     1
102
RTVSPost2010Prop47
 90
       50
102
RTVSPost2010PropOp47
 70
     1
102
RTVSPost2010Prop48
 90
       50
102
RTVSPost2010PropOp48
 70
     1
102
RTVSPost2010Prop49
280
     0
102
RTVSPost2010PropOp49
 70
     1
102
RTVSPost2010Prop50
 90
       50
102
RTVSPost2010PropOp50
 70
     1
102
RTVSPost2010Prop51ColorIndex
 90
      256
102
RTVSPost2010Prop51ColorRGB
 90
-16777216
102
RTVSPost2010PropOp51
 70
     0
102
RTVSPost2010Prop52
140
1.0
102
RTVSPost2010PropOp52
 70
     0
102
RTVSPost2010Prop53
 90
        2
102
RTVSPost2010PropOp53
 70
     1
102
RTVSPost2010Prop54
  1
strokes_ogs.tif
102
RTVSPost2010PropOp54
 70
     1
102
RTVSPost2010Prop55
280
     0
102
RTVSPost2010PropOp55
 70
     1
102
RTVSPost2010Prop56
140
1.0
102
RTVSPost2010PropOp56
 70
     1
102
RTVSPost2010Prop57
140
1.0
102
RTVSPost2010PropOp57
 70
     1
102
RTVSPropertyOp0
 70
     0
102
RTVSPropertyOp1
 70
     0
102
RTVSPropertyOp2
 70
     0
102
RTVSPropertyOp3
 70
     0
102
RTVSPropertyOp4
 70
     0
102
RTVSPropertyOp5
 70
     0
102
RTVSPropertyOp6
 70
     0
102
RTVSPropertyOp7
 70
     0
102
RTVSPropertyOp8
 70
     0
102
RTVSPropertyOp9
 70
     0
102
RTVSPropertyOp10
 70
     0
102
RTVSPropertyOp11
 70
     0
102
RTVSPropertyOp12
 70
     0
102
RTVSPropertyOp13
 70
     0
102
RTVSPropertyOp14
 70
     2
102
RTVSPropertyOp15
 70
     0
102
RTVSPropertyOp16
 70
     0
102
RTVSPropertyOp17
 70
     0
102
RTVSPropertyOp18
 70
     0
102
RTVSPropertyOp19
 70
     0
102
RTVSPropertyOp20
 70
     0
102
RTVSPropertyOp21
 70
     0
102
RTVSPropertyOp22
 70
     0
102
RTVSPropertyOp23
 70
     0
102
RTVSPropertyOp24
 70
     0
102
RTVSPropertyOp25
 70
     0
102
RTVSPropertyOp26
 70
     0
102
RTVSPropertyOp27
 70
     0
102
RTVSPropertyOp28
 70
     1
102
RTVSPropertyOp29
 70
     1
102
RTVSPropertyOp30
 70
     1
102
RTVSPropertyOp31
 70
     1
102
RTVSPropertyOp32
 70
     1
102
RTVSPropertyOp33
 70
     1
102
RTVSPropertyOp34
 70
     1
102
RTVSPropertyOp35
 70
     1
102
RTVSPropertyOp36
 70
     1
102
RTVSPropertyOp37
 70
     1
102
RTVSPropertyOp38
 70
     1
102
RTVSPropertyOp39
 70
     1
102
RTVSPropertyOp40
 70
     1
102
RTVSPropertyOp41
 70
     1
102
RTVSPropertyOp42
 70
     1
102
RTVSPropertyOp43
 70
     1
102
RTVSPropertyOp44
 70
     1
102
RTVSPropertyOp45
 70
     1
102
RTVSPropertyOp46
 70
     1
102
RTVSPropertyOp47
 70
     1
102
RTVSPropertyOp48
 70
     1
102
RTVSPropertyOp49
 70
     1
102
RTVSPropertyOp50
 70
     1
102
RTVSPropertyOp51
 70
     0
102
RTVSPropertyOp52
 70
     0
102
RTVSPropertyOp53
 70
     1
102
RTVSPropertyOp54
 70
     1
102
RTVSPropertyOp55
 70
     1
102
RTVSPropertyOp56
 70
     1
102
RTVSPropertyOp57
 70
     1
102
RTVSPropertyOp58
 70
     1
102
RTVSPropertyOp59
 70
     1
102
RTVSPropertyOp60
 70
     1
102
RTVSPropertyOp61
 70
     1
102
RTVSPropertyOp62
 70
     1
  0
XRECORD
  5
380E
102
{ACAD_REACTORS
330
380D
102
}
330
380D
100
AcDbXrecord
280
     1
102
RTVSPost2010Prop28
280
     0
102
RTVSPost2010PropOp28
 70
     1
102
RTVSPost2010Prop29
280
     1
102
RTVSPost2010PropOp29
 70
     1
102
RTVSPost2010Prop30
280
     1
102
RTVSPost2010PropOp30
 70
     1
102
RTVSPost2010Prop31
280
     0
102
RTVSPost2010PropOp31
 70
     1
102
RTVSPost2010Prop32
280
     0
102
RTVSPost2010PropOp32
 70
     1
102
RTVSPost2010Prop33
280
     0
102
RTVSPost2010PropOp33
 70
     1
102
RTVSPost2010Prop34
280
     0
102
RTVSPost2010PropOp34
 70
     1
102
RTVSPost2010Prop35
280
     0
102
RTVSPost2010PropOp35
 70
     1
102
RTVSPost2010Prop36
280
     0
102
RTVSPost2010PropOp36
 70
     1
102
RTVSPost2010Prop37
 90
       50
102
RTVSPost2010PropOp37
 70
     1
102
RTVSPost2010Prop38
140
0.0
102
RTVSPost2010PropOp38
 70
     1
102
RTVSPost2010Prop39
140
1.0
102
RTVSPost2010PropOp39
 70
     1
102
RTVSPost2010Prop40
 90
        0
102
RTVSPost2010PropOp40
 70
     1
102
RTVSPost2010Prop41ColorIndex
 90
       18
102
RTVSPost2010Prop41ColorRGB
 90
        0
102
RTVSPost2010PropOp41
 70
     1
102
RTVSPost2010Prop42
 90
       50
102
RTVSPost2010PropOp42
 70
     1
102
RTVSPost2010Prop43
 90
        3
102
RTVSPost2010PropOp43
 70
     1
102
RTVSPost2010Prop44ColorIndex
 90
        5
102
RTVSPost2010Prop44ColorRGB
 90
      255
102
RTVSPost2010PropOp44
 70
     1
102
RTVSPost2010Prop45
280
     0
102
RTVSPost2010PropOp45
 70
     1
102
RTVSPost2010Prop46
 90
       50
102
RTVSPost2010PropOp46
 70
     1
102
RTVSPost2010Prop47
 90
       50
102
RTVSPost2010PropOp47
 70
     1
102
RTVSPost2010Prop48
 90
       50
102
RTVSPost2010PropOp48
 70
     1
102
RTVSPost2010Prop49
280
     0
102
RTVSPost2010PropOp49
 70
     1
102
RTVSPost2010Prop50
 90
       50
102
RTVSPost2010PropOp50
 70
     1
102
RTVSPost2010Prop51ColorIndex
 90
      256
102
RTVSPost2010Prop51ColorRGB
 90
-16777216
102
RTVSPost2010PropOp51
 70
     0
102
RTVSPost2010Prop52
140
1.0
102
RTVSPost2010PropOp52
 70
     0
102
RTVSPost2010Prop53
 90
        2
102
RTVSPost2010PropOp53
 70
     1
102
RTVSPost2010Prop54
  1
strokes_ogs.tif
102
RTVSPost2010PropOp54
 70
     1
102
RTVSPost2010Prop55
280
     0
102
RTVSPost2010PropOp55
 70
     1
102
RTVSPost2010Prop56
140
1.0
102
RTVSPost2010PropOp56
 70
     1
102
RTVSPost2010Prop57
140
1.0
102
RTVSPost2010PropOp57
 70
     1
102
RTVSPropertyOp0
 70
     1
102
RTVSPropertyOp1
 70
     1
102
RTVSPropertyOp2
 70
     1
102
RTVSPropertyOp3
 70
     1
102
RTVSPropertyOp4
 70
     1
102
RTVSPropertyOp5
 70
     1
102
RTVSPropertyOp6
 70
     1
102
RTVSPropertyOp7
 70
     1
102
RTVSPropertyOp8
 70
     1
102
RTVSPropertyOp9
 70
     1
102
RTVSPropertyOp10
 70
     1
102
RTVSPropertyOp11
 70
     1
102
RTVSPropertyOp12
 70
     1
102
RTVSPropertyOp13
 70
     1
102
RTVSPropertyOp14
 70
     1
102
RTVSPropertyOp15
 70
     1
102
RTVSPropertyOp16
 70
     1
102
RTVSPropertyOp17
 70
     1
102
RTVSPropertyOp18
 70
     1
102
RTVSPropertyOp19
 70
     1
102
RTVSPropertyOp20
 70
     1
102
RTVSPropertyOp21
 70
     1
102
RTVSPropertyOp22
 70
     1
102
RTVSPropertyOp23
 70
     1
102
RTVSPropertyOp24
 70
     1
102
RTVSPropertyOp25
 70
     1
102
RTVSPropertyOp26
 70
     1
102
RTVSPropertyOp27
 70
     1
102
RTVSPropertyOp28
 70
     1
102
RTVSPropertyOp29
 70
     1
102
RTVSPropertyOp30
 70
     1
102
RTVSPropertyOp31
 70
     1
102
RTVSPropertyOp32
 70
     1
102
RTVSPropertyOp33
 70
     1
102
RTVSPropertyOp34
 70
     1
102
RTVSPropertyOp35
 70
     1
102
RTVSPropertyOp36
 70
     1
102
RTVSPropertyOp37
 70
     1
102
RTVSPropertyOp38
 70
     1
102
RTVSPropertyOp39
 70
     1
102
RTVSPropertyOp40
 70
     1
102
RTVSPropertyOp41
 70
     1
102
RTVSPropertyOp42
 70
     1
102
RTVSPropertyOp43
 70
     1
102
RTVSPropertyOp44
 70
     1
102
RTVSPropertyOp45
 70
     1
102
RTVSPropertyOp46
 70
     1
102
RTVSPropertyOp47
 70
     1
102
RTVSPropertyOp48
 70
     1
102
RTVSPropertyOp49
 70
     1
102
RTVSPropertyOp50
 70
     1
102
RTVSPropertyOp51
 70
     0
102
RTVSPropertyOp52
 70
     0
102
RTVSPropertyOp53
 70
     1
102
RTVSPropertyOp54
 70
     1
102
RTVSPropertyOp55
 70
     1
102
RTVSPropertyOp56
 70
     1
102
RTVSPropertyOp57
 70
     1
102
RTVSPropertyOp58
 70
     1
102
RTVSPropertyOp59
 70
     1
102
RTVSPropertyOp60
 70
     1
102
RTVSPropertyOp61
 70
     1
102
RTVSPropertyOp62
 70
     1
  0
XRECORD
  5
3818
102
{ACAD_REACTORS
330
3817
102
}
330
3817
100
AcDbXrecord
280
     1
102
RTVSPost2010Prop28
280
     0
102
RTVSPost2010PropOp28
 70
     1
102
RTVSPost2010Prop29
280
     1
102
RTVSPost2010PropOp29
 70
     1
102
RTVSPost2010Prop30
280
     1
102
RTVSPost2010PropOp30
 70
     1
102
RTVSPost2010Prop31
280
     0
102
RTVSPost2010PropOp31
 70
     1
102
RTVSPost2010Prop32
280
     0
102
RTVSPost2010PropOp32
 70
     1
102
RTVSPost2010Prop33
280
     0
102
RTVSPost2010PropOp33
 70
     1
102
RTVSPost2010Prop34
280
     0
102
RTVSPost2010PropOp34
 70
     1
102
RTVSPost2010Prop35
280
     0
102
RTVSPost2010PropOp35
 70
     1
102
RTVSPost2010Prop36
280
     0
102
RTVSPost2010PropOp36
 70
     1
102
RTVSPost2010Prop37
 90
       50
102
RTVSPost2010PropOp37
 70
     1
102
RTVSPost2010Prop38
140
0.0
102
RTVSPost2010PropOp38
 70
     1
102
RTVSPost2010Prop39
140
1.0
102
RTVSPost2010PropOp39
 70
     1
102
RTVSPost2010Prop40
 90
        0
102
RTVSPost2010PropOp40
 70
     1
102
RTVSPost2010Prop41ColorIndex
 90
       18
102
RTVSPost2010Prop41ColorRGB
 90
        0
102
RTVSPost2010PropOp41
 70
     1
102
RTVSPost2010Prop42
 90
       50
102
RTVSPost2010PropOp42
 70
     1
102
RTVSPost2010Prop43
 90
        3
102
RTVSPost2010PropOp43
 70
     1
102
RTVSPost2010Prop44ColorIndex
 90
        5
102
RTVSPost2010Prop44ColorRGB
 90
      255
102
RTVSPost2010PropOp44
 70
     1
102
RTVSPost2010Prop45
280
     0
102
RTVSPost2010PropOp45
 70
     1
102
RTVSPost2010Prop46
 90
       50
102
RTVSPost2010PropOp46
 70
     1
102
RTVSPost2010Prop47
 90
       50
102
RTVSPost2010PropOp47
 70
     1
102
RTVSPost2010Prop48
 90
       50
102
RTVSPost2010PropOp48
 70
     1
102
RTVSPost2010Prop49
280
     0
102
RTVSPost2010PropOp49
 70
     1
102
RTVSPost2010Prop50
 90
       50
102
RTVSPost2010PropOp50
 70
     1
102
RTVSPost2010Prop51ColorIndex
 90
      256
102
RTVSPost2010Prop51ColorRGB
 90
-16777216
102
RTVSPost2010PropOp51
 70
     0
102
RTVSPost2010Prop52
140
1.0
102
RTVSPost2010PropOp52
 70
     0
102
RTVSPost2010Prop53
 90
        2
102
RTVSPost2010PropOp53
 70
     1
102
RTVSPost2010Prop54
  1
strokes_ogs.tif
102
RTVSPost2010PropOp54
 70
     1
102
RTVSPost2010Prop55
280
     0
102
RTVSPost2010PropOp55
 70
     1
102
RTVSPost2010Prop56
140
1.0
102
RTVSPost2010PropOp56
 70
     1
102
RTVSPost2010Prop57
140
1.0
102
RTVSPost2010PropOp57
 70
     1
102
RTVSPropertyOp0
 70
     0
102
RTVSPropertyOp1
 70
     0
102
RTVSPropertyOp2
 70
     0
102
RTVSPropertyOp3
 70
     0
102
RTVSPropertyOp4
 70
     0
102
RTVSPropertyOp5
 70
     0
102
RTVSPropertyOp6
 70
     0
102
RTVSPropertyOp7
 70
     0
102
RTVSPropertyOp8
 70
     0
102
RTVSPropertyOp9
 70
     0
102
RTVSPropertyOp10
 70
     0
102
RTVSPropertyOp11
 70
     0
102
RTVSPropertyOp12
 70
     0
102
RTVSPropertyOp13
 70
     0
102
RTVSPropertyOp14
 70
     2
102
RTVSPropertyOp15
 70
     0
102
RTVSPropertyOp16
 70
     0
102
RTVSPropertyOp17
 70
     0
102
RTVSPropertyOp18
 70
     0
102
RTVSPropertyOp19
 70
     0
102
RTVSPropertyOp20
 70
     0
102
RTVSPropertyOp21
 70
     0
102
RTVSPropertyOp22
 70
     0
102
RTVSPropertyOp23
 70
     0
102
RTVSPropertyOp24
 70
     0
102
RTVSPropertyOp25
 70
     0
102
RTVSPropertyOp26
 70
     0
102
RTVSPropertyOp27
 70
     0
102
RTVSPropertyOp28
 70
     1
102
RTVSPropertyOp29
 70
     1
102
RTVSPropertyOp30
 70
     1
102
RTVSPropertyOp31
 70
     1
102
RTVSPropertyOp32
 70
     1
102
RTVSPropertyOp33
 70
     1
102
RTVSPropertyOp34
 70
     1
102
RTVSPropertyOp35
 70
     1
102
RTVSPropertyOp36
 70
     1
102
RTVSPropertyOp37
 70
     1
102
RTVSPropertyOp38
 70
     1
102
RTVSPropertyOp39
 70
     1
102
RTVSPropertyOp40
 70
     1
102
RTVSPropertyOp41
 70
     1
102
RTVSPropertyOp42
 70
     1
102
RTVSPropertyOp43
 70
     1
102
RTVSPropertyOp44
 70
     1
102
RTVSPropertyOp45
 70
     1
102
RTVSPropertyOp46
 70
     1
102
RTVSPropertyOp47
 70
     1
102
RTVSPropertyOp48
 70
     1
102
RTVSPropertyOp49
 70
     1
102
RTVSPropertyOp50
 70
     1
102
RTVSPropertyOp51
 70
     0
102
RTVSPropertyOp52
 70
     0
102
RTVSPropertyOp53
 70
     1
102
RTVSPropertyOp54
 70
     1
102
RTVSPropertyOp55
 70
     1
102
RTVSPropertyOp56
 70
     1
102
RTVSPropertyOp57
 70
     1
102
RTVSPropertyOp58
 70
     1
102
RTVSPropertyOp59
 70
     1
102
RTVSPropertyOp60
 70
     1
102
RTVSPropertyOp61
 70
     1
102
RTVSPropertyOp62
 70
     1
  0
XRECORD
  5
3806
102
{ACAD_REACTORS
330
3805
102
}
330
3805
100
AcDbXrecord
280
     1
102
RTVSPost2010Prop28
280
     0
102
RTVSPost2010PropOp28
 70
     1
102
RTVSPost2010Prop29
280
     1
102
RTVSPost2010PropOp29
 70
     1
102
RTVSPost2010Prop30
280
     1
102
RTVSPost2010PropOp30
 70
     1
102
RTVSPost2010Prop31
280
     0
102
RTVSPost2010PropOp31
 70
     1
102
RTVSPost2010Prop32
280
     0
102
RTVSPost2010PropOp32
 70
     1
102
RTVSPost2010Prop33
280
     0
102
RTVSPost2010PropOp33
 70
     1
102
RTVSPost2010Prop34
280
     0
102
RTVSPost2010PropOp34
 70
     1
102
RTVSPost2010Prop35
280
     0
102
RTVSPost2010PropOp35
 70
     1
102
RTVSPost2010Prop36
280
     0
102
RTVSPost2010PropOp36
 70
     1
102
RTVSPost2010Prop37
 90
       50
102
RTVSPost2010PropOp37
 70
     1
102
RTVSPost2010Prop38
140
0.0
102
RTVSPost2010PropOp38
 70
     1
102
RTVSPost2010Prop39
140
1.0
102
RTVSPost2010PropOp39
 70
     1
102
RTVSPost2010Prop40
 90
        0
102
RTVSPost2010PropOp40
 70
     1
102
RTVSPost2010Prop41ColorIndex
 90
       18
102
RTVSPost2010Prop41ColorRGB
 90
        0
102
RTVSPost2010PropOp41
 70
     1
102
RTVSPost2010Prop42
 90
       50
102
RTVSPost2010PropOp42
 70
     1
102
RTVSPost2010Prop43
 90
        3
102
RTVSPost2010PropOp43
 70
     1
102
RTVSPost2010Prop44ColorIndex
 90
        5
102
RTVSPost2010Prop44ColorRGB
 90
      255
102
RTVSPost2010PropOp44
 70
     1
102
RTVSPost2010Prop45
280
     0
102
RTVSPost2010PropOp45
 70
     1
102
RTVSPost2010Prop46
 90
       50
102
RTVSPost2010PropOp46
 70
     1
102
RTVSPost2010Prop47
 90
       50
102
RTVSPost2010PropOp47
 70
     1
102
RTVSPost2010Prop48
 90
       50
102
RTVSPost2010PropOp48
 70
     1
102
RTVSPost2010Prop49
280
     0
102
RTVSPost2010PropOp49
 70
     1
102
RTVSPost2010Prop50
 90
       50
102
RTVSPost2010PropOp50
 70
     1
102
RTVSPost2010Prop51ColorIndex
 90
      256
102
RTVSPost2010Prop51ColorRGB
 90
-16777216
102
RTVSPost2010PropOp51
 70
     0
102
RTVSPost2010Prop52
140
1.0
102
RTVSPost2010PropOp52
 70
     0
102
RTVSPost2010Prop53
 90
        2
102
RTVSPost2010PropOp53
 70
     1
102
RTVSPost2010Prop54
  1
strokes_ogs.tif
102
RTVSPost2010PropOp54
 70
     1
102
RTVSPost2010Prop55
280
     0
102
RTVSPost2010PropOp55
 70
     1
102
RTVSPost2010Prop56
140
1.0
102
RTVSPost2010PropOp56
 70
     1
102
RTVSPost2010Prop57
140
1.0
102
RTVSPost2010PropOp57
 70
     1
102
RTVSPropertyOp0
 70
     1
102
RTVSPropertyOp1
 70
     1
102
RTVSPropertyOp2
 70
     1
102
RTVSPropertyOp3
 70
     1
102
RTVSPropertyOp4
 70
     1
102
RTVSPropertyOp5
 70
     1
102
RTVSPropertyOp6
 70
     1
102
RTVSPropertyOp7
 70
     1
102
RTVSPropertyOp8
 70
     1
102
RTVSPropertyOp9
 70
     1
102
RTVSPropertyOp10
 70
     1
102
RTVSPropertyOp11
 70
     1
102
RTVSPropertyOp12
 70
     1
102
RTVSPropertyOp13
 70
     1
102
RTVSPropertyOp14
 70
     1
102
RTVSPropertyOp15
 70
     1
102
RTVSPropertyOp16
 70
     1
102
RTVSPropertyOp17
 70
     1
102
RTVSPropertyOp18
 70
     1
102
RTVSPropertyOp19
 70
     1
102
RTVSPropertyOp20
 70
     1
102
RTVSPropertyOp21
 70
     1
102
RTVSPropertyOp22
 70
     1
102
RTVSPropertyOp23
 70
     1
102
RTVSPropertyOp24
 70
     1
102
RTVSPropertyOp25
 70
     1
102
RTVSPropertyOp26
 70
     1
102
RTVSPropertyOp27
 70
     1
102
RTVSPropertyOp28
 70
     1
102
RTVSPropertyOp29
 70
     1
102
RTVSPropertyOp30
 70
     1
102
RTVSPropertyOp31
 70
     1
102
RTVSPropertyOp32
 70
     1
102
RTVSPropertyOp33
 70
     1
102
RTVSPropertyOp34
 70
     1
102
RTVSPropertyOp35
 70
     1
102
RTVSPropertyOp36
 70
     1
102
RTVSPropertyOp37
 70
     1
102
RTVSPropertyOp38
 70
     1
102
RTVSPropertyOp39
 70
     1
102
RTVSPropertyOp40
 70
     1
102
RTVSPropertyOp41
 70
     1
102
RTVSPropertyOp42
 70
     1
102
RTVSPropertyOp43
 70
     1
102
RTVSPropertyOp44
 70
     1
102
RTVSPropertyOp45
 70
     1
102
RTVSPropertyOp46
 70
     1
102
RTVSPropertyOp47
 70
     1
102
RTVSPropertyOp48
 70
     1
102
RTVSPropertyOp49
 70
     1
102
RTVSPropertyOp50
 70
     1
102
RTVSPropertyOp51
 70
     0
102
RTVSPropertyOp52
 70
     0
102
RTVSPropertyOp53
 70
     1
102
RTVSPropertyOp54
 70
     1
102
RTVSPropertyOp55
 70
     1
102
RTVSPropertyOp56
 70
     1
102
RTVSPropertyOp57
 70
     1
102
RTVSPropertyOp58
 70
     1
102
RTVSPropertyOp59
 70
     1
102
RTVSPropertyOp60
 70
     1
102
RTVSPropertyOp61
 70
     1
102
RTVSPropertyOp62
 70
     1
  0
XRECORD
  5
3824
102
{ACAD_REACTORS
330
3823
102
}
330
3823
100
AcDbXrecord
280
     1
102
RTVSPost2010Prop28
280
     0
102
RTVSPost2010PropOp28
 70
     1
102
RTVSPost2010Prop29
280
     1
102
RTVSPost2010PropOp29
 70
     1
102
RTVSPost2010Prop30
280
     1
102
RTVSPost2010PropOp30
 70
     1
102
RTVSPost2010Prop31
280
     0
102
RTVSPost2010PropOp31
 70
     1
102
RTVSPost2010Prop32
280
     0
102
RTVSPost2010PropOp32
 70
     1
102
RTVSPost2010Prop33
280
     0
102
RTVSPost2010PropOp33
 70
     1
102
RTVSPost2010Prop34
280
     0
102
RTVSPost2010PropOp34
 70
     1
102
RTVSPost2010Prop35
280
     0
102
RTVSPost2010PropOp35
 70
     1
102
RTVSPost2010Prop36
280
     0
102
RTVSPost2010PropOp36
 70
     1
102
RTVSPost2010Prop37
 90
       50
102
RTVSPost2010PropOp37
 70
     1
102
RTVSPost2010Prop38
140
0.0
102
RTVSPost2010PropOp38
 70
     1
102
RTVSPost2010Prop39
140
1.0
102
RTVSPost2010PropOp39
 70
     1
102
RTVSPost2010Prop40
 90
        0
102
RTVSPost2010PropOp40
 70
     1
102
RTVSPost2010Prop41ColorIndex
 90
       18
102
RTVSPost2010Prop41ColorRGB
 90
        0
102
RTVSPost2010PropOp41
 70
     1
102
RTVSPost2010Prop42
 90
       50
102
RTVSPost2010PropOp42
 70
     1
102
RTVSPost2010Prop43
 90
        3
102
RTVSPost2010PropOp43
 70
     1
102
RTVSPost2010Prop44ColorIndex
 90
        5
102
RTVSPost2010Prop44ColorRGB
 90
      255
102
RTVSPost2010PropOp44
 70
     1
102
RTVSPost2010Prop45
280
     0
102
RTVSPost2010PropOp45
 70
     1
102
RTVSPost2010Prop46
 90
       50
102
RTVSPost2010PropOp46
 70
     1
102
RTVSPost2010Prop47
 90
       50
102
RTVSPost2010PropOp47
 70
     1
102
RTVSPost2010Prop48
 90
       50
102
RTVSPost2010PropOp48
 70
     1
102
RTVSPost2010Prop49
280
     0
102
RTVSPost2010PropOp49
 70
     1
102
RTVSPost2010Prop50
 90
       50
102
RTVSPost2010PropOp50
 70
     1
102
RTVSPost2010Prop51ColorIndex
 90
      256
102
RTVSPost2010Prop51ColorRGB
 90
-16777216
102
RTVSPost2010PropOp51
 70
     0
102
RTVSPost2010Prop52
140
1.0
102
RTVSPost2010PropOp52
 70
     0
102
RTVSPost2010Prop53
 90
        2
102
RTVSPost2010PropOp53
 70
     1
102
RTVSPost2010Prop54
  1
strokes_ogs.tif
102
RTVSPost2010PropOp54
 70
     1
102
RTVSPost2010Prop55
280
     0
102
RTVSPost2010PropOp55
 70
     1
102
RTVSPost2010Prop56
140
1.0
102
RTVSPost2010PropOp56
 70
     1
102
RTVSPost2010Prop57
140
1.0
102
RTVSPost2010PropOp57
 70
     1
102
RTVSPropertyOp0
 70
     1
102
RTVSPropertyOp1
 70
     1
102
RTVSPropertyOp2
 70
     1
102
RTVSPropertyOp3
 70
     1
102
RTVSPropertyOp4
 70
     1
102
RTVSPropertyOp5
 70
     1
102
RTVSPropertyOp6
 70
     1
102
RTVSPropertyOp7
 70
     1
102
RTVSPropertyOp8
 70
     1
102
RTVSPropertyOp9
 70
     1
102
RTVSPropertyOp10
 70
     1
102
RTVSPropertyOp11
 70
     1
102
RTVSPropertyOp12
 70
     1
102
RTVSPropertyOp13
 70
     1
102
RTVSPropertyOp14
 70
     1
102
RTVSPropertyOp15
 70
     1
102
RTVSPropertyOp16
 70
     1
102
RTVSPropertyOp17
 70
     1
102
RTVSPropertyOp18
 70
     1
102
RTVSPropertyOp19
 70
     1
102
RTVSPropertyOp20
 70
     1
102
RTVSPropertyOp21
 70
     1
102
RTVSPropertyOp22
 70
     1
102
RTVSPropertyOp23
 70
     1
102
RTVSPropertyOp24
 70
     1
102
RTVSPropertyOp25
 70
     1
102
RTVSPropertyOp26
 70
     1
102
RTVSPropertyOp27
 70
     1
102
RTVSPropertyOp28
 70
     1
102
RTVSPropertyOp29
 70
     1
102
RTVSPropertyOp30
 70
     1
102
RTVSPropertyOp31
 70
     1
102
RTVSPropertyOp32
 70
     1
102
RTVSPropertyOp33
 70
     1
102
RTVSPropertyOp34
 70
     1
102
RTVSPropertyOp35
 70
     1
102
RTVSPropertyOp36
 70
     1
102
RTVSPropertyOp37
 70
     1
102
RTVSPropertyOp38
 70
     1
102
RTVSPropertyOp39
 70
     1
102
RTVSPropertyOp40
 70
     1
102
RTVSPropertyOp41
 70
     1
102
RTVSPropertyOp42
 70
     1
102
RTVSPropertyOp43
 70
     1
102
RTVSPropertyOp44
 70
     1
102
RTVSPropertyOp45
 70
     1
102
RTVSPropertyOp46
 70
     1
102
RTVSPropertyOp47
 70
     1
102
RTVSPropertyOp48
 70
     1
102
RTVSPropertyOp49
 70
     1
102
RTVSPropertyOp50
 70
     1
102
RTVSPropertyOp51
 70
     0
102
RTVSPropertyOp52
 70
     0
102
RTVSPropertyOp53
 70
     1
102
RTVSPropertyOp54
 70
     1
102
RTVSPropertyOp55
 70
     1
102
RTVSPropertyOp56
 70
     1
102
RTVSPropertyOp57
 70
     1
102
RTVSPropertyOp58
 70
     1
102
RTVSPropertyOp59
 70
     1
102
RTVSPropertyOp60
 70
     1
102
RTVSPropertyOp61
 70
     1
102
RTVSPropertyOp62
 70
     1
  0
XRECORD
  5
3822
102
{ACAD_REACTORS
330
3821
102
}
330
3821
100
AcDbXrecord
280
     1
102
RTVSPost2010Prop28
280
     0
102
RTVSPost2010PropOp28
 70
     1
102
RTVSPost2010Prop29
280
     1
102
RTVSPost2010PropOp29
 70
     1
102
RTVSPost2010Prop30
280
     1
102
RTVSPost2010PropOp30
 70
     1
102
RTVSPost2010Prop31
280
     0
102
RTVSPost2010PropOp31
 70
     1
102
RTVSPost2010Prop32
280
     0
102
RTVSPost2010PropOp32
 70
     1
102
RTVSPost2010Prop33
280
     0
102
RTVSPost2010PropOp33
 70
     1
102
RTVSPost2010Prop34
280
     0
102
RTVSPost2010PropOp34
 70
     1
102
RTVSPost2010Prop35
280
     0
102
RTVSPost2010PropOp35
 70
     1
102
RTVSPost2010Prop36
280
     0
102
RTVSPost2010PropOp36
 70
     1
102
RTVSPost2010Prop37
 90
       50
102
RTVSPost2010PropOp37
 70
     1
102
RTVSPost2010Prop38
140
0.0
102
RTVSPost2010PropOp38
 70
     1
102
RTVSPost2010Prop39
140
1.0
102
RTVSPost2010PropOp39
 70
     1
102
RTVSPost2010Prop40
 90
        0
102
RTVSPost2010PropOp40
 70
     1
102
RTVSPost2010Prop41ColorIndex
 90
       18
102
RTVSPost2010Prop41ColorRGB
 90
        0
102
RTVSPost2010PropOp41
 70
     1
102
RTVSPost2010Prop42
 90
       50
102
RTVSPost2010PropOp42
 70
     1
102
RTVSPost2010Prop43
 90
        3
102
RTVSPost2010PropOp43
 70
     1
102
RTVSPost2010Prop44ColorIndex
 90
        5
102
RTVSPost2010Prop44ColorRGB
 90
      255
102
RTVSPost2010PropOp44
 70
     1
102
RTVSPost2010Prop45
280
     0
102
RTVSPost2010PropOp45
 70
     1
102
RTVSPost2010Prop46
 90
       50
102
RTVSPost2010PropOp46
 70
     1
102
RTVSPost2010Prop47
 90
       50
102
RTVSPost2010PropOp47
 70
     1
102
RTVSPost2010Prop48
 90
       50
102
RTVSPost2010PropOp48
 70
     1
102
RTVSPost2010Prop49
280
     0
102
RTVSPost2010PropOp49
 70
     1
102
RTVSPost2010Prop50
 90
       50
102
RTVSPost2010PropOp50
 70
     1
102
RTVSPost2010Prop51ColorIndex
 90
      256
102
RTVSPost2010Prop51ColorRGB
 90
-16777216
102
RTVSPost2010PropOp51
 70
     0
102
RTVSPost2010Prop52
140
1.0
102
RTVSPost2010PropOp52
 70
     0
102
RTVSPost2010Prop53
 90
        2
102
RTVSPost2010PropOp53
 70
     1
102
RTVSPost2010Prop54
  1
strokes_ogs.tif
102
RTVSPost2010PropOp54
 70
     1
102
RTVSPost2010Prop55
280
     0
102
RTVSPost2010PropOp55
 70
     1
102
RTVSPost2010Prop56
140
1.0
102
RTVSPost2010PropOp56
 70
     1
102
RTVSPost2010Prop57
140
1.0
102
RTVSPost2010PropOp57
 70
     1
102
RTVSPropertyOp0
 70
     1
102
RTVSPropertyOp1
 70
     1
102
RTVSPropertyOp2
 70
     1
102
RTVSPropertyOp3
 70
     1
102
RTVSPropertyOp4
 70
     1
102
RTVSPropertyOp5
 70
     1
102
RTVSPropertyOp6
 70
     1
102
RTVSPropertyOp7
 70
     1
102
RTVSPropertyOp8
 70
     1
102
RTVSPropertyOp9
 70
     1
102
RTVSPropertyOp10
 70
     1
102
RTVSPropertyOp11
 70
     1
102
RTVSPropertyOp12
 70
     1
102
RTVSPropertyOp13
 70
     1
102
RTVSPropertyOp14
 70
     1
102
RTVSPropertyOp15
 70
     1
102
RTVSPropertyOp16
 70
     1
102
RTVSPropertyOp17
 70
     1
102
RTVSPropertyOp18
 70
     1
102
RTVSPropertyOp19
 70
     1
102
RTVSPropertyOp20
 70
     1
102
RTVSPropertyOp21
 70
     1
102
RTVSPropertyOp22
 70
     1
102
RTVSPropertyOp23
 70
     1
102
RTVSPropertyOp24
 70
     1
102
RTVSPropertyOp25
 70
     1
102
RTVSPropertyOp26
 70
     1
102
RTVSPropertyOp27
 70
     1
102
RTVSPropertyOp28
 70
     1
102
RTVSPropertyOp29
 70
     1
102
RTVSPropertyOp30
 70
     1
102
RTVSPropertyOp31
 70
     1
102
RTVSPropertyOp32
 70
     1
102
RTVSPropertyOp33
 70
     1
102
RTVSPropertyOp34
 70
     1
102
RTVSPropertyOp35
 70
     1
102
RTVSPropertyOp36
 70
     1
102
RTVSPropertyOp37
 70
     1
102
RTVSPropertyOp38
 70
     1
102
RTVSPropertyOp39
 70
     1
102
RTVSPropertyOp40
 70
     1
102
RTVSPropertyOp41
 70
     1
102
RTVSPropertyOp42
 70
     1
102
RTVSPropertyOp43
 70
     1
102
RTVSPropertyOp44
 70
     1
102
RTVSPropertyOp45
 70
     1
102
RTVSPropertyOp46
 70
     1
102
RTVSPropertyOp47
 70
     1
102
RTVSPropertyOp48
 70
     1
102
RTVSPropertyOp49
 70
     1
102
RTVSPropertyOp50
 70
     1
102
RTVSPropertyOp51
 70
     0
102
RTVSPropertyOp52
 70
     0
102
RTVSPropertyOp53
 70
     1
102
RTVSPropertyOp54
 70
     1
102
RTVSPropertyOp55
 70
     1
102
RTVSPropertyOp56
 70
     1
102
RTVSPropertyOp57
 70
     1
102
RTVSPropertyOp58
 70
     1
102
RTVSPropertyOp59
 70
     1
102
RTVSPropertyOp60
 70
     1
102
RTVSPropertyOp61
 70
     1
102
RTVSPropertyOp62
 70
     1
  0
XRECORD
  5
381C
102
{ACAD_REACTORS
330
381B
102
}
330
381B
100
AcDbXrecord
280
     1
102
RTVSPost2010Prop28
280
     0
102
RTVSPost2010PropOp28
 70
     1
102
RTVSPost2010Prop29
280
     1
102
RTVSPost2010PropOp29
 70
     1
102
RTVSPost2010Prop30
280
     1
102
RTVSPost2010PropOp30
 70
     1
102
RTVSPost2010Prop31
280
     0
102
RTVSPost2010PropOp31
 70
     1
102
RTVSPost2010Prop32
280
     0
102
RTVSPost2010PropOp32
 70
     1
102
RTVSPost2010Prop33
280
     0
102
RTVSPost2010PropOp33
 70
     1
102
RTVSPost2010Prop34
280
     0
102
RTVSPost2010PropOp34
 70
     1
102
RTVSPost2010Prop35
280
     0
102
RTVSPost2010PropOp35
 70
     1
102
RTVSPost2010Prop36
280
     0
102
RTVSPost2010PropOp36
 70
     1
102
RTVSPost2010Prop37
 90
       50
102
RTVSPost2010PropOp37
 70
     1
102
RTVSPost2010Prop38
140
0.0
102
RTVSPost2010PropOp38
 70
     1
102
RTVSPost2010Prop39
140
1.0
102
RTVSPost2010PropOp39
 70
     1
102
RTVSPost2010Prop40
 90
        0
102
RTVSPost2010PropOp40
 70
     1
102
RTVSPost2010Prop41ColorIndex
 90
       18
102
RTVSPost2010Prop41ColorRGB
 90
        0
102
RTVSPost2010PropOp41
 70
     1
102
RTVSPost2010Prop42
 90
       50
102
RTVSPost2010PropOp42
 70
     1
102
RTVSPost2010Prop43
 90
        3
102
RTVSPost2010PropOp43
 70
     1
102
RTVSPost2010Prop44ColorIndex
 90
        5
102
RTVSPost2010Prop44ColorRGB
 90
      255
102
RTVSPost2010PropOp44
 70
     1
102
RTVSPost2010Prop45
280
     0
102
RTVSPost2010PropOp45
 70
     1
102
RTVSPost2010Prop46
 90
       50
102
RTVSPost2010PropOp46
 70
     1
102
RTVSPost2010Prop47
 90
       50
102
RTVSPost2010PropOp47
 70
     1
102
RTVSPost2010Prop48
 90
       50
102
RTVSPost2010PropOp48
 70
     1
102
RTVSPost2010Prop49
280
     0
102
RTVSPost2010PropOp49
 70
     1
102
RTVSPost2010Prop50
 90
       50
102
RTVSPost2010PropOp50
 70
     1
102
RTVSPost2010Prop51ColorIndex
 90
      256
102
RTVSPost2010Prop51ColorRGB
 90
-16777216
102
RTVSPost2010PropOp51
 70
     0
102
RTVSPost2010Prop52
140
1.0
102
RTVSPost2010PropOp52
 70
     0
102
RTVSPost2010Prop53
 90
        2
102
RTVSPost2010PropOp53
 70
     1
102
RTVSPost2010Prop54
  1
strokes_ogs.tif
102
RTVSPost2010PropOp54
 70
     1
102
RTVSPost2010Prop55
280
     0
102
RTVSPost2010PropOp55
 70
     1
102
RTVSPost2010Prop56
140
1.0
102
RTVSPost2010PropOp56
 70
     1
102
RTVSPost2010Prop57
140
1.0
102
RTVSPost2010PropOp57
 70
     1
102
RTVSPropertyOp0
 70
     1
102
RTVSPropertyOp1
 70
     1
102
RTVSPropertyOp2
 70
     1
102
RTVSPropertyOp3
 70
     1
102
RTVSPropertyOp4
 70
     1
102
RTVSPropertyOp5
 70
     1
102
RTVSPropertyOp6
 70
     1
102
RTVSPropertyOp7
 70
     1
102
RTVSPropertyOp8
 70
     1
102
RTVSPropertyOp9
 70
     1
102
RTVSPropertyOp10
 70
     1
102
RTVSPropertyOp11
 70
     1
102
RTVSPropertyOp12
 70
     1
102
RTVSPropertyOp13
 70
     1
102
RTVSPropertyOp14
 70
     1
102
RTVSPropertyOp15
 70
     1
102
RTVSPropertyOp16
 70
     1
102
RTVSPropertyOp17
 70
     1
102
RTVSPropertyOp18
 70
     1
102
RTVSPropertyOp19
 70
     1
102
RTVSPropertyOp20
 70
     1
102
RTVSPropertyOp21
 70
     1
102
RTVSPropertyOp22
 70
     1
102
RTVSPropertyOp23
 70
     1
102
RTVSPropertyOp24
 70
     1
102
RTVSPropertyOp25
 70
     1
102
RTVSPropertyOp26
 70
     1
102
RTVSPropertyOp27
 70
     1
102
RTVSPropertyOp28
 70
     1
102
RTVSPropertyOp29
 70
     1
102
RTVSPropertyOp30
 70
     1
102
RTVSPropertyOp31
 70
     1
102
RTVSPropertyOp32
 70
     1
102
RTVSPropertyOp33
 70
     1
102
RTVSPropertyOp34
 70
     1
102
RTVSPropertyOp35
 70
     1
102
RTVSPropertyOp36
 70
     1
102
RTVSPropertyOp37
 70
     1
102
RTVSPropertyOp38
 70
     1
102
RTVSPropertyOp39
 70
     1
102
RTVSPropertyOp40
 70
     1
102
RTVSPropertyOp41
 70
     1
102
RTVSPropertyOp42
 70
     1
102
RTVSPropertyOp43
 70
     1
102
RTVSPropertyOp44
 70
     1
102
RTVSPropertyOp45
 70
     1
102
RTVSPropertyOp46
 70
     1
102
RTVSPropertyOp47
 70
     1
102
RTVSPropertyOp48
 70
     1
102
RTVSPropertyOp49
 70
     1
102
RTVSPropertyOp50
 70
     1
102
RTVSPropertyOp51
 70
     0
102
RTVSPropertyOp52
 70
     0
102
RTVSPropertyOp53
 70
     1
102
RTVSPropertyOp54
 70
     1
102
RTVSPropertyOp55
 70
     1
102
RTVSPropertyOp56
 70
     1
102
RTVSPropertyOp57
 70
     1
102
RTVSPropertyOp58
 70
     1
102
RTVSPropertyOp59
 70
     1
102
RTVSPropertyOp60
 70
     1
102
RTVSPropertyOp61
 70
     1
102
RTVSPropertyOp62
 70
     1
  0
XRECORD
  5
381E
102
{ACAD_REACTORS
330
381D
102
}
330
381D
100
AcDbXrecord
280
     1
102
RTVSPost2010Prop28
280
     0
102
RTVSPost2010PropOp28
 70
     1
102
RTVSPost2010Prop29
280
     1
102
RTVSPost2010PropOp29
 70
     1
102
RTVSPost2010Prop30
280
     1
102
RTVSPost2010PropOp30
 70
     1
102
RTVSPost2010Prop31
280
     0
102
RTVSPost2010PropOp31
 70
     1
102
RTVSPost2010Prop32
280
     0
102
RTVSPost2010PropOp32
 70
     1
102
RTVSPost2010Prop33
280
     0
102
RTVSPost2010PropOp33
 70
     1
102
RTVSPost2010Prop34
280
     0
102
RTVSPost2010PropOp34
 70
     1
102
RTVSPost2010Prop35
280
     0
102
RTVSPost2010PropOp35
 70
     1
102
RTVSPost2010Prop36
280
     0
102
RTVSPost2010PropOp36
 70
     1
102
RTVSPost2010Prop37
 90
       50
102
RTVSPost2010PropOp37
 70
     1
102
RTVSPost2010Prop38
140
0.0
102
RTVSPost2010PropOp38
 70
     1
102
RTVSPost2010Prop39
140
1.0
102
RTVSPost2010PropOp39
 70
     1
102
RTVSPost2010Prop40
 90
        0
102
RTVSPost2010PropOp40
 70
     1
102
RTVSPost2010Prop41ColorIndex
 90
       18
102
RTVSPost2010Prop41ColorRGB
 90
        0
102
RTVSPost2010PropOp41
 70
     1
102
RTVSPost2010Prop42
 90
       50
102
RTVSPost2010PropOp42
 70
     1
102
RTVSPost2010Prop43
 90
        3
102
RTVSPost2010PropOp43
 70
     1
102
RTVSPost2010Prop44ColorIndex
 90
        5
102
RTVSPost2010Prop44ColorRGB
 90
      255
102
RTVSPost2010PropOp44
 70
     1
102
RTVSPost2010Prop45
280
     0
102
RTVSPost2010PropOp45
 70
     1
102
RTVSPost2010Prop46
 90
       50
102
RTVSPost2010PropOp46
 70
     1
102
RTVSPost2010Prop47
 90
       50
102
RTVSPost2010PropOp47
 70
     1
102
RTVSPost2010Prop48
 90
       50
102
RTVSPost2010PropOp48
 70
     1
102
RTVSPost2010Prop49
280
     0
102
RTVSPost2010PropOp49
 70
     1
102
RTVSPost2010Prop50
 90
       50
102
RTVSPost2010PropOp50
 70
     1
102
RTVSPost2010Prop51ColorIndex
 90
      256
102
RTVSPost2010Prop51ColorRGB
 90
-16777216
102
RTVSPost2010PropOp51
 70
     0
102
RTVSPost2010Prop52
140
1.0
102
RTVSPost2010PropOp52
 70
     0
102
RTVSPost2010Prop53
 90
        2
102
RTVSPost2010PropOp53
 70
     1
102
RTVSPost2010Prop54
  1
strokes_ogs.tif
102
RTVSPost2010PropOp54
 70
     1
102
RTVSPost2010Prop55
280
     0
102
RTVSPost2010PropOp55
 70
     1
102
RTVSPost2010Prop56
140
1.0
102
RTVSPost2010PropOp56
 70
     1
102
RTVSPost2010Prop57
140
1.0
102
RTVSPost2010PropOp57
 70
     1
102
RTVSPropertyOp0
 70
     1
102
RTVSPropertyOp1
 70
     1
102
RTVSPropertyOp2
 70
     1
102
RTVSPropertyOp3
 70
     1
102
RTVSPropertyOp4
 70
     1
102
RTVSPropertyOp5
 70
     1
102
RTVSPropertyOp6
 70
     1
102
RTVSPropertyOp7
 70
     1
102
RTVSPropertyOp8
 70
     1
102
RTVSPropertyOp9
 70
     1
102
RTVSPropertyOp10
 70
     1
102
RTVSPropertyOp11
 70
     1
102
RTVSPropertyOp12
 70
     1
102
RTVSPropertyOp13
 70
     1
102
RTVSPropertyOp14
 70
     1
102
RTVSPropertyOp15
 70
     1
102
RTVSPropertyOp16
 70
     1
102
RTVSPropertyOp17
 70
     1
102
RTVSPropertyOp18
 70
     1
102
RTVSPropertyOp19
 70
     1
102
RTVSPropertyOp20
 70
     1
102
RTVSPropertyOp21
 70
     1
102
RTVSPropertyOp22
 70
     1
102
RTVSPropertyOp23
 70
     1
102
RTVSPropertyOp24
 70
     1
102
RTVSPropertyOp25
 70
     1
102
RTVSPropertyOp26
 70
     1
102
RTVSPropertyOp27
 70
     1
102
RTVSPropertyOp28
 70
     1
102
RTVSPropertyOp29
 70
     1
102
RTVSPropertyOp30
 70
     1
102
RTVSPropertyOp31
 70
     1
102
RTVSPropertyOp32
 70
     1
102
RTVSPropertyOp33
 70
     1
102
RTVSPropertyOp34
 70
     1
102
RTVSPropertyOp35
 70
     1
102
RTVSPropertyOp36
 70
     1
102
RTVSPropertyOp37
 70
     1
102
RTVSPropertyOp38
 70
     1
102
RTVSPropertyOp39
 70
     1
102
RTVSPropertyOp40
 70
     1
102
RTVSPropertyOp41
 70
     1
102
RTVSPropertyOp42
 70
     1
102
RTVSPropertyOp43
 70
     1
102
RTVSPropertyOp44
 70
     1
102
RTVSPropertyOp45
 70
     1
102
RTVSPropertyOp46
 70
     1
102
RTVSPropertyOp47
 70
     1
102
RTVSPropertyOp48
 70
     1
102
RTVSPropertyOp49
 70
     1
102
RTVSPropertyOp50
 70
     1
102
RTVSPropertyOp51
 70
     0
102
RTVSPropertyOp52
 70
     0
102
RTVSPropertyOp53
 70
     1
102
RTVSPropertyOp54
 70
     1
102
RTVSPropertyOp55
 70
     1
102
RTVSPropertyOp56
 70
     1
102
RTVSPropertyOp57
 70
     1
102
RTVSPropertyOp58
 70
     1
102
RTVSPropertyOp59
 70
     1
102
RTVSPropertyOp60
 70
     1
102
RTVSPropertyOp61
 70
     1
102
RTVSPropertyOp62
 70
     1
  0
XRECORD
  5
380C
102
{ACAD_REACTORS
330
380B
102
}
330
380B
100
AcDbXrecord
280
     1
102
RTVSPost2010Prop28
280
     0
102
RTVSPost2010PropOp28
 70
     1
102
RTVSPost2010Prop29
280
     1
102
RTVSPost2010PropOp29
 70
     1
102
RTVSPost2010Prop30
280
     1
102
RTVSPost2010PropOp30
 70
     1
102
RTVSPost2010Prop31
280
     0
102
RTVSPost2010PropOp31
 70
     1
102
RTVSPost2010Prop32
280
     0
102
RTVSPost2010PropOp32
 70
     1
102
RTVSPost2010Prop33
280
     0
102
RTVSPost2010PropOp33
 70
     1
102
RTVSPost2010Prop34
280
     0
102
RTVSPost2010PropOp34
 70
     1
102
RTVSPost2010Prop35
280
     0
102
RTVSPost2010PropOp35
 70
     1
102
RTVSPost2010Prop36
280
     0
102
RTVSPost2010PropOp36
 70
     1
102
RTVSPost2010Prop37
 90
       50
102
RTVSPost2010PropOp37
 70
     1
102
RTVSPost2010Prop38
140
0.0
102
RTVSPost2010PropOp38
 70
     1
102
RTVSPost2010Prop39
140
1.0
102
RTVSPost2010PropOp39
 70
     1
102
RTVSPost2010Prop40
 90
        0
102
RTVSPost2010PropOp40
 70
     1
102
RTVSPost2010Prop41ColorIndex
 90
       18
102
RTVSPost2010Prop41ColorRGB
 90
        0
102
RTVSPost2010PropOp41
 70
     1
102
RTVSPost2010Prop42
 90
       50
102
RTVSPost2010PropOp42
 70
     1
102
RTVSPost2010Prop43
 90
        3
102
RTVSPost2010PropOp43
 70
     1
102
RTVSPost2010Prop44ColorIndex
 90
        5
102
RTVSPost2010Prop44ColorRGB
 90
      255
102
RTVSPost2010PropOp44
 70
     1
102
RTVSPost2010Prop45
280
     0
102
RTVSPost2010PropOp45
 70
     1
102
RTVSPost2010Prop46
 90
       50
102
RTVSPost2010PropOp46
 70
     1
102
RTVSPost2010Prop47
 90
       50
102
RTVSPost2010PropOp47
 70
     1
102
RTVSPost2010Prop48
 90
       50
102
RTVSPost2010PropOp48
 70
     1
102
RTVSPost2010Prop49
280
     0
102
RTVSPost2010PropOp49
 70
     1
102
RTVSPost2010Prop50
 90
       50
102
RTVSPost2010PropOp50
 70
     1
102
RTVSPost2010Prop51ColorIndex
 90
      256
102
RTVSPost2010Prop51ColorRGB
 90
-16777216
102
RTVSPost2010PropOp51
 70
     0
102
RTVSPost2010Prop52
140
1.0
102
RTVSPost2010PropOp52
 70
     0
102
RTVSPost2010Prop53
 90
        2
102
RTVSPost2010PropOp53
 70
     1
102
RTVSPost2010Prop54
  1
strokes_ogs.tif
102
RTVSPost2010PropOp54
 70
     1
102
RTVSPost2010Prop55
280
     0
102
RTVSPost2010PropOp55
 70
     1
102
RTVSPost2010Prop56
140
1.0
102
RTVSPost2010PropOp56
 70
     1
102
RTVSPost2010Prop57
140
1.0
102
RTVSPost2010PropOp57
 70
     1
102
RTVSPropertyOp0
 70
     1
102
RTVSPropertyOp1
 70
     1
102
RTVSPropertyOp2
 70
     1
102
RTVSPropertyOp3
 70
     1
102
RTVSPropertyOp4
 70
     1
102
RTVSPropertyOp5
 70
     1
102
RTVSPropertyOp6
 70
     1
102
RTVSPropertyOp7
 70
     1
102
RTVSPropertyOp8
 70
     1
102
RTVSPropertyOp9
 70
     1
102
RTVSPropertyOp10
 70
     1
102
RTVSPropertyOp11
 70
     1
102
RTVSPropertyOp12
 70
     1
102
RTVSPropertyOp13
 70
     1
102
RTVSPropertyOp14
 70
     1
102
RTVSPropertyOp15
 70
     1
102
RTVSPropertyOp16
 70
     1
102
RTVSPropertyOp17
 70
     1
102
RTVSPropertyOp18
 70
     1
102
RTVSPropertyOp19
 70
     1
102
RTVSPropertyOp20
 70
     1
102
RTVSPropertyOp21
 70
     1
102
RTVSPropertyOp22
 70
     1
102
RTVSPropertyOp23
 70
     1
102
RTVSPropertyOp24
 70
     1
102
RTVSPropertyOp25
 70
     1
102
RTVSPropertyOp26
 70
     1
102
RTVSPropertyOp27
 70
     1
102
RTVSPropertyOp28
 70
     1
102
RTVSPropertyOp29
 70
     1
102
RTVSPropertyOp30
 70
     1
102
RTVSPropertyOp31
 70
     1
102
RTVSPropertyOp32
 70
     1
102
RTVSPropertyOp33
 70
     1
102
RTVSPropertyOp34
 70
     1
102
RTVSPropertyOp35
 70
     1
102
RTVSPropertyOp36
 70
     1
102
RTVSPropertyOp37
 70
     1
102
RTVSPropertyOp38
 70
     1
102
RTVSPropertyOp39
 70
     1
102
RTVSPropertyOp40
 70
     1
102
RTVSPropertyOp41
 70
     1
102
RTVSPropertyOp42
 70
     1
102
RTVSPropertyOp43
 70
     1
102
RTVSPropertyOp44
 70
     1
102
RTVSPropertyOp45
 70
     1
102
RTVSPropertyOp46
 70
     1
102
RTVSPropertyOp47
 70
     1
102
RTVSPropertyOp48
 70
     1
102
RTVSPropertyOp49
 70
     1
102
RTVSPropertyOp50
 70
     1
102
RTVSPropertyOp51
 70
     0
102
RTVSPropertyOp52
 70
     0
102
RTVSPropertyOp53
 70
     1
102
RTVSPropertyOp54
 70
     1
102
RTVSPropertyOp55
 70
     1
102
RTVSPropertyOp56
 70
     1
102
RTVSPropertyOp57
 70
     1
102
RTVSPropertyOp58
 70
     1
102
RTVSPropertyOp59
 70
     1
102
RTVSPropertyOp60
 70
     1
102
RTVSPropertyOp61
 70
     1
102
RTVSPropertyOp62
 70
     1
  0
XRECORD
  5
3800
102
{ACAD_REACTORS
330
37FF
102
}
330
37FF
100
AcDbXrecord
280
     1
102
RTVSPost2010Prop28
280
     0
102
RTVSPost2010PropOp28
 70
     1
102
RTVSPost2010Prop29
280
     1
102
RTVSPost2010PropOp29
 70
     1
102
RTVSPost2010Prop30
280
     1
102
RTVSPost2010PropOp30
 70
     1
102
RTVSPost2010Prop31
280
     0
102
RTVSPost2010PropOp31
 70
     1
102
RTVSPost2010Prop32
280
     0
102
RTVSPost2010PropOp32
 70
     1
102
RTVSPost2010Prop33
280
     0
102
RTVSPost2010PropOp33
 70
     1
102
RTVSPost2010Prop34
280
     0
102
RTVSPost2010PropOp34
 70
     1
102
RTVSPost2010Prop35
280
     0
102
RTVSPost2010PropOp35
 70
     1
102
RTVSPost2010Prop36
280
     0
102
RTVSPost2010PropOp36
 70
     1
102
RTVSPost2010Prop37
 90
       50
102
RTVSPost2010PropOp37
 70
     1
102
RTVSPost2010Prop38
140
0.0
102
RTVSPost2010PropOp38
 70
     1
102
RTVSPost2010Prop39
140
1.0
102
RTVSPost2010PropOp39
 70
     1
102
RTVSPost2010Prop40
 90
        0
102
RTVSPost2010PropOp40
 70
     1
102
RTVSPost2010Prop41ColorIndex
 90
       18
102
RTVSPost2010Prop41ColorRGB
 90
        0
102
RTVSPost2010PropOp41
 70
     1
102
RTVSPost2010Prop42
 90
       50
102
RTVSPost2010PropOp42
 70
     1
102
RTVSPost2010Prop43
 90
        3
102
RTVSPost2010PropOp43
 70
     1
102
RTVSPost2010Prop44ColorIndex
 90
        5
102
RTVSPost2010Prop44ColorRGB
 90
      255
102
RTVSPost2010PropOp44
 70
     1
102
RTVSPost2010Prop45
280
     0
102
RTVSPost2010PropOp45
 70
     1
102
RTVSPost2010Prop46
 90
       50
102
RTVSPost2010PropOp46
 70
     1
102
RTVSPost2010Prop47
 90
       50
102
RTVSPost2010PropOp47
 70
     1
102
RTVSPost2010Prop48
 90
       50
102
RTVSPost2010PropOp48
 70
     1
102
RTVSPost2010Prop49
280
     0
102
RTVSPost2010PropOp49
 70
     1
102
RTVSPost2010Prop50
 90
       50
102
RTVSPost2010PropOp50
 70
     1
102
RTVSPost2010Prop51ColorIndex
 90
      256
102
RTVSPost2010Prop51ColorRGB
 90
-16777216
102
RTVSPost2010PropOp51
 70
     0
102
RTVSPost2010Prop52
140
1.0
102
RTVSPost2010PropOp52
 70
     0
102
RTVSPost2010Prop53
 90
        2
102
RTVSPost2010PropOp53
 70
     1
102
RTVSPost2010Prop54
  1
strokes_ogs.tif
102
RTVSPost2010PropOp54
 70
     1
102
RTVSPost2010Prop55
280
     0
102
RTVSPost2010PropOp55
 70
     1
102
RTVSPost2010Prop56
140
1.0
102
RTVSPost2010PropOp56
 70
     1
102
RTVSPost2010Prop57
140
1.0
102
RTVSPost2010PropOp57
 70
     1
102
RTVSPropertyOp0
 70
     1
102
RTVSPropertyOp1
 70
     1
102
RTVSPropertyOp2
 70
     1
102
RTVSPropertyOp3
 70
     1
102
RTVSPropertyOp4
 70
     1
102
RTVSPropertyOp5
 70
     1
102
RTVSPropertyOp6
 70
     1
102
RTVSPropertyOp7
 70
     1
102
RTVSPropertyOp8
 70
     1
102
RTVSPropertyOp9
 70
     1
102
RTVSPropertyOp10
 70
     1
102
RTVSPropertyOp11
 70
     1
102
RTVSPropertyOp12
 70
     1
102
RTVSPropertyOp13
 70
     1
102
RTVSPropertyOp14
 70
     1
102
RTVSPropertyOp15
 70
     1
102
RTVSPropertyOp16
 70
     1
102
RTVSPropertyOp17
 70
     1
102
RTVSPropertyOp18
 70
     1
102
RTVSPropertyOp19
 70
     1
102
RTVSPropertyOp20
 70
     1
102
RTVSPropertyOp21
 70
     1
102
RTVSPropertyOp22
 70
     1
102
RTVSPropertyOp23
 70
     1
102
RTVSPropertyOp24
 70
     1
102
RTVSPropertyOp25
 70
     1
102
RTVSPropertyOp26
 70
     1
102
RTVSPropertyOp27
 70
     1
102
RTVSPropertyOp28
 70
     1
102
RTVSPropertyOp29
 70
     1
102
RTVSPropertyOp30
 70
     1
102
RTVSPropertyOp31
 70
     1
102
RTVSPropertyOp32
 70
     1
102
RTVSPropertyOp33
 70
     1
102
RTVSPropertyOp34
 70
     1
102
RTVSPropertyOp35
 70
     1
102
RTVSPropertyOp36
 70
     1
102
RTVSPropertyOp37
 70
     1
102
RTVSPropertyOp38
 70
     1
102
RTVSPropertyOp39
 70
     1
102
RTVSPropertyOp40
 70
     1
102
RTVSPropertyOp41
 70
     1
102
RTVSPropertyOp42
 70
     1
102
RTVSPropertyOp43
 70
     1
102
RTVSPropertyOp44
 70
     1
102
RTVSPropertyOp45
 70
     1
102
RTVSPropertyOp46
 70
     1
102
RTVSPropertyOp47
 70
     1
102
RTVSPropertyOp48
 70
     1
102
RTVSPropertyOp49
 70
     1
102
RTVSPropertyOp50
 70
     1
102
RTVSPropertyOp51
 70
     0
102
RTVSPropertyOp52
 70
     0
102
RTVSPropertyOp53
 70
     1
102
RTVSPropertyOp54
 70
     1
102
RTVSPropertyOp55
 70
     1
102
RTVSPropertyOp56
 70
     1
102
RTVSPropertyOp57
 70
     1
102
RTVSPropertyOp58
 70
     1
102
RTVSPropertyOp59
 70
     1
102
RTVSPropertyOp60
 70
     1
102
RTVSPropertyOp61
 70
     1
102
RTVSPropertyOp62
 70
     1
  0
XRECORD
  5
3820
102
{ACAD_REACTORS
330
381F
102
}
330
381F
100
AcDbXrecord
280
     1
102
RTVSPost2010Prop28
280
     0
102
RTVSPost2010PropOp28
 70
     1
102
RTVSPost2010Prop29
280
     1
102
RTVSPost2010PropOp29
 70
     1
102
RTVSPost2010Prop30
280
     1
102
RTVSPost2010PropOp30
 70
     1
102
RTVSPost2010Prop31
280
     0
102
RTVSPost2010PropOp31
 70
     1
102
RTVSPost2010Prop32
280
     0
102
RTVSPost2010PropOp32
 70
     1
102
RTVSPost2010Prop33
280
     0
102
RTVSPost2010PropOp33
 70
     1
102
RTVSPost2010Prop34
280
     0
102
RTVSPost2010PropOp34
 70
     1
102
RTVSPost2010Prop35
280
     0
102
RTVSPost2010PropOp35
 70
     1
102
RTVSPost2010Prop36
280
     0
102
RTVSPost2010PropOp36
 70
     1
102
RTVSPost2010Prop37
 90
       50
102
RTVSPost2010PropOp37
 70
     1
102
RTVSPost2010Prop38
140
0.0
102
RTVSPost2010PropOp38
 70
     1
102
RTVSPost2010Prop39
140
1.0
102
RTVSPost2010PropOp39
 70
     1
102
RTVSPost2010Prop40
 90
        0
102
RTVSPost2010PropOp40
 70
     1
102
RTVSPost2010Prop41ColorIndex
 90
       18
102
RTVSPost2010Prop41ColorRGB
 90
        0
102
RTVSPost2010PropOp41
 70
     1
102
RTVSPost2010Prop42
 90
       50
102
RTVSPost2010PropOp42
 70
     1
102
RTVSPost2010Prop43
 90
        3
102
RTVSPost2010PropOp43
 70
     1
102
RTVSPost2010Prop44ColorIndex
 90
        5
102
RTVSPost2010Prop44ColorRGB
 90
      255
102
RTVSPost2010PropOp44
 70
     1
102
RTVSPost2010Prop45
280
     0
102
RTVSPost2010PropOp45
 70
     1
102
RTVSPost2010Prop46
 90
       50
102
RTVSPost2010PropOp46
 70
     1
102
RTVSPost2010Prop47
 90
       50
102
RTVSPost2010PropOp47
 70
     1
102
RTVSPost2010Prop48
 90
       50
102
RTVSPost2010PropOp48
 70
     1
102
RTVSPost2010Prop49
280
     0
102
RTVSPost2010PropOp49
 70
     1
102
RTVSPost2010Prop50
 90
       50
102
RTVSPost2010PropOp50
 70
     1
102
RTVSPost2010Prop51ColorIndex
 90
      256
102
RTVSPost2010Prop51ColorRGB
 90
-16777216
102
RTVSPost2010PropOp51
 70
     0
102
RTVSPost2010Prop52
140
1.0
102
RTVSPost2010PropOp52
 70
     0
102
RTVSPost2010Prop53
 90
        2
102
RTVSPost2010PropOp53
 70
     1
102
RTVSPost2010Prop54
  1
strokes_ogs.tif
102
RTVSPost2010PropOp54
 70
     1
102
RTVSPost2010Prop55
280
     0
102
RTVSPost2010PropOp55
 70
     1
102
RTVSPost2010Prop56
140
1.0
102
RTVSPost2010PropOp56
 70
     1
102
RTVSPost2010Prop57
140
1.0
102
RTVSPost2010PropOp57
 70
     1
102
RTVSPropertyOp0
 70
     1
102
RTVSPropertyOp1
 70
     1
102
RTVSPropertyOp2
 70
     1
102
RTVSPropertyOp3
 70
     1
102
RTVSPropertyOp4
 70
     1
102
RTVSPropertyOp5
 70
     1
102
RTVSPropertyOp6
 70
     1
102
RTVSPropertyOp7
 70
     1
102
RTVSPropertyOp8
 70
     1
102
RTVSPropertyOp9
 70
     1
102
RTVSPropertyOp10
 70
     1
102
RTVSPropertyOp11
 70
     1
102
RTVSPropertyOp12
 70
     1
102
RTVSPropertyOp13
 70
     1
102
RTVSPropertyOp14
 70
     1
102
RTVSPropertyOp15
 70
     1
102
RTVSPropertyOp16
 70
     1
102
RTVSPropertyOp17
 70
     1
102
RTVSPropertyOp18
 70
     1
102
RTVSPropertyOp19
 70
     1
102
RTVSPropertyOp20
 70
     1
102
RTVSPropertyOp21
 70
     1
102
RTVSPropertyOp22
 70
     1
102
RTVSPropertyOp23
 70
     1
102
RTVSPropertyOp24
 70
     1
102
RTVSPropertyOp25
 70
     1
102
RTVSPropertyOp26
 70
     1
102
RTVSPropertyOp27
 70
     1
102
RTVSPropertyOp28
 70
     1
102
RTVSPropertyOp29
 70
     1
102
RTVSPropertyOp30
 70
     1
102
RTVSPropertyOp31
 70
     1
102
RTVSPropertyOp32
 70
     1
102
RTVSPropertyOp33
 70
     1
102
RTVSPropertyOp34
 70
     1
102
RTVSPropertyOp35
 70
     1
102
RTVSPropertyOp36
 70
     1
102
RTVSPropertyOp37
 70
     1
102
RTVSPropertyOp38
 70
     1
102
RTVSPropertyOp39
 70
     1
102
RTVSPropertyOp40
 70
     1
102
RTVSPropertyOp41
 70
     1
102
RTVSPropertyOp42
 70
     1
102
RTVSPropertyOp43
 70
     1
102
RTVSPropertyOp44
 70
     1
102
RTVSPropertyOp45
 70
     1
102
RTVSPropertyOp46
 70
     1
102
RTVSPropertyOp47
 70
     1
102
RTVSPropertyOp48
 70
     1
102
RTVSPropertyOp49
 70
     1
102
RTVSPropertyOp50
 70
     1
102
RTVSPropertyOp51
 70
     0
102
RTVSPropertyOp52
 70
     0
102
RTVSPropertyOp53
 70
     1
102
RTVSPropertyOp54
 70
     1
102
RTVSPropertyOp55
 70
     1
102
RTVSPropertyOp56
 70
     1
102
RTVSPropertyOp57
 70
     1
102
RTVSPropertyOp58
 70
     1
102
RTVSPropertyOp59
 70
     1
102
RTVSPropertyOp60
 70
     1
102
RTVSPropertyOp61
 70
     1
102
RTVSPropertyOp62
 70
     1
  0
ENDSEC
  0
EOF
