  0
SECTION
  2
HEADER
  9
$ACADVER
  1
AC1015
  9
$ACADMAINTVER
 70
    18
  9
$DWGCODEPAGE
  3
ANSI_1252
  9
$INSBASE
 10
0.0
 20
0.0
 30
0.0
  9
$EXTMIN
 10
-220.1193230088327
 20
-253.0001674497036
 30
-0.0015258207003583
  9
$EXTMAX
 10
296.3891609902368
 20
268.6169592766289
 30
0.0000000349246037
  9
$LIMMIN
 10
0.0
 20
0.0
  9
$LIMMAX
 10
420.0
 20
297.0
  9
$ORTHOMODE
 70
     0
  9
$REGENMODE
 70
     1
  9
$FILLMODE
 70
     1
  9
$QTEXTMODE
 70
     0
  9
$MIRRTEXT
 70
     0
  9
$LTSCALE
 40
1.0
  9
$ATTMODE
 70
     1
  9
$TEXTSIZE
 40
2.5
  9
$TRACEWID
 40
1.0
  9
$TEXTSTYLE
  7
Standard
  9
$CLAYER
  8
0
  9
$CELTYPE
  6
ByLayer
  9
$CECOLOR
 62
   256
  9
$CELTSCALE
 40
1.0
  9
$DISPSILH
 70
     0
  9
$DIMSCALE
 40
1.0
  9
$DIMASZ
 40
2.5
  9
$DIMEXO
 40
0.625
  9
$DIMDLI
 40
3.75
  9
$DIMRND
 40
0.0
  9
$DIMDLE
 40
0.0
  9
$DIMEXE
 40
1.25
  9
$DIMTP
 40
0.0
  9
$DIMTM
 40
0.0
  9
$DIMTXT
 40
2.5
  9
$DIMCEN
 40
2.5
  9
$DIMTSZ
 40
0.0
  9
$DIMTOL
 70
     0
  9
$DIMLIM
 70
     0
  9
$DIMTIH
 70
     0
  9
$DIMTOH
 70
     0
  9
$DIMSE1
 70
     0
  9
$DIMSE2
 70
     0
  9
$DIMTAD
 70
     1
  9
$DIMZIN
 70
     8
  9
$DIMBLK
  1

  9
$DIMASO
 70
     1
  9
$DIMSHO
 70
     1
  9
$DIMPOST
  1

  9
$DIMAPOST
  1

  9
$DIMALT
 70
     0
  9
$DIMALTD
 70
     3
  9
$DIMALTF
 40
0.03937007874016
  9
$DIMLFAC
 40
1.0
  9
$DIMTOFL
 70
     1
  9
$DIMTVP
 40
0.0
  9
$DIMTIX
 70
     0
  9
$DIMSOXD
 70
     0
  9
$DIMSAH
 70
     0
  9
$DIMBLK1
  1

  9
$DIMBLK2
  1

  9
$DIMSTYLE
  2
ISO-25
  9
$DIMCLRD
 70
     0
  9
$DIMCLRE
 70
     0
  9
$DIMCLRT
 70
     0
  9
$DIMTFAC
 40
1.0
  9
$DIMGAP
 40
0.625
  9
$DIMJUST
 70
     0
  9
$DIMSD1
 70
     0
  9
$DIMSD2
 70
     0
  9
$DIMTOLJ
 70
     0
  9
$DIMTZIN
 70
     8
  9
$DIMALTZ
 70
     0
  9
$DIMALTTZ
 70
     0
  9
$DIMUPT
 70
     0
  9
$DIMDEC
 70
     2
  9
$DIMTDEC
 70
     2
  9
$DIMALTU
 70
     2
  9
$DIMALTTD
 70
     3
  9
$DIMTXSTY
  7
Standard
  9
$DIMAUNIT
 70
     0
  9
$DIMADEC
 70
     0
  9
$DIMALTRND
 40
0.0
  9
$DIMAZIN
 70
     0
  9
$DIMDSEP
 70
    44
  9
$DIMATFIT
 70
     3
  9
$DIMFRAC
 70
     0
  9
$DIMLDRBLK
  1

  9
$DIMLUNIT
 70
     2
  9
$DIMLWD
 70
    -2
  9
$DIMLWE
 70
    -2
  9
$DIMTMOVE
 70
     0
  9
$LUNITS
 70
     2
  9
$LUPREC
 70
     4
  9
$SKETCHINC
 40
1.0
  9
$FILLETRAD
 40
0.0
  9
$AUNITS
 70
     0
  9
$AUPREC
 70
     0
  9
$MENU
  1
.
  9
$ELEVATION
 40
0.0
  9
$PELEVATION
 40
0.0
  9
$THICKNESS
 40
0.0
  9
$LIMCHECK
 70
     0
  9
$CHAMFERA
 40
0.0
  9
$CHAMFERB
 40
0.0
  9
$CHAMFERC
 40
0.0
  9
$CHAMFERD
 40
0.0
  9
$SKPOLY
 70
     0
  9
$TDCREATE
 40
2460398.356956019
  9
$TDUCREATE
 40
2460398.065289352
  9
$TDUPDATE
 40
2460398.374687500
  9
$TDUUPDATE
 40
2460398.083020833
  9
$TDINDWG
 40
0.0077662037
  9
$TDUSRTIMER
 40
0.0077662037
  9
$USRTIMER
 70
     1
  9
$ANGBASE
 50
0.0
  9
$ANGDIR
 70
     0
  9
$PDMODE
 70
     0
  9
$PDSIZE
 40
0.0
  9
$PLINEWID
 40
0.0
  9
$SPLFRAME
 70
     0
  9
$SPLINETYPE
 70
     6
  9
$SPLINESEGS
 70
     8
  9
$HANDSEED
  5
9136
  9
$SURFTAB1
 70
     6
  9
$SURFTAB2
 70
     6
  9
$SURFTYPE
 70
     6
  9
$SURFU
 70
     6
  9
$SURFV
 70
     6
  9
$UCSBASE
  2

  9
$UCSNAME
  2

  9
$UCSORG
 10
0.0
 20
0.0
 30
0.0
  9
$UCSXDIR
 10
1.0
 20
0.0
 30
0.0
  9
$UCSYDIR
 10
0.0
 20
1.0
 30
0.0
  9
$UCSORTHOREF
  2

  9
$UCSORTHOVIEW
 70
     0
  9
$UCSORGTOP
 10
0.0
 20
0.0
 30
0.0
  9
$UCSORGBOTTOM
 10
0.0
 20
0.0
 30
0.0
  9
$UCSORGLEFT
 10
0.0
 20
0.0
 30
0.0
  9
$UCSORGRIGHT
 10
0.0
 20
0.0
 30
0.0
  9
$UCSORGFRONT
 10
0.0
 20
0.0
 30
0.0
  9
$UCSORGBACK
 10
0.0
 20
0.0
 30
0.0
  9
$PUCSBASE
  2

  9
$PUCSNAME
  2

  9
$PUCSORG
 10
0.0
 20
0.0
 30
0.0
  9
$PUCSXDIR
 10
1.0
 20
0.0
 30
0.0
  9
$PUCSYDIR
 10
0.0
 20
1.0
 30
0.0
  9
$PUCSORTHOREF
  2

  9
$PUCSORTHOVIEW
 70
     0
  9
$PUCSORGTOP
 10
0.0
 20
0.0
 30
0.0
  9
$PUCSORGBOTTOM
 10
0.0
 20
0.0
 30
0.0
  9
$PUCSORGLEFT
 10
0.0
 20
0.0
 30
0.0
  9
$PUCSORGRIGHT
 10
0.0
 20
0.0
 30
0.0
  9
$PUCSORGFRONT
 10
0.0
 20
0.0
 30
0.0
  9
$PUCSORGBACK
 10
0.0
 20
0.0
 30
0.0
  9
$USERI1
 70
     0
  9
$USERI2
 70
     0
  9
$USERI3
 70
     0
  9
$USERI4
 70
     0
  9
$USERI5
 70
     0
  9
$USERR1
 40
0.0
  9
$USERR2
 40
0.0
  9
$USERR3
 40
0.0
  9
$USERR4
 40
0.0
  9
$USERR5
 40
0.0
  9
$WORLDVIEW
 70
     1
  9
$SHADEDGE
 70
     3
  9
$SHADEDIF
 70
    70
  9
$TILEMODE
 70
     1
  9
$MAXACTVP
 70
    48
  9
$PINSBASE
 10
0.0
 20
0.0
 30
0.0
  9
$PLIMCHECK
 70
     0
  9
$PEXTMIN
 10
0.0
 20
0.0
 30
0.0
  9
$PEXTMAX
 10
0.0
 20
0.0
 30
0.0
  9
$PLIMMIN
 10
0.0
 20
0.0
  9
$PLIMMAX
 10
12.0
 20
9.0
  9
$UNITMODE
 70
     0
  9
$VISRETAIN
 70
     1
  9
$PLINEGEN
 70
     0
  9
$PSLTSCALE
 70
     1
  9
$TREEDEPTH
 70
  3020
  9
$CMLSTYLE
  2
Standard
  9
$CMLJUST
 70
     0
  9
$CMLSCALE
 40
20.0
  9
$PROXYGRAPHICS
 70
     1
  9
$MEASUREMENT
 70
     1
  9
$CELWEIGHT
370
    -1
  9
$ENDCAPS
280
     0
  9
$JOINSTYLE
280
     0
  9
$LWDISPLAY
290
     0
  9
$INSUNITS
 70
     4
  9
$HYPERLINKBASE
  1

  9
$STYLESHEET
  1

  9
$XEDIT
290
     1
  9
$CEPSNTYPE
380
     0
  9
$PSTYLEMODE
290
     1
  9
$FINGERPRINTGUID
  2
{6C1266EE-7BC1-BF4A-B059-A6E7702B10CE}
  9
$VERSIONGUID
  2
{A189006A-4744-D045-A576-23E94474CEC8}
  9
$EXTNAMES
290
     1
  9
$PSVPSCALE
 40
0.0
  9
$OLESTARTUP
290
     0
  0
ENDSEC
  0
SECTION
  2
CLASSES
  0
CLASS
  1
ACDBDICTIONARYWDFLT
  2
AcDbDictionaryWithDefault
  3
ObjectDBX Classes
 90
        0
280
     0
281
     0
  0
CLASS
  1
ACDBPLACEHOLDER
  2
AcDbPlaceHolder
  3
ObjectDBX Classes
 90
        0
280
     0
281
     0
  0
CLASS
  1
LAYOUT
  2
AcDbLayout
  3
ObjectDBX Classes
 90
        0
280
     0
281
     0
  0
CLASS
  1
DICTIONARYVAR
  2
AcDbDictionaryVar
  3
ObjectDBX Classes
 90
        0
280
     0
281
     0
  0
CLASS
  1
TABLESTYLE
  2
AcDbTableStyle
  3
ObjectDBX Classes
 90
     4095
280
     0
281
     0
  0
CLASS
  1
MATERIAL
  2
AcDbMaterial
  3
ObjectDBX Classes
 90
     1153
280
     0
281
     0
  0
CLASS
  1
VISUALSTYLE
  2
AcDbVisualStyle
  3
ObjectDBX Classes
 90
     4095
280
     0
281
     0
  0
CLASS
  1
SCALE
  2
AcDbScale
  3
ObjectDBX Classes
 90
     1153
280
     0
281
     0
  0
CLASS
  1
MLEADERSTYLE
  2
AcDbMLeaderStyle
  3
ACDB_MLEADERSTYLE_CLASS
 90
     4095
280
     0
281
     0
  0
CLASS
  1
CELLSTYLEMAP
  2
AcDbCellStyleMap
  3
ObjectDBX Classes
 90
     1152
280
     0
281
     0
  0
CLASS
  1
EXACXREFPANELOBJECT
  2
ExAcXREFPanelObject
  3
EXAC_ESW
 90
    33793
280
     0
281
     0
  0
CLASS
  1
NPOCOLLECTION
  2
AcDbImpNonPersistentObjectsCollection
  3
ObjectDBX Classes
 90
    33921
280
     0
281
     0
  0
CLASS
  1
LAYER_INDEX
  2
AcDbLayerIndex
  3
ObjectDBX Classes
 90
    32768
280
     0
281
     0
  0
CLASS
  1
SPATIAL_INDEX
  2
AcDbSpatialIndex
  3
ObjectDBX Classes
 90
    32768
280
     0
281
     0
  0
CLASS
  1
IDBUFFER
  2
AcDbIdBuffer
  3
ObjectDBX Classes
 90
    32768
280
     0
281
     0
  0
CLASS
  1
ACDBSECTIONVIEWSTYLE
  2
AcDbSectionViewStyle
  3
ObjectDBX Classes
 90
     1025
280
     0
281
     0
  0
CLASS
  1
ACDBDETAILVIEWSTYLE
  2
AcDbDetailViewStyle
  3
ObjectDBX Classes
 90
     1025
280
     0
281
     0
  0
CLASS
  1
XRECORD
  2
AcDbXrecord
  3
ObjectDBX Classes
 90
        0
280
     0
281
     0
  0
ENDSEC
  0
SECTION
  2
TABLES
  0
TABLE
  2
VPORT
  5
8
102
{ACAD_XDICTIONARY
360
9044
102
}
330
0
100
AcDbSymbolTable
 70
     1
  0
VPORT
  5
EA
330
8
100
AcDbSymbolTableRecord
100
AcDbViewportTableRecord
  2
*Active
 70
     0
 10
0.0
 20
0.0
 11
1.0
 21
1.0
 12
38.13491899070212
 22
7.808395913462646
 13
0.0
 23
0.0
 14
10.0
 24
10.0
 15
10.0
 25
10.0
 16
0.0
 26
0.0
 36
1.0
 17
0.0
 27
0.0
 37
0.0
 40
557.9304926873362
 41
0.9846153846153844
 42
50.0
 43
0.0
 44
0.0
 50
0.0
 51
0.0
 71
     0
 72
  1000
 73
     1
 74
     3
 75
     0
 76
     1
 77
     0
 78
     0
281
     0
 65
     1
110
0.0
120
0.0
130
0.0
111
1.0
121
0.0
131
0.0
112
0.0
122
1.0
132
0.0
 79
     0
146
0.0
1001
ACAD_NAV_VCDISPLAY
1070
     3
  0
ENDTAB
  0
TABLE
  2
LTYPE
  5
5
330
0
100
AcDbSymbolTable
 70
     1
  0
LTYPE
  5
14
330
5
100
AcDbSymbolTableRecord
100
AcDbLinetypeTableRecord
  2
ByBlock
 70
     0
  3

 72
    65
 73
     0
 40
0.0
  0
LTYPE
  5
15
330
5
100
AcDbSymbolTableRecord
100
AcDbLinetypeTableRecord
  2
ByLayer
 70
     0
  3

 72
    65
 73
     0
 40
0.0
  0
LTYPE
  5
16
330
5
100
AcDbSymbolTableRecord
100
AcDbLinetypeTableRecord
  2
Continuous
 70
     0
  3
Solid line
 72
    65
 73
     0
 40
0.0
  0
ENDTAB
  0
TABLE
  2
LAYER
  5
2
102
{ACAD_XDICTIONARY
360
1FF
102
}
330
0
100
AcDbSymbolTable
 70
     1
  0
LAYER
  5
10
102
{ACAD_XDICTIONARY
360
13C
102
}
330
2
100
AcDbSymbolTableRecord
100
AcDbLayerTableRecord
  2
0
 70
     0
 62
     7
  6
Continuous
370
    -3
390
F
  0
ENDTAB
  0
TABLE
  2
STYLE
  5
3
330
0
100
AcDbSymbolTable
 70
     1
  0
STYLE
  5
11
330
3
100
AcDbSymbolTableRecord
100
AcDbTextStyleTableRecord
  2
Standard
 70
     0
 40
0.0
 41
1.0
 50
0.0
 71
     0
 42
2.5
  3
arial.ttf
  4

1001
ACAD
1000
Arial
1071
       34
  0
ENDTAB
  0
TABLE
  2
VIEW
  5
6
330
0
100
AcDbSymbolTable
 70
     0
  0
ENDTAB
  0
TABLE
  2
UCS
  5
7
330
0
100
AcDbSymbolTable
 70
     0
  0
ENDTAB
  0
TABLE
  2
APPID
  5
9
330
0
100
AcDbSymbolTable
 70
     8
  0
APPID
  5
12
330
9
100
AcDbSymbolTableRecord
100
AcDbRegAppTableRecord
  2
ACAD
 70
     0
  0
APPID
  5
9E
330
9
100
AcDbSymbolTableRecord
100
AcDbRegAppTableRecord
  2
ACAD_PSEXT
 70
     0
  0
APPID
  5
133
330
9
100
AcDbSymbolTableRecord
100
AcDbRegAppTableRecord
  2
AcadAnnoPO
 70
     0
  0
APPID
  5
134
330
9
100
AcDbSymbolTableRecord
100
AcDbRegAppTableRecord
  2
AcadAnnotative
 70
     0
  0
APPID
  5
135
330
9
100
AcDbSymbolTableRecord
100
AcDbRegAppTableRecord
  2
ACAD_DSTYLE_DIMJAG
 70
     0
  0
APPID
  5
136
330
9
100
AcDbSymbolTableRecord
100
AcDbRegAppTableRecord
  2
ACAD_DSTYLE_DIMTALN
 70
     0
  0
APPID
  5
165
330
9
100
AcDbSymbolTableRecord
100
AcDbRegAppTableRecord
  2
ACAD_MLEADERVER
 70
     0
  0
APPID
  5
217
330
9
100
AcDbSymbolTableRecord
100
AcDbRegAppTableRecord
  2
ACAD_NAV_VCDISPLAY
 70
     0
  0
ENDTAB
  0
TABLE
  2
DIMSTYLE
  5
A
330
0
100
AcDbSymbolTable
 70
     1
100
AcDbDimStyleTable
 71
     0
  0
DIMSTYLE
105
27
330
A
100
AcDbSymbolTableRecord
100
AcDbDimStyleTableRecord
  2
ISO-25
 70
     0
 41
2.5
 42
0.625
 43
3.75
 44
1.25
 73
     0
 74
     0
 77
     1
 78
     8
140
2.5
141
2.5
143
0.03937007874016
147
0.625
171
     3
172
     1
271
     2
272
     2
274
     3
278
    44
283
     0
284
     8
340
11
  0
ENDTAB
  0
TABLE
  2
BLOCK_RECORD
  5
1
330
0
100
AcDbSymbolTable
 70
     7
  0
BLOCK_RECORD
  5
1F
102
{ACAD_XDICTIONARY
360
1CE
102
}
330
1
100
AcDbSymbolTableRecord
100
AcDbBlockTableRecord
  2
*Model_Space
340
22
  0
BLOCK_RECORD
  5
D2
102
{ACAD_XDICTIONARY
360
8FF7
102
}
330
1
100
AcDbSymbolTableRecord
100
AcDbBlockTableRecord
  2
*Paper_Space
340
D3
  0
BLOCK_RECORD
  5
D6
102
{ACAD_XDICTIONARY
360
8FF9
102
}
330
1
100
AcDbSymbolTableRecord
100
AcDbBlockTableRecord
  2
*Paper_Space0
340
D7
  0
BLOCK_RECORD
  5
8E71
330
1
100
AcDbSymbolTableRecord
100
AcDbBlockTableRecord
  2
SAE380_100_2-Front
340
0
102
{BLKREFS
331
8FED
102
}
  0
BLOCK_RECORD
  5
8EC3
330
1
100
AcDbSymbolTableRecord
100
AcDbBlockTableRecord
  2
SAE380_100_2-Left
340
0
102
{BLKREFS
331
8FEE
102
}
  0
BLOCK_RECORD
  5
8EE2
330
1
100
AcDbSymbolTableRecord
100
AcDbBlockTableRecord
  2
SAE380_100_2-Right
340
0
102
{BLKREFS
331
8FEF
102
}
  0
BLOCK_RECORD
  5
8F01
330
1
100
AcDbSymbolTableRecord
100
AcDbBlockTableRecord
  2
SAE380_100_2-Top
340
0
102
{BLKREFS
331
8FF0
102
}
  0
BLOCK_RECORD
  5
8F30
330
1
100
AcDbSymbolTableRecord
100
AcDbBlockTableRecord
  2
SAE380_100_2-Bottom
340
0
102
{BLKREFS
331
8FF1
102
}
  0
BLOCK_RECORD
  5
8F5B
330
1
100
AcDbSymbolTableRecord
100
AcDbBlockTableRecord
  2
SAE380_100_2-ISO
340
0
102
{BLKREFS
331
8FF2
102
}
  0
ENDTAB
  0
ENDSEC
  0
SECTION
  2
BLOCKS
  0
BLOCK
  5
20
330
1F
100
AcDbEntity
  8
0
100
AcDbBlockBegin
  2
*Model_Space
 70
     0
 10
0.0
 20
0.0
 30
0.0
  3
*Model_Space
  1

  0
ENDBLK
  5
21
330
1F
100
AcDbEntity
  8
0
100
AcDbBlockEnd
  0
BLOCK
  5
D4
330
D2
100
AcDbEntity
 67
     1
  8
0
100
AcDbBlockBegin
  2
*Paper_Space
 70
     0
 10
0.0
 20
0.0
 30
0.0
  3
*Paper_Space
  1

  0
ENDBLK
  5
D5
330
D2
100
AcDbEntity
 67
     1
  8
0
100
AcDbBlockEnd
  0
BLOCK
  5
D8
330
D6
100
AcDbEntity
 67
     1
  8
0
100
AcDbBlockBegin
  2
*Paper_Space0
 70
     0
 10
0.0
 20
0.0
 30
0.0
  3
*Paper_Space0
  1

  0
ENDBLK
  5
D9
330
D6
100
AcDbEntity
 67
     1
  8
0
100
AcDbBlockEnd
  0
BLOCK
  5
8E72
330
8E71
100
AcDbEntity
  8
0
100
AcDbBlockBegin
  2
SAE380_100_2-Front
 70
     0
 10
0.0
 20
0.0
 30
0.0
  3
SAE380_100_2-Front
  1

  0
SPLINE
  5
8E74
330
8E71
100
AcDbEntity
  8
0
100
AcDbSpline
210
0.0
220
0.0
230
1.0
 70
     8
 71
     3
 72
    14
 73
    10
 74
     0
 42
0.000000001
 43
0.0000000001
 40
0.0
 40
0.0
 40
0.0
 40
0.0
 40
0.3435201403992671
 40
0.3435201403992671
 40
0.3435201403992671
 40
0.7570127567962356
 40
0.7570127567962356
 40
0.7570127567962356
 40
0.9986524678062419
 40
0.9986524678062419
 40
0.9986524678062419
 40
0.9986524678062419
 10
54.60606060606062
 20
12.56249999999995
 30
0.0
 10
54.28489935603202
 20
12.30248939774809
 30
0.0
 10
53.87245051750096
 20
12.07528629123056
 30
0.0
 10
53.47645515515084
 20
11.84407074683234
 30
0.0
 10
52.99979850768644
 20
11.56575833029179
 30
0.0
 10
52.53725634325089
 20
11.27136389236349
 30
0.0
 10
52.26239324898582
 20
10.85787118806407
 30
0.0
 10
52.10176682899247
 20
10.61623142568502
 30
0.0
 10
52.00111647923286
 20
10.36104054311781
 30
0.0
 10
52.00000922977465
 20
10.005949949909
 30
0.0
  0
LINE
  5
8E75
330
8E71
100
AcDbEntity
  8
0
100
AcDbLine
 10
51.99999999999999
 20
12.56249999999996
 30
0.0
 11
54.0
 21
12.56249999999996
 31
0.0
  0
SPLINE
  5
8E76
330
8E71
100
AcDbEntity
  8
0
100
AcDbSpline
210
0.0
220
0.0
230
1.0
 70
     8
 71
     3
 72
    20
 73
    16
 74
     0
 42
0.000000001
 43
0.0000000001
 40
0.0120727937197656
 40
0.0120727937197656
 40
0.0120727937197656
 40
0.0120727937197656
 40
0.0124288508763064
 40
0.0124288508763064
 40
0.0135302217241156
 40
0.0135302217241156
 40
0.0142261533838589
 40
0.0142261533838589
 40
0.0153094160349278
 40
0.0153094160349278
 40
0.016252524886043
 40
0.016252524886043
 40
0.0174015733500022
 40
0.0174015733500022
 40
0.0202445336696191
 40
0.0202445336696191
 40
0.0202445336696191
 40
0.0202445336696191
 10
52.00029164702518
 20
10.05864902332495
 30
0.0
 10
52.00029164702489
 20
10.05864902329948
 30
0.0
 10
52.00029123369305
 20
10.0586129421889
 30
0.0
 10
52.00028772502031
 20
10.05830125777249
 30
0.0
 10
52.0002806534461
 20
10.05767569684564
 30
0.0
 10
52.00026146072312
 20
10.05580875754142
 30
0.0
 10
52.00025209701919
 20
10.05487008329507
 30
0.0
 10
52.00022447041395
 20
10.05189819478271
 30
0.0
 10
52.00020362500263
 20
10.0494745597894
 30
0.0
 10
52.00016554779829
 20
10.04422649454826
 30
0.0
 10
52.00014800683252
 20
10.0414612092465
 30
0.0
 10
52.00011446921847
 20
10.03509374009255
 30
0.0
 10
52.00009956667923
 20
10.0314513500744
 30
0.0
 10
52.00006174351585
 20
10.01867994132899
 30
0.0
 10
52.00005914615836
 20
10.00931579015791
 30
0.0
 10
52.00007431501584
 20
10.0000000778712
 30
0.0
  0
SPLINE
  5
8E77
330
8E71
100
AcDbEntity
  8
0
100
AcDbSpline
210
0.0
220
0.0
230
1.0
 70
     8
 71
     3
 72
    20
 73
    16
 74
     0
 42
0.000000001
 43
0.0000000001
 40
0.0053329317685229
 40
0.0053329317685229
 40
0.0053329317685229
 40
0.0053329317685229
 40
0.0056476384883852
 40
0.0056476384883852
 40
0.0060463986196541
 40
0.0060463986196541
 40
0.0065307473518086
 40
0.0065307473518086
 40
0.0071940330913244
 40
0.0071940330913244
 40
0.0085673556234483
 40
0.0085673556234483
 40
0.0106389961064639
 40
0.0106389961064639
 40
0.0111024459126608
 40
0.0111024459126608
 40
0.0111024459126608
 40
0.0111024459126608
 10
52.00010883933722
 20
10.04546313433384
 30
0.0
 10
52.00010883931864
 20
10.04546313134293
 30
0.0
 10
52.00010796018971
 20
10.04532230038452
 30
0.0
 10
52.00010437335223
 20
10.04473468126729
 30
0.0
 10
52.00010121339646
 20
10.04421103332559
 30
0.0
 10
52.00009286789465
 20
10.04276717296655
 30
0.0
 10
52.00008734603777
 20
10.04177610107757
 30
0.0
 10
52.00007384262136
 20
10.03918105370124
 30
0.0
 10
52.00006571149244
 20
10.03748299315263
 30
0.0
 10
52.00004298010613
 20
10.03216377976245
 30
0.0
 10
52.00002983085861
 20
10.02823236316368
 30
0.0
 10
52.00000644319673
 20
10.01793194586259
 30
0.0
 10
52.00000107524826
 20
10.01126252360335
 30
0.0
 10
52.00000622906572
 20
10.00302763750836
 30
0.0
 10
52.00000763232313
 20
10.00151582239484
 30
0.0
 10
52.0000094837092
 20
10.00000001349921
 30
0.0
  0
SPLINE
  5
8E78
330
8E71
100
AcDbEntity
  8
0
100
AcDbSpline
210
0.0
220
0.0
230
1.0
 70
     8
 71
     3
 72
     8
 73
     4
 74
     0
 42
0.000000001
 43
0.0000000001
 40
0.0
 40
0.0
 40
0.0
 40
0.0
 40
0.001551172292763
 40
0.001551172292763
 40
0.001551172292763
 40
0.001551172292763
 10
49.99955984654371
 20
10.00000111615405
 30
0.0
 10
49.99956565327767
 20
10.00446881097258
 30
0.0
 10
49.99957076641535
 20
10.0088470825698
 30
0.0
 10
49.99957512909038
 20
10.01307591321146
 30
0.0
  0
SPLINE
  5
8E79
330
8E71
100
AcDbEntity
  8
0
100
AcDbSpline
210
0.0
220
0.0
230
1.0
 70
     8
 71
     3
 72
    16
 73
    12
 74
     0
 42
0.000000001
 43
0.0000000001
 40
0.0
 40
0.0
 40
0.0
 40
0.0
 40
0.0021186811707574
 40
0.0021186811707574
 40
0.0037963488503301
 40
0.0037963488503301
 40
0.0060490110207743
 40
0.0060490110207743
 40
0.008216074076682
 40
0.008216074076682
 40
0.0100715168788188
 40
0.0100715168788188
 40
0.0100715168788188
 40
0.0100715168788188
 10
49.99977770285737
 20
9.999996711300774
 30
0.0
 10
49.99967060184406
 20
10.0069626209556
 30
0.0
 10
49.9995602641184
 20
10.01406437695389
 30
0.0
 10
49.99936153534819
 20
10.02670814080555
 30
0.0
 10
49.99927271948941
 20
10.03230570794524
 30
0.0
 10
49.99907108313866
 20
10.04490248807863
 30
0.0
 10
49.99895813016983
 20
10.05187273936426
 30
0.0
 10
49.99876083666323
 20
10.06395003188006
 30
0.0
 10
49.99867338960537
 20
10.06925359841212
 30
0.0
 10
49.99853375467168
 20
10.07766822128864
 30
0.0
 10
49.99847718644823
 20
10.08105233815278
 30
0.0
 10
49.99842789893597
 20
10.08398349777827
 30
0.0
  0
SPLINE
  5
8E7A
330
8E71
100
AcDbEntity
  8
0
100
AcDbSpline
210
0.0
220
0.0
230
1.0
 70
     8
 71
     3
 72
    34
 73
    30
 74
     0
 42
0.000000001
 43
0.0000000001
 40
0.0018826909949856
 40
0.0018826909949856
 40
0.0018826909949856
 40
0.0018826909949856
 40
0.0067931669974276
 40
0.0067931669974276
 40
0.0148581762927011
 40
0.0148581762927011
 40
0.0216571625055005
 40
0.0216571625055005
 40
0.0241181605979556
 40
0.0241181605979556
 40
0.0262721351119674
 40
0.0262721351119674
 40
0.0291183974559634
 40
0.0291183974559634
 40
0.0315307617158355
 40
0.0315307617158355
 40
0.0346506209040072
 40
0.0346506209040072
 40
0.0395925192800234
 40
0.0395925192800234
 40
0.0489047040357106
 40
0.0489047040357106
 40
0.0719038373334289
 40
0.0719038373334289
 40
0.1414749578729317
 40
0.1414749578729317
 40
0.2235343191219867
 40
0.2235343191219867
 40
0.2662176350793751
 40
0.2662176350793751
 40
0.2662176350793751
 40
0.2662176350793751
 10
49.99993408575556
 20
10.00382154299801
 30
0.0
 10
49.99986408235852
 20
10.00784010263843
 30
0.0
 10
49.99976229507
 20
10.0135879890405
 30
0.0
 10
49.99943617608974
 20
10.0315009526376
 30
0.0
 10
49.99917379096777
 20
10.04547905778009
 30
0.0
 10
49.99862147507662
 20
10.07412851685039
 30
0.0
 10
49.99834195421835
 20
10.08836978816628
 30
0.0
 10
49.99789287055701
 20
10.1112998526921
 30
0.0
 10
49.99776556977836
 20
10.11780783892335
 30
0.0
 10
49.99751102760704
 20
10.13092137206921
 30
0.0
 10
49.99738418371518
 20
10.13749599527381
 30
0.0
 10
49.99708160720894
 20
10.15339172510718
 30
0.0
 10
49.99689912594377
 20
10.16314759807577
 30
0.0
 10
49.99658164288951
 20
10.18063164071913
 30
0.0
 10
49.99644054079585
 20
10.18860762352975
 30
0.0
 10
49.99613963834381
 20
10.20613328492625
 30
0.0
 10
49.99598354352523
 20
10.2156230664878
 30
0.0
 10
49.99561575572518
 20
10.23897255828396
 30
0.0
 10
49.99542133084303
 20
10.25235292945266
 30
0.0
 10
49.99492632777748
 20
10.28908036042612
 30
0.0
 10
49.99467887913251
 20
10.31107662915947
 30
0.0
 10
49.99397377070899
 20
10.38483545472151
 30
0.0
 10
49.99373075802385
 20
10.43325128741178
 30
0.0
 10
49.99330496971983
 20
10.63524513526091
 30
0.0
 10
49.99455225589023
 20
10.81157714796435
 30
0.0
 10
49.99793365453749
 20
11.23302852456111
 30
0.0
 10
49.99943798484974
 20
11.48841650531718
 30
0.0
 10
49.99998708512244
 20
11.89240745355337
 30
0.0
 10
49.99998191116098
 20
12.03407841396398
 30
0.0
 10
49.99998937018701
 20
12.17586272153092
 30
0.0
  0
SPLINE
  5
8E7B
330
8E71
100
AcDbEntity
  8
0
100
AcDbSpline
210
0.0
220
0.0
230
1.0
 70
     8
 71
     3
 72
    12
 73
     8
 74
     0
 42
0.000000001
 43
0.0000000001
 40
0.0
 40
0.0
 40
0.0
 40
0.0
 40
0.0030437042991687
 40
0.0030437042991687
 40
0.0059481041539391
 40
0.0059481041539391
 40
0.0077014641318399
 40
0.0077014641318399
 40
0.0077014641318399
 40
0.0077014641318399
 10
49.99994095221155
 20
9.99999987947082
 30
0.0
 10
49.99992879819973
 20
10.00696128006546
 30
0.0
 10
49.99991751862595
 20
10.01274901427582
 30
0.0
 10
49.99989988569947
 20
10.02086801901839
 30
0.0
 10
49.99989321745715
 20
10.02345476433859
 30
0.0
 10
49.9998873878928
 20
10.02558168402138
 30
0.0
 10
49.99988625762902
 20
10.02594367652868
 30
0.0
 10
49.99988625762909
 20
10.02594367651122
 30
0.0
  0
SPLINE
  5
8E7C
330
8E71
100
AcDbEntity
  8
0
100
AcDbSpline
210
0.0
220
0.0
230
1.0
 70
     8
 71
     3
 72
     8
 73
     4
 74
     0
 42
0.000000001
 43
0.0000000001
 40
0.0
 40
0.0
 40
0.0
 40
0.0
 40
0.0007120215513699
 40
0.0007120215513699
 40
0.0007120215513699
 40
0.0007120215513699
 10
54.60611383532427
 20
12.56243163688817
 30
0.0
 10
54.60533819932308
 20
12.56182868893655
 30
0.0
 10
54.60453868476545
 20
12.56120756188191
 30
0.0
 10
54.60373319740861
 20
12.56058166034768
 30
0.0
  0
SPLINE
  5
8E7D
330
8E71
100
AcDbEntity
  8
0
100
AcDbSpline
210
0.0
220
0.0
230
1.0
 70
     8
 71
     3
 72
     8
 73
     4
 74
     0
 42
0.000000001
 43
0.0000000001
 40
0.0001369363805089
 40
0.0001369363805089
 40
0.0001369363805089
 40
0.0001369363805089
 40
0.0006732115537687
 40
0.0006732115537687
 40
0.0006732115537687
 40
0.0006732115537687
 10
54.60523147099017
 20
12.56174578010215
 30
0.0
 10
54.60408411036117
 20
12.56082244637697
 30
0.0
 10
54.60290028248294
 20
12.55987068968718
 30
0.0
 10
54.60168732547728
 20
12.55889643365752
 30
0.0
  0
LINE
  5
8E7E
330
8E71
100
AcDbEntity
  8
0
100
AcDbLine
 10
47.99999999999998
 20
-2.0
 30
0.0
 11
-48.0
 21
-2.000000000000002
 31
0.0
  0
LINE
  5
8E7F
330
8E71
100
AcDbEntity
  8
0
100
AcDbLine
 10
-47.99999999999998
 20
0.0
 30
0.0
 11
47.99999999999998
 21
0.0
 31
0.0
  0
LINE
  5
8E80
330
8E71
100
AcDbEntity
  8
0
100
AcDbLine
 10
-54.0
 20
12.56249999999996
 30
0.0
 11
-51.99999999999999
 21
12.56249999999996
 31
0.0
  0
SPLINE
  5
8E81
330
8E71
100
AcDbEntity
  8
0
100
AcDbSpline
210
0.0
220
0.0
230
1.0
 70
     8
 71
     3
 72
    14
 73
    10
 74
     0
 42
0.000000001
 43
0.0000000001
 40
0.0
 40
0.0
 40
0.0
 40
0.0
 40
0.3435201403992671
 40
0.3435201403992671
 40
0.3435201403992671
 40
0.7570127567962356
 40
0.7570127567962356
 40
0.7570127567962356
 40
0.9986524678062375
 40
0.9986524678062375
 40
0.9986524678062375
 40
0.9986524678062375
 10
-54.60606060606062
 20
12.56249999999995
 30
0.0
 10
-54.28489935603202
 20
12.30248939774809
 30
0.0
 10
-53.87245051750096
 20
12.07528629123056
 30
0.0
 10
-53.47645515515084
 20
11.84407074683234
 30
0.0
 10
-52.99979850768644
 20
11.56575833029179
 30
0.0
 10
-52.53725634325089
 20
11.27136389236349
 30
0.0
 10
-52.26239324898582
 20
10.85787118806407
 30
0.0
 10
-52.10176682899248
 20
10.61623142568502
 30
0.0
 10
-52.00111647923286
 20
10.36104054311782
 30
0.0
 10
-52.00000922977465
 20
10.00594994990902
 30
0.0
  0
SPLINE
  5
8E82
330
8E71
100
AcDbEntity
  8
0
100
AcDbSpline
210
0.0
220
0.0
230
1.0
 70
     8
 71
     3
 72
    30
 73
    26
 74
     0
 42
0.000000001
 43
0.0000000001
 40
0.0
 40
0.0
 40
0.0
 40
0.0
 40
0.0655513429241096
 40
0.0655513429241096
 40
0.1471084880056585
 40
0.1471084880056585
 40
0.1864915415841466
 40
0.1864915415841466
 40
0.2244287006712906
 40
0.2244287006712906
 40
0.2339025228787164
 40
0.2339025228787164
 40
0.2360478139264329
 40
0.2360478139264329
 40
0.2376817992358183
 40
0.2376817992358183
 40
0.2393184066726157
 40
0.2393184066726157
 40
0.2426422771786653
 40
0.2426422771786653
 40
0.2492709696300564
 40
0.2492709696300564
 40
0.2559206221755224
 40
0.2559206221755224
 40
0.2643718038740482
 40
0.2643718038740482
 40
0.2643718038740482
 40
0.2643718038740482
 10
-49.99998937018698
 20
12.17586272152999
 30
0.0
 10
-49.9999779149108
 20
11.95811600813369
 30
0.0
 10
-49.9999749958092
 20
11.73955119288622
 30
0.0
 10
-49.99847087262274
 20
11.27766062764278
 30
0.0
 10
-49.99618388742188
 20
11.03633066444322
 30
0.0
 10
-49.99399786143377
 20
10.72034886136142
 30
0.0
 10
-49.99356181606337
 20
10.62410814324056
 30
0.0
 10
-49.99357524463029
 20
10.45120303293114
 30
0.0
 10
-49.9938539890696
 20
10.37643855056083
 30
0.0
 10
-49.99531495666857
 20
10.25912774570147
 30
0.0
 10
-49.99568020989336
 20
10.23363328536348
 30
0.0
 10
-49.99628323560052
 20
10.19771133908926
 30
0.0
 10
-49.99640193877532
 20
10.19083376327981
 30
0.0
 10
-49.99662079998024
 20
10.17847913071647
 30
0.0
 10
-49.99671935863435
 20
10.17301832025299
 30
0.0
 10
-49.99691927582907
 20
10.16211842552151
 30
0.0
 10
-49.99702160490667
 20
10.15662678203727
 30
0.0
 10
-49.99732644919699
 20
10.14045849096993
 30
0.0
 10
-49.99752713317114
 20
10.1300727341846
 30
0.0
 10
-49.99806275349073
 20
10.10255107148876
 30
0.0
 10
-49.99835960842098
 20
10.08751831588202
 30
0.0
 10
-49.99889075160895
 20
10.06022506745803
 30
0.0
 10
-49.9991290955705
 20
10.04779428326534
 30
0.0
 10
-49.99959874139624
 20
10.02272992852015
 30
0.0
 10
-49.99981365266308
 20
10.01072745586218
 30
0.0
 10
-49.99993408544861
 20
10.00381398663453
 30
0.0
  0
SPLINE
  5
8E83
330
8E71
100
AcDbEntity
  8
0
100
AcDbSpline
210
0.0
220
0.0
230
1.0
 70
     8
 71
     3
 72
     8
 73
     4
 74
     0
 42
0.000000001
 43
0.0000000001
 40
0.0195591544662326
 40
0.0195591544662326
 40
0.0195591544662326
 40
0.0195591544662326
 40
0.0211163010445027
 40
0.0211163010445027
 40
0.0211163010445027
 40
0.0211163010445027
 10
-49.99957522640354
 20
10.01307778046881
 30
0.0
 10
-49.99957087693729
 20
10.00886175338372
 30
0.0
 10
-49.99956567564209
 20
10.00448601814191
 30
0.0
 10
-49.9995598465437
 20
10.00000111615405
 30
0.0
  0
SPLINE
  5
8E84
330
8E71
100
AcDbEntity
  8
0
100
AcDbSpline
210
0.0
220
0.0
230
1.0
 70
     8
 71
     3
 72
    16
 73
    12
 74
     0
 42
0.000000001
 43
0.0000000001
 40
0.0328453658082809
 40
0.0328453658082809
 40
0.0328453658082809
 40
0.0328453658082809
 40
0.0346121739263401
 40
0.0346121739263401
 40
0.0362943907602471
 40
0.0362943907602471
 40
0.0388726343125073
 40
0.0388726343125073
 40
0.0410449475506398
 40
0.0410449475506398
 40
0.0429128452304264
 40
0.0429128452304264
 40
0.0429128452304264
 40
0.0429128452304264
 10
-49.99842789914684
 20
10.08398349509967
 30
0.0
 10
-49.99847484522177
 20
10.081191582238
 30
0.0
 10
-49.99852835649505
 20
10.07799109535946
 30
0.0
 10
-49.99864665535167
 20
10.07086662524383
 30
0.0
 10
-49.99871142262072
 20
10.06694586349735
 30
0.0
 10
-49.9988909701684
 20
10.05600293222473
 30
0.0
 10
-49.99901757415443
 20
10.04822182193662
 30
0.0
 10
-49.99925928465362
 20
10.03315934939008
 30
0.0
 10
-49.9993754302006
 20
10.02584026700599
 30
0.0
 10
-49.99958650226647
 20
10.01237477409402
 30
0.0
 10
-49.9996832791484
 20
10.00613808200887
 30
0.0
 10
-49.99977770285735
 20
9.99999671130077
 30
0.0
  0
SPLINE
  5
8E85
330
8E71
100
AcDbEntity
  8
0
100
AcDbSpline
210
0.0
220
0.0
230
1.0
 70
     8
 71
     3
 72
    12
 73
     8
 74
     0
 42
0.000000001
 43
0.0000000001
 40
0.0138054908148288
 40
0.0138054908148288
 40
0.0138054908148288
 40
0.0138054908148288
 40
0.0169840789832857
 40
0.0169840789832857
 40
0.0189304805838929
 40
0.0189304805838929
 40
0.02150813916569
 40
0.02150813916569
 40
0.02150813916569
 40
0.02150813916569
 10
-49.99988625762911
 20
10.02594367651436
 30
0.0
 10
-49.99988625767162
 20
10.02594366281597
 30
0.0
 10
-49.99989009445464
 20
10.02472368730404
 30
0.0
 10
-49.99990126115663
 20
10.02016530960189
 30
0.0
 10
-49.99990666457463
 20
10.01781779787256
 30
0.0
 10
-49.99992101923496
 20
10.01095228818424
 30
0.0
 10
-49.99993065919697
 20
10.00589536478062
 30
0.0
 10
-49.99994095221159
 20
9.999999879470824
 30
0.0
  0
SPLINE
  5
8E86
330
8E71
100
AcDbEntity
  8
0
100
AcDbSpline
210
0.0
220
0.0
230
1.0
 70
     8
 71
     3
 72
    16
 73
    12
 74
     0
 42
0.000000001
 43
0.0000000001
 40
0.0
 40
0.0
 40
0.0
 40
0.0
 40
0.0041147701516255
 40
0.0041147701516255
 40
0.0050669104848096
 40
0.0050669104848096
 40
0.0058958097628659
 40
0.0058958097628659
 40
0.0067234516719892
 40
0.0067234516719892
 40
0.0081601476146029
 40
0.0081601476146029
 40
0.0081601476146029
 40
0.0081601476146029
 10
-52.00007431501581
 20
10.0000000778712
 30
0.0
 10
-52.0000523603084
 20
10.01348321184038
 30
0.0
 10
-52.00007089001999
 20
10.02743611961829
 30
0.0
 10
-52.00015518626411
 20
10.04264323913021
 30
0.0
 10
-52.00017334253722
 20
10.04537391441808
 30
0.0
 10
-52.00020680359923
 20
10.0498090945047
 30
0.0
 10
-52.00022231882105
 20
10.05162998385579
 30
0.0
 10
-52.0002491448235
 20
10.05457669177268
 30
0.0
 10
-52.00026066602993
 20
10.0557329946521
 30
0.0
 10
-52.00028457044049
 20
10.05805391642029
 30
0.0
 10
-52.00029164702527
 20
10.05864902333278
 30
0.0
 10
-52.00029164702517
 20
10.05864902332414
 30
0.0
  0
SPLINE
  5
8E87
330
8E71
100
AcDbEntity
  8
0
100
AcDbSpline
210
0.0
220
0.0
230
1.0
 70
     8
 71
     3
 72
    18
 73
    14
 74
     0
 42
0.000000001
 43
0.0000000001
 40
0.0
 40
0.0
 40
0.0
 40
0.0
 40
0.0020456842432811
 40
0.0020456842432811
 40
0.003710379895842
 40
0.003710379895842
 40
0.0047886574434965
 40
0.0047886574434965
 40
0.0054058580360451
 40
0.0054058580360451
 40
0.0056713593915725
 40
0.0056713593915725
 40
0.0057658587687671
 40
0.0057658587687671
 40
0.0057658587687671
 40
0.0057658587687671
 10
-52.00000948370922
 20
10.00000001349921
 30
0.0
 10
-52.00000131162402
 20
10.00669084890779
 30
0.0
 10
-52.00000211672943
 20
10.0133508623288
 30
0.0
 10
-52.0000199570903
 20
10.02478352035914
 30
0.0
 10
-52.00003405059725
 20
10.02972464699588
 30
0.0
 10
-52.00006334256418
 20
10.03706867846441
 30
0.0
 10
-52.00007727322266
 20
10.0399193462572
 30
0.0
 10
-52.00009604289428
 20
10.04334273319645
 30
0.0
 10
-52.00010217954273
 20
10.0443724964053
 30
0.0
 10
-52.00010716091194
 20
10.04519218283255
 30
0.0
 10
-52.00010818416273
 20
10.04535741764389
 30
0.0
 10
-52.00010876159653
 20
10.04545062481835
 30
0.0
 10
-52.00010883935387
 20
10.04546313701296
 30
0.0
 10
-52.00010883933718
 20
10.04546313432581
 30
0.0
  0
SPLINE
  5
8E88
330
8E71
100
AcDbEntity
  8
0
100
AcDbSpline
210
0.0
220
0.0
230
1.0
 70
     8
 71
     3
 72
     8
 73
     4
 74
     0
 42
0.000000001
 43
0.0000000001
 40
0.0
 40
0.0
 40
0.0
 40
0.0
 40
0.0007418618381629
 40
0.0007418618381629
 40
0.0007418618381629
 40
0.0007418618381629
 10
-52.00001228473428
 20
9.99999999359673
 30
0.0
 10
-52.00000823587391
 20
10.00154343845116
 30
0.0
 10
-52.00000411639138
 20
10.00317715695305
 30
0.0
 10
-51.99999998544278
 20
10.00485798903377
 30
0.0
  0
SPLINE
  5
8E89
330
8E71
100
AcDbEntity
  8
0
100
AcDbSpline
210
0.0
220
0.0
230
1.0
 70
     8
 71
     3
 72
     8
 73
     4
 74
     0
 42
0.000000001
 43
0.0000000001
 40
0.2821149315286288
 40
0.2821149315286288
 40
0.2821149315286288
 40
0.2821149315286288
 40
0.2826513862114608
 40
0.2826513862114608
 40
0.2826513862114608
 40
0.2826513862114608
 10
-54.60168881892593
 20
12.55889777529692
 30
0.0
 10
-54.6029020546292
 20
12.55987225517854
 30
0.0
 10
-54.60408409199541
 20
12.56082243850259
 30
0.0
 10
-54.6052315767131
 20
12.56174587208763
 30
0.0
  0
SPLINE
  5
8E8A
330
8E71
100
AcDbEntity
  8
0
100
AcDbSpline
210
0.0
220
0.0
230
1.0
 70
     8
 71
     3
 72
     8
 73
     4
 74
     0
 42
0.000000001
 43
0.0000000001
 40
0.0169266991399832
 40
0.0169266991399832
 40
0.0169266991399832
 40
0.0169266991399832
 40
0.0176395501491692
 40
0.0176395501491692
 40
0.0176395501491692
 40
0.0176395501491692
 10
-54.60373955742563
 20
12.56058633458996
 30
0.0
 10
-54.60454416784911
 20
12.56121155470576
 30
0.0
 10
-54.60533729575864
 20
12.56182798654225
 30
0.0
 10
-54.60611383532422
 20
12.56243163688816
 30
0.0
  0
ARC
  5
8E8B
330
8E71
100
AcDbEntity
  8
0
100
AcDbCircle
 10
-47.99999999999998
 20
2.0
 30
0.0
 40
4.000000000000003
100
AcDbArc
 50
180.0
 51
270.0
  0
ARC
  5
8E8C
330
8E71
100
AcDbEntity
  8
0
100
AcDbCircle
 10
-47.99999999999998
 20
2.0
 30
0.0
 40
2.000000000000001
100
AcDbArc
 50
180.0
 51
270.0
  0
ARC
  5
8E8D
330
8E71
100
AcDbEntity
  8
0
100
AcDbCircle
 10
47.99999999999998
 20
2.0
 30
0.0
 40
4.000000000000003
100
AcDbArc
 50
270.0
 51
0.0
  0
LINE
  5
8E8E
330
8E71
100
AcDbEntity
  8
0
100
AcDbLine
 10
54.60606060606068
 20
12.56249999999996
 30
0.0
 11
91.50000000000007
 21
42.99999999999997
 31
0.0
  0
LINE
  5
8E8F
330
8E71
100
AcDbEntity
  8
0
100
AcDbLine
 10
49.99999999999999
 20
10.0
 30
0.0
 11
50.0
 21
42.99999999999997
 31
0.0
  0
LINE
  5
8E90
330
8E71
100
AcDbEntity
  8
0
100
AcDbLine
 10
51.99999999999999
 20
10.0
 30
0.0
 11
49.99999999999999
 21
10.0
 31
0.0
  0
LINE
  5
8E91
330
8E71
100
AcDbEntity
  8
0
100
AcDbLine
 10
51.99999999999999
 20
42.99999999999997
 30
0.0
 11
51.99999999999999
 21
10.0
 31
0.0
  0
LINE
  5
8E92
330
8E71
100
AcDbEntity
  8
0
100
AcDbLine
 10
51.99999999999999
 20
42.99999999999997
 30
0.0
 11
50.0
 21
42.99999999999997
 31
0.0
  0
LINE
  5
8E93
330
8E71
100
AcDbEntity
  8
0
100
AcDbLine
 10
50.0
 20
42.99999999999997
 30
0.0
 11
49.99999999999999
 21
139.9999999999999
 31
0.0
  0
LINE
  5
8E94
330
8E71
100
AcDbEntity
  8
0
100
AcDbLine
 10
51.99999999999999
 20
139.9999999999999
 30
0.0
 11
51.99999999999999
 21
42.99999999999997
 31
0.0
  0
LINE
  5
8E95
330
8E71
100
AcDbEntity
  8
0
100
AcDbLine
 10
49.99999999999999
 20
139.9999999999999
 30
0.0
 11
51.99999999999999
 21
139.9999999999999
 31
0.0
  0
LINE
  5
8E96
330
8E71
100
AcDbEntity
  8
0
100
AcDbLine
 10
51.99999999999999
 20
10.0
 30
0.0
 11
51.99999999999999
 21
2.0
 31
0.0
  0
LINE
  5
8E97
330
8E71
100
AcDbEntity
  8
0
100
AcDbLine
 10
50.0
 20
2.0
 30
0.0
 11
49.99999999999999
 21
10.0
 31
0.0
  0
ARC
  5
8E98
330
8E71
100
AcDbEntity
  8
0
100
AcDbCircle
 10
47.99999999999998
 20
2.0
 30
0.0
 40
2.000000000000001
100
AcDbArc
 50
270.0
 51
0.0
  0
LINE
  5
8E99
330
8E71
100
AcDbEntity
  8
0
100
AcDbLine
 10
54.0
 20
140.0
 30
0.0
 11
52.0
 21
140.0
 31
0.0
  0
LINE
  5
8E9A
330
8E71
100
AcDbEntity
  8
0
100
AcDbLine
 10
91.50000000000007
 20
42.99999999999997
 30
0.0
 11
91.5
 21
140.0
 31
0.0
  0
LINE
  5
8E9B
330
8E71
100
AcDbEntity
  8
0
100
AcDbLine
 10
91.5
 20
140.0
 30
0.0
 11
54.0
 21
140.0
 31
0.0
  0
CIRCLE
  5
8E9C
330
8E71
100
AcDbEntity
  8
0
100
AcDbCircle
 10
72.0
 20
120.0
 30
0.0
 40
6.5
  0
CIRCLE
  5
8E9D
330
8E71
100
AcDbEntity
  8
0
100
AcDbCircle
 10
83.0
 20
125.0
 30
0.0
 40
2.5
  0
LINE
  5
8E9E
330
8E71
100
AcDbEntity
  8
0
100
AcDbLine
 10
-91.50000000000007
 20
42.99999999999997
 30
0.0
 11
-54.60606060606068
 21
12.56249999999996
 31
0.0
  0
LINE
  5
8E9F
330
8E71
100
AcDbEntity
  8
0
100
AcDbLine
 10
-50.0
 20
42.99999999999997
 30
0.0
 11
-49.99999999999999
 21
10.0
 31
0.0
  0
LINE
  5
8EA0
330
8E71
100
AcDbEntity
  8
0
100
AcDbLine
 10
-51.99999999999999
 20
42.99999999999997
 30
0.0
 11
-50.0
 21
42.99999999999997
 31
0.0
  0
LINE
  5
8EA1
330
8E71
100
AcDbEntity
  8
0
100
AcDbLine
 10
-51.99999999999999
 20
10.0
 30
0.0
 11
-51.99999999999999
 21
42.99999999999997
 31
0.0
  0
LINE
  5
8EA2
330
8E71
100
AcDbEntity
  8
0
100
AcDbLine
 10
-49.99999999999999
 20
10.0
 30
0.0
 11
-51.99999999999999
 21
10.0
 31
0.0
  0
LINE
  5
8EA3
330
8E71
100
AcDbEntity
  8
0
100
AcDbLine
 10
-49.99999999999999
 20
139.9999999999999
 30
0.0
 11
-50.0
 21
42.99999999999997
 31
0.0
  0
LINE
  5
8EA4
330
8E71
100
AcDbEntity
  8
0
100
AcDbLine
 10
-51.99999999999999
 20
139.9999999999999
 30
0.0
 11
-49.99999999999999
 21
139.9999999999999
 31
0.0
  0
LINE
  5
8EA5
330
8E71
100
AcDbEntity
  8
0
100
AcDbLine
 10
-51.99999999999999
 20
42.99999999999997
 30
0.0
 11
-51.99999999999999
 21
139.9999999999999
 31
0.0
  0
CIRCLE
  5
8EA6
330
8E71
100
AcDbEntity
  8
0
100
AcDbCircle
 10
-72.0
 20
50.0
 30
0.0
 40
6.5
  0
CIRCLE
  5
8EA7
330
8E71
100
AcDbEntity
  8
0
100
AcDbCircle
 10
72.0
 20
50.0
 30
0.0
 40
6.5
  0
CIRCLE
  5
8EA8
330
8E71
100
AcDbEntity
  8
0
100
AcDbCircle
 10
-72.0
 20
120.0
 30
0.0
 40
6.5
  0
CIRCLE
  5
8EA9
330
8E71
100
AcDbEntity
  8
0
100
AcDbCircle
 10
-61.0
 20
35.0
 30
0.0
 40
2.5
  0
CIRCLE
  5
8EAA
330
8E71
100
AcDbEntity
  8
0
100
AcDbCircle
 10
-61.0
 20
55.0
 30
0.0
 40
2.5
  0
CIRCLE
  5
8EAB
330
8E71
100
AcDbEntity
  8
0
100
AcDbCircle
 10
-61.0
 20
75.0
 30
0.0
 40
2.5
  0
CIRCLE
  5
8EAC
330
8E71
100
AcDbEntity
  8
0
100
AcDbCircle
 10
-61.0
 20
95.0
 30
0.0
 40
2.5
  0
CIRCLE
  5
8EAD
330
8E71
100
AcDbEntity
  8
0
100
AcDbCircle
 10
-61.0
 20
115.0
 30
0.0
 40
2.5
  0
CIRCLE
  5
8EAE
330
8E71
100
AcDbEntity
  8
0
100
AcDbCircle
 10
61.0
 20
35.0
 30
0.0
 40
2.5
  0
CIRCLE
  5
8EAF
330
8E71
100
AcDbEntity
  8
0
100
AcDbCircle
 10
61.0
 20
55.0
 30
0.0
 40
2.5
  0
CIRCLE
  5
8EB0
330
8E71
100
AcDbEntity
  8
0
100
AcDbCircle
 10
61.0
 20
75.0
 30
0.0
 40
2.5
  0
CIRCLE
  5
8EB1
330
8E71
100
AcDbEntity
  8
0
100
AcDbCircle
 10
61.0
 20
95.0
 30
0.0
 40
2.5
  0
CIRCLE
  5
8EB2
330
8E71
100
AcDbEntity
  8
0
100
AcDbCircle
 10
61.0
 20
115.0
 30
0.0
 40
2.5
  0
CIRCLE
  5
8EB3
330
8E71
100
AcDbEntity
  8
0
100
AcDbCircle
 10
-61.0
 20
135.0
 30
0.0
 40
2.5
  0
CIRCLE
  5
8EB4
330
8E71
100
AcDbEntity
  8
0
100
AcDbCircle
 10
61.0
 20
135.0
 30
0.0
 40
2.5
  0
CIRCLE
  5
8EB5
330
8E71
100
AcDbEntity
  8
0
100
AcDbCircle
 10
-83.0
 20
45.0
 30
0.0
 40
2.5
  0
CIRCLE
  5
8EB6
330
8E71
100
AcDbEntity
  8
0
100
AcDbCircle
 10
-83.0
 20
65.0
 30
0.0
 40
2.5
  0
CIRCLE
  5
8EB7
330
8E71
100
AcDbEntity
  8
0
100
AcDbCircle
 10
-83.0
 20
85.0
 30
0.0
 40
2.5
  0
CIRCLE
  5
8EB8
330
8E71
100
AcDbEntity
  8
0
100
AcDbCircle
 10
-83.0
 20
105.0
 30
0.0
 40
2.5
  0
CIRCLE
  5
8EB9
330
8E71
100
AcDbEntity
  8
0
100
AcDbCircle
 10
83.0
 20
45.0
 30
0.0
 40
2.5
  0
CIRCLE
  5
8EBA
330
8E71
100
AcDbEntity
  8
0
100
AcDbCircle
 10
83.0
 20
65.0
 30
0.0
 40
2.5
  0
CIRCLE
  5
8EBB
330
8E71
100
AcDbEntity
  8
0
100
AcDbCircle
 10
83.0
 20
85.0
 30
0.0
 40
2.5
  0
CIRCLE
  5
8EBC
330
8E71
100
AcDbEntity
  8
0
100
AcDbCircle
 10
83.0
 20
105.0
 30
0.0
 40
2.5
  0
CIRCLE
  5
8EBD
330
8E71
100
AcDbEntity
  8
0
100
AcDbCircle
 10
-83.0
 20
125.0
 30
0.0
 40
2.5
  0
LINE
  5
8EBE
330
8E71
100
AcDbEntity
  8
0
100
AcDbLine
 10
-91.5
 20
140.0
 30
0.0
 11
-54.0
 21
140.0
 31
0.0
  0
LINE
  5
8EBF
330
8E71
100
AcDbEntity
  8
0
100
AcDbLine
 10
-91.50000000000007
 20
42.99999999999997
 30
0.0
 11
-91.5
 21
140.0
 31
0.0
  0
LINE
  5
8EC0
330
8E71
100
AcDbEntity
  8
0
100
AcDbLine
 10
-50.0
 20
2.0
 30
0.0
 11
-49.99999999999999
 21
10.0
 31
0.0
  0
LINE
  5
8EC1
330
8E71
100
AcDbEntity
  8
0
100
AcDbLine
 10
-51.99999999999999
 20
10.0
 30
0.0
 11
-51.99999999999999
 21
2.0
 31
0.0
  0
LINE
  5
8EC2
330
8E71
100
AcDbEntity
  8
0
100
AcDbLine
 10
-54.0
 20
140.0
 30
0.0
 11
-52.0
 21
140.0
 31
0.0
  0
ENDBLK
  5
8E73
330
8E71
100
AcDbEntity
  8
0
100
AcDbBlockEnd
  0
BLOCK
  5
8EC4
330
8EC3
100
AcDbEntity
  8
0
100
AcDbBlockBegin
  2
SAE380_100_2-Left
 70
     0
 10
0.0
 20
0.0
 30
0.0
  3
SAE380_100_2-Left
  1

  0
LINE
  5
8EC6
330
8EC3
100
AcDbEntity
  8
0
100
AcDbLine
 10
2.000000000000004
 20
-2.0
 30
0.0
 11
86.0
 21
-2.000000000000002
 31
0.0
  0
LINE
  5
8EC7
330
8EC3
100
AcDbEntity
  8
0
100
AcDbLine
 10
2.000000000000009
 20
2.000000000000004
 30
0.0
 11
2.000000000000004
 21
-1.999999999999999
 31
0.0
  0
LINE
  5
8EC8
330
8EC3
100
AcDbEntity
  8
0
100
AcDbLine
 10
86.0
 20
-2.000000000000002
 30
0.0
 11
86.0
 21
2.0
 31
0.0
  0
SPLINE
  5
8EC9
330
8EC3
100
AcDbEntity
  8
0
100
AcDbSpline
210
0.0
220
0.0
230
1.0
 70
     8
 71
     3
 72
    14
 73
    10
 74
     0
 42
0.000000001
 43
0.0000000001
 40
-0.4812947826499825
 40
-0.4812947826499825
 40
-0.4812947826499825
 40
-0.4812947826499825
 40
-0.3760548405708906
 40
-0.3760548405708906
 40
-0.3760548405708906
 40
-0.0764956636428966
 40
-0.0764956636428966
 40
-0.0764956636428966
 40
0.0
 40
0.0
 40
0.0
 40
0.0
 10
0.9453931030334407
 20
11.73176443994291
 30
0.0
 10
0.8407778630109858
 20
11.76869255411855
 30
0.0
 10
0.7370280984292571
 20
11.80056667972473
 30
0.0
 10
0.6387472629466819
 20
11.83427526822471
 30
0.0
 10
0.3589967651477591
 20
11.93022474165629
 30
0.0
 10
0.1216595940199193
 20
12.04007652482484
 30
0.0
 10
0.0342334975194183
 20
12.31452405591949
 30
0.0
 10
0.0119083017430883
 20
12.38460719021548
 30
0.0
 10
0.0000045433204783
 20
12.46773705178901
 30
0.0
 10
0.0000000001152099
 20
12.56250000004001
 30
0.0
  0
SPLINE
  5
8ECA
330
8EC3
100
AcDbEntity
  8
0
100
AcDbSpline
210
0.0
220
0.0
230
1.0
 70
     8
 71
     3
 72
    14
 73
    10
 74
     0
 42
0.000000001
 43
0.0000000001
 40
0.0
 40
0.0
 40
0.0
 40
0.0
 40
0.3435201403992671
 40
0.3435201403992671
 40
0.3435201403992671
 40
0.7570127567962356
 40
0.7570127567962356
 40
0.7570127567962356
 40
1.0
 40
1.0
 40
1.0
 40
1.0
 10
1.999999999999993
 20
12.56249999999995
 30
0.0
 10
2.000036880620253
 20
12.30248939774809
 30
0.0
 10
1.996834301351936
 20
12.07528629123056
 30
0.0
 10
1.998675474349387
 20
11.84407074683234
 30
0.0
 10
2.000891680476548
 20
11.56575833029179
 30
0.0
 10
2.001068977478528
 20
11.27136389236349
 30
0.0
 10
2.001123170497391
 20
10.85787118806407
 30
0.0
 10
2.001155016803062
 20
10.61488389320479
 30
0.0
 10
2.000250524375161
 20
10.35819391791302
 30
0.0
 10
1.999999999992551
 20
10.00000000165264
 30
0.0
  0
LINE
  5
8ECB
330
8EC3
100
AcDbEntity
  8
0
100
AcDbLine
 10
0.0
 20
12.56249999999996
 30
0.0
 11
1.999999999999994
 21
12.56249999999996
 31
0.0
  0
SPLINE
  5
8ECC
330
8EC3
100
AcDbEntity
  8
0
100
AcDbSpline
210
0.0
220
0.0
230
1.0
 70
     8
 71
     3
 72
    18
 73
    14
 74
     0
 42
0.000000001
 43
0.0000000001
 40
0.0
 40
0.0
 40
0.0
 40
0.0
 40
0.0048729594708912
 40
0.0048729594708912
 40
0.0070353691370595
 40
0.0070353691370595
 40
0.0087994540162588
 40
0.0087994540162588
 40
0.0102139099911471
 40
0.0102139099911471
 40
0.0113405147064089
 40
0.0113405147064089
 40
0.0120695318587812
 40
0.0120695318587812
 40
0.0120695318587812
 40
0.0120695318587812
 10
1.999551534600528
 20
9.999999136542532
 30
0.0
 10
1.999501452361711
 20
10.015559455302
 30
0.0
 10
1.999399307389268
 20
10.03064434733257
 30
0.0
 10
1.999203736052169
 20
10.04934431844257
 30
0.0
 10
1.999136850381722
 20
10.05473727085287
 30
0.0
 10
1.999013994589433
 20
10.06343447974361
 30
0.0
 10
1.998957794675904
 20
10.06697489874435
 30
0.0
 10
1.998866161016606
 20
10.07230611948179
 30
0.0
 10
1.998828538231667
 20
10.07432327175174
 30
0.0
 10
1.998775560143771
 20
10.07703979681127
 30
0.0
 10
1.998757114798654
 20
10.07793185785731
 30
0.0
 10
1.998739469966728
 20
10.07876889747081
 30
0.0
 10
1.998735706105138
 20
10.07894058273412
 30
0.0
 10
1.998735706096303
 20
10.07894058313762
 30
0.0
  0
SPLINE
  5
8ECD
330
8EC3
100
AcDbEntity
  8
0
100
AcDbSpline
210
0.0
220
0.0
230
1.0
 70
     8
 71
     3
 72
    12
 73
     8
 74
     0
 42
0.000000001
 43
0.0000000001
 40
0.0063238705901022
 40
0.0063238705901022
 40
0.0063238705901022
 40
0.0063238705901022
 40
0.0066536407207834
 40
0.0066536407207834
 40
0.008639825738729
 40
0.008639825738729
 40
0.0087253006820007
 40
0.0087253006820007
 40
0.0087253006820007
 40
0.0087253006820007
 10
1.999399054355905
 20
10.02857759079104
 30
0.0
 10
1.99939288400508
 20
10.0288412881677
 30
0.0
 10
1.999387053527934
 20
10.02908881842991
 30
0.0
 10
1.999348675439658
 20
10.03070958345085
 30
0.0
 10
1.999329089506379
 20
10.03149446299892
 30
0.0
 10
1.999327499320119
 20
10.03155858712098
 30
0.0
 10
1.999327466375678
 20
10.03155991427955
 30
0.0
 10
1.999327466389788
 20
10.03155991371113
 30
0.0
  0
SPLINE
  5
8ECE
330
8EC3
100
AcDbEntity
  8
0
100
AcDbSpline
210
0.0
220
0.0
230
1.0
 70
     8
 71
     3
 72
    32
 73
    28
 74
     0
 42
0.000000001
 43
0.0000000001
 40
0.0045629977641072
 40
0.0045629977641072
 40
0.0045629977641072
 40
0.0045629977641072
 40
0.0070665210476901
 40
0.0070665210476901
 40
0.009735792009681
 40
0.009735792009681
 40
0.011219497871508
 40
0.011219497871508
 40
0.0132973784659661
 40
0.0132973784659661
 40
0.016269552229926
 40
0.016269552229926
 40
0.0233576271991645
 40
0.0233576271991645
 40
0.0446174526156897
 40
0.0446174526156897
 40
0.0765616667318931
 40
0.0765616667318931
 40
0.1066760418892245
 40
0.1066760418892245
 40
0.1471715509302258
 40
0.1471715509302258
 40
0.1805108991184204
 40
0.1805108991184204
 40
0.220281291216057
 40
0.220281291216057
 40
0.2444849779230302
 40
0.2444849779230302
 40
0.2444849779230302
 40
0.2444849779230302
 10
1.999436007956555
 20
10.02343352773929
 30
0.0
 10
1.999331085992153
 20
10.02734978478422
 30
0.0
 10
1.999221273406579
 20
10.03123309711285
 30
0.0
 10
1.9989507580892
 20
10.04021019669007
 30
0.0
 10
1.9987832583256
 20
10.04551661828741
 30
0.0
 10
1.998427399355923
 20
10.05577749352585
 30
0.0
 10
1.998279981882362
 20
10.05986382885619
 30
0.0
 10
1.997885605484859
 20
10.07023736393721
 30
0.0
 10
1.997620223512831
 20
10.07679874376853
 30
0.0
 10
1.996919544405354
 20
10.09294308068527
 30
0.0
 10
1.99645615007063
 20
10.1027239150722
 30
0.0
 10
1.994744365960318
 20
10.1358353700504
 30
0.0
 10
1.993289220742476
 20
10.15937980627093
 30
0.0
 10
1.98646864476253
 20
10.2532500462891
 30
0.0
 10
1.979101795317509
 20
10.32334607133904
 30
0.0
 10
1.954121093456219
 20
10.49750666371632
 30
0.0
 10
1.933100362676793
 20
10.60189298136768
 30
0.0
 10
1.876952164263837
 20
10.80087050822217
 30
0.0
 10
1.842246514053377
 20
10.8965226749728
 30
0.0
 10
1.742836735168058
 20
11.1072518678135
 30
0.0
 10
1.669695493395868
 20
11.22003669968836
 30
0.0
 10
1.522672330751244
 20
11.3894232467117
 30
0.0
 10
1.450196913471008
 20
11.45467106047845
 30
0.0
 10
1.28983738549485
 20
11.57326015700062
 30
0.0
 10
1.200076097912229
 20
11.62371514962319
 30
0.0
 10
1.054251400511431
 20
11.69064957796716
 30
0.0
 10
0.9985677621198789
 20
11.71274313195636
 30
0.0
 10
0.9420664873278415
 20
11.73260544765661
 30
0.0
  0
LINE
  5
8ECF
330
8EC3
100
AcDbEntity
  8
0
100
AcDbLine
 10
2.000000000000009
 20
2.000000000000003
 30
0.0
 11
2.000000000000009
 21
10.0
 31
0.0
  0
LINE
  5
8ED0
330
8EC3
100
AcDbEntity
  8
0
100
AcDbLine
 10
2.000000000000001
 20
42.99999999999997
 30
0.0
 11
1.999999999999994
 21
12.56249999999996
 31
0.0
  0
LINE
  5
8ED1
330
8EC3
100
AcDbEntity
  8
0
100
AcDbLine
 10
0.0
 20
42.99999999999997
 30
0.0
 11
2.000000000000001
 21
42.99999999999997
 31
0.0
  0
LINE
  5
8ED2
330
8EC3
100
AcDbEntity
  8
0
100
AcDbLine
 10
0.0
 20
12.56249999999996
 30
0.0
 11
0.0
 21
42.99999999999997
 31
0.0
  0
LINE
  5
8ED3
330
8EC3
100
AcDbEntity
  8
0
100
AcDbLine
 10
86.00000000000001
 20
10.0
 30
0.0
 11
46.00000000000001
 21
42.99999999999997
 31
0.0
  0
LINE
  5
8ED4
330
8EC3
100
AcDbEntity
  8
0
100
AcDbLine
 10
46.00000000000001
 20
42.99999999999997
 30
0.0
 11
46.0
 21
139.9999999999999
 31
0.0
  0
LINE
  5
8ED5
330
8EC3
100
AcDbEntity
  8
0
100
AcDbLine
 10
2.000000000000001
 20
42.99999999999997
 30
0.0
 11
2.000000000000001
 21
140.0
 31
0.0
  0
LINE
  5
8ED6
330
8EC3
100
AcDbEntity
  8
0
100
AcDbLine
 10
86.00000000000001
 20
10.0
 30
0.0
 11
86.0
 21
2.0
 31
0.0
  0
LINE
  5
8ED7
330
8EC3
100
AcDbEntity
  8
0
100
AcDbLine
 10
4.000000000000003
 20
140.0
 30
0.0
 11
46.0
 21
139.9999999999999
 31
0.0
  0
LINE
  5
8ED8
330
8EC3
100
AcDbEntity
  8
0
100
AcDbLine
 10
0.0
 20
140.0
 30
0.0
 11
2.000000000000001
 21
140.0
 31
0.0
  0
LINE
  5
8ED9
330
8EC3
100
AcDbEntity
  8
0
100
AcDbLine
 10
0.0
 20
42.99999999999997
 30
0.0
 11
0.0
 21
140.0
 31
0.0
  0
LINE
  5
8EDA
330
8EC3
100
AcDbEntity
  8
0
100
AcDbLine
 10
2.000000000000001
 20
140.0
 30
0.0
 11
4.000000000000003
 21
140.0
 31
0.0
  0
CIRCLE
  5
8EDB
330
8EC3
100
AcDbEntity
  8
0
100
AcDbCircle
 10
38.49999999999999
 20
35.0
 30
0.0
 40
2.5
  0
CIRCLE
  5
8EDC
330
8EC3
100
AcDbEntity
  8
0
100
AcDbCircle
 10
38.49999999999999
 20
55.0
 30
0.0
 40
2.5
  0
CIRCLE
  5
8EDD
330
8EC3
100
AcDbEntity
  8
0
100
AcDbCircle
 10
38.49999999999999
 20
75.0
 30
0.0
 40
2.5
  0
CIRCLE
  5
8EDE
330
8EC3
100
AcDbEntity
  8
0
100
AcDbCircle
 10
38.49999999999999
 20
95.0
 30
0.0
 40
2.5
  0
CIRCLE
  5
8EDF
330
8EC3
100
AcDbEntity
  8
0
100
AcDbCircle
 10
38.49999999999999
 20
115.0
 30
0.0
 40
2.5
  0
CIRCLE
  5
8EE0
330
8EC3
100
AcDbEntity
  8
0
100
AcDbCircle
 10
38.49999999999999
 20
135.0
 30
0.0
 40
2.5
  0
SPLINE
  5
8EE1
330
8EC3
100
AcDbEntity
  8
0
100
AcDbSpline
210
0.0
220
0.0
230
1.0
 70
     8
 71
     3
 72
     8
 73
     4
 74
     0
 42
0.000000001
 43
0.0000000001
 40
0.0
 40
0.0
 40
0.0
 40
0.0
 40
0.002509111103464
 40
0.002509111103464
 40
0.002509111103464
 40
0.002509111103464
 10
1.999551534600528
 20
9.999999136542532
 30
0.0
 10
1.999525747006305
 20
10.00801122217674
 30
0.0
 10
1.999486859598524
 20
10.01590025876202
 30
0.0
 10
1.99943600795662
 20
10.02343352773424
 30
0.0
  0
ENDBLK
  5
8EC5
330
8EC3
100
AcDbEntity
  8
0
100
AcDbBlockEnd
  0
BLOCK
  5
8EE3
330
8EE2
100
AcDbEntity
  8
0
100
AcDbBlockBegin
  2
SAE380_100_2-Right
 70
     0
 10
0.0
 20
0.0
 30
0.0
  3
SAE380_100_2-Right
  1

  0
SPLINE
  5
8EE5
330
8EE2
100
AcDbEntity
  8
0
100
AcDbSpline
210
0.0
220
0.0
230
1.0
 70
     8
 71
     3
 72
    14
 73
    10
 74
     0
 42
0.000000001
 43
0.0000000001
 40
0.0
 40
0.0
 40
0.0
 40
0.0
 40
0.3435201403992671
 40
0.3435201403992671
 40
0.3435201403992671
 40
0.7570127567962356
 40
0.7570127567962356
 40
0.7570127567962356
 40
1.0
 40
1.0
 40
1.0
 40
1.0
 10
-1.999999999999993
 20
12.56249999999995
 30
0.0
 10
-2.000036880620253
 20
12.30248939774809
 30
0.0
 10
-1.996834301351936
 20
12.07528629123056
 30
0.0
 10
-1.998675474349387
 20
11.84407074683234
 30
0.0
 10
-2.000891680476548
 20
11.56575833029179
 30
0.0
 10
-2.001068977478528
 20
11.27136389236349
 30
0.0
 10
-2.001123170497391
 20
10.85787118806407
 30
0.0
 10
-2.001155016803062
 20
10.61488389320479
 30
0.0
 10
-2.000250524375161
 20
10.35819391791302
 30
0.0
 10
-1.999999999992551
 20
10.00000000165264
 30
0.0
  0
SPLINE
  5
8EE6
330
8EE2
100
AcDbEntity
  8
0
100
AcDbSpline
210
0.0
220
0.0
230
1.0
 70
     8
 71
     3
 72
    14
 73
    10
 74
     0
 42
0.000000001
 43
0.0000000001
 40
-0.4812947826499939
 40
-0.4812947826499939
 40
-0.4812947826499939
 40
-0.4812947826499939
 40
-0.3760548405708906
 40
-0.3760548405708906
 40
-0.3760548405708906
 40
-0.0764956636428966
 40
-0.0764956636428966
 40
-0.0764956636428966
 40
0.0
 40
0.0
 40
0.0
 40
0.0
 10
-0.9453931030334747
 20
11.73176443994289
 30
0.0
 10
-0.8407778630110083
 20
11.76869255411854
 30
0.0
 10
-0.7370280984292677
 20
11.80056667972473
 30
0.0
 10
-0.6387472629466819
 20
11.83427526822471
 30
0.0
 10
-0.3589967651477591
 20
11.93022474165629
 30
0.0
 10
-0.1216595940199193
 20
12.04007652482484
 30
0.0
 10
-0.0342334975194183
 20
12.31452405591949
 30
0.0
 10
-0.0119083017430883
 20
12.38460719021548
 30
0.0
 10
-0.0000045433204783
 20
12.46773705178901
 30
0.0
 10
-0.0000000001152099
 20
12.56250000004001
 30
0.0
  0
LINE
  5
8EE7
330
8EE2
100
AcDbEntity
  8
0
100
AcDbLine
 10
-1.999999999999994
 20
12.56249999999996
 30
0.0
 11
0.0
 21
12.56249999999996
 31
0.0
  0
SPLINE
  5
8EE8
330
8EE2
100
AcDbEntity
  8
0
100
AcDbSpline
210
0.0
220
0.0
230
1.0
 70
     8
 71
     3
 72
    18
 73
    14
 74
     0
 42
0.000000001
 43
0.0000000001
 40
0.0122742596939715
 40
0.0122742596939715
 40
0.0122742596939715
 40
0.0122742596939715
 40
0.0127936908447318
 40
0.0127936908447318
 40
0.0141059018702752
 40
0.0141059018702752
 40
0.0167581467129027
 40
0.0167581467129027
 40
0.0193867873582228
 40
0.0193867873582228
 40
0.022800088169673
 40
0.022800088169673
 40
0.0243493843092135
 40
0.0243493843092135
 40
0.0243493843092135
 40
0.0243493843092135
 10
-1.998735706096239
 20
10.07894058314058
 30
0.0
 10
-1.998735706096984
 20
10.07894058310659
 30
0.0
 10
-1.998737593654869
 20
10.07885444276017
 30
0.0
 10
-1.998750237502846
 20
10.07826182598259
 30
0.0
 10
-1.998770389690308
 20
10.07730210342759
 30
0.0
 10
-1.998852237352269
 20
10.07311351814911
 30
0.0
 10
-1.998935408994956
 20
10.06851475805308
 30
0.0
 10
-1.999100212897386
 20
10.05757950758026
 30
0.0
 10
-1.999184076887096
 20
10.05113993511761
 30
0.0
 10
-1.999353192110369
 20
10.03515516392653
 30
0.0
 10
-1.999433358493242
 20
10.02508412099664
 30
0.0
 10
-1.999514827965278
 20
10.00982434960256
 30
0.0
 10
-1.999535611582961
 20
10.00494634407177
 30
0.0
 10
-1.999551534600528
 20
9.999999136542534
 30
0.0
  0
SPLINE
  5
8EE9
330
8EE2
100
AcDbEntity
  8
0
100
AcDbSpline
210
0.0
220
0.0
230
1.0
 70
     8
 71
     3
 72
    10
 73
     6
 74
     0
 42
0.000000001
 43
0.0000000001
 40
0.0086744650649014
 40
0.0086744650649014
 40
0.0086744650649014
 40
0.0086744650649014
 40
0.0108228628027986
 40
0.0108228628027986
 40
0.0110653968923221
 40
0.0110653968923221
 40
0.0110653968923221
 40
0.0110653968923221
 10
-1.999327466389665
 20
10.03155991371611
 30
0.0
 10
-1.999327466386275
 20
10.03155991385271
 30
0.0
 10
-1.9993489750654
 20
10.03070111367434
 30
0.0
 10
-1.999389896043486
 20
10.02896802325314
 30
0.0
 10
-1.999394241293075
 20
10.02878324465036
 30
0.0
 10
-1.999398770466635
 20
10.02858972198087
 30
0.0
  0
SPLINE
  5
8EEA
330
8EE2
100
AcDbEntity
  8
0
100
AcDbSpline
210
0.0
220
0.0
230
1.0
 70
     8
 71
     3
 72
    28
 73
    24
 74
     0
 42
0.000000001
 43
0.0000000001
 40
0.0
 40
0.0
 40
0.0
 40
0.0
 40
0.0650102908184318
 40
0.0650102908184318
 40
0.1023324561129216
 40
0.1023324561129216
 40
0.141482666851866
 40
0.141482666851866
 40
0.1749068537822351
 40
0.1749068537822351
 40
0.2169334883041494
 40
0.2169334883041494
 40
0.2285785361484484
 40
0.2285785361484484
 40
0.2316565124606761
 40
0.2316565124606761
 40
0.2332781700553598
 40
0.2332781700553598
 40
0.234906055258839
 40
0.234906055258839
 40
0.2381845221549447
 40
0.2381845221549447
 40
0.2396855103392475
 40
0.2396855103392475
 40
0.2396855103392475
 40
0.2396855103392475
 10
-0.9420664873278782
 20
11.7326054476566
 30
0.0
 10
-1.093827016635412
 20
11.67925593377325
 30
0.0
 10
-1.242360483911782
 20
11.60988808095562
 30
0.0
 10
-1.466477993049554
 20
11.44169360770164
 30
0.0
 10
-1.547435732554092
 20
11.3659131060658
 30
0.0
 10
-1.695468924312871
 20
11.18238000887097
 30
0.0
 10
-1.763077923667946
 20
11.07037577808378
 30
0.0
 10
-1.860502950929196
 20
10.85074525650895
 30
0.0
 10
-1.895818805720712
 20
10.74318475625197
 30
0.0
 10
-1.955917944832622
 20
10.49953289960598
 30
0.0
 10
-1.976611776675817
 20
10.36170243887649
 30
0.0
 10
-1.991715258041025
 20
10.18424024501756
 30
0.0
 10
-1.994303668590398
 20
10.14541748523793
 30
0.0
 10
-1.996728798061251
 20
10.09707025398255
 30
0.0
 10
-1.997190995532215
 20
10.0869514897491
 30
0.0
 10
-1.997806334541142
 20
10.07218416023835
 30
0.0
 10
-1.998003198553402
 20
10.06719015188253
 30
0.0
 10
-1.998353179043004
 20
10.05787261069472
 30
0.0
 10
-1.998507418066003
 20
10.05352068601507
 30
0.0
 10
-1.998900463931592
 20
10.04196511768261
 30
0.0
 10
-1.999076880174149
 20
10.03615257294361
 30
0.0
 10
-1.999300465992597
 20
10.0283966812767
 30
0.0
 10
-1.999369133833141
 20
10.02592495068334
 30
0.0
 10
-1.999435914562295
 20
10.02342847122412
 30
0.0
  0
LINE
  5
8EEB
330
8EE2
100
AcDbEntity
  8
0
100
AcDbLine
 10
-2.000000000000004
 20
-2.0
 30
0.0
 11
-86.0
 21
-2.0
 31
0.0
  0
LINE
  5
8EEC
330
8EE2
100
AcDbEntity
  8
0
100
AcDbLine
 10
-2.000000000000009
 20
2.000000000000003
 30
0.0
 11
-2.000000000000009
 21
10.0
 31
0.0
  0
LINE
  5
8EED
330
8EE2
100
AcDbEntity
  8
0
100
AcDbLine
 10
-2.000000000000009
 20
2.000000000000004
 30
0.0
 11
-2.000000000000004
 21
-1.999999999999999
 31
0.0
  0
LINE
  5
8EEE
330
8EE2
100
AcDbEntity
  8
0
100
AcDbLine
 10
-86.0
 20
-2.000000000000002
 30
0.0
 11
-86.0
 21
2.0
 31
0.0
  0
LINE
  5
8EEF
330
8EE2
100
AcDbEntity
  8
0
100
AcDbLine
 10
0.0
 20
42.99999999999997
 30
0.0
 11
0.0
 21
12.56249999999996
 31
0.0
  0
LINE
  5
8EF0
330
8EE2
100
AcDbEntity
  8
0
100
AcDbLine
 10
-2.000000000000001
 20
42.99999999999997
 30
0.0
 11
0.0
 21
42.99999999999997
 31
0.0
  0
LINE
  5
8EF1
330
8EE2
100
AcDbEntity
  8
0
100
AcDbLine
 10
-1.999999999999994
 20
12.56249999999996
 30
0.0
 11
-2.000000000000001
 21
42.99999999999997
 31
0.0
  0
LINE
  5
8EF2
330
8EE2
100
AcDbEntity
  8
0
100
AcDbLine
 10
0.0
 20
42.99999999999997
 30
0.0
 11
0.0
 21
140.0
 31
0.0
  0
CIRCLE
  5
8EF3
330
8EE2
100
AcDbEntity
  8
0
100
AcDbCircle
 10
-38.50000000000002
 20
125.0
 30
0.0
 40
2.5
  0
LINE
  5
8EF4
330
8EE2
100
AcDbEntity
  8
0
100
AcDbLine
 10
-46.00000000000001
 20
42.99999999999997
 30
0.0
 11
-86.00000000000001
 21
10.0
 31
0.0
  0
LINE
  5
8EF5
330
8EE2
100
AcDbEntity
  8
0
100
AcDbLine
 10
-46.0
 20
139.9999999999999
 30
0.0
 11
-46.00000000000001
 21
42.99999999999997
 31
0.0
  0
LINE
  5
8EF6
330
8EE2
100
AcDbEntity
  8
0
100
AcDbLine
 10
-86.00000000000001
 20
10.0
 30
0.0
 11
-86.0
 21
2.0
 31
0.0
  0
LINE
  5
8EF7
330
8EE2
100
AcDbEntity
  8
0
100
AcDbLine
 10
-4.000000000000003
 20
140.0
 30
0.0
 11
-46.0
 21
139.9999999999999
 31
0.0
  0
LINE
  5
8EF8
330
8EE2
100
AcDbEntity
  8
0
100
AcDbLine
 10
-2.000000000000001
 20
140.0
 30
0.0
 11
-4.000000000000003
 21
140.0
 31
0.0
  0
LINE
  5
8EF9
330
8EE2
100
AcDbEntity
  8
0
100
AcDbLine
 10
0.0
 20
140.0
 30
0.0
 11
-2.000000000000001
 21
140.0
 31
0.0
  0
LINE
  5
8EFA
330
8EE2
100
AcDbEntity
  8
0
100
AcDbLine
 10
-2.000000000000001
 20
42.99999999999997
 30
0.0
 11
-2.000000000000001
 21
140.0
 31
0.0
  0
CIRCLE
  5
8EFB
330
8EE2
100
AcDbEntity
  8
0
100
AcDbCircle
 10
-38.50000000000002
 20
24.99999999999998
 30
0.0
 40
2.5
  0
CIRCLE
  5
8EFC
330
8EE2
100
AcDbEntity
  8
0
100
AcDbCircle
 10
-38.50000000000002
 20
44.99999999999999
 30
0.0
 40
2.5
  0
CIRCLE
  5
8EFD
330
8EE2
100
AcDbEntity
  8
0
100
AcDbCircle
 10
-38.50000000000002
 20
64.99999999999999
 30
0.0
 40
2.5
  0
CIRCLE
  5
8EFE
330
8EE2
100
AcDbEntity
  8
0
100
AcDbCircle
 10
-38.50000000000002
 20
84.99999999999998
 30
0.0
 40
2.5
  0
CIRCLE
  5
8EFF
330
8EE2
100
AcDbEntity
  8
0
100
AcDbCircle
 10
-38.50000000000002
 20
105.0
 30
0.0
 40
2.5
  0
SPLINE
  5
8F00
330
8EE2
100
AcDbEntity
  8
0
100
AcDbSpline
210
0.0
220
0.0
230
1.0
 70
     8
 71
     3
 72
    10
 73
     6
 74
     0
 42
0.000000001
 43
0.0000000001
 40
0.0218290831498806
 40
0.0218290831498806
 40
0.0218290831498806
 40
0.0218290831498806
 40
0.022800088169673
 40
0.022800088169673
 40
0.0243493843092135
 40
0.0243493843092135
 40
0.0243493843092135
 40
0.0243493843092135
 10
-1.999435914562296
 20
10.02342847122412
 30
0.0
 10
-1.99945555936363
 20
10.02052559487388
 30
0.0
 10
-1.999473452933848
 20
10.0175741668687
 30
0.0
 10
-1.999514827965278
 20
10.00982434960256
 30
0.0
 10
-1.999535611582961
 20
10.00494634407177
 30
0.0
 10
-1.999551534600528
 20
9.999999136542534
 30
0.0
  0
ENDBLK
  5
8EE4
330
8EE2
100
AcDbEntity
  8
0
100
AcDbBlockEnd
  0
BLOCK
  5
8F02
330
8F01
100
AcDbEntity
  8
0
100
AcDbBlockBegin
  2
SAE380_100_2-Top
 70
     0
 10
0.0
 20
0.0
 30
0.0
  3
SAE380_100_2-Top
  1

  0
LINE
  5
8F04
330
8F01
100
AcDbEntity
  8
0
100
AcDbLine
 10
50.0
 20
-2.000000000000007
 30
0.0
 11
50.0
 21
-2.069004766167813
 31
0.0
  0
SPLINE
  5
8F05
330
8F01
100
AcDbEntity
  8
0
100
AcDbSpline
210
0.0
220
0.0
230
1.0
 70
     8
 71
     3
 72
    11
 73
     7
 74
     0
 42
0.000000001
 43
0.0000000001
 40
-1.0
 40
-1.0
 40
-1.0
 40
-1.0
 40
-0.799422916992329
 40
-0.799422916992329
 40
-0.799422916992329
 40
-0.6533567280361974
 40
-0.6533567280361974
 40
-0.6533567280361974
 40
-0.6533567280361974
 10
49.99999999999996
 20
-1.999999999999987
 30
0.0
 10
49.99999961269016
 20
-1.99909351253794
 30
0.0
 10
50.12633724888665
 20
-1.91986482836204
 30
0.0
 10
50.33609665275655
 20
-1.790678672555201
 30
0.0
 10
50.48884968047812
 20
-1.696601477086782
 30
0.0
 10
50.68838688637402
 20
-1.577384795867325
 30
0.0
 10
50.91983662718179
 20
-1.445336730391567
 30
0.0
  0
SPLINE
  5
8F06
330
8F01
100
AcDbEntity
  8
0
100
AcDbSpline
210
0.0
220
0.0
230
1.0
 70
     8
 71
     3
 72
    22
 73
    18
 74
     0
 42
0.000000001
 43
0.0000000001
 40
0.0
 40
0.0
 40
0.0
 40
0.0
 40
0.0062834381493248
 40
0.0062834381493248
 40
0.0147058049815429
 40
0.0147058049815429
 40
0.0373755793512976
 40
0.0373755793512976
 40
0.0501947865531634
 40
0.0501947865531634
 40
0.0667274351691496
 40
0.0667274351691496
 40
0.0745951079036872
 40
0.0745951079036872
 40
0.0808821788618634
 40
0.0808821788618634
 40
0.0850548433241986
 40
0.0850548433241986
 40
0.0850548433241986
 40
0.0850548433241986
 10
54.56214430292887
 20
-2.000020290751264
 30
0.0
 10
54.54700960597531
 20
-2.00002142546288
 30
0.0
 10
54.52948500200287
 20
-2.000028425796063
 30
0.0
 10
54.48709187817333
 20
-2.000060615575907
 30
0.0
 10
54.46142391801785
 20
-2.00009234561198
 30
0.0
 10
54.36626722184257
 20
-2.000257841535579
 30
0.0
 10
54.29520834528794
 20
-2.000490386301789
 30
0.0
 10
54.18816022249749
 20
-2.000912253181636
 30
0.0
 10
54.15315286392479
 20
-2.001031881989327
 30
0.0
 10
54.07004998830777
 20
-2.001571991476453
 30
0.0
 10
54.01811518827919
 20
-2.002075843431157
 30
0.0
 10
53.93881711741554
 20
-2.003973453434595
 30
0.0
 10
53.91258353190107
 20
-2.004777578163128
 30
0.0
 10
53.86545376821614
 20
-2.006716589789208
 30
0.0
 10
53.84430846019476
 20
-2.007765721333973
 30
0.0
 10
53.81018213728374
 20
-2.009824043718967
 30
0.0
 10
53.79667677849453
 20
-2.010739680501513
 30
0.0
 10
53.78400618478661
 20
-2.011697617735706
 30
0.0
  0
SPLINE
  5
8F07
330
8F01
100
AcDbEntity
  8
0
100
AcDbSpline
210
0.0
220
0.0
230
1.0
 70
     8
 71
     3
 72
    20
 73
    16
 74
     0
 42
0.000000001
 43
0.0000000001
 40
0.0641171495784699
 40
0.0641171495784699
 40
0.0641171495784699
 40
0.0641171495784699
 40
0.0663364447070742
 40
0.0663364447070742
 40
0.0719857387985228
 40
0.0719857387985228
 40
0.0726844053027243
 40
0.0726844053027243
 40
0.0728641129998676
 40
0.0728641129998676
 40
0.0730236562560606
 40
0.0730236562560606
 40
0.0731531586936237
 40
0.0731531586936237
 40
0.0733711843109124
 40
0.0733711843109124
 40
0.0733711843109124
 40
0.0733711843109124
 10
52.00192057167168
 20
-3.912392841584235
 30
0.0
 10
52.00176077706228
 20
-3.917494965058397
 30
0.0
 10
52.00160445706508
 20
-3.922755388254475
 30
0.0
 10
52.00107504749163
 20
-3.941895774337954
 30
0.0
 10
52.00073811948862
 20
-3.956122482856568
 30
0.0
 10
52.00038592537898
 20
-3.975346306563589
 30
0.0
 10
52.00034639419122
 20
-3.977574435952546
 30
0.0
 10
52.00029679479857
 20
-3.980480543371221
 30
0.0
 10
52.00028660028607
 20
-3.981083731604466
 30
0.0
 10
52.00026771328996
 20
-3.982212397696498
 30
0.0
 10
52.0002588957292
 20
-3.982744126783736
 30
0.0
 10
52.00024367973497
 20
-3.983669488471423
 30
0.0
 10
52.00023707487857
 20
-3.984074113424864
 30
0.0
 10
52.00022051873681
 20
-3.985094677654595
 30
0.0
 10
52.00021119879288
 20
-3.985676240448752
 30
0.0
 10
52.00020329588578
 20
-3.986173058168161
 30
0.0
  0
SPLINE
  5
8F08
330
8F01
100
AcDbEntity
  8
0
100
AcDbSpline
210
0.0
220
0.0
230
1.0
 70
     8
 71
     3
 72
    14
 73
    10
 74
     0
 42
0.000000001
 43
0.0000000001
 40
0.1124644006527797
 40
0.1124644006527797
 40
0.1124644006527797
 40
0.1124644006527797
 40
0.1134189574599713
 40
0.1134189574599713
 40
0.1156439856688799
 40
0.1156439856688799
 40
0.1181756709358216
 40
0.1181756709358216
 40
0.1203710377943682
 40
0.1203710377943682
 40
0.1203710377943682
 40
0.1203710377943682
 10
52.00046661805594
 20
-3.9663713712717
 30
0.0
 10
52.00046661804055
 20
-3.966371372222626
 30
0.0
 10
52.00046289331887
 20
-3.96660049425502
 30
0.0
 10
52.00043931840385
 20
-3.968087376221239
 30
0.0
 10
52.00040385090776
 20
-3.970355115001956
 30
0.0
 10
52.0003132067573
 20
-3.976828392473381
 30
0.0
 10
52.00025632920283
 20
-3.981261286471329
 30
0.0
 10
52.00015736430799
 20
-3.990426644435288
 30
0.0
 10
52.00011372377774
 20
-3.995074712738568
 30
0.0
 10
52.0000756107028
 20
-4.000000545744575
 30
0.0
  0
SPLINE
  5
8F09
330
8F01
100
AcDbEntity
  8
0
100
AcDbSpline
210
0.0
220
0.0
230
1.0
 70
     8
 71
     3
 72
    28
 73
    24
 74
     0
 42
0.000000001
 43
0.0000000001
 40
0.0059923983232089
 40
0.0059923983232089
 40
0.0059923983232089
 40
0.0059923983232089
 40
0.0060018372747354
 40
0.0060018372747354
 40
0.0060343728917501
 40
0.0060343728917501
 40
0.0061001207987049
 40
0.0061001207987049
 40
0.0063665703384166
 40
0.0063665703384166
 40
0.0733612099250847
 40
0.0733612099250847
 40
0.1461777980094951
 40
0.1461777980094951
 40
0.1822197205491476
 40
0.1822197205491476
 40
0.2005090900463035
 40
0.2005090900463035
 40
0.2098937684313326
 40
0.2098937684313326
 40
0.2150065139484645
 40
0.2150065139484645
 40
0.2204217674648128
 40
0.2204217674648128
 40
0.2204217674648128
 40
0.2204217674648128
 10
49.99996683550282
 20
-3.998262424363069
 30
0.0
 10
49.99996641640189
 20
-3.998238317032344
 30
0.0
 10
49.9999659866971
 20
-3.998213598609056
 30
0.0
 10
49.99996402936766
 20
-3.998100999139282
 30
0.0
 10
49.99996237734266
 20
-3.998005947482855
 30
0.0
 10
49.9999571747978
 20
-3.997706548840451
 30
0.0
 10
49.99995334613942
 20
-3.997486129717968
 30
0.0
 10
49.99993419728189
 20
-3.996383208107334
 30
0.0
 10
49.99991873375583
 20
-3.995490941725627
 30
0.0
 10
49.99618179819087
 20
-3.779498094751538
 30
0.0
 10
49.99444382735963
 20
-3.585310072551876
 30
0.0
 10
49.99316940704928
 20
-3.164116821540878
 30
0.0
 10
49.99375519812211
 20
-2.938044529271588
 30
0.0
 10
49.99572386798897
 20
-2.597038394612465
 30
0.0
 10
49.99651060780642
 20
-2.48524329194466
 30
0.0
 10
49.99791998612727
 20
-2.319629690165336
 30
0.0
 10
49.99852173120587
 20
-2.262940871163705
 30
0.0
 10
49.99923838904644
 20
-2.18097273325718
 30
0.0
 10
49.99942028499059
 20
-2.153992698871306
 30
0.0
 10
49.99955633677915
 20
-2.117588851214804
 30
0.0
 10
49.99957946480126
 20
-2.105610803616757
 30
0.0
 10
49.99959432353673
 20
-2.084188232647035
 30
0.0
 10
49.99958391144499
 20
-2.074632504624264
 30
0.0
 10
49.99957228829784
 20
-2.069004766167813
 30
0.0
  0
SPLINE
  5
8F0A
330
8F01
100
AcDbEntity
  8
0
100
AcDbSpline
210
0.0
220
0.0
230
1.0
 70
     8
 71
     3
 72
    12
 73
     8
 74
     0
 42
0.000000001
 43
0.0000000001
 40
0.0
 40
0.0
 40
0.0
 40
0.0
 40
0.0073680638615032
 40
0.0073680638615032
 40
0.009471479455696
 40
0.009471479455696
 40
0.0106892344304255
 40
0.0106892344304255
 40
0.0106892344304255
 40
0.0106892344304255
 10
49.9999605385382
 20
-3.999985503002878
 30
0.0
 10
50.0000012068911
 20
-3.988738678363101
 30
0.0
 10
50.00005705426694
 20
-3.976817397481971
 30
0.0
 10
50.00011475911471
 20
-3.966829073052169
 30
0.0
 10
50.00012596496198
 20
-3.965004429908505
 30
0.0
 10
50.00013624741438
 20
-3.96334074943104
 30
0.0
 10
50.00013843227582
 20
-3.962989239759016
 30
0.0
 10
50.00013843227577
 20
-3.962989239767163
 30
0.0
  0
LINE
  5
8F0B
330
8F01
100
AcDbEntity
  8
0
100
AcDbLine
 10
-50.0
 20
-2.000000000000007
 30
0.0
 11
-50.0
 21
-2.069004766166258
 31
0.0
  0
SPLINE
  5
8F0C
330
8F01
100
AcDbEntity
  8
0
100
AcDbSpline
210
0.0
220
0.0
230
1.0
 70
     8
 71
     3
 72
    11
 73
     7
 74
     0
 42
0.000000001
 43
0.0000000001
 40
-1.0
 40
-1.0
 40
-1.0
 40
-1.0
 40
-0.799422916992329
 40
-0.799422916992329
 40
-0.799422916992329
 40
-0.6533567280361974
 40
-0.6533567280361974
 40
-0.6533567280361974
 40
-0.6533567280361974
 10
-49.99999999999996
 20
-1.999999999999987
 30
0.0
 10
-49.99999961269016
 20
-1.99909351253794
 30
0.0
 10
-50.12633724888665
 20
-1.91986482836204
 30
0.0
 10
-50.33609665275655
 20
-1.790678672555201
 30
0.0
 10
-50.48884968047812
 20
-1.696601477086782
 30
0.0
 10
-50.68838688637402
 20
-1.577384795867325
 30
0.0
 10
-50.91983662718179
 20
-1.445336730391567
 30
0.0
  0
SPLINE
  5
8F0D
330
8F01
100
AcDbEntity
  8
0
100
AcDbSpline
210
0.0
220
0.0
230
1.0
 70
     8
 71
     3
 72
    40
 73
    36
 74
     0
 42
0.000000001
 43
0.0000000001
 40
0.0
 40
0.0
 40
0.0
 40
0.0
 40
0.0038040597903174
 40
0.0038040597903174
 40
0.0084789253968126
 40
0.0084789253968126
 40
0.0158054477878092
 40
0.0158054477878092
 40
0.0260000339102061
 40
0.0260000339102061
 40
0.0495206341504034
 40
0.0495206341504034
 40
0.120110397633808
 40
0.120110397633808
 40
0.1773337560794553
 40
0.1773337560794553
 40
0.1996793203952821
 40
0.1996793203952821
 40
0.208057629260025
 40
0.208057629260025
 40
0.2111994531595131
 40
0.2111994531595131
 40
0.213555871401372
 40
0.213555871401372
 40
0.2139977577340101
 40
0.2139977577340101
 40
0.214330084767922
 40
0.214330084767922
 40
0.2143843563986274
 40
0.2143843563986274
 40
0.2144316604248316
 40
0.2144316604248316
 40
0.2144792389600866
 40
0.2144792389600866
 40
0.2144971596619917
 40
0.2144971596619917
 40
0.2144971596619917
 40
0.2144971596619917
 10
-49.99957228829785
 20
-2.069004766166258
 30
0.0
 10
-49.99958045322433
 20
-2.072958090513916
 30
0.0
 10
-49.99958825487929
 20
-2.078881092781383
 30
0.0
 10
-49.9995905378611
 20
-2.094285445045613
 30
0.0
 10
-49.99958182785673
 20
-2.104402911668699
 30
0.0
 10
-49.99951287324457
 20
-2.132562809466712
 30
0.0
 10
-49.99942216624818
 20
-2.15217078939205
 30
0.0
 10
-49.99908018252646
 20
-2.201629641527999
 30
0.0
 10
-49.99878019266313
 20
-2.232656804155622
 30
0.0
 10
-49.99777927585896
 20
-2.335149021784068
 30
0.0
 10
-49.9971632484274
 20
-2.406783095422504
 30
0.0
 10
-49.99498744671346
 20
-2.695965520674403
 30
0.0
 10
-49.99378539075864
 20
-2.921302544861963
 30
0.0
 10
-49.99344334743888
 20
-3.312943744741404
 30
0.0
 10
-49.99387955179781
 20
-3.483506421124904
 30
0.0
 10
-49.99604610975573
 20
-3.724044481523822
 30
0.0
 10
-49.99683120503029
 20
-3.79215875247634
 30
0.0
 10
-49.99816331314378
 20
-3.886565426017502
 30
0.0
 10
-49.99855192421208
 20
-3.912373805057229
 30
0.0
 10
-49.99912013917121
 20
-3.947930080505414
 30
0.0
 10
-49.99927855671462
 20
-3.957633748372109
 30
0.0
 10
-49.99956197410127
 20
-3.974638549922812
 30
0.0
 10
-49.99968506328283
 20
-3.981912967325934
 30
0.0
 10
-49.99983522410565
 20
-3.990654822293406
 30
0.0
 10
-49.99985906975699
 20
-3.992039209574624
 30
0.0
 10
-49.99990152971299
 20
-3.994497288022365
 30
0.0
 10
-49.99992010921062
 20
-3.995570671807706
 30
0.0
 10
-49.99994240112997
 20
-3.996855636071363
 30
0.0
 10
-49.9999455560272
 20
-3.997037427021456
 30
0.0
 10
-49.99995141894036
 20
-3.99737513711665
 30
0.0
 10
-49.99995415569287
 20
-3.99753272646509
 30
0.0
 10
-49.99995943835175
 20
-3.997836825123308
 30
0.0
 10
-49.99996202132749
 20
-3.997985466923574
 30
0.0
 10
-49.99996520047147
 20
-3.998168370728583
 30
0.0
 10
-49.99996603702985
 20
-3.998216494935197
 30
0.0
 10
-49.99996683550314
 20
-3.998262424276167
 30
0.0
  0
SPLINE
  5
8F0E
330
8F01
100
AcDbEntity
  8
0
100
AcDbSpline
210
0.0
220
0.0
230
1.0
 70
     8
 71
     3
 72
    14
 73
    10
 74
     0
 42
0.000000001
 43
0.0000000001
 40
0.0077867807827554
 40
0.0077867807827554
 40
0.0077867807827554
 40
0.0077867807827554
 40
0.0083979033033855
 40
0.0083979033033855
 40
0.0105249654768082
 40
0.0105249654768082
 40
0.0138644923058915
 40
0.0138644923058915
 40
0.0184801346820913
 40
0.0184801346820913
 40
0.0184801346820913
 40
0.0184801346820913
 10
-50.00013843227578
 20
-3.962989239765088
 30
0.0
 10
-50.00013843227574
 20
-3.962989239770404
 30
0.0
 10
-50.00013788506618
 20
-3.963077842500998
 30
0.0
 10
-50.00013331027577
 20
-3.963815700300168
 30
0.0
 10
-50.00012394049679
 20
-3.965314845093735
 30
0.0
 10
-50.00009364632251
 20
-3.970424767328589
 30
0.0
 10
-50.0000696035535
 20
-3.974738183147634
 30
0.0
 10
-50.00001543374172
 20
-3.985811780746779
 30
0.0
 10
-49.99998601477954
 20
-3.992940053699647
 30
0.0
 10
-49.9999605385382
 20
-3.999985503002878
 30
0.0
  0
SPLINE
  5
8F0F
330
8F01
100
AcDbEntity
  8
0
100
AcDbSpline
210
0.0
220
0.0
230
1.0
 70
     8
 71
     3
 72
    14
 73
    10
 74
     0
 42
0.000000001
 43
0.0000000001
 40
0.0
 40
0.0
 40
0.0
 40
0.0
 40
0.0032434846633213
 40
0.0032434846633213
 40
0.006013864611748
 40
0.006013864611748
 40
0.0075916569183425
 40
0.0075916569183425
 40
0.0079057527362756
 40
0.0079057527362756
 40
0.0079057527362756
 40
0.0079057527362756
 10
-52.00007561070279
 20
-4.000000545744573
 30
0.0
 10
-52.00013191982197
 20
-3.992723008622853
 30
0.0
 10
-52.0002012224551
 20
-3.986003497209069
 30
0.0
 10
-52.00032918575766
 20
-3.975520321389849
 30
0.0
 10
-52.00038843661457
 20
-3.97143011458267
 30
0.0
 10
-52.00044735462924
 20
-3.967564487782473
 30
0.0
 10
-52.00046151096547
 20
-3.966688239383672
 30
0.0
 10
-52.00046622403527
 20
-3.966395704576002
 30
0.0
 10
-52.00046661805579
 20
-3.966371371281736
 30
0.0
 10
-52.000466618056
 20
-3.966371371268567
 30
0.0
  0
SPLINE
  5
8F10
330
8F01
100
AcDbEntity
  8
0
100
AcDbSpline
210
0.0
220
0.0
230
1.0
 70
     8
 71
     3
 72
    24
 73
    20
 74
     0
 42
0.000000001
 43
0.0000000001
 40
0.0470124644140523
 40
0.0470124644140523
 40
0.0470124644140523
 40
0.0470124644140523
 40
0.0470594862516594
 40
0.0470594862516594
 40
0.0472222671050941
 40
0.0472222671050941
 40
0.0473852756099898
 40
0.0473852756099898
 40
0.0477156443893262
 40
0.0477156443893262
 40
0.0480404846502435
 40
0.0480404846502435
 40
0.048597573670462
 40
0.048597573670462
 40
0.0497869624040635
 40
0.0497869624040635
 40
0.0528454618955185
 40
0.0528454618955185
 40
0.0562813693107168
 40
0.0562813693107168
 40
0.0562813693107168
 40
0.0562813693107168
 10
-52.00020328819469
 20
-3.986173504368136
 30
0.0
 10
-52.00020498471876
 20
-3.986066852067672
 30
0.0
 10
-52.00020673790249
 20
-3.985956866398205
 30
0.0
 10
-52.00021482567033
 20
-3.985450355125897
 30
0.0
 10
-52.00022190424726
 20
-3.985009745026866
 30
0.0
 10
-52.00023728141312
 20
-3.984060982433317
 30
0.0
 10
-52.00024569671396
 20
-3.983545741994209
 30
0.0
 10
-52.00027200251477
 20
-3.981950180725531
 30
0.0
 10
-52.00029116770648
 20
-3.980808390290374
 30
0.0
 10
-52.00032816847824
 20
-3.978644439786517
 30
0.0
 10
-52.00034655086203
 20
-3.977588311713624
 30
0.0
 10
-52.00039589246571
 20
-3.974799056152673
 30
0.0
 10
-52.00042683733933
 20
-3.973098995891574
 30
0.0
 10
-52.00052365233574
 20
-3.967911219161019
 30
0.0
 10
-52.0005899695066
 20
-3.96454687793335
 30
0.0
 10
-52.00083206546651
 20
-3.95282332948997
 30
0.0
 10
-52.00101736819334
 20
-3.944864404919646
 30
0.0
 10
-52.00143573433809
 20
-3.928560256329168
 30
0.0
 10
-52.00167336136352
 20
-3.920275300075002
 30
0.0
 10
-52.00192055535916
 20
-3.912382578960072
 30
0.0
  0
SPLINE
  5
8F11
330
8F01
100
AcDbEntity
  8
0
100
AcDbSpline
210
0.0
220
0.0
230
1.0
 70
     8
 71
     3
 72
    22
 73
    18
 74
     0
 42
0.000000001
 43
0.0000000001
 40
0.047842495036957
 40
0.047842495036957
 40
0.047842495036957
 40
0.047842495036957
 40
0.0505206700875193
 40
0.0505206700875193
 40
0.0557907468293993
 40
0.0557907468293993
 40
0.0637354180689221
 40
0.0637354180689221
 40
0.0751923872631662
 40
0.0751923872631662
 40
0.0899440114901269
 40
0.0899440114901269
 40
0.108175757964107
 40
0.108175757964107
 40
0.1267677336542443
 40
0.1267677336542443
 40
0.1329166086764333
 40
0.1329166086764333
 40
0.1329166086764333
 40
0.1329166086764333
 10
-53.78400568582401
 20
-2.011697818839168
 30
0.0
 10
-53.79214624099152
 20
-2.011082366944668
 30
0.0
 10
-53.80063456023598
 20
-2.010483191871747
 30
0.0
 10
-53.82613745274571
 20
-2.008810540926607
 30
0.0
 10
-53.84370300505408
 20
-2.00782283633625
 30
0.0
 10
-53.88763450711552
 20
-2.00570446444644
 30
0.0
 10
-53.91435601604381
 20
-2.004731535267132
 30
0.0
 10
-53.97810991965783
 20
-2.00291464775129
 30
0.0
 10
-54.01514730051857
 20
-2.002286943476022
 30
0.0
 10
-54.09512567555752
 20
-2.001329432558467
 30
0.0
 10
-54.1356976380721
 20
-2.001132540013319
 30
0.0
 10
-54.22892435741926
 20
-2.000741918813925
 30
0.0
 10
-54.28733019972177
 20
-2.000505885543267
 30
0.0
 10
-54.40025108174257
 20
-2.00018397277346
 30
0.0
 10
-54.45905078597672
 20
-2.000081116916424
 30
0.0
 10
-54.53023069432249
 20
-2.000028132716821
 30
0.0
 10
-54.54733372345714
 20
-2.000021401162436
 30
0.0
 10
-54.56214430292885
 20
-2.000020290751266
 30
0.0
  0
LINE
  5
8F12
330
8F01
100
AcDbEntity
  8
0
100
AcDbLine
 10
-50.0
 20
-2.000000000000007
 30
0.0
 11
-48.0
 21
-2.000000000000004
 31
0.0
  0
LINE
  5
8F13
330
8F01
100
AcDbEntity
  8
0
100
AcDbLine
 10
-50.0
 20
-86.0
 30
0.0
 11
-47.99999999999998
 21
-86.0
 31
0.0
  0
LINE
  5
8F14
330
8F01
100
AcDbEntity
  8
0
100
AcDbLine
 10
48.00000000000001
 20
-2.000000000000004
 30
0.0
 11
-48.00000000000001
 21
-2.000000000000004
 31
0.0
  0
LINE
  5
8F15
330
8F01
100
AcDbEntity
  8
0
100
AcDbLine
 10
-47.99999999999998
 20
-86.0
 30
0.0
 11
47.99999999999998
 21
-86.0
 31
0.0
  0
CIRCLE
  5
8F16
330
8F01
100
AcDbEntity
  8
0
100
AcDbCircle
 10
0.0
 20
-47.99999999999998
 30
0.0
 40
2.5
  0
CIRCLE
  5
8F17
330
8F01
100
AcDbEntity
  8
0
100
AcDbCircle
 10
0.0
 20
-67.99999999999998
 30
0.0
 40
2.5
  0
LINE
  5
8F18
330
8F01
100
AcDbEntity
  8
0
100
AcDbLine
 10
50.0
 20
-2.000000000000007
 30
0.0
 11
48.0
 21
-2.000000000000004
 31
0.0
  0
LINE
  5
8F19
330
8F01
100
AcDbEntity
  8
0
100
AcDbLine
 10
54.0
 20
0.0
 30
0.0
 11
91.5
 21
0.0
 31
0.0
  0
ARC
  5
8F1A
330
8F01
100
AcDbEntity
  8
0
100
AcDbCircle
 10
54.0
 20
-4.000000000000003
 30
0.0
 40
4.000000000000003
100
AcDbArc
 50
90.0
 51
180.0
  0
LINE
  5
8F1B
330
8F01
100
AcDbEntity
  8
0
100
AcDbLine
 10
49.99999999999999
 20
-86.00000000000001
 30
0.0
 11
50.0
 21
-46.00000000000001
 31
0.0
  0
LINE
  5
8F1C
330
8F01
100
AcDbEntity
  8
0
100
AcDbLine
 10
51.99999999999999
 20
-86.00000000000001
 30
0.0
 11
49.99999999999999
 21
-86.00000000000001
 31
0.0
  0
LINE
  5
8F1D
330
8F01
100
AcDbEntity
  8
0
100
AcDbLine
 10
51.99999999999999
 20
-46.00000000000001
 30
0.0
 11
51.99999999999999
 21
-86.00000000000001
 31
0.0
  0
LINE
  5
8F1E
330
8F01
100
AcDbEntity
  8
0
100
AcDbLine
 10
49.99999999999999
 20
-46.0
 30
0.0
 11
51.99999999999999
 21
-46.0
 31
0.0
  0
LINE
  5
8F1F
330
8F01
100
AcDbEntity
  8
0
100
AcDbLine
 10
52.0
 20
-4.000000000000003
 30
0.0
 11
51.99999999999999
 21
-46.0
 31
0.0
  0
LINE
  5
8F20
330
8F01
100
AcDbEntity
  8
0
100
AcDbLine
 10
49.99999999999999
 20
-46.0
 30
0.0
 11
50.0
 21
-4.000000000000003
 31
0.0
  0
LINE
  5
8F21
330
8F01
100
AcDbEntity
  8
0
100
AcDbLine
 10
50.0
 20
-86.0
 30
0.0
 11
47.99999999999998
 21
-86.0
 31
0.0
  0
ARC
  5
8F22
330
8F01
100
AcDbEntity
  8
0
100
AcDbCircle
 10
54.0
 20
-4.000000000000003
 30
0.0
 40
2.000000000000001
100
AcDbArc
 50
90.0
 51
180.0
  0
LINE
  5
8F23
330
8F01
100
AcDbEntity
  8
0
100
AcDbLine
 10
91.5
 20
0.0
 30
0.0
 11
91.5
 21
-2.000000000000001
 31
0.0
  0
LINE
  5
8F24
330
8F01
100
AcDbEntity
  8
0
100
AcDbLine
 10
91.5
 20
-2.000000000000001
 30
0.0
 11
54.0
 21
-2.000000000000001
 31
0.0
  0
LINE
  5
8F25
330
8F01
100
AcDbEntity
  8
0
100
AcDbLine
 10
-91.5
 20
-2.000000000000001
 30
0.0
 11
-54.0
 21
-2.000000000000001
 31
0.0
  0
LINE
  5
8F26
330
8F01
100
AcDbEntity
  8
0
100
AcDbLine
 10
-49.99999999999999
 20
-46.0
 30
0.0
 11
-50.0
 21
-4.000000000000003
 31
0.0
  0
LINE
  5
8F27
330
8F01
100
AcDbEntity
  8
0
100
AcDbLine
 10
-52.0
 20
-4.000000000000003
 30
0.0
 11
-51.99999999999999
 21
-46.0
 31
0.0
  0
LINE
  5
8F28
330
8F01
100
AcDbEntity
  8
0
100
AcDbLine
 10
-54.0
 20
0.0
 30
0.0
 11
-91.5
 21
0.0
 31
0.0
  0
LINE
  5
8F29
330
8F01
100
AcDbEntity
  8
0
100
AcDbLine
 10
-91.5
 20
0.0
 30
0.0
 11
-91.5
 21
-2.000000000000001
 31
0.0
  0
ARC
  5
8F2A
330
8F01
100
AcDbEntity
  8
0
100
AcDbCircle
 10
-54.0
 20
-4.000000000000003
 30
0.0
 40
2.000000000000001
100
AcDbArc
 50
0.0
 51
90.0
  0
ARC
  5
8F2B
330
8F01
100
AcDbEntity
  8
0
100
AcDbCircle
 10
-54.0
 20
-4.000000000000003
 30
0.0
 40
4.000000000000003
100
AcDbArc
 50
0.0
 51
90.0
  0
LINE
  5
8F2C
330
8F01
100
AcDbEntity
  8
0
100
AcDbLine
 10
-50.0
 20
-46.00000000000001
 30
0.0
 11
-49.99999999999999
 21
-86.00000000000001
 31
0.0
  0
LINE
  5
8F2D
330
8F01
100
AcDbEntity
  8
0
100
AcDbLine
 10
-51.99999999999999
 20
-86.00000000000001
 30
0.0
 11
-51.99999999999999
 21
-46.00000000000001
 31
0.0
  0
LINE
  5
8F2E
330
8F01
100
AcDbEntity
  8
0
100
AcDbLine
 10
-49.99999999999999
 20
-86.00000000000001
 30
0.0
 11
-51.99999999999999
 21
-86.00000000000001
 31
0.0
  0
LINE
  5
8F2F
330
8F01
100
AcDbEntity
  8
0
100
AcDbLine
 10
-51.99999999999999
 20
-46.0
 30
0.0
 11
-49.99999999999999
 21
-46.0
 31
0.0
  0
ENDBLK
  5
8F03
330
8F01
100
AcDbEntity
  8
0
100
AcDbBlockEnd
  0
BLOCK
  5
8F31
330
8F30
100
AcDbEntity
  8
0
100
AcDbBlockBegin
  2
SAE380_100_2-Bottom
 70
     0
 10
0.0
 20
0.0
 30
0.0
  3
SAE380_100_2-Bottom
  1

  0
SPLINE
  5
8F33
330
8F30
100
AcDbEntity
  8
0
100
AcDbSpline
210
0.0
220
0.0
230
1.0
 70
     8
 71
     3
 72
    14
 73
    10
 74
     0
 42
0.000000001
 43
0.0000000001
 40
0.0
 40
0.0
 40
0.0
 40
0.0
 40
0.3435201403992671
 40
0.3435201403992671
 40
0.3435201403992671
 40
0.7570127567962356
 40
0.7570127567962356
 40
0.7570127567962356
 40
1.0
 40
1.0
 40
1.0
 40
1.0
 10
54.60606060606062
 20
1.999999999999993
 30
0.0
 10
54.28489935603202
 20
2.000036880620253
 30
0.0
 10
53.87245051750096
 20
1.996834301351936
 30
0.0
 10
53.47645515515084
 20
1.998675474349387
 30
0.0
 10
52.99979850768644
 20
2.000891680476548
 30
0.0
 10
52.53725634325089
 20
2.001068977478528
 30
0.0
 10
52.26239324898582
 20
2.001123170497391
 30
0.0
 10
52.10087107691926
 20
2.001155016803062
 30
0.0
 10
51.99999576744405
 20
2.000250524375161
 30
0.0
 10
51.99999999948836
 20
1.999999999992551
 30
0.0
  0
LINE
  5
8F34
330
8F30
100
AcDbEntity
  8
0
100
AcDbLine
 10
54.00221802215746
 20
1.999999999999994
 30
0.0
 11
54.00614404885988
 21
1.999999999999994
 31
0.0
  0
LINE
  5
8F35
330
8F30
100
AcDbEntity
  8
0
100
AcDbLine
 10
54.5621443029287
 20
1.999999999999994
 30
0.0
 11
54.60606060606068
 21
1.999999999999994
 31
0.0
  0
ARC
  5
8F36
330
8F30
100
AcDbEntity
  8
0
100
AcDbCircle
 10
54.0
 20
4.000000000000003
 30
0.0
 40
2.00000000000001
100
AcDbArc
 50
182.3975805283659
 51
263.7599709151303
  0
ARC
  5
8F37
330
8F30
100
AcDbEntity
  8
0
100
AcDbCircle
 10
54.0
 20
4.000000000000003
 30
0.0
 40
4.000000000000011
100
AcDbArc
 50
219.6928227302387
 51
270.0
  0
LINE
  5
8F38
330
8F30
100
AcDbEntity
  8
0
100
AcDbLine
 10
54.60606060606068
 20
0.0
 30
0.0
 11
54.0
 21
0.0
 31
0.0
  0
SPLINE
  5
8F39
330
8F30
100
AcDbEntity
  8
0
100
AcDbSpline
210
0.0
220
0.0
230
1.0
 70
     8
 71
     3
 72
    17
 73
    13
 74
     0
 42
0.000000001
 43
0.0000000001
 40
-1.0
 40
-1.0
 40
-1.0
 40
-1.0
 40
-0.799422916992329
 40
-0.799422916992329
 40
-0.799422916992329
 40
-0.3760548405708906
 40
-0.3760548405708906
 40
-0.3760548405708906
 40
-0.0764956636428966
 40
-0.0764956636428966
 40
-0.0764956636428966
 40
0.0
 40
0.0
 40
0.0
 40
0.0
 10
49.99999999999996
 20
1.999999999999987
 30
0.0
 10
49.99999961269016
 20
1.99909351253794
 30
0.0
 10
50.12633724888665
 20
1.91986482836204
 30
0.0
 10
50.33609665275655
 20
1.790678672555201
 30
0.0
 10
50.77884631286753
 20
1.517998995175857
 30
0.0
 10
51.61463513349723
 20
1.034119660967187
 30
0.0
 10
52.48133337947321
 20
0.6387472629466819
 30
0.0
 10
53.09457615253259
 20
0.3589967651477591
 30
0.0
 10
53.71786514800692
 20
0.1216595940199193
 30
0.0
 10
54.23410388678073
 20
0.0342334975194183
 30
0.0
 10
54.36593101130967
 20
0.0119083017430883
 30
0.0
 10
54.48837043646889
 20
0.0000045433204783
 30
0.0
 10
54.60606060611095
 20
0.0000000001152099
 30
0.0
  0
LINE
  5
8F3A
330
8F30
100
AcDbEntity
  8
0
100
AcDbLine
 10
54.60606060606068
 20
1.999999999999994
 30
0.0
 11
54.60606060606068
 21
0.0
 31
0.0
  0
SPLINE
  5
8F3B
330
8F30
100
AcDbEntity
  8
0
100
AcDbSpline
210
0.0
220
0.0
230
1.0
 70
     8
 71
     3
 72
    30
 73
    26
 74
     0
 42
0.000000001
 43
0.0000000001
 40
0.0364436676154114
 40
0.0364436676154114
 40
0.0364436676154114
 40
0.0364436676154114
 40
0.0380818744924467
 40
0.0380818744924467
 40
0.041071067686511
 40
0.041071067686511
 40
0.0442713980280488
 40
0.0442713980280488
 40
0.0469837442575207
 40
0.0469837442575207
 40
0.0505206700871889
 40
0.0505206700871889
 40
0.0557907468288577
 40
0.0557907468288577
 40
0.0637354180681097
 40
0.0637354180681097
 40
0.0751923872620331
 40
0.0751923872620331
 40
0.089944011488792
 40
0.089944011488792
 40
0.1081757579686972
 40
0.1081757579686972
 40
0.1267677336573263
 40
0.1267677336573263
 40
0.1329166086764241
 40
0.1329166086764241
 40
0.1329166086764241
 40
0.1329166086764241
 10
53.72383606962664
 20
2.01714619207753
 30
0.0
 10
53.72383606954762
 20
2.01714619208638
 30
0.0
 10
53.72433092022214
 20
2.017090688261537
 30
0.0
 10
53.72692274096772
 20
2.016807862409277
 30
0.0
 10
53.72981147765045
 20
2.016495928551121
 30
0.0
 10
53.73913251218962
 20
2.015552740402094
 30
0.0
 10
53.74599009097696
 20
2.014886000997653
 30
0.0
 10
53.76067270216616
 20
2.013570511783033
 30
0.0
 10
53.76830173296301
 20
2.012924217367461
 30
0.0
 10
53.78671156261013
 20
2.011471035800645
 30
0.0
 10
53.79787915824185
 20
2.010663909637323
 30
0.0
 10
53.82613745274156
 20
2.008810540926857
 30
0.0
 10
53.84370300504919
 20
2.007822836336517
 30
0.0
 10
53.88763450710898
 20
2.005704464446712
 30
0.0
 10
53.9143560160364
 20
2.004731535267389
 30
0.0
 10
53.97810991964867
 20
2.00291464775149
 30
0.0
 10
54.01514730050862
 20
2.002286943476181
 30
0.0
 10
54.0951256755468
 20
2.001329432558547
 30
0.0
 10
54.13569763806195
 20
2.001132540013368
 30
0.0
 10
54.22892435742356
 20
2.000741918813896
 30
0.0
 10
54.28733019974623
 20
2.000505885543163
 30
0.0
 10
54.40025108177966
 20
2.00018397277339
 30
0.0
 10
54.45905078601022
 20
2.000081116916381
 30
0.0
 10
54.5302306943395
 20
2.000028132716815
 30
0.0
 10
54.54733372346445
 20
2.000021401162433
 30
0.0
 10
54.5621443029287
 20
2.000020290751263
 30
0.0
  0
SPLINE
  5
8F3C
330
8F30
100
AcDbEntity
  8
0
100
AcDbSpline
210
0.0
220
0.0
230
1.0
 70
     8
 71
     3
 72
     8
 73
     4
 74
     0
 42
0.000000001
 43
0.0000000001
 40
0.0
 40
0.0
 40
0.0
 40
0.0
 40
0.0021922128855767
 40
0.0021922128855767
 40
0.0021922128855767
 40
0.0021922128855767
 10
52.00007561070281
 20
4.000000545744576
 30
0.0
 10
52.00011366902263
 20
3.995081789434601
 30
0.0
 10
52.00015752102254
 20
3.990423534066966
 30
0.0
 10
52.00020349201555
 20
3.986165730096308
 30
0.0
  0
SPLINE
  5
8F3D
330
8F30
100
AcDbEntity
  8
0
100
AcDbSpline
210
0.0
220
0.0
230
1.0
 70
     8
 71
     3
 72
    42
 73
    38
 74
     0
 42
0.000000001
 43
0.0000000001
 40
0.0207061389465269
 40
0.0207061389465269
 40
0.0207061389465269
 40
0.0207061389465269
 40
0.0215652949889487
 40
0.0215652949889487
 40
0.0272926506297084
 40
0.0272926506297084
 40
0.0444615053434002
 40
0.0444615053434002
 40
0.0458716635618702
 40
0.0458716635618702
 40
0.0463959747956127
 40
0.0463959747956127
 40
0.0467402724955008
 40
0.0467402724955008
 40
0.0470594862565416
 40
0.0470594862565416
 40
0.0472222671101725
 40
0.0472222671101725
 40
0.0473852756160763
 40
0.0473852756160763
 40
0.0477156443937142
 40
0.0477156443937142
 40
0.0480404846543458
 40
0.0480404846543458
 40
0.0485975736846298
 40
0.0485975736846298
 40
0.0497869624366219
 40
0.0497869624366219
 40
0.0528454620004615
 40
0.0528454620004615
 40
0.060856944368531
 40
0.060856944368531
 40
0.0725270545434252
 40
0.0725270545434252
 40
0.0777168334542657
 40
0.0777168334542657
 40
0.0804599344453834
 40
0.0804599344453834
 40
0.0804599344453834
 40
0.0804599344453834
 10
52.00005255217757
 20
3.996754023828415
 30
0.0
 10
52.00005613271098
 20
3.996448047221774
 30
0.0
 10
52.0000595512479
 20
3.996159931645959
 30
0.0
 10
52.00008432070803
 20
3.99409528924159
 30
0.0
 10
52.00009667717961
 20
3.993179402830328
 30
0.0
 10
52.00011457606446
 20
3.991839500260767
 30
0.0
 10
52.00005184384687
 20
3.996173195894337
 30
0.0
 10
52.00012103904655
 20
3.991508538465565
 30
0.0
 10
52.00012746597278
 20
3.991074889263881
 30
0.0
 10
52.00014525703533
 20
3.989901323044474
 30
0.0
 10
52.00015105184335
 20
3.989520423872489
 30
0.0
 10
52.00016443235987
 20
3.988650910951808
 30
0.0
 10
52.0001707532381
 20
3.988241896412172
 30
0.0
 10
52.00018667833287
 20
3.987222673931044
 30
0.0
 10
52.00019624506755
 20
3.986613999400429
 30
0.0
 10
52.00021482567084
 20
3.985450355091514
 30
0.0
 10
52.00022190424803
 20
3.985009744977952
 30
0.0
 10
52.00023728141403
 20
3.984060982376584
 30
0.0
 10
52.00024569671542
 20
3.983545741904229
 30
0.0
 10
52.00027200251629
 20
3.981950180634919
 30
0.0
 10
52.00029116770786
 20
3.980808390208329
 30
0.0
 10
52.00032816847951
 20
3.978644439713017
 30
0.0
 10
52.00034655086334
 20
3.977588311639379
 30
0.0
 10
52.00039589246755
 20
3.974799056050572
 30
0.0
 10
52.00042683734188
 20
3.973098995751214
 30
0.0
 10
52.00052365233983
 20
3.967911218946102
 30
0.0
 10
52.00058996951155
 20
3.96454687768435
 30
0.0
 10
52.00083206547684
 20
3.952823329012245
 30
0.0
 10
52.00101736820855
 20
3.944864404275847
 30
0.0
 10
52.0017304903995
 20
3.917073316896338
 30
0.0
 10
52.00233445988215
 20
3.898814161700356
 30
0.0
 10
52.00383645539834
 20
3.860103824424273
 30
0.0
 10
52.00474895118386
 20
3.842295195129452
 30
0.0
 10
52.00559432144494
 20
3.826960734753279
 30
0.0
 10
52.00582699316661
 20
3.822999217025381
 30
0.0
 10
52.00603368918875
 20
3.819550803224424
 30
0.0
 10
52.00607492124601
 20
3.818880539234947
 30
0.0
 10
52.00607492126706
 20
3.818880538891745
 30
0.0
  0
SPLINE
  5
8F3E
330
8F30
100
AcDbEntity
  8
0
100
AcDbSpline
210
0.0
220
0.0
230
1.0
 70
     8
 71
     3
 72
     8
 73
     4
 74
     0
 42
0.000000001
 43
0.0000000001
 40
0.0
 40
0.0
 40
0.0
 40
0.0
 40
0.0034296877162188
 40
0.0034296877162188
 40
0.0034296877162188
 40
0.0034296877162188
 10
52.00006462063834
 20
3.999999763961141
 30
0.0
 10
52.00004298612384
 20
3.994303224958128
 30
0.0
 10
52.0000204725265
 20
3.987666417923005
 30
0.0
 10
51.99999999999999
 20
3.980806637251533
 30
0.0
  0
CIRCLE
  5
8F3F
330
8F30
100
AcDbEntity
  8
0
100
AcDbCircle
 10
0.0
 20
67.99999999999998
 30
0.0
 40
2.5
  0
CIRCLE
  5
8F40
330
8F30
100
AcDbEntity
  8
0
100
AcDbCircle
 10
0.0
 20
47.99999999999998
 30
0.0
 40
2.5
  0
LINE
  5
8F41
330
8F30
100
AcDbEntity
  8
0
100
AcDbLine
 10
48.00000000000001
 20
2.000000000000004
 30
0.0
 11
-48.00000000000001
 21
2.000000000000004
 31
0.0
  0
LINE
  5
8F42
330
8F30
100
AcDbEntity
  8
0
100
AcDbLine
 10
47.99999999999998
 20
86.0
 30
0.0
 11
-48.0
 21
86.0
 31
0.0
  0
SPLINE
  5
8F43
330
8F30
100
AcDbEntity
  8
0
100
AcDbSpline
210
0.0
220
0.0
230
1.0
 70
     8
 71
     3
 72
    17
 73
    13
 74
     0
 42
0.000000001
 43
0.0000000001
 40
-1.0
 40
-1.0
 40
-1.0
 40
-1.0
 40
-0.799422916992329
 40
-0.799422916992329
 40
-0.799422916992329
 40
-0.3760548405708906
 40
-0.3760548405708906
 40
-0.3760548405708906
 40
-0.0764956636428966
 40
-0.0764956636428966
 40
-0.0764956636428966
 40
0.0
 40
0.0
 40
0.0
 40
0.0
 10
-49.99999999999996
 20
1.999999999999987
 30
0.0
 10
-49.99999961269016
 20
1.99909351253794
 30
0.0
 10
-50.12633724888665
 20
1.91986482836204
 30
0.0
 10
-50.33609665275655
 20
1.790678672555201
 30
0.0
 10
-50.77884631286753
 20
1.517998995175857
 30
0.0
 10
-51.61463513349723
 20
1.034119660967187
 30
0.0
 10
-52.48133337947321
 20
0.6387472629466819
 30
0.0
 10
-53.09457615253259
 20
0.3589967651477591
 30
0.0
 10
-53.71786514800692
 20
0.1216595940199193
 30
0.0
 10
-54.23410388678073
 20
0.0342334975194183
 30
0.0
 10
-54.36593101130967
 20
0.0119083017430883
 30
0.0
 10
-54.48837043646889
 20
0.0000045433204783
 30
0.0
 10
-54.60606060611095
 20
0.0000000001152099
 30
0.0
  0
LINE
  5
8F44
330
8F30
100
AcDbEntity
  8
0
100
AcDbLine
 10
-54.0
 20
0.0
 30
0.0
 11
-54.60606060606068
 21
0.0
 31
0.0
  0
ARC
  5
8F45
330
8F30
100
AcDbEntity
  8
0
100
AcDbCircle
 10
-54.0
 20
4.000000000000003
 30
0.0
 40
4.000000000000012
100
AcDbArc
 50
270.0
 51
320.3071772697613
  0
ARC
  5
8F46
330
8F30
100
AcDbEntity
  8
0
100
AcDbCircle
 10
-54.0
 20
4.000000000000003
 30
0.0
 40
2.00000000000001
100
AcDbArc
 50
276.2400290848727
 51
357.6024194716211
  0
LINE
  5
8F47
330
8F30
100
AcDbEntity
  8
0
100
AcDbLine
 10
-54.60606060606068
 20
1.999999999999994
 30
0.0
 11
-54.56214430292877
 21
1.999999999999994
 31
0.0
  0
LINE
  5
8F48
330
8F30
100
AcDbEntity
  8
0
100
AcDbLine
 10
-54.00614404886001
 20
1.999999999999994
 30
0.0
 11
-54.00221802215728
 21
1.999999999999994
 31
0.0
  0
SPLINE
  5
8F49
330
8F30
100
AcDbEntity
  8
0
100
AcDbSpline
210
0.0
220
0.0
230
1.0
 70
     8
 71
     3
 72
    14
 73
    10
 74
     0
 42
0.000000001
 43
0.0000000001
 40
0.0
 40
0.0
 40
0.0
 40
0.0
 40
0.3435201403992671
 40
0.3435201403992671
 40
0.3435201403992671
 40
0.7570127567962356
 40
0.7570127567962356
 40
0.7570127567962356
 40
1.0
 40
1.0
 40
1.0
 40
1.0
 10
-54.60606060606062
 20
1.999999999999993
 30
0.0
 10
-54.28489935603202
 20
2.000036880620253
 30
0.0
 10
-53.87245051750096
 20
1.996834301351936
 30
0.0
 10
-53.47645515515084
 20
1.998675474349387
 30
0.0
 10
-52.99979850768644
 20
2.000891680476548
 30
0.0
 10
-52.53725634325089
 20
2.001068977478528
 30
0.0
 10
-52.26239324898582
 20
2.001123170497391
 30
0.0
 10
-52.10087107691926
 20
2.001155016803062
 30
0.0
 10
-51.99999576744405
 20
2.000250524375161
 30
0.0
 10
-51.99999999948836
 20
1.999999999992551
 30
0.0
  0
LINE
  5
8F4A
330
8F30
100
AcDbEntity
  8
0
100
AcDbLine
 10
-54.60606060606068
 20
0.0
 30
0.0
 11
-54.60606060606068
 21
1.999999999999994
 31
0.0
  0
SPLINE
  5
8F4B
330
8F30
100
AcDbEntity
  8
0
100
AcDbSpline
210
0.0
220
0.0
230
1.0
 70
     8
 71
     3
 72
    10
 73
     6
 74
     0
 42
0.000000001
 43
0.0000000001
 40
0.01924803865137
 40
0.01924803865137
 40
0.01924803865137
 40
0.01924803865137
 40
0.0195090939472843
 40
0.0195090939472843
 40
0.0226780030996336
 40
0.0226780030996336
 40
0.0226780030996336
 40
0.0226780030996336
 10
-52.00000000238915
 20
3.980806449282363
 30
0.0
 10
-52.00000156129236
 20
3.981328794881067
 30
0.0
 10
-52.00000312977303
 20
3.981850417328657
 30
0.0
 10
-52.00002390988652
 20
3.988683531642484
 30
0.0
 10
-52.00004463111842
 20
3.994736365052185
 30
0.0
 10
-52.00006462063836
 20
3.999999763961143
 30
0.0
  0
SPLINE
  5
8F4C
330
8F30
100
AcDbEntity
  8
0
100
AcDbSpline
210
0.0
220
0.0
230
1.0
 70
     8
 71
     3
 72
    38
 73
    34
 74
     0
 42
0.000000001
 43
0.0000000001
 40
0.0399336909833099
 40
0.0399336909833099
 40
0.0399336909833099
 40
0.0399336909833099
 40
0.0469878130695477
 40
0.0469878130695477
 40
0.0558888298424003
 40
0.0558888298424003
 40
0.0663364446528023
 40
0.0663364446528023
 40
0.0719857387430407
 40
0.0719857387430407
 40
0.0726844052876514
 40
0.0726844052876514
 40
0.0728641129950823
 40
0.0728641129950823
 40
0.0730236562572125
 40
0.0730236562572125
 40
0.0731531586946148
 40
0.0731531586946148
 40
0.0734162396413555
 40
0.0734162396413555
 40
0.0736759696821031
 40
0.0736759696821031
 40
0.0740295977112191
 40
0.0740295977112191
 40
0.0747108945682578
 40
0.0747108945682578
 40
0.0763270379199154
 40
0.0763270379199154
 40
0.0811704700499171
 40
0.0811704700499171
 40
0.0956912316899168
 40
0.0956912316899168
 40
0.0996791297874392
 40
0.0996791297874392
 40
0.0996791297874392
 40
0.0996791297874392
 10
-52.00607492126728
 20
3.818880538888019
 30
0.0
 10
-52.00607492127007
 20
3.818880538842556
 30
0.0
 10
-52.00578748735069
 20
3.823572139649029
 30
0.0
 10
-52.00504768259901
 20
3.836773177920467
 30
0.0
 10
-52.0044421395845
 20
3.84814671197757
 30
0.0
 10
-52.00300542413643
 20
3.880404510537218
 30
0.0
 10
-52.0021580698141
 20
3.902739955506227
 30
0.0
 10
-52.00107504750196
 20
3.941895773921873
 30
0.0
 10
-52.00073811949771
 20
3.956122482452352
 30
0.0
 10
-52.00038592538645
 20
3.975346306143686
 30
0.0
 10
-52.00034639419645
 20
3.977574435651312
 30
0.0
 10
-52.00029679480095
 20
3.980480543232294
 30
0.0
 10
-52.00028660028785
 20
3.981083731499095
 30
0.0
 10
-52.00026771329079
 20
3.982212397645843
 30
0.0
 10
-52.00025889572984
 20
3.982744126746241
 30
0.0
 10
-52.00024367973532
 20
3.983669488453084
 30
0.0
 10
-52.00023707487881
 20
3.98407411341086
 30
0.0
 10
-52.00021837231341
 20
3.985226988852551
 30
0.0
 10
-52.0002074225411
 20
3.985912223709206
 30
0.0
 10
-52.00018981507724
 20
3.987022929305656
 30
0.0
 10
-52.00018272847991
 20
3.987474944064863
 30
0.0
 10
-52.00016865664406
 20
3.988377082255097
 30
0.0
 10
-52.00016246641952
 20
3.988778259996752
 30
0.0
 10
-52.00014725163253
 20
3.989768412400822
 30
0.0
 10
-52.00014072349433
 20
3.990199587263365
 30
0.0
 10
-52.00012271311089
 20
3.991392627866416
 30
0.0
 10
-52.00011664033955
 20
3.99180425807896
 30
0.0
 10
-52.00009685278647
 20
3.993143682306846
 30
0.0
 10
-52.0000943891541
 20
3.993322802777044
 30
0.0
 10
-52.00009023549283
 20
3.993612494017314
 30
0.0
 10
-52.0001202522789
 20
3.991345348575623
 30
0.0
 10
-52.00008200361994
 20
3.994318383012589
 30
0.0
 10
-52.0000690196877
 20
3.995344708631419
 30
0.0
 10
-52.00005239457559
 20
3.996765417444083
 30
0.0
  0
SPLINE
  5
8F4D
330
8F30
100
AcDbEntity
  8
0
100
AcDbSpline
210
0.0
220
0.0
230
1.0
 70
     8
 71
     3
 72
     8
 73
     4
 74
     0
 42
0.000000001
 43
0.0000000001
 40
0.1181762785837801
 40
0.1181762785837801
 40
0.1181762785837801
 40
0.1181762785837801
 40
0.1203710377597791
 40
0.1203710377597791
 40
0.1203710377597791
 40
0.1203710377597791
 10
-52.00020328803141
 20
3.986173546901631
 30
0.0
 10
-52.00015734000186
 20
3.990429224010913
 30
0.0
 10
-52.00011371322798
 20
3.995076076220225
 30
0.0
 10
-52.00007561070282
 20
4.000000545744575
 30
0.0
  0
SPLINE
  5
8F4E
330
8F30
100
AcDbEntity
  8
0
100
AcDbSpline
210
0.0
220
0.0
230
1.0
 70
     8
 71
     3
 72
    32
 73
    28
 74
     0
 42
0.000000001
 43
0.0000000001
 40
0.0
 40
0.0
 40
0.0
 40
0.0
 40
0.0062834381493316
 40
0.0062834381493316
 40
0.0147058049815696
 40
0.0147058049815696
 40
0.037375579351436
 40
0.037375579351436
 40
0.0501947865530207
 40
0.0501947865530207
 40
0.066727435168855
 40
0.066727435168855
 40
0.0745951079034209
 40
0.0745951079034209
 40
0.0808821788616606
 40
0.0808821788616606
 40
0.0854267843800451
 40
0.0854267843800451
 40
0.0883503176041866
 40
0.0883503176041866
 40
0.0902010186828311
 40
0.0902010186828311
 40
0.0931504657365667
 40
0.0931504657365667
 40
0.0957950367131662
 40
0.0957950367131662
 40
0.0964631606654351
 40
0.0964631606654351
 40
0.0964631606654351
 40
0.0964631606654351
 10
-54.56214430292877
 20
2.000020290751264
 30
0.0
 10
-54.54700960597519
 20
2.00002142546288
 30
0.0
 10
-54.52948500200284
 20
2.000028425796063
 30
0.0
 10
-54.48709187817321
 20
2.000060615575907
 30
0.0
 10
-54.4614239180176
 20
2.000092345611981
 30
0.0
 10
-54.36626722184193
 20
2.000257841535581
 30
0.0
 10
-54.29520834528691
 20
2.000490386301794
 30
0.0
 10
-54.18816022249703
 20
2.000912253181638
 30
0.0
 10
-54.15315286392512
 20
2.001031881989327
 30
0.0
 10
-54.07004998830945
 20
2.001571991476438
 30
0.0
 10
-54.01811518828147
 20
2.00207584343113
 30
0.0
 10
-53.93881711741834
 20
2.003973453434515
 30
0.0
 10
-53.9125835319038
 20
2.004777578163035
 30
0.0
 10
-53.86545376821857
 20
2.006716589789093
 30
0.0
 10
-53.84430846019697
 20
2.007765721333854
 30
0.0
 10
-53.80896862852353
 20
2.009897236258688
 30
0.0
 10
-53.79426718220927
 20
2.010904595971976
 30
0.0
 10
-53.77187213375158
 20
2.012629908928757
 30
0.0
 10
-53.76345170642334
 20
2.013330600721276
 30
0.0
 10
-53.75130451248356
 20
2.014405930609197
 30
0.0
 10
-53.74694266121633
 20
2.014809472878274
 30
0.0
 10
-53.73705123416467
 20
2.015754670661685
 30
0.0
 10
-53.73234055577541
 20
2.016237576057971
 30
0.0
 10
-53.72656863506804
 20
2.016844122032724
 30
0.0
 10
-53.72469991149419
 20
2.017050246870543
 30
0.0
 10
-53.72391709528245
 20
2.017137115256994
 30
0.0
 10
-53.72383606964321
 20
2.017146192075676
 30
0.0
 10
-53.72383606962741
 20
2.017146192077447
 30
0.0
  0
LINE
  5
8F4F
330
8F30
100
AcDbEntity
  8
0
100
AcDbLine
 10
-52.00000000000001
 20
2.000000000000009
 30
0.0
 11
-48.0
 21
2.000000000000004
 31
0.0
  0
LINE
  5
8F50
330
8F30
100
AcDbEntity
  8
0
100
AcDbLine
 10
-47.99999999999998
 20
86.0
 30
0.0
 11
-51.99999999999999
 21
86.0
 31
0.0
  0
LINE
  5
8F51
330
8F30
100
AcDbEntity
  8
0
100
AcDbLine
 10
-52.0
 20
2.000000000000009
 30
0.0
 11
-51.99999999999999
 21
86.0
 31
0.0
  0
LINE
  5
8F52
330
8F30
100
AcDbEntity
  8
0
100
AcDbLine
 10
52.00000000000001
 20
2.000000000000009
 30
0.0
 11
48.0
 21
2.000000000000004
 31
0.0
  0
LINE
  5
8F53
330
8F30
100
AcDbEntity
  8
0
100
AcDbLine
 10
52.0
 20
2.000000000000009
 30
0.0
 11
51.99999999999999
 21
86.0
 31
0.0
  0
LINE
  5
8F54
330
8F30
100
AcDbEntity
  8
0
100
AcDbLine
 10
47.99999999999998
 20
86.0
 30
0.0
 11
51.99999999999999
 21
86.0
 31
0.0
  0
LINE
  5
8F55
330
8F30
100
AcDbEntity
  8
0
100
AcDbLine
 10
91.50000000000007
 20
0.0
 30
0.0
 11
54.60606060606068
 21
0.0
 31
0.0
  0
LINE
  5
8F56
330
8F30
100
AcDbEntity
  8
0
100
AcDbLine
 10
91.50000000000007
 20
2.000000000000001
 30
0.0
 11
91.50000000000007
 21
0.0
 31
0.0
  0
LINE
  5
8F57
330
8F30
100
AcDbEntity
  8
0
100
AcDbLine
 10
54.60606060606068
 20
1.999999999999994
 30
0.0
 11
91.50000000000007
 21
2.000000000000001
 31
0.0
  0
LINE
  5
8F58
330
8F30
100
AcDbEntity
  8
0
100
AcDbLine
 10
-91.50000000000007
 20
2.000000000000001
 30
0.0
 11
-54.60606060606068
 21
1.999999999999994
 31
0.0
  0
LINE
  5
8F59
330
8F30
100
AcDbEntity
  8
0
100
AcDbLine
 10
-91.50000000000007
 20
0.0
 30
0.0
 11
-91.50000000000007
 21
2.000000000000001
 31
0.0
  0
LINE
  5
8F5A
330
8F30
100
AcDbEntity
  8
0
100
AcDbLine
 10
-54.60606060606068
 20
0.0
 30
0.0
 11
-91.50000000000007
 21
0.0
 31
0.0
  0
ENDBLK
  5
8F32
330
8F30
100
AcDbEntity
  8
0
100
AcDbBlockEnd
  0
BLOCK
  5
8F5C
330
8F5B
100
AcDbEntity
  8
0
100
AcDbBlockBegin
  2
SAE380_100_2-ISO
 70
     0
 10
0.0
 20
0.0
 30
0.0
  3
SAE380_100_2-ISO
  1

  0
LINE
  5
8F5E
330
8F5B
100
AcDbEntity
  8
0
100
AcDbLine
 10
65.53347124929962
 20
-52.79535321626379
 30
0.0
 11
65.2814985846977
 21
-52.94082970200014
 31
0.0
  0
SPLINE
  5
8F5F
330
8F5B
100
AcDbEntity
  8
0
100
AcDbSpline
210
0.0
220
0.0
230
1.0
 70
     8
 71
     3
 72
    14
 73
    10
 74
     0
 42
0.000000001
 43
0.0000000001
 40
0.0
 40
0.0
 40
0.0
 40
0.0
 40
0.3435201403992671
 40
0.3435201403992671
 40
0.3435201403992671
 40
0.7570127567962356
 40
0.7570127567962356
 40
0.7570127567962356
 40
1.0
 40
1.0
 40
1.0
 40
1.0
 10
67.37623437602822
 20
-51.767000514906
 30
0.0
 10
67.14911299974197
 20
-51.84819980781236
 30
0.0
 10
66.85973219464205
 20
-51.86402138671461
 30
0.0
 10
66.57841928269404
 20
-51.89189531419071
 30
0.0
 10
66.23980504059329
 20
-51.92544695162296
 30
0.0
 10
65.91261297162382
 20
-51.97705933693523
 30
0.0
 10
65.71821709351993
 20
-52.20248445209626
 30
0.0
 10
65.60398115160099
 20
-52.33495459813939
 30
0.0
 10
65.53329110894608
 20
-52.50298965519285
 30
0.0
 10
65.53347124894312
 20
-52.7953532147025
 30
0.0
  0
LINE
  5
8F60
330
8F5B
100
AcDbEntity
  8
0
100
AcDbLine
 10
66.94768481167272
 20
-51.51957730856425
 30
0.0
 11
67.37623437602827
 21
-51.76700051490602
 31
0.0
  0
ELLIPSE
  5
8F61
330
8F5B
100
AcDbEntity
  8
0
100
AcDbEllipse
 10
65.53347124929962
 20
-52.33607388949199
 30
0.0
 11
2.00000000000001
 21
-0.0000000000001194
 31
0.0
210
0.0
220
0.0
230
1.0
 40
0.5773502691896257
 41
0.7853981633976872
 42
2.356194490192589
  0
LINE
  5
8F62
330
8F5B
100
AcDbEntity
  8
0
100
AcDbLine
 10
64.11925768692653
 20
-52.74793568174643
 30
0.0
 11
64.11925768692653
 21
-51.51957730856425
 31
0.0
  0
LINE
  5
8F63
330
8F5B
100
AcDbEntity
  8
0
100
AcDbLine
 10
64.11925768692653
 20
-52.85842178440979
 30
0.0
 11
64.11925768692653
 21
-52.74793568174643
 31
0.0
  0
LINE
  5
8F64
330
8F5B
100
AcDbEntity
  8
0
100
AcDbLine
 10
64.11925768692653
 20
-53.61184979719151
 30
0.0
 11
64.11925768692653
 21
-52.85842178440979
 31
0.0
  0
LINE
  5
8F65
330
8F5B
100
AcDbEntity
  8
0
100
AcDbLine
 10
65.2814985846977
 20
-52.94082970200014
 30
0.0
 11
64.11925768692653
 21
-53.61184979719151
 31
0.0
  0
ELLIPSE
  5
8F66
330
8F5B
100
AcDbEntity
  8
0
100
AcDbEllipse
 10
-17.90512893071296
 20
-68.30878825389058
 30
0.0
 11
-2.5
 21
-0.0000000000001493
 31
0.0
210
0.0
220
0.0
230
1.0
 40
0.5773502691896258
 41
3.74285687026858
 42
5.681921090500121
  0
ELLIPSE
  5
8F67
330
8F5B
100
AcDbEntity
  8
0
100
AcDbEllipse
 10
-3.762993306982016
 20
-60.14382244461332
 30
0.0
 11
-2.5
 21
-0.0000000000001493
 31
0.0
210
0.0
220
0.0
230
1.0
 40
0.5773502691896258
 41
3.742856870268582
 42
5.681921090500121
  0
LINE
  5
8F68
330
8F5B
100
AcDbEntity
  8
0
100
AcDbLine
 10
3.308074504883427
 20
-95.25317542450551
 30
0.0
 11
-64.57417648902512
 21
-56.06133953997471
 31
0.0
  0
LINE
  5
8F69
330
8F5B
100
AcDbEntity
  8
0
100
AcDbLine
 10
-6.591420431728227
 20
-11.15402758894978
 30
0.0
 11
-6.591420431728227
 21
-17.68600023637159
 31
0.0
  0
LINE
  5
8F6A
330
8F5B
100
AcDbEntity
  8
0
100
AcDbLine
 10
33.00655931471841
 20
-42.18089766420336
 30
0.0
 11
-5.177206869355139
 21
-20.13548997915476
 31
0.0
  0
LINE
  5
8F6B
330
8F5B
100
AcDbEntity
  8
0
100
AcDbLine
 10
-64.5741764890251
 20
-54.42834637811926
 30
0.0
 11
3.308074504883435
 21
-93.62018226265007
 31
0.0
  0
ELLIPSE
  5
8F6C
330
8F5B
100
AcDbEntity
  8
0
100
AcDbEllipse
 10
-3.762993306982016
 20
-58.51082928275786
 30
0.0
 11
-2.5
 21
0.0000000000001493
 31
0.0
210
0.0
220
0.0
230
1.0
 40
0.5773502691896257
 41
0.0
 42
6.283185307179586
  0
ELLIPSE
  5
8F6D
330
8F5B
100
AcDbEntity
  8
0
100
AcDbEllipse
 10
-17.90512893071296
 20
-66.67579509203513
 30
0.0
 11
-2.5
 21
0.0000000000001493
 31
0.0
210
0.0
220
0.0
230
1.0
 40
0.5773502691896257
 41
0.0
 42
6.283185307179586
  0
LINE
  5
8F6E
330
8F5B
100
AcDbEntity
  8
0
100
AcDbLine
 10
-6.591420431728227
 20
-11.15402758894978
 30
0.0
 11
-6.676662337734464
 21
-11.20324202632872
 31
0.0
  0
SPLINE
  5
8F6F
330
8F5B
100
AcDbEntity
  8
0
100
AcDbSpline
210
0.0
220
0.0
230
1.0
 70
     8
 71
     3
 72
    11
 73
     7
 74
     0
 42
0.000000001
 43
0.0000000001
 40
-1.0
 40
-1.0
 40
-1.0
 40
-1.0
 40
-0.799422916992329
 40
-0.799422916992329
 40
-0.799422916992329
 40
-0.6581426619159322
 40
-0.6581426619159322
 40
-0.6581426619159322
 40
-0.6581426619159322
 10
-6.591420431728192
 20
-11.15402758894979
 30
0.0
 10
-6.590779174427328
 20
-10.75940214068594
 30
0.0
 10
-6.624090233855679
 20
-10.40064337125068
 30
0.0
 10
-6.681064123943287
 20
-10.05930089654794
 30
0.0
 10
-6.721194759026678
 20
-9.818869880345726
 30
0.0
 10
-6.775643974604195
 20
-9.58904640580366
 30
0.0
 10
-6.842771480376357
 20
-9.366263690235667
 30
0.0
  0
ELLIPSE
  5
8F70
330
8F5B
100
AcDbEntity
  8
0
100
AcDbEllipse
 10
-10.83406111884751
 20
-8.245258519394784
 30
0.0
 11
4.000000000000013
 21
0.0000000000000001
 31
0.0
210
0.0
220
0.0
230
1.0
 40
0.5773502691896255
 41
6.058746940100981
 42
6.283185307179584
  0
ELLIPSE
  5
8F71
330
8F5B
100
AcDbEntity
  8
0
100
AcDbEllipse
 10
-10.83406111884751
 20
-8.245258519394784
 30
0.0
 11
4.000000000000012
 21
-0.0000000000000003
 31
0.0
210
0.0
220
0.0
230
1.0
 40
0.5773502691896255
 41
5.497787143782134
 42
6.058746940100983
  0
LINE
  5
8F72
330
8F5B
100
AcDbEntity
  8
0
100
AcDbLine
 10
-8.005633994101316
 20
-9.878251681250244
 30
0.0
 11
-8.005633994101316
 21
-10.07267809681809
 31
0.0
  0
LINE
  5
8F73
330
8F5B
100
AcDbEntity
  8
0
100
AcDbLine
 10
-8.005633994101316
 20
-10.07267809681809
 30
0.0
 11
-8.005633994101316
 21
-11.97052416987751
 31
0.0
  0
LINE
  5
8F74
330
8F5B
100
AcDbEntity
  8
0
100
AcDbLine
 10
-6.676662337734464
 20
-11.20324202632872
 30
0.0
 11
-8.005633994101319
 21
-11.97052416987751
 31
0.0
  0
SPLINE
  5
8F75
330
8F5B
100
AcDbEntity
  8
0
100
AcDbSpline
210
0.0
220
0.0
230
1.0
 70
     8
 71
     3
 72
    16
 73
    12
 74
     0
 42
0.000000001
 43
0.0000000001
 40
0.0
 40
0.0
 40
0.0
 40
0.0
 40
0.0351246640454965
 40
0.0351246640454965
 40
0.0553378226012431
 40
0.0553378226012431
 40
0.0803966030475921
 40
0.0803966030475921
 40
0.1060253987215269
 40
0.1060253987215269
 40
0.1164300308247273
 40
0.1164300308247273
 40
0.1164300308247273
 40
0.1164300308247273
 10
-6.845433790760653
 20
-8.41928627922925
 30
0.0
 10
-6.860628415023297
 20
-8.53537451207619
 30
0.0
 10
-6.8755582881725
 20
-8.653602777096427
 30
0.0
 10
-6.890410924921934
 20
-8.830967928580783
 30
0.0
 10
-6.893986899314068
 20
-8.894480873488781
 30
0.0
 10
-6.896230672207233
 20
-9.025575085451817
 30
0.0
 10
-6.893496644218806
 20
-9.091428252040696
 30
0.0
 10
-6.881631545563378
 20
-9.206869176267321
 30
0.0
 10
-6.872574976391603
 20
-9.257495473966987
 30
0.0
 10
-6.855740230417439
 20
-9.326306227953562
 30
0.0
 10
-6.850348621803781
 20
-9.346036727546032
 30
0.0
 10
-6.84423386715212
 20
-9.366357907347286
 30
0.0
  0
ELLIPSE
  5
8F76
330
8F5B
100
AcDbEntity
  8
0
100
AcDbEllipse
 10
-5.177206869355135
 20
-18.50249681729931
 30
0.0
 11
1.000000000000105
 21
-1.732050807568816
 31
0.0
210
0.0
220
0.0
230
1.0
 40
0.5773502691896267
 41
3.926990816986998
 42
5.497787143781894
  0
LINE
  5
8F77
330
8F5B
100
AcDbEntity
  8
0
100
AcDbLine
 10
-5.177206869355139
 20
-20.13548997915476
 30
0.0
 11
-64.57417648902509
 21
-54.42834637811926
 31
0.0
  0
ELLIPSE
  5
8F78
330
8F5B
100
AcDbEntity
  8
0
100
AcDbEllipse
 10
-64.5741764890251
 20
-52.79535321626379
 30
0.0
 11
2.00000000000021
 21
-3.464101615137637
 31
0.0
210
0.0
220
0.0
230
1.0
 40
0.5773502691896258
 41
3.926990816986997
 42
5.497787143781892
  0
LINE
  5
8F79
330
8F5B
100
AcDbEntity
  8
0
100
AcDbLine
 10
-65.98839005139821
 20
-51.97885663533607
 30
0.0
 11
-6.591420431728227
 21
-17.68600023637159
 31
0.0
  0
LINE
  5
8F7A
330
8F5B
100
AcDbEntity
  8
0
100
AcDbLine
 10
-67.40260361377131
 20
-51.16236005440834
 30
0.0
 11
-65.98839005139821
 21
-51.97885663533607
 31
0.0
  0
LINE
  5
8F7B
330
8F5B
100
AcDbEntity
  8
0
100
AcDbLine
 10
-64.5741764890251
 20
-56.06133953997471
 30
0.0
 11
-64.5741764890251
 21
-54.42834637811926
 31
0.0
  0
ELLIPSE
  5
8F7C
330
8F5B
100
AcDbEntity
  8
0
100
AcDbEllipse
 10
-64.5741764890251
 20
-52.79535321626379
 30
0.0
 11
1.000000000000105
 21
-1.732050807568817
 31
0.0
210
0.0
220
0.0
230
1.0
 40
0.577350269189626
 41
3.926990816986997
 42
5.497787143781895
  0
LINE
  5
8F7D
330
8F5B
100
AcDbEntity
  8
0
100
AcDbLine
 10
65.53347124929962
 20
-59.3273258636856
 30
0.0
 11
65.53347124929962
 21
-52.79535321626379
 31
0.0
  0
ELLIPSE
  5
8F7E
330
8F5B
100
AcDbEntity
  8
0
100
AcDbEllipse
 10
62.70504412455345
 20
-57.69433270183014
 30
0.0
 11
1.999999999999999
 21
-3.464101615137753
 31
0.0
210
0.0
220
0.0
230
1.0
 40
0.5773502691896252
 41
0.0
 42
0.7853981633974465
  0
LINE
  5
8F7F
330
8F5B
100
AcDbEntity
  8
0
100
AcDbLine
 10
3.308074504883427
 20
-93.62018226265007
 30
0.0
 11
4.722288067256519
 21
-92.80368568172235
 31
0.0
  0
LINE
  5
8F80
330
8F5B
100
AcDbEntity
  8
0
100
AcDbLine
 10
65.53347124929962
 20
-59.3273258636856
 30
0.0
 11
6.136501629629629
 21
-93.62018226265007
 31
0.0
  0
ELLIPSE
  5
8F81
330
8F5B
100
AcDbEntity
  8
0
100
AcDbEllipse
 10
3.308074504883435
 20
-91.98718910079463
 30
0.0
 11
2.000000000000002
 21
-3.464101615137756
 31
0.0
210
0.0
220
0.0
230
1.0
 40
0.577350269189626
 41
5.497787143782137
 42
7.068583470577033
  0
LINE
  5
8F82
330
8F5B
100
AcDbEntity
  8
0
100
AcDbLine
 10
93.46418910616831
 20
-41.97677351897148
 30
0.0
 11
94.8784026685414
 21
-41.16027693804376
 31
0.0
  0
LINE
  5
8F83
330
8F5B
100
AcDbEntity
  8
0
100
AcDbLine
 10
67.37623437602827
 20
-51.76700051490602
 30
0.0
 11
93.46418910616831
 21
-41.97677351897148
 31
0.0
  0
ELLIPSE
  5
8F84
330
8F5B
100
AcDbEntity
  8
0
100
AcDbEllipse
 10
81.08982043540368
 20
29.67080145743649
 30
0.0
 11
-3.250000000000001
 21
5.62916512459885
 31
0.0
210
0.0
220
0.0
230
0.9999999999999998
 40
0.5773502691896258
 41
0.2193254863005911
 42
2.922267167289199
  0
ELLIPSE
  5
8F85
330
8F5B
100
AcDbEntity
  8
0
100
AcDbEllipse
 10
88.86799502845569
 20
29.26255316697262
 30
0.0
 11
1.250000000000129
 21
-2.165063509461021
 31
0.0
210
0.0
220
0.0
230
1.0
 40
0.5773502691896259
 41
3.742856870268575
 42
5.681921090500121
  0
LINE
  5
8F86
330
8F5B
100
AcDbEntity
  8
0
100
AcDbLine
 10
68.36189837404582
 20
53.34920230434055
 30
0.0
 11
94.87840266854135
 21
38.03989141194569
 31
0.0
  0
LINE
  5
8F87
330
8F5B
100
AcDbEntity
  8
0
100
AcDbLine
 10
94.8784026685414
 20
-41.16027693804376
 30
0.0
 11
94.87840266854135
 21
38.03989141194569
 31
0.0
  0
ELLIPSE
  5
8F88
330
8F5B
100
AcDbEntity
  8
0
100
AcDbEllipse
 10
65.53347124929962
 20
51.7162091424851
 30
0.0
 11
4.000000000000004
 21
-0.0000000000002387
 31
0.0
210
0.0
220
0.0
230
1.0
 40
0.5773502691896254
 41
0.785398163397689
 42
2.356194490192585
  0
ELLIPSE
  5
8F89
330
8F5B
100
AcDbEntity
  8
0
100
AcDbEllipse
 10
38.30986017361753
 20
27.01718756942136
 30
0.0
 11
1.249999999999871
 21
2.16506350946117
 31
0.0
210
0.0
220
0.0
230
1.0
 40
0.5773502691896261
 41
3.742856870268578
 42
5.681921090500117
  0
ELLIPSE
  5
8F8A
330
8F5B
100
AcDbEntity
  8
0
100
AcDbEllipse
 10
39.72407373599062
 20
26.20069098849364
 30
0.0
 11
-1.25
 21
-2.165063509461095
 31
0.0
210
0.0
220
0.0
230
1.0
 40
0.5773502691896261
 41
0.0
 42
6.283185307179586
  0
LINE
  5
8F8B
330
8F5B
100
AcDbEntity
  8
0
100
AcDbLine
 10
4.722288067256514
 20
-86.27171303430058
 30
0.0
 11
33.00655931471843
 21
-42.99739424513112
 31
0.0
  0
LINE
  5
8F8C
330
8F5B
100
AcDbEntity
  8
0
100
AcDbLine
 10
6.136501629629611
 20
-87.0882096152283
 30
0.0
 11
4.722288067256514
 21
-86.27171303430058
 31
0.0
  0
LINE
  5
8F8D
330
8F5B
100
AcDbEntity
  8
0
100
AcDbLine
 10
34.42077287709152
 20
-43.81389082605884
 30
0.0
 11
6.136501629629611
 21
-87.0882096152283
 31
0.0
  0
LINE
  5
8F8E
330
8F5B
100
AcDbEntity
  8
0
100
AcDbLine
 10
34.42077287709152
 20
-43.81389082605884
 30
0.0
 11
33.00655931471843
 21
-42.99739424513112
 31
0.0
  0
LINE
  5
8F8F
330
8F5B
100
AcDbEntity
  8
0
100
AcDbLine
 10
33.00655931471843
 20
-42.99739424513112
 30
0.0
 11
33.00655931471843
 21
36.2027741048583
 31
0.0
  0
LINE
  5
8F90
330
8F5B
100
AcDbEntity
  8
0
100
AcDbLine
 10
34.42077287709154
 20
35.38627752393058
 30
0.0
 11
34.42077287709152
 21
-43.81389082605884
 31
0.0
  0
LINE
  5
8F91
330
8F5B
100
AcDbEntity
  8
0
100
AcDbLine
 10
33.00655931471843
 20
36.2027741048583
 30
0.0
 11
34.42077287709154
 21
35.38627752393058
 31
0.0
  0
LINE
  5
8F92
330
8F5B
100
AcDbEntity
  8
0
100
AcDbLine
 10
6.136501629629611
 20
-87.0882096152283
 30
0.0
 11
6.136501629629629
 21
-93.62018226265007
 31
0.0
  0
LINE
  5
8F93
330
8F5B
100
AcDbEntity
  8
0
100
AcDbLine
 10
64.11925768692653
 20
-51.51957730856425
 30
0.0
 11
64.11925768692653
 21
52.53270572341285
 31
0.0
  0
LINE
  5
8F94
330
8F5B
100
AcDbEntity
  8
0
100
AcDbLine
 10
64.11925768692653
 20
52.53270572341283
 30
0.0
 11
34.42077287709154
 21
35.38627752393058
 31
0.0
  0
LINE
  5
8F95
330
8F5B
100
AcDbEntity
  8
0
100
AcDbLine
 10
33.00655931471843
 20
36.2027741048583
 30
0.0
 11
62.70504412455344
 21
53.34920230434055
 31
0.0
  0
LINE
  5
8F96
330
8F5B
100
AcDbEntity
  8
0
100
AcDbLine
 10
4.722288067256532
 20
-92.80368568172235
 30
0.0
 11
4.722288067256514
 21
-86.27171303430058
 31
0.0
  0
LINE
  5
8F97
330
8F5B
100
AcDbEntity
  8
0
100
AcDbLine
 10
3.308074504883427
 20
-93.62018226265007
 30
0.0
 11
3.308074504883427
 21
-95.25317542450551
 31
0.0
  0
LINE
  5
8F98
330
8F5B
100
AcDbEntity
  8
0
100
AcDbLine
 10
4.722288067256532
 20
-92.80368568172235
 30
0.0
 11
6.136501629629629
 21
-93.62018226265007
 31
0.0
  0
ELLIPSE
  5
8F99
330
8F5B
100
AcDbEntity
  8
0
100
AcDbEllipse
 10
3.308074504883435
 20
-91.98718910079463
 30
0.0
 11
1.000000000000001
 21
-1.732050807568878
 31
0.0
210
0.0
220
0.0
230
1.0
 40
0.577350269189626
 41
5.497787143782142
 42
7.068583470577038
  0
LINE
  5
8F9A
330
8F5B
100
AcDbEntity
  8
0
100
AcDbLine
 10
66.94768481167272
 20
-51.51957730856425
 30
0.0
 11
66.94768481167272
 21
52.5327057234128
 31
0.0
  0
ELLIPSE
  5
8F9B
330
8F5B
100
AcDbEntity
  8
0
100
AcDbEllipse
 10
65.53347124929962
 20
51.7162091424851
 30
0.0
 11
-2.000000000000002
 21
-0.0000000000001193
 31
0.0
210
0.0
220
0.0
230
1.0
 40
0.5773502691896254
 41
3.926990816987
 42
5.497787143781901
  0
LINE
  5
8F9C
330
8F5B
100
AcDbEntity
  8
0
100
AcDbLine
 10
94.87840266854135
 20
38.03989141194569
 30
0.0
 11
93.46418910616826
 21
37.22339483101796
 31
0.0
  0
LINE
  5
8F9D
330
8F5B
100
AcDbEntity
  8
0
100
AcDbLine
 10
93.46418910616831
 20
-41.97677351897148
 30
0.0
 11
93.46418910616826
 21
37.22339483101796
 31
0.0
  0
LINE
  5
8F9E
330
8F5B
100
AcDbEntity
  8
0
100
AcDbLine
 10
64.11925768692653
 20
52.53270572341283
 30
0.0
 11
62.70504412455344
 21
53.34920230434055
 31
0.0
  0
LINE
  5
8F9F
330
8F5B
100
AcDbEntity
  8
0
100
AcDbLine
 10
66.94768481167272
 20
52.53270572341282
 30
0.0
 11
68.36189837404582
 21
53.34920230434055
 31
0.0
  0
LINE
  5
8FA0
330
8F5B
100
AcDbEntity
  8
0
100
AcDbLine
 10
93.46418910616826
 20
37.22339483101796
 30
0.0
 11
66.94768481167272
 21
52.53270572341282
 31
0.0
  0
ELLIPSE
  5
8FA1
330
8F5B
100
AcDbEntity
  8
0
100
AcDbEllipse
 10
79.67560687303059
 20
28.85430487650877
 30
0.0
 11
-3.250000000000001
 21
5.62916512459885
 31
0.0
210
0.0
220
0.0
230
0.9999999999999998
 40
0.5773502691896258
 41
0.0
 42
6.283185307179586
  0
ELLIPSE
  5
8FA2
330
8F5B
100
AcDbEntity
  8
0
100
AcDbEllipse
 10
87.4537814660826
 20
28.44605658604491
 30
0.0
 11
-1.25
 21
2.165063509461095
 31
0.0
210
0.0
220
0.0
230
1.0
 40
0.577350269189626
 41
0.0
 42
6.283185307179586
  0
LINE
  5
8FA3
330
8F5B
100
AcDbEntity
  8
0
100
AcDbLine
 10
5.308074504883433
 20
-95.45129071593237
 30
0.0
 11
64.70504412455342
 21
-61.1584343169679
 31
0.0
  0
ELLIPSE
  5
8FA4
330
8F5B
100
AcDbEntity
  8
0
100
AcDbEllipse
 10
81.08982043540368
 20
-27.4839592075043
 30
0.0
 11
-3.250000000000001
 21
5.62916512459885
 31
0.0
210
0.0
220
0.0
230
0.9999999999999998
 40
0.577350269189626
 41
0.2193254863005904
 42
2.922267167289199
  0
ELLIPSE
  5
8FA5
330
8F5B
100
AcDbEntity
  8
0
100
AcDbEllipse
 10
79.67560687303059
 20
-28.30045578843203
 30
0.0
 11
-3.250000000000001
 21
5.62916512459885
 31
0.0
210
0.0
220
0.0
230
0.9999999999999998
 40
0.5773502691896258
 41
0.0
 42
6.283185307179586
  0
ELLIPSE
  5
8FA6
330
8F5B
100
AcDbEntity
  8
0
100
AcDbEllipse
 10
73.31164584235165
 20
-35.24067672631769
 30
0.0
 11
1.250000000000129
 21
-2.165063509461021
 31
0.0
210
0.0
220
0.0
230
1.0
 40
0.5773502691896259
 41
3.742856870268576
 42
5.681921090500121
  0
ELLIPSE
  5
8FA7
330
8F5B
100
AcDbEntity
  8
0
100
AcDbEllipse
 10
73.31164584235165
 20
-18.91074510776317
 30
0.0
 11
1.250000000000129
 21
-2.165063509461021
 31
0.0
210
0.0
220
0.0
230
1.0
 40
0.5773502691896259
 41
3.742856870268578
 42
5.681921090500121
  0
ELLIPSE
  5
8FA8
330
8F5B
100
AcDbEntity
  8
0
100
AcDbEllipse
 10
73.31164584235165
 20
-2.580813489208666
 30
0.0
 11
1.250000000000129
 21
-2.165063509461021
 31
0.0
210
0.0
220
0.0
230
1.0
 40
0.5773502691896259
 41
3.742856870268578
 42
5.681921090500121
  0
ELLIPSE
  5
8FA9
330
8F5B
100
AcDbEntity
  8
0
100
AcDbEllipse
 10
73.31164584235165
 20
13.74911812934585
 30
0.0
 11
1.250000000000129
 21
-2.165063509461021
 31
0.0
210
0.0
220
0.0
230
1.0
 40
0.5773502691896259
 41
3.742856870268578
 42
5.681921090500121
  0
ELLIPSE
  5
8FAA
330
8F5B
100
AcDbEntity
  8
0
100
AcDbEllipse
 10
73.31164584235165
 20
30.07904974790037
 30
0.0
 11
1.250000000000129
 21
-2.165063509461021
 31
0.0
210
0.0
220
0.0
230
1.0
 40
0.5773502691896259
 41
3.742856870268576
 42
5.681921090500121
  0
ELLIPSE
  5
8FAB
330
8F5B
100
AcDbEntity
  8
0
100
AcDbEllipse
 10
71.89743227997856
 20
-36.05717330724541
 30
0.0
 11
-1.25
 21
2.165063509461095
 31
0.0
210
0.0
220
0.0
230
1.0
 40
0.577350269189626
 41
0.0
 42
6.283185307179586
  0
ELLIPSE
  5
8FAC
330
8F5B
100
AcDbEntity
  8
0
100
AcDbEllipse
 10
71.89743227997856
 20
-19.72724168869089
 30
0.0
 11
-1.25
 21
2.165063509461095
 31
0.0
210
0.0
220
0.0
230
1.0
 40
0.577350269189626
 41
0.0
 42
6.283185307179586
  0
ELLIPSE
  5
8FAD
330
8F5B
100
AcDbEntity
  8
0
100
AcDbEllipse
 10
71.89743227997856
 20
-3.39731007013639
 30
0.0
 11
-1.25
 21
2.165063509461095
 31
0.0
210
0.0
220
0.0
230
1.0
 40
0.577350269189626
 41
0.0
 42
6.283185307179586
  0
ELLIPSE
  5
8FAE
330
8F5B
100
AcDbEntity
  8
0
100
AcDbEllipse
 10
71.89743227997856
 20
12.93262154841812
 30
0.0
 11
-1.25
 21
2.165063509461095
 31
0.0
210
0.0
220
0.0
230
1.0
 40
0.577350269189626
 41
0.0
 42
6.283185307179586
  0
ELLIPSE
  5
8FAF
330
8F5B
100
AcDbEntity
  8
0
100
AcDbEllipse
 10
71.89743227997856
 20
29.26255316697263
 30
0.0
 11
-1.25
 21
2.165063509461095
 31
0.0
210
0.0
220
0.0
230
1.0
 40
0.577350269189626
 41
0.0
 42
6.283185307179586
  0
ELLIPSE
  5
8FB0
330
8F5B
100
AcDbEntity
  8
0
100
AcDbEllipse
 10
73.31164584235165
 20
46.40898136645488
 30
0.0
 11
1.250000000000129
 21
-2.165063509461021
 31
0.0
210
0.0
220
0.0
230
1.0
 40
0.5773502691896259
 41
3.74285687026858
 42
5.681921090500122
  0
ELLIPSE
  5
8FB1
330
8F5B
100
AcDbEntity
  8
0
100
AcDbEllipse
 10
-14.36959502478024
 20
95.39877622211845
 30
0.0
 11
1.25
 21
-2.165063509461095
 31
0.0
210
0.0
220
0.0
230
1.0
 40
0.577350269189626
 41
0.0
 42
6.283185307179586
  0
ELLIPSE
  5
8FB2
330
8F5B
100
AcDbEntity
  8
0
100
AcDbEllipse
 10
-12.95538146240715
 20
96.21527280304617
 30
0.0
 11
1.250000000000129
 21
-2.165063509461021
 31
0.0
210
0.0
220
0.0
230
1.0
 40
0.5773502691896259
 41
3.742856870268578
 42
5.681921090500118
  0
ELLIPSE
  5
8FB3
330
8F5B
100
AcDbEntity
  8
0
100
AcDbEllipse
 10
71.89743227997856
 20
45.59248478552714
 30
0.0
 11
-1.25
 21
2.165063509461095
 31
0.0
210
0.0
220
0.0
230
1.0
 40
0.577350269189626
 41
0.0
 42
6.283185307179586
  0
ELLIPSE
  5
8FB4
330
8F5B
100
AcDbEntity
  8
0
100
AcDbEllipse
 10
88.86799502845569
 20
-36.05717330724543
 30
0.0
 11
1.250000000000129
 21
-2.165063509461021
 31
0.0
210
0.0
220
0.0
230
1.0
 40
0.5773502691896259
 41
3.742856870268575
 42
5.681921090500121
  0
ELLIPSE
  5
8FB5
330
8F5B
100
AcDbEntity
  8
0
100
AcDbEllipse
 10
88.86799502845569
 20
-19.72724168869091
 30
0.0
 11
1.250000000000129
 21
-2.165063509461021
 31
0.0
210
0.0
220
0.0
230
1.0
 40
0.5773502691896259
 41
3.742856870268575
 42
5.68192109050011
  0
ELLIPSE
  5
8FB6
330
8F5B
100
AcDbEntity
  8
0
100
AcDbEllipse
 10
88.86799502845569
 20
-3.397310070136394
 30
0.0
 11
1.250000000000129
 21
-2.165063509461021
 31
0.0
210
0.0
220
0.0
230
1.0
 40
0.5773502691896259
 41
3.742856870268575
 42
5.68192109050011
  0
ELLIPSE
  5
8FB7
330
8F5B
100
AcDbEntity
  8
0
100
AcDbEllipse
 10
88.86799502845569
 20
12.93262154841811
 30
0.0
 11
1.250000000000129
 21
-2.165063509461021
 31
0.0
210
0.0
220
0.0
230
1.0
 40
0.5773502691896259
 41
3.742856870268575
 42
5.68192109050011
  0
ELLIPSE
  5
8FB8
330
8F5B
100
AcDbEntity
  8
0
100
AcDbEllipse
 10
87.4537814660826
 20
-36.87366988817315
 30
0.0
 11
-1.25
 21
2.165063509461095
 31
0.0
210
0.0
220
0.0
230
1.0
 40
0.577350269189626
 41
0.0
 42
6.283185307179586
  0
ELLIPSE
  5
8FB9
330
8F5B
100
AcDbEntity
  8
0
100
AcDbEllipse
 10
87.4537814660826
 20
-20.54373826961864
 30
0.0
 11
-1.25
 21
2.165063509461095
 31
0.0
210
0.0
220
0.0
230
1.0
 40
0.577350269189626
 41
0.0
 42
6.283185307179586
  0
ELLIPSE
  5
8FBA
330
8F5B
100
AcDbEntity
  8
0
100
AcDbEllipse
 10
87.4537814660826
 20
-4.213806651064118
 30
0.0
 11
-1.25
 21
2.165063509461095
 31
0.0
210
0.0
220
0.0
230
1.0
 40
0.577350269189626
 41
0.0
 42
6.283185307179586
  0
ELLIPSE
  5
8FBB
330
8F5B
100
AcDbEntity
  8
0
100
AcDbEllipse
 10
87.4537814660826
 20
12.1161249674904
 30
0.0
 11
-1.25
 21
2.165063509461095
 31
0.0
210
0.0
220
0.0
230
1.0
 40
0.577350269189626
 41
0.0
 42
6.283185307179586
  0
LINE
  5
8FBC
330
8F5B
100
AcDbEntity
  8
0
100
AcDbLine
 10
-33.13633648782126
 20
28.44870113324559
 30
0.0
 11
-32.4291246438306
 21
27.36668241971504
 31
0.0
  0
LINE
  5
8FBD
330
8F5B
100
AcDbEntity
  8
0
100
AcDbLine
 10
-37.70411880393632
 20
-2.172565198744833
 30
0.0
 11
-65.98839005139821
 21
-45.44688398791429
 31
0.0
  0
LINE
  5
8FBE
330
8F5B
100
AcDbEntity
  8
0
100
AcDbLine
 10
-39.11833236630941
 20
-1.356068617817109
 30
0.0
 11
-37.70411880393632
 21
-2.172565198744833
 31
0.0
  0
LINE
  5
8FBF
330
8F5B
100
AcDbEntity
  8
0
100
AcDbLine
 10
-67.40260361377131
 20
-44.63038740698656
 30
0.0
 11
-39.11833236630941
 21
-1.356068617817109
 31
0.0
  0
LINE
  5
8FC0
330
8F5B
100
AcDbEntity
  8
0
100
AcDbLine
 10
-65.98839005139821
 20
-45.44688398791428
 30
0.0
 11
-67.40260361377131
 21
-44.63038740698656
 31
0.0
  0
LINE
  5
8FC1
330
8F5B
100
AcDbEntity
  8
0
100
AcDbLine
 10
-37.70411880393631
 20
77.02760315124459
 30
0.0
 11
-37.70411880393632
 21
-2.172565198744829
 31
0.0
  0
LINE
  5
8FC2
330
8F5B
100
AcDbEntity
  8
0
100
AcDbLine
 10
-39.1183323663094
 20
77.84409973217231
 30
0.0
 11
-37.70411880393631
 21
77.02760315124459
 31
0.0
  0
LINE
  5
8FC3
330
8F5B
100
AcDbEntity
  8
0
100
AcDbLine
 10
-39.11833236630941
 20
-1.356068617817109
 30
0.0
 11
-39.1183323663094
 21
77.84409973217231
 31
0.0
  0
ELLIPSE
  5
8FC4
330
8F5B
100
AcDbEntity
  8
0
100
AcDbEllipse
 10
-22.14776961783227
 20
87.64205870330503
 30
0.0
 11
-3.250000000000003
 21
5.629165124598848
 31
0.0
210
0.0
220
0.0
230
1.0
 40
0.5773502691896258
 41
4.71238898038469
 42
7.853981633974483
  0
ELLIPSE
  5
8FC5
330
8F5B
100
AcDbEntity
  8
0
100
AcDbEllipse
 10
-20.73355605545918
 20
88.45855528423275
 30
0.0
 11
-3.250000000000001
 21
5.62916512459885
 31
0.0
210
0.0
220
0.0
230
0.9999999999999998
 40
0.5773502691896258
 41
0.2193254863005918
 42
1.570796326794897
  0
ELLIPSE
  5
8FC6
330
8F5B
100
AcDbEntity
  8
0
100
AcDbEllipse
 10
-29.9259442108843
 20
96.21527280304617
 30
0.0
 11
1.25
 21
-2.165063509461095
 31
0.0
210
0.0
220
0.0
230
1.0
 40
0.577350269189626
 41
0.0
 42
6.283185307179586
  0
ELLIPSE
  5
8FC7
330
8F5B
100
AcDbEntity
  8
0
100
AcDbEllipse
 10
-28.51173064851121
 20
97.03176938397389
 30
0.0
 11
1.250000000000129
 21
-2.165063509461021
 31
0.0
210
0.0
220
0.0
230
1.0
 40
0.5773502691896259
 41
3.742856870268576
 42
5.681921090500115
  0
LINE
  5
8FC8
330
8F5B
100
AcDbEntity
  8
0
100
AcDbLine
 10
-9.419847556474412
 20
94.99052793165459
 30
0.0
 11
-9.419847556474415
 21
96.62352109351003
 31
0.0
  0
ELLIPSE
  5
8FC9
330
8F5B
100
AcDbEntity
  8
0
100
AcDbEllipse
 10
-10.83406111884751
 20
95.80702451258231
 30
0.0
 11
2.000000000000002
 21
0.0
 31
0.0
210
0.0
220
0.0
230
1.0
 40
0.5773502691896255
 41
5.497787143782129
 42
7.068583470577027
  0
LINE
  5
8FCA
330
8F5B
100
AcDbEntity
  8
0
100
AcDbLine
 10
-8.005633994101319
 20
94.17403135072687
 30
0.0
 11
-8.005633994101316
 21
-9.87825168125024
 31
0.0
  0
ELLIPSE
  5
8FCB
330
8F5B
100
AcDbEntity
  8
0
100
AcDbEllipse
 10
-10.83406111884751
 20
95.80702451258231
 30
0.0
 11
4.000000000000004
 21
0.0
 31
0.0
210
0.0
220
0.0
230
1.0
 40
0.5773502691896255
 41
5.497787143782137
 42
7.068583470577035
  0
LINE
  5
8FCC
330
8F5B
100
AcDbEntity
  8
0
100
AcDbLine
 10
-9.419847556474415
 20
96.62352109351003
 30
0.0
 11
-8.005633994101319
 21
97.44001767443775
 31
0.0
  0
LINE
  5
8FCD
330
8F5B
100
AcDbEntity
  8
0
100
AcDbLine
 10
-9.419847556474415
 20
94.99052793165459
 30
0.0
 11
-8.005633994101319
 21
94.17403135072687
 31
0.0
  0
LINE
  5
8FCE
330
8F5B
100
AcDbEntity
  8
0
100
AcDbLine
 10
-6.8340611188475
 20
-8.245258519394793
 30
0.0
 11
-6.8340611188475
 21
95.80702451258231
 31
0.0
  0
LINE
  5
8FCF
330
8F5B
100
AcDbEntity
  8
0
100
AcDbLine
 10
-35.93635185096994
 20
111.9328319859049
 30
0.0
 11
-9.419847556474415
 21
96.62352109351003
 31
0.0
  0
LINE
  5
8FD0
330
8F5B
100
AcDbEntity
  8
0
100
AcDbLine
 10
-35.93635185097
 20
79.68121703925968
 30
0.0
 11
-35.93635185096994
 21
111.9328319859049
 31
0.0
  0
LINE
  5
8FD1
330
8F5B
100
AcDbEntity
  8
0
100
AcDbLine
 10
-65.98839005139821
 20
-51.97885663533607
 30
0.0
 11
-65.98839005139821
 21
-45.44688398791428
 31
0.0
  0
LINE
  5
8FD2
330
8F5B
100
AcDbEntity
  8
0
100
AcDbLine
 10
-37.70411880393631
 20
77.02760315124459
 30
0.0
 11
-8.005633994101319
 21
94.17403135072687
 31
0.0
  0
LINE
  5
8FD3
330
8F5B
100
AcDbEntity
  8
0
100
AcDbLine
 10
-67.40260361377131
 20
-44.63038740698656
 30
0.0
 11
-67.40260361377131
 21
-51.16236005440834
 31
0.0
  0
LINE
  5
8FD4
330
8F5B
100
AcDbEntity
  8
0
100
AcDbLine
 10
-9.419847556474415
 20
94.99052793165459
 30
0.0
 11
-39.1183323663094
 21
77.84409973217231
 31
0.0
  0
LINE
  5
8FD5
330
8F5B
100
AcDbEntity
  8
0
100
AcDbLine
 10
-8.005633994101319
 20
97.44001767443775
 30
0.0
 11
-34.52213828859687
 21
112.7493285668326
 31
0.0
  0
LINE
  5
8FD6
330
8F5B
100
AcDbEntity
  8
0
100
AcDbLine
 10
-34.52213828859687
 20
112.7493285668326
 30
0.0
 11
-35.93635185096994
 21
111.9328319859049
 31
0.0
  0
ELLIPSE
  5
8FD7
330
8F5B
100
AcDbEntity
  8
0
100
AcDbEllipse
 10
38.30986017361753
 20
-54.6324705233512
 30
0.0
 11
1.249999999999871
 21
2.16506350946117
 31
0.0
210
0.0
220
0.0
230
1.0
 40
0.5773502691896261
 41
3.742856870268578
 42
5.681921090500113
  0
ELLIPSE
  5
8FD8
330
8F5B
100
AcDbEntity
  8
0
100
AcDbEllipse
 10
39.72407373599062
 20
-55.44896710427892
 30
0.0
 11
-1.25
 21
-2.165063509461095
 31
0.0
210
0.0
220
0.0
230
1.0
 40
0.5773502691896261
 41
0.0
 42
6.283185307179586
  0
ELLIPSE
  5
8FD9
330
8F5B
100
AcDbEntity
  8
0
100
AcDbEllipse
 10
38.30986017361753
 20
-38.30253890479669
 30
0.0
 11
1.249999999999871
 21
2.16506350946117
 31
0.0
210
0.0
220
0.0
230
1.0
 40
0.5773502691896261
 41
3.742856870268578
 42
5.681921090500117
  0
ELLIPSE
  5
8FDA
330
8F5B
100
AcDbEntity
  8
0
100
AcDbEllipse
 10
39.72407373599062
 20
-39.11903548572441
 30
0.0
 11
-1.25
 21
-2.165063509461095
 31
0.0
210
0.0
220
0.0
230
1.0
 40
0.5773502691896261
 41
0.0
 42
6.283185307179586
  0
ELLIPSE
  5
8FDB
330
8F5B
100
AcDbEntity
  8
0
100
AcDbEllipse
 10
38.30986017361753
 20
-21.97260728624218
 30
0.0
 11
1.249999999999871
 21
2.16506350946117
 31
0.0
210
0.0
220
0.0
230
1.0
 40
0.5773502691896261
 41
3.742856870268578
 42
5.681921090500117
  0
ELLIPSE
  5
8FDC
330
8F5B
100
AcDbEntity
  8
0
100
AcDbEllipse
 10
39.72407373599062
 20
-22.7891038671699
 30
0.0
 11
-1.25
 21
-2.165063509461095
 31
0.0
210
0.0
220
0.0
230
1.0
 40
0.5773502691896261
 41
0.0
 42
6.283185307179586
  0
ELLIPSE
  5
8FDD
330
8F5B
100
AcDbEntity
  8
0
100
AcDbEllipse
 10
38.30986017361753
 20
-5.642675667687662
 30
0.0
 11
1.249999999999871
 21
2.16506350946117
 31
0.0
210
0.0
220
0.0
230
1.0
 40
0.5773502691896261
 41
3.742856870268578
 42
5.681921090500117
  0
ELLIPSE
  5
8FDE
330
8F5B
100
AcDbEntity
  8
0
100
AcDbEllipse
 10
39.72407373599062
 20
-6.459172248615385
 30
0.0
 11
-1.25
 21
-2.165063509461095
 31
0.0
210
0.0
220
0.0
230
1.0
 40
0.5773502691896261
 41
0.0
 42
6.283185307179586
  0
ELLIPSE
  5
8FDF
330
8F5B
100
AcDbEntity
  8
0
100
AcDbEllipse
 10
38.30986017361753
 20
10.68725595086685
 30
0.0
 11
1.249999999999871
 21
2.16506350946117
 31
0.0
210
0.0
220
0.0
230
1.0
 40
0.5773502691896261
 41
3.742856870268578
 42
5.681921090500117
  0
ELLIPSE
  5
8FE0
330
8F5B
100
AcDbEntity
  8
0
100
AcDbEllipse
 10
39.72407373599062
 20
9.870759369939134
 30
0.0
 11
-1.25
 21
-2.165063509461095
 31
0.0
210
0.0
220
0.0
230
1.0
 40
0.5773502691896261
 41
0.0
 42
6.283185307179586
  0
ELLIPSE
  5
8FE1
330
8F5B
100
AcDbEntity
  8
0
100
AcDbEllipse
 10
-33.8150315074103
 20
-4.826179086759907
 30
0.0
 11
1.249999999999871
 21
2.16506350946117
 31
0.0
210
0.0
220
0.0
230
1.0
 40
0.5773502691896259
 41
3.742856870268578
 42
5.681921090500114
  0
ELLIPSE
  5
8FE2
330
8F5B
100
AcDbEntity
  8
0
100
AcDbEllipse
 10
-32.4008179450372
 20
-5.642675667687626
 30
0.0
 11
1.25
 21
2.165063509461095
 31
0.0
210
0.0
220
0.0
230
1.0
 40
0.5773502691896258
 41
0.0
 42
6.283185307179586
  0
ELLIPSE
  5
8FE3
330
8F5B
100
AcDbEntity
  8
0
100
AcDbEllipse
 10
-33.8150315074103
 20
11.50375253179461
 30
0.0
 11
1.249999999999871
 21
2.16506350946117
 31
0.0
210
0.0
220
0.0
230
1.0
 40
0.5773502691896259
 41
3.742856870268578
 42
5.681921090500114
  0
ELLIPSE
  5
8FE4
330
8F5B
100
AcDbEntity
  8
0
100
AcDbEllipse
 10
-32.4008179450372
 20
10.68725595086689
 30
0.0
 11
1.25
 21
2.165063509461095
 31
0.0
210
0.0
220
0.0
230
1.0
 40
0.5773502691896258
 41
0.0
 42
6.283185307179586
  0
ELLIPSE
  5
8FE5
330
8F5B
100
AcDbEntity
  8
0
100
AcDbEllipse
 10
-33.8150315074103
 20
27.83368415034912
 30
0.0
 11
1.249999999999871
 21
2.16506350946117
 31
0.0
210
0.0
220
0.0
230
1.0
 40
0.5773502691896259
 41
3.74285687026858
 42
5.681921090500114
  0
ELLIPSE
  5
8FE6
330
8F5B
100
AcDbEntity
  8
0
100
AcDbEllipse
 10
-32.4008179450372
 20
27.0171875694214
 30
0.0
 11
1.25
 21
2.165063509461095
 31
0.0
210
0.0
220
0.0
230
1.0
 40
0.5773502691896258
 41
0.0
 42
6.283185307179586
  0
ELLIPSE
  5
8FE7
330
8F5B
100
AcDbEntity
  8
0
100
AcDbEllipse
 10
-33.8150315074103
 20
44.16361576890364
 30
0.0
 11
1.249999999999871
 21
2.16506350946117
 31
0.0
210
0.0
220
0.0
230
1.0
 40
0.5773502691896259
 41
3.742856870268578
 42
5.681921090500119
  0
ELLIPSE
  5
8FE8
330
8F5B
100
AcDbEntity
  8
0
100
AcDbEllipse
 10
-32.4008179450372
 20
43.3471191879759
 30
0.0
 11
1.25
 21
2.165063509461095
 31
0.0
210
0.0
220
0.0
230
1.0
 40
0.5773502691896258
 41
0.0
 42
6.283185307179586
  0
ELLIPSE
  5
8FE9
330
8F5B
100
AcDbEntity
  8
0
100
AcDbEllipse
 10
-33.8150315074103
 20
60.49354738745815
 30
0.0
 11
1.249999999999871
 21
2.16506350946117
 31
0.0
210
0.0
220
0.0
230
1.0
 40
0.5773502691896259
 41
3.742856870268578
 42
5.681921090500119
  0
ELLIPSE
  5
8FEA
330
8F5B
100
AcDbEntity
  8
0
100
AcDbEllipse
 10
-32.4008179450372
 20
59.67705080653041
 30
0.0
 11
1.25
 21
2.165063509461095
 31
0.0
210
0.0
220
0.0
230
1.0
 40
0.5773502691896258
 41
0.0
 42
6.283185307179586
  0
ELLIPSE
  5
8FEB
330
8F5B
100
AcDbEntity
  8
0
100
AcDbEllipse
 10
-33.8150315074103
 20
76.82347900601268
 30
0.0
 11
1.249999999999871
 21
2.16506350946117
 31
0.0
210
0.0
220
0.0
230
1.0
 40
0.5773502691896259
 41
3.742856870268578
 42
5.681921090500119
  0
ELLIPSE
  5
8FEC
330
8F5B
100
AcDbEntity
  8
0
100
AcDbEllipse
 10
-32.4008179450372
 20
76.00698242508494
 30
0.0
 11
1.25
 21
2.165063509461095
 31
0.0
210
0.0
220
0.0
230
1.0
 40
0.5773502691896258
 41
0.0
 42
6.283185307179586
  0
ENDBLK
  5
8F5D
330
8F5B
100
AcDbEntity
  8
0
100
AcDbBlockEnd
  0
ENDSEC
  0
SECTION
  2
ENTITIES
  0
INSERT
  5
8FED
330
1F
100
AcDbEntity
  8
0
100
AcDbBlockReference
  2
SAE380_100_2-Front
 10
0.0
 20
0.0
 30
0.0
  0
INSERT
  5
8FEE
330
1F
100
AcDbEntity
  8
0
100
AcDbBlockReference
  2
SAE380_100_2-Left
 10
134.1000000000001
 20
0.0
 30
0.0
  0
INSERT
  5
8FEF
330
1F
100
AcDbEntity
  8
0
100
AcDbBlockReference
  2
SAE380_100_2-Right
 10
-134.1000000000001
 20
0.0
 30
0.0
  0
INSERT
  5
8FF0
330
1F
100
AcDbEntity
  8
0
100
AcDbBlockReference
  2
SAE380_100_2-Top
 10
0.0
 20
-44.59999999999999
 30
0.0
  0
INSERT
  5
8FF1
330
1F
100
AcDbEntity
  8
0
100
AcDbBlockReference
  2
SAE380_100_2-Bottom
 10
0.0
 20
182.6
 30
0.0
  0
INSERT
  5
8FF2
330
1F
100
AcDbEntity
  8
0
100
AcDbBlockReference
  2
SAE380_100_2-ISO
 10
201.5026036137715
 20
-157.3493285668326
 30
0.0
  0
MTEXT
  5
8FF3
330
1F
100
AcDbEntity
  8
0
100
AcDbMText
 10
0.0
 20
-173.2
 30
0.0
 40
14.2
 41
0.0
 71
     5
 72
     5
  1
SAE380/100/2
 73
     1
 44
1.0
1001
ACAD
1000
MTEXTBEGIN
1070
    73
1070
     1
1070
    44
1040
1.0
1070
    74
1070
     0
1000
MTEXTEND
  0
ENDSEC
  0
SECTION
  2
OBJECTS
  0
DICTIONARY
  5
C
330
0
100
AcDbDictionary
281
     1
  3
ACAD_CIP_PREVIOUS_PRODUCT_INFO
350
216
  3
ACAD_COLOR
350
6B
  3
ACAD_DETAILVIEWSTYLE
350
21B
  3
ACAD_GROUP
350
D
  3
ACAD_LAYOUT
350
1A
  3
ACAD_MATERIAL
350
6A
  3
ACAD_MLEADERSTYLE
350
12D
  3
ACAD_MLINESTYLE
350
17
  3
ACAD_PLOTSETTINGS
350
19
  3
ACAD_PLOTSTYLENAME
350
E
  3
ACAD_SCALELIST
350
10C
  3
ACAD_SECTIONVIEWSTYLE
350
219
  3
ACAD_TABLESTYLE
350
7E
  3
ACAD_VISUALSTYLE
350
EF
  3
ACDB_RECOMPOSE_DATA
350
90F4
  3
AcDbVariableDictionary
350
5E
  3
DWGPROPS
350
90F5
  0
DICTIONARY
  5
9044
330
8
100
AcDbDictionary
280
     1
281
     1
  0
DICTIONARY
  5
1FF
330
2
100
AcDbDictionary
280
     1
281
     1
  3
ACAD_LAYERSTATES
360
200
  0
DICTIONARY
  5
13C
330
10
100
AcDbDictionary
280
     1
281
     1
  0
DICTIONARY
  5
1CE
330
1F
100
AcDbDictionary
280
     1
281
     1
  3
ACAD_LAYOUTSELFREF
360
904C
  0
DICTIONARY
  5
8FF7
330
D2
100
AcDbDictionary
280
     1
281
     1
  3
ACAD_LAYOUTSELFREF
360
9055
  0
DICTIONARY
  5
8FF9
330
D6
100
AcDbDictionary
280
     1
281
     1
  3
ACAD_LAYOUTSELFREF
360
9058
  0
XRECORD
  5
216
102
{ACAD_REACTORS
330
C
102
}
330
C
100
AcDbXrecord
280
     1
300
ACD
300
2021
300
87393ACD_2021_0F
  0
DICTIONARY
  5
6B
102
{ACAD_REACTORS
330
C
102
}
330
C
100
AcDbDictionary
281
     1
  0
DICTIONARY
  5
21B
102
{ACAD_REACTORS
330
C
102
}
330
C
100
AcDbDictionary
281
     1
  3
Metric50
350
21C
  0
DICTIONARY
  5
D
102
{ACAD_REACTORS
330
C
102
}
330
C
100
AcDbDictionary
281
     1
  0
DICTIONARY
  5
1A
102
{ACAD_REACTORS
330
C
102
}
330
C
100
AcDbDictionary
281
     1
  3
Layout1
350
D3
  3
Layout2
350
D7
  3
Model
350
22
  0
DICTIONARY
  5
6A
102
{ACAD_REACTORS
330
C
102
}
330
C
100
AcDbDictionary
281
     1
  3
ByBlock
350
ED
  3
ByLayer
350
EC
  3
Global
350
EE
  0
DICTIONARY
  5
12D
102
{ACAD_REACTORS
330
C
102
}
330
C
100
AcDbDictionary
281
     1
  3
Standard
350
12E
  0
DICTIONARY
  5
17
102
{ACAD_REACTORS
330
C
102
}
330
C
100
AcDbDictionary
281
     1
  3
Standard
350
18
  0
DICTIONARY
  5
19
102
{ACAD_REACTORS
330
C
102
}
330
C
100
AcDbDictionary
281
     1
  0
ACDBDICTIONARYWDFLT
  5
E
102
{ACAD_REACTORS
330
C
102
}
330
C
100
AcDbDictionary
281
     1
  3
Normal
350
F
100
AcDbDictionaryWithDefault
340
F
  0
DICTIONARY
  5
10C
102
{ACAD_REACTORS
330
C
102
}
330
C
100
AcDbDictionary
281
     1
  3
A0
350
10D
  3
A1
350
1BE
  3
A2
350
1BF
  3
A3
350
1C0
  3
A4
350
1C1
  3
A5
350
1C2
  3
A6
350
1C3
  3
A7
350
1C4
  3
A8
350
1C5
  3
A9
350
1C6
  3
B0
350
1C7
  3
B1
350
1C8
  3
B2
350
1C9
  3
B3
350
1CA
  3
B4
350
1CB
  3
B5
350
1CC
  3
B6
350
1CD
  0
DICTIONARY
  5
219
102
{ACAD_REACTORS
330
C
102
}
330
C
100
AcDbDictionary
281
     1
  3
Metric50
350
21A
  0
DICTIONARY
  5
7E
102
{ACAD_REACTORS
330
C
102
}
330
C
100
AcDbDictionary
281
     1
  3
Standard
350
7F
  0
DICTIONARY
  5
EF
102
{ACAD_REACTORS
330
C
102
}
330
C
100
AcDbDictionary
281
     1
  3
2dWireframe
350
F5
  3
Basic
350
F4
  3
Brighten
350
FB
  3
ColorChange
350
FF
  3
Conceptual
350
F8
  3
Dim
350
FA
  3
EdgeColorOff
350
1E6
  3
Facepattern
350
FE
  3
Flat
350
F0
  3
FlatWithEdges
350
F1
  3
Gouraud
350
F2
  3
GouraudWithEdges
350
F3
  3
Hidden
350
F7
  3
JitterOff
350
1E4
  3
Linepattern
350
FD
  3
OverhangOff
350
1E5
  3
Realistic
350
F9
  3
Shaded
350
1F3
  3
Shaded with edges
350
1F2
  3
Shades of Gray
350
1EF
  3
Sketchy
350
1F0
  3
Thicken
350
FC
  3
Wireframe
350
F6
  3
X-Ray
350
1F1
  0
XRECORD
  5
90F4
102
{ACAD_REACTORS
330
C
102
}
330
C
100
AcDbXrecord
280
     1
 90
        1
330
7F
  0
DICTIONARY
  5
5E
102
{ACAD_REACTORS
330
C
102
}
330
C
100
AcDbDictionary
281
     1
  3
CANNOSCALE
350
146
  3
CENTEREXE
350
259
  3
CENTERLTYPEFILE
350
25A
  3
CMLEADERSTYLE
350
145
  3
CTABLESTYLE
350
84
  3
CVIEWDETAILSTYLE
350
227
  3
CVIEWSECTIONSTYLE
350
228
  3
DIMASSOC
350
5F
  3
HIDETEXT
350
63
  3
INDEXCTL
350
90A1
  3
LAYEREVAL
350
1AE
  3
LAYERNOTIFY
350
1AF
  3
LIGHTINGUNITS
350
909F
  3
MSLTSCALE
350
909E
  3
PSOLHEIGHT
350
90F1
  3
PSOLWIDTH
350
90F0
  3
SORTENTS
350
90A0
  3
XCLIPFRAME
350
90F2
  0
XRECORD
  5
90F5
102
{ACAD_REACTORS
330
C
102
}
330
C
100
AcDbXrecord
280
     1
  1
DWGPROPS COOKIE
  2

  3

  4

  6

  7

  8
truole
  9

300
=
301
=
302
=
303
=
304
=
305
=
306
=
307
=
308
=
309
=
 40
0.0077662037037037
 41
2460398.356956019
 42
2460398.3746875
  1

 90
        0
  0
DICTIONARY
  5
200
102
{ACAD_REACTORS
330
1FF
102
}
330
1FF
100
AcDbDictionary
281
     1
  0
XRECORD
  5
904C
102
{ACAD_REACTORS
330
1CE
102
}
330
1CE
100
AcDbXrecord
280
     1
340
1F
  0
XRECORD
  5
9055
102
{ACAD_REACTORS
330
8FF7
102
}
330
8FF7
100
AcDbXrecord
280
     1
340
D2
  0
XRECORD
  5
9058
102
{ACAD_REACTORS
330
8FF9
102
}
330
8FF9
100
AcDbXrecord
280
     1
340
D6
  0
ACDBDETAILVIEWSTYLE
  5
21C
102
{ACAD_XDICTIONARY
360
9134
102
}
102
{ACAD_REACTORS
330
21B
102
}
330
21B
100
AcDbModelDocViewStyle
 70
     0
  3
Metric50
290
     0
100
AcDbDetailViewStyle
 70
     0
 71
     0
 90
        3
 71
     1
340
11
 40
5.0
340
0
 40
5.0
300

 40
0.0
280
     1
 71
     2
340
16
 90
       25
 71
     3
340
11
 40
5.0
 90
        0
 40
15.0
 90
        1
300
%<\AcVar ViewDetailId>% (%<\AcVar ViewScale \f "%sn">%)
 71
     4
340
16
 90
       25
340
16
 90
       25
280
     0
  0
LAYOUT
  5
D3
102
{ACAD_XDICTIONARY
360
90F9
102
}
102
{ACAD_REACTORS
330
1A
102
}
330
1A
100
AcDbPlotSettings
  1

  2
C:\Documents and Settings\basas\Application Data\Autodesk\AutoCAD 2005\R16.1\enu\plotters\Default Windows System Printer.pc3
  4

  6

 40
0.0
 41
0.0
 42
0.0
 43
0.0
 44
0.0
 45
0.0
 46
0.0
 47
0.0
 48
0.0
 49
0.0
140
0.0
141
0.0
142
1.0
143
1.0
 70
   688
 72
     0
 73
     0
 74
     5
  7

 75
    16
147
1.0
148
0.0
149
0.0
100
AcDbLayout
  1
Layout1
 70
     1
 71
     1
 10
0.0
 20
0.0
 11
12.0
 21
9.0
 12
0.0
 22
0.0
 32
0.0
 14
0.0
 24
0.0
 34
0.0
 15
0.0
 25
0.0
 35
0.0
146
0.0
 13
0.0
 23
0.0
 33
0.0
 16
1.0
 26
0.0
 36
0.0
 17
0.0
 27
1.0
 37
0.0
 76
     0
330
D2
  0
LAYOUT
  5
D7
102
{ACAD_XDICTIONARY
360
90FB
102
}
102
{ACAD_REACTORS
330
1A
102
}
330
1A
100
AcDbPlotSettings
  1

  2
C:\Documents and Settings\basas\Application Data\Autodesk\AutoCAD 2005\R16.1\enu\plotters\Default Windows System Printer.pc3
  4

  6

 40
0.0
 41
0.0
 42
0.0
 43
0.0
 44
0.0
 45
0.0
 46
0.0
 47
0.0
 48
0.0
 49
0.0
140
0.0
141
0.0
142
1.0
143
1.0
 70
   688
 72
     0
 73
     0
 74
     5
  7

 75
    16
147
1.0
148
0.0
149
0.0
100
AcDbLayout
  1
Layout2
 70
     1
 71
     2
 10
0.0
 20
0.0
 11
12.0
 21
9.0
 12
0.0
 22
0.0
 32
0.0
 14
0.0
 24
0.0
 34
0.0
 15
0.0
 25
0.0
 35
0.0
146
0.0
 13
0.0
 23
0.0
 33
0.0
 16
1.0
 26
0.0
 36
0.0
 17
0.0
 27
1.0
 37
0.0
 76
     0
330
D6
  0
LAYOUT
  5
22
102
{ACAD_XDICTIONARY
360
90F6
102
}
102
{ACAD_REACTORS
330
1A
102
}
330
1A
100
AcDbPlotSettings
  1

  2
none_device
  4
ISO_A4_(210.00_x_297.00_MM)
  6

 40
7.5
 41
20.0
 42
7.5
 43
20.0
 44
210.0
 45
297.0
 46
11.54999923706054
 47
-13.65000009536743
 48
0.0
 49
0.0
140
0.0
141
0.0
142
1.0
143
8.704084754739808
 70
 11952
 72
     1
 73
     0
 74
     0
  7

 75
     0
147
0.1148885871608098
148
0.0
149
0.0
100
AcDbLayout
  1
Model
 70
     1
 71
     0
 10
0.0
 20
0.0
 11
12.0
 21
9.0
 12
0.0
 22
0.0
 32
0.0
 14
0.0
 24
0.0
 34
0.0
 15
0.0
 25
0.0
 35
0.0
146
0.0
 13
0.0
 23
0.0
 33
0.0
 16
1.0
 26
0.0
 36
0.0
 17
0.0
 27
1.0
 37
0.0
 76
     0
330
1F
331
EA
1001
ACAD_PSEXT
1000
None
1000
None
1000
Not applicable
1000
The layout will not be plotted unless a new plotter configuration name is selected.
1070
     0
  0
MATERIAL
  5
ED
102
{ACAD_XDICTIONARY
360
1F9
102
}
102
{ACAD_REACTORS
330
6A
102
}
330
6A
100
AcDbMaterial
  1
ByBlock
  0
MATERIAL
  5
EC
102
{ACAD_XDICTIONARY
360
1F7
102
}
102
{ACAD_REACTORS
330
6A
102
}
330
6A
100
AcDbMaterial
  1
ByLayer
  0
MATERIAL
  5
EE
102
{ACAD_XDICTIONARY
360
173
102
}
102
{ACAD_REACTORS
330
6A
102
}
330
6A
100
AcDbMaterial
  1
Global
 43
0.0007999999797903
 43
0.0
 43
0.0
 43
0.0
 43
0.0
 43
0.0007999999797903
 43
0.0
 43
0.0
 43
0.0
 43
0.0
 43
1.0
 43
0.0
 43
0.0
 43
0.0
 43
0.0
 43
1.0
 49
0.0007999999797903
 49
0.0
 49
0.0
 49
0.0
 49
0.0
 49
0.0007999999797903
 49
0.0
 49
0.0
 49
0.0
 49
0.0
 49
1.0
 49
0.0
 49
0.0
 49
0.0
 49
0.0
 49
1.0
142
0.0007999999797903
142
0.0
142
0.0
142
0.0
142
0.0
142
0.0007999999797903
142
0.0
142
0.0
142
0.0
142
0.0
142
1.0
142
0.0
142
0.0
142
0.0
142
0.0
142
1.0
144
0.0007999999797903
144
0.0
144
0.0
144
0.0
144
0.0
144
0.0007999999797903
144
0.0
144
0.0
144
0.0
144
0.0
144
1.0
144
0.0
144
0.0
144
0.0
144
0.0
144
1.0
1001
ACAD
1070
    -1
1070
     3
1070
     0
1000

1071
        0
1070
     0
  0
MLEADERSTYLE
  5
12E
102
{ACAD_XDICTIONARY
360
9120
102
}
102
{ACAD_REACTORS
330
12D
102
}
330
12D
100
AcDbMLeaderStyle
170
     2
171
     1
172
     0
 90
        2
 40
0.0
 41
0.0
173
     1
 91
-1056964608
340
14
 92
       -2
290
     1
 42
2.0
291
     1
 43
8.0
  3
Standard
 44
4.0
300

342
11
174
     1
178
     1
175
     1
176
     0
 93
-1056964608
 45
4.0
292
     0
297
     0
 46
4.0
 94
-1056964608
 47
1.0
 49
1.0
140
1.0
293
     1
141
0.0
294
     1
177
     0
142
1.0
295
     0
296
     0
143
3.75
1001
ACAD_MLEADERVER
1070
     2
  0
MLINESTYLE
  5
18
102
{ACAD_REACTORS
330
17
102
}
330
17
100
AcDbMlineStyle
  2
STANDARD
 70
     0
  3

 62
   256
 51
90.0
 52
90.0
 71
     2
 49
0.5
 62
   256
  6
BYLAYER
 49
-0.5
 62
   256
  6
BYLAYER
  0
ACDBPLACEHOLDER
  5
F
102
{ACAD_REACTORS
330
E
102
}
330
E
  0
SCALE
  5
10D
102
{ACAD_REACTORS
330
10C
102
}
330
10C
100
AcDbScale
 70
     0
300
1:1
140
1.0
141
1.0
290
     1
  0
SCALE
  5
1BE
102
{ACAD_REACTORS
330
10C
102
}
330
10C
100
AcDbScale
 70
     0
300
1:2
140
1.0
141
2.0
290
     0
  0
SCALE
  5
1BF
102
{ACAD_REACTORS
330
10C
102
}
330
10C
100
AcDbScale
 70
     0
300
1:4
140
1.0
141
4.0
290
     0
  0
SCALE
  5
1C0
102
{ACAD_REACTORS
330
10C
102
}
330
10C
100
AcDbScale
 70
     0
300
1:5
140
1.0
141
5.0
290
     0
  0
SCALE
  5
1C1
102
{ACAD_REACTORS
330
10C
102
}
330
10C
100
AcDbScale
 70
     0
300
1:8
140
1.0
141
8.0
290
     0
  0
SCALE
  5
1C2
102
{ACAD_REACTORS
330
10C
102
}
330
10C
100
AcDbScale
 70
     0
300
1:10
140
1.0
141
10.0
290
     0
  0
SCALE
  5
1C3
102
{ACAD_REACTORS
330
10C
102
}
330
10C
100
AcDbScale
 70
     0
300
1:16
140
1.0
141
16.0
290
     0
  0
SCALE
  5
1C4
102
{ACAD_REACTORS
330
10C
102
}
330
10C
100
AcDbScale
 70
     0
300
1:20
140
1.0
141
20.0
290
     0
  0
SCALE
  5
1C5
102
{ACAD_REACTORS
330
10C
102
}
330
10C
100
AcDbScale
 70
     0
300
1:30
140
1.0
141
30.0
290
     0
  0
SCALE
  5
1C6
102
{ACAD_REACTORS
330
10C
102
}
330
10C
100
AcDbScale
 70
     0
300
1:40
140
1.0
141
40.0
290
     0
  0
SCALE
  5
1C7
102
{ACAD_REACTORS
330
10C
102
}
330
10C
100
AcDbScale
 70
     0
300
1:50
140
1.0
141
50.0
290
     0
  0
SCALE
  5
1C8
102
{ACAD_REACTORS
330
10C
102
}
330
10C
100
AcDbScale
 70
     0
300
1:100
140
1.0
141
100.0
290
     0
  0
SCALE
  5
1C9
102
{ACAD_REACTORS
330
10C
102
}
330
10C
100
AcDbScale
 70
     0
300
2:1
140
2.0
141
1.0
290
     0
  0
SCALE
  5
1CA
102
{ACAD_REACTORS
330
10C
102
}
330
10C
100
AcDbScale
 70
     0
300
4:1
140
4.0
141
1.0
290
     0
  0
SCALE
  5
1CB
102
{ACAD_REACTORS
330
10C
102
}
330
10C
100
AcDbScale
 70
     0
300
8:1
140
8.0
141
1.0
290
     0
  0
SCALE
  5
1CC
102
{ACAD_REACTORS
330
10C
102
}
330
10C
100
AcDbScale
 70
     0
300
10:1
140
10.0
141
1.0
290
     0
  0
SCALE
  5
1CD
102
{ACAD_REACTORS
330
10C
102
}
330
10C
100
AcDbScale
 70
     0
300
100:1
140
100.0
141
1.0
290
     0
  0
ACDBSECTIONVIEWSTYLE
  5
21A
102
{ACAD_XDICTIONARY
360
9132
102
}
102
{ACAD_REACTORS
330
219
102
}
330
219
100
AcDbModelDocViewStyle
 70
     0
  3
Metric50
290
     0
100
AcDbSectionViewStyle
 70
     0
 71
     0
 90
      102
 71
     1
340
11
 40
5.0
340
0
340
0
 40
5.0
300
I, O, Q, S, X, Z
 40
10.0
 90
        0
 40
2.5
 90
        0
 71
     2
340
16
 90
       25
340
16
 90
       50
 40
5.0
 40
2.5
 40
5.0
 71
     3
340
11
 40
5.0
 90
        0
 40
15.0
 90
        1
300
%<\AcVar ViewSectionStartId>%-%<\AcVar ViewSectionEndId>% (%<\AcVar ViewScale \f "%sn">%)
 71
     4
300
ANSI31
 40
1.0
 90
        0
290
     0
290
     0
 90
        6
 40
0.0
 40
1.570796326794896
 40
0.2617993877991494
 40
1.308996938995747
 40
-0.2617993877991494
 40
1.832595714594046
  0
TABLESTYLE
  5
7F
102
{ACAD_XDICTIONARY
360
162
102
}
102
{ACAD_REACTORS
330
7E
102
}
330
7E
100
AcDbTableStyle
  3
Standard
 70
     0
 71
     0
 40
1.5
 41
1.5
280
     0
281
     0
  7
Standard
140
4.5
170
     2
 62
     0
 63
     7
283
     0
274
    -2
284
     1
 64
     0
275
    -2
285
     1
 65
     0
276
    -2
286
     1
 66
     0
277
    -2
287
     1
 67
     0
278
    -2
288
     1
 68
     0
279
    -2
289
     1
 69
     0
  7
Standard
140
6.0
170
     5
 62
     0
 63
     7
283
     0
274
    -2
284
     1
 64
     0
275
    -2
285
     1
 65
     0
276
    -2
286
     1
 66
     0
277
    -2
287
     1
 67
     0
278
    -2
288
     1
 68
     0
279
    -2
289
     1
 69
     0
  7
Standard
140
4.5
170
     5
 62
     0
 63
     7
283
     0
274
    -2
284
     1
 64
     0
275
    -2
285
     1
 65
     0
276
    -2
286
     1
 66
     0
277
    -2
287
     1
 67
     0
278
    -2
288
     1
 68
     0
279
    -2
289
     1
 69
     0
  0
VISUALSTYLE
  5
F5
102
{ACAD_XDICTIONARY
360
910A
102
}
102
{ACAD_REACTORS
330
EF
102
}
330
EF
100
AcDbVisualStyle
  2
2dWireframe
 70
     4
 71
     0
 72
     2
 73
     1
 90
        0
 40
-0.6
 41
-30.0
 62
     5
 63
     7
 74
     1
 91
        4
 64
     7
 65
   257
 75
     1
175
     1
 42
1.0
 92
        0
 66
   257
 43
1.0
 76
     1
 77
     6
 78
     2
 67
     7
 79
     5
170
     0
171
     0
290
     0
174
     0
 93
        1
 44
0.0
173
     0
291
     0
 45
0.0
1001
ACAD
1000
AcDbSavedByObjectVersion
1070
     0
  0
VISUALSTYLE
  5
F4
102
{ACAD_XDICTIONARY
360
9108
102
}
102
{ACAD_REACTORS
330
EF
102
}
330
EF
100
AcDbVisualStyle
  2
Basic
 70
     7
 71
     1
 72
     0
 73
     1
 90
        0
 40
-0.6
 41
-30.0
 62
     5
 63
     7
 74
     0
 91
        4
 64
     7
 65
   257
 75
     1
175
     1
 42
1.0
 92
        8
 66
     7
 43
1.0
 76
     1
 77
     6
 78
     2
 67
     7
 79
     5
170
     0
171
     0
290
     0
174
     0
 93
        1
 44
0.0
173
     0
291
     1
 45
0.0
1001
ACAD
1000
AcDbSavedByObjectVersion
1070
     0
  0
VISUALSTYLE
  5
FB
102
{ACAD_XDICTIONARY
360
9116
102
}
102
{ACAD_REACTORS
330
EF
102
}
330
EF
100
AcDbVisualStyle
  2
Brighten
 70
    12
 71
     2
 72
     2
 73
     1
 90
        0
 40
-0.6
 41
-30.0
 62
     5
 63
     7
 74
     1
 91
        4
 64
     7
 65
   257
 75
     1
175
     1
 42
1.0
 92
        8
 66
     7
 43
1.0
 76
     1
 77
     6
 78
     2
 67
     7
 79
     5
170
     0
171
     0
290
     0
174
     0
 93
        1
 44
50.0
173
     0
291
     1
 45
0.0
1001
ACAD
1000
AcDbSavedByObjectVersion
1070
     0
  0
VISUALSTYLE
  5
FF
102
{ACAD_XDICTIONARY
360
911E
102
}
102
{ACAD_REACTORS
330
EF
102
}
330
EF
100
AcDbVisualStyle
  2
ColorChange
 70
    16
 71
     2
 72
     2
 73
     3
 90
        0
 40
-0.6
 41
-30.0
 62
     5
 63
     8
 74
     1
 91
        4
 64
     7
 65
   257
 75
     1
175
     1
 42
1.0
 92
        8
 66
     8
 43
1.0
 76
     1
 77
     6
 78
     2
 67
     7
 79
     5
170
     0
171
     0
290
     0
174
     0
 93
        1
 44
0.0
173
     0
291
     1
 45
0.0
1001
ACAD
1000
AcDbSavedByObjectVersion
1070
     0
  0
VISUALSTYLE
  5
F8
102
{ACAD_XDICTIONARY
360
9110
102
}
102
{ACAD_REACTORS
330
EF
102
}
330
EF
100
AcDbVisualStyle
  2
Conceptual
 70
     9
 71
     3
 72
     2
 73
     1
 90
        0
 40
-0.6
 41
-30.0
 62
     5
 63
     7
 74
     2
 91
        2
 64
     7
 65
   257
 75
     1
175
     1
 42
40.0
 92
        8
 66
     7
 43
1.0
 76
     1
 77
     6
 78
     2
 67
     7
 79
     3
170
     0
171
     0
290
     0
174
     0
 93
        1
 44
0.0
173
     0
291
     0
 45
0.0
1001
ACAD
1000
AcDbSavedByObjectVersion
1070
     0
  0
VISUALSTYLE
  5
FA
102
{ACAD_XDICTIONARY
360
9114
102
}
102
{ACAD_REACTORS
330
EF
102
}
330
EF
100
AcDbVisualStyle
  2
Dim
 70
    11
 71
     2
 72
     2
 73
     1
 90
        0
 40
-0.6
 41
-30.0
 62
     5
 63
     7
 74
     1
 91
        4
 64
     7
 65
   257
 75
     1
175
     1
 42
1.0
 92
        8
 66
     7
 43
1.0
 76
     1
 77
     6
 78
     2
 67
     7
 79
     5
170
     0
171
     0
290
     0
174
     0
 93
        1
 44
-50.0
173
     0
291
     1
 45
0.0
1001
ACAD
1000
AcDbSavedByObjectVersion
1070
     0
  0
VISUALSTYLE
  5
1E6
102
{ACAD_XDICTIONARY
360
9126
102
}
102
{ACAD_REACTORS
330
EF
102
}
330
EF
100
AcDbVisualStyle
  2
EdgeColorOff
 70
    22
 71
     2
 72
     2
 73
     0
 90
        0
 40
-0.6
 41
-30.0
 62
     5
 63
     7
 74
     1
 91
        4
 64
     7
 65
   257
 75
     1
175
     1
 42
1.0
 92
        8
 66
     7
 43
1.0
 76
     1
 77
     6
 78
     2
 67
     7
 79
     5
170
     0
171
     0
290
     0
174
     0
 93
        1
 44
0.0
173
     0
291
     1
 45
0.0
1001
ACAD
1000
AcDbSavedByObjectVersion
1070
     0
  0
VISUALSTYLE
  5
FE
102
{ACAD_XDICTIONARY
360
911C
102
}
102
{ACAD_REACTORS
330
EF
102
}
330
EF
100
AcDbVisualStyle
  2
Facepattern
 70
    15
 71
     2
 72
     2
 73
     1
 90
        0
 40
-0.6
 41
-30.0
 62
     5
 63
     7
 74
     1
 91
        4
 64
     7
 65
   257
 75
     1
175
     1
 42
1.0
 92
        8
 66
     7
 43
1.0
 76
     1
 77
     6
 78
     2
 67
     7
 79
     5
170
     0
171
     0
290
     0
174
     0
 93
        1
 44
0.0
173
     0
291
     1
 45
0.0
1001
ACAD
1000
AcDbSavedByObjectVersion
1070
     0
  0
VISUALSTYLE
  5
F0
102
{ACAD_XDICTIONARY
360
9100
102
}
102
{ACAD_REACTORS
330
EF
102
}
330
EF
100
AcDbVisualStyle
  2
Flat
 70
     0
 71
     2
 72
     1
 73
     1
 90
        2
 40
-0.6
 41
30.0
 62
     5
 63
     7
 74
     0
 91
        0
 64
     7
 65
   257
 75
     1
175
     1
 42
1.0
 92
        8
 66
     7
 43
1.0
 76
     1
 77
     6
 78
     2
 67
     7
 79
     5
170
     0
171
     0
290
     0
174
     0
 93
       13
 44
0.0
173
     0
291
     1
 45
0.0
1001
ACAD
1000
AcDbSavedByObjectVersion
1070
     0
  0
VISUALSTYLE
  5
F1
102
{ACAD_XDICTIONARY
360
9102
102
}
102
{ACAD_REACTORS
330
EF
102
}
330
EF
100
AcDbVisualStyle
  2
FlatWithEdges
 70
     1
 71
     2
 72
     1
 73
     1
 90
        2
 40
-0.6
 41
30.0
 62
     5
 63
     7
 74
     1
 91
        0
 64
     7
 65
   257
 75
     1
175
     1
 42
1.0
 92
        0
 66
   257
 43
1.0
 76
     1
 77
     6
 78
     2
 67
     7
 79
     5
170
     0
171
     0
290
     0
174
     0
 93
       13
 44
0.0
173
     0
291
     1
 45
0.0
1001
ACAD
1000
AcDbSavedByObjectVersion
1070
     0
  0
VISUALSTYLE
  5
F2
102
{ACAD_XDICTIONARY
360
9104
102
}
102
{ACAD_REACTORS
330
EF
102
}
330
EF
100
AcDbVisualStyle
  2
Gouraud
 70
     2
 71
     2
 72
     2
 73
     1
 90
        2
 40
-0.6
 41
30.0
 62
     5
 63
     7
 74
     0
 91
        0
 64
     7
 65
   257
 75
     1
175
     1
 42
1.0
 92
        0
 66
     7
 43
1.0
 76
     1
 77
     6
 78
     2
 67
     7
 79
     5
170
     0
171
     0
290
     0
174
     0
 93
       13
 44
0.0
173
     0
291
     1
 45
0.0
1001
ACAD
1000
AcDbSavedByObjectVersion
1070
     0
  0
VISUALSTYLE
  5
F3
102
{ACAD_XDICTIONARY
360
9106
102
}
102
{ACAD_REACTORS
330
EF
102
}
330
EF
100
AcDbVisualStyle
  2
GouraudWithEdges
 70
     3
 71
     2
 72
     2
 73
     1
 90
        2
 40
-0.6
 41
30.0
 62
     5
 63
     7
 74
     1
 91
        0
 64
     7
 65
   257
 75
     1
175
     1
 42
1.0
 92
        0
 66
   257
 43
1.0
 76
     1
 77
     6
 78
     2
 67
     7
 79
     5
170
     0
171
     0
290
     0
174
     0
 93
       13
 44
0.0
173
     0
291
     1
 45
0.0
1001
ACAD
1000
AcDbSavedByObjectVersion
1070
     0
  0
VISUALSTYLE
  5
F7
102
{ACAD_XDICTIONARY
360
910E
102
}
102
{ACAD_REACTORS
330
EF
102
}
330
EF
100
AcDbVisualStyle
  2
Hidden
 70
     6
 71
     1
 72
     2
 73
     2
 90
        0
 40
-0.6
 41
-30.0
 62
     5
 63
     7
 74
     2
 91
        2
 64
     7
 65
   257
 75
     2
175
     1
 42
40.0
 92
        0
 66
   257
 43
1.0
 76
     1
 77
     6
 78
     2
 67
     7
 79
     3
170
     0
171
     0
290
     0
174
     0
 93
        1
 44
0.0
173
     0
291
     0
 45
0.0
1001
ACAD
1000
AcDbSavedByObjectVersion
1070
     0
  0
VISUALSTYLE
  5
1E4
102
{ACAD_XDICTIONARY
360
9122
102
}
102
{ACAD_REACTORS
330
EF
102
}
330
EF
100
AcDbVisualStyle
  2
JitterOff
 70
    20
 71
     2
 72
     2
 73
     0
 90
        0
 40
-0.6
 41
-30.0
 62
     5
 63
     7
 74
     1
 91
        4
 64
     7
 65
   257
 75
     1
175
     1
 42
1.0
 92
       10
 66
     7
 43
1.0
 76
     1
 77
     6
 78
     2
 67
     7
 79
     5
170
     0
171
     0
290
     0
174
     0
 93
        1
 44
0.0
173
     0
291
     1
 45
0.0
1001
ACAD
1000
AcDbSavedByObjectVersion
1070
     0
  0
VISUALSTYLE
  5
FD
102
{ACAD_XDICTIONARY
360
911A
102
}
102
{ACAD_REACTORS
330
EF
102
}
330
EF
100
AcDbVisualStyle
  2
Linepattern
 70
    14
 71
     2
 72
     2
 73
     1
 90
        0
 40
-0.6
 41
-30.0
 62
     5
 63
     7
 74
     1
 91
        4
 64
     7
 65
   257
 75
     7
175
     7
 42
1.0
 92
        8
 66
     7
 43
1.0
 76
     1
 77
     6
 78
     2
 67
     7
 79
     5
170
     0
171
     0
290
     0
174
     0
 93
        1
 44
0.0
173
     0
291
     1
 45
0.0
1001
ACAD
1000
AcDbSavedByObjectVersion
1070
     0
  0
VISUALSTYLE
  5
1E5
102
{ACAD_XDICTIONARY
360
9124
102
}
102
{ACAD_REACTORS
330
EF
102
}
330
EF
100
AcDbVisualStyle
  2
OverhangOff
 70
    21
 71
     2
 72
     2
 73
     0
 90
        0
 40
-0.6
 41
-30.0
 62
     5
 63
     7
 74
     1
 91
        4
 64
     7
 65
   257
 75
     1
175
     1
 42
1.0
 92
        9
 66
     7
 43
1.0
 76
     1
 77
     6
 78
     2
 67
     7
 79
     5
170
     0
171
     0
290
     0
174
     0
 93
        1
 44
0.0
173
     0
291
     1
 45
0.0
1001
ACAD
1000
AcDbSavedByObjectVersion
1070
     0
  0
VISUALSTYLE
  5
F9
102
{ACAD_XDICTIONARY
360
9112
102
}
102
{ACAD_REACTORS
330
EF
102
}
330
EF
100
AcDbVisualStyle
  2
Realistic
 70
     8
 71
     2
 72
     2
 73
     0
 90
        2
 40
-0.6
 41
30.0
 62
     5
 63
     7
 74
     0
 91
        0
 64
     7
 65
   257
 75
     1
175
     1
 42
1.0
 92
        8
 66
   257
 43
1.0
 76
     1
 77
     6
 78
     2
 67
     7
 79
     3
170
     0
171
     0
290
     0
174
     0
 93
       13
 44
0.0
173
     0
291
     0
 45
0.0
1001
ACAD
1000
AcDbSavedByObjectVersion
1070
     0
  0
VISUALSTYLE
  5
1F3
102
{ACAD_XDICTIONARY
360
9130
102
}
102
{ACAD_REACTORS
330
EF
102
}
330
EF
100
AcDbVisualStyle
  2
Shaded
 70
    27
 71
     2
 72
     2
 73
     1
 90
        2
 40
-0.6
 41
30.0
 62
     5
 63
     7
 74
     0
 91
        4
 64
     7
 65
   257
 75
     1
175
     1
 42
1.0
 92
        8
 66
   257
 43
1.0
 76
     1
 77
     6
 78
     2
 67
     8
 79
     3
170
     0
171
     0
290
     0
174
     0
 93
        5
 44
0.0
173
     0
291
     0
 45
0.0
1001
ACAD
1000
AcDbSavedByObjectVersion
1070
     0
  0
VISUALSTYLE
  5
1F2
102
{ACAD_XDICTIONARY
360
912E
102
}
102
{ACAD_REACTORS
330
EF
102
}
330
EF
100
AcDbVisualStyle
  2
Shaded with edges
 70
    26
 71
     2
 72
     2
 73
     1
 90
        2
 40
-0.6
 41
30.0
 62
     5
 63
     7
 74
     1
 91
        2
 64
     7
 65
   257
 75
     2
175
     1
 42
1.0
 92
        8
 66
   257
 43
1.0
 76
     1
 77
     6
 78
     2
 67
     7
 79
     3
170
     0
171
     0
290
     0
174
     0
 93
        5
 44
0.0
173
     0
291
     0
 45
0.0
1001
ACAD
1000
AcDbSavedByObjectVersion
1070
     0
  0
VISUALSTYLE
  5
1EF
102
{ACAD_XDICTIONARY
360
9128
102
}
102
{ACAD_REACTORS
330
EF
102
}
330
EF
100
AcDbVisualStyle
  2
Shades of Gray
 70
    23
 71
     2
 72
     2
 73
     3
 90
        0
 40
-0.6
 41
-30.0
 62
     5
 63
     7
 74
     2
 91
        2
 64
     7
 65
     7
 75
     1
175
     1
 42
40.0
 92
        8
 66
     7
 43
1.0
 76
     1
 77
     6
 78
     2
 67
     7
 79
     3
170
     0
171
     0
290
     0
174
     0
 93
        1
 44
0.0
173
     0
291
     0
 45
0.0
1001
ACAD
1000
AcDbSavedByObjectVersion
1070
     0
  0
VISUALSTYLE
  5
1F0
102
{ACAD_XDICTIONARY
360
912A
102
}
102
{ACAD_REACTORS
330
EF
102
}
330
EF
100
AcDbVisualStyle
  2
Sketchy
 70
    24
 71
     1
 72
     2
 73
     2
 90
        0
 40
-0.6
 41
-30.0
 62
     5
 63
     7
 74
     2
 91
        2
 64
     7
 65
     7
 75
     1
175
     1
 42
40.0
 92
       11
 66
     7
 43
1.0
 76
     1
 77
     6
 78
     2
 67
     7
 79
     6
170
     0
171
     0
290
     0
174
     0
 93
        1
 44
0.0
173
     0
291
     0
 45
0.0
1001
ACAD
1000
AcDbSavedByObjectVersion
1070
     0
  0
VISUALSTYLE
  5
FC
102
{ACAD_XDICTIONARY
360
9118
102
}
102
{ACAD_REACTORS
330
EF
102
}
330
EF
100
AcDbVisualStyle
  2
Thicken
 70
    13
 71
     2
 72
     2
 73
     1
 90
        0
 40
-0.6
 41
-30.0
 62
     5
 63
     7
 74
     1
 91
        4
 64
     7
 65
   257
 75
     1
175
     1
 42
1.0
 92
       12
 66
     7
 43
1.0
 76
     1
 77
     6
 78
     2
 67
     7
 79
     5
170
     0
171
     0
290
     0
174
     0
 93
        1
 44
0.0
173
     0
291
     1
 45
0.0
1001
ACAD
1000
AcDbSavedByObjectVersion
1070
     0
  0
VISUALSTYLE
  5
F6
102
{ACAD_XDICTIONARY
360
910C
102
}
102
{ACAD_REACTORS
330
EF
102
}
330
EF
100
AcDbVisualStyle
  2
Wireframe
 70
     5
 71
     0
 72
     2
 73
     0
 90
        0
 40
-0.6
 41
-30.0
 62
     5
 63
     7
 74
     1
 91
        4
 64
     7
 65
   257
 75
     1
175
     1
 42
1.0
 92
        0
 66
   257
 43
1.0
 76
     1
 77
     6
 78
     2
 67
     7
 79
     3
170
     0
171
     0
290
     0
174
     0
 93
        1
 44
0.0
173
     0
291
     0
 45
0.0
1001
ACAD
1000
AcDbSavedByObjectVersion
1070
     0
  0
VISUALSTYLE
  5
1F1
102
{ACAD_XDICTIONARY
360
912C
102
}
102
{ACAD_REACTORS
330
EF
102
}
330
EF
100
AcDbVisualStyle
  2
X-Ray
 70
    25
 71
     2
 72
     2
 73
     1
 90
        1
 40
0.5
 41
-30.0
 62
     5
 63
     7
 74
     1
 91
        0
 64
     7
 65
   257
 75
     1
175
     1
 42
1.0
 92
        8
 66
     7
 43
1.0
 76
     1
 77
     6
 78
     2
 67
     7
 79
     3
170
     0
171
     0
290
     0
174
     0
 93
       13
 44
0.0
173
     0
291
     0
 45
0.0
1001
ACAD
1000
AcDbSavedByObjectVersion
1070
     0
  0
DICTIONARYVAR
  5
146
102
{ACAD_REACTORS
330
5E
102
}
330
5E
100
DictionaryVariables
280
     0
  1
1:1
  0
DICTIONARYVAR
  5
259
102
{ACAD_REACTORS
330
5E
102
}
330
5E
100
DictionaryVariables
280
     0
  1
3.500000
  0
DICTIONARYVAR
  5
25A
102
{ACAD_REACTORS
330
5E
102
}
330
5E
100
DictionaryVariables
280
     0
  1
acadiso.lin
  0
DICTIONARYVAR
  5
145
102
{ACAD_REACTORS
330
5E
102
}
330
5E
100
DictionaryVariables
280
     0
  1
STANDARD
  0
DICTIONARYVAR
  5
84
102
{ACAD_REACTORS
330
5E
102
}
330
5E
100
DictionaryVariables
280
     0
  1
STANDARD
  0
DICTIONARYVAR
  5
227
102
{ACAD_REACTORS
330
5E
102
}
330
5E
100
DictionaryVariables
280
     0
  1
Metric50
  0
DICTIONARYVAR
  5
228
102
{ACAD_REACTORS
330
5E
102
}
330
5E
100
DictionaryVariables
280
     0
  1
Metric50
  0
DICTIONARYVAR
  5
5F
102
{ACAD_REACTORS
330
5E
102
}
330
5E
100
DictionaryVariables
280
     0
  1
2
  0
DICTIONARYVAR
  5
63
102
{ACAD_REACTORS
330
5E
102
}
330
5E
100
DictionaryVariables
280
     0
  1
1
  0
DICTIONARYVAR
  5
90A1
102
{ACAD_REACTORS
330
5E
102
}
330
5E
100
DictionaryVariables
280
     0
  1
0
  0
DICTIONARYVAR
  5
1AE
102
{ACAD_REACTORS
330
5E
102
}
330
5E
100
DictionaryVariables
280
     0
  1
0
  0
DICTIONARYVAR
  5
1AF
102
{ACAD_REACTORS
330
5E
102
}
330
5E
100
DictionaryVariables
280
     0
  1
0
  0
DICTIONARYVAR
  5
909F
102
{ACAD_REACTORS
330
5E
102
}
330
5E
100
DictionaryVariables
280
     0
  1
2
  0
DICTIONARYVAR
  5
909E
102
{ACAD_REACTORS
330
5E
102
}
330
5E
100
DictionaryVariables
280
     0
  1
1
  0
DICTIONARYVAR
  5
90F1
102
{ACAD_REACTORS
330
5E
102
}
330
5E
100
DictionaryVariables
280
     0
  1
80.000000
  0
DICTIONARYVAR
  5
90F0
102
{ACAD_REACTORS
330
5E
102
}
330
5E
100
DictionaryVariables
280
     0
  1
5.000000
  0
DICTIONARYVAR
  5
90A0
102
{ACAD_REACTORS
330
5E
102
}
330
5E
100
DictionaryVariables
280
     0
  1
127
  0
DICTIONARYVAR
  5
90F2
102
{ACAD_REACTORS
330
5E
102
}
330
5E
100
DictionaryVariables
280
     0
  1
2
  0
DICTIONARY
  5
9134
330
21C
100
AcDbDictionary
280
     1
281
     1
  3
ACAD_XREC_ROUNDTRIP
360
9135
  0
DICTIONARY
  5
90F9
330
D3
100
AcDbDictionary
280
     1
281
     1
  3
ACAD_XREC_ROUNDTRIP
360
90FA
  0
DICTIONARY
  5
90FB
330
D7
100
AcDbDictionary
280
     1
281
     1
  3
ACAD_XREC_ROUNDTRIP
360
90FC
  0
DICTIONARY
  5
90F6
330
22
100
AcDbDictionary
280
     1
281
     1
  3
ACAD_XREC_ROUNDTRIP
360
90F7
  0
DICTIONARY
  5
1F9
330
ED
100
AcDbDictionary
280
     1
281
     1
  3
ACAD_XREC_ROUNDTRIP
360
90FE
  3
FBXASSET
360
1FA
  0
DICTIONARY
  5
1F7
330
EC
100
AcDbDictionary
280
     1
281
     1
  3
ACAD_XREC_ROUNDTRIP
360
90FD
  3
FBXASSET
360
1F8
  0
DICTIONARY
  5
173
330
EE
100
AcDbDictionary
280
     1
281
     1
  3
ACAD_XREC_ROUNDTRIP
360
90FF
  3
BUMPTILE
360
175
  3
DIFFUSETILE
360
174
  3
FBXASSET
360
1FB
  3
OPACITYTILE
360
176
  3
REFLECTIONTILE
360
177
  0
DICTIONARY
  5
9120
330
12E
100
AcDbDictionary
280
     1
281
     1
  3
ACAD_XREC_ROUNDTRIP
360
9121
  0
DICTIONARY
  5
9132
330
21A
100
AcDbDictionary
280
     1
281
     1
  3
ACAD_XREC_ROUNDTRIP
360
9133
  0
DICTIONARY
  5
162
330
7F
100
AcDbDictionary
280
     1
281
     1
  3
ACAD_ROUNDTRIP_2008_TABLESTYLE_CELLSTYLEMAP
360
90F3
  3
ACAD_XREC_ROUNDTRIP
360
90F8
  0
DICTIONARY
  5
910A
330
F5
100
AcDbDictionary
280
     1
281
     1
  3
ACAD_XREC_ROUNDTRIP
360
910B
  0
DICTIONARY
  5
9108
330
F4
100
AcDbDictionary
280
     1
281
     1
  3
ACAD_XREC_ROUNDTRIP
360
9109
  0
DICTIONARY
  5
9116
330
FB
100
AcDbDictionary
280
     1
281
     1
  3
ACAD_XREC_ROUNDTRIP
360
9117
  0
DICTIONARY
  5
911E
330
FF
100
AcDbDictionary
280
     1
281
     1
  3
ACAD_XREC_ROUNDTRIP
360
911F
  0
DICTIONARY
  5
9110
330
F8
100
AcDbDictionary
280
     1
281
     1
  3
ACAD_XREC_ROUNDTRIP
360
9111
  0
DICTIONARY
  5
9114
330
FA
100
AcDbDictionary
280
     1
281
     1
  3
ACAD_XREC_ROUNDTRIP
360
9115
  0
DICTIONARY
  5
9126
330
1E6
100
AcDbDictionary
280
     1
281
     1
  3
ACAD_XREC_ROUNDTRIP
360
9127
  0
DICTIONARY
  5
911C
330
FE
100
AcDbDictionary
280
     1
281
     1
  3
ACAD_XREC_ROUNDTRIP
360
911D
  0
DICTIONARY
  5
9100
330
F0
100
AcDbDictionary
280
     1
281
     1
  3
ACAD_XREC_ROUNDTRIP
360
9101
  0
DICTIONARY
  5
9102
330
F1
100
AcDbDictionary
280
     1
281
     1
  3
ACAD_XREC_ROUNDTRIP
360
9103
  0
DICTIONARY
  5
9104
330
F2
100
AcDbDictionary
280
     1
281
     1
  3
ACAD_XREC_ROUNDTRIP
360
9105
  0
DICTIONARY
  5
9106
330
F3
100
AcDbDictionary
280
     1
281
     1
  3
ACAD_XREC_ROUNDTRIP
360
9107
  0
DICTIONARY
  5
910E
330
F7
100
AcDbDictionary
280
     1
281
     1
  3
ACAD_XREC_ROUNDTRIP
360
910F
  0
DICTIONARY
  5
9122
330
1E4
100
AcDbDictionary
280
     1
281
     1
  3
ACAD_XREC_ROUNDTRIP
360
9123
  0
DICTIONARY
  5
911A
330
FD
100
AcDbDictionary
280
     1
281
     1
  3
ACAD_XREC_ROUNDTRIP
360
911B
  0
DICTIONARY
  5
9124
330
1E5
100
AcDbDictionary
280
     1
281
     1
  3
ACAD_XREC_ROUNDTRIP
360
9125
  0
DICTIONARY
  5
9112
330
F9
100
AcDbDictionary
280
     1
281
     1
  3
ACAD_XREC_ROUNDTRIP
360
9113
  0
DICTIONARY
  5
9130
330
1F3
100
AcDbDictionary
280
     1
281
     1
  3
ACAD_XREC_ROUNDTRIP
360
9131
  0
DICTIONARY
  5
912E
330
1F2
100
AcDbDictionary
280
     1
281
     1
  3
ACAD_XREC_ROUNDTRIP
360
912F
  0
DICTIONARY
  5
9128
330
1EF
100
AcDbDictionary
280
     1
281
     1
  3
ACAD_XREC_ROUNDTRIP
360
9129
  0
DICTIONARY
  5
912A
330
1F0
100
AcDbDictionary
280
     1
281
     1
  3
ACAD_XREC_ROUNDTRIP
360
912B
  0
DICTIONARY
  5
9118
330
FC
100
AcDbDictionary
280
     1
281
     1
  3
ACAD_XREC_ROUNDTRIP
360
9119
  0
DICTIONARY
  5
910C
330
F6
100
AcDbDictionary
280
     1
281
     1
  3
ACAD_XREC_ROUNDTRIP
360
910D
  0
DICTIONARY
  5
912C
330
1F1
100
AcDbDictionary
280
     1
281
     1
  3
ACAD_XREC_ROUNDTRIP
360
912D
  0
XRECORD
  5
9135
102
{ACAD_REACTORS
330
9134
102
}
330
9134
100
AcDbXrecord
280
     1
102
DISPLAYNAME
  1
Metric50
102
FLAGS
 90
        0
  0
XRECORD
  5
90FA
102
{ACAD_REACTORS
330
90F9
102
}
330
90F9
100
AcDbXrecord
280
     1
102
SHADEPLOT
 70
     0
102
SHADEPLOTRESLEVEL
 70
     2
102
SHADEPLOTCUSTOMDPI
 70
   300
  0
XRECORD
  5
90FC
102
{ACAD_REACTORS
330
90FB
102
}
330
90FB
100
AcDbXrecord
280
     1
102
SHADEPLOT
 70
     0
102
SHADEPLOTRESLEVEL
 70
     2
102
SHADEPLOTCUSTOMDPI
 70
   300
  0
XRECORD
  5
90F7
102
{ACAD_REACTORS
330
90F6
102
}
330
90F6
100
AcDbXrecord
280
     1
102
SHADEPLOT
 70
     0
102
SHADEPLOTRESLEVEL
 70
     2
102
SHADEPLOTCUSTOMDPI
 70
   300
  0
XRECORD
  5
90FE
102
{ACAD_REACTORS
330
1F9
102
}
330
1F9
100
AcDbXrecord
280
     1
102
MATERIAL
148
0.0
149
0.0
149
0.0
 93
        0
 94
       63
282
     0
 72
     1
 77
     1
171
     1
175
     1
179
     1
273
     0
  0
XRECORD
  5
1FA
102
{ACAD_REACTORS
330
1F9
102
}
330
1F9
100
AcDbXrecord
280
     1
 70
     1
 90
429727718
  1
D62C5603-E3A1-4AEA-B7FB-FE5D8D0755AF
310
504B03040A0000080000CC70623B3DEE336E79000000790000001B0000006175746F6465736B2D64657369676E2D7061636B6167652E786D6C3C3F786D6C2076657273696F6E3D22312E302220656E636F64696E673D227574662D3822203F3E3C666F726D6174733E3C666F726D61743E687474703A2F2F736368656D612E
310
6175746F6465736B2E636F6D2F64657369676E2D7061636B6167652F323030393C2F666F726D61743E3C2F666F726D6174733E504B0304140006080800CC70623BD486FD9CA0000000F4000000130000005B436F6E74656E745F54797065735D2E786D6C7D8EC10E82300C865F65E91D8A1E8C310C0EEA1BF002731658846E
310
D98AC1B77784ABF1D8FE5FBFBF75BBCE937A534CCEB38643598122B6FEE978D0B0485F9C41B54DDD7D022595594E1A469170414C76A4D9A4D207E29CF43ECE46F218070CC6BECC4078ACAA135ACF422C856C0E68EA1BF5669944DDD7BCDE7B1F8E415D77AECB980613C2E4AC91FC167A2B244592486606FC29C8FD7F045B9A
310
EF7053A7E60B504B0304140006080800CC70623B853B8169EB0000007C01000008000000636F72652E786D6C8D90416EC3201045AF62CDB6C206821CC7C244919D9CA01740401C94182C03558F5F9C3852BBEB6A467FFE9B197D7EFC9E1EC5975982F5AE035262288C535E5B377690E21535501C055FBC8FBF6C503839990E
310
5619041F179FE64D52DE45E362569DD7661365082642A11EB9E920A89B99642953CC8E702F67A9EE7234257977194EC9EAE275C4EABCCF5EAD5940D4AC6F0E35A568B8F43562CD7046CD199FD07E60174276A7BE677B5EADB0E0D14EEFFB6A31321A0D82627C4084204C3F096B71DD52F6819B16635EADF63F509AF53FA164
310
5DDCD1EDDD17164090FCC8732078B56691CB33A85CD7DCC40F504B0304140006080800CC70623B55019EA25F0000007C00000007000000636E782E786D6C4DCB3B0E80201045D1AD90E915ED2CF8AC45050C11660C8261F98AB1B07AC9C97D42D718D865D3E909258CFD00CCE24AC6E326A164D74DC0B4128928FF32603847
310
2BA13128B1252AC747C6BAB984FC68F0B87FE8960A5C09FE86CFB69FBA01504B0304140006080800CC70623BDBABAAF470010000D40300000C0000006662782F636F72652E786D6CC553D16E823014FD95A6AF4B694182CC941A83FA05FB810A9511A125A5257EFE2E82712ECEB8A7F100CD39F7F69E734AF9FADC366850B6
310
AF8DCE7018308C942E4C59EB2AC3DE1D498AD15A706B8CFB56869196ADCAF00863C12B6B7C374385D14E6907A836A59A41D9F7CA615434B0C8705F7CAA5606D23BA8E84F41278B93AC54100640439DE0BDB320004D43C63716C7C399D30917DCFBBA9CD9BA8469F5B156168B24CED3F7248AC8769F27244EB73B92EED8862C
310
B7F13E0C179B3C8F979C8ECD82BBBABDAA2BAC924E9558448CBD9330242CFA08E3154B5651FCC6D215639C8EE5774DBE2B5F6CF2B5768B68963BB5F5588420E442FC700B1139D4CB01F450C1E918227C2E09DF070D8140C84E1E9AAB8F1340832A9CB13130A5F1376A908D57309505ECF2A0DF179C4E9D30F5B239B87E3823
310
7A79C6F31DE1A8A5AEC08474B03C7837EAE4938639B44E5932B833D2C6B6B279CDC613877FA26EE21F4A2A4C63EC7F29A2F301D1F9F7A0E37D145F504B0304140006080800CC70623B9C113CC27E0000009D0000000B0000006662782F636E782E786D6C4DCCDF0A83201C86E15B91DFB94BFB330DD428C8FB886521330DA7
310
6397BF1A1DECE883878F57749FCDA1B7892F1BBC047A23808C7F84D9FA55424E0BE6803A256208E9EF06C84F9B91703228B1C690F78B66B34CD9A5439DF5CF0BFBF65E35BCA1B8D6A5C6F540381E886698B5741C695F9503EBA150A2F8958E3DC3EA0B504B0304140006080800CC70623B7DF2F77C2A010000120200003100
310
00006662782F41393633353835312D344632462D344230382D423046372D3739314545314133324237412F636F72652E786D6C8D51DB8EC22014FC15C2939B0D2DB4B45643319AE817EC0F6041255A68B86CFCFC856D4D76DF7CE190393373060EDB3DC707F856CE6B6B7A480A0C81328395DA5C7B18C3057510EC3873D686
310
3F34088C18550F330C39BB3A1BA7051AAC09CA84841A2BD5020AEF55806078A44B0FFD7053A328440C89E1EFC52486BBB8AA8214A99D789CF9E05200300FC927E4FB4D5B375D43103D5527440FB843077C5AA3F5861C8F645F5787F59E95B390B318B55CE45AA638FAA2957BD7248B390B7A7CC51F9C124149C82B8C378810
310
84AB2F42B7B8DD56F413775B8C5999E9FF4471926F8AA236A1AE96B8B3CC434E5839373893369E1FAF30EA395917409EB7F26AF8801C171837A4A6AC9C89E9F9C9B1A58BA30FD6A5EF5DDDCF894B9AD9B6A59C957943A9FCAE2FD5BC4DFE03504B0304140006080800CC70623BAD7543B64E01000033030000300000006662
310
782F41393633353835312D344632462D344230382D423046372D3739314545314133324237412F636E782E786D6CD593CD6EC32010845F0571AD6CE3D48AD20813A9873E410FBD12D82434182C7EAAE6EDBB2424CD25871E7B41D6EC30B3FA84F9E67BB2E40B4234DE8DB46F1925E094D7C6ED479AD3AE5951B2113C789FEE
310
6C943839C1488B4C05DF079FE72A69D8C96C13AAD6B8631503449F83828872B949AC57D26200B826A308D316B4064D6E46FCDA41C05550DC9E483A00797BFD207EFB092A45DE9514C1BBD22178396BD39D891265658C238DEA00936C654E5E433CB65A26D9F6EDB5EBC14EBF49A45CB856E66048291F6939A9A81BB5C89177
310
38143CA680F4AA299D66A042CEB3354A2684DC9D8D178FE0D9B8B41CAAD720F880EE7EF93C0C18769E099ECC04D5A102C8049A8A05632F4DDF376CF1DE0F6BB65C2F8627B65A33C6BB62177CEBBDAD973006829F89F22E814B54F4BC2BE347F8AA8F681390B50FA73F804400B5F542E796F19FF974E7F78DB802FE05E20750
310
4B0304140006080800CC70623BE75B7789680500003C100000340000006662782F41393633353835312D344632462D344230382D423046372D3739314545314133324237412F6F626A656374732E786D6CAD575B8F9B3818FD2B887D06C22499CB8AA1CA655245D5B455A356FB305264C061D8018C6C3393D95FBFC7600890
310
A4CD5EF210B0B1BFEBF98E3F7B1FF6596ABC522E1296DF9BAE3D320D9A872C4AF2F8DE2CE5CEBA358D0FBEC719939D65A691938CDE9B6ADAF4BD98B3B2D05311DD91329583D9D5FC0F438434A7A611A644887B5384CF34233629258BA878B12322891DEFF6B66BD70BFB62634E8AE781D082709A4B588AF91C528CDA28B73F
310
1C998EEF39EABBEFA97FBD6A7C7E9553F9D3D79FE442923C3C523610337627CB87ABE99D359D4CC6D6E4FACAB5E6ABF9D2726FC6A3C5F56271377BB88362213924694B38DD99FE47C48627A1E7D49F5A8BB5E1A74C0A599ED3B0F21F1E56366B89112D681E218F0915D0D6F17AD41FBA2A369DCF6335D62ABBD39779D5DDD1
310
11D4D8DE3CBB96B2E04FB8202E41051754A1AA8E8F76B4C6DFE810B580B1547F4B84911149794252234D024EF8BBE963A95AE27B3D310A9D5C215C7960FAEE415ED75694C6AFB17BCACA5D99A60A9AA65F217B0BFC53292ACB92BF283FAD0D3621576592CB5BED907C2FA8E9DF794E35E97BEA31BED21FEB401ABB94C44839
310
DCACBF0E1C5DA8DA5B2F4DFFD32AD86F543D9E565E7056502E157C00AD2671CD534549AB752FCA9CDA00677A313F04E51B22FF19E57B300579E3C97EB29F682D92935CEC18CF901B7B54FD8C51F362B56FC72FE0B3C1EAE335EDCCBF5AEC39ADB17DC238973F804BA5E6F6BFE7AF1FB32E523BE9F3BD571418E3631DCA4D48
310
5250CF639223210A9446CA30052EDF057BD35F8329C1ECD84552BF0DC8D18BE7BCE23BFE6BD960AB4A7DE79923A103BEBD80F911CBAA2C60DB19B01CF164A5583B772EE6D3FFA56666CBCDA74DC97724A48F9A58967497E489C4D979006FD7A05E227A1EBDD0F737C623387A9C844D3709995625106D157315F8B8392CD4E0
310
A0B9A720C4BE9829CEF37EA1E13111214D53925356365ADA634861B52519DD27A00AEB808EAF0628E6F435519D446F45CF2C9CF5214F0A15B2F6D06B79DA3EE3CBF7F56780D2F4E7EF73A0F5E5B02A38D07DC852C6B7C1FBB6664213E0C39E3EBA7FF4E1AD23EA2829407C85E586727488B751B2DB9502BC7B228A3FD68B6E
310
A65A22397E690AA8D158D7E404EC8CDA235CC3B7D1898680131CEC2CDF2638C65196279577750F15884AEE19F94199155B92B13297978469D4F8D358DF0AEF7631E28DC8F0D9F437D5D39A83B2231A1D52D543813A824EF8D44BCFF2FA6A31BD1E8DAD87F1CCB526B3879935BF59CDADD5C37479BB1CDD4CA7B3556B516589
310
EF352754B706114D9C885EC9131DE6EFEB43D99AFE2391C2F958179413D7CFEF6B1B6DB1E7600F00DE6E5C67454A339A4BA2E0FBA85ED26F045D454F463DBFCE484C2F90F2E5E3666003662ED8F755951A7D1BECD5B30B550B2785C8E7320B7292A4838DDA71BBC863ED7613CAF659337A3354231D4FF4A182A54904C2898C
310
98B28C4AD0CE056CCF332A80986E571EE9DBC305BB5FEB7E509220A58D25CF042D712A806AC0AD0C657FDEF80D2D9CEAA2EE4D1C76F60BFE74219A06527D6F82DF6412526107381E55E353090704D085B52408A8913C4ED159D79BDA71BB4BC506F4831350EB6F975CD22D69BF7AC49B91A2C0A9DDA3D5CA36AD20FC478E37
310
E61844E2352865EBCB61A275A65283CAAA9DD27703B4102F5AF51EF5F573B75CBB5AD38BC845F7A49F82A0966A49C2E3EA5EA0ECD326CD965F1DB402C6FA8B51A4658C5C5E2EC9E214602E55810345408596591009A82E7E7FFACA19EEA299B14A0081A705CB3296EBC14CDF658DCD336EA6D1136881AAEB87B81AB9EE53D5
310
F5EB8BC8362082DA24122F98680A4E7930C01A0079749CEA14382A0783E5EBA5A10F8C098456A03D6A4AEB6BB881E2513747552A5DB22C7EDAF83BD5528081A365F7FF06504B0304140006080000CC70623B000000000000000000000000350000006662782F41393633353835312D344632462D344230382D423046372D37
310
39314545314133324237412F76657274696365732E62696E504B0304140006080800CC70623BF270F1330600000004000000360000006662782F41393633353835312D344632462D344230382D423046372D3739314545314133324237412F747269616E676C65732E62696E636660600000504B0304140006080000CC7062
310
3B000000000000000000000000370000006662782F41393633353835312D344632462D344230382D423046372D3739314545314133324237412F617474726962757465732E62696E504B0304140006080800CC70623B08DA0BD19000000041010000360000006662782F41393633353835312D344632462D344230382D4230
310
46372D3739314545314133324237412F6469726563746F72792E786D6C858F410AC3201045AF22B36F53E9A60B35CBEEBAE80D244E44489C6234F4F835464A48035D0DF398FF9F8AF63D0E6CC63039F212F8F9020C7D47C6792B21C5FE7403D62A1188E2E60C98D7234A5830286103A55745067B9D86B8A3CF9C7F90C11DE6
310
07FB144396D7B6A82D282E9A152AD114D5EF2CB866EEE831B8EEA07A7BB5A8D7D61A2BAAEB7FD5F70921FF497D00504B0304140006080800CC70623BEDD1DC58FD000000A00100003B0000006662782F41393633353835312D344632462D344230382D423046372D3739314545314133324237412F7265736F75726365732F
310
636F72652E786D6C8D504B6E833010BD0A9A6D65B00922041947112427E8052C33A156828DFCA97AFC9A40A576D7CDCCE87D344F8F9FBFE667F689CE6B6B3A6039850C8DB2A336530731DC4903D95970676DF82583CCC8193B5861107C72362E3BA4AC096842428D1D7107A5F7182053CF7474E0D507CE32973124857FE48B
310
540F3961CEF244279DE03EB81420DB9EAC1384436FA353E879B1B182C7A8C75DA3C7F453DF353A1075D537A7BA6464B8F535A99AE14A9A2BBD90E350DD183B5CFABE3AF262350B1EF4FC9351399401471025A527C218A1E53BAB5A5AB765F5469B96525EACF23FA6B88CFF34456DC2A1DCE36E360F82A5202F42F062ED2BAD
310
579969AFDD8A6F504B010214000A0000080000CC70623B3DEE336E79000000790000001B00000000000000000000000000000000006175746F6465736B2D64657369676E2D7061636B6167652E786D6C504B01021400140006080800CC70623BD486FD9CA0000000F40000001300000000000000000000000000B20000005B
310
436F6E74656E745F54797065735D2E786D6C504B01021400140006080800CC70623B853B8169EB0000007C010000080000000000000000000000000083010000636F72652E786D6C504B01021400140006080800CC70623B55019EA25F0000007C000000070000000000000000000000000094020000636E782E786D6C504B
310
01021400140006080800CC70623BDBABAAF470010000D40300000C00000000000000000000000000180300006662782F636F72652E786D6C504B01021400140006080800CC70623B9C113CC27E0000009D0000000B00000000000000000000000000B20400006662782F636E782E786D6C504B01021400140006080800CC70
310
623B7DF2F77C2A010000120200003100000000000000000000000000590500006662782F41393633353835312D344632462D344230382D423046372D3739314545314133324237412F636F72652E786D6C504B01021400140006080800CC70623BAD7543B64E010000330300003000000000000000000000000000D2060000
310
6662782F41393633353835312D344632462D344230382D423046372D3739314545314133324237412F636E782E786D6C504B01021400140006080800CC70623BE75B7789680500003C10000034000000000000000000000000006E0800006662782F41393633353835312D344632462D344230382D423046372D3739314545
310
314133324237412F6F626A656374732E786D6C504B01021400140006080000CC70623B0000000000000000000000003500000000000000000000000000280E00006662782F41393633353835312D344632462D344230382D423046372D3739314545314133324237412F76657274696365732E62696E504B01021400140006
310
080800CC70623BF270F133060000000400000036000000000000000000000000007B0E00006662782F41393633353835312D344632462D344230382D423046372D3739314545314133324237412F747269616E676C65732E62696E504B01021400140006080000CC70623B0000000000000000000000003700000000000000
310
000000000000D50E00006662782F41393633353835312D344632462D344230382D423046372D3739314545314133324237412F617474726962757465732E62696E504B01021400140006080800CC70623B08DA0BD1900000004101000036000000000000000000000000002A0F00006662782F41393633353835312D344632
310
462D344230382D423046372D3739314545314133324237412F6469726563746F72792E786D6C504B01021400140006080800CC70623BEDD1DC58FD000000A00100003B000000000000000000000000000E1000006662782F41393633353835312D344632462D344230382D423046372D3739314545314133324237412F7265
310
736F75726365732F636F72652E786D6C504B0506000000000E000E0080040000641100000000
  0
XRECORD
  5
90FD
102
{ACAD_REACTORS
330
1F7
102
}
330
1F7
100
AcDbXrecord
280
     1
102
MATERIAL
148
0.0
149
0.0
149
0.0
 93
        0
 94
       63
282
     0
 72
     1
 77
     1
171
     1
175
     1
179
     1
273
     0
  0
XRECORD
  5
1F8
102
{ACAD_REACTORS
330
1F7
102
}
330
1F7
100
AcDbXrecord
280
     1
 70
     1
 90
429727718
  1
30362254-06B7-45E0-A893-8CFA70E3D6BC
310
504B03040A0000080000CC70623B3DEE336E79000000790000001B0000006175746F6465736B2D64657369676E2D7061636B6167652E786D6C3C3F786D6C2076657273696F6E3D22312E302220656E636F64696E673D227574662D3822203F3E3C666F726D6174733E3C666F726D61743E687474703A2F2F736368656D612E
310
6175746F6465736B2E636F6D2F64657369676E2D7061636B6167652F323030393C2F666F726D61743E3C2F666F726D6174733E504B0304140006080800CC70623BD486FD9CA0000000F4000000130000005B436F6E74656E745F54797065735D2E786D6C7D8EC10E82300C865F65E91D8A1E8C310C0EEA1BF002731658846E
310
D98AC1B77784ABF1D8FE5FBFBF75BBCE937A534CCEB38643598122B6FEE978D0B0485F9C41B54DDD7D022595594E1A469170414C76A4D9A4D207E29CF43ECE46F218070CC6BECC4078ACAA135ACF422C856C0E68EA1BF5669944DDD7BCDE7B1F8E415D77AECB980613C2E4AC91FC167A2B244592486606FC29C8FD7F045B9A
310
EF7053A7E60B504B0304140006080800CC70623B1EC5D7A3EB0000007C01000008000000636F72652E786D6C8D90416EC3201045AF82665B6103C6756C6122AB4D4ED00B204C5C94182C03558F5F9C3852BBEB6A467FFE9B197D71FC9E6FE8CBACC17AD7032D0820E3B41FAD9B7A48F1820F808E52ACDEC75F36404ECDA687
310
4D0629A6D5A76597B477D1B89855E747B38B2A041301E95B6E7A08FAD3CCAA50296647B8168BD2573599823EBB0CA76447F43862C7BCCF5EAC59410E4DDD9C7973C2755553CCCFA4C603E3040F1565ED3B1FDE4E432BCA0D9622DAF9795FAF464533826484B498524CD807E51D79ED187F21878E10516EF63F505AC67F42C9
310
BA58B1FDDD071640D2FCC87D2045B96591CB3DA85CB7DCE40F504B0304140006080800CC70623B55019EA25F0000007C00000007000000636E782E786D6C4DCB3B0E80201045D1AD90E915ED2CF8AC45050C11660C8261F98AB1B07AC9C97D42D718D865D3E909258CFD00CCE24AC6E326A164D74DC0B4128928FF32603847
310
2BA13128B1252AC747C6BAB984FC68F0B87FE8960A5C09FE86CFB69FBA01504B0304140006080800CC70623B8C9102E971010000D40300000C0000006662782F636F72652E786D6CC5535B6E833010BC8AE5DF0A6C08340F1947A84D4ED00B38C6A128602363A31CBFCB234A53A551FA553EC09AD9F5CE8C31DB9E9B1AF5CA
310
7695D1198E428A91D2D214952E33ECDD315861B4E5CC1AE3BE9561A445A3323CC098B3D21ADFCE9034DA29ED00D5A6503328BA4E398C640D8B0C77F253352214DE4145770A5B214FA2546114020D759C75CE8200340D19DE981F0F6746269C33EFAB6266AB02A655C74A59CCF365BADC27CB5D902ED22848F6340DF238A141
310
BE88E2F57B92BFEDF23523433367AE6A2EEAA455C2A902F398D2751045018D3FA264435F3771F242571B4A1919CA6F9A7C5B3CD9E42BED16F12C776AEB308F40C848FC700B1139D4891EF410CEC810227CC6846F8386402064270EF5C5C709A05E49676C024C61FC95EA45ED154CA5211D1FF4FB8291A913A68E9B83EBBB33
310
E2A7673CDE118E5AE8124C0807CB8377834E366998436B950D7A7746DAD846D4CFD978E0F04FD455FC5D49D2D4C6FE9722321F10997F0F32DC47FE05504B0304140006080800CC70623BFFEA85907E0000009D0000000B0000006662782F636E782E786D6C4DCCD10A83201886E15B91FFDC95D95A811AB6F23E625948A6C3
310
E9D8E5AF46073BFAE0E1E365ED67B3E8ADC3CB78C7815C7240DA3DFC64DCC221C519D7805AC182F7F1EF06C88D9BE6703008B6049F9E274D7A1E938DBB5AE3D6131B2589BA0D3D965551E0B2EA732C9B9A624AAEB41E3A557677029960D9AFB4EF11165F504B0304140006080800CC70623B4FEEA4082C0100001202000031
310
0000006662782F39464131463745442D413632322D343644302D413938332D3331353338454246344243312F636F72652E786D6C8D515B6EC32010BC0AE2AB55850DD871ED0813254D72825EC00192A2C460F1A872FC42ED48ED5F7E00CDCECCCEB26C731F6FE05B39AFADE921293004CA082BB5B9F43086336A21D870E6AC
310
0D7F68109861543DCC30E4ECE26C9C164858139409093556AA051CBC570102714B8F1E7AF1A5C6A11862480C7F2DA6415C878B2A4891CA89C7990F2E050073937C42DE1DB7E4F87ED8A36D4329AA9B3D46DBAEAD504556557BD81DEBDD0761E52CE42C462D17B996298E3E6BE59E35C962CE821E1FF18553435012728A7187
310
0841987E927A8D9B35ADDF70BBC6989599FE4F1427F9A4286A132ABAC49D651EF234CD5CE04CDA78BA3DC2A8FB645D00B9DF8B57E215725C60BCA2A463E54C4CE327C7A65E1C7DB02E7DEFCBF594B864C5CA6CDBD49C957943E9FA5D5FBAF336F90F504B0304140006080800CC70623BAD7543B64E01000033030000300000
310
006662782F39464131463745442D413632322D343644302D413938332D3331353338454246344243312F636E782E786D6CD593CD6EC32010845F0571AD6CE3D48AD20813A9873E410FBD12D82434182C7EAAE6EDBB2424CD25871E7B41D6EC30B3FA84F9E67BB2E40B4234DE8DB46F1925E094D7C6ED479AD3AE5951B2113C
310
789FEE6C943839C1488B4C05DF079FE72A69D8C96C13AAD6B8631503449F83828872B949AC57D26200B826A308D316B4064D6E46FCDA41C05550DC9E483A00797BFD207EFB092A45DE9514C1BBD22178396BD39D891265658C238DEA00936C654E5E433CB65A26D9F6EDB5EBC14EBF49A45CB856E66048291F6939A9A81BB5
310
C8917738143CA680F4AA299D66A042CEB3354A2684DC9D8D178FE0D9B8B41CAAD720F880EE7EF93C0C18769E099ECC04D5A102C8049A8A05632F4DDF376CF1DE0F6BB65C2F8627B65A33C6BB62177CEBBDAD973006829F89F22E814B54F4BC2BE347F8AA8F681390B50FA73F804400B5F542E796F19FF974E7F78DB802FE05
310
E207504B0304140006080800CC70623B16AB87BA640500003C100000340000006662782F39464131463745442D413632322D343644302D413938332D3331353338454246344243312F6F626A656374732E786D6CAD575B6FA33818FD2B887DE6924B3BED8A326A92B68A663B534DD4D13E548A0C38942D60649B369D5FBFC7
310
600890A493BDE42160637FD7F31D7FF63E6FB3D478A55C242CBF3247B66B1A340F5994E4F19559CA8D75611A9F7D8F33263BCB4C232719BD32D5B4E97B316765A1A722BA21652A07B3B7B33F0D11D29C9A46981221AE4C113ED38CD8A4942CA2E2C58E882476BCD9DA23BB5ED8171B73523C0F841684D35CC252CCE79062D4
310
468DFA43D7747CCF51DF7D4FFDEB5593E3AB9CCA9FBEFE241792E4E19EB28198C968BAB8199F5D5A67D3E9C49A9E8F47D6EC76B6B0469F26EEFC7C3EBFBCBEB98462213924694B38DD98FE1D62C393D073EA4FADC5DAF04326852CCF6958F90F0F2B9BB5C48816348F90C7840A68EB78EDF68723159BCEE7891A6B95DDE9D3
310
BCEAEEE8086A6C6F9E5D4B59F0175C10A7A0820BAA5055C7473B5AE3CFDD452D602CD5DF12616444529E90D448938013FE6EFA58AA96F85E4F8C42275708571E98FE6827AF6B2B4AE3D7D83D64E5A64C53054DD3AF90BD06FEA9149565C94FCA0F6B834DC85599E4F2423B24DF0B6AFA979E534DFA9E7A4CC6FA631D486393
310
921829879BF5D781A373557BCB85E97FB90DB62B558F8795179C15944B051F40AB495CF35451D26A4727654E6D8033BD98EF82F21D91FF8AF2DD9982BCF1643BDD4EB516C9492E368C67C88DED563FC36D5EACF66DFF057C3658BDBFA69DF9578B3DA735B64F18C7F20770A9D45CFCF7FCF563D6456A277DBEF78A02637CA2
310
43B90A490AEAB94F72244481D24819A6C0E59B606BFA4B3025981DBB48EAB701D97BF19C577CC77F2D1B6C55A9EF3C732474C0B727303F625995056C3B02963D9EAC146BE78EC5FCEC7FA999EBC5EACBAAE41B12D27B4D2C0BBA49F244E2ECDC81B76B502F113D8F5EE8FB1BE3111CDD4FC2AA9B844CAB1288B68AB90A7CDC
310
1C166AB0D3DC5310625FCC14E779BFD0709F8890A629C9292B1B2DED31A4B0DA928CEE135085754027E3018A397D4D5427D15BD1330B677DC8934285AC3DF45A9EB68FF8F2B8FC0A509AFEECFD0FF2DE25CC6047F7214B195F07EFEB9A094D800F7BFAE8FED187B78EA8A3A400F115961BCAD1215E47C966530AF0EE8128FE
310
58CEBB996A8964FFA529A046635D9353B0336A8F700DDF46271A024E70B0B37C9DE01847591E54DED53D54202AB947E4076556AC49C6CA5C9E1226B7F1A7B1BE15DEED62C41B91E1B3E9AFAAA735036547343A925075041DF0A9979E893B391F8FCFA6967B3EFB644DCF6E5CEBFAE272625DCC6FAF3FB93793C5F90CE1EF57
310
407342756B10D1C489E8953CD1617E5CEECAD6F4EF8914CE5D5D504E5C3F1F9736DA62CFC11E00BCDDB8CC8A9466349744C1F75EBDA4DF09BA8A9E8C7A7E9991989E20E5DBDD6A6003664ED8F7A04A8DBE0DF6EAD9B9AA858342E47399053949D2C146EDB85DE4B176BB0965FBAC19BD19AA918E27FA50C1D22402E144464C
310
59462568E704B6E71915404CB72B8FF4EDE184DDAF753F284990D2C6926782963815403548A70C657FDEF80D2D9CEAA2AE4C1C76F60BFE74219A06527D6582DF6412526107381E55E353090704D085B52408D0933C4ED159D79BDA71BB4BC506F4831350EB6F979CD22D69BF7AC49B91A2C0A9DDA3D5CA36AD20FC478E37E6
310
1844E2352865EBCB6EA275A652E3836BE04EFB400BF1A2556F515F1FBB35B2AB35BD889C744FFA1004B5544B121E57F70215746DD2F5E2C1412B602CBF19455AC6C8E5E9922C4E01E65215385004546899059180EAFCF7A707CE7017CD8CDB0410789AB32C63B91E5CEBBBACB17AC6CD347A022D5075FD106377347AAABA7E
310
7D11590744509B44E205134DC1290F06580320F78E537D3D73540E06CB970B431F185308AD40BBD794D6D77003C5A36E8EAA54BA64597CD8F83BD552A080A365F7FF06504B0304140006080000CC70623B000000000000000000000000350000006662782F39464131463745442D413632322D343644302D413938332D3331
310
353338454246344243312F76657274696365732E62696E504B0304140006080800CC70623BF270F1330600000004000000360000006662782F39464131463745442D413632322D343644302D413938332D3331353338454246344243312F747269616E676C65732E62696E636660600000504B0304140006080000CC70623B
310
000000000000000000000000370000006662782F39464131463745442D413632322D343644302D413938332D3331353338454246344243312F617474726962757465732E62696E504B0304140006080800CC70623B08DA0BD19000000041010000360000006662782F39464131463745442D413632322D343644302D413938
310
332D3331353338454246344243312F6469726563746F72792E786D6C858F410AC3201045AF22B36F53E9A60B35CBEEBAE80D244E44489C6234F4F835464A48035D0DF398FF9F8AF63D0E6CC63039F212F8F9020C7D47C6792B21C5FE7403D62A1188E2E60C98D7234A5830286103A55745067B9D86B8A3CF9C7F90C11DE607
310
FB144396D7B6A82D282E9A152AD114D5EF2CB866EEE831B8EEA07A7BB5A8D7D61A2BAAEB7FD5F70921FF497D00504B0304140006080800CC70623B0D6EF93BFE000000A00100003B0000006662782F39464131463745442D413632322D343644302D413938332D3331353338454246344243312F7265736F75726365732F63
310
6F72652E786D6C8D50596E833010BD0A9ADFCA60B334011947A8694ED00B586642AC041B79A97AFC9A40A5F6AF3F33A3B7689E1E3F7DCD8FEC139DD7D6F4C0720A191A65476DA61E62B892236427C19DB5E1970C322367EC618541F0C9D9B8EC90B226A009093576C41D94DE63804C3DD2D18357379C652E63480A7FCF17A9
310
EE72C29CE5894E3AC17D702940B63D59270887DE46A7D0F36263058F518FBB468FE9A7BE6A7420864373B8D4873369AA8691FA421B3294352543C5CAF65C0F6FEF43CB8BD52C78D0F34F46E550061C419494B6843142CB0F5677F4B52BEB177AEC28E5C52AFF638ACBF84F53D42654E51E77B379102C05791282176B5F693D
310
CB4C7BED567C03504B010214000A0000080000CC70623B3DEE336E79000000790000001B00000000000000000000000000000000006175746F6465736B2D64657369676E2D7061636B6167652E786D6C504B01021400140006080800CC70623BD486FD9CA0000000F40000001300000000000000000000000000B20000005B
310
436F6E74656E745F54797065735D2E786D6C504B01021400140006080800CC70623B1EC5D7A3EB0000007C010000080000000000000000000000000083010000636F72652E786D6C504B01021400140006080800CC70623B55019EA25F0000007C000000070000000000000000000000000094020000636E782E786D6C504B
310
01021400140006080800CC70623B8C9102E971010000D40300000C00000000000000000000000000180300006662782F636F72652E786D6C504B01021400140006080800CC70623BFFEA85907E0000009D0000000B00000000000000000000000000B30400006662782F636E782E786D6C504B01021400140006080800CC70
310
623B4FEEA4082C0100001202000031000000000000000000000000005A0500006662782F39464131463745442D413632322D343644302D413938332D3331353338454246344243312F636F72652E786D6C504B01021400140006080800CC70623BAD7543B64E010000330300003000000000000000000000000000D5060000
310
6662782F39464131463745442D413632322D343644302D413938332D3331353338454246344243312F636E782E786D6C504B01021400140006080800CC70623B16AB87BA640500003C1000003400000000000000000000000000710800006662782F39464131463745442D413632322D343644302D413938332D3331353338
310
454246344243312F6F626A656374732E786D6C504B01021400140006080000CC70623B0000000000000000000000003500000000000000000000000000270E00006662782F39464131463745442D413632322D343644302D413938332D3331353338454246344243312F76657274696365732E62696E504B01021400140006
310
080800CC70623BF270F133060000000400000036000000000000000000000000007A0E00006662782F39464131463745442D413632322D343644302D413938332D3331353338454246344243312F747269616E676C65732E62696E504B01021400140006080000CC70623B0000000000000000000000003700000000000000
310
000000000000D40E00006662782F39464131463745442D413632322D343644302D413938332D3331353338454246344243312F617474726962757465732E62696E504B01021400140006080800CC70623B08DA0BD190000000410100003600000000000000000000000000290F00006662782F39464131463745442D413632
310
322D343644302D413938332D3331353338454246344243312F6469726563746F72792E786D6C504B01021400140006080800CC70623B0D6EF93BFE000000A00100003B000000000000000000000000000D1000006662782F39464131463745442D413632322D343644302D413938332D3331353338454246344243312F7265
310
736F75726365732F636F72652E786D6C504B0506000000000E000E0080040000641100000000
  0
XRECORD
  5
90FF
102
{ACAD_REACTORS
330
173
102
}
330
173
100
AcDbXrecord
280
     1
102
MATERIAL
148
0.0
149
0.0
149
0.0
 93
        0
 94
       63
282
     0
 72
     1
 77
     1
171
     1
175
     1
179
     1
273
     0
  0
XRECORD
  5
175
102
{ACAD_REACTORS
330
173
102
}
330
173
100
AcDbXrecord
280
     1
270
     1
271
     1
  0
XRECORD
  5
174
102
{ACAD_REACTORS
330
173
102
}
330
173
100
AcDbXrecord
280
     1
270
     1
271
     1
  0
XRECORD
  5
1FB
102
{ACAD_REACTORS
330
173
102
}
330
173
100
AcDbXrecord
280
     1
 70
     0
 90
1673772943
  1
ECE7A1D2-D628-4531-984C-D00F80459256
310
504B03040A0000080000CC70623B3DEE336E79000000790000001B0000006175746F6465736B2D64657369676E2D7061636B6167652E786D6C3C3F786D6C2076657273696F6E3D22312E302220656E636F64696E673D227574662D3822203F3E3C666F726D6174733E3C666F726D61743E687474703A2F2F736368656D612E
310
6175746F6465736B2E636F6D2F64657369676E2D7061636B6167652F323030393C2F666F726D61743E3C2F666F726D6174733E504B0304140006080800CC70623BD486FD9CA0000000F4000000130000005B436F6E74656E745F54797065735D2E786D6C7D8EC10E82300C865F65E91D8A1E8C310C0EEA1BF002731658846E
310
D98AC1B77784ABF1D8FE5FBFBF75BBCE937A534CCEB38643598122B6FEE978D0B0485F9C41B54DDD7D022595594E1A469170414C76A4D9A4D207E29CF43ECE46F218070CC6BECC4078ACAA135ACF422C856C0E68EA1BF5669944DDD7BCDE7B1F8E415D77AECB980613C2E4AC91FC167A2B244592486606FC29C8FD7F045B9A
310
EF7053A7E60B504B0304140006080800CC70623BD9DDAED0EC0000007C01000008000000636F72652E786D6C8D90416EC3201045AF82665B61836D9CD8C2444DD39CA01740405C94182C03558F5F9C3852BBEB6A467FFE9B197D7EF89E6EE8CB2CC17A37002D0820E394D7D68D03A478C17B4007C117EFE32F1B20272733C0
310
2A83E0E3E2D3BC49CABB685CCCAAF3DA6CA20CC14440EA969B0182FA34932C648AD911AEC52CD5558EA6A0CF2EC329598D1E47ACCEFBECC59A050463A7EA5833865FEBDD0E37353BE3EE8DBDE3F6786A48D375FBF6CC78B9C282473B3DEFABC5C86834888A900E538A49F5419B9EB47DD5BC907D4F082F57FB1F28CDFA9F50
310
B22ED6D5F6EE030B20687EE43E10BC5CB3C8E51E54AE6B6EE207504B0304140006080800CC70623B55019EA25F0000007C00000007000000636E782E786D6C4DCB3B0E80201045D1AD90E915ED2CF8AC45050C11660C8261F98AB1B07AC9C97D42D718D865D3E909258CFD00CCE24AC6E326A164D74DC0B4128928FF326038
310
472BA13128B1252AC747C6BAB984FC68F0B87FE8960A5C09FE86CFB69FBA01504B0304140006080800CC70623BA24EB22D72010000D40300000C0000006662782F636F72652E786D6CC5535B6E833010BC8AE5DF0A6C5E49888CA3A6694ED00B38E05014B091B1518EDFE511A5A9D228FD2A1F60CDEC7A67C6986DCE4D8D7A
310
69BA4AAB0C073EC548AA5C17952A33ECECD15B61B4E1CC686DBF9561A44423333CC098B3D268D7CE50AE9595CA02AA74216750749DB418E5352C32DCE59FB211BE70162ABA93DF8AFC244AE9073ED050C759670D0840D390E18DF9F1706664C23973AE2A66B62A605A75ACA4C13C4976E1364A12EF355A2EBD384AF65EFA96
310
BC7B8BED2EA6719AAE16FB8491A199335B351775B991C2CA02F390D2D40B028F861F41BCA68B7518BFD0D59A524686F29B26D7164F36B94AD9289CE54E6D1DE6010819891F6E21228B3AD1831EC219194284CF98F06DD01008846CC5A1BEF83801D4CBDC6A1303536877A57A513B0953A94FC707FDBE6064EA84A9E3E6E0FA
310
EE8CF0E9198F7784A316AA0413C2C2F2E0ECA0934D1AE6D05A69BCDE9E91D2A611F573361E38FC1375157F5752AE6B6DFE4B11990F88CCBF0719EE23FF02504B0304140006080800CC70623B408A7D3B7C0000009D0000000B0000006662782F636E782E786D6C4DCCD10A83201886E15B91FFDC552A92A0064DBC8F581632
310
D3703A76F9ABD1C18E3E78F878E5F0D9027ABBFCF2292AE86E2D20171F69F6715550CB827B40839639A5F2770314A7CD293819B45C73AAFB45B35BA61ACAA1C1C7E7855C58C15BC331339661262CC762340413D68D77DA5B42298546CBE6573AF60CEB2F504B0304140006080800CC70623B449FB9BD290100001202000031
310
0000006662782F36394639363044362D344446342D343946362D394244322D3234314243333846323333332F636F72652E786D6C8D515B6EC32010BC0AE22B55850D98B871848994463E412FE002495162B07854397EA176A4F62F3F2C9A9D991D587EB84F37F0AD7D30CEF6905418026DA553C65E7A98E219ED203808EE9D
310
8B7F6810D871D23D2C3014FCE25D9A57483A1BB58D19B54EE9151C43D0110279CB971E06F9A5A7B11A53CC8C70ADE6515EC78BAE4895DB992778883E0700CB907242D17643D7E2538BD869608875438BBAE38922CAC8F1BDD90DB4691A5E2F42C153326A951B95E398B3D1FE599322163C9AE9115F7A3D46ADA0A018778810
310
84E907617BDCEE297BC5BB3DC6BC2EF47FA234AB2745C9D8D8D035EE220B50105E2F0DC1954B9FB747187D9F9D8FA0CCDB042D5FA0C015C65B42DF78BD10F3F3B363CB56C7109DCFDFBBB97E662ED92EB62D13BC2E1BCAE5777DB9966D8A1F504B0304140006080800CC70623BAD7543B64E01000033030000300000006662
310
782F36394639363044362D344446342D343946362D394244322D3234314243333846323333332F636E782E786D6CD593CD6EC32010845F0571AD6CE3D48AD20813A9873E410FBD12D82434182C7EAAE6EDBB2424CD25871E7B41D6EC30B3FA84F9E67BB2E40B4234DE8DB46F1925E094D7C6ED479AD3AE5951B2113C789FEE
310
6C943839C1488B4C05DF079FE72A69D8C96C13AAD6B8631503449F83828872B949AC57D26200B826A308D316B4064D6E46FCDA41C05550DC9E483A00797BFD207EFB092A45DE9514C1BBD22178396BD39D891265658C238DEA00936C654E5E433CB65A26D9F6EDB5EBC14EBF49A45CB856E66048291F6939A9A81BB5C89177
310
38143CA680F4AA299D66A042CEB3354A2684DC9D8D178FE0D9B8B41CAAD720F880EE7EF93C0C18769E099ECC04D5A102C8049A8A05632F4DDF376CF1DE0F6BB65C2F8627B65A33C6BB62177CEBBDAD973006829F89F22E814B54F4BC2BE347F8AA8F681390B50FA73F804400B5F542E796F19FF974E7F78DB802FE05E20750
310
4B0304140006080800CC70623B8D05915C650500003B100000340000006662782F36394639363044362D344446342D343946362D394244322D3234314243333846323333332F6F626A656374732E786D6CAD575B6FA33814FE2B887D06429276DA1565D4266D158D3A339A6846FB502932E050B66023DB74D2FDF5FB190C01
310
9276B2973C046C8ECFF53B17071F77456EBD502133CEAE6CDF9DD81665314F32965ED995DA3A17B6F5310C04E7AA47665B8C14F4CAD6DB7618A48257A5D94AE89654B91AEDDEDDFC61C998326A5B714EA4BCB265FC440BE2924AF184CA6737218AB8E976E7FA6E4338649B0A523E8D98964450A6A029F619B8588D52FE7039
310
B1BD30F0F4F730D0FF866AF6369557DB33949F31A9088B0F848DD8CCFCF9F2767A76E99CCDE733677E3EF59D9BBB9BA5E37F984D16E78BC5E5F5ED25044B25C0C96822E8D60EEFE11B91C581D77CEA34368A1F5329E68CD1B8B61F16D63A1B8E092D294B10C78C4A48EB593D192E7DED9BDEE7995E1B91FDEDD3ACEA9FE831
310
6A756F9F7D4D79F4274C90A7A04248AA51D5F8C718DAE06FB2F75AC4796EBE65D22A88A22223B995679120E2D50E41AA49C260C046A35368846B0BECD0DFF3EBEB8AD4F835768F69B9ADF25C43D30E6B646F807FAA64AD59F61715C7A54127C4AACA98BA3006A9D792DAE165E0D59B61A01FB3A9F9D838D2DAE62445C86166
310
F37564E842E7DE6A69879FEEA2DD5AE7E371E1A5E025154AC307D06A03D73EB5978C58FFA4C8E9033066E0F3BD53BEC1F39F91BE7B55103791EDE6BBB991A2046172CB4581D8B893FA674DDA17A77B3B7C413D1B511FD2743BFF8A38F03A658705E3ADF8015C3A3417FF3D7E439FF591DA0B5F18BC20C1B8981957AE6392A3
310
F43C640C01D1A0B4728E2DD4F26DB4B3C3152A252A3B4E913CEC1C72F012782FF88EFF8637AA552DBEF76408E8A8DE9E50F9E1CB3A2DA0DB1B6039A893B56063DC5B3E3FFB5F72E67AB9FEB4AEC496C4F4C1149625DD662C53E89D7BF0F6151A046260D1337DFDC94502430F83B0EE07A130A224BCAD7DAE1D9FB6CD422FF6
310
920702629C4BB9AE79C12F243C6432A6794E18E5552BA56B431AAB5D91317302B2B071E86C3A42B1A02F999E24061403B5D0EB639195DA655DD3EBEAB4FB862DDF579F014AD0E73C22F99E28DA57FB98E75C6CA2D74D53086D600F4786E0FE3144B771A8A7B900F03594DB8A633CBC49B2EDB69228BB479CF863B5E807AAAB
310
23872F6DFEB4129B949CA33823F58830E86D65621E10047D9DB34D862E8EAC3C2ABC2F7B2C40D67CDFE01F5545B92105AF983AC54D93D69E56FB8E797F88913F898A9FEC705D3F9D1B54EC8426FB500D40A03BD0119B06E1B95DDC7EB8F6975367793EBD70E66733DFB9BC982F9CE564727731999F5D4ECFCE3B8D6A4DC2A0
310
6D50FD148437D110834A64C6CDDF57FBACB5C307A2A477DFE4939736CFEF2B175371E0E10CF0DD1D5C15654E0BCA14D1E87DD02FF93782A162C0A3D95F1524A52770F972BF1EE9809D13CE7DD599467F8ECE9ADD85CE85A34CD45355448C64F9E8A031DC2D596ACC6E5DD93D9B82DE2EF5CAF81363A8E47996A0DE24564A79
310
4115AACE09C55E14540231FDA13C319787134EBF34E3A022514E5B4D9E0826E25C02D5805B15ABE1BEF51B26383D445DD9E875EE33FE4C22DA16427D65A3BCA92CA6D28DD01DF5DC53330704308475351050232CCD31583787BA75774AFB06E5070DD0C8EF484E19968C5D83BA5B90B244D31E54D55A372320FE4786B7EA58
310
44E135AA5467CB7EA333A61683CC6A8C3257034C10CF46F40EF9F5BE59BE5BD30C3C72D235E95D10345C1D45445A5F0BB47E46A5EBE5570F9380B5FA629579952296A773720405982B9DE04011506178964401AA8BDF1FBF0A8EAB6861DD6580C0E38217056766716DAEB2D6FA0917D3E4116581EADB879C4E7CFFB11EFACD
310
3D641311495D92C8676CB409A72D18610D803CE8A626049E8EC1887CB5B44CC39883690DDA8399B4B9855B481E7D71D4A9D22F96E5BB73BF5793020C02137BF837504B0304140006080000CC70623B000000000000000000000000350000006662782F36394639363044362D344446342D343946362D394244322D32343142
310
43333846323333332F76657274696365732E62696E504B0304140006080800CC70623BF270F1330600000004000000360000006662782F36394639363044362D344446342D343946362D394244322D3234314243333846323333332F747269616E676C65732E62696E636660600000504B0304140006080000CC70623B0000
310
00000000000000000000370000006662782F36394639363044362D344446342D343946362D394244322D3234314243333846323333332F617474726962757465732E62696E504B0304140006080800CC70623B08DA0BD19000000041010000360000006662782F36394639363044362D344446342D343946362D394244322D
310
3234314243333846323333332F6469726563746F72792E786D6C858F410AC3201045AF22B36F53E9A60B35CBEEBAE80D244E44489C6234F4F835464A48035D0DF398FF9F8AF63D0E6CC63039F212F8F9020C7D47C6792B21C5FE7403D62A1188E2E60C98D7234A5830286103A55745067B9D86B8A3CF9C7F90C11DE607FB14
310
4396D7B6A82D282E9A152AD114D5EF2CB866EEE831B8EEA07A7BB5A8D7D61A2BAAEB7FD5F70921FF497D00504B0304140006080800CC70623BCA768048FE000000A00100003B0000006662782F36394639363044362D344446342D343946362D394244322D3234314243333846323333332F7265736F75726365732F636F72
310
652E786D6C8D50596E833010BD0A9ADFCA60D600328E9AA639412F609909B1126CE4A5EAF16B0295DABFFECC8CDEA2797AECF8353F924FB44E193D409E5248504B332A3D0D10FC95B4901C39B3C6F85F3248B49871801506CE266BC2B243D2688FDA47549B11775038871E12F988C7004EDE7016A9083E2ADC3D5D84BC8B09
310
D33C8D74D471E6BC8D0192EDC93A815B742658898E651BCB59086ADC356A8C3FD555A1055ED7E7E254D615792D0F075295F585746FF53B694EE78A565DD736979A65AB9933AFE69F8CD2A2F038022F28ED489E135A7CE4554F9BBEA85E68DB53CAB255FEC71496F19FA6A0B42F8B3DEE6673C0F318E4497096AD7DC5F52C33
310
EEB55BFE0D504B010214000A0000080000CC70623B3DEE336E79000000790000001B00000000000000000000000000000000006175746F6465736B2D64657369676E2D7061636B6167652E786D6C504B01021400140006080800CC70623BD486FD9CA0000000F40000001300000000000000000000000000B20000005B436F
310
6E74656E745F54797065735D2E786D6C504B01021400140006080800CC70623BD9DDAED0EC0000007C010000080000000000000000000000000083010000636F72652E786D6C504B01021400140006080800CC70623B55019EA25F0000007C000000070000000000000000000000000095020000636E782E786D6C504B0102
310
1400140006080800CC70623BA24EB22D72010000D40300000C00000000000000000000000000190300006662782F636F72652E786D6C504B01021400140006080800CC70623B408A7D3B7C0000009D0000000B00000000000000000000000000B50400006662782F636E782E786D6C504B01021400140006080800CC70623B
310
449FB9BD290100001202000031000000000000000000000000005A0500006662782F36394639363044362D344446342D343946362D394244322D3234314243333846323333332F636F72652E786D6C504B01021400140006080800CC70623BAD7543B64E010000330300003000000000000000000000000000D20600006662
310
782F36394639363044362D344446342D343946362D394244322D3234314243333846323333332F636E782E786D6C504B01021400140006080800CC70623B8D05915C650500003B10000034000000000000000000000000006E0800006662782F36394639363044362D344446342D343946362D394244322D32343142433338
310
46323333332F6F626A656374732E786D6C504B01021400140006080000CC70623B0000000000000000000000003500000000000000000000000000250E00006662782F36394639363044362D344446342D343946362D394244322D3234314243333846323333332F76657274696365732E62696E504B010214001400060808
310
00CC70623BF270F13306000000040000003600000000000000000000000000780E00006662782F36394639363044362D344446342D343946362D394244322D3234314243333846323333332F747269616E676C65732E62696E504B01021400140006080000CC70623B00000000000000000000000037000000000000000000
310
00000000D20E00006662782F36394639363044362D344446342D343946362D394244322D3234314243333846323333332F617474726962757465732E62696E504B01021400140006080800CC70623B08DA0BD190000000410100003600000000000000000000000000270F00006662782F36394639363044362D344446342D
310
343946362D394244322D3234314243333846323333332F6469726563746F72792E786D6C504B01021400140006080800CC70623BCA768048FE000000A00100003B000000000000000000000000000B1000006662782F36394639363044362D344446342D343946362D394244322D3234314243333846323333332F7265736F
310
75726365732F636F72652E786D6C504B0506000000000E000E0080040000621100000000
  0
XRECORD
  5
176
102
{ACAD_REACTORS
330
173
102
}
330
173
100
AcDbXrecord
280
     1
270
     1
271
     1
  0
XRECORD
  5
177
102
{ACAD_REACTORS
330
173
102
}
330
173
100
AcDbXrecord
280
     1
270
     1
271
     1
  0
XRECORD
  5
9121
102
{ACAD_REACTORS
330
9120
102
}
330
9120
100
AcDbXrecord
280
     1
102
ACAD_ROUNDTRIP_2012_MLEADER_STYLE
298
     1
  0
XRECORD
  5
9133
102
{ACAD_REACTORS
330
9132
102
}
330
9132
100
AcDbXrecord
280
     1
102
DISPLAYNAME
  1
Metric50
102
FLAGS
 90
        0
  0
CELLSTYLEMAP
  5
90F3
102
{ACAD_REACTORS
330
162
102
}
330
162
100
AcDbCellStyleMap
 90
        3
300
CELLSTYLE
  1
TABLEFORMAT_BEGIN
 90
        5
170
     1
 91
        0
 92
    32768
 62
   257
 93
        1
300
CONTENTFORMAT
  1
CONTENTFORMAT_BEGIN
 90
        0
 91
        0
 92
      512
 93
        0
300

 40
0.0
140
1.0
 94
        5
 62
     0
340
11
144
6.0
309
CONTENTFORMAT_END
171
     1
301
MARGIN
  1
CELLMARGIN_BEGIN
 40
1.5
 40
1.5
 40
1.5
 40
1.5
 40
4.5
 40
4.5
309
CELLMARGIN_END
 94
        6
 95
        1
302
GRIDFORMAT
  1
GRIDFORMAT_BEGIN
 90
        0
 91
        1
 62
     0
 92
       -2
340
14
 93
        0
 40
1.125
309
GRIDFORMAT_END
 95
        2
302
GRIDFORMAT
  1
GRIDFORMAT_BEGIN
 90
        0
 91
        1
 62
     0
 92
       -2
340
14
 93
        0
 40
1.125
309
GRIDFORMAT_END
 95
        4
302
GRIDFORMAT
  1
GRIDFORMAT_BEGIN
 90
        0
 91
        1
 62
     0
 92
       -2
340
14
 93
        0
 40
1.125
309
GRIDFORMAT_END
 95
        8
302
GRIDFORMAT
  1
GRIDFORMAT_BEGIN
 90
        0
 91
        1
 62
     0
 92
       -2
340
14
 93
        0
 40
1.125
309
GRIDFORMAT_END
 95
       16
302
GRIDFORMAT
  1
GRIDFORMAT_BEGIN
 90
        0
 91
        1
 62
     0
 92
       -2
340
14
 93
        0
 40
1.125
309
GRIDFORMAT_END
 95
       32
302
GRIDFORMAT
  1
GRIDFORMAT_BEGIN
 90
        0
 91
        1
 62
     0
 92
       -2
340
14
 93
        0
 40
1.125
309
GRIDFORMAT_END
309
TABLEFORMAT_END
  1
CELLSTYLE_BEGIN
 90
        1
 91
        1
300
_TITLE
309
CELLSTYLE_END
300
CELLSTYLE
  1
TABLEFORMAT_BEGIN
 90
        5
170
     1
 91
        0
 92
        0
 62
   257
 93
        1
300
CONTENTFORMAT
  1
CONTENTFORMAT_BEGIN
 90
        0
 91
        0
 92
      512
 93
        0
300

 40
0.0
140
1.0
 94
        5
 62
     0
340
11
144
4.5
309
CONTENTFORMAT_END
171
     1
301
MARGIN
  1
CELLMARGIN_BEGIN
 40
1.5
 40
1.5
 40
1.5
 40
1.5
 40
4.5
 40
4.5
309
CELLMARGIN_END
 94
        6
 95
        1
302
GRIDFORMAT
  1
GRIDFORMAT_BEGIN
 90
        0
 91
        1
 62
     0
 92
       -2
340
14
 93
        0
 40
1.125
309
GRIDFORMAT_END
 95
        2
302
GRIDFORMAT
  1
GRIDFORMAT_BEGIN
 90
        0
 91
        1
 62
     0
 92
       -2
340
14
 93
        0
 40
1.125
309
GRIDFORMAT_END
 95
        4
302
GRIDFORMAT
  1
GRIDFORMAT_BEGIN
 90
        0
 91
        1
 62
     0
 92
       -2
340
14
 93
        0
 40
1.125
309
GRIDFORMAT_END
 95
        8
302
GRIDFORMAT
  1
GRIDFORMAT_BEGIN
 90
        0
 91
        1
 62
     0
 92
       -2
340
14
 93
        0
 40
1.125
309
GRIDFORMAT_END
 95
       16
302
GRIDFORMAT
  1
GRIDFORMAT_BEGIN
 90
        0
 91
        1
 62
     0
 92
       -2
340
14
 93
        0
 40
1.125
309
GRIDFORMAT_END
 95
       32
302
GRIDFORMAT
  1
GRIDFORMAT_BEGIN
 90
        0
 91
        1
 62
     0
 92
       -2
340
14
 93
        0
 40
1.125
309
GRIDFORMAT_END
309
TABLEFORMAT_END
  1
CELLSTYLE_BEGIN
 90
        2
 91
        1
300
_HEADER
309
CELLSTYLE_END
300
CELLSTYLE
  1
TABLEFORMAT_BEGIN
 90
        5
170
     1
 91
        0
 92
        0
 62
   257
 93
        1
300
CONTENTFORMAT
  1
CONTENTFORMAT_BEGIN
 90
        0
 91
        0
 92
      512
 93
        0
300

 40
0.0
140
1.0
 94
        2
 62
     0
340
11
144
4.5
309
CONTENTFORMAT_END
171
     1
301
MARGIN
  1
CELLMARGIN_BEGIN
 40
1.5
 40
1.5
 40
1.5
 40
1.5
 40
4.5
 40
4.5
309
CELLMARGIN_END
 94
        6
 95
        1
302
GRIDFORMAT
  1
GRIDFORMAT_BEGIN
 90
        0
 91
        1
 62
     0
 92
       -2
340
14
 93
        0
 40
1.125
309
GRIDFORMAT_END
 95
        2
302
GRIDFORMAT
  1
GRIDFORMAT_BEGIN
 90
        0
 91
        1
 62
     0
 92
       -2
340
14
 93
        0
 40
1.125
309
GRIDFORMAT_END
 95
        4
302
GRIDFORMAT
  1
GRIDFORMAT_BEGIN
 90
        0
 91
        1
 62
     0
 92
       -2
340
14
 93
        0
 40
1.125
309
GRIDFORMAT_END
 95
        8
302
GRIDFORMAT
  1
GRIDFORMAT_BEGIN
 90
        0
 91
        1
 62
     0
 92
       -2
340
14
 93
        0
 40
1.125
309
GRIDFORMAT_END
 95
       16
302
GRIDFORMAT
  1
GRIDFORMAT_BEGIN
 90
        0
 91
        1
 62
     0
 92
       -2
340
14
 93
        0
 40
1.125
309
GRIDFORMAT_END
 95
       32
302
GRIDFORMAT
  1
GRIDFORMAT_BEGIN
 90
        0
 91
        1
 62
     0
 92
       -2
340
14
 93
        0
 40
1.125
309
GRIDFORMAT_END
309
TABLEFORMAT_END
  1
CELLSTYLE_BEGIN
 90
        3
 91
        2
300
_DATA
309
CELLSTYLE_END
  0
XRECORD
  5
90F8
102
{ACAD_REACTORS
330
162
102
}
330
162
100
AcDbXrecord
280
     1
102
ACAD_ROUNDTRIP_PRE2007_TABLESTYLE
 90
      512
 91
        0
  1

 92
      512
 93
        0
  2

 94
      512
 95
        0
  3

  0
XRECORD
  5
910B
102
{ACAD_REACTORS
330
910A
102
}
330
910A
100
AcDbXrecord
280
     1
102
RTVSPost2010Prop28
280
     1
102
RTVSPost2010PropOp28
 70
     1
102
RTVSPost2010Prop29
280
     1
102
RTVSPost2010PropOp29
 70
     1
102
RTVSPost2010Prop30
280
     0
102
RTVSPost2010PropOp30
 70
     1
102
RTVSPost2010Prop31
280
     0
102
RTVSPost2010PropOp31
 70
     1
102
RTVSPost2010Prop32
280
     0
102
RTVSPost2010PropOp32
 70
     1
102
RTVSPost2010Prop33
280
     0
102
RTVSPost2010PropOp33
 70
     1
102
RTVSPost2010Prop34
280
     0
102
RTVSPost2010PropOp34
 70
     1
102
RTVSPost2010Prop35
280
     0
102
RTVSPost2010PropOp35
 70
     1
102
RTVSPost2010Prop36
280
     0
102
RTVSPost2010PropOp36
 70
     1
102
RTVSPost2010Prop37
 90
       50
102
RTVSPost2010PropOp37
 70
     1
102
RTVSPost2010Prop38
140
0.0
102
RTVSPost2010PropOp38
 70
     1
102
RTVSPost2010Prop39
140
1.0
102
RTVSPost2010PropOp39
 70
     1
102
RTVSPost2010Prop40
 90
        0
102
RTVSPost2010PropOp40
 70
     1
102
RTVSPost2010Prop41ColorIndex
 90
       18
102
RTVSPost2010Prop41ColorRGB
 90
        0
102
RTVSPost2010PropOp41
 70
     1
102
RTVSPost2010Prop42
 90
       50
102
RTVSPost2010PropOp42
 70
     1
102
RTVSPost2010Prop43
 90
        3
102
RTVSPost2010PropOp43
 70
     1
102
RTVSPost2010Prop44ColorIndex
 90
        5
102
RTVSPost2010Prop44ColorRGB
 90
      255
102
RTVSPost2010PropOp44
 70
     1
102
RTVSPost2010Prop45
280
     0
102
RTVSPost2010PropOp45
 70
     1
102
RTVSPost2010Prop46
 90
       50
102
RTVSPost2010PropOp46
 70
     1
102
RTVSPost2010Prop47
 90
       50
102
RTVSPost2010PropOp47
 70
     1
102
RTVSPost2010Prop48
 90
       50
102
RTVSPost2010PropOp48
 70
     1
102
RTVSPost2010Prop49
280
     0
102
RTVSPost2010PropOp49
 70
     1
102
RTVSPost2010Prop50
 90
       50
102
RTVSPost2010PropOp50
 70
     1
102
RTVSPost2010Prop51ColorIndex
 90
      256
102
RTVSPost2010Prop51ColorRGB
 90
-16777216
102
RTVSPost2010PropOp51
 70
     0
102
RTVSPost2010Prop52
140
1.0
102
RTVSPost2010PropOp52
 70
     0
102
RTVSPost2010Prop53
 90
        2
102
RTVSPost2010PropOp53
 70
     1
102
RTVSPost2010Prop54
  1
strokes_ogs.tif
102
RTVSPost2010PropOp54
 70
     1
102
RTVSPost2010Prop55
280
     0
102
RTVSPost2010PropOp55
 70
     1
102
RTVSPost2010Prop56
140
1.0
102
RTVSPost2010PropOp56
 70
     1
102
RTVSPost2010Prop57
140
1.0
102
RTVSPost2010PropOp57
 70
     1
102
RTVSPropertyOp0
 70
     1
102
RTVSPropertyOp1
 70
     1
102
RTVSPropertyOp2
 70
     1
102
RTVSPropertyOp3
 70
     1
102
RTVSPropertyOp4
 70
     1
102
RTVSPropertyOp5
 70
     1
102
RTVSPropertyOp6
 70
     1
102
RTVSPropertyOp7
 70
     1
102
RTVSPropertyOp8
 70
     1
102
RTVSPropertyOp9
 70
     1
102
RTVSPropertyOp10
 70
     1
102
RTVSPropertyOp11
 70
     1
102
RTVSPropertyOp12
 70
     1
102
RTVSPropertyOp13
 70
     1
102
RTVSPropertyOp14
 70
     1
102
RTVSPropertyOp15
 70
     1
102
RTVSPropertyOp16
 70
     1
102
RTVSPropertyOp17
 70
     1
102
RTVSPropertyOp18
 70
     1
102
RTVSPropertyOp19
 70
     1
102
RTVSPropertyOp20
 70
     1
102
RTVSPropertyOp21
 70
     1
102
RTVSPropertyOp22
 70
     1
102
RTVSPropertyOp23
 70
     1
102
RTVSPropertyOp24
 70
     1
102
RTVSPropertyOp25
 70
     1
102
RTVSPropertyOp26
 70
     1
102
RTVSPropertyOp27
 70
     1
102
RTVSPropertyOp28
 70
     1
102
RTVSPropertyOp29
 70
     1
102
RTVSPropertyOp30
 70
     1
102
RTVSPropertyOp31
 70
     1
102
RTVSPropertyOp32
 70
     1
102
RTVSPropertyOp33
 70
     1
102
RTVSPropertyOp34
 70
     1
102
RTVSPropertyOp35
 70
     1
102
RTVSPropertyOp36
 70
     1
102
RTVSPropertyOp37
 70
     1
102
RTVSPropertyOp38
 70
     1
102
RTVSPropertyOp39
 70
     1
102
RTVSPropertyOp40
 70
     1
102
RTVSPropertyOp41
 70
     1
102
RTVSPropertyOp42
 70
     1
102
RTVSPropertyOp43
 70
     1
102
RTVSPropertyOp44
 70
     1
102
RTVSPropertyOp45
 70
     1
102
RTVSPropertyOp46
 70
     1
102
RTVSPropertyOp47
 70
     1
102
RTVSPropertyOp48
 70
     1
102
RTVSPropertyOp49
 70
     1
102
RTVSPropertyOp50
 70
     1
102
RTVSPropertyOp51
 70
     0
102
RTVSPropertyOp52
 70
     0
102
RTVSPropertyOp53
 70
     1
102
RTVSPropertyOp54
 70
     1
102
RTVSPropertyOp55
 70
     1
102
RTVSPropertyOp56
 70
     1
102
RTVSPropertyOp57
 70
     1
102
RTVSPropertyOp58
 70
     1
102
RTVSPropertyOp59
 70
     1
102
RTVSPropertyOp60
 70
     1
102
RTVSPropertyOp61
 70
     1
102
RTVSPropertyOp62
 70
     1
  0
XRECORD
  5
9109
102
{ACAD_REACTORS
330
9108
102
}
330
9108
100
AcDbXrecord
280
     1
102
RTVSPost2010Prop28
280
     0
102
RTVSPost2010PropOp28
 70
     1
102
RTVSPost2010Prop29
280
     1
102
RTVSPost2010PropOp29
 70
     1
102
RTVSPost2010Prop30
280
     1
102
RTVSPost2010PropOp30
 70
     1
102
RTVSPost2010Prop31
280
     0
102
RTVSPost2010PropOp31
 70
     1
102
RTVSPost2010Prop32
280
     0
102
RTVSPost2010PropOp32
 70
     1
102
RTVSPost2010Prop33
280
     0
102
RTVSPost2010PropOp33
 70
     1
102
RTVSPost2010Prop34
280
     0
102
RTVSPost2010PropOp34
 70
     1
102
RTVSPost2010Prop35
280
     0
102
RTVSPost2010PropOp35
 70
     1
102
RTVSPost2010Prop36
280
     0
102
RTVSPost2010PropOp36
 70
     1
102
RTVSPost2010Prop37
 90
       50
102
RTVSPost2010PropOp37
 70
     1
102
RTVSPost2010Prop38
140
0.0
102
RTVSPost2010PropOp38
 70
     1
102
RTVSPost2010Prop39
140
1.0
102
RTVSPost2010PropOp39
 70
     1
102
RTVSPost2010Prop40
 90
        0
102
RTVSPost2010PropOp40
 70
     1
102
RTVSPost2010Prop41ColorIndex
 90
       18
102
RTVSPost2010Prop41ColorRGB
 90
        0
102
RTVSPost2010PropOp41
 70
     1
102
RTVSPost2010Prop42
 90
       50
102
RTVSPost2010PropOp42
 70
     1
102
RTVSPost2010Prop43
 90
        3
102
RTVSPost2010PropOp43
 70
     1
102
RTVSPost2010Prop44ColorIndex
 90
        5
102
RTVSPost2010Prop44ColorRGB
 90
      255
102
RTVSPost2010PropOp44
 70
     1
102
RTVSPost2010Prop45
280
     0
102
RTVSPost2010PropOp45
 70
     1
102
RTVSPost2010Prop46
 90
       50
102
RTVSPost2010PropOp46
 70
     1
102
RTVSPost2010Prop47
 90
       50
102
RTVSPost2010PropOp47
 70
     1
102
RTVSPost2010Prop48
 90
       50
102
RTVSPost2010PropOp48
 70
     1
102
RTVSPost2010Prop49
280
     0
102
RTVSPost2010PropOp49
 70
     1
102
RTVSPost2010Prop50
 90
       50
102
RTVSPost2010PropOp50
 70
     1
102
RTVSPost2010Prop51ColorIndex
 90
      256
102
RTVSPost2010Prop51ColorRGB
 90
-16777216
102
RTVSPost2010PropOp51
 70
     0
102
RTVSPost2010Prop52
140
1.0
102
RTVSPost2010PropOp52
 70
     0
102
RTVSPost2010Prop53
 90
        2
102
RTVSPost2010PropOp53
 70
     1
102
RTVSPost2010Prop54
  1
strokes_ogs.tif
102
RTVSPost2010PropOp54
 70
     1
102
RTVSPost2010Prop55
280
     0
102
RTVSPost2010PropOp55
 70
     1
102
RTVSPost2010Prop56
140
1.0
102
RTVSPost2010PropOp56
 70
     1
102
RTVSPost2010Prop57
140
1.0
102
RTVSPost2010PropOp57
 70
     1
102
RTVSPropertyOp0
 70
     1
102
RTVSPropertyOp1
 70
     1
102
RTVSPropertyOp2
 70
     1
102
RTVSPropertyOp3
 70
     1
102
RTVSPropertyOp4
 70
     1
102
RTVSPropertyOp5
 70
     1
102
RTVSPropertyOp6
 70
     1
102
RTVSPropertyOp7
 70
     1
102
RTVSPropertyOp8
 70
     1
102
RTVSPropertyOp9
 70
     1
102
RTVSPropertyOp10
 70
     1
102
RTVSPropertyOp11
 70
     1
102
RTVSPropertyOp12
 70
     1
102
RTVSPropertyOp13
 70
     1
102
RTVSPropertyOp14
 70
     1
102
RTVSPropertyOp15
 70
     1
102
RTVSPropertyOp16
 70
     1
102
RTVSPropertyOp17
 70
     1
102
RTVSPropertyOp18
 70
     1
102
RTVSPropertyOp19
 70
     1
102
RTVSPropertyOp20
 70
     1
102
RTVSPropertyOp21
 70
     1
102
RTVSPropertyOp22
 70
     1
102
RTVSPropertyOp23
 70
     1
102
RTVSPropertyOp24
 70
     1
102
RTVSPropertyOp25
 70
     1
102
RTVSPropertyOp26
 70
     1
102
RTVSPropertyOp27
 70
     1
102
RTVSPropertyOp28
 70
     1
102
RTVSPropertyOp29
 70
     1
102
RTVSPropertyOp30
 70
     1
102
RTVSPropertyOp31
 70
     1
102
RTVSPropertyOp32
 70
     1
102
RTVSPropertyOp33
 70
     1
102
RTVSPropertyOp34
 70
     1
102
RTVSPropertyOp35
 70
     1
102
RTVSPropertyOp36
 70
     1
102
RTVSPropertyOp37
 70
     1
102
RTVSPropertyOp38
 70
     1
102
RTVSPropertyOp39
 70
     1
102
RTVSPropertyOp40
 70
     1
102
RTVSPropertyOp41
 70
     1
102
RTVSPropertyOp42
 70
     1
102
RTVSPropertyOp43
 70
     1
102
RTVSPropertyOp44
 70
     1
102
RTVSPropertyOp45
 70
     1
102
RTVSPropertyOp46
 70
     1
102
RTVSPropertyOp47
 70
     1
102
RTVSPropertyOp48
 70
     1
102
RTVSPropertyOp49
 70
     1
102
RTVSPropertyOp50
 70
     1
102
RTVSPropertyOp51
 70
     0
102
RTVSPropertyOp52
 70
     0
102
RTVSPropertyOp53
 70
     1
102
RTVSPropertyOp54
 70
     1
102
RTVSPropertyOp55
 70
     1
102
RTVSPropertyOp56
 70
     1
102
RTVSPropertyOp57
 70
     1
102
RTVSPropertyOp58
 70
     1
102
RTVSPropertyOp59
 70
     1
102
RTVSPropertyOp60
 70
     1
102
RTVSPropertyOp61
 70
     1
102
RTVSPropertyOp62
 70
     1
  0
XRECORD
  5
9117
102
{ACAD_REACTORS
330
9116
102
}
330
9116
100
AcDbXrecord
280
     1
102
RTVSPost2010Prop28
280
     0
102
RTVSPost2010PropOp28
 70
     1
102
RTVSPost2010Prop29
280
     1
102
RTVSPost2010PropOp29
 70
     1
102
RTVSPost2010Prop30
280
     1
102
RTVSPost2010PropOp30
 70
     1
102
RTVSPost2010Prop31
280
     0
102
RTVSPost2010PropOp31
 70
     1
102
RTVSPost2010Prop32
280
     0
102
RTVSPost2010PropOp32
 70
     1
102
RTVSPost2010Prop33
280
     0
102
RTVSPost2010PropOp33
 70
     1
102
RTVSPost2010Prop34
280
     0
102
RTVSPost2010PropOp34
 70
     1
102
RTVSPost2010Prop35
280
     0
102
RTVSPost2010PropOp35
 70
     1
102
RTVSPost2010Prop36
280
     0
102
RTVSPost2010PropOp36
 70
     1
102
RTVSPost2010Prop37
 90
       50
102
RTVSPost2010PropOp37
 70
     1
102
RTVSPost2010Prop38
140
0.0
102
RTVSPost2010PropOp38
 70
     1
102
RTVSPost2010Prop39
140
1.0
102
RTVSPost2010PropOp39
 70
     1
102
RTVSPost2010Prop40
 90
        0
102
RTVSPost2010PropOp40
 70
     1
102
RTVSPost2010Prop41ColorIndex
 90
       18
102
RTVSPost2010Prop41ColorRGB
 90
        0
102
RTVSPost2010PropOp41
 70
     1
102
RTVSPost2010Prop42
 90
       50
102
RTVSPost2010PropOp42
 70
     1
102
RTVSPost2010Prop43
 90
        3
102
RTVSPost2010PropOp43
 70
     1
102
RTVSPost2010Prop44ColorIndex
 90
        5
102
RTVSPost2010Prop44ColorRGB
 90
      255
102
RTVSPost2010PropOp44
 70
     1
102
RTVSPost2010Prop45
280
     0
102
RTVSPost2010PropOp45
 70
     1
102
RTVSPost2010Prop46
 90
       50
102
RTVSPost2010PropOp46
 70
     1
102
RTVSPost2010Prop47
 90
       50
102
RTVSPost2010PropOp47
 70
     1
102
RTVSPost2010Prop48
 90
       50
102
RTVSPost2010PropOp48
 70
     1
102
RTVSPost2010Prop49
280
     0
102
RTVSPost2010PropOp49
 70
     1
102
RTVSPost2010Prop50
 90
       50
102
RTVSPost2010PropOp50
 70
     1
102
RTVSPost2010Prop51ColorIndex
 90
      256
102
RTVSPost2010Prop51ColorRGB
 90
-16777216
102
RTVSPost2010PropOp51
 70
     0
102
RTVSPost2010Prop52
140
1.0
102
RTVSPost2010PropOp52
 70
     0
102
RTVSPost2010Prop53
 90
        2
102
RTVSPost2010PropOp53
 70
     1
102
RTVSPost2010Prop54
  1
strokes_ogs.tif
102
RTVSPost2010PropOp54
 70
     1
102
RTVSPost2010Prop55
280
     0
102
RTVSPost2010PropOp55
 70
     1
102
RTVSPost2010Prop56
140
1.0
102
RTVSPost2010PropOp56
 70
     1
102
RTVSPost2010Prop57
140
1.0
102
RTVSPost2010PropOp57
 70
     1
102
RTVSPropertyOp0
 70
     1
102
RTVSPropertyOp1
 70
     1
102
RTVSPropertyOp2
 70
     1
102
RTVSPropertyOp3
 70
     1
102
RTVSPropertyOp4
 70
     1
102
RTVSPropertyOp5
 70
     1
102
RTVSPropertyOp6
 70
     1
102
RTVSPropertyOp7
 70
     1
102
RTVSPropertyOp8
 70
     1
102
RTVSPropertyOp9
 70
     1
102
RTVSPropertyOp10
 70
     1
102
RTVSPropertyOp11
 70
     1
102
RTVSPropertyOp12
 70
     1
102
RTVSPropertyOp13
 70
     1
102
RTVSPropertyOp14
 70
     1
102
RTVSPropertyOp15
 70
     1
102
RTVSPropertyOp16
 70
     1
102
RTVSPropertyOp17
 70
     1
102
RTVSPropertyOp18
 70
     1
102
RTVSPropertyOp19
 70
     1
102
RTVSPropertyOp20
 70
     1
102
RTVSPropertyOp21
 70
     1
102
RTVSPropertyOp22
 70
     1
102
RTVSPropertyOp23
 70
     1
102
RTVSPropertyOp24
 70
     1
102
RTVSPropertyOp25
 70
     1
102
RTVSPropertyOp26
 70
     1
102
RTVSPropertyOp27
 70
     1
102
RTVSPropertyOp28
 70
     1
102
RTVSPropertyOp29
 70
     1
102
RTVSPropertyOp30
 70
     1
102
RTVSPropertyOp31
 70
     1
102
RTVSPropertyOp32
 70
     1
102
RTVSPropertyOp33
 70
     1
102
RTVSPropertyOp34
 70
     1
102
RTVSPropertyOp35
 70
     1
102
RTVSPropertyOp36
 70
     1
102
RTVSPropertyOp37
 70
     1
102
RTVSPropertyOp38
 70
     1
102
RTVSPropertyOp39
 70
     1
102
RTVSPropertyOp40
 70
     1
102
RTVSPropertyOp41
 70
     1
102
RTVSPropertyOp42
 70
     1
102
RTVSPropertyOp43
 70
     1
102
RTVSPropertyOp44
 70
     1
102
RTVSPropertyOp45
 70
     1
102
RTVSPropertyOp46
 70
     1
102
RTVSPropertyOp47
 70
     1
102
RTVSPropertyOp48
 70
     1
102
RTVSPropertyOp49
 70
     1
102
RTVSPropertyOp50
 70
     1
102
RTVSPropertyOp51
 70
     0
102
RTVSPropertyOp52
 70
     0
102
RTVSPropertyOp53
 70
     1
102
RTVSPropertyOp54
 70
     1
102
RTVSPropertyOp55
 70
     1
102
RTVSPropertyOp56
 70
     1
102
RTVSPropertyOp57
 70
     1
102
RTVSPropertyOp58
 70
     1
102
RTVSPropertyOp59
 70
     1
102
RTVSPropertyOp60
 70
     1
102
RTVSPropertyOp61
 70
     1
102
RTVSPropertyOp62
 70
     1
  0
XRECORD
  5
911F
102
{ACAD_REACTORS
330
911E
102
}
330
911E
100
AcDbXrecord
280
     1
102
RTVSPost2010Prop28
280
     0
102
RTVSPost2010PropOp28
 70
     1
102
RTVSPost2010Prop29
280
     1
102
RTVSPost2010PropOp29
 70
     1
102
RTVSPost2010Prop30
280
     1
102
RTVSPost2010PropOp30
 70
     1
102
RTVSPost2010Prop31
280
     0
102
RTVSPost2010PropOp31
 70
     1
102
RTVSPost2010Prop32
280
     0
102
RTVSPost2010PropOp32
 70
     1
102
RTVSPost2010Prop33
280
     0
102
RTVSPost2010PropOp33
 70
     1
102
RTVSPost2010Prop34
280
     0
102
RTVSPost2010PropOp34
 70
     1
102
RTVSPost2010Prop35
280
     0
102
RTVSPost2010PropOp35
 70
     1
102
RTVSPost2010Prop36
280
     0
102
RTVSPost2010PropOp36
 70
     1
102
RTVSPost2010Prop37
 90
       50
102
RTVSPost2010PropOp37
 70
     1
102
RTVSPost2010Prop38
140
0.0
102
RTVSPost2010PropOp38
 70
     1
102
RTVSPost2010Prop39
140
1.0
102
RTVSPost2010PropOp39
 70
     1
102
RTVSPost2010Prop40
 90
        0
102
RTVSPost2010PropOp40
 70
     1
102
RTVSPost2010Prop41ColorIndex
 90
       18
102
RTVSPost2010Prop41ColorRGB
 90
        0
102
RTVSPost2010PropOp41
 70
     1
102
RTVSPost2010Prop42
 90
       50
102
RTVSPost2010PropOp42
 70
     1
102
RTVSPost2010Prop43
 90
        3
102
RTVSPost2010PropOp43
 70
     1
102
RTVSPost2010Prop44ColorIndex
 90
        5
102
RTVSPost2010Prop44ColorRGB
 90
      255
102
RTVSPost2010PropOp44
 70
     1
102
RTVSPost2010Prop45
280
     0
102
RTVSPost2010PropOp45
 70
     1
102
RTVSPost2010Prop46
 90
       50
102
RTVSPost2010PropOp46
 70
     1
102
RTVSPost2010Prop47
 90
       50
102
RTVSPost2010PropOp47
 70
     1
102
RTVSPost2010Prop48
 90
       50
102
RTVSPost2010PropOp48
 70
     1
102
RTVSPost2010Prop49
280
     0
102
RTVSPost2010PropOp49
 70
     1
102
RTVSPost2010Prop50
 90
       50
102
RTVSPost2010PropOp50
 70
     1
102
RTVSPost2010Prop51ColorIndex
 90
      256
102
RTVSPost2010Prop51ColorRGB
 90
-16777216
102
RTVSPost2010PropOp51
 70
     0
102
RTVSPost2010Prop52
140
1.0
102
RTVSPost2010PropOp52
 70
     0
102
RTVSPost2010Prop53
 90
        2
102
RTVSPost2010PropOp53
 70
     1
102
RTVSPost2010Prop54
  1
strokes_ogs.tif
102
RTVSPost2010PropOp54
 70
     1
102
RTVSPost2010Prop55
280
     0
102
RTVSPost2010PropOp55
 70
     1
102
RTVSPost2010Prop56
140
1.0
102
RTVSPost2010PropOp56
 70
     1
102
RTVSPost2010Prop57
140
1.0
102
RTVSPost2010PropOp57
 70
     1
102
RTVSPropertyOp0
 70
     1
102
RTVSPropertyOp1
 70
     1
102
RTVSPropertyOp2
 70
     1
102
RTVSPropertyOp3
 70
     1
102
RTVSPropertyOp4
 70
     1
102
RTVSPropertyOp5
 70
     1
102
RTVSPropertyOp6
 70
     1
102
RTVSPropertyOp7
 70
     1
102
RTVSPropertyOp8
 70
     1
102
RTVSPropertyOp9
 70
     1
102
RTVSPropertyOp10
 70
     1
102
RTVSPropertyOp11
 70
     1
102
RTVSPropertyOp12
 70
     1
102
RTVSPropertyOp13
 70
     1
102
RTVSPropertyOp14
 70
     1
102
RTVSPropertyOp15
 70
     1
102
RTVSPropertyOp16
 70
     1
102
RTVSPropertyOp17
 70
     1
102
RTVSPropertyOp18
 70
     1
102
RTVSPropertyOp19
 70
     1
102
RTVSPropertyOp20
 70
     1
102
RTVSPropertyOp21
 70
     1
102
RTVSPropertyOp22
 70
     1
102
RTVSPropertyOp23
 70
     1
102
RTVSPropertyOp24
 70
     1
102
RTVSPropertyOp25
 70
     1
102
RTVSPropertyOp26
 70
     1
102
RTVSPropertyOp27
 70
     1
102
RTVSPropertyOp28
 70
     1
102
RTVSPropertyOp29
 70
     1
102
RTVSPropertyOp30
 70
     1
102
RTVSPropertyOp31
 70
     1
102
RTVSPropertyOp32
 70
     1
102
RTVSPropertyOp33
 70
     1
102
RTVSPropertyOp34
 70
     1
102
RTVSPropertyOp35
 70
     1
102
RTVSPropertyOp36
 70
     1
102
RTVSPropertyOp37
 70
     1
102
RTVSPropertyOp38
 70
     1
102
RTVSPropertyOp39
 70
     1
102
RTVSPropertyOp40
 70
     1
102
RTVSPropertyOp41
 70
     1
102
RTVSPropertyOp42
 70
     1
102
RTVSPropertyOp43
 70
     1
102
RTVSPropertyOp44
 70
     1
102
RTVSPropertyOp45
 70
     1
102
RTVSPropertyOp46
 70
     1
102
RTVSPropertyOp47
 70
     1
102
RTVSPropertyOp48
 70
     1
102
RTVSPropertyOp49
 70
     1
102
RTVSPropertyOp50
 70
     1
102
RTVSPropertyOp51
 70
     0
102
RTVSPropertyOp52
 70
     0
102
RTVSPropertyOp53
 70
     1
102
RTVSPropertyOp54
 70
     1
102
RTVSPropertyOp55
 70
     1
102
RTVSPropertyOp56
 70
     1
102
RTVSPropertyOp57
 70
     1
102
RTVSPropertyOp58
 70
     1
102
RTVSPropertyOp59
 70
     1
102
RTVSPropertyOp60
 70
     1
102
RTVSPropertyOp61
 70
     1
102
RTVSPropertyOp62
 70
     1
  0
XRECORD
  5
9111
102
{ACAD_REACTORS
330
9110
102
}
330
9110
100
AcDbXrecord
280
     1
102
RTVSPost2010Prop28
280
     0
102
RTVSPost2010PropOp28
 70
     1
102
RTVSPost2010Prop29
280
     1
102
RTVSPost2010PropOp29
 70
     1
102
RTVSPost2010Prop30
280
     1
102
RTVSPost2010PropOp30
 70
     1
102
RTVSPost2010Prop31
280
     0
102
RTVSPost2010PropOp31
 70
     1
102
RTVSPost2010Prop32
280
     0
102
RTVSPost2010PropOp32
 70
     1
102
RTVSPost2010Prop33
280
     0
102
RTVSPost2010PropOp33
 70
     1
102
RTVSPost2010Prop34
280
     0
102
RTVSPost2010PropOp34
 70
     1
102
RTVSPost2010Prop35
280
     0
102
RTVSPost2010PropOp35
 70
     1
102
RTVSPost2010Prop36
280
     0
102
RTVSPost2010PropOp36
 70
     1
102
RTVSPost2010Prop37
 90
       50
102
RTVSPost2010PropOp37
 70
     1
102
RTVSPost2010Prop38
140
0.0
102
RTVSPost2010PropOp38
 70
     1
102
RTVSPost2010Prop39
140
1.0
102
RTVSPost2010PropOp39
 70
     1
102
RTVSPost2010Prop40
 90
        0
102
RTVSPost2010PropOp40
 70
     1
102
RTVSPost2010Prop41ColorIndex
 90
       18
102
RTVSPost2010Prop41ColorRGB
 90
        0
102
RTVSPost2010PropOp41
 70
     1
102
RTVSPost2010Prop42
 90
       50
102
RTVSPost2010PropOp42
 70
     1
102
RTVSPost2010Prop43
 90
        3
102
RTVSPost2010PropOp43
 70
     1
102
RTVSPost2010Prop44ColorIndex
 90
        5
102
RTVSPost2010Prop44ColorRGB
 90
      255
102
RTVSPost2010PropOp44
 70
     1
102
RTVSPost2010Prop45
280
     0
102
RTVSPost2010PropOp45
 70
     1
102
RTVSPost2010Prop46
 90
       50
102
RTVSPost2010PropOp46
 70
     1
102
RTVSPost2010Prop47
 90
       50
102
RTVSPost2010PropOp47
 70
     1
102
RTVSPost2010Prop48
 90
       50
102
RTVSPost2010PropOp48
 70
     1
102
RTVSPost2010Prop49
280
     0
102
RTVSPost2010PropOp49
 70
     1
102
RTVSPost2010Prop50
 90
       50
102
RTVSPost2010PropOp50
 70
     1
102
RTVSPost2010Prop51ColorIndex
 90
      256
102
RTVSPost2010Prop51ColorRGB
 90
-16777216
102
RTVSPost2010PropOp51
 70
     0
102
RTVSPost2010Prop52
140
1.0
102
RTVSPost2010PropOp52
 70
     0
102
RTVSPost2010Prop53
 90
        2
102
RTVSPost2010PropOp53
 70
     1
102
RTVSPost2010Prop54
  1
strokes_ogs.tif
102
RTVSPost2010PropOp54
 70
     1
102
RTVSPost2010Prop55
280
     0
102
RTVSPost2010PropOp55
 70
     1
102
RTVSPost2010Prop56
140
1.0
102
RTVSPost2010PropOp56
 70
     1
102
RTVSPost2010Prop57
140
1.0
102
RTVSPost2010PropOp57
 70
     1
102
RTVSPropertyOp0
 70
     1
102
RTVSPropertyOp1
 70
     1
102
RTVSPropertyOp2
 70
     1
102
RTVSPropertyOp3
 70
     1
102
RTVSPropertyOp4
 70
     1
102
RTVSPropertyOp5
 70
     1
102
RTVSPropertyOp6
 70
     1
102
RTVSPropertyOp7
 70
     1
102
RTVSPropertyOp8
 70
     1
102
RTVSPropertyOp9
 70
     1
102
RTVSPropertyOp10
 70
     1
102
RTVSPropertyOp11
 70
     1
102
RTVSPropertyOp12
 70
     1
102
RTVSPropertyOp13
 70
     1
102
RTVSPropertyOp14
 70
     1
102
RTVSPropertyOp15
 70
     1
102
RTVSPropertyOp16
 70
     1
102
RTVSPropertyOp17
 70
     1
102
RTVSPropertyOp18
 70
     1
102
RTVSPropertyOp19
 70
     1
102
RTVSPropertyOp20
 70
     1
102
RTVSPropertyOp21
 70
     1
102
RTVSPropertyOp22
 70
     1
102
RTVSPropertyOp23
 70
     1
102
RTVSPropertyOp24
 70
     1
102
RTVSPropertyOp25
 70
     1
102
RTVSPropertyOp26
 70
     1
102
RTVSPropertyOp27
 70
     1
102
RTVSPropertyOp28
 70
     1
102
RTVSPropertyOp29
 70
     1
102
RTVSPropertyOp30
 70
     1
102
RTVSPropertyOp31
 70
     1
102
RTVSPropertyOp32
 70
     1
102
RTVSPropertyOp33
 70
     1
102
RTVSPropertyOp34
 70
     1
102
RTVSPropertyOp35
 70
     1
102
RTVSPropertyOp36
 70
     1
102
RTVSPropertyOp37
 70
     1
102
RTVSPropertyOp38
 70
     1
102
RTVSPropertyOp39
 70
     1
102
RTVSPropertyOp40
 70
     1
102
RTVSPropertyOp41
 70
     1
102
RTVSPropertyOp42
 70
     1
102
RTVSPropertyOp43
 70
     1
102
RTVSPropertyOp44
 70
     1
102
RTVSPropertyOp45
 70
     1
102
RTVSPropertyOp46
 70
     1
102
RTVSPropertyOp47
 70
     1
102
RTVSPropertyOp48
 70
     1
102
RTVSPropertyOp49
 70
     1
102
RTVSPropertyOp50
 70
     1
102
RTVSPropertyOp51
 70
     0
102
RTVSPropertyOp52
 70
     0
102
RTVSPropertyOp53
 70
     1
102
RTVSPropertyOp54
 70
     1
102
RTVSPropertyOp55
 70
     1
102
RTVSPropertyOp56
 70
     1
102
RTVSPropertyOp57
 70
     1
102
RTVSPropertyOp58
 70
     1
102
RTVSPropertyOp59
 70
     1
102
RTVSPropertyOp60
 70
     1
102
RTVSPropertyOp61
 70
     1
102
RTVSPropertyOp62
 70
     1
  0
XRECORD
  5
9115
102
{ACAD_REACTORS
330
9114
102
}
330
9114
100
AcDbXrecord
280
     1
102
RTVSPost2010Prop28
280
     0
102
RTVSPost2010PropOp28
 70
     1
102
RTVSPost2010Prop29
280
     1
102
RTVSPost2010PropOp29
 70
     1
102
RTVSPost2010Prop30
280
     1
102
RTVSPost2010PropOp30
 70
     1
102
RTVSPost2010Prop31
280
     0
102
RTVSPost2010PropOp31
 70
     1
102
RTVSPost2010Prop32
280
     0
102
RTVSPost2010PropOp32
 70
     1
102
RTVSPost2010Prop33
280
     0
102
RTVSPost2010PropOp33
 70
     1
102
RTVSPost2010Prop34
280
     0
102
RTVSPost2010PropOp34
 70
     1
102
RTVSPost2010Prop35
280
     0
102
RTVSPost2010PropOp35
 70
     1
102
RTVSPost2010Prop36
280
     0
102
RTVSPost2010PropOp36
 70
     1
102
RTVSPost2010Prop37
 90
       50
102
RTVSPost2010PropOp37
 70
     1
102
RTVSPost2010Prop38
140
0.0
102
RTVSPost2010PropOp38
 70
     1
102
RTVSPost2010Prop39
140
1.0
102
RTVSPost2010PropOp39
 70
     1
102
RTVSPost2010Prop40
 90
        0
102
RTVSPost2010PropOp40
 70
     1
102
RTVSPost2010Prop41ColorIndex
 90
       18
102
RTVSPost2010Prop41ColorRGB
 90
        0
102
RTVSPost2010PropOp41
 70
     1
102
RTVSPost2010Prop42
 90
       50
102
RTVSPost2010PropOp42
 70
     1
102
RTVSPost2010Prop43
 90
        3
102
RTVSPost2010PropOp43
 70
     1
102
RTVSPost2010Prop44ColorIndex
 90
        5
102
RTVSPost2010Prop44ColorRGB
 90
      255
102
RTVSPost2010PropOp44
 70
     1
102
RTVSPost2010Prop45
280
     0
102
RTVSPost2010PropOp45
 70
     1
102
RTVSPost2010Prop46
 90
       50
102
RTVSPost2010PropOp46
 70
     1
102
RTVSPost2010Prop47
 90
       50
102
RTVSPost2010PropOp47
 70
     1
102
RTVSPost2010Prop48
 90
       50
102
RTVSPost2010PropOp48
 70
     1
102
RTVSPost2010Prop49
280
     0
102
RTVSPost2010PropOp49
 70
     1
102
RTVSPost2010Prop50
 90
       50
102
RTVSPost2010PropOp50
 70
     1
102
RTVSPost2010Prop51ColorIndex
 90
      256
102
RTVSPost2010Prop51ColorRGB
 90
-16777216
102
RTVSPost2010PropOp51
 70
     0
102
RTVSPost2010Prop52
140
1.0
102
RTVSPost2010PropOp52
 70
     0
102
RTVSPost2010Prop53
 90
        2
102
RTVSPost2010PropOp53
 70
     1
102
RTVSPost2010Prop54
  1
strokes_ogs.tif
102
RTVSPost2010PropOp54
 70
     1
102
RTVSPost2010Prop55
280
     0
102
RTVSPost2010PropOp55
 70
     1
102
RTVSPost2010Prop56
140
1.0
102
RTVSPost2010PropOp56
 70
     1
102
RTVSPost2010Prop57
140
1.0
102
RTVSPost2010PropOp57
 70
     1
102
RTVSPropertyOp0
 70
     1
102
RTVSPropertyOp1
 70
     1
102
RTVSPropertyOp2
 70
     1
102
RTVSPropertyOp3
 70
     1
102
RTVSPropertyOp4
 70
     1
102
RTVSPropertyOp5
 70
     1
102
RTVSPropertyOp6
 70
     1
102
RTVSPropertyOp7
 70
     1
102
RTVSPropertyOp8
 70
     1
102
RTVSPropertyOp9
 70
     1
102
RTVSPropertyOp10
 70
     1
102
RTVSPropertyOp11
 70
     1
102
RTVSPropertyOp12
 70
     1
102
RTVSPropertyOp13
 70
     1
102
RTVSPropertyOp14
 70
     1
102
RTVSPropertyOp15
 70
     1
102
RTVSPropertyOp16
 70
     1
102
RTVSPropertyOp17
 70
     1
102
RTVSPropertyOp18
 70
     1
102
RTVSPropertyOp19
 70
     1
102
RTVSPropertyOp20
 70
     1
102
RTVSPropertyOp21
 70
     1
102
RTVSPropertyOp22
 70
     1
102
RTVSPropertyOp23
 70
     1
102
RTVSPropertyOp24
 70
     1
102
RTVSPropertyOp25
 70
     1
102
RTVSPropertyOp26
 70
     1
102
RTVSPropertyOp27
 70
     1
102
RTVSPropertyOp28
 70
     1
102
RTVSPropertyOp29
 70
     1
102
RTVSPropertyOp30
 70
     1
102
RTVSPropertyOp31
 70
     1
102
RTVSPropertyOp32
 70
     1
102
RTVSPropertyOp33
 70
     1
102
RTVSPropertyOp34
 70
     1
102
RTVSPropertyOp35
 70
     1
102
RTVSPropertyOp36
 70
     1
102
RTVSPropertyOp37
 70
     1
102
RTVSPropertyOp38
 70
     1
102
RTVSPropertyOp39
 70
     1
102
RTVSPropertyOp40
 70
     1
102
RTVSPropertyOp41
 70
     1
102
RTVSPropertyOp42
 70
     1
102
RTVSPropertyOp43
 70
     1
102
RTVSPropertyOp44
 70
     1
102
RTVSPropertyOp45
 70
     1
102
RTVSPropertyOp46
 70
     1
102
RTVSPropertyOp47
 70
     1
102
RTVSPropertyOp48
 70
     1
102
RTVSPropertyOp49
 70
     1
102
RTVSPropertyOp50
 70
     1
102
RTVSPropertyOp51
 70
     0
102
RTVSPropertyOp52
 70
     0
102
RTVSPropertyOp53
 70
     1
102
RTVSPropertyOp54
 70
     1
102
RTVSPropertyOp55
 70
     1
102
RTVSPropertyOp56
 70
     1
102
RTVSPropertyOp57
 70
     1
102
RTVSPropertyOp58
 70
     1
102
RTVSPropertyOp59
 70
     1
102
RTVSPropertyOp60
 70
     1
102
RTVSPropertyOp61
 70
     1
102
RTVSPropertyOp62
 70
     1
  0
XRECORD
  5
9127
102
{ACAD_REACTORS
330
9126
102
}
330
9126
100
AcDbXrecord
280
     1
102
RTVSPost2010Prop28
280
     0
102
RTVSPost2010PropOp28
 70
     1
102
RTVSPost2010Prop29
280
     1
102
RTVSPost2010PropOp29
 70
     1
102
RTVSPost2010Prop30
280
     1
102
RTVSPost2010PropOp30
 70
     1
102
RTVSPost2010Prop31
280
     0
102
RTVSPost2010PropOp31
 70
     1
102
RTVSPost2010Prop32
280
     0
102
RTVSPost2010PropOp32
 70
     1
102
RTVSPost2010Prop33
280
     0
102
RTVSPost2010PropOp33
 70
     1
102
RTVSPost2010Prop34
280
     0
102
RTVSPost2010PropOp34
 70
     1
102
RTVSPost2010Prop35
280
     0
102
RTVSPost2010PropOp35
 70
     1
102
RTVSPost2010Prop36
280
     0
102
RTVSPost2010PropOp36
 70
     1
102
RTVSPost2010Prop37
 90
       50
102
RTVSPost2010PropOp37
 70
     1
102
RTVSPost2010Prop38
140
0.0
102
RTVSPost2010PropOp38
 70
     1
102
RTVSPost2010Prop39
140
1.0
102
RTVSPost2010PropOp39
 70
     1
102
RTVSPost2010Prop40
 90
        0
102
RTVSPost2010PropOp40
 70
     1
102
RTVSPost2010Prop41ColorIndex
 90
       18
102
RTVSPost2010Prop41ColorRGB
 90
        0
102
RTVSPost2010PropOp41
 70
     1
102
RTVSPost2010Prop42
 90
       50
102
RTVSPost2010PropOp42
 70
     1
102
RTVSPost2010Prop43
 90
        3
102
RTVSPost2010PropOp43
 70
     1
102
RTVSPost2010Prop44ColorIndex
 90
        5
102
RTVSPost2010Prop44ColorRGB
 90
      255
102
RTVSPost2010PropOp44
 70
     1
102
RTVSPost2010Prop45
280
     0
102
RTVSPost2010PropOp45
 70
     1
102
RTVSPost2010Prop46
 90
       50
102
RTVSPost2010PropOp46
 70
     1
102
RTVSPost2010Prop47
 90
       50
102
RTVSPost2010PropOp47
 70
     1
102
RTVSPost2010Prop48
 90
       50
102
RTVSPost2010PropOp48
 70
     1
102
RTVSPost2010Prop49
280
     0
102
RTVSPost2010PropOp49
 70
     1
102
RTVSPost2010Prop50
 90
       50
102
RTVSPost2010PropOp50
 70
     1
102
RTVSPost2010Prop51ColorIndex
 90
      256
102
RTVSPost2010Prop51ColorRGB
 90
-16777216
102
RTVSPost2010PropOp51
 70
     0
102
RTVSPost2010Prop52
140
1.0
102
RTVSPost2010PropOp52
 70
     0
102
RTVSPost2010Prop53
 90
        2
102
RTVSPost2010PropOp53
 70
     1
102
RTVSPost2010Prop54
  1
strokes_ogs.tif
102
RTVSPost2010PropOp54
 70
     1
102
RTVSPost2010Prop55
280
     0
102
RTVSPost2010PropOp55
 70
     1
102
RTVSPost2010Prop56
140
1.0
102
RTVSPost2010PropOp56
 70
     1
102
RTVSPost2010Prop57
140
1.0
102
RTVSPost2010PropOp57
 70
     1
102
RTVSPropertyOp0
 70
     0
102
RTVSPropertyOp1
 70
     0
102
RTVSPropertyOp2
 70
     0
102
RTVSPropertyOp3
 70
     0
102
RTVSPropertyOp4
 70
     0
102
RTVSPropertyOp5
 70
     0
102
RTVSPropertyOp6
 70
     0
102
RTVSPropertyOp7
 70
     0
102
RTVSPropertyOp8
 70
     0
102
RTVSPropertyOp9
 70
     0
102
RTVSPropertyOp10
 70
     0
102
RTVSPropertyOp11
 70
     0
102
RTVSPropertyOp12
 70
     0
102
RTVSPropertyOp13
 70
     0
102
RTVSPropertyOp14
 70
     2
102
RTVSPropertyOp15
 70
     0
102
RTVSPropertyOp16
 70
     0
102
RTVSPropertyOp17
 70
     0
102
RTVSPropertyOp18
 70
     0
102
RTVSPropertyOp19
 70
     0
102
RTVSPropertyOp20
 70
     0
102
RTVSPropertyOp21
 70
     0
102
RTVSPropertyOp22
 70
     0
102
RTVSPropertyOp23
 70
     0
102
RTVSPropertyOp24
 70
     0
102
RTVSPropertyOp25
 70
     0
102
RTVSPropertyOp26
 70
     0
102
RTVSPropertyOp27
 70
     0
102
RTVSPropertyOp28
 70
     1
102
RTVSPropertyOp29
 70
     1
102
RTVSPropertyOp30
 70
     1
102
RTVSPropertyOp31
 70
     1
102
RTVSPropertyOp32
 70
     1
102
RTVSPropertyOp33
 70
     1
102
RTVSPropertyOp34
 70
     1
102
RTVSPropertyOp35
 70
     1
102
RTVSPropertyOp36
 70
     1
102
RTVSPropertyOp37
 70
     1
102
RTVSPropertyOp38
 70
     1
102
RTVSPropertyOp39
 70
     1
102
RTVSPropertyOp40
 70
     1
102
RTVSPropertyOp41
 70
     1
102
RTVSPropertyOp42
 70
     1
102
RTVSPropertyOp43
 70
     1
102
RTVSPropertyOp44
 70
     1
102
RTVSPropertyOp45
 70
     1
102
RTVSPropertyOp46
 70
     1
102
RTVSPropertyOp47
 70
     1
102
RTVSPropertyOp48
 70
     1
102
RTVSPropertyOp49
 70
     1
102
RTVSPropertyOp50
 70
     1
102
RTVSPropertyOp51
 70
     0
102
RTVSPropertyOp52
 70
     0
102
RTVSPropertyOp53
 70
     1
102
RTVSPropertyOp54
 70
     1
102
RTVSPropertyOp55
 70
     1
102
RTVSPropertyOp56
 70
     1
102
RTVSPropertyOp57
 70
     1
102
RTVSPropertyOp58
 70
     1
102
RTVSPropertyOp59
 70
     1
102
RTVSPropertyOp60
 70
     1
102
RTVSPropertyOp61
 70
     1
102
RTVSPropertyOp62
 70
     1
  0
XRECORD
  5
911D
102
{ACAD_REACTORS
330
911C
102
}
330
911C
100
AcDbXrecord
280
     1
102
RTVSPost2010Prop28
280
     0
102
RTVSPost2010PropOp28
 70
     1
102
RTVSPost2010Prop29
280
     1
102
RTVSPost2010PropOp29
 70
     1
102
RTVSPost2010Prop30
280
     1
102
RTVSPost2010PropOp30
 70
     1
102
RTVSPost2010Prop31
280
     0
102
RTVSPost2010PropOp31
 70
     1
102
RTVSPost2010Prop32
280
     0
102
RTVSPost2010PropOp32
 70
     1
102
RTVSPost2010Prop33
280
     0
102
RTVSPost2010PropOp33
 70
     1
102
RTVSPost2010Prop34
280
     0
102
RTVSPost2010PropOp34
 70
     1
102
RTVSPost2010Prop35
280
     0
102
RTVSPost2010PropOp35
 70
     1
102
RTVSPost2010Prop36
280
     0
102
RTVSPost2010PropOp36
 70
     1
102
RTVSPost2010Prop37
 90
       50
102
RTVSPost2010PropOp37
 70
     1
102
RTVSPost2010Prop38
140
0.0
102
RTVSPost2010PropOp38
 70
     1
102
RTVSPost2010Prop39
140
1.0
102
RTVSPost2010PropOp39
 70
     1
102
RTVSPost2010Prop40
 90
        0
102
RTVSPost2010PropOp40
 70
     1
102
RTVSPost2010Prop41ColorIndex
 90
       18
102
RTVSPost2010Prop41ColorRGB
 90
        0
102
RTVSPost2010PropOp41
 70
     1
102
RTVSPost2010Prop42
 90
       50
102
RTVSPost2010PropOp42
 70
     1
102
RTVSPost2010Prop43
 90
        3
102
RTVSPost2010PropOp43
 70
     1
102
RTVSPost2010Prop44ColorIndex
 90
        5
102
RTVSPost2010Prop44ColorRGB
 90
      255
102
RTVSPost2010PropOp44
 70
     1
102
RTVSPost2010Prop45
280
     0
102
RTVSPost2010PropOp45
 70
     1
102
RTVSPost2010Prop46
 90
       50
102
RTVSPost2010PropOp46
 70
     1
102
RTVSPost2010Prop47
 90
       50
102
RTVSPost2010PropOp47
 70
     1
102
RTVSPost2010Prop48
 90
       50
102
RTVSPost2010PropOp48
 70
     1
102
RTVSPost2010Prop49
280
     0
102
RTVSPost2010PropOp49
 70
     1
102
RTVSPost2010Prop50
 90
       50
102
RTVSPost2010PropOp50
 70
     1
102
RTVSPost2010Prop51ColorIndex
 90
      256
102
RTVSPost2010Prop51ColorRGB
 90
-16777216
102
RTVSPost2010PropOp51
 70
     0
102
RTVSPost2010Prop52
140
1.0
102
RTVSPost2010PropOp52
 70
     0
102
RTVSPost2010Prop53
 90
        2
102
RTVSPost2010PropOp53
 70
     1
102
RTVSPost2010Prop54
  1
strokes_ogs.tif
102
RTVSPost2010PropOp54
 70
     1
102
RTVSPost2010Prop55
280
     0
102
RTVSPost2010PropOp55
 70
     1
102
RTVSPost2010Prop56
140
1.0
102
RTVSPost2010PropOp56
 70
     1
102
RTVSPost2010Prop57
140
1.0
102
RTVSPost2010PropOp57
 70
     1
102
RTVSPropertyOp0
 70
     1
102
RTVSPropertyOp1
 70
     1
102
RTVSPropertyOp2
 70
     1
102
RTVSPropertyOp3
 70
     1
102
RTVSPropertyOp4
 70
     1
102
RTVSPropertyOp5
 70
     1
102
RTVSPropertyOp6
 70
     1
102
RTVSPropertyOp7
 70
     1
102
RTVSPropertyOp8
 70
     1
102
RTVSPropertyOp9
 70
     1
102
RTVSPropertyOp10
 70
     1
102
RTVSPropertyOp11
 70
     1
102
RTVSPropertyOp12
 70
     1
102
RTVSPropertyOp13
 70
     1
102
RTVSPropertyOp14
 70
     1
102
RTVSPropertyOp15
 70
     1
102
RTVSPropertyOp16
 70
     1
102
RTVSPropertyOp17
 70
     1
102
RTVSPropertyOp18
 70
     1
102
RTVSPropertyOp19
 70
     1
102
RTVSPropertyOp20
 70
     1
102
RTVSPropertyOp21
 70
     1
102
RTVSPropertyOp22
 70
     1
102
RTVSPropertyOp23
 70
     1
102
RTVSPropertyOp24
 70
     1
102
RTVSPropertyOp25
 70
     1
102
RTVSPropertyOp26
 70
     1
102
RTVSPropertyOp27
 70
     1
102
RTVSPropertyOp28
 70
     1
102
RTVSPropertyOp29
 70
     1
102
RTVSPropertyOp30
 70
     1
102
RTVSPropertyOp31
 70
     1
102
RTVSPropertyOp32
 70
     1
102
RTVSPropertyOp33
 70
     1
102
RTVSPropertyOp34
 70
     1
102
RTVSPropertyOp35
 70
     1
102
RTVSPropertyOp36
 70
     1
102
RTVSPropertyOp37
 70
     1
102
RTVSPropertyOp38
 70
     1
102
RTVSPropertyOp39
 70
     1
102
RTVSPropertyOp40
 70
     1
102
RTVSPropertyOp41
 70
     1
102
RTVSPropertyOp42
 70
     1
102
RTVSPropertyOp43
 70
     1
102
RTVSPropertyOp44
 70
     1
102
RTVSPropertyOp45
 70
     1
102
RTVSPropertyOp46
 70
     1
102
RTVSPropertyOp47
 70
     1
102
RTVSPropertyOp48
 70
     1
102
RTVSPropertyOp49
 70
     1
102
RTVSPropertyOp50
 70
     1
102
RTVSPropertyOp51
 70
     0
102
RTVSPropertyOp52
 70
     0
102
RTVSPropertyOp53
 70
     1
102
RTVSPropertyOp54
 70
     1
102
RTVSPropertyOp55
 70
     1
102
RTVSPropertyOp56
 70
     1
102
RTVSPropertyOp57
 70
     1
102
RTVSPropertyOp58
 70
     1
102
RTVSPropertyOp59
 70
     1
102
RTVSPropertyOp60
 70
     1
102
RTVSPropertyOp61
 70
     1
102
RTVSPropertyOp62
 70
     1
  0
XRECORD
  5
9101
102
{ACAD_REACTORS
330
9100
102
}
330
9100
100
AcDbXrecord
280
     1
102
RTVSPost2010Prop28
280
     0
102
RTVSPost2010PropOp28
 70
     1
102
RTVSPost2010Prop29
280
     1
102
RTVSPost2010PropOp29
 70
     1
102
RTVSPost2010Prop30
280
     1
102
RTVSPost2010PropOp30
 70
     1
102
RTVSPost2010Prop31
280
     0
102
RTVSPost2010PropOp31
 70
     1
102
RTVSPost2010Prop32
280
     0
102
RTVSPost2010PropOp32
 70
     1
102
RTVSPost2010Prop33
280
     0
102
RTVSPost2010PropOp33
 70
     1
102
RTVSPost2010Prop34
280
     0
102
RTVSPost2010PropOp34
 70
     1
102
RTVSPost2010Prop35
280
     0
102
RTVSPost2010PropOp35
 70
     1
102
RTVSPost2010Prop36
280
     0
102
RTVSPost2010PropOp36
 70
     1
102
RTVSPost2010Prop37
 90
       50
102
RTVSPost2010PropOp37
 70
     1
102
RTVSPost2010Prop38
140
0.0
102
RTVSPost2010PropOp38
 70
     1
102
RTVSPost2010Prop39
140
1.0
102
RTVSPost2010PropOp39
 70
     1
102
RTVSPost2010Prop40
 90
        0
102
RTVSPost2010PropOp40
 70
     1
102
RTVSPost2010Prop41ColorIndex
 90
       18
102
RTVSPost2010Prop41ColorRGB
 90
        0
102
RTVSPost2010PropOp41
 70
     1
102
RTVSPost2010Prop42
 90
       50
102
RTVSPost2010PropOp42
 70
     1
102
RTVSPost2010Prop43
 90
        3
102
RTVSPost2010PropOp43
 70
     1
102
RTVSPost2010Prop44ColorIndex
 90
        5
102
RTVSPost2010Prop44ColorRGB
 90
      255
102
RTVSPost2010PropOp44
 70
     1
102
RTVSPost2010Prop45
280
     0
102
RTVSPost2010PropOp45
 70
     1
102
RTVSPost2010Prop46
 90
       50
102
RTVSPost2010PropOp46
 70
     1
102
RTVSPost2010Prop47
 90
       50
102
RTVSPost2010PropOp47
 70
     1
102
RTVSPost2010Prop48
 90
       50
102
RTVSPost2010PropOp48
 70
     1
102
RTVSPost2010Prop49
280
     0
102
RTVSPost2010PropOp49
 70
     1
102
RTVSPost2010Prop50
 90
       50
102
RTVSPost2010PropOp50
 70
     1
102
RTVSPost2010Prop51ColorIndex
 90
      256
102
RTVSPost2010Prop51ColorRGB
 90
-16777216
102
RTVSPost2010PropOp51
 70
     0
102
RTVSPost2010Prop52
140
1.0
102
RTVSPost2010PropOp52
 70
     0
102
RTVSPost2010Prop53
 90
        2
102
RTVSPost2010PropOp53
 70
     1
102
RTVSPost2010Prop54
  1
strokes_ogs.tif
102
RTVSPost2010PropOp54
 70
     1
102
RTVSPost2010Prop55
280
     0
102
RTVSPost2010PropOp55
 70
     1
102
RTVSPost2010Prop56
140
1.0
102
RTVSPost2010PropOp56
 70
     1
102
RTVSPost2010Prop57
140
1.0
102
RTVSPost2010PropOp57
 70
     1
102
RTVSPropertyOp0
 70
     1
102
RTVSPropertyOp1
 70
     1
102
RTVSPropertyOp2
 70
     1
102
RTVSPropertyOp3
 70
     1
102
RTVSPropertyOp4
 70
     1
102
RTVSPropertyOp5
 70
     1
102
RTVSPropertyOp6
 70
     1
102
RTVSPropertyOp7
 70
     1
102
RTVSPropertyOp8
 70
     1
102
RTVSPropertyOp9
 70
     1
102
RTVSPropertyOp10
 70
     1
102
RTVSPropertyOp11
 70
     1
102
RTVSPropertyOp12
 70
     1
102
RTVSPropertyOp13
 70
     1
102
RTVSPropertyOp14
 70
     1
102
RTVSPropertyOp15
 70
     1
102
RTVSPropertyOp16
 70
     1
102
RTVSPropertyOp17
 70
     1
102
RTVSPropertyOp18
 70
     1
102
RTVSPropertyOp19
 70
     1
102
RTVSPropertyOp20
 70
     1
102
RTVSPropertyOp21
 70
     1
102
RTVSPropertyOp22
 70
     1
102
RTVSPropertyOp23
 70
     1
102
RTVSPropertyOp24
 70
     1
102
RTVSPropertyOp25
 70
     1
102
RTVSPropertyOp26
 70
     1
102
RTVSPropertyOp27
 70
     1
102
RTVSPropertyOp28
 70
     1
102
RTVSPropertyOp29
 70
     1
102
RTVSPropertyOp30
 70
     1
102
RTVSPropertyOp31
 70
     1
102
RTVSPropertyOp32
 70
     1
102
RTVSPropertyOp33
 70
     1
102
RTVSPropertyOp34
 70
     1
102
RTVSPropertyOp35
 70
     1
102
RTVSPropertyOp36
 70
     1
102
RTVSPropertyOp37
 70
     1
102
RTVSPropertyOp38
 70
     1
102
RTVSPropertyOp39
 70
     1
102
RTVSPropertyOp40
 70
     1
102
RTVSPropertyOp41
 70
     1
102
RTVSPropertyOp42
 70
     1
102
RTVSPropertyOp43
 70
     1
102
RTVSPropertyOp44
 70
     1
102
RTVSPropertyOp45
 70
     1
102
RTVSPropertyOp46
 70
     1
102
RTVSPropertyOp47
 70
     1
102
RTVSPropertyOp48
 70
     1
102
RTVSPropertyOp49
 70
     1
102
RTVSPropertyOp50
 70
     1
102
RTVSPropertyOp51
 70
     0
102
RTVSPropertyOp52
 70
     0
102
RTVSPropertyOp53
 70
     1
102
RTVSPropertyOp54
 70
     1
102
RTVSPropertyOp55
 70
     1
102
RTVSPropertyOp56
 70
     1
102
RTVSPropertyOp57
 70
     1
102
RTVSPropertyOp58
 70
     1
102
RTVSPropertyOp59
 70
     1
102
RTVSPropertyOp60
 70
     1
102
RTVSPropertyOp61
 70
     1
102
RTVSPropertyOp62
 70
     1
  0
XRECORD
  5
9103
102
{ACAD_REACTORS
330
9102
102
}
330
9102
100
AcDbXrecord
280
     1
102
RTVSPost2010Prop28
280
     0
102
RTVSPost2010PropOp28
 70
     1
102
RTVSPost2010Prop29
280
     1
102
RTVSPost2010PropOp29
 70
     1
102
RTVSPost2010Prop30
280
     1
102
RTVSPost2010PropOp30
 70
     1
102
RTVSPost2010Prop31
280
     0
102
RTVSPost2010PropOp31
 70
     1
102
RTVSPost2010Prop32
280
     0
102
RTVSPost2010PropOp32
 70
     1
102
RTVSPost2010Prop33
280
     0
102
RTVSPost2010PropOp33
 70
     1
102
RTVSPost2010Prop34
280
     0
102
RTVSPost2010PropOp34
 70
     1
102
RTVSPost2010Prop35
280
     0
102
RTVSPost2010PropOp35
 70
     1
102
RTVSPost2010Prop36
280
     0
102
RTVSPost2010PropOp36
 70
     1
102
RTVSPost2010Prop37
 90
       50
102
RTVSPost2010PropOp37
 70
     1
102
RTVSPost2010Prop38
140
0.0
102
RTVSPost2010PropOp38
 70
     1
102
RTVSPost2010Prop39
140
1.0
102
RTVSPost2010PropOp39
 70
     1
102
RTVSPost2010Prop40
 90
        0
102
RTVSPost2010PropOp40
 70
     1
102
RTVSPost2010Prop41ColorIndex
 90
       18
102
RTVSPost2010Prop41ColorRGB
 90
        0
102
RTVSPost2010PropOp41
 70
     1
102
RTVSPost2010Prop42
 90
       50
102
RTVSPost2010PropOp42
 70
     1
102
RTVSPost2010Prop43
 90
        3
102
RTVSPost2010PropOp43
 70
     1
102
RTVSPost2010Prop44ColorIndex
 90
        5
102
RTVSPost2010Prop44ColorRGB
 90
      255
102
RTVSPost2010PropOp44
 70
     1
102
RTVSPost2010Prop45
280
     0
102
RTVSPost2010PropOp45
 70
     1
102
RTVSPost2010Prop46
 90
       50
102
RTVSPost2010PropOp46
 70
     1
102
RTVSPost2010Prop47
 90
       50
102
RTVSPost2010PropOp47
 70
     1
102
RTVSPost2010Prop48
 90
       50
102
RTVSPost2010PropOp48
 70
     1
102
RTVSPost2010Prop49
280
     0
102
RTVSPost2010PropOp49
 70
     1
102
RTVSPost2010Prop50
 90
       50
102
RTVSPost2010PropOp50
 70
     1
102
RTVSPost2010Prop51ColorIndex
 90
      256
102
RTVSPost2010Prop51ColorRGB
 90
-16777216
102
RTVSPost2010PropOp51
 70
     0
102
RTVSPost2010Prop52
140
1.0
102
RTVSPost2010PropOp52
 70
     0
102
RTVSPost2010Prop53
 90
        2
102
RTVSPost2010PropOp53
 70
     1
102
RTVSPost2010Prop54
  1
strokes_ogs.tif
102
RTVSPost2010PropOp54
 70
     1
102
RTVSPost2010Prop55
280
     0
102
RTVSPost2010PropOp55
 70
     1
102
RTVSPost2010Prop56
140
1.0
102
RTVSPost2010PropOp56
 70
     1
102
RTVSPost2010Prop57
140
1.0
102
RTVSPost2010PropOp57
 70
     1
102
RTVSPropertyOp0
 70
     1
102
RTVSPropertyOp1
 70
     1
102
RTVSPropertyOp2
 70
     1
102
RTVSPropertyOp3
 70
     1
102
RTVSPropertyOp4
 70
     1
102
RTVSPropertyOp5
 70
     1
102
RTVSPropertyOp6
 70
     1
102
RTVSPropertyOp7
 70
     1
102
RTVSPropertyOp8
 70
     1
102
RTVSPropertyOp9
 70
     1
102
RTVSPropertyOp10
 70
     1
102
RTVSPropertyOp11
 70
     1
102
RTVSPropertyOp12
 70
     1
102
RTVSPropertyOp13
 70
     1
102
RTVSPropertyOp14
 70
     1
102
RTVSPropertyOp15
 70
     1
102
RTVSPropertyOp16
 70
     1
102
RTVSPropertyOp17
 70
     1
102
RTVSPropertyOp18
 70
     1
102
RTVSPropertyOp19
 70
     1
102
RTVSPropertyOp20
 70
     1
102
RTVSPropertyOp21
 70
     1
102
RTVSPropertyOp22
 70
     1
102
RTVSPropertyOp23
 70
     1
102
RTVSPropertyOp24
 70
     1
102
RTVSPropertyOp25
 70
     1
102
RTVSPropertyOp26
 70
     1
102
RTVSPropertyOp27
 70
     1
102
RTVSPropertyOp28
 70
     1
102
RTVSPropertyOp29
 70
     1
102
RTVSPropertyOp30
 70
     1
102
RTVSPropertyOp31
 70
     1
102
RTVSPropertyOp32
 70
     1
102
RTVSPropertyOp33
 70
     1
102
RTVSPropertyOp34
 70
     1
102
RTVSPropertyOp35
 70
     1
102
RTVSPropertyOp36
 70
     1
102
RTVSPropertyOp37
 70
     1
102
RTVSPropertyOp38
 70
     1
102
RTVSPropertyOp39
 70
     1
102
RTVSPropertyOp40
 70
     1
102
RTVSPropertyOp41
 70
     1
102
RTVSPropertyOp42
 70
     1
102
RTVSPropertyOp43
 70
     1
102
RTVSPropertyOp44
 70
     1
102
RTVSPropertyOp45
 70
     1
102
RTVSPropertyOp46
 70
     1
102
RTVSPropertyOp47
 70
     1
102
RTVSPropertyOp48
 70
     1
102
RTVSPropertyOp49
 70
     1
102
RTVSPropertyOp50
 70
     1
102
RTVSPropertyOp51
 70
     0
102
RTVSPropertyOp52
 70
     0
102
RTVSPropertyOp53
 70
     1
102
RTVSPropertyOp54
 70
     1
102
RTVSPropertyOp55
 70
     1
102
RTVSPropertyOp56
 70
     1
102
RTVSPropertyOp57
 70
     1
102
RTVSPropertyOp58
 70
     1
102
RTVSPropertyOp59
 70
     1
102
RTVSPropertyOp60
 70
     1
102
RTVSPropertyOp61
 70
     1
102
RTVSPropertyOp62
 70
     1
  0
XRECORD
  5
9105
102
{ACAD_REACTORS
330
9104
102
}
330
9104
100
AcDbXrecord
280
     1
102
RTVSPost2010Prop28
280
     0
102
RTVSPost2010PropOp28
 70
     1
102
RTVSPost2010Prop29
280
     1
102
RTVSPost2010PropOp29
 70
     1
102
RTVSPost2010Prop30
280
     1
102
RTVSPost2010PropOp30
 70
     1
102
RTVSPost2010Prop31
280
     0
102
RTVSPost2010PropOp31
 70
     1
102
RTVSPost2010Prop32
280
     0
102
RTVSPost2010PropOp32
 70
     1
102
RTVSPost2010Prop33
280
     0
102
RTVSPost2010PropOp33
 70
     1
102
RTVSPost2010Prop34
280
     0
102
RTVSPost2010PropOp34
 70
     1
102
RTVSPost2010Prop35
280
     0
102
RTVSPost2010PropOp35
 70
     1
102
RTVSPost2010Prop36
280
     0
102
RTVSPost2010PropOp36
 70
     1
102
RTVSPost2010Prop37
 90
       50
102
RTVSPost2010PropOp37
 70
     1
102
RTVSPost2010Prop38
140
0.0
102
RTVSPost2010PropOp38
 70
     1
102
RTVSPost2010Prop39
140
1.0
102
RTVSPost2010PropOp39
 70
     1
102
RTVSPost2010Prop40
 90
        0
102
RTVSPost2010PropOp40
 70
     1
102
RTVSPost2010Prop41ColorIndex
 90
       18
102
RTVSPost2010Prop41ColorRGB
 90
        0
102
RTVSPost2010PropOp41
 70
     1
102
RTVSPost2010Prop42
 90
       50
102
RTVSPost2010PropOp42
 70
     1
102
RTVSPost2010Prop43
 90
        3
102
RTVSPost2010PropOp43
 70
     1
102
RTVSPost2010Prop44ColorIndex
 90
        5
102
RTVSPost2010Prop44ColorRGB
 90
      255
102
RTVSPost2010PropOp44
 70
     1
102
RTVSPost2010Prop45
280
     0
102
RTVSPost2010PropOp45
 70
     1
102
RTVSPost2010Prop46
 90
       50
102
RTVSPost2010PropOp46
 70
     1
102
RTVSPost2010Prop47
 90
       50
102
RTVSPost2010PropOp47
 70
     1
102
RTVSPost2010Prop48
 90
       50
102
RTVSPost2010PropOp48
 70
     1
102
RTVSPost2010Prop49
280
     0
102
RTVSPost2010PropOp49
 70
     1
102
RTVSPost2010Prop50
 90
       50
102
RTVSPost2010PropOp50
 70
     1
102
RTVSPost2010Prop51ColorIndex
 90
      256
102
RTVSPost2010Prop51ColorRGB
 90
-16777216
102
RTVSPost2010PropOp51
 70
     0
102
RTVSPost2010Prop52
140
1.0
102
RTVSPost2010PropOp52
 70
     0
102
RTVSPost2010Prop53
 90
        2
102
RTVSPost2010PropOp53
 70
     1
102
RTVSPost2010Prop54
  1
strokes_ogs.tif
102
RTVSPost2010PropOp54
 70
     1
102
RTVSPost2010Prop55
280
     0
102
RTVSPost2010PropOp55
 70
     1
102
RTVSPost2010Prop56
140
1.0
102
RTVSPost2010PropOp56
 70
     1
102
RTVSPost2010Prop57
140
1.0
102
RTVSPost2010PropOp57
 70
     1
102
RTVSPropertyOp0
 70
     1
102
RTVSPropertyOp1
 70
     1
102
RTVSPropertyOp2
 70
     1
102
RTVSPropertyOp3
 70
     1
102
RTVSPropertyOp4
 70
     1
102
RTVSPropertyOp5
 70
     1
102
RTVSPropertyOp6
 70
     1
102
RTVSPropertyOp7
 70
     1
102
RTVSPropertyOp8
 70
     1
102
RTVSPropertyOp9
 70
     1
102
RTVSPropertyOp10
 70
     1
102
RTVSPropertyOp11
 70
     1
102
RTVSPropertyOp12
 70
     1
102
RTVSPropertyOp13
 70
     1
102
RTVSPropertyOp14
 70
     1
102
RTVSPropertyOp15
 70
     1
102
RTVSPropertyOp16
 70
     1
102
RTVSPropertyOp17
 70
     1
102
RTVSPropertyOp18
 70
     1
102
RTVSPropertyOp19
 70
     1
102
RTVSPropertyOp20
 70
     1
102
RTVSPropertyOp21
 70
     1
102
RTVSPropertyOp22
 70
     1
102
RTVSPropertyOp23
 70
     1
102
RTVSPropertyOp24
 70
     1
102
RTVSPropertyOp25
 70
     1
102
RTVSPropertyOp26
 70
     1
102
RTVSPropertyOp27
 70
     1
102
RTVSPropertyOp28
 70
     1
102
RTVSPropertyOp29
 70
     1
102
RTVSPropertyOp30
 70
     1
102
RTVSPropertyOp31
 70
     1
102
RTVSPropertyOp32
 70
     1
102
RTVSPropertyOp33
 70
     1
102
RTVSPropertyOp34
 70
     1
102
RTVSPropertyOp35
 70
     1
102
RTVSPropertyOp36
 70
     1
102
RTVSPropertyOp37
 70
     1
102
RTVSPropertyOp38
 70
     1
102
RTVSPropertyOp39
 70
     1
102
RTVSPropertyOp40
 70
     1
102
RTVSPropertyOp41
 70
     1
102
RTVSPropertyOp42
 70
     1
102
RTVSPropertyOp43
 70
     1
102
RTVSPropertyOp44
 70
     1
102
RTVSPropertyOp45
 70
     1
102
RTVSPropertyOp46
 70
     1
102
RTVSPropertyOp47
 70
     1
102
RTVSPropertyOp48
 70
     1
102
RTVSPropertyOp49
 70
     1
102
RTVSPropertyOp50
 70
     1
102
RTVSPropertyOp51
 70
     0
102
RTVSPropertyOp52
 70
     0
102
RTVSPropertyOp53
 70
     1
102
RTVSPropertyOp54
 70
     1
102
RTVSPropertyOp55
 70
     1
102
RTVSPropertyOp56
 70
     1
102
RTVSPropertyOp57
 70
     1
102
RTVSPropertyOp58
 70
     1
102
RTVSPropertyOp59
 70
     1
102
RTVSPropertyOp60
 70
     1
102
RTVSPropertyOp61
 70
     1
102
RTVSPropertyOp62
 70
     1
  0
XRECORD
  5
9107
102
{ACAD_REACTORS
330
9106
102
}
330
9106
100
AcDbXrecord
280
     1
102
RTVSPost2010Prop28
280
     0
102
RTVSPost2010PropOp28
 70
     1
102
RTVSPost2010Prop29
280
     1
102
RTVSPost2010PropOp29
 70
     1
102
RTVSPost2010Prop30
280
     1
102
RTVSPost2010PropOp30
 70
     1
102
RTVSPost2010Prop31
280
     0
102
RTVSPost2010PropOp31
 70
     1
102
RTVSPost2010Prop32
280
     0
102
RTVSPost2010PropOp32
 70
     1
102
RTVSPost2010Prop33
280
     0
102
RTVSPost2010PropOp33
 70
     1
102
RTVSPost2010Prop34
280
     0
102
RTVSPost2010PropOp34
 70
     1
102
RTVSPost2010Prop35
280
     0
102
RTVSPost2010PropOp35
 70
     1
102
RTVSPost2010Prop36
280
     0
102
RTVSPost2010PropOp36
 70
     1
102
RTVSPost2010Prop37
 90
       50
102
RTVSPost2010PropOp37
 70
     1
102
RTVSPost2010Prop38
140
0.0
102
RTVSPost2010PropOp38
 70
     1
102
RTVSPost2010Prop39
140
1.0
102
RTVSPost2010PropOp39
 70
     1
102
RTVSPost2010Prop40
 90
        0
102
RTVSPost2010PropOp40
 70
     1
102
RTVSPost2010Prop41ColorIndex
 90
       18
102
RTVSPost2010Prop41ColorRGB
 90
        0
102
RTVSPost2010PropOp41
 70
     1
102
RTVSPost2010Prop42
 90
       50
102
RTVSPost2010PropOp42
 70
     1
102
RTVSPost2010Prop43
 90
        3
102
RTVSPost2010PropOp43
 70
     1
102
RTVSPost2010Prop44ColorIndex
 90
        5
102
RTVSPost2010Prop44ColorRGB
 90
      255
102
RTVSPost2010PropOp44
 70
     1
102
RTVSPost2010Prop45
280
     0
102
RTVSPost2010PropOp45
 70
     1
102
RTVSPost2010Prop46
 90
       50
102
RTVSPost2010PropOp46
 70
     1
102
RTVSPost2010Prop47
 90
       50
102
RTVSPost2010PropOp47
 70
     1
102
RTVSPost2010Prop48
 90
       50
102
RTVSPost2010PropOp48
 70
     1
102
RTVSPost2010Prop49
280
     0
102
RTVSPost2010PropOp49
 70
     1
102
RTVSPost2010Prop50
 90
       50
102
RTVSPost2010PropOp50
 70
     1
102
RTVSPost2010Prop51ColorIndex
 90
      256
102
RTVSPost2010Prop51ColorRGB
 90
-16777216
102
RTVSPost2010PropOp51
 70
     0
102
RTVSPost2010Prop52
140
1.0
102
RTVSPost2010PropOp52
 70
     0
102
RTVSPost2010Prop53
 90
        2
102
RTVSPost2010PropOp53
 70
     1
102
RTVSPost2010Prop54
  1
strokes_ogs.tif
102
RTVSPost2010PropOp54
 70
     1
102
RTVSPost2010Prop55
280
     0
102
RTVSPost2010PropOp55
 70
     1
102
RTVSPost2010Prop56
140
1.0
102
RTVSPost2010PropOp56
 70
     1
102
RTVSPost2010Prop57
140
1.0
102
RTVSPost2010PropOp57
 70
     1
102
RTVSPropertyOp0
 70
     1
102
RTVSPropertyOp1
 70
     1
102
RTVSPropertyOp2
 70
     1
102
RTVSPropertyOp3
 70
     1
102
RTVSPropertyOp4
 70
     1
102
RTVSPropertyOp5
 70
     1
102
RTVSPropertyOp6
 70
     1
102
RTVSPropertyOp7
 70
     1
102
RTVSPropertyOp8
 70
     1
102
RTVSPropertyOp9
 70
     1
102
RTVSPropertyOp10
 70
     1
102
RTVSPropertyOp11
 70
     1
102
RTVSPropertyOp12
 70
     1
102
RTVSPropertyOp13
 70
     1
102
RTVSPropertyOp14
 70
     1
102
RTVSPropertyOp15
 70
     1
102
RTVSPropertyOp16
 70
     1
102
RTVSPropertyOp17
 70
     1
102
RTVSPropertyOp18
 70
     1
102
RTVSPropertyOp19
 70
     1
102
RTVSPropertyOp20
 70
     1
102
RTVSPropertyOp21
 70
     1
102
RTVSPropertyOp22
 70
     1
102
RTVSPropertyOp23
 70
     1
102
RTVSPropertyOp24
 70
     1
102
RTVSPropertyOp25
 70
     1
102
RTVSPropertyOp26
 70
     1
102
RTVSPropertyOp27
 70
     1
102
RTVSPropertyOp28
 70
     1
102
RTVSPropertyOp29
 70
     1
102
RTVSPropertyOp30
 70
     1
102
RTVSPropertyOp31
 70
     1
102
RTVSPropertyOp32
 70
     1
102
RTVSPropertyOp33
 70
     1
102
RTVSPropertyOp34
 70
     1
102
RTVSPropertyOp35
 70
     1
102
RTVSPropertyOp36
 70
     1
102
RTVSPropertyOp37
 70
     1
102
RTVSPropertyOp38
 70
     1
102
RTVSPropertyOp39
 70
     1
102
RTVSPropertyOp40
 70
     1
102
RTVSPropertyOp41
 70
     1
102
RTVSPropertyOp42
 70
     1
102
RTVSPropertyOp43
 70
     1
102
RTVSPropertyOp44
 70
     1
102
RTVSPropertyOp45
 70
     1
102
RTVSPropertyOp46
 70
     1
102
RTVSPropertyOp47
 70
     1
102
RTVSPropertyOp48
 70
     1
102
RTVSPropertyOp49
 70
     1
102
RTVSPropertyOp50
 70
     1
102
RTVSPropertyOp51
 70
     0
102
RTVSPropertyOp52
 70
     0
102
RTVSPropertyOp53
 70
     1
102
RTVSPropertyOp54
 70
     1
102
RTVSPropertyOp55
 70
     1
102
RTVSPropertyOp56
 70
     1
102
RTVSPropertyOp57
 70
     1
102
RTVSPropertyOp58
 70
     1
102
RTVSPropertyOp59
 70
     1
102
RTVSPropertyOp60
 70
     1
102
RTVSPropertyOp61
 70
     1
102
RTVSPropertyOp62
 70
     1
  0
XRECORD
  5
910F
102
{ACAD_REACTORS
330
910E
102
}
330
910E
100
AcDbXrecord
280
     1
102
RTVSPost2010Prop28
280
     0
102
RTVSPost2010PropOp28
 70
     1
102
RTVSPost2010Prop29
280
     1
102
RTVSPost2010PropOp29
 70
     1
102
RTVSPost2010Prop30
280
     1
102
RTVSPost2010PropOp30
 70
     1
102
RTVSPost2010Prop31
280
     0
102
RTVSPost2010PropOp31
 70
     1
102
RTVSPost2010Prop32
280
     0
102
RTVSPost2010PropOp32
 70
     1
102
RTVSPost2010Prop33
280
     0
102
RTVSPost2010PropOp33
 70
     1
102
RTVSPost2010Prop34
280
     0
102
RTVSPost2010PropOp34
 70
     1
102
RTVSPost2010Prop35
280
     0
102
RTVSPost2010PropOp35
 70
     1
102
RTVSPost2010Prop36
280
     0
102
RTVSPost2010PropOp36
 70
     1
102
RTVSPost2010Prop37
 90
       50
102
RTVSPost2010PropOp37
 70
     1
102
RTVSPost2010Prop38
140
0.0
102
RTVSPost2010PropOp38
 70
     1
102
RTVSPost2010Prop39
140
1.0
102
RTVSPost2010PropOp39
 70
     1
102
RTVSPost2010Prop40
 90
        0
102
RTVSPost2010PropOp40
 70
     1
102
RTVSPost2010Prop41ColorIndex
 90
       18
102
RTVSPost2010Prop41ColorRGB
 90
        0
102
RTVSPost2010PropOp41
 70
     1
102
RTVSPost2010Prop42
 90
       50
102
RTVSPost2010PropOp42
 70
     1
102
RTVSPost2010Prop43
 90
        3
102
RTVSPost2010PropOp43
 70
     1
102
RTVSPost2010Prop44ColorIndex
 90
        5
102
RTVSPost2010Prop44ColorRGB
 90
      255
102
RTVSPost2010PropOp44
 70
     1
102
RTVSPost2010Prop45
280
     0
102
RTVSPost2010PropOp45
 70
     1
102
RTVSPost2010Prop46
 90
       50
102
RTVSPost2010PropOp46
 70
     1
102
RTVSPost2010Prop47
 90
       50
102
RTVSPost2010PropOp47
 70
     1
102
RTVSPost2010Prop48
 90
       50
102
RTVSPost2010PropOp48
 70
     1
102
RTVSPost2010Prop49
280
     0
102
RTVSPost2010PropOp49
 70
     1
102
RTVSPost2010Prop50
 90
       50
102
RTVSPost2010PropOp50
 70
     1
102
RTVSPost2010Prop51ColorIndex
 90
      256
102
RTVSPost2010Prop51ColorRGB
 90
-16777216
102
RTVSPost2010PropOp51
 70
     0
102
RTVSPost2010Prop52
140
1.0
102
RTVSPost2010PropOp52
 70
     0
102
RTVSPost2010Prop53
 90
        2
102
RTVSPost2010PropOp53
 70
     1
102
RTVSPost2010Prop54
  1
strokes_ogs.tif
102
RTVSPost2010PropOp54
 70
     1
102
RTVSPost2010Prop55
280
     0
102
RTVSPost2010PropOp55
 70
     1
102
RTVSPost2010Prop56
140
1.0
102
RTVSPost2010PropOp56
 70
     1
102
RTVSPost2010Prop57
140
1.0
102
RTVSPost2010PropOp57
 70
     1
102
RTVSPropertyOp0
 70
     1
102
RTVSPropertyOp1
 70
     1
102
RTVSPropertyOp2
 70
     1
102
RTVSPropertyOp3
 70
     1
102
RTVSPropertyOp4
 70
     1
102
RTVSPropertyOp5
 70
     1
102
RTVSPropertyOp6
 70
     1
102
RTVSPropertyOp7
 70
     1
102
RTVSPropertyOp8
 70
     1
102
RTVSPropertyOp9
 70
     1
102
RTVSPropertyOp10
 70
     1
102
RTVSPropertyOp11
 70
     1
102
RTVSPropertyOp12
 70
     1
102
RTVSPropertyOp13
 70
     1
102
RTVSPropertyOp14
 70
     1
102
RTVSPropertyOp15
 70
     1
102
RTVSPropertyOp16
 70
     1
102
RTVSPropertyOp17
 70
     1
102
RTVSPropertyOp18
 70
     1
102
RTVSPropertyOp19
 70
     1
102
RTVSPropertyOp20
 70
     1
102
RTVSPropertyOp21
 70
     1
102
RTVSPropertyOp22
 70
     1
102
RTVSPropertyOp23
 70
     1
102
RTVSPropertyOp24
 70
     1
102
RTVSPropertyOp25
 70
     1
102
RTVSPropertyOp26
 70
     1
102
RTVSPropertyOp27
 70
     1
102
RTVSPropertyOp28
 70
     1
102
RTVSPropertyOp29
 70
     1
102
RTVSPropertyOp30
 70
     1
102
RTVSPropertyOp31
 70
     1
102
RTVSPropertyOp32
 70
     1
102
RTVSPropertyOp33
 70
     1
102
RTVSPropertyOp34
 70
     1
102
RTVSPropertyOp35
 70
     1
102
RTVSPropertyOp36
 70
     1
102
RTVSPropertyOp37
 70
     1
102
RTVSPropertyOp38
 70
     1
102
RTVSPropertyOp39
 70
     1
102
RTVSPropertyOp40
 70
     1
102
RTVSPropertyOp41
 70
     1
102
RTVSPropertyOp42
 70
     1
102
RTVSPropertyOp43
 70
     1
102
RTVSPropertyOp44
 70
     1
102
RTVSPropertyOp45
 70
     1
102
RTVSPropertyOp46
 70
     1
102
RTVSPropertyOp47
 70
     1
102
RTVSPropertyOp48
 70
     1
102
RTVSPropertyOp49
 70
     1
102
RTVSPropertyOp50
 70
     1
102
RTVSPropertyOp51
 70
     0
102
RTVSPropertyOp52
 70
     0
102
RTVSPropertyOp53
 70
     1
102
RTVSPropertyOp54
 70
     1
102
RTVSPropertyOp55
 70
     1
102
RTVSPropertyOp56
 70
     1
102
RTVSPropertyOp57
 70
     1
102
RTVSPropertyOp58
 70
     1
102
RTVSPropertyOp59
 70
     1
102
RTVSPropertyOp60
 70
     1
102
RTVSPropertyOp61
 70
     1
102
RTVSPropertyOp62
 70
     1
  0
XRECORD
  5
9123
102
{ACAD_REACTORS
330
9122
102
}
330
9122
100
AcDbXrecord
280
     1
102
RTVSPost2010Prop28
280
     0
102
RTVSPost2010PropOp28
 70
     1
102
RTVSPost2010Prop29
280
     1
102
RTVSPost2010PropOp29
 70
     1
102
RTVSPost2010Prop30
280
     1
102
RTVSPost2010PropOp30
 70
     1
102
RTVSPost2010Prop31
280
     0
102
RTVSPost2010PropOp31
 70
     1
102
RTVSPost2010Prop32
280
     0
102
RTVSPost2010PropOp32
 70
     1
102
RTVSPost2010Prop33
280
     0
102
RTVSPost2010PropOp33
 70
     1
102
RTVSPost2010Prop34
280
     0
102
RTVSPost2010PropOp34
 70
     1
102
RTVSPost2010Prop35
280
     0
102
RTVSPost2010PropOp35
 70
     1
102
RTVSPost2010Prop36
280
     0
102
RTVSPost2010PropOp36
 70
     1
102
RTVSPost2010Prop37
 90
       50
102
RTVSPost2010PropOp37
 70
     1
102
RTVSPost2010Prop38
140
0.0
102
RTVSPost2010PropOp38
 70
     1
102
RTVSPost2010Prop39
140
1.0
102
RTVSPost2010PropOp39
 70
     1
102
RTVSPost2010Prop40
 90
        0
102
RTVSPost2010PropOp40
 70
     1
102
RTVSPost2010Prop41ColorIndex
 90
       18
102
RTVSPost2010Prop41ColorRGB
 90
        0
102
RTVSPost2010PropOp41
 70
     1
102
RTVSPost2010Prop42
 90
       50
102
RTVSPost2010PropOp42
 70
     1
102
RTVSPost2010Prop43
 90
        3
102
RTVSPost2010PropOp43
 70
     1
102
RTVSPost2010Prop44ColorIndex
 90
        5
102
RTVSPost2010Prop44ColorRGB
 90
      255
102
RTVSPost2010PropOp44
 70
     1
102
RTVSPost2010Prop45
280
     0
102
RTVSPost2010PropOp45
 70
     1
102
RTVSPost2010Prop46
 90
       50
102
RTVSPost2010PropOp46
 70
     1
102
RTVSPost2010Prop47
 90
       50
102
RTVSPost2010PropOp47
 70
     1
102
RTVSPost2010Prop48
 90
       50
102
RTVSPost2010PropOp48
 70
     1
102
RTVSPost2010Prop49
280
     0
102
RTVSPost2010PropOp49
 70
     1
102
RTVSPost2010Prop50
 90
       50
102
RTVSPost2010PropOp50
 70
     1
102
RTVSPost2010Prop51ColorIndex
 90
      256
102
RTVSPost2010Prop51ColorRGB
 90
-16777216
102
RTVSPost2010PropOp51
 70
     0
102
RTVSPost2010Prop52
140
1.0
102
RTVSPost2010PropOp52
 70
     0
102
RTVSPost2010Prop53
 90
        2
102
RTVSPost2010PropOp53
 70
     1
102
RTVSPost2010Prop54
  1
strokes_ogs.tif
102
RTVSPost2010PropOp54
 70
     1
102
RTVSPost2010Prop55
280
     0
102
RTVSPost2010PropOp55
 70
     1
102
RTVSPost2010Prop56
140
1.0
102
RTVSPost2010PropOp56
 70
     1
102
RTVSPost2010Prop57
140
1.0
102
RTVSPost2010PropOp57
 70
     1
102
RTVSPropertyOp0
 70
     0
102
RTVSPropertyOp1
 70
     0
102
RTVSPropertyOp2
 70
     0
102
RTVSPropertyOp3
 70
     0
102
RTVSPropertyOp4
 70
     0
102
RTVSPropertyOp5
 70
     0
102
RTVSPropertyOp6
 70
     0
102
RTVSPropertyOp7
 70
     0
102
RTVSPropertyOp8
 70
     0
102
RTVSPropertyOp9
 70
     0
102
RTVSPropertyOp10
 70
     0
102
RTVSPropertyOp11
 70
     0
102
RTVSPropertyOp12
 70
     0
102
RTVSPropertyOp13
 70
     0
102
RTVSPropertyOp14
 70
     2
102
RTVSPropertyOp15
 70
     0
102
RTVSPropertyOp16
 70
     0
102
RTVSPropertyOp17
 70
     0
102
RTVSPropertyOp18
 70
     0
102
RTVSPropertyOp19
 70
     0
102
RTVSPropertyOp20
 70
     0
102
RTVSPropertyOp21
 70
     0
102
RTVSPropertyOp22
 70
     0
102
RTVSPropertyOp23
 70
     0
102
RTVSPropertyOp24
 70
     0
102
RTVSPropertyOp25
 70
     0
102
RTVSPropertyOp26
 70
     0
102
RTVSPropertyOp27
 70
     0
102
RTVSPropertyOp28
 70
     1
102
RTVSPropertyOp29
 70
     1
102
RTVSPropertyOp30
 70
     1
102
RTVSPropertyOp31
 70
     1
102
RTVSPropertyOp32
 70
     1
102
RTVSPropertyOp33
 70
     1
102
RTVSPropertyOp34
 70
     1
102
RTVSPropertyOp35
 70
     1
102
RTVSPropertyOp36
 70
     1
102
RTVSPropertyOp37
 70
     1
102
RTVSPropertyOp38
 70
     1
102
RTVSPropertyOp39
 70
     1
102
RTVSPropertyOp40
 70
     1
102
RTVSPropertyOp41
 70
     1
102
RTVSPropertyOp42
 70
     1
102
RTVSPropertyOp43
 70
     1
102
RTVSPropertyOp44
 70
     1
102
RTVSPropertyOp45
 70
     1
102
RTVSPropertyOp46
 70
     1
102
RTVSPropertyOp47
 70
     1
102
RTVSPropertyOp48
 70
     1
102
RTVSPropertyOp49
 70
     1
102
RTVSPropertyOp50
 70
     1
102
RTVSPropertyOp51
 70
     0
102
RTVSPropertyOp52
 70
     0
102
RTVSPropertyOp53
 70
     1
102
RTVSPropertyOp54
 70
     1
102
RTVSPropertyOp55
 70
     1
102
RTVSPropertyOp56
 70
     1
102
RTVSPropertyOp57
 70
     1
102
RTVSPropertyOp58
 70
     1
102
RTVSPropertyOp59
 70
     1
102
RTVSPropertyOp60
 70
     1
102
RTVSPropertyOp61
 70
     1
102
RTVSPropertyOp62
 70
     1
  0
XRECORD
  5
911B
102
{ACAD_REACTORS
330
911A
102
}
330
911A
100
AcDbXrecord
280
     1
102
RTVSPost2010Prop28
280
     0
102
RTVSPost2010PropOp28
 70
     1
102
RTVSPost2010Prop29
280
     1
102
RTVSPost2010PropOp29
 70
     1
102
RTVSPost2010Prop30
280
     1
102
RTVSPost2010PropOp30
 70
     1
102
RTVSPost2010Prop31
280
     0
102
RTVSPost2010PropOp31
 70
     1
102
RTVSPost2010Prop32
280
     0
102
RTVSPost2010PropOp32
 70
     1
102
RTVSPost2010Prop33
280
     0
102
RTVSPost2010PropOp33
 70
     1
102
RTVSPost2010Prop34
280
     0
102
RTVSPost2010PropOp34
 70
     1
102
RTVSPost2010Prop35
280
     0
102
RTVSPost2010PropOp35
 70
     1
102
RTVSPost2010Prop36
280
     0
102
RTVSPost2010PropOp36
 70
     1
102
RTVSPost2010Prop37
 90
       50
102
RTVSPost2010PropOp37
 70
     1
102
RTVSPost2010Prop38
140
0.0
102
RTVSPost2010PropOp38
 70
     1
102
RTVSPost2010Prop39
140
1.0
102
RTVSPost2010PropOp39
 70
     1
102
RTVSPost2010Prop40
 90
        0
102
RTVSPost2010PropOp40
 70
     1
102
RTVSPost2010Prop41ColorIndex
 90
       18
102
RTVSPost2010Prop41ColorRGB
 90
        0
102
RTVSPost2010PropOp41
 70
     1
102
RTVSPost2010Prop42
 90
       50
102
RTVSPost2010PropOp42
 70
     1
102
RTVSPost2010Prop43
 90
        3
102
RTVSPost2010PropOp43
 70
     1
102
RTVSPost2010Prop44ColorIndex
 90
        5
102
RTVSPost2010Prop44ColorRGB
 90
      255
102
RTVSPost2010PropOp44
 70
     1
102
RTVSPost2010Prop45
280
     0
102
RTVSPost2010PropOp45
 70
     1
102
RTVSPost2010Prop46
 90
       50
102
RTVSPost2010PropOp46
 70
     1
102
RTVSPost2010Prop47
 90
       50
102
RTVSPost2010PropOp47
 70
     1
102
RTVSPost2010Prop48
 90
       50
102
RTVSPost2010PropOp48
 70
     1
102
RTVSPost2010Prop49
280
     0
102
RTVSPost2010PropOp49
 70
     1
102
RTVSPost2010Prop50
 90
       50
102
RTVSPost2010PropOp50
 70
     1
102
RTVSPost2010Prop51ColorIndex
 90
      256
102
RTVSPost2010Prop51ColorRGB
 90
-16777216
102
RTVSPost2010PropOp51
 70
     0
102
RTVSPost2010Prop52
140
1.0
102
RTVSPost2010PropOp52
 70
     0
102
RTVSPost2010Prop53
 90
        2
102
RTVSPost2010PropOp53
 70
     1
102
RTVSPost2010Prop54
  1
strokes_ogs.tif
102
RTVSPost2010PropOp54
 70
     1
102
RTVSPost2010Prop55
280
     0
102
RTVSPost2010PropOp55
 70
     1
102
RTVSPost2010Prop56
140
1.0
102
RTVSPost2010PropOp56
 70
     1
102
RTVSPost2010Prop57
140
1.0
102
RTVSPost2010PropOp57
 70
     1
102
RTVSPropertyOp0
 70
     1
102
RTVSPropertyOp1
 70
     1
102
RTVSPropertyOp2
 70
     1
102
RTVSPropertyOp3
 70
     1
102
RTVSPropertyOp4
 70
     1
102
RTVSPropertyOp5
 70
     1
102
RTVSPropertyOp6
 70
     1
102
RTVSPropertyOp7
 70
     1
102
RTVSPropertyOp8
 70
     1
102
RTVSPropertyOp9
 70
     1
102
RTVSPropertyOp10
 70
     1
102
RTVSPropertyOp11
 70
     1
102
RTVSPropertyOp12
 70
     1
102
RTVSPropertyOp13
 70
     1
102
RTVSPropertyOp14
 70
     1
102
RTVSPropertyOp15
 70
     1
102
RTVSPropertyOp16
 70
     1
102
RTVSPropertyOp17
 70
     1
102
RTVSPropertyOp18
 70
     1
102
RTVSPropertyOp19
 70
     1
102
RTVSPropertyOp20
 70
     1
102
RTVSPropertyOp21
 70
     1
102
RTVSPropertyOp22
 70
     1
102
RTVSPropertyOp23
 70
     1
102
RTVSPropertyOp24
 70
     1
102
RTVSPropertyOp25
 70
     1
102
RTVSPropertyOp26
 70
     1
102
RTVSPropertyOp27
 70
     1
102
RTVSPropertyOp28
 70
     1
102
RTVSPropertyOp29
 70
     1
102
RTVSPropertyOp30
 70
     1
102
RTVSPropertyOp31
 70
     1
102
RTVSPropertyOp32
 70
     1
102
RTVSPropertyOp33
 70
     1
102
RTVSPropertyOp34
 70
     1
102
RTVSPropertyOp35
 70
     1
102
RTVSPropertyOp36
 70
     1
102
RTVSPropertyOp37
 70
     1
102
RTVSPropertyOp38
 70
     1
102
RTVSPropertyOp39
 70
     1
102
RTVSPropertyOp40
 70
     1
102
RTVSPropertyOp41
 70
     1
102
RTVSPropertyOp42
 70
     1
102
RTVSPropertyOp43
 70
     1
102
RTVSPropertyOp44
 70
     1
102
RTVSPropertyOp45
 70
     1
102
RTVSPropertyOp46
 70
     1
102
RTVSPropertyOp47
 70
     1
102
RTVSPropertyOp48
 70
     1
102
RTVSPropertyOp49
 70
     1
102
RTVSPropertyOp50
 70
     1
102
RTVSPropertyOp51
 70
     0
102
RTVSPropertyOp52
 70
     0
102
RTVSPropertyOp53
 70
     1
102
RTVSPropertyOp54
 70
     1
102
RTVSPropertyOp55
 70
     1
102
RTVSPropertyOp56
 70
     1
102
RTVSPropertyOp57
 70
     1
102
RTVSPropertyOp58
 70
     1
102
RTVSPropertyOp59
 70
     1
102
RTVSPropertyOp60
 70
     1
102
RTVSPropertyOp61
 70
     1
102
RTVSPropertyOp62
 70
     1
  0
XRECORD
  5
9125
102
{ACAD_REACTORS
330
9124
102
}
330
9124
100
AcDbXrecord
280
     1
102
RTVSPost2010Prop28
280
     0
102
RTVSPost2010PropOp28
 70
     1
102
RTVSPost2010Prop29
280
     1
102
RTVSPost2010PropOp29
 70
     1
102
RTVSPost2010Prop30
280
     1
102
RTVSPost2010PropOp30
 70
     1
102
RTVSPost2010Prop31
280
     0
102
RTVSPost2010PropOp31
 70
     1
102
RTVSPost2010Prop32
280
     0
102
RTVSPost2010PropOp32
 70
     1
102
RTVSPost2010Prop33
280
     0
102
RTVSPost2010PropOp33
 70
     1
102
RTVSPost2010Prop34
280
     0
102
RTVSPost2010PropOp34
 70
     1
102
RTVSPost2010Prop35
280
     0
102
RTVSPost2010PropOp35
 70
     1
102
RTVSPost2010Prop36
280
     0
102
RTVSPost2010PropOp36
 70
     1
102
RTVSPost2010Prop37
 90
       50
102
RTVSPost2010PropOp37
 70
     1
102
RTVSPost2010Prop38
140
0.0
102
RTVSPost2010PropOp38
 70
     1
102
RTVSPost2010Prop39
140
1.0
102
RTVSPost2010PropOp39
 70
     1
102
RTVSPost2010Prop40
 90
        0
102
RTVSPost2010PropOp40
 70
     1
102
RTVSPost2010Prop41ColorIndex
 90
       18
102
RTVSPost2010Prop41ColorRGB
 90
        0
102
RTVSPost2010PropOp41
 70
     1
102
RTVSPost2010Prop42
 90
       50
102
RTVSPost2010PropOp42
 70
     1
102
RTVSPost2010Prop43
 90
        3
102
RTVSPost2010PropOp43
 70
     1
102
RTVSPost2010Prop44ColorIndex
 90
        5
102
RTVSPost2010Prop44ColorRGB
 90
      255
102
RTVSPost2010PropOp44
 70
     1
102
RTVSPost2010Prop45
280
     0
102
RTVSPost2010PropOp45
 70
     1
102
RTVSPost2010Prop46
 90
       50
102
RTVSPost2010PropOp46
 70
     1
102
RTVSPost2010Prop47
 90
       50
102
RTVSPost2010PropOp47
 70
     1
102
RTVSPost2010Prop48
 90
       50
102
RTVSPost2010PropOp48
 70
     1
102
RTVSPost2010Prop49
280
     0
102
RTVSPost2010PropOp49
 70
     1
102
RTVSPost2010Prop50
 90
       50
102
RTVSPost2010PropOp50
 70
     1
102
RTVSPost2010Prop51ColorIndex
 90
      256
102
RTVSPost2010Prop51ColorRGB
 90
-16777216
102
RTVSPost2010PropOp51
 70
     0
102
RTVSPost2010Prop52
140
1.0
102
RTVSPost2010PropOp52
 70
     0
102
RTVSPost2010Prop53
 90
        2
102
RTVSPost2010PropOp53
 70
     1
102
RTVSPost2010Prop54
  1
strokes_ogs.tif
102
RTVSPost2010PropOp54
 70
     1
102
RTVSPost2010Prop55
280
     0
102
RTVSPost2010PropOp55
 70
     1
102
RTVSPost2010Prop56
140
1.0
102
RTVSPost2010PropOp56
 70
     1
102
RTVSPost2010Prop57
140
1.0
102
RTVSPost2010PropOp57
 70
     1
102
RTVSPropertyOp0
 70
     0
102
RTVSPropertyOp1
 70
     0
102
RTVSPropertyOp2
 70
     0
102
RTVSPropertyOp3
 70
     0
102
RTVSPropertyOp4
 70
     0
102
RTVSPropertyOp5
 70
     0
102
RTVSPropertyOp6
 70
     0
102
RTVSPropertyOp7
 70
     0
102
RTVSPropertyOp8
 70
     0
102
RTVSPropertyOp9
 70
     0
102
RTVSPropertyOp10
 70
     0
102
RTVSPropertyOp11
 70
     0
102
RTVSPropertyOp12
 70
     0
102
RTVSPropertyOp13
 70
     0
102
RTVSPropertyOp14
 70
     2
102
RTVSPropertyOp15
 70
     0
102
RTVSPropertyOp16
 70
     0
102
RTVSPropertyOp17
 70
     0
102
RTVSPropertyOp18
 70
     0
102
RTVSPropertyOp19
 70
     0
102
RTVSPropertyOp20
 70
     0
102
RTVSPropertyOp21
 70
     0
102
RTVSPropertyOp22
 70
     0
102
RTVSPropertyOp23
 70
     0
102
RTVSPropertyOp24
 70
     0
102
RTVSPropertyOp25
 70
     0
102
RTVSPropertyOp26
 70
     0
102
RTVSPropertyOp27
 70
     0
102
RTVSPropertyOp28
 70
     1
102
RTVSPropertyOp29
 70
     1
102
RTVSPropertyOp30
 70
     1
102
RTVSPropertyOp31
 70
     1
102
RTVSPropertyOp32
 70
     1
102
RTVSPropertyOp33
 70
     1
102
RTVSPropertyOp34
 70
     1
102
RTVSPropertyOp35
 70
     1
102
RTVSPropertyOp36
 70
     1
102
RTVSPropertyOp37
 70
     1
102
RTVSPropertyOp38
 70
     1
102
RTVSPropertyOp39
 70
     1
102
RTVSPropertyOp40
 70
     1
102
RTVSPropertyOp41
 70
     1
102
RTVSPropertyOp42
 70
     1
102
RTVSPropertyOp43
 70
     1
102
RTVSPropertyOp44
 70
     1
102
RTVSPropertyOp45
 70
     1
102
RTVSPropertyOp46
 70
     1
102
RTVSPropertyOp47
 70
     1
102
RTVSPropertyOp48
 70
     1
102
RTVSPropertyOp49
 70
     1
102
RTVSPropertyOp50
 70
     1
102
RTVSPropertyOp51
 70
     0
102
RTVSPropertyOp52
 70
     0
102
RTVSPropertyOp53
 70
     1
102
RTVSPropertyOp54
 70
     1
102
RTVSPropertyOp55
 70
     1
102
RTVSPropertyOp56
 70
     1
102
RTVSPropertyOp57
 70
     1
102
RTVSPropertyOp58
 70
     1
102
RTVSPropertyOp59
 70
     1
102
RTVSPropertyOp60
 70
     1
102
RTVSPropertyOp61
 70
     1
102
RTVSPropertyOp62
 70
     1
  0
XRECORD
  5
9113
102
{ACAD_REACTORS
330
9112
102
}
330
9112
100
AcDbXrecord
280
     1
102
RTVSPost2010Prop28
280
     0
102
RTVSPost2010PropOp28
 70
     1
102
RTVSPost2010Prop29
280
     1
102
RTVSPost2010PropOp29
 70
     1
102
RTVSPost2010Prop30
280
     1
102
RTVSPost2010PropOp30
 70
     1
102
RTVSPost2010Prop31
280
     0
102
RTVSPost2010PropOp31
 70
     1
102
RTVSPost2010Prop32
280
     0
102
RTVSPost2010PropOp32
 70
     1
102
RTVSPost2010Prop33
280
     0
102
RTVSPost2010PropOp33
 70
     1
102
RTVSPost2010Prop34
280
     0
102
RTVSPost2010PropOp34
 70
     1
102
RTVSPost2010Prop35
280
     0
102
RTVSPost2010PropOp35
 70
     1
102
RTVSPost2010Prop36
280
     0
102
RTVSPost2010PropOp36
 70
     1
102
RTVSPost2010Prop37
 90
       50
102
RTVSPost2010PropOp37
 70
     1
102
RTVSPost2010Prop38
140
0.0
102
RTVSPost2010PropOp38
 70
     1
102
RTVSPost2010Prop39
140
1.0
102
RTVSPost2010PropOp39
 70
     1
102
RTVSPost2010Prop40
 90
        0
102
RTVSPost2010PropOp40
 70
     1
102
RTVSPost2010Prop41ColorIndex
 90
       18
102
RTVSPost2010Prop41ColorRGB
 90
        0
102
RTVSPost2010PropOp41
 70
     1
102
RTVSPost2010Prop42
 90
       50
102
RTVSPost2010PropOp42
 70
     1
102
RTVSPost2010Prop43
 90
        3
102
RTVSPost2010PropOp43
 70
     1
102
RTVSPost2010Prop44ColorIndex
 90
        5
102
RTVSPost2010Prop44ColorRGB
 90
      255
102
RTVSPost2010PropOp44
 70
     1
102
RTVSPost2010Prop45
280
     0
102
RTVSPost2010PropOp45
 70
     1
102
RTVSPost2010Prop46
 90
       50
102
RTVSPost2010PropOp46
 70
     1
102
RTVSPost2010Prop47
 90
       50
102
RTVSPost2010PropOp47
 70
     1
102
RTVSPost2010Prop48
 90
       50
102
RTVSPost2010PropOp48
 70
     1
102
RTVSPost2010Prop49
280
     0
102
RTVSPost2010PropOp49
 70
     1
102
RTVSPost2010Prop50
 90
       50
102
RTVSPost2010PropOp50
 70
     1
102
RTVSPost2010Prop51ColorIndex
 90
      256
102
RTVSPost2010Prop51ColorRGB
 90
-16777216
102
RTVSPost2010PropOp51
 70
     0
102
RTVSPost2010Prop52
140
1.0
102
RTVSPost2010PropOp52
 70
     0
102
RTVSPost2010Prop53
 90
        2
102
RTVSPost2010PropOp53
 70
     1
102
RTVSPost2010Prop54
  1
strokes_ogs.tif
102
RTVSPost2010PropOp54
 70
     1
102
RTVSPost2010Prop55
280
     0
102
RTVSPost2010PropOp55
 70
     1
102
RTVSPost2010Prop56
140
1.0
102
RTVSPost2010PropOp56
 70
     1
102
RTVSPost2010Prop57
140
1.0
102
RTVSPost2010PropOp57
 70
     1
102
RTVSPropertyOp0
 70
     1
102
RTVSPropertyOp1
 70
     1
102
RTVSPropertyOp2
 70
     1
102
RTVSPropertyOp3
 70
     1
102
RTVSPropertyOp4
 70
     1
102
RTVSPropertyOp5
 70
     1
102
RTVSPropertyOp6
 70
     1
102
RTVSPropertyOp7
 70
     1
102
RTVSPropertyOp8
 70
     1
102
RTVSPropertyOp9
 70
     1
102
RTVSPropertyOp10
 70
     1
102
RTVSPropertyOp11
 70
     1
102
RTVSPropertyOp12
 70
     1
102
RTVSPropertyOp13
 70
     1
102
RTVSPropertyOp14
 70
     1
102
RTVSPropertyOp15
 70
     1
102
RTVSPropertyOp16
 70
     1
102
RTVSPropertyOp17
 70
     1
102
RTVSPropertyOp18
 70
     1
102
RTVSPropertyOp19
 70
     1
102
RTVSPropertyOp20
 70
     1
102
RTVSPropertyOp21
 70
     1
102
RTVSPropertyOp22
 70
     1
102
RTVSPropertyOp23
 70
     1
102
RTVSPropertyOp24
 70
     1
102
RTVSPropertyOp25
 70
     1
102
RTVSPropertyOp26
 70
     1
102
RTVSPropertyOp27
 70
     1
102
RTVSPropertyOp28
 70
     1
102
RTVSPropertyOp29
 70
     1
102
RTVSPropertyOp30
 70
     1
102
RTVSPropertyOp31
 70
     1
102
RTVSPropertyOp32
 70
     1
102
RTVSPropertyOp33
 70
     1
102
RTVSPropertyOp34
 70
     1
102
RTVSPropertyOp35
 70
     1
102
RTVSPropertyOp36
 70
     1
102
RTVSPropertyOp37
 70
     1
102
RTVSPropertyOp38
 70
     1
102
RTVSPropertyOp39
 70
     1
102
RTVSPropertyOp40
 70
     1
102
RTVSPropertyOp41
 70
     1
102
RTVSPropertyOp42
 70
     1
102
RTVSPropertyOp43
 70
     1
102
RTVSPropertyOp44
 70
     1
102
RTVSPropertyOp45
 70
     1
102
RTVSPropertyOp46
 70
     1
102
RTVSPropertyOp47
 70
     1
102
RTVSPropertyOp48
 70
     1
102
RTVSPropertyOp49
 70
     1
102
RTVSPropertyOp50
 70
     1
102
RTVSPropertyOp51
 70
     0
102
RTVSPropertyOp52
 70
     0
102
RTVSPropertyOp53
 70
     1
102
RTVSPropertyOp54
 70
     1
102
RTVSPropertyOp55
 70
     1
102
RTVSPropertyOp56
 70
     1
102
RTVSPropertyOp57
 70
     1
102
RTVSPropertyOp58
 70
     1
102
RTVSPropertyOp59
 70
     1
102
RTVSPropertyOp60
 70
     1
102
RTVSPropertyOp61
 70
     1
102
RTVSPropertyOp62
 70
     1
  0
XRECORD
  5
9131
102
{ACAD_REACTORS
330
9130
102
}
330
9130
100
AcDbXrecord
280
     1
102
RTVSPost2010Prop28
280
     0
102
RTVSPost2010PropOp28
 70
     1
102
RTVSPost2010Prop29
280
     1
102
RTVSPost2010PropOp29
 70
     1
102
RTVSPost2010Prop30
280
     1
102
RTVSPost2010PropOp30
 70
     1
102
RTVSPost2010Prop31
280
     0
102
RTVSPost2010PropOp31
 70
     1
102
RTVSPost2010Prop32
280
     0
102
RTVSPost2010PropOp32
 70
     1
102
RTVSPost2010Prop33
280
     0
102
RTVSPost2010PropOp33
 70
     1
102
RTVSPost2010Prop34
280
     0
102
RTVSPost2010PropOp34
 70
     1
102
RTVSPost2010Prop35
280
     0
102
RTVSPost2010PropOp35
 70
     1
102
RTVSPost2010Prop36
280
     0
102
RTVSPost2010PropOp36
 70
     1
102
RTVSPost2010Prop37
 90
       50
102
RTVSPost2010PropOp37
 70
     1
102
RTVSPost2010Prop38
140
0.0
102
RTVSPost2010PropOp38
 70
     1
102
RTVSPost2010Prop39
140
1.0
102
RTVSPost2010PropOp39
 70
     1
102
RTVSPost2010Prop40
 90
        0
102
RTVSPost2010PropOp40
 70
     1
102
RTVSPost2010Prop41ColorIndex
 90
       18
102
RTVSPost2010Prop41ColorRGB
 90
        0
102
RTVSPost2010PropOp41
 70
     1
102
RTVSPost2010Prop42
 90
       50
102
RTVSPost2010PropOp42
 70
     1
102
RTVSPost2010Prop43
 90
        3
102
RTVSPost2010PropOp43
 70
     1
102
RTVSPost2010Prop44ColorIndex
 90
        5
102
RTVSPost2010Prop44ColorRGB
 90
      255
102
RTVSPost2010PropOp44
 70
     1
102
RTVSPost2010Prop45
280
     0
102
RTVSPost2010PropOp45
 70
     1
102
RTVSPost2010Prop46
 90
       50
102
RTVSPost2010PropOp46
 70
     1
102
RTVSPost2010Prop47
 90
       50
102
RTVSPost2010PropOp47
 70
     1
102
RTVSPost2010Prop48
 90
       50
102
RTVSPost2010PropOp48
 70
     1
102
RTVSPost2010Prop49
280
     0
102
RTVSPost2010PropOp49
 70
     1
102
RTVSPost2010Prop50
 90
       50
102
RTVSPost2010PropOp50
 70
     1
102
RTVSPost2010Prop51ColorIndex
 90
      256
102
RTVSPost2010Prop51ColorRGB
 90
-16777216
102
RTVSPost2010PropOp51
 70
     0
102
RTVSPost2010Prop52
140
1.0
102
RTVSPost2010PropOp52
 70
     0
102
RTVSPost2010Prop53
 90
        2
102
RTVSPost2010PropOp53
 70
     1
102
RTVSPost2010Prop54
  1
strokes_ogs.tif
102
RTVSPost2010PropOp54
 70
     1
102
RTVSPost2010Prop55
280
     0
102
RTVSPost2010PropOp55
 70
     1
102
RTVSPost2010Prop56
140
1.0
102
RTVSPost2010PropOp56
 70
     1
102
RTVSPost2010Prop57
140
1.0
102
RTVSPost2010PropOp57
 70
     1
102
RTVSPropertyOp0
 70
     1
102
RTVSPropertyOp1
 70
     1
102
RTVSPropertyOp2
 70
     1
102
RTVSPropertyOp3
 70
     1
102
RTVSPropertyOp4
 70
     1
102
RTVSPropertyOp5
 70
     1
102
RTVSPropertyOp6
 70
     1
102
RTVSPropertyOp7
 70
     1
102
RTVSPropertyOp8
 70
     1
102
RTVSPropertyOp9
 70
     1
102
RTVSPropertyOp10
 70
     1
102
RTVSPropertyOp11
 70
     1
102
RTVSPropertyOp12
 70
     1
102
RTVSPropertyOp13
 70
     1
102
RTVSPropertyOp14
 70
     1
102
RTVSPropertyOp15
 70
     1
102
RTVSPropertyOp16
 70
     1
102
RTVSPropertyOp17
 70
     1
102
RTVSPropertyOp18
 70
     1
102
RTVSPropertyOp19
 70
     1
102
RTVSPropertyOp20
 70
     1
102
RTVSPropertyOp21
 70
     1
102
RTVSPropertyOp22
 70
     1
102
RTVSPropertyOp23
 70
     1
102
RTVSPropertyOp24
 70
     1
102
RTVSPropertyOp25
 70
     1
102
RTVSPropertyOp26
 70
     1
102
RTVSPropertyOp27
 70
     1
102
RTVSPropertyOp28
 70
     1
102
RTVSPropertyOp29
 70
     1
102
RTVSPropertyOp30
 70
     1
102
RTVSPropertyOp31
 70
     1
102
RTVSPropertyOp32
 70
     1
102
RTVSPropertyOp33
 70
     1
102
RTVSPropertyOp34
 70
     1
102
RTVSPropertyOp35
 70
     1
102
RTVSPropertyOp36
 70
     1
102
RTVSPropertyOp37
 70
     1
102
RTVSPropertyOp38
 70
     1
102
RTVSPropertyOp39
 70
     1
102
RTVSPropertyOp40
 70
     1
102
RTVSPropertyOp41
 70
     1
102
RTVSPropertyOp42
 70
     1
102
RTVSPropertyOp43
 70
     1
102
RTVSPropertyOp44
 70
     1
102
RTVSPropertyOp45
 70
     1
102
RTVSPropertyOp46
 70
     1
102
RTVSPropertyOp47
 70
     1
102
RTVSPropertyOp48
 70
     1
102
RTVSPropertyOp49
 70
     1
102
RTVSPropertyOp50
 70
     1
102
RTVSPropertyOp51
 70
     0
102
RTVSPropertyOp52
 70
     0
102
RTVSPropertyOp53
 70
     1
102
RTVSPropertyOp54
 70
     1
102
RTVSPropertyOp55
 70
     1
102
RTVSPropertyOp56
 70
     1
102
RTVSPropertyOp57
 70
     1
102
RTVSPropertyOp58
 70
     1
102
RTVSPropertyOp59
 70
     1
102
RTVSPropertyOp60
 70
     1
102
RTVSPropertyOp61
 70
     1
102
RTVSPropertyOp62
 70
     1
  0
XRECORD
  5
912F
102
{ACAD_REACTORS
330
912E
102
}
330
912E
100
AcDbXrecord
280
     1
102
RTVSPost2010Prop28
280
     0
102
RTVSPost2010PropOp28
 70
     1
102
RTVSPost2010Prop29
280
     1
102
RTVSPost2010PropOp29
 70
     1
102
RTVSPost2010Prop30
280
     1
102
RTVSPost2010PropOp30
 70
     1
102
RTVSPost2010Prop31
280
     0
102
RTVSPost2010PropOp31
 70
     1
102
RTVSPost2010Prop32
280
     0
102
RTVSPost2010PropOp32
 70
     1
102
RTVSPost2010Prop33
280
     0
102
RTVSPost2010PropOp33
 70
     1
102
RTVSPost2010Prop34
280
     0
102
RTVSPost2010PropOp34
 70
     1
102
RTVSPost2010Prop35
280
     0
102
RTVSPost2010PropOp35
 70
     1
102
RTVSPost2010Prop36
280
     0
102
RTVSPost2010PropOp36
 70
     1
102
RTVSPost2010Prop37
 90
       50
102
RTVSPost2010PropOp37
 70
     1
102
RTVSPost2010Prop38
140
0.0
102
RTVSPost2010PropOp38
 70
     1
102
RTVSPost2010Prop39
140
1.0
102
RTVSPost2010PropOp39
 70
     1
102
RTVSPost2010Prop40
 90
        0
102
RTVSPost2010PropOp40
 70
     1
102
RTVSPost2010Prop41ColorIndex
 90
       18
102
RTVSPost2010Prop41ColorRGB
 90
        0
102
RTVSPost2010PropOp41
 70
     1
102
RTVSPost2010Prop42
 90
       50
102
RTVSPost2010PropOp42
 70
     1
102
RTVSPost2010Prop43
 90
        3
102
RTVSPost2010PropOp43
 70
     1
102
RTVSPost2010Prop44ColorIndex
 90
        5
102
RTVSPost2010Prop44ColorRGB
 90
      255
102
RTVSPost2010PropOp44
 70
     1
102
RTVSPost2010Prop45
280
     0
102
RTVSPost2010PropOp45
 70
     1
102
RTVSPost2010Prop46
 90
       50
102
RTVSPost2010PropOp46
 70
     1
102
RTVSPost2010Prop47
 90
       50
102
RTVSPost2010PropOp47
 70
     1
102
RTVSPost2010Prop48
 90
       50
102
RTVSPost2010PropOp48
 70
     1
102
RTVSPost2010Prop49
280
     0
102
RTVSPost2010PropOp49
 70
     1
102
RTVSPost2010Prop50
 90
       50
102
RTVSPost2010PropOp50
 70
     1
102
RTVSPost2010Prop51ColorIndex
 90
      256
102
RTVSPost2010Prop51ColorRGB
 90
-16777216
102
RTVSPost2010PropOp51
 70
     0
102
RTVSPost2010Prop52
140
1.0
102
RTVSPost2010PropOp52
 70
     0
102
RTVSPost2010Prop53
 90
        2
102
RTVSPost2010PropOp53
 70
     1
102
RTVSPost2010Prop54
  1
strokes_ogs.tif
102
RTVSPost2010PropOp54
 70
     1
102
RTVSPost2010Prop55
280
     0
102
RTVSPost2010PropOp55
 70
     1
102
RTVSPost2010Prop56
140
1.0
102
RTVSPost2010PropOp56
 70
     1
102
RTVSPost2010Prop57
140
1.0
102
RTVSPost2010PropOp57
 70
     1
102
RTVSPropertyOp0
 70
     1
102
RTVSPropertyOp1
 70
     1
102
RTVSPropertyOp2
 70
     1
102
RTVSPropertyOp3
 70
     1
102
RTVSPropertyOp4
 70
     1
102
RTVSPropertyOp5
 70
     1
102
RTVSPropertyOp6
 70
     1
102
RTVSPropertyOp7
 70
     1
102
RTVSPropertyOp8
 70
     1
102
RTVSPropertyOp9
 70
     1
102
RTVSPropertyOp10
 70
     1
102
RTVSPropertyOp11
 70
     1
102
RTVSPropertyOp12
 70
     1
102
RTVSPropertyOp13
 70
     1
102
RTVSPropertyOp14
 70
     1
102
RTVSPropertyOp15
 70
     1
102
RTVSPropertyOp16
 70
     1
102
RTVSPropertyOp17
 70
     1
102
RTVSPropertyOp18
 70
     1
102
RTVSPropertyOp19
 70
     1
102
RTVSPropertyOp20
 70
     1
102
RTVSPropertyOp21
 70
     1
102
RTVSPropertyOp22
 70
     1
102
RTVSPropertyOp23
 70
     1
102
RTVSPropertyOp24
 70
     1
102
RTVSPropertyOp25
 70
     1
102
RTVSPropertyOp26
 70
     1
102
RTVSPropertyOp27
 70
     1
102
RTVSPropertyOp28
 70
     1
102
RTVSPropertyOp29
 70
     1
102
RTVSPropertyOp30
 70
     1
102
RTVSPropertyOp31
 70
     1
102
RTVSPropertyOp32
 70
     1
102
RTVSPropertyOp33
 70
     1
102
RTVSPropertyOp34
 70
     1
102
RTVSPropertyOp35
 70
     1
102
RTVSPropertyOp36
 70
     1
102
RTVSPropertyOp37
 70
     1
102
RTVSPropertyOp38
 70
     1
102
RTVSPropertyOp39
 70
     1
102
RTVSPropertyOp40
 70
     1
102
RTVSPropertyOp41
 70
     1
102
RTVSPropertyOp42
 70
     1
102
RTVSPropertyOp43
 70
     1
102
RTVSPropertyOp44
 70
     1
102
RTVSPropertyOp45
 70
     1
102
RTVSPropertyOp46
 70
     1
102
RTVSPropertyOp47
 70
     1
102
RTVSPropertyOp48
 70
     1
102
RTVSPropertyOp49
 70
     1
102
RTVSPropertyOp50
 70
     1
102
RTVSPropertyOp51
 70
     0
102
RTVSPropertyOp52
 70
     0
102
RTVSPropertyOp53
 70
     1
102
RTVSPropertyOp54
 70
     1
102
RTVSPropertyOp55
 70
     1
102
RTVSPropertyOp56
 70
     1
102
RTVSPropertyOp57
 70
     1
102
RTVSPropertyOp58
 70
     1
102
RTVSPropertyOp59
 70
     1
102
RTVSPropertyOp60
 70
     1
102
RTVSPropertyOp61
 70
     1
102
RTVSPropertyOp62
 70
     1
  0
XRECORD
  5
9129
102
{ACAD_REACTORS
330
9128
102
}
330
9128
100
AcDbXrecord
280
     1
102
RTVSPost2010Prop28
280
     0
102
RTVSPost2010PropOp28
 70
     1
102
RTVSPost2010Prop29
280
     1
102
RTVSPost2010PropOp29
 70
     1
102
RTVSPost2010Prop30
280
     1
102
RTVSPost2010PropOp30
 70
     1
102
RTVSPost2010Prop31
280
     0
102
RTVSPost2010PropOp31
 70
     1
102
RTVSPost2010Prop32
280
     0
102
RTVSPost2010PropOp32
 70
     1
102
RTVSPost2010Prop33
280
     0
102
RTVSPost2010PropOp33
 70
     1
102
RTVSPost2010Prop34
280
     0
102
RTVSPost2010PropOp34
 70
     1
102
RTVSPost2010Prop35
280
     0
102
RTVSPost2010PropOp35
 70
     1
102
RTVSPost2010Prop36
280
     0
102
RTVSPost2010PropOp36
 70
     1
102
RTVSPost2010Prop37
 90
       50
102
RTVSPost2010PropOp37
 70
     1
102
RTVSPost2010Prop38
140
0.0
102
RTVSPost2010PropOp38
 70
     1
102
RTVSPost2010Prop39
140
1.0
102
RTVSPost2010PropOp39
 70
     1
102
RTVSPost2010Prop40
 90
        0
102
RTVSPost2010PropOp40
 70
     1
102
RTVSPost2010Prop41ColorIndex
 90
       18
102
RTVSPost2010Prop41ColorRGB
 90
        0
102
RTVSPost2010PropOp41
 70
     1
102
RTVSPost2010Prop42
 90
       50
102
RTVSPost2010PropOp42
 70
     1
102
RTVSPost2010Prop43
 90
        3
102
RTVSPost2010PropOp43
 70
     1
102
RTVSPost2010Prop44ColorIndex
 90
        5
102
RTVSPost2010Prop44ColorRGB
 90
      255
102
RTVSPost2010PropOp44
 70
     1
102
RTVSPost2010Prop45
280
     0
102
RTVSPost2010PropOp45
 70
     1
102
RTVSPost2010Prop46
 90
       50
102
RTVSPost2010PropOp46
 70
     1
102
RTVSPost2010Prop47
 90
       50
102
RTVSPost2010PropOp47
 70
     1
102
RTVSPost2010Prop48
 90
       50
102
RTVSPost2010PropOp48
 70
     1
102
RTVSPost2010Prop49
280
     0
102
RTVSPost2010PropOp49
 70
     1
102
RTVSPost2010Prop50
 90
       50
102
RTVSPost2010PropOp50
 70
     1
102
RTVSPost2010Prop51ColorIndex
 90
      256
102
RTVSPost2010Prop51ColorRGB
 90
-16777216
102
RTVSPost2010PropOp51
 70
     0
102
RTVSPost2010Prop52
140
1.0
102
RTVSPost2010PropOp52
 70
     0
102
RTVSPost2010Prop53
 90
        2
102
RTVSPost2010PropOp53
 70
     1
102
RTVSPost2010Prop54
  1
strokes_ogs.tif
102
RTVSPost2010PropOp54
 70
     1
102
RTVSPost2010Prop55
280
     0
102
RTVSPost2010PropOp55
 70
     1
102
RTVSPost2010Prop56
140
1.0
102
RTVSPost2010PropOp56
 70
     1
102
RTVSPost2010Prop57
140
1.0
102
RTVSPost2010PropOp57
 70
     1
102
RTVSPropertyOp0
 70
     1
102
RTVSPropertyOp1
 70
     1
102
RTVSPropertyOp2
 70
     1
102
RTVSPropertyOp3
 70
     1
102
RTVSPropertyOp4
 70
     1
102
RTVSPropertyOp5
 70
     1
102
RTVSPropertyOp6
 70
     1
102
RTVSPropertyOp7
 70
     1
102
RTVSPropertyOp8
 70
     1
102
RTVSPropertyOp9
 70
     1
102
RTVSPropertyOp10
 70
     1
102
RTVSPropertyOp11
 70
     1
102
RTVSPropertyOp12
 70
     1
102
RTVSPropertyOp13
 70
     1
102
RTVSPropertyOp14
 70
     1
102
RTVSPropertyOp15
 70
     1
102
RTVSPropertyOp16
 70
     1
102
RTVSPropertyOp17
 70
     1
102
RTVSPropertyOp18
 70
     1
102
RTVSPropertyOp19
 70
     1
102
RTVSPropertyOp20
 70
     1
102
RTVSPropertyOp21
 70
     1
102
RTVSPropertyOp22
 70
     1
102
RTVSPropertyOp23
 70
     1
102
RTVSPropertyOp24
 70
     1
102
RTVSPropertyOp25
 70
     1
102
RTVSPropertyOp26
 70
     1
102
RTVSPropertyOp27
 70
     1
102
RTVSPropertyOp28
 70
     1
102
RTVSPropertyOp29
 70
     1
102
RTVSPropertyOp30
 70
     1
102
RTVSPropertyOp31
 70
     1
102
RTVSPropertyOp32
 70
     1
102
RTVSPropertyOp33
 70
     1
102
RTVSPropertyOp34
 70
     1
102
RTVSPropertyOp35
 70
     1
102
RTVSPropertyOp36
 70
     1
102
RTVSPropertyOp37
 70
     1
102
RTVSPropertyOp38
 70
     1
102
RTVSPropertyOp39
 70
     1
102
RTVSPropertyOp40
 70
     1
102
RTVSPropertyOp41
 70
     1
102
RTVSPropertyOp42
 70
     1
102
RTVSPropertyOp43
 70
     1
102
RTVSPropertyOp44
 70
     1
102
RTVSPropertyOp45
 70
     1
102
RTVSPropertyOp46
 70
     1
102
RTVSPropertyOp47
 70
     1
102
RTVSPropertyOp48
 70
     1
102
RTVSPropertyOp49
 70
     1
102
RTVSPropertyOp50
 70
     1
102
RTVSPropertyOp51
 70
     0
102
RTVSPropertyOp52
 70
     0
102
RTVSPropertyOp53
 70
     1
102
RTVSPropertyOp54
 70
     1
102
RTVSPropertyOp55
 70
     1
102
RTVSPropertyOp56
 70
     1
102
RTVSPropertyOp57
 70
     1
102
RTVSPropertyOp58
 70
     1
102
RTVSPropertyOp59
 70
     1
102
RTVSPropertyOp60
 70
     1
102
RTVSPropertyOp61
 70
     1
102
RTVSPropertyOp62
 70
     1
  0
XRECORD
  5
912B
102
{ACAD_REACTORS
330
912A
102
}
330
912A
100
AcDbXrecord
280
     1
102
RTVSPost2010Prop28
280
     0
102
RTVSPost2010PropOp28
 70
     1
102
RTVSPost2010Prop29
280
     1
102
RTVSPost2010PropOp29
 70
     1
102
RTVSPost2010Prop30
280
     1
102
RTVSPost2010PropOp30
 70
     1
102
RTVSPost2010Prop31
280
     0
102
RTVSPost2010PropOp31
 70
     1
102
RTVSPost2010Prop32
280
     0
102
RTVSPost2010PropOp32
 70
     1
102
RTVSPost2010Prop33
280
     0
102
RTVSPost2010PropOp33
 70
     1
102
RTVSPost2010Prop34
280
     0
102
RTVSPost2010PropOp34
 70
     1
102
RTVSPost2010Prop35
280
     0
102
RTVSPost2010PropOp35
 70
     1
102
RTVSPost2010Prop36
280
     0
102
RTVSPost2010PropOp36
 70
     1
102
RTVSPost2010Prop37
 90
       50
102
RTVSPost2010PropOp37
 70
     1
102
RTVSPost2010Prop38
140
0.0
102
RTVSPost2010PropOp38
 70
     1
102
RTVSPost2010Prop39
140
1.0
102
RTVSPost2010PropOp39
 70
     1
102
RTVSPost2010Prop40
 90
        0
102
RTVSPost2010PropOp40
 70
     1
102
RTVSPost2010Prop41ColorIndex
 90
       18
102
RTVSPost2010Prop41ColorRGB
 90
        0
102
RTVSPost2010PropOp41
 70
     1
102
RTVSPost2010Prop42
 90
       50
102
RTVSPost2010PropOp42
 70
     1
102
RTVSPost2010Prop43
 90
        3
102
RTVSPost2010PropOp43
 70
     1
102
RTVSPost2010Prop44ColorIndex
 90
        5
102
RTVSPost2010Prop44ColorRGB
 90
      255
102
RTVSPost2010PropOp44
 70
     1
102
RTVSPost2010Prop45
280
     0
102
RTVSPost2010PropOp45
 70
     1
102
RTVSPost2010Prop46
 90
       50
102
RTVSPost2010PropOp46
 70
     1
102
RTVSPost2010Prop47
 90
       50
102
RTVSPost2010PropOp47
 70
     1
102
RTVSPost2010Prop48
 90
       50
102
RTVSPost2010PropOp48
 70
     1
102
RTVSPost2010Prop49
280
     0
102
RTVSPost2010PropOp49
 70
     1
102
RTVSPost2010Prop50
 90
       50
102
RTVSPost2010PropOp50
 70
     1
102
RTVSPost2010Prop51ColorIndex
 90
      256
102
RTVSPost2010Prop51ColorRGB
 90
-16777216
102
RTVSPost2010PropOp51
 70
     0
102
RTVSPost2010Prop52
140
1.0
102
RTVSPost2010PropOp52
 70
     0
102
RTVSPost2010Prop53
 90
        2
102
RTVSPost2010PropOp53
 70
     1
102
RTVSPost2010Prop54
  1
strokes_ogs.tif
102
RTVSPost2010PropOp54
 70
     1
102
RTVSPost2010Prop55
280
     0
102
RTVSPost2010PropOp55
 70
     1
102
RTVSPost2010Prop56
140
1.0
102
RTVSPost2010PropOp56
 70
     1
102
RTVSPost2010Prop57
140
1.0
102
RTVSPost2010PropOp57
 70
     1
102
RTVSPropertyOp0
 70
     1
102
RTVSPropertyOp1
 70
     1
102
RTVSPropertyOp2
 70
     1
102
RTVSPropertyOp3
 70
     1
102
RTVSPropertyOp4
 70
     1
102
RTVSPropertyOp5
 70
     1
102
RTVSPropertyOp6
 70
     1
102
RTVSPropertyOp7
 70
     1
102
RTVSPropertyOp8
 70
     1
102
RTVSPropertyOp9
 70
     1
102
RTVSPropertyOp10
 70
     1
102
RTVSPropertyOp11
 70
     1
102
RTVSPropertyOp12
 70
     1
102
RTVSPropertyOp13
 70
     1
102
RTVSPropertyOp14
 70
     1
102
RTVSPropertyOp15
 70
     1
102
RTVSPropertyOp16
 70
     1
102
RTVSPropertyOp17
 70
     1
102
RTVSPropertyOp18
 70
     1
102
RTVSPropertyOp19
 70
     1
102
RTVSPropertyOp20
 70
     1
102
RTVSPropertyOp21
 70
     1
102
RTVSPropertyOp22
 70
     1
102
RTVSPropertyOp23
 70
     1
102
RTVSPropertyOp24
 70
     1
102
RTVSPropertyOp25
 70
     1
102
RTVSPropertyOp26
 70
     1
102
RTVSPropertyOp27
 70
     1
102
RTVSPropertyOp28
 70
     1
102
RTVSPropertyOp29
 70
     1
102
RTVSPropertyOp30
 70
     1
102
RTVSPropertyOp31
 70
     1
102
RTVSPropertyOp32
 70
     1
102
RTVSPropertyOp33
 70
     1
102
RTVSPropertyOp34
 70
     1
102
RTVSPropertyOp35
 70
     1
102
RTVSPropertyOp36
 70
     1
102
RTVSPropertyOp37
 70
     1
102
RTVSPropertyOp38
 70
     1
102
RTVSPropertyOp39
 70
     1
102
RTVSPropertyOp40
 70
     1
102
RTVSPropertyOp41
 70
     1
102
RTVSPropertyOp42
 70
     1
102
RTVSPropertyOp43
 70
     1
102
RTVSPropertyOp44
 70
     1
102
RTVSPropertyOp45
 70
     1
102
RTVSPropertyOp46
 70
     1
102
RTVSPropertyOp47
 70
     1
102
RTVSPropertyOp48
 70
     1
102
RTVSPropertyOp49
 70
     1
102
RTVSPropertyOp50
 70
     1
102
RTVSPropertyOp51
 70
     0
102
RTVSPropertyOp52
 70
     0
102
RTVSPropertyOp53
 70
     1
102
RTVSPropertyOp54
 70
     1
102
RTVSPropertyOp55
 70
     1
102
RTVSPropertyOp56
 70
     1
102
RTVSPropertyOp57
 70
     1
102
RTVSPropertyOp58
 70
     1
102
RTVSPropertyOp59
 70
     1
102
RTVSPropertyOp60
 70
     1
102
RTVSPropertyOp61
 70
     1
102
RTVSPropertyOp62
 70
     1
  0
XRECORD
  5
9119
102
{ACAD_REACTORS
330
9118
102
}
330
9118
100
AcDbXrecord
280
     1
102
RTVSPost2010Prop28
280
     0
102
RTVSPost2010PropOp28
 70
     1
102
RTVSPost2010Prop29
280
     1
102
RTVSPost2010PropOp29
 70
     1
102
RTVSPost2010Prop30
280
     1
102
RTVSPost2010PropOp30
 70
     1
102
RTVSPost2010Prop31
280
     0
102
RTVSPost2010PropOp31
 70
     1
102
RTVSPost2010Prop32
280
     0
102
RTVSPost2010PropOp32
 70
     1
102
RTVSPost2010Prop33
280
     0
102
RTVSPost2010PropOp33
 70
     1
102
RTVSPost2010Prop34
280
     0
102
RTVSPost2010PropOp34
 70
     1
102
RTVSPost2010Prop35
280
     0
102
RTVSPost2010PropOp35
 70
     1
102
RTVSPost2010Prop36
280
     0
102
RTVSPost2010PropOp36
 70
     1
102
RTVSPost2010Prop37
 90
       50
102
RTVSPost2010PropOp37
 70
     1
102
RTVSPost2010Prop38
140
0.0
102
RTVSPost2010PropOp38
 70
     1
102
RTVSPost2010Prop39
140
1.0
102
RTVSPost2010PropOp39
 70
     1
102
RTVSPost2010Prop40
 90
        0
102
RTVSPost2010PropOp40
 70
     1
102
RTVSPost2010Prop41ColorIndex
 90
       18
102
RTVSPost2010Prop41ColorRGB
 90
        0
102
RTVSPost2010PropOp41
 70
     1
102
RTVSPost2010Prop42
 90
       50
102
RTVSPost2010PropOp42
 70
     1
102
RTVSPost2010Prop43
 90
        3
102
RTVSPost2010PropOp43
 70
     1
102
RTVSPost2010Prop44ColorIndex
 90
        5
102
RTVSPost2010Prop44ColorRGB
 90
      255
102
RTVSPost2010PropOp44
 70
     1
102
RTVSPost2010Prop45
280
     0
102
RTVSPost2010PropOp45
 70
     1
102
RTVSPost2010Prop46
 90
       50
102
RTVSPost2010PropOp46
 70
     1
102
RTVSPost2010Prop47
 90
       50
102
RTVSPost2010PropOp47
 70
     1
102
RTVSPost2010Prop48
 90
       50
102
RTVSPost2010PropOp48
 70
     1
102
RTVSPost2010Prop49
280
     0
102
RTVSPost2010PropOp49
 70
     1
102
RTVSPost2010Prop50
 90
       50
102
RTVSPost2010PropOp50
 70
     1
102
RTVSPost2010Prop51ColorIndex
 90
      256
102
RTVSPost2010Prop51ColorRGB
 90
-16777216
102
RTVSPost2010PropOp51
 70
     0
102
RTVSPost2010Prop52
140
1.0
102
RTVSPost2010PropOp52
 70
     0
102
RTVSPost2010Prop53
 90
        2
102
RTVSPost2010PropOp53
 70
     1
102
RTVSPost2010Prop54
  1
strokes_ogs.tif
102
RTVSPost2010PropOp54
 70
     1
102
RTVSPost2010Prop55
280
     0
102
RTVSPost2010PropOp55
 70
     1
102
RTVSPost2010Prop56
140
1.0
102
RTVSPost2010PropOp56
 70
     1
102
RTVSPost2010Prop57
140
1.0
102
RTVSPost2010PropOp57
 70
     1
102
RTVSPropertyOp0
 70
     1
102
RTVSPropertyOp1
 70
     1
102
RTVSPropertyOp2
 70
     1
102
RTVSPropertyOp3
 70
     1
102
RTVSPropertyOp4
 70
     1
102
RTVSPropertyOp5
 70
     1
102
RTVSPropertyOp6
 70
     1
102
RTVSPropertyOp7
 70
     1
102
RTVSPropertyOp8
 70
     1
102
RTVSPropertyOp9
 70
     1
102
RTVSPropertyOp10
 70
     1
102
RTVSPropertyOp11
 70
     1
102
RTVSPropertyOp12
 70
     1
102
RTVSPropertyOp13
 70
     1
102
RTVSPropertyOp14
 70
     1
102
RTVSPropertyOp15
 70
     1
102
RTVSPropertyOp16
 70
     1
102
RTVSPropertyOp17
 70
     1
102
RTVSPropertyOp18
 70
     1
102
RTVSPropertyOp19
 70
     1
102
RTVSPropertyOp20
 70
     1
102
RTVSPropertyOp21
 70
     1
102
RTVSPropertyOp22
 70
     1
102
RTVSPropertyOp23
 70
     1
102
RTVSPropertyOp24
 70
     1
102
RTVSPropertyOp25
 70
     1
102
RTVSPropertyOp26
 70
     1
102
RTVSPropertyOp27
 70
     1
102
RTVSPropertyOp28
 70
     1
102
RTVSPropertyOp29
 70
     1
102
RTVSPropertyOp30
 70
     1
102
RTVSPropertyOp31
 70
     1
102
RTVSPropertyOp32
 70
     1
102
RTVSPropertyOp33
 70
     1
102
RTVSPropertyOp34
 70
     1
102
RTVSPropertyOp35
 70
     1
102
RTVSPropertyOp36
 70
     1
102
RTVSPropertyOp37
 70
     1
102
RTVSPropertyOp38
 70
     1
102
RTVSPropertyOp39
 70
     1
102
RTVSPropertyOp40
 70
     1
102
RTVSPropertyOp41
 70
     1
102
RTVSPropertyOp42
 70
     1
102
RTVSPropertyOp43
 70
     1
102
RTVSPropertyOp44
 70
     1
102
RTVSPropertyOp45
 70
     1
102
RTVSPropertyOp46
 70
     1
102
RTVSPropertyOp47
 70
     1
102
RTVSPropertyOp48
 70
     1
102
RTVSPropertyOp49
 70
     1
102
RTVSPropertyOp50
 70
     1
102
RTVSPropertyOp51
 70
     0
102
RTVSPropertyOp52
 70
     0
102
RTVSPropertyOp53
 70
     1
102
RTVSPropertyOp54
 70
     1
102
RTVSPropertyOp55
 70
     1
102
RTVSPropertyOp56
 70
     1
102
RTVSPropertyOp57
 70
     1
102
RTVSPropertyOp58
 70
     1
102
RTVSPropertyOp59
 70
     1
102
RTVSPropertyOp60
 70
     1
102
RTVSPropertyOp61
 70
     1
102
RTVSPropertyOp62
 70
     1
  0
XRECORD
  5
910D
102
{ACAD_REACTORS
330
910C
102
}
330
910C
100
AcDbXrecord
280
     1
102
RTVSPost2010Prop28
280
     0
102
RTVSPost2010PropOp28
 70
     1
102
RTVSPost2010Prop29
280
     1
102
RTVSPost2010PropOp29
 70
     1
102
RTVSPost2010Prop30
280
     1
102
RTVSPost2010PropOp30
 70
     1
102
RTVSPost2010Prop31
280
     0
102
RTVSPost2010PropOp31
 70
     1
102
RTVSPost2010Prop32
280
     0
102
RTVSPost2010PropOp32
 70
     1
102
RTVSPost2010Prop33
280
     0
102
RTVSPost2010PropOp33
 70
     1
102
RTVSPost2010Prop34
280
     0
102
RTVSPost2010PropOp34
 70
     1
102
RTVSPost2010Prop35
280
     0
102
RTVSPost2010PropOp35
 70
     1
102
RTVSPost2010Prop36
280
     0
102
RTVSPost2010PropOp36
 70
     1
102
RTVSPost2010Prop37
 90
       50
102
RTVSPost2010PropOp37
 70
     1
102
RTVSPost2010Prop38
140
0.0
102
RTVSPost2010PropOp38
 70
     1
102
RTVSPost2010Prop39
140
1.0
102
RTVSPost2010PropOp39
 70
     1
102
RTVSPost2010Prop40
 90
        0
102
RTVSPost2010PropOp40
 70
     1
102
RTVSPost2010Prop41ColorIndex
 90
       18
102
RTVSPost2010Prop41ColorRGB
 90
        0
102
RTVSPost2010PropOp41
 70
     1
102
RTVSPost2010Prop42
 90
       50
102
RTVSPost2010PropOp42
 70
     1
102
RTVSPost2010Prop43
 90
        3
102
RTVSPost2010PropOp43
 70
     1
102
RTVSPost2010Prop44ColorIndex
 90
        5
102
RTVSPost2010Prop44ColorRGB
 90
      255
102
RTVSPost2010PropOp44
 70
     1
102
RTVSPost2010Prop45
280
     0
102
RTVSPost2010PropOp45
 70
     1
102
RTVSPost2010Prop46
 90
       50
102
RTVSPost2010PropOp46
 70
     1
102
RTVSPost2010Prop47
 90
       50
102
RTVSPost2010PropOp47
 70
     1
102
RTVSPost2010Prop48
 90
       50
102
RTVSPost2010PropOp48
 70
     1
102
RTVSPost2010Prop49
280
     0
102
RTVSPost2010PropOp49
 70
     1
102
RTVSPost2010Prop50
 90
       50
102
RTVSPost2010PropOp50
 70
     1
102
RTVSPost2010Prop51ColorIndex
 90
      256
102
RTVSPost2010Prop51ColorRGB
 90
-16777216
102
RTVSPost2010PropOp51
 70
     0
102
RTVSPost2010Prop52
140
1.0
102
RTVSPost2010PropOp52
 70
     0
102
RTVSPost2010Prop53
 90
        2
102
RTVSPost2010PropOp53
 70
     1
102
RTVSPost2010Prop54
  1
strokes_ogs.tif
102
RTVSPost2010PropOp54
 70
     1
102
RTVSPost2010Prop55
280
     0
102
RTVSPost2010PropOp55
 70
     1
102
RTVSPost2010Prop56
140
1.0
102
RTVSPost2010PropOp56
 70
     1
102
RTVSPost2010Prop57
140
1.0
102
RTVSPost2010PropOp57
 70
     1
102
RTVSPropertyOp0
 70
     1
102
RTVSPropertyOp1
 70
     1
102
RTVSPropertyOp2
 70
     1
102
RTVSPropertyOp3
 70
     1
102
RTVSPropertyOp4
 70
     1
102
RTVSPropertyOp5
 70
     1
102
RTVSPropertyOp6
 70
     1
102
RTVSPropertyOp7
 70
     1
102
RTVSPropertyOp8
 70
     1
102
RTVSPropertyOp9
 70
     1
102
RTVSPropertyOp10
 70
     1
102
RTVSPropertyOp11
 70
     1
102
RTVSPropertyOp12
 70
     1
102
RTVSPropertyOp13
 70
     1
102
RTVSPropertyOp14
 70
     1
102
RTVSPropertyOp15
 70
     1
102
RTVSPropertyOp16
 70
     1
102
RTVSPropertyOp17
 70
     1
102
RTVSPropertyOp18
 70
     1
102
RTVSPropertyOp19
 70
     1
102
RTVSPropertyOp20
 70
     1
102
RTVSPropertyOp21
 70
     1
102
RTVSPropertyOp22
 70
     1
102
RTVSPropertyOp23
 70
     1
102
RTVSPropertyOp24
 70
     1
102
RTVSPropertyOp25
 70
     1
102
RTVSPropertyOp26
 70
     1
102
RTVSPropertyOp27
 70
     1
102
RTVSPropertyOp28
 70
     1
102
RTVSPropertyOp29
 70
     1
102
RTVSPropertyOp30
 70
     1
102
RTVSPropertyOp31
 70
     1
102
RTVSPropertyOp32
 70
     1
102
RTVSPropertyOp33
 70
     1
102
RTVSPropertyOp34
 70
     1
102
RTVSPropertyOp35
 70
     1
102
RTVSPropertyOp36
 70
     1
102
RTVSPropertyOp37
 70
     1
102
RTVSPropertyOp38
 70
     1
102
RTVSPropertyOp39
 70
     1
102
RTVSPropertyOp40
 70
     1
102
RTVSPropertyOp41
 70
     1
102
RTVSPropertyOp42
 70
     1
102
RTVSPropertyOp43
 70
     1
102
RTVSPropertyOp44
 70
     1
102
RTVSPropertyOp45
 70
     1
102
RTVSPropertyOp46
 70
     1
102
RTVSPropertyOp47
 70
     1
102
RTVSPropertyOp48
 70
     1
102
RTVSPropertyOp49
 70
     1
102
RTVSPropertyOp50
 70
     1
102
RTVSPropertyOp51
 70
     0
102
RTVSPropertyOp52
 70
     0
102
RTVSPropertyOp53
 70
     1
102
RTVSPropertyOp54
 70
     1
102
RTVSPropertyOp55
 70
     1
102
RTVSPropertyOp56
 70
     1
102
RTVSPropertyOp57
 70
     1
102
RTVSPropertyOp58
 70
     1
102
RTVSPropertyOp59
 70
     1
102
RTVSPropertyOp60
 70
     1
102
RTVSPropertyOp61
 70
     1
102
RTVSPropertyOp62
 70
     1
  0
XRECORD
  5
912D
102
{ACAD_REACTORS
330
912C
102
}
330
912C
100
AcDbXrecord
280
     1
102
RTVSPost2010Prop28
280
     0
102
RTVSPost2010PropOp28
 70
     1
102
RTVSPost2010Prop29
280
     1
102
RTVSPost2010PropOp29
 70
     1
102
RTVSPost2010Prop30
280
     1
102
RTVSPost2010PropOp30
 70
     1
102
RTVSPost2010Prop31
280
     0
102
RTVSPost2010PropOp31
 70
     1
102
RTVSPost2010Prop32
280
     0
102
RTVSPost2010PropOp32
 70
     1
102
RTVSPost2010Prop33
280
     0
102
RTVSPost2010PropOp33
 70
     1
102
RTVSPost2010Prop34
280
     0
102
RTVSPost2010PropOp34
 70
     1
102
RTVSPost2010Prop35
280
     0
102
RTVSPost2010PropOp35
 70
     1
102
RTVSPost2010Prop36
280
     0
102
RTVSPost2010PropOp36
 70
     1
102
RTVSPost2010Prop37
 90
       50
102
RTVSPost2010PropOp37
 70
     1
102
RTVSPost2010Prop38
140
0.0
102
RTVSPost2010PropOp38
 70
     1
102
RTVSPost2010Prop39
140
1.0
102
RTVSPost2010PropOp39
 70
     1
102
RTVSPost2010Prop40
 90
        0
102
RTVSPost2010PropOp40
 70
     1
102
RTVSPost2010Prop41ColorIndex
 90
       18
102
RTVSPost2010Prop41ColorRGB
 90
        0
102
RTVSPost2010PropOp41
 70
     1
102
RTVSPost2010Prop42
 90
       50
102
RTVSPost2010PropOp42
 70
     1
102
RTVSPost2010Prop43
 90
        3
102
RTVSPost2010PropOp43
 70
     1
102
RTVSPost2010Prop44ColorIndex
 90
        5
102
RTVSPost2010Prop44ColorRGB
 90
      255
102
RTVSPost2010PropOp44
 70
     1
102
RTVSPost2010Prop45
280
     0
102
RTVSPost2010PropOp45
 70
     1
102
RTVSPost2010Prop46
 90
       50
102
RTVSPost2010PropOp46
 70
     1
102
RTVSPost2010Prop47
 90
       50
102
RTVSPost2010PropOp47
 70
     1
102
RTVSPost2010Prop48
 90
       50
102
RTVSPost2010PropOp48
 70
     1
102
RTVSPost2010Prop49
280
     0
102
RTVSPost2010PropOp49
 70
     1
102
RTVSPost2010Prop50
 90
       50
102
RTVSPost2010PropOp50
 70
     1
102
RTVSPost2010Prop51ColorIndex
 90
      256
102
RTVSPost2010Prop51ColorRGB
 90
-16777216
102
RTVSPost2010PropOp51
 70
     0
102
RTVSPost2010Prop52
140
1.0
102
RTVSPost2010PropOp52
 70
     0
102
RTVSPost2010Prop53
 90
        2
102
RTVSPost2010PropOp53
 70
     1
102
RTVSPost2010Prop54
  1
strokes_ogs.tif
102
RTVSPost2010PropOp54
 70
     1
102
RTVSPost2010Prop55
280
     0
102
RTVSPost2010PropOp55
 70
     1
102
RTVSPost2010Prop56
140
1.0
102
RTVSPost2010PropOp56
 70
     1
102
RTVSPost2010Prop57
140
1.0
102
RTVSPost2010PropOp57
 70
     1
102
RTVSPropertyOp0
 70
     1
102
RTVSPropertyOp1
 70
     1
102
RTVSPropertyOp2
 70
     1
102
RTVSPropertyOp3
 70
     1
102
RTVSPropertyOp4
 70
     1
102
RTVSPropertyOp5
 70
     1
102
RTVSPropertyOp6
 70
     1
102
RTVSPropertyOp7
 70
     1
102
RTVSPropertyOp8
 70
     1
102
RTVSPropertyOp9
 70
     1
102
RTVSPropertyOp10
 70
     1
102
RTVSPropertyOp11
 70
     1
102
RTVSPropertyOp12
 70
     1
102
RTVSPropertyOp13
 70
     1
102
RTVSPropertyOp14
 70
     1
102
RTVSPropertyOp15
 70
     1
102
RTVSPropertyOp16
 70
     1
102
RTVSPropertyOp17
 70
     1
102
RTVSPropertyOp18
 70
     1
102
RTVSPropertyOp19
 70
     1
102
RTVSPropertyOp20
 70
     1
102
RTVSPropertyOp21
 70
     1
102
RTVSPropertyOp22
 70
     1
102
RTVSPropertyOp23
 70
     1
102
RTVSPropertyOp24
 70
     1
102
RTVSPropertyOp25
 70
     1
102
RTVSPropertyOp26
 70
     1
102
RTVSPropertyOp27
 70
     1
102
RTVSPropertyOp28
 70
     1
102
RTVSPropertyOp29
 70
     1
102
RTVSPropertyOp30
 70
     1
102
RTVSPropertyOp31
 70
     1
102
RTVSPropertyOp32
 70
     1
102
RTVSPropertyOp33
 70
     1
102
RTVSPropertyOp34
 70
     1
102
RTVSPropertyOp35
 70
     1
102
RTVSPropertyOp36
 70
     1
102
RTVSPropertyOp37
 70
     1
102
RTVSPropertyOp38
 70
     1
102
RTVSPropertyOp39
 70
     1
102
RTVSPropertyOp40
 70
     1
102
RTVSPropertyOp41
 70
     1
102
RTVSPropertyOp42
 70
     1
102
RTVSPropertyOp43
 70
     1
102
RTVSPropertyOp44
 70
     1
102
RTVSPropertyOp45
 70
     1
102
RTVSPropertyOp46
 70
     1
102
RTVSPropertyOp47
 70
     1
102
RTVSPropertyOp48
 70
     1
102
RTVSPropertyOp49
 70
     1
102
RTVSPropertyOp50
 70
     1
102
RTVSPropertyOp51
 70
     0
102
RTVSPropertyOp52
 70
     0
102
RTVSPropertyOp53
 70
     1
102
RTVSPropertyOp54
 70
     1
102
RTVSPropertyOp55
 70
     1
102
RTVSPropertyOp56
 70
     1
102
RTVSPropertyOp57
 70
     1
102
RTVSPropertyOp58
 70
     1
102
RTVSPropertyOp59
 70
     1
102
RTVSPropertyOp60
 70
     1
102
RTVSPropertyOp61
 70
     1
102
RTVSPropertyOp62
 70
     1
  0
ENDSEC
  0
EOF
