  0
SECTION
  2
HEADER
  9
$ACADVER
  1
AC1015
  9
$ACADMAINTVER
 70
    18
  9
$DWGCODEPAGE
  3
ANSI_1252
  9
$INSBASE
 10
0.0
 20
0.0
 30
0.0
  9
$EXTMIN
 10
-208.2312004363993
 20
-258.0985103511467
 30
-0.0015258207003583
  9
$EXTMAX
 10
260.4684456163884
 20
290.7097785162155
 30
0.0000000349246037
  9
$LIMMIN
 10
0.0
 20
0.0
  9
$LIMMAX
 10
420.0
 20
297.0
  9
$ORTHOMODE
 70
     0
  9
$REGENMODE
 70
     1
  9
$FILLMODE
 70
     1
  9
$QTEXTMODE
 70
     0
  9
$MIRRTEXT
 70
     0
  9
$LTSCALE
 40
1.0
  9
$ATTMODE
 70
     1
  9
$TEXTSIZE
 40
2.5
  9
$TRACEWID
 40
1.0
  9
$TEXTSTYLE
  7
Standard
  9
$CLAYER
  8
0
  9
$CELTYPE
  6
ByLayer
  9
$CECOLOR
 62
   256
  9
$CELTSCALE
 40
1.0
  9
$DISPSILH
 70
     0
  9
$DIMSCALE
 40
1.0
  9
$DIMASZ
 40
2.5
  9
$DIMEXO
 40
0.625
  9
$DIMDLI
 40
3.75
  9
$DIMRND
 40
0.0
  9
$DIMDLE
 40
0.0
  9
$DIMEXE
 40
1.25
  9
$DIMTP
 40
0.0
  9
$DIMTM
 40
0.0
  9
$DIMTXT
 40
2.5
  9
$DIMCEN
 40
2.5
  9
$DIMTSZ
 40
0.0
  9
$DIMTOL
 70
     0
  9
$DIMLIM
 70
     0
  9
$DIMTIH
 70
     0
  9
$DIMTOH
 70
     0
  9
$DIMSE1
 70
     0
  9
$DIMSE2
 70
     0
  9
$DIMTAD
 70
     1
  9
$DIMZIN
 70
     8
  9
$DIMBLK
  1

  9
$DIMASO
 70
     1
  9
$DIMSHO
 70
     1
  9
$DIMPOST
  1

  9
$DIMAPOST
  1

  9
$DIMALT
 70
     0
  9
$DIMALTD
 70
     3
  9
$DIMALTF
 40
0.03937007874016
  9
$DIMLFAC
 40
1.0
  9
$DIMTOFL
 70
     1
  9
$DIMTVP
 40
0.0
  9
$DIMTIX
 70
     0
  9
$DIMSOXD
 70
     0
  9
$DIMSAH
 70
     0
  9
$DIMBLK1
  1

  9
$DIMBLK2
  1

  9
$DIMSTYLE
  2
ISO-25
  9
$DIMCLRD
 70
     0
  9
$DIMCLRE
 70
     0
  9
$DIMCLRT
 70
     0
  9
$DIMTFAC
 40
1.0
  9
$DIMGAP
 40
0.625
  9
$DIMJUST
 70
     0
  9
$DIMSD1
 70
     0
  9
$DIMSD2
 70
     0
  9
$DIMTOLJ
 70
     0
  9
$DIMTZIN
 70
     8
  9
$DIMALTZ
 70
     0
  9
$DIMALTTZ
 70
     0
  9
$DIMUPT
 70
     0
  9
$DIMDEC
 70
     2
  9
$DIMTDEC
 70
     2
  9
$DIMALTU
 70
     2
  9
$DIMALTTD
 70
     3
  9
$DIMTXSTY
  7
Standard
  9
$DIMAUNIT
 70
     0
  9
$DIMADEC
 70
     0
  9
$DIMALTRND
 40
0.0
  9
$DIMAZIN
 70
     0
  9
$DIMDSEP
 70
    44
  9
$DIMATFIT
 70
     3
  9
$DIMFRAC
 70
     0
  9
$DIMLDRBLK
  1

  9
$DIMLUNIT
 70
     2
  9
$DIMLWD
 70
    -2
  9
$DIMLWE
 70
    -2
  9
$DIMTMOVE
 70
     0
  9
$LUNITS
 70
     2
  9
$LUPREC
 70
     4
  9
$SKETCHINC
 40
1.0
  9
$FILLETRAD
 40
0.0
  9
$AUNITS
 70
     0
  9
$AUPREC
 70
     0
  9
$MENU
  1
.
  9
$ELEVATION
 40
0.0
  9
$PELEVATION
 40
0.0
  9
$THICKNESS
 40
0.0
  9
$LIMCHECK
 70
     0
  9
$CHAMFERA
 40
0.0
  9
$CHAMFERB
 40
0.0
  9
$CHAMFERC
 40
0.0
  9
$CHAMFERD
 40
0.0
  9
$SKPOLY
 70
     0
  9
$TDCREATE
 40
2460398.356956019
  9
$TDUCREATE
 40
2460398.065289352
  9
$TDUPDATE
 40
2460398.374837963
  9
$TDUUPDATE
 40
2460398.083171297
  9
$TDINDWG
 40
0.0077777778
  9
$TDUSRTIMER
 40
0.0077777778
  9
$USRTIMER
 70
     1
  9
$ANGBASE
 50
0.0
  9
$ANGDIR
 70
     0
  9
$PDMODE
 70
     0
  9
$PDSIZE
 40
0.0
  9
$PLINEWID
 40
0.0
  9
$SPLFRAME
 70
     0
  9
$SPLINETYPE
 70
     6
  9
$SPLINESEGS
 70
     8
  9
$HANDSEED
  5
9598
  9
$SURFTAB1
 70
     6
  9
$SURFTAB2
 70
     6
  9
$SURFTYPE
 70
     6
  9
$SURFU
 70
     6
  9
$SURFV
 70
     6
  9
$UCSBASE
  2

  9
$UCSNAME
  2

  9
$UCSORG
 10
0.0
 20
0.0
 30
0.0
  9
$UCSXDIR
 10
1.0
 20
0.0
 30
0.0
  9
$UCSYDIR
 10
0.0
 20
1.0
 30
0.0
  9
$UCSORTHOREF
  2

  9
$UCSORTHOVIEW
 70
     0
  9
$UCSORGTOP
 10
0.0
 20
0.0
 30
0.0
  9
$UCSORGBOTTOM
 10
0.0
 20
0.0
 30
0.0
  9
$UCSORGLEFT
 10
0.0
 20
0.0
 30
0.0
  9
$UCSORGRIGHT
 10
0.0
 20
0.0
 30
0.0
  9
$UCSORGFRONT
 10
0.0
 20
0.0
 30
0.0
  9
$UCSORGBACK
 10
0.0
 20
0.0
 30
0.0
  9
$PUCSBASE
  2

  9
$PUCSNAME
  2

  9
$PUCSORG
 10
0.0
 20
0.0
 30
0.0
  9
$PUCSXDIR
 10
1.0
 20
0.0
 30
0.0
  9
$PUCSYDIR
 10
0.0
 20
1.0
 30
0.0
  9
$PUCSORTHOREF
  2

  9
$PUCSORTHOVIEW
 70
     0
  9
$PUCSORGTOP
 10
0.0
 20
0.0
 30
0.0
  9
$PUCSORGBOTTOM
 10
0.0
 20
0.0
 30
0.0
  9
$PUCSORGLEFT
 10
0.0
 20
0.0
 30
0.0
  9
$PUCSORGRIGHT
 10
0.0
 20
0.0
 30
0.0
  9
$PUCSORGFRONT
 10
0.0
 20
0.0
 30
0.0
  9
$PUCSORGBACK
 10
0.0
 20
0.0
 30
0.0
  9
$USERI1
 70
     0
  9
$USERI2
 70
     0
  9
$USERI3
 70
     0
  9
$USERI4
 70
     0
  9
$USERI5
 70
     0
  9
$USERR1
 40
0.0
  9
$USERR2
 40
0.0
  9
$USERR3
 40
0.0
  9
$USERR4
 40
0.0
  9
$USERR5
 40
0.0
  9
$WORLDVIEW
 70
     1
  9
$SHADEDGE
 70
     3
  9
$SHADEDIF
 70
    70
  9
$TILEMODE
 70
     1
  9
$MAXACTVP
 70
    48
  9
$PINSBASE
 10
0.0
 20
0.0
 30
0.0
  9
$PLIMCHECK
 70
     0
  9
$PEXTMIN
 10
0.0
 20
0.0
 30
0.0
  9
$PEXTMAX
 10
0.0
 20
0.0
 30
0.0
  9
$PLIMMIN
 10
0.0
 20
0.0
  9
$PLIMMAX
 10
12.0
 20
9.0
  9
$UNITMODE
 70
     0
  9
$VISRETAIN
 70
     1
  9
$PLINEGEN
 70
     0
  9
$PSLTSCALE
 70
     1
  9
$TREEDEPTH
 70
  3020
  9
$CMLSTYLE
  2
Standard
  9
$CMLJUST
 70
     0
  9
$CMLSCALE
 40
20.0
  9
$PROXYGRAPHICS
 70
     1
  9
$MEASUREMENT
 70
     1
  9
$CELWEIGHT
370
    -1
  9
$ENDCAPS
280
     0
  9
$JOINSTYLE
280
     0
  9
$LWDISPLAY
290
     0
  9
$INSUNITS
 70
     4
  9
$HYPERLINKBASE
  1

  9
$STYLESHEET
  1

  9
$XEDIT
290
     1
  9
$CEPSNTYPE
380
     0
  9
$PSTYLEMODE
290
     1
  9
$FINGERPRINTGUID
  2
{6C1266EE-7BC1-BF4A-B059-A6E7702B10CE}
  9
$VERSIONGUID
  2
{79CDCD21-0DB6-9941-A57A-4E535A759F93}
  9
$EXTNAMES
290
     1
  9
$PSVPSCALE
 40
0.0
  9
$OLESTARTUP
290
     0
  0
ENDSEC
  0
SECTION
  2
CLASSES
  0
CLASS
  1
ACDBDICTIONARYWDFLT
  2
AcDbDictionaryWithDefault
  3
ObjectDBX Classes
 90
        0
280
     0
281
     0
  0
CLASS
  1
ACDBPLACEHOLDER
  2
AcDbPlaceHolder
  3
ObjectDBX Classes
 90
        0
280
     0
281
     0
  0
CLASS
  1
LAYOUT
  2
AcDbLayout
  3
ObjectDBX Classes
 90
        0
280
     0
281
     0
  0
CLASS
  1
DICTIONARYVAR
  2
AcDbDictionaryVar
  3
ObjectDBX Classes
 90
        0
280
     0
281
     0
  0
CLASS
  1
TABLESTYLE
  2
AcDbTableStyle
  3
ObjectDBX Classes
 90
     4095
280
     0
281
     0
  0
CLASS
  1
MATERIAL
  2
AcDbMaterial
  3
ObjectDBX Classes
 90
     1153
280
     0
281
     0
  0
CLASS
  1
VISUALSTYLE
  2
AcDbVisualStyle
  3
ObjectDBX Classes
 90
     4095
280
     0
281
     0
  0
CLASS
  1
SCALE
  2
AcDbScale
  3
ObjectDBX Classes
 90
     1153
280
     0
281
     0
  0
CLASS
  1
MLEADERSTYLE
  2
AcDbMLeaderStyle
  3
ACDB_MLEADERSTYLE_CLASS
 90
     4095
280
     0
281
     0
  0
CLASS
  1
CELLSTYLEMAP
  2
AcDbCellStyleMap
  3
ObjectDBX Classes
 90
     1152
280
     0
281
     0
  0
CLASS
  1
EXACXREFPANELOBJECT
  2
ExAcXREFPanelObject
  3
EXAC_ESW
 90
    33793
280
     0
281
     0
  0
CLASS
  1
NPOCOLLECTION
  2
AcDbImpNonPersistentObjectsCollection
  3
ObjectDBX Classes
 90
    33921
280
     0
281
     0
  0
CLASS
  1
LAYER_INDEX
  2
AcDbLayerIndex
  3
ObjectDBX Classes
 90
    32768
280
     0
281
     0
  0
CLASS
  1
SPATIAL_INDEX
  2
AcDbSpatialIndex
  3
ObjectDBX Classes
 90
    32768
280
     0
281
     0
  0
CLASS
  1
IDBUFFER
  2
AcDbIdBuffer
  3
ObjectDBX Classes
 90
    32768
280
     0
281
     0
  0
CLASS
  1
ACDBSECTIONVIEWSTYLE
  2
AcDbSectionViewStyle
  3
ObjectDBX Classes
 90
     1025
280
     0
281
     0
  0
CLASS
  1
ACDBDETAILVIEWSTYLE
  2
AcDbDetailViewStyle
  3
ObjectDBX Classes
 90
     1025
280
     0
281
     0
  0
CLASS
  1
XRECORD
  2
AcDbXrecord
  3
ObjectDBX Classes
 90
        0
280
     0
281
     0
  0
ENDSEC
  0
SECTION
  2
TABLES
  0
TABLE
  2
VPORT
  5
8
102
{ACAD_XDICTIONARY
360
94A6
102
}
330
0
100
AcDbSymbolTable
 70
     1
  0
VPORT
  5
EA
330
8
100
AcDbSymbolTableRecord
100
AcDbViewportTableRecord
  2
*Active
 70
     0
 10
0.0
 20
0.0
 11
1.0
 21
1.0
 12
26.11862258999457
 22
16.30563408253442
 13
0.0
 23
0.0
 14
10.0
 24
10.0
 15
10.0
 25
10.0
 16
0.0
 26
0.0
 36
1.0
 17
0.0
 27
0.0
 37
0.0
 40
583.6078803834713
 41
0.9846153846153844
 42
50.0
 43
0.0
 44
0.0
 50
0.0
 51
0.0
 71
     0
 72
  1000
 73
     1
 74
     3
 75
     0
 76
     1
 77
     0
 78
     0
281
     0
 65
     1
110
0.0
120
0.0
130
0.0
111
1.0
121
0.0
131
0.0
112
0.0
122
1.0
132
0.0
 79
     0
146
0.0
1001
ACAD_NAV_VCDISPLAY
1070
     3
  0
ENDTAB
  0
TABLE
  2
LTYPE
  5
5
330
0
100
AcDbSymbolTable
 70
     1
  0
LTYPE
  5
14
330
5
100
AcDbSymbolTableRecord
100
AcDbLinetypeTableRecord
  2
ByBlock
 70
     0
  3

 72
    65
 73
     0
 40
0.0
  0
LTYPE
  5
15
330
5
100
AcDbSymbolTableRecord
100
AcDbLinetypeTableRecord
  2
ByLayer
 70
     0
  3

 72
    65
 73
     0
 40
0.0
  0
LTYPE
  5
16
330
5
100
AcDbSymbolTableRecord
100
AcDbLinetypeTableRecord
  2
Continuous
 70
     0
  3
Solid line
 72
    65
 73
     0
 40
0.0
  0
ENDTAB
  0
TABLE
  2
LAYER
  5
2
102
{ACAD_XDICTIONARY
360
1FF
102
}
330
0
100
AcDbSymbolTable
 70
     1
  0
LAYER
  5
10
102
{ACAD_XDICTIONARY
360
13C
102
}
330
2
100
AcDbSymbolTableRecord
100
AcDbLayerTableRecord
  2
0
 70
     0
 62
     7
  6
Continuous
370
    -3
390
F
  0
ENDTAB
  0
TABLE
  2
STYLE
  5
3
330
0
100
AcDbSymbolTable
 70
     1
  0
STYLE
  5
11
330
3
100
AcDbSymbolTableRecord
100
AcDbTextStyleTableRecord
  2
Standard
 70
     0
 40
0.0
 41
1.0
 50
0.0
 71
     0
 42
2.5
  3
arial.ttf
  4

1001
ACAD
1000
Arial
1071
       34
  0
ENDTAB
  0
TABLE
  2
VIEW
  5
6
330
0
100
AcDbSymbolTable
 70
     0
  0
ENDTAB
  0
TABLE
  2
UCS
  5
7
330
0
100
AcDbSymbolTable
 70
     0
  0
ENDTAB
  0
TABLE
  2
APPID
  5
9
330
0
100
AcDbSymbolTable
 70
     8
  0
APPID
  5
12
330
9
100
AcDbSymbolTableRecord
100
AcDbRegAppTableRecord
  2
ACAD
 70
     0
  0
APPID
  5
9E
330
9
100
AcDbSymbolTableRecord
100
AcDbRegAppTableRecord
  2
ACAD_PSEXT
 70
     0
  0
APPID
  5
133
330
9
100
AcDbSymbolTableRecord
100
AcDbRegAppTableRecord
  2
AcadAnnoPO
 70
     0
  0
APPID
  5
134
330
9
100
AcDbSymbolTableRecord
100
AcDbRegAppTableRecord
  2
AcadAnnotative
 70
     0
  0
APPID
  5
135
330
9
100
AcDbSymbolTableRecord
100
AcDbRegAppTableRecord
  2
ACAD_DSTYLE_DIMJAG
 70
     0
  0
APPID
  5
136
330
9
100
AcDbSymbolTableRecord
100
AcDbRegAppTableRecord
  2
ACAD_DSTYLE_DIMTALN
 70
     0
  0
APPID
  5
165
330
9
100
AcDbSymbolTableRecord
100
AcDbRegAppTableRecord
  2
ACAD_MLEADERVER
 70
     0
  0
APPID
  5
217
330
9
100
AcDbSymbolTableRecord
100
AcDbRegAppTableRecord
  2
ACAD_NAV_VCDISPLAY
 70
     0
  0
ENDTAB
  0
TABLE
  2
DIMSTYLE
  5
A
330
0
100
AcDbSymbolTable
 70
     1
100
AcDbDimStyleTable
 71
     0
  0
DIMSTYLE
105
27
330
A
100
AcDbSymbolTableRecord
100
AcDbDimStyleTableRecord
  2
ISO-25
 70
     0
 41
2.5
 42
0.625
 43
3.75
 44
1.25
 73
     0
 74
     0
 77
     1
 78
     8
140
2.5
141
2.5
143
0.03937007874016
147
0.625
171
     3
172
     1
271
     2
272
     2
274
     3
278
    44
283
     0
284
     8
340
11
  0
ENDTAB
  0
TABLE
  2
BLOCK_RECORD
  5
1
330
0
100
AcDbSymbolTable
 70
     7
  0
BLOCK_RECORD
  5
1F
102
{ACAD_XDICTIONARY
360
1CE
102
}
330
1
100
AcDbSymbolTableRecord
100
AcDbBlockTableRecord
  2
*Model_Space
340
22
  0
BLOCK_RECORD
  5
D2
102
{ACAD_XDICTIONARY
360
9459
102
}
330
1
100
AcDbSymbolTableRecord
100
AcDbBlockTableRecord
  2
*Paper_Space
340
D3
  0
BLOCK_RECORD
  5
D6
102
{ACAD_XDICTIONARY
360
945B
102
}
330
1
100
AcDbSymbolTableRecord
100
AcDbBlockTableRecord
  2
*Paper_Space0
340
D7
  0
BLOCK_RECORD
  5
92D4
330
1
100
AcDbSymbolTableRecord
100
AcDbBlockTableRecord
  2
SAE380_66_2-Front
340
0
102
{BLKREFS
331
944F
102
}
  0
BLOCK_RECORD
  5
9326
330
1
100
AcDbSymbolTableRecord
100
AcDbBlockTableRecord
  2
SAE380_66_2-Left
340
0
102
{BLKREFS
331
9450
102
}
  0
BLOCK_RECORD
  5
9345
330
1
100
AcDbSymbolTableRecord
100
AcDbBlockTableRecord
  2
SAE380_66_2-Right
340
0
102
{BLKREFS
331
9451
102
}
  0
BLOCK_RECORD
  5
9364
330
1
100
AcDbSymbolTableRecord
100
AcDbBlockTableRecord
  2
SAE380_66_2-Top
340
0
102
{BLKREFS
331
9452
102
}
  0
BLOCK_RECORD
  5
9393
330
1
100
AcDbSymbolTableRecord
100
AcDbBlockTableRecord
  2
SAE380_66_2-Bottom
340
0
102
{BLKREFS
331
9453
102
}
  0
BLOCK_RECORD
  5
93C0
330
1
100
AcDbSymbolTableRecord
100
AcDbBlockTableRecord
  2
SAE380_66_2-ISO
340
0
102
{BLKREFS
331
9454
102
}
  0
ENDTAB
  0
ENDSEC
  0
SECTION
  2
BLOCKS
  0
BLOCK
  5
20
330
1F
100
AcDbEntity
  8
0
100
AcDbBlockBegin
  2
*Model_Space
 70
     0
 10
0.0
 20
0.0
 30
0.0
  3
*Model_Space
  1

  0
ENDBLK
  5
21
330
1F
100
AcDbEntity
  8
0
100
AcDbBlockEnd
  0
BLOCK
  5
D4
330
D2
100
AcDbEntity
 67
     1
  8
0
100
AcDbBlockBegin
  2
*Paper_Space
 70
     0
 10
0.0
 20
0.0
 30
0.0
  3
*Paper_Space
  1

  0
ENDBLK
  5
D5
330
D2
100
AcDbEntity
 67
     1
  8
0
100
AcDbBlockEnd
  0
BLOCK
  5
D8
330
D6
100
AcDbEntity
 67
     1
  8
0
100
AcDbBlockBegin
  2
*Paper_Space0
 70
     0
 10
0.0
 20
0.0
 30
0.0
  3
*Paper_Space0
  1

  0
ENDBLK
  5
D9
330
D6
100
AcDbEntity
 67
     1
  8
0
100
AcDbBlockEnd
  0
BLOCK
  5
92D5
330
92D4
100
AcDbEntity
  8
0
100
AcDbBlockBegin
  2
SAE380_66_2-Front
 70
     0
 10
0.0
 20
0.0
 30
0.0
  3
SAE380_66_2-Front
  1

  0
SPLINE
  5
92D7
330
92D4
100
AcDbEntity
  8
0
100
AcDbSpline
210
0.0
220
0.0
230
1.0
 70
     8
 71
     3
 72
    14
 73
    10
 74
     0
 42
0.000000001
 43
0.0000000001
 40
0.0
 40
0.0
 40
0.0
 40
0.0
 40
0.343514936890645
 40
0.343514936890645
 40
0.343514936890645
 40
0.7569946176848412
 40
0.7569946176848412
 40
0.7569946176848412
 40
0.9986518539078154
 40
0.9986518539078154
 40
0.9986518539078154
 40
0.9986518539078154
 10
37.60606060606065
 20
29.56249999999998
 30
0.0
 10
37.28490796719894
 20
29.30249636930679
 30
0.0
 10
36.87246555816056
 20
29.07529402125398
 30
0.0
 10
36.47647444982542
 20
28.84408179460996
 30
0.0
 10
35.99983061432349
 20
28.56577786251945
 30
0.0
 10
35.53729794764854
 20
28.27139780310986
 30
0.0
 10
35.26242807115259
 20
27.85792704007977
 30
0.0
 10
35.10178101215473
 20
27.61627501582325
 30
0.0
 10
35.00111705893955
 20
27.36107503903389
 30
0.0
 10
35.00000923809139
 20
27.00595276476665
 30
0.0
  0
LINE
  5
92D8
330
92D4
100
AcDbEntity
  8
0
100
AcDbLine
 10
35.00000000000001
 20
29.56249999999995
 30
0.0
 11
37.0
 21
29.56249999999995
 31
0.0
  0
SPLINE
  5
92D9
330
92D4
100
AcDbEntity
  8
0
100
AcDbSpline
210
0.0
220
0.0
230
1.0
 70
     8
 71
     3
 72
    20
 73
    16
 74
     0
 42
0.000000001
 43
0.0000000001
 40
0.0120731921700155
 40
0.0120731921700155
 40
0.0120731921700155
 40
0.0120731921700155
 40
0.0124289663038863
 40
0.0124289663038863
 40
0.0135304508231852
 40
0.0135304508231852
 40
0.0142264320345103
 40
0.0142264320345103
 40
0.0153097346190854
 40
0.0153097346190854
 40
0.0162528438642979
 40
0.0162528438642979
 40
0.0174018563006694
 40
0.0174018563006694
 40
0.0202450227714398
 40
0.0202450227714398
 40
0.0202450227714398
 40
0.0202450227714398
 10
35.00029164702532
 20
27.05864902333879
 30
0.0
 10
35.00029164702502
 20
27.05864902331324
 30
0.0
 10
35.00029123435229
 20
27.05861299962553
 30
0.0
 10
35.0002877289834
 20
27.05830161329401
 30
0.0
 10
35.0002806586734
 20
27.05767618263947
 30
0.0
 10
35.00026146651613
 20
27.05580933536804
 30
0.0
 10
35.00025210286883
 20
27.0548706883481
 30
0.0
 10
35.00022447614365
 20
27.051898848807
 30
0.0
 10
35.00020363024976
 20
27.04947521985302
 30
0.0
 10
35.00016555221868
 20
27.04422715873504
 30
0.0
 10
35.00014801097058
 20
27.04146190545957
 30
0.0
 10
35.00011447314157
 20
27.03509459384509
 30
0.0
 10
35.0000995703661
 20
27.03145232387028
 30
0.0
 10
35.00006174290847
 20
27.0186804069213
 30
0.0
 10
35.00005914540214
 20
27.00931556212802
 30
0.0
 10
35.00007431648733
 20
26.99999917427212
 30
0.0
  0
SPLINE
  5
92DA
330
92D4
100
AcDbEntity
  8
0
100
AcDbSpline
210
0.0
220
0.0
230
1.0
 70
     8
 71
     3
 72
    20
 73
    16
 74
     0
 42
0.000000001
 43
0.0000000001
 40
0.0053330810650352
 40
0.0053330810650352
 40
0.0053330810650352
 40
0.0053330810650352
 40
0.0056477943916968
 40
0.0056477943916968
 40
0.0060465554215376
 40
0.0060465554215376
 40
0.0065309063272865
 40
0.0065309063272865
 40
0.0071941963494464
 40
0.0071941963494464
 40
0.0085675417413998
 40
0.0085675417413998
 40
0.0106391875781334
 40
0.0106391875781334
 40
0.0111028705409751
 40
0.0111028705409751
 40
0.0111028705409751
 40
0.0111028705409751
 10
35.00010883933756
 20
27.04546313440669
 30
0.0
 10
35.00010883931899
 20
27.04546313141634
 30
0.0
 10
35.00010796015283
 20
27.0453222945154
 30
0.0
 10
35.00010437321102
 20
27.0447346579437
 30
0.0
 10
35.00010121321608
 20
27.04421100299449
 30
0.0
 10
35.00009286763238
 20
27.04276712656533
 30
0.0
 10
35.0000873457313
 20
27.0417760448901
 30
0.0
 10
35.00007384221615
 20
27.03918097215331
 30
0.0
 10
35.00006571105205
 20
27.03748289822572
 30
0.0
 10
35.00004297942792
 20
27.03216360426293
 30
0.0
 10
35.00002983006515
 20
27.02823211091848
 30
0.0
 10
35.00000644270514
 20
27.01793158273836
 30
0.0
 10
35.00000107511989
 20
27.01126213475163
 30
0.0
 10
35.0000062298811
 20
27.0030264676971
 30
0.0
 10
35.00000763416
 20
27.00151388785523
 30
0.0
 10
35.00000948701008
 20
26.99999731133812
 30
0.0
  0
SPLINE
  5
92DB
330
92D4
100
AcDbEntity
  8
0
100
AcDbSpline
210
0.0
220
0.0
230
1.0
 70
     8
 71
     3
 72
     8
 73
     4
 74
     0
 42
0.000000001
 43
0.0000000001
 40
0.0
 40
0.0
 40
0.0
 40
0.0
 40
0.0015511722997693
 40
0.0015511722997693
 40
0.0015511722997693
 40
0.0015511722997693
 10
32.99955984654371
 20
27.00000111615403
 30
0.0
 10
32.99956565327769
 20
27.00446881099346
 30
0.0
 10
32.9995707664154
 20
27.00884708261055
 30
0.0
 10
32.99957512909045
 20
27.01307591327023
 30
0.0
  0
SPLINE
  5
92DC
330
92D4
100
AcDbEntity
  8
0
100
AcDbSpline
210
0.0
220
0.0
230
1.0
 70
     8
 71
     3
 72
    16
 73
    12
 74
     0
 42
0.000000001
 43
0.0000000001
 40
0.0
 40
0.0
 40
0.0
 40
0.0
 40
0.0021186811676754
 40
0.0021186811676754
 40
0.0037963488459148
 40
0.0037963488459148
 40
0.0060490110141684
 40
0.0060490110141684
 40
0.0082160740684394
 40
0.0082160740684394
 40
0.0100715168515367
 40
0.0100715168515367
 40
0.0100715168515367
 40
0.0100715168515367
 10
32.99977770285841
 20
26.99999671130079
 30
0.0
 10
32.99967060184523
 20
27.00696262094532
 30
0.0
 10
32.99956026411971
 20
27.01406437693302
 30
0.0
 10
32.99936153534968
 20
27.02670814077012
 30
0.0
 10
32.99927271949092
 20
27.03230570790609
 30
0.0
 10
32.99907108314032
 20
27.04490248802903
 30
0.0
 10
32.99895813017157
 20
27.05187273930799
 30
0.0
 10
32.99876083666507
 20
27.063950031816
 30
0.0
 10
32.99867338960722
 20
27.06925359834818
 30
0.0
 10
32.99853375467416
 20
27.07766822118499
 30
0.0
 10
32.99847718645118
 20
27.08105233802003
 30
0.0
 10
32.99842789893924
 20
27.08398349762589
 30
0.0
  0
SPLINE
  5
92DD
330
92D4
100
AcDbEntity
  8
0
100
AcDbSpline
210
0.0
220
0.0
230
1.0
 70
     8
 71
     3
 72
    34
 73
    30
 74
     0
 42
0.000000001
 43
0.0000000001
 40
0.0018826910006997
 40
0.0018826910006997
 40
0.0018826910006997
 40
0.0018826910006997
 40
0.006793166981101
 40
0.006793166981101
 40
0.0148581762506371
 40
0.0148581762506371
 40
0.0216571624462134
 40
0.0216571624462134
 40
0.0241181605690224
 40
0.0241181605690224
 40
0.0262721351084985
 40
0.0262721351084985
 40
0.0291183974646347
 40
0.0291183974646347
 40
0.0315307617228103
 40
0.0315307617228103
 40
0.0346506209083105
 40
0.0346506209083105
 40
0.0395925192801115
 40
0.0395925192801115
 40
0.048904704029349
 40
0.048904704029349
 40
0.0719038373465024
 40
0.0719038373465024
 40
0.141474957945631
 40
0.141474957945631
 40
0.2235343191840088
 40
0.2235343191840088
 40
0.2662176350741188
 40
0.2662176350741188
 40
0.2662176350741188
 40
0.2662176350741188
 10
32.99993408575558
 20
27.003821543003
 30
0.0
 10
32.9998640823589
 20
27.00784010262307
 30
0.0
 10
32.99976229507092
 20
27.01358798899486
 30
0.0
 10
32.99943617609229
 20
27.03150095250915
 30
0.0
 10
32.99917379097145
 20
27.04547905759628
 30
0.0
 10
32.99862147508252
 20
27.07412851656073
 30
0.0
 10
32.99834195422537
 20
27.0883697878239
 30
0.0
 10
32.99789287056497
 20
27.11129985230315
 30
0.0
 10
32.99776556978506
 20
27.11780783859723
 30
0.0
 10
32.99751102761123
 20
27.13092137187184
 30
0.0
 10
32.99738418371801
 20
27.13749599514776
 30
0.0
 10
32.99708160720967
 20
27.15339172509136
 30
0.0
 10
32.99689912594368
 20
27.16314759810319
 30
0.0
 10
32.99658164288886
 20
27.18063164078133
 30
0.0
 10
32.99644054079538
 20
27.18860762358588
 30
0.0
 10
32.99613963834364
 20
27.20613328496864
 30
0.0
 10
32.99598354352519
 20
27.21562306652284
 30
0.0
 10
32.99561575572555
 20
27.23897255829924
 30
0.0
 10
32.99542133084362
 20
27.25235292945385
 30
0.0
 10
32.99492632777847
 20
27.28908036040112
 30
0.0
 10
32.99467887913362
 20
27.31107662911672
 30
0.0
 10
32.99397377070959
 20
27.38483545472727
 30
0.0
 10
32.99373075802448
 20
27.43325128744028
 30
0.0
 10
32.99330496972086
 20
27.6352451354597
 30
0.0
 10
32.99455225589435
 20
27.81157714835445
 30
0.0
 10
32.99793365454271
 20
28.23302852515839
 30
0.0
 10
32.9994379848518
 20
28.48841650591983
 30
0.0
 10
32.99998708512243
 20
28.89240745393125
 30
0.0
 10
32.9999819111611
 20
29.03407841411717
 30
0.0
 10
32.99998937018707
 20
29.1758627214606
 30
0.0
  0
SPLINE
  5
92DE
330
92D4
100
AcDbEntity
  8
0
100
AcDbSpline
210
0.0
220
0.0
230
1.0
 70
     8
 71
     3
 72
    12
 73
     8
 74
     0
 42
0.000000001
 43
0.0000000001
 40
0.0
 40
0.0
 40
0.0
 40
0.0
 40
0.0030437043007669
 40
0.0030437043007669
 40
0.0059481041554206
 40
0.0059481041554206
 40
0.0077014641306724
 40
0.0077014641306724
 40
0.0077014641306724
 40
0.0077014641306724
 10
32.99994095221155
 20
26.99999987947082
 30
0.0
 10
32.99992879819973
 20
27.00696128007474
 30
0.0
 10
32.99991751862592
 20
27.012749014301
 30
0.0
 10
32.9998998856994
 20
27.02086801905557
 30
0.0
 10
32.99989321745715
 20
27.0234547643787
 30
0.0
 10
32.99988738789281
 20
27.02558168406153
 30
0.0
 10
32.99988625762901
 20
27.02594367656832
 30
0.0
 10
32.99988625762906
 20
27.02594367655106
 30
0.0
  0
SPLINE
  5
92DF
330
92D4
100
AcDbEntity
  8
0
100
AcDbSpline
210
0.0
220
0.0
230
1.0
 70
     8
 71
     3
 72
     8
 73
     4
 74
     0
 42
0.000000001
 43
0.0000000001
 40
0.0
 40
0.0
 40
0.0
 40
0.0
 40
0.0004175944837705
 40
0.0004175944837705
 40
0.0004175944837705
 40
0.0004175944837705
 10
37.60608753399285
 20
29.56246533477602
 30
0.0
 10
37.60571552654538
 20
29.56217722340968
 30
0.0
 10
37.60533670558361
 20
29.56188389113643
 30
0.0
 10
37.60495522807801
 20
29.56158846482218
 30
0.0
  0
SPLINE
  5
92E0
330
92D4
100
AcDbEntity
  8
0
100
AcDbSpline
210
0.0
220
0.0
230
1.0
 70
     8
 71
     3
 72
     8
 73
     4
 74
     0
 42
0.000000001
 43
0.0000000001
 40
0.0
 40
0.0
 40
0.0
 40
0.0
 40
0.000673044056868
 40
0.000673044056868
 40
0.000673044056868
 40
0.000673044056868
 10
37.60610301841198
 20
29.56244730639216
 30
0.0
 10
37.6046873102998
 20
29.56130750446451
 30
0.0
 10
37.60321073385421
 20
29.5601200472626
 30
0.0
 10
37.601688452894
 20
29.55889733918168
 30
0.0
  0
LINE
  5
92E1
330
92D4
100
AcDbEntity
  8
0
100
AcDbLine
 10
30.99999999999998
 20
-2.0
 30
0.0
 11
-30.99999999999998
 21
-2.000000000000002
 31
0.0
  0
LINE
  5
92E2
330
92D4
100
AcDbEntity
  8
0
100
AcDbLine
 10
-30.99999999999998
 20
0.0
 30
0.0
 11
30.99999999999998
 21
0.0
 31
0.0
  0
LINE
  5
92E3
330
92D4
100
AcDbEntity
  8
0
100
AcDbLine
 10
-37.0
 20
29.56249999999995
 30
0.0
 11
-35.00000000000001
 21
29.56249999999995
 31
0.0
  0
SPLINE
  5
92E4
330
92D4
100
AcDbEntity
  8
0
100
AcDbSpline
210
0.0
220
0.0
230
1.0
 70
     8
 71
     3
 72
    14
 73
    10
 74
     0
 42
0.000000001
 43
0.0000000001
 40
0.0
 40
0.0
 40
0.0
 40
0.0
 40
0.343514936890645
 40
0.343514936890645
 40
0.343514936890645
 40
0.7569946176848412
 40
0.7569946176848412
 40
0.7569946176848412
 40
0.9986524929270528
 40
0.9986524929270528
 40
0.9986524929270528
 40
0.9986524929270528
 10
-37.60606060606065
 20
29.56249999999998
 30
0.0
 10
-37.28490796719894
 20
29.30249636930679
 30
0.0
 10
-36.87246555816056
 20
29.07529402125398
 30
0.0
 10
-36.47647444982542
 20
28.84408179460996
 30
0.0
 10
-35.99983061432349
 20
28.56577786251945
 30
0.0
 10
-35.53729794764854
 20
28.27139780310986
 30
0.0
 10
-35.26242807115259
 20
27.85792704007977
 30
0.0
 10
-35.10178058735239
 20
27.61627437681779
 30
0.0
 10
-35.00111652656442
 20
27.36107368937262
 30
0.0
 10
-35.00000922930519
 20
27.00594994759299
 30
0.0
  0
SPLINE
  5
92E5
330
92D4
100
AcDbEntity
  8
0
100
AcDbSpline
210
0.0
220
0.0
230
1.0
 70
     8
 71
     3
 72
    30
 73
    26
 74
     0
 42
0.000000001
 43
0.0000000001
 40
0.0
 40
0.0
 40
0.0
 40
0.0
 40
0.0655513428950726
 40
0.0655513428950726
 40
0.1471084879743542
 40
0.1471084879743542
 40
0.1864915415505231
 40
0.1864915415505231
 40
0.224428700631738
 40
0.224428700631738
 40
0.2339025228506471
 40
0.2339025228506471
 40
0.2360478139061955
 40
0.2360478139061955
 40
0.2376817992148516
 40
0.2376817992148516
 40
0.239318406650986
 40
0.239318406650986
 40
0.2426422771552181
 40
0.2426422771552181
 40
0.249270969603841
 40
0.249270969603841
 40
0.2559206221460451
 40
0.2559206221460451
 40
0.2643718038624807
 40
0.2643718038624807
 40
0.2643718038624807
 40
0.2643718038624807
 10
-32.99998937018708
 20
29.17586272146039
 30
0.0
 10
-32.99997791491096
 20
28.95811600816056
 30
0.0
 10
-32.99997499580928
 20
28.73955119301127
 30
0.0
 10
-32.99847087262453
 20
28.27766062784884
 30
0.0
 10
-32.99618388742452
 20
28.03633066464287
 30
0.0
 10
-32.99399786143575
 20
27.72034886154917
 30
0.0
 10
-32.99356181606492
 20
27.62410814342052
 30
0.0
 10
-32.99357524463062
 20
27.45120303311447
 30
0.0
 10
-32.99385398906938
 20
27.37643855075904
 30
0.0
 10
-32.99531495666585
 20
27.25912774594093
 30
0.0
 10
-32.99568020989038
 20
27.23363328559173
 30
0.0
 10
-32.99628323559781
 20
27.19771133927731
 30
0.0
 10
-32.99640193877292
 20
27.19083376344454
 30
0.0
 10
-32.99662079997812
 20
27.17847913086024
 30
0.0
 10
-32.99671935863215
 20
27.17301832039993
 30
0.0
 10
-32.9969192758267
 20
27.16211842567316
 30
0.0
 10
-32.9970216049042
 20
27.156626782191
 30
0.0
 10
-32.99732644919432
 20
27.14045849112914
 30
0.0
 10
-32.99752713316855
 20
27.13007273433901
 30
0.0
 10
-32.99806275348809
 20
27.10255107164101
 30
0.0
 10
-32.99835960841835
 20
27.08751831603127
 30
0.0
 10
-32.9988907516066
 20
27.06022506759231
 30
0.0
 10
-32.99912909556826
 20
27.04779428339163
 30
0.0
 10
-32.99959874139517
 20
27.02272992858506
 30
0.0
 10
-32.99981365266277
 20
27.01072745588486
 30
0.0
 10
-32.99993408544849
 20
27.00381398664537
 30
0.0
  0
SPLINE
  5
92E6
330
92D4
100
AcDbEntity
  8
0
100
AcDbSpline
210
0.0
220
0.0
230
1.0
 70
     8
 71
     3
 72
     8
 73
     4
 74
     0
 42
0.000000001
 43
0.0000000001
 40
0.0195591544641411
 40
0.0195591544641411
 40
0.0195591544641411
 40
0.0195591544641411
 40
0.021116301049425
 40
0.021116301049425
 40
0.021116301049425
 40
0.021116301049425
 10
-32.99957522640361
 20
27.01307778052716
 30
0.0
 10
-32.99957087693734
 20
27.00886175342429
 30
0.0
 10
-32.99956567564211
 20
27.00448601816283
 30
0.0
 10
-32.99955984654369
 20
27.00000111615402
 30
0.0
  0
SPLINE
  5
92E7
330
92D4
100
AcDbEntity
  8
0
100
AcDbSpline
210
0.0
220
0.0
230
1.0
 70
     8
 71
     3
 72
    16
 73
    12
 74
     0
 42
0.000000001
 43
0.0000000001
 40
0.0328453658003342
 40
0.0328453658003342
 40
0.0328453658003342
 40
0.0328453658003342
 40
0.0346121739151063
 40
0.0346121739151063
 40
0.0362943907422626
 40
0.0362943907422626
 40
0.0388726342884025
 40
0.0388726342884025
 40
0.0410449475245892
 40
0.0410449475245892
 40
0.0429128451940969
 40
0.0429128451940969
 40
0.0429128451940969
 40
0.0429128451940969
 10
-32.99842789915027
 20
27.08398349493933
 30
0.0
 10
-32.9984748452253
 20
27.08119158207252
 30
0.0
 10
-32.99852835649863
 20
27.0779910951902
 30
0.0
 10
-32.99864665535522
 20
27.07086662507535
 30
0.0
 10
-32.99871142262417
 20
27.0669458633358
 30
0.0
 10
-32.99889097017159
 20
27.05600293207941
 30
0.0
 10
-32.99901757415745
 20
27.04822182180264
 30
0.0
 10
-32.99925928465633
 20
27.03315934927525
 30
0.0
 10
-32.99937543020328
 20
27.025840266896
 30
0.0
 10
-32.99958650226853
 20
27.01237477402467
 30
0.0
 10
-32.99968327914994
 20
27.00613808197492
 30
0.0
 10
-32.99977770285841
 20
26.99999671130078
 30
0.0
  0
SPLINE
  5
92E8
330
92D4
100
AcDbEntity
  8
0
100
AcDbSpline
210
0.0
220
0.0
230
1.0
 70
     8
 71
     3
 72
    12
 73
     8
 74
     0
 42
0.000000001
 43
0.0000000001
 40
0.0138054908142429
 40
0.0138054908142429
 40
0.0138054908142429
 40
0.0138054908142429
 40
0.0169840789831751
 40
0.0169840789831751
 40
0.0189304805793934
 40
0.0189304805793934
 40
0.0215081391641625
 40
0.0215081391641625
 40
0.0215081391641625
 40
0.0215081391641625
 10
-32.99988625762907
 20
27.02594367655036
 30
0.0
 10
-32.99988625767157
 20
27.0259436628511
 30
0.0
 10
-32.99989009445463
 20
27.02472368733471
 30
0.0
 10
-32.99990126115662
 20
27.02016530962537
 30
0.0
 10
-32.99990666457463
 20
27.01781779789462
 30
0.0
 10
-32.99992101923494
 20
27.0109522882027
 30
0.0
 10
-32.99993065919694
 20
27.00589536479253
 30
0.0
 10
-32.99994095221157
 20
26.99999987947081
 30
0.0
  0
SPLINE
  5
92E9
330
92D4
100
AcDbEntity
  8
0
100
AcDbSpline
210
0.0
220
0.0
230
1.0
 70
     8
 71
     3
 72
    16
 73
    12
 74
     0
 42
0.000000001
 43
0.0000000001
 40
0.0
 40
0.0
 40
0.0
 40
0.0
 40
0.0041155302881258
 40
0.0041155302881258
 40
0.0050670545171944
 40
0.0050670545171944
 40
0.0058961082138275
 40
0.0058961082138275
 40
0.0067239029570423
 40
0.0067239029570423
 40
0.0081602309585027
 40
0.0081602309585027
 40
0.0081602309585027
 40
0.0081602309585027
 10
-35.00007431648735
 20
26.99999917427212
 30
0.0
 10
-35.00005235609171
 20
27.01348479911719
 30
0.0
 10
-35.00007089901
 20
27.02744093155389
 30
0.0
 10
-35.00015521286302
 20
27.04264729903713
 30
0.0
 10
-35.00017335750602
 20
27.04537593656163
 30
0.0
 10
-35.00020680984272
 20
27.04980988887708
 30
0.0
 10
-35.00022232777445
 20
27.05163102604685
 30
0.0
 10
-35.00024915680088
 20
27.05457794876815
 30
0.0
 10
-35.00026067843621
 20
27.05573423546641
 30
0.0
 10
-35.0002845742253
 20
27.05805422089845
 30
0.0
 10
-35.00029164702543
 20
27.0586490233491
 30
0.0
 10
-35.00029164702533
 20
27.05864902334059
 30
0.0
  0
SPLINE
  5
92EA
330
92D4
100
AcDbEntity
  8
0
100
AcDbSpline
210
0.0
220
0.0
230
1.0
 70
     8
 71
     3
 72
    18
 73
    14
 74
     0
 42
0.000000001
 43
0.0000000001
 40
0.0
 40
0.0
 40
0.0
 40
0.0
 40
0.0020459368615732
 40
0.0020459368615732
 40
0.0037107200198791
 40
0.0037107200198791
 40
0.0047889947589358
 40
0.0047889947589358
 40
0.0054061504162454
 40
0.0054061504162454
 40
0.0056716446833524
 40
0.0056716446833524
 40
0.0057661326628734
 40
0.0057661326628734
 40
0.0057661326628734
 40
0.0057661326628734
 10
-35.00000948701009
 20
26.99999731133811
 30
0.0
 10
-35.00000131156566
 20
27.00668899520057
 30
0.0
 10
-35.00000211538589
 20
27.01334987449965
 30
0.0
 10
-35.00001995704388
 20
27.02478359384798
 30
0.0
 10
-35.00003405150246
 20
27.02972498114637
 30
0.0
 10
-35.00006334484434
 20
27.03706918072081
 30
0.0
 10
-35.00007727568503
 20
27.03991982618556
 30
0.0
 10
-35.00009604435252
 20
27.04334298154486
 30
0.0
 10
-35.00010218026569
 20
27.04437261648561
 30
0.0
 10
-35.00010716112048
 20
27.04519221668573
 30
0.0
 10
-35.00010818428009
 20
27.04535743663726
 30
0.0
 10
-35.00010876161573
 20
27.04545062792148
 30
0.0
 10
-35.00010883935427
 20
27.04546313709408
 30
0.0
 10
-35.00010883933759
 20
27.04546313440779
 30
0.0
  0
SPLINE
  5
92EB
330
92D4
100
AcDbEntity
  8
0
100
AcDbSpline
210
0.0
220
0.0
230
1.0
 70
     8
 71
     3
 72
     8
 73
     4
 74
     0
 42
0.000000001
 43
0.0000000001
 40
0.0
 40
0.0
 40
0.0
 40
0.0
 40
0.0007418607946711
 40
0.0007418607946711
 40
0.0007418607946711
 40
0.0007418607946711
 10
-35.00001228471714
 20
27.00000000012474
 30
0.0
 10
-35.00000823586229
 20
27.00154344300995
 30
0.0
 10
-35.00000413094274
 20
27.00315737487262
 30
0.0
 10
-34.99999999999999
 20
27.00483820458034
 30
0.0
  0
SPLINE
  5
92EC
330
92D4
100
AcDbEntity
  8
0
100
AcDbSpline
210
0.0
220
0.0
230
1.0
 70
     8
 71
     3
 72
     8
 73
     4
 74
     0
 42
0.000000001
 43
0.0000000001
 40
0.2816853915635259
 40
0.2816853915635259
 40
0.2816853915635259
 40
0.2816853915635259
 40
0.2823584862421382
 40
0.2823584862421382
 40
0.2823584862421382
 40
0.2823584862421382
 10
-37.60168902517194
 20
29.55889786165816
 30
0.0
 10
-37.6032115706465
 20
29.56012078219909
 30
0.0
 10
-37.60468720381995
 20
29.56130741873643
 30
0.0
 10
-37.60610301841196
 20
29.56244730639214
 30
0.0
  0
SPLINE
  5
92ED
330
92D4
100
AcDbEntity
  8
0
100
AcDbSpline
210
0.0
220
0.0
230
1.0
 70
     8
 71
     3
 72
     8
 73
     4
 74
     0
 42
0.000000001
 43
0.0000000001
 40
0.0184886276226201
 40
0.0184886276226201
 40
0.0184886276226201
 40
0.0184886276226201
 40
0.0189064975931812
 40
0.0189064975931812
 40
0.0189064975931812
 40
0.0189064975931812
 10
-37.60495655146885
 20
29.56158945739556
 30
0.0
 10
-37.60533779132628
 20
29.56188469966876
 30
0.0
 10
-37.60571528113232
 20
29.56217703334282
 30
0.0
 10
-37.60608753399285
 20
29.56246533477602
 30
0.0
  0
ARC
  5
92EE
330
92D4
100
AcDbEntity
  8
0
100
AcDbCircle
 10
-30.99999999999998
 20
2.0
 30
0.0
 40
4.000000000000003
100
AcDbArc
 50
180.0
 51
270.0
  0
ARC
  5
92EF
330
92D4
100
AcDbEntity
  8
0
100
AcDbCircle
 10
-30.99999999999998
 20
2.0
 30
0.0
 40
2.000000000000001
100
AcDbArc
 50
180.0
 51
270.0
  0
ARC
  5
92F0
330
92D4
100
AcDbEntity
  8
0
100
AcDbCircle
 10
30.99999999999998
 20
2.0
 30
0.0
 40
4.000000000000003
100
AcDbArc
 50
270.0
 51
0.0
  0
LINE
  5
92F1
330
92D4
100
AcDbEntity
  8
0
100
AcDbLine
 10
37.60606060606067
 20
29.56249999999995
 30
0.0
 11
74.50000000000006
 21
59.99999999999996
 31
0.0
  0
LINE
  5
92F2
330
92D4
100
AcDbEntity
  8
0
100
AcDbLine
 10
32.99999999999999
 20
26.99999999999999
 30
0.0
 11
33.0
 21
59.99999999999996
 31
0.0
  0
LINE
  5
92F3
330
92D4
100
AcDbEntity
  8
0
100
AcDbLine
 10
34.99999999999999
 20
26.99999999999999
 30
0.0
 11
32.99999999999999
 21
26.99999999999999
 31
0.0
  0
LINE
  5
92F4
330
92D4
100
AcDbEntity
  8
0
100
AcDbLine
 10
35.0
 20
59.99999999999996
 30
0.0
 11
34.99999999999999
 21
26.99999999999999
 31
0.0
  0
LINE
  5
92F5
330
92D4
100
AcDbEntity
  8
0
100
AcDbLine
 10
35.0
 20
59.99999999999996
 30
0.0
 11
33.0
 21
59.99999999999996
 31
0.0
  0
LINE
  5
92F6
330
92D4
100
AcDbEntity
  8
0
100
AcDbLine
 10
33.0
 20
59.99999999999996
 30
0.0
 11
33.0
 21
157.0
 31
0.0
  0
LINE
  5
92F7
330
92D4
100
AcDbEntity
  8
0
100
AcDbLine
 10
35.0
 20
157.0
 30
0.0
 11
35.0
 21
59.99999999999996
 31
0.0
  0
LINE
  5
92F8
330
92D4
100
AcDbEntity
  8
0
100
AcDbLine
 10
33.0
 20
157.0
 30
0.0
 11
35.0
 21
157.0
 31
0.0
  0
LINE
  5
92F9
330
92D4
100
AcDbEntity
  8
0
100
AcDbLine
 10
34.99999999999999
 20
26.99999999999999
 30
0.0
 11
34.99999999999998
 21
2.000000000000001
 31
0.0
  0
LINE
  5
92FA
330
92D4
100
AcDbEntity
  8
0
100
AcDbLine
 10
32.99999999999998
 20
2.0
 30
0.0
 11
32.99999999999999
 21
26.99999999999999
 31
0.0
  0
ARC
  5
92FB
330
92D4
100
AcDbEntity
  8
0
100
AcDbCircle
 10
30.99999999999998
 20
2.0
 30
0.0
 40
2.000000000000001
100
AcDbArc
 50
270.0
 51
0.0
  0
LINE
  5
92FC
330
92D4
100
AcDbEntity
  8
0
100
AcDbLine
 10
36.99999999999999
 20
157.0
 30
0.0
 11
35.00000000000001
 21
157.0
 31
0.0
  0
LINE
  5
92FD
330
92D4
100
AcDbEntity
  8
0
100
AcDbLine
 10
74.50000000000006
 20
59.99999999999996
 30
0.0
 11
74.50000000000001
 21
157.0
 31
0.0
  0
LINE
  5
92FE
330
92D4
100
AcDbEntity
  8
0
100
AcDbLine
 10
74.50000000000001
 20
157.0
 30
0.0
 11
36.99999999999999
 21
157.0
 31
0.0
  0
CIRCLE
  5
92FF
330
92D4
100
AcDbEntity
  8
0
100
AcDbCircle
 10
55.00000000000001
 20
137.0
 30
0.0
 40
6.5
  0
CIRCLE
  5
9300
330
92D4
100
AcDbEntity
  8
0
100
AcDbCircle
 10
66.00000000000001
 20
142.0
 30
0.0
 40
2.5
  0
LINE
  5
9301
330
92D4
100
AcDbEntity
  8
0
100
AcDbLine
 10
-74.50000000000006
 20
59.99999999999996
 30
0.0
 11
-37.60606060606067
 21
29.56249999999995
 31
0.0
  0
LINE
  5
9302
330
92D4
100
AcDbEntity
  8
0
100
AcDbLine
 10
-33.0
 20
59.99999999999996
 30
0.0
 11
-32.99999999999999
 21
26.99999999999999
 31
0.0
  0
LINE
  5
9303
330
92D4
100
AcDbEntity
  8
0
100
AcDbLine
 10
-35.0
 20
59.99999999999996
 30
0.0
 11
-33.0
 21
59.99999999999996
 31
0.0
  0
LINE
  5
9304
330
92D4
100
AcDbEntity
  8
0
100
AcDbLine
 10
-34.99999999999999
 20
26.99999999999999
 30
0.0
 11
-35.0
 21
59.99999999999996
 31
0.0
  0
LINE
  5
9305
330
92D4
100
AcDbEntity
  8
0
100
AcDbLine
 10
-32.99999999999999
 20
26.99999999999999
 30
0.0
 11
-34.99999999999999
 21
26.99999999999999
 31
0.0
  0
LINE
  5
9306
330
92D4
100
AcDbEntity
  8
0
100
AcDbLine
 10
-33.0
 20
157.0
 30
0.0
 11
-33.0
 21
59.99999999999996
 31
0.0
  0
LINE
  5
9307
330
92D4
100
AcDbEntity
  8
0
100
AcDbLine
 10
-35.0
 20
157.0
 30
0.0
 11
-33.0
 21
157.0
 31
0.0
  0
LINE
  5
9308
330
92D4
100
AcDbEntity
  8
0
100
AcDbLine
 10
-35.0
 20
59.99999999999996
 30
0.0
 11
-35.0
 21
157.0
 31
0.0
  0
CIRCLE
  5
9309
330
92D4
100
AcDbEntity
  8
0
100
AcDbCircle
 10
-55.00000000000001
 20
67.0
 30
0.0
 40
6.5
  0
CIRCLE
  5
930A
330
92D4
100
AcDbEntity
  8
0
100
AcDbCircle
 10
55.00000000000001
 20
67.0
 30
0.0
 40
6.5
  0
CIRCLE
  5
930B
330
92D4
100
AcDbEntity
  8
0
100
AcDbCircle
 10
-55.00000000000001
 20
137.0
 30
0.0
 40
6.5
  0
CIRCLE
  5
930C
330
92D4
100
AcDbEntity
  8
0
100
AcDbCircle
 10
-44.00000000000001
 20
51.99999999999999
 30
0.0
 40
2.5
  0
CIRCLE
  5
930D
330
92D4
100
AcDbEntity
  8
0
100
AcDbCircle
 10
-44.00000000000001
 20
72.0
 30
0.0
 40
2.5
  0
CIRCLE
  5
930E
330
92D4
100
AcDbEntity
  8
0
100
AcDbCircle
 10
-44.00000000000001
 20
92.0
 30
0.0
 40
2.5
  0
CIRCLE
  5
930F
330
92D4
100
AcDbEntity
  8
0
100
AcDbCircle
 10
-44.00000000000001
 20
112.0
 30
0.0
 40
2.5
  0
CIRCLE
  5
9310
330
92D4
100
AcDbEntity
  8
0
100
AcDbCircle
 10
-44.00000000000001
 20
132.0
 30
0.0
 40
2.5
  0
CIRCLE
  5
9311
330
92D4
100
AcDbEntity
  8
0
100
AcDbCircle
 10
44.00000000000001
 20
51.99999999999999
 30
0.0
 40
2.5
  0
CIRCLE
  5
9312
330
92D4
100
AcDbEntity
  8
0
100
AcDbCircle
 10
44.00000000000001
 20
72.0
 30
0.0
 40
2.5
  0
CIRCLE
  5
9313
330
92D4
100
AcDbEntity
  8
0
100
AcDbCircle
 10
44.00000000000001
 20
92.0
 30
0.0
 40
2.5
  0
CIRCLE
  5
9314
330
92D4
100
AcDbEntity
  8
0
100
AcDbCircle
 10
44.00000000000001
 20
112.0
 30
0.0
 40
2.5
  0
CIRCLE
  5
9315
330
92D4
100
AcDbEntity
  8
0
100
AcDbCircle
 10
44.00000000000001
 20
132.0
 30
0.0
 40
2.5
  0
CIRCLE
  5
9316
330
92D4
100
AcDbEntity
  8
0
100
AcDbCircle
 10
-44.00000000000001
 20
152.0
 30
0.0
 40
2.5
  0
CIRCLE
  5
9317
330
92D4
100
AcDbEntity
  8
0
100
AcDbCircle
 10
44.00000000000001
 20
152.0
 30
0.0
 40
2.5
  0
CIRCLE
  5
9318
330
92D4
100
AcDbEntity
  8
0
100
AcDbCircle
 10
-66.00000000000001
 20
61.99999999999999
 30
0.0
 40
2.5
  0
CIRCLE
  5
9319
330
92D4
100
AcDbEntity
  8
0
100
AcDbCircle
 10
-66.00000000000001
 20
82.0
 30
0.0
 40
2.5
  0
CIRCLE
  5
931A
330
92D4
100
AcDbEntity
  8
0
100
AcDbCircle
 10
-66.00000000000001
 20
102.0
 30
0.0
 40
2.5
  0
CIRCLE
  5
931B
330
92D4
100
AcDbEntity
  8
0
100
AcDbCircle
 10
-66.00000000000001
 20
122.0
 30
0.0
 40
2.5
  0
CIRCLE
  5
931C
330
92D4
100
AcDbEntity
  8
0
100
AcDbCircle
 10
66.00000000000001
 20
61.99999999999999
 30
0.0
 40
2.5
  0
CIRCLE
  5
931D
330
92D4
100
AcDbEntity
  8
0
100
AcDbCircle
 10
66.00000000000001
 20
82.0
 30
0.0
 40
2.5
  0
CIRCLE
  5
931E
330
92D4
100
AcDbEntity
  8
0
100
AcDbCircle
 10
66.00000000000001
 20
102.0
 30
0.0
 40
2.5
  0
CIRCLE
  5
931F
330
92D4
100
AcDbEntity
  8
0
100
AcDbCircle
 10
66.00000000000001
 20
122.0
 30
0.0
 40
2.5
  0
CIRCLE
  5
9320
330
92D4
100
AcDbEntity
  8
0
100
AcDbCircle
 10
-66.00000000000001
 20
142.0
 30
0.0
 40
2.5
  0
LINE
  5
9321
330
92D4
100
AcDbEntity
  8
0
100
AcDbLine
 10
-74.50000000000001
 20
157.0
 30
0.0
 11
-36.99999999999999
 21
157.0
 31
0.0
  0
LINE
  5
9322
330
92D4
100
AcDbEntity
  8
0
100
AcDbLine
 10
-74.50000000000006
 20
59.99999999999996
 30
0.0
 11
-74.50000000000001
 21
157.0
 31
0.0
  0
LINE
  5
9323
330
92D4
100
AcDbEntity
  8
0
100
AcDbLine
 10
-32.99999999999998
 20
2.0
 30
0.0
 11
-32.99999999999999
 21
26.99999999999999
 31
0.0
  0
LINE
  5
9324
330
92D4
100
AcDbEntity
  8
0
100
AcDbLine
 10
-34.99999999999999
 20
26.99999999999999
 30
0.0
 11
-34.99999999999998
 21
2.000000000000001
 31
0.0
  0
LINE
  5
9325
330
92D4
100
AcDbEntity
  8
0
100
AcDbLine
 10
-36.99999999999999
 20
157.0
 30
0.0
 11
-35.00000000000001
 21
157.0
 31
0.0
  0
ENDBLK
  5
92D6
330
92D4
100
AcDbEntity
  8
0
100
AcDbBlockEnd
  0
BLOCK
  5
9327
330
9326
100
AcDbEntity
  8
0
100
AcDbBlockBegin
  2
SAE380_66_2-Left
 70
     0
 10
0.0
 20
0.0
 30
0.0
  3
SAE380_66_2-Left
  1

  0
LINE
  5
9329
330
9326
100
AcDbEntity
  8
0
100
AcDbLine
 10
2.000000000000021
 20
-2.0
 30
0.0
 11
86.00000000000001
 21
-2.000000000000002
 31
0.0
  0
LINE
  5
932A
330
9326
100
AcDbEntity
  8
0
100
AcDbLine
 10
2.000000000000029
 20
2.000000000000004
 30
0.0
 11
2.000000000000021
 21
-1.999999999999999
 31
0.0
  0
LINE
  5
932B
330
9326
100
AcDbEntity
  8
0
100
AcDbLine
 10
86.00000000000001
 20
-2.000000000000002
 30
0.0
 11
86.00000000000001
 21
2.0
 31
0.0
  0
SPLINE
  5
932C
330
9326
100
AcDbEntity
  8
0
100
AcDbSpline
210
0.0
220
0.0
230
1.0
 70
     8
 71
     3
 72
    14
 73
    10
 74
     0
 42
0.000000001
 43
0.0000000001
 40
-0.4813026532949208
 40
-0.4813026532949208
 40
-0.4813026532949208
 40
-0.4813026532949208
 40
-0.3760960080973392
 40
-0.3760960080973392
 40
-0.3760960080973392
 40
-0.0765284972673099
 40
-0.0765284972673099
 40
-0.0765284972673099
 40
0.0
 40
0.0
 40
0.0
 40
0.0
 10
0.9454120927377276
 20
28.73176011522721
 30
0.0
 10
0.8408297879906147
 20
28.76867618608425
 30
0.0
 10
0.7371129357498396
 20
28.80054090483393
 30
0.0
 10
0.6388614064335774
 20
28.83423666321342
 30
0.0
 10
0.3590980320075583
 20
28.93018264119147
 30
0.0
 10
0.1217220476560942
 20
29.04001612967936
 30
0.0
 10
0.0342615816141035
 20
29.31443386955957
 30
0.0
 10
0.0119186445647992
 20
29.3845375239857
 30
0.0
 10
0.0000045452574095
 20
29.46769665104456
 30
0.0
 10
0.0000000001152112
 20
29.56250000004007
 30
0.0
  0
SPLINE
  5
932D
330
9326
100
AcDbEntity
  8
0
100
AcDbSpline
210
0.0
220
0.0
230
1.0
 70
     8
 71
     3
 72
    14
 73
    10
 74
     0
 42
0.000000001
 43
0.0000000001
 40
0.0
 40
0.0
 40
0.0
 40
0.0
 40
0.343514936890645
 40
0.343514936890645
 40
0.343514936890645
 40
0.7569946176848412
 40
0.7569946176848412
 40
0.7569946176848412
 40
1.0
 40
1.0
 40
1.0
 40
1.0
 10
2.000000000000027
 20
29.56249999999998
 30
0.0
 10
2.000036879631409
 20
29.30249636930679
 30
0.0
 10
1.996834167075061
 20
29.07529402125398
 30
0.0
 10
1.998676128322127
 20
28.84408179460996
 30
0.0
 10
2.000893247482552
 20
28.56577786251945
 30
0.0
 10
2.001072402908466
 20
28.27139780310986
 30
0.0
 10
2.001124325805019
 20
27.85792704007977
 30
0.0
 10
2.001154841315004
 20
27.61492689880734
 30
0.0
 10
2.000250547668336
 20
27.3582272219876
 30
0.0
 10
1.999999999992517
 20
27.00000000165236
 30
0.0
  0
LINE
  5
932E
330
9326
100
AcDbEntity
  8
0
100
AcDbLine
 10
0.0
 20
29.56249999999995
 30
0.0
 11
2.000000000000027
 21
29.56249999999995
 31
0.0
  0
SPLINE
  5
932F
330
9326
100
AcDbEntity
  8
0
100
AcDbSpline
210
0.0
220
0.0
230
1.0
 70
     8
 71
     3
 72
    18
 73
    14
 74
     0
 42
0.000000001
 43
0.0000000001
 40
0.0
 40
0.0
 40
0.0
 40
0.0
 40
0.0045852970580318
 40
0.0045852970580318
 40
0.0065400842513489
 40
0.0065400842513489
 40
0.0081563837466231
 40
0.0081563837466231
 40
0.0096016091884136
 40
0.0096016091884136
 40
0.0108226894114481
 40
0.0108226894114481
 40
0.0118646463035018
 40
0.0118646463035018
 40
0.0118646463035018
 40
0.0118646463035018
 10
1.999557272916875
 20
26.99999849441623
 30
0.0
 10
1.999513512481348
 20
27.01475837640096
 30
0.0
 10
1.999424163707942
 20
27.02919075199911
 30
0.0
 10
1.999253402761471
 20
27.04675570000835
 30
0.0
 10
1.999196850516394
 20
27.05166987405912
 30
0.0
 10
1.999091149929678
 20
27.05972733082565
 30
0.0
 10
1.999042050576957
 20
27.06305924746141
 30
0.0
 10
1.998954621983277
 20
27.06851913180905
 30
0.0
 10
1.998915397065374
 20
27.0707570016233
 30
0.0
 10
1.99885518392304
 20
27.07401363506046
 30
0.0
 10
1.998832157108817
 20
27.07517781409882
 30
0.0
 10
1.998803973822334
 20
27.07656460254972
 30
0.0
 10
1.998796572755421
 20
27.07690723965225
 30
0.0
 10
1.99879657280721
 20
27.07690723724973
 30
0.0
  0
SPLINE
  5
9330
330
9326
100
AcDbEntity
  8
0
100
AcDbSpline
210
0.0
220
0.0
230
1.0
 70
     8
 71
     3
 72
    10
 73
     6
 74
     0
 42
0.000000001
 43
0.0000000001
 40
0.0052676618451561
 40
0.0052676618451561
 40
0.0052676618451561
 40
0.0052676618451561
 40
0.0058868978026978
 40
0.0058868978026978
 40
0.0081855527214836
 40
0.0081855527214836
 40
0.0081855527214836
 40
0.0081855527214836
 10
1.999414228066356
 20
27.02852502900991
 30
0.0
 10
1.999398483572483
 20
27.02921804076191
 30
0.0
 10
1.999384018194578
 20
27.02984412926872
 30
0.0
 10
1.999322897807993
 20
27.03245947193793
 30
0.0
 10
1.999295499695556
 20
27.03354692650844
 30
0.0
 10
1.999295499749837
 20
27.03354692432574
 30
0.0
  0
SPLINE
  5
9331
330
9326
100
AcDbEntity
  8
0
100
AcDbSpline
210
0.0
220
0.0
230
1.0
 70
     8
 71
     3
 72
    32
 73
    28
 74
     0
 42
0.000000001
 43
0.0000000001
 40
0.004547381759254
 40
0.004547381759254
 40
0.004547381759254
 40
0.004547381759254
 40
0.0052697394522507
 40
0.0052697394522507
 40
0.0092354521600264
 40
0.0092354521600264
 40
0.0117315605995572
 40
0.0117315605995572
 40
0.0138523606599725
 40
0.0138523606599725
 40
0.0172611518220197
 40
0.0172611518220197
 40
0.0261321721598539
 40
0.0261321721598539
 40
0.0527623632680926
 40
0.0527623632680926
 40
0.0889482843470716
 40
0.0889482843470716
 40
0.1145384726740418
 40
0.1145384726740418
 40
0.1518181077975873
 40
0.1518181077975873
 40
0.1853167196091155
 40
0.1853167196091155
 40
0.2269370648820272
 40
0.2269370648820272
 40
0.2446335212457547
 40
0.2446335212457547
 40
0.2446335212457547
 40
0.2446335212457547
 10
1.999453047720148
 20
27.02279542165925
 30
0.0
 10
1.999422986252813
 20
27.02392487577644
 30
0.0
 10
1.999392437858141
 20
27.02505295133221
 30
0.0
 10
1.999189551838288
 20
27.03241745833598
 30
0.0
 10
1.999004120058458
 20
27.03875904541147
 30
0.0
 10
1.998515703047538
 20
27.05335128824056
 30
0.0
 10
1.998269373631284
 20
27.06029190086671
 30
0.0
 10
1.99772963022317
 20
27.07412658021685
 30
0.0
 10
1.99744767058374
 20
27.08090569227096
 30
0.0
 10
1.996652403146948
 20
27.09873068228687
 30
0.0
 10
1.996098018347606
 20
27.10998894827487
 30
0.0
 10
1.993900550896256
 20
27.15050913403449
 30
0.0
 10
1.99192580918247
 20
27.1799713648837
 30
0.0
 10
1.982426632321752
 20
27.29742876702771
 30
0.0
 10
1.971735199839658
 20
27.38490573321723
 30
0.0
 10
1.936108382067823
 20
27.58974235206198
 30
0.0
 10
1.907051220118119
 20
27.7080492028257
 30
0.0
 10
1.838871183923456
 20
27.90223815566335
 30
0.0
 10
1.804834188798398
 20
27.98109086037729
 30
0.0
 10
1.708090538647084
 20
28.16249453359997
 30
0.0
 10
1.637669279133348
 20
28.2612668767079
 30
0.0
 10
1.493722582908673
 20
28.41704852778948
 30
0.0
 10
1.420228719037174
 20
28.47927423001533
 30
0.0
 10
1.254517311051051
 20
28.59488639171618
 30
0.0
 10
1.16020033420109
 20
28.64438618779382
 30
0.0
 10
1.02426089758467
 20
28.70235777424836
 30
0.0
 10
0.9834047208986556
 20
28.71807338395309
 30
0.0
 10
0.9420912521091427
 20
28.73259712964509
 30
0.0
  0
LINE
  5
9332
330
9326
100
AcDbEntity
  8
0
100
AcDbLine
 10
2.000000000000029
 20
2.000000000000003
 30
0.0
 11
2.000000000000029
 21
26.99999999999999
 31
0.0
  0
LINE
  5
9333
330
9326
100
AcDbEntity
  8
0
100
AcDbLine
 10
2.000000000000019
 20
59.99999999999996
 30
0.0
 11
2.000000000000027
 21
29.56249999999995
 31
0.0
  0
LINE
  5
9334
330
9326
100
AcDbEntity
  8
0
100
AcDbLine
 10
0.0
 20
59.99999999999996
 30
0.0
 11
2.000000000000019
 21
59.99999999999996
 31
0.0
  0
LINE
  5
9335
330
9326
100
AcDbEntity
  8
0
100
AcDbLine
 10
0.0
 20
29.56249999999995
 30
0.0
 11
0.0
 21
59.99999999999996
 31
0.0
  0
LINE
  5
9336
330
9326
100
AcDbEntity
  8
0
100
AcDbLine
 10
86.00000000000003
 20
26.99999999999999
 30
0.0
 11
46.00000000000003
 21
59.99999999999996
 31
0.0
  0
LINE
  5
9337
330
9326
100
AcDbEntity
  8
0
100
AcDbLine
 10
46.00000000000003
 20
59.99999999999996
 30
0.0
 11
46.00000000000001
 21
157.0
 31
0.0
  0
LINE
  5
9338
330
9326
100
AcDbEntity
  8
0
100
AcDbLine
 10
2.000000000000019
 20
59.99999999999996
 30
0.0
 11
2.000000000000028
 21
157.0
 31
0.0
  0
LINE
  5
9339
330
9326
100
AcDbEntity
  8
0
100
AcDbLine
 10
86.00000000000003
 20
26.99999999999999
 30
0.0
 11
86.00000000000001
 21
2.000000000000001
 31
0.0
  0
LINE
  5
933A
330
9326
100
AcDbEntity
  8
0
100
AcDbLine
 10
4.000000000000021
 20
157.0
 30
0.0
 11
46.00000000000001
 21
157.0
 31
0.0
  0
LINE
  5
933B
330
9326
100
AcDbEntity
  8
0
100
AcDbLine
 10
0.0
 20
157.0
 30
0.0
 11
2.000000000000028
 21
157.0
 31
0.0
  0
LINE
  5
933C
330
9326
100
AcDbEntity
  8
0
100
AcDbLine
 10
0.0
 20
59.99999999999996
 30
0.0
 11
0.0
 21
157.0
 31
0.0
  0
LINE
  5
933D
330
9326
100
AcDbEntity
  8
0
100
AcDbLine
 10
2.000000000000024
 20
157.0
 30
0.0
 11
4.000000000000021
 21
157.0
 31
0.0
  0
CIRCLE
  5
933E
330
9326
100
AcDbEntity
  8
0
100
AcDbCircle
 10
38.50000000000001
 20
51.99999999999999
 30
0.0
 40
2.5
  0
CIRCLE
  5
933F
330
9326
100
AcDbEntity
  8
0
100
AcDbCircle
 10
38.50000000000001
 20
72.0
 30
0.0
 40
2.5
  0
CIRCLE
  5
9340
330
9326
100
AcDbEntity
  8
0
100
AcDbCircle
 10
38.50000000000001
 20
92.0
 30
0.0
 40
2.5
  0
CIRCLE
  5
9341
330
9326
100
AcDbEntity
  8
0
100
AcDbCircle
 10
38.50000000000001
 20
112.0
 30
0.0
 40
2.5
  0
CIRCLE
  5
9342
330
9326
100
AcDbEntity
  8
0
100
AcDbCircle
 10
38.50000000000001
 20
132.0
 30
0.0
 40
2.5
  0
CIRCLE
  5
9343
330
9326
100
AcDbEntity
  8
0
100
AcDbCircle
 10
38.50000000000001
 20
152.0
 30
0.0
 40
2.5
  0
SPLINE
  5
9344
330
9326
100
AcDbEntity
  8
0
100
AcDbSpline
210
0.0
220
0.0
230
1.0
 70
     8
 71
     3
 72
     8
 73
     4
 74
     0
 42
0.000000001
 43
0.0000000001
 40
0.0
 40
0.0
 40
0.0
 40
0.0
 40
0.0024158828171296
 40
0.0024158828171296
 40
0.0024158828171296
 40
0.0024158828171296
 10
1.999557272916875
 20
26.99999849441623
 30
0.0
 10
1.999534216595131
 20
27.00777512149589
 30
0.0
 10
1.999499214241381
 20
27.01546438923218
 30
0.0
 10
1.999453047720151
 20
27.02279542165914
 30
0.0
  0
ENDBLK
  5
9328
330
9326
100
AcDbEntity
  8
0
100
AcDbBlockEnd
  0
BLOCK
  5
9346
330
9345
100
AcDbEntity
  8
0
100
AcDbBlockBegin
  2
SAE380_66_2-Right
 70
     0
 10
0.0
 20
0.0
 30
0.0
  3
SAE380_66_2-Right
  1

  0
SPLINE
  5
9348
330
9345
100
AcDbEntity
  8
0
100
AcDbSpline
210
0.0
220
0.0
230
1.0
 70
     8
 71
     3
 72
    14
 73
    10
 74
     0
 42
0.000000001
 43
0.0000000001
 40
0.0
 40
0.0
 40
0.0
 40
0.0
 40
0.343514936890645
 40
0.343514936890645
 40
0.343514936890645
 40
0.7569946176848412
 40
0.7569946176848412
 40
0.7569946176848412
 40
1.0
 40
1.0
 40
1.0
 40
1.0
 10
-2.000000000000027
 20
29.56249999999998
 30
0.0
 10
-2.000036879631409
 20
29.30249636930679
 30
0.0
 10
-1.996834167075061
 20
29.07529402125398
 30
0.0
 10
-1.998676128322127
 20
28.84408179460996
 30
0.0
 10
-2.000893247482552
 20
28.56577786251945
 30
0.0
 10
-2.001072402908466
 20
28.27139780310986
 30
0.0
 10
-2.001124325805019
 20
27.85792704007977
 30
0.0
 10
-2.001154841315004
 20
27.61492689880734
 30
0.0
 10
-2.000250547668336
 20
27.3582272219876
 30
0.0
 10
-1.999999999992517
 20
27.00000000165236
 30
0.0
  0
SPLINE
  5
9349
330
9345
100
AcDbEntity
  8
0
100
AcDbSpline
210
0.0
220
0.0
230
1.0
 70
     8
 71
     3
 72
    14
 73
    10
 74
     0
 42
0.000000001
 43
0.0000000001
 40
-0.4813026532949801
 40
-0.4813026532949801
 40
-0.4813026532949801
 40
-0.4813026532949801
 40
-0.3760960080973392
 40
-0.3760960080973392
 40
-0.3760960080973392
 40
-0.0765284972673099
 40
-0.0765284972673099
 40
-0.0765284972673099
 40
0.0
 40
0.0
 40
0.0
 40
0.0
 10
-0.9454120927379047
 20
28.73176011522714
 30
0.0
 10
-0.8408297879907317
 20
28.76867618608421
 30
0.0
 10
-0.7371129357498951
 20
28.80054090483391
 30
0.0
 10
-0.6388614064335774
 20
28.83423666321342
 30
0.0
 10
-0.3590980320075583
 20
28.93018264119147
 30
0.0
 10
-0.1217220476560942
 20
29.04001612967936
 30
0.0
 10
-0.0342615816141035
 20
29.31443386955957
 30
0.0
 10
-0.0119186445647992
 20
29.3845375239857
 30
0.0
 10
-0.0000045452574095
 20
29.46769665104456
 30
0.0
 10
-0.0000000001152112
 20
29.56250000004007
 30
0.0
  0
LINE
  5
934A
330
9345
100
AcDbEntity
  8
0
100
AcDbLine
 10
-2.000000000000027
 20
29.56249999999995
 30
0.0
 11
0.0
 21
29.56249999999995
 31
0.0
  0
SPLINE
  5
934B
330
9345
100
AcDbEntity
  8
0
100
AcDbSpline
210
0.0
220
0.0
230
1.0
 70
     8
 71
     3
 72
    16
 73
    12
 74
     0
 42
0.000000001
 43
0.0000000001
 40
0.011973459052701
 40
0.011973459052701
 40
0.011973459052701
 40
0.011973459052701
 40
0.0132060105531902
 40
0.0132060105531902
 40
0.0147875485772597
 40
0.0147875485772597
 40
0.017985123145303
 40
0.017985123145303
 40
0.0208164923190984
 40
0.0208164923190984
 40
0.0238392903307977
 40
0.0238392903307977
 40
0.0238392903307977
 40
0.0238392903307977
 10
-1.998796572807153
 20
27.07690723725241
 30
0.0
 10
-1.998796572804559
 20
27.07690723737278
 30
0.0
 10
-1.998806859808706
 20
27.07643140311398
 30
0.0
 10
-1.998847228750805
 20
27.07441930806594
 30
0.0
 10
-1.998882256898042
 20
27.07260732540146
 30
0.0
 10
-1.999004373871634
 20
27.0656581513954
 30
0.0
 10
-1.999108337845006
 20
27.05891402498211
 30
0.0
 10
-1.999281967768038
 20
27.04429668605158
 30
0.0
 10
-1.99935729464456
 20
27.03644011303297
 30
0.0
 10
-1.999480931971191
 20
27.01925573232415
 30
0.0
 10
-1.999528424413534
 20
27.00972875645851
 30
0.0
 10
-1.999557272916876
 20
26.99999849441623
 30
0.0
  0
SPLINE
  5
934C
330
9345
100
AcDbEntity
  8
0
100
AcDbSpline
210
0.0
220
0.0
230
1.0
 70
     8
 71
     3
 72
    10
 73
     6
 74
     0
 42
0.000000001
 43
0.0000000001
 40
0.0087021369200496
 40
0.0087021369200496
 40
0.0087021369200496
 40
0.0087021369200496
 40
0.0090037601863485
 40
0.0090037601863485
 40
0.0116230169580858
 40
0.0116230169580858
 40
0.0116230169580858
 40
0.0116230169580858
 10
-1.999295499749815
 20
27.03354692432664
 30
0.0
 10
-1.999295499749999
 20
27.03354692431926
 30
0.0
 10
-1.999295947093501
 20
27.03352894117929
 30
0.0
 10
-1.999304557967567
 20
27.0331812092024
 30
0.0
 10
-1.999347677322081
 20
27.03145433548734
 30
0.0
 10
-1.999414228066315
 20
27.02852502901168
 30
0.0
  0
SPLINE
  5
934D
330
9345
100
AcDbEntity
  8
0
100
AcDbSpline
210
0.0
220
0.0
230
1.0
 70
     8
 71
     3
 72
    28
 73
    24
 74
     0
 42
0.000000001
 43
0.0000000001
 40
0.0
 40
0.0
 40
0.0
 40
0.0
 40
0.0650016965095716
 40
0.0650016965095716
 40
0.1023228294632241
 40
0.1023228294632241
 40
0.1414747326739563
 40
0.1414747326739563
 40
0.1748987385476853
 40
0.1748987385476853
 40
0.2169239991001122
 40
0.2169239991001122
 40
0.2285779847261144
 40
0.2285779847261144
 40
0.2316609564793124
 40
0.2316609564793124
 40
0.2332824405397859
 40
0.2332824405397859
 40
0.2349101251834639
 40
0.2349101251834639
 40
0.2381878335697412
 40
0.2381878335697412
 40
0.2398272656837243
 40
0.2398272656837243
 40
0.2398272656837243
 40
0.2398272656837243
 10
-0.9420912521093246
 20
28.73259712964502
 30
0.0
 10
-1.093841721515069
 20
28.67924926777654
 30
0.0
 10
-1.242353898728359
 20
28.60988799342678
 30
0.0
 10
-1.46645177101365
 20
28.44171617370979
 30
0.0
 10
-1.5474079432091
 20
28.36594146109696
 30
0.0
 10
-1.695446554668048
 20
28.18241413824069
 30
0.0
 10
-1.763061289555622
 20
28.07040741115053
 30
0.0
 10
-1.860492149636708
 20
27.85077461308488
 30
0.0
 10
-1.895809632778485
 20
27.74321521028037
 30
0.0
 10
-1.955911122108998
 20
27.49956902551838
 30
0.0
 10
-1.976606287624358
 20
27.36174326035067
 30
0.0
 10
-1.991714435018754
 20
27.18425647524228
 30
0.0
 10
-1.994304853258346
 20
27.14540325140761
 30
0.0
 10
-1.996731630422079
 20
27.09701129921017
 30
0.0
 10
-1.997194385969138
 20
27.08687585467423
 30
0.0
 10
-1.997809801448919
 20
27.0720979047254
 30
0.0
 10
-1.998006434209808
 20
27.0671067010083
 30
0.0
 10
-1.998355889827105
 20
27.05779769261202
 30
0.0
 10
-1.998509836622196
 20
27.05345153494485
 30
0.0
 10
-1.998902086468861
 20
27.04191342960719
 30
0.0
 10
-1.999078183317251
 20
27.0361093789557
 30
0.0
 10
-1.999308026766895
 20
27.02813339135847
 30
0.0
 10
-1.999381849971103
 20
27.02547250047862
 30
0.0
 10
-1.999452958575275
 20
27.02280293713422
 30
0.0
  0
LINE
  5
934E
330
9345
100
AcDbEntity
  8
0
100
AcDbLine
 10
-2.000000000000021
 20
-2.0
 30
0.0
 11
-86.00000000000001
 21
-2.0
 31
0.0
  0
LINE
  5
934F
330
9345
100
AcDbEntity
  8
0
100
AcDbLine
 10
-2.000000000000029
 20
2.000000000000003
 30
0.0
 11
-2.000000000000029
 21
26.99999999999999
 31
0.0
  0
LINE
  5
9350
330
9345
100
AcDbEntity
  8
0
100
AcDbLine
 10
-2.000000000000029
 20
2.000000000000004
 30
0.0
 11
-2.000000000000021
 21
-1.999999999999999
 31
0.0
  0
LINE
  5
9351
330
9345
100
AcDbEntity
  8
0
100
AcDbLine
 10
-86.00000000000001
 20
-2.000000000000002
 30
0.0
 11
-86.00000000000001
 21
2.0
 31
0.0
  0
LINE
  5
9352
330
9345
100
AcDbEntity
  8
0
100
AcDbLine
 10
0.0
 20
59.99999999999996
 30
0.0
 11
0.0
 21
29.56249999999995
 31
0.0
  0
LINE
  5
9353
330
9345
100
AcDbEntity
  8
0
100
AcDbLine
 10
-2.000000000000019
 20
59.99999999999996
 30
0.0
 11
0.0
 21
59.99999999999996
 31
0.0
  0
LINE
  5
9354
330
9345
100
AcDbEntity
  8
0
100
AcDbLine
 10
-2.000000000000027
 20
29.56249999999995
 30
0.0
 11
-2.000000000000019
 21
59.99999999999996
 31
0.0
  0
LINE
  5
9355
330
9345
100
AcDbEntity
  8
0
100
AcDbLine
 10
0.0
 20
59.99999999999996
 30
0.0
 11
0.0
 21
157.0
 31
0.0
  0
CIRCLE
  5
9356
330
9345
100
AcDbEntity
  8
0
100
AcDbCircle
 10
-38.50000000000002
 20
141.9999999999999
 30
0.0
 40
2.5
  0
LINE
  5
9357
330
9345
100
AcDbEntity
  8
0
100
AcDbLine
 10
-46.00000000000003
 20
59.99999999999996
 30
0.0
 11
-86.00000000000003
 21
26.99999999999999
 31
0.0
  0
LINE
  5
9358
330
9345
100
AcDbEntity
  8
0
100
AcDbLine
 10
-46.00000000000001
 20
157.0
 30
0.0
 11
-46.00000000000003
 21
59.99999999999996
 31
0.0
  0
LINE
  5
9359
330
9345
100
AcDbEntity
  8
0
100
AcDbLine
 10
-86.00000000000003
 20
26.99999999999999
 30
0.0
 11
-86.00000000000001
 21
2.000000000000001
 31
0.0
  0
LINE
  5
935A
330
9345
100
AcDbEntity
  8
0
100
AcDbLine
 10
-4.000000000000021
 20
157.0
 30
0.0
 11
-46.00000000000001
 21
157.0
 31
0.0
  0
LINE
  5
935B
330
9345
100
AcDbEntity
  8
0
100
AcDbLine
 10
-2.000000000000024
 20
157.0
 30
0.0
 11
-4.000000000000021
 21
157.0
 31
0.0
  0
LINE
  5
935C
330
9345
100
AcDbEntity
  8
0
100
AcDbLine
 10
0.0
 20
157.0
 30
0.0
 11
-2.000000000000028
 21
157.0
 31
0.0
  0
LINE
  5
935D
330
9345
100
AcDbEntity
  8
0
100
AcDbLine
 10
-2.000000000000019
 20
59.99999999999996
 30
0.0
 11
-2.000000000000028
 21
157.0
 31
0.0
  0
CIRCLE
  5
935E
330
9345
100
AcDbEntity
  8
0
100
AcDbCircle
 10
-38.50000000000002
 20
41.99999999999997
 30
0.0
 40
2.5
  0
CIRCLE
  5
935F
330
9345
100
AcDbEntity
  8
0
100
AcDbCircle
 10
-38.50000000000002
 20
61.99999999999997
 30
0.0
 40
2.5
  0
CIRCLE
  5
9360
330
9345
100
AcDbEntity
  8
0
100
AcDbCircle
 10
-38.50000000000002
 20
81.99999999999997
 30
0.0
 40
2.5
  0
CIRCLE
  5
9361
330
9345
100
AcDbEntity
  8
0
100
AcDbCircle
 10
-38.50000000000002
 20
102.0
 30
0.0
 40
2.5
  0
CIRCLE
  5
9362
330
9345
100
AcDbEntity
  8
0
100
AcDbCircle
 10
-38.50000000000002
 20
121.9999999999999
 30
0.0
 40
2.5
  0
SPLINE
  5
9363
330
9345
100
AcDbEntity
  8
0
100
AcDbSpline
210
0.0
220
0.0
230
1.0
 70
     8
 71
     3
 72
     8
 73
     4
 74
     0
 42
0.000000001
 43
0.0000000001
 40
0.0214130046559287
 40
0.0214130046559287
 40
0.0214130046559287
 40
0.0214130046559287
 40
0.0238392903307977
 40
0.0238392903307977
 40
0.0238392903307977
 40
0.0238392903307977
 10
-1.999452958575277
 20
27.0228029371341
 30
0.0
 10
-1.999498950044024
 20
27.01548775082259
 30
0.0
 10
-1.999534117313977
 20
27.0078086078656
 30
0.0
 10
-1.999557272916876
 20
26.99999849441623
 30
0.0
  0
ENDBLK
  5
9347
330
9345
100
AcDbEntity
  8
0
100
AcDbBlockEnd
  0
BLOCK
  5
9365
330
9364
100
AcDbEntity
  8
0
100
AcDbBlockBegin
  2
SAE380_66_2-Top
 70
     0
 10
0.0
 20
0.0
 30
0.0
  3
SAE380_66_2-Top
  1

  0
LINE
  5
9367
330
9364
100
AcDbEntity
  8
0
100
AcDbLine
 10
33.00000000000001
 20
-2.000000000000024
 30
0.0
 11
33.00000000000001
 21
-2.069004766163641
 31
0.0
  0
SPLINE
  5
9368
330
9364
100
AcDbEntity
  8
0
100
AcDbSpline
210
0.0
220
0.0
230
1.0
 70
     8
 71
     3
 72
    11
 73
     7
 74
     0
 42
0.000000001
 43
0.0000000001
 40
-1.0
 40
-1.0
 40
-1.0
 40
-1.0
 40
-0.7994286890685327
 40
-0.7994286890685327
 40
-0.7994286890685327
 40
-0.653357377722061
 40
-0.653357377722061
 40
-0.653357377722061
 40
-0.653357377722061
 10
33.00000000000002
 20
-2.000000000000007
 30
0.0
 10
32.99999961270336
 20
-1.999093543230847
 30
0.0
 10
33.1263315060119
 20
-1.919863896630526
 30
0.0
 10
33.33607694565033
 20
-1.790687786193962
 30
0.0
 10
33.48882955655287
 20
-1.696611899874642
 30
0.0
 10
33.68837056421249
 20
-1.57739137784725
 30
0.0
 10
33.91982716790673
 20
-1.445337717162963
 30
0.0
  0
SPLINE
  5
9369
330
9364
100
AcDbEntity
  8
0
100
AcDbSpline
210
0.0
220
0.0
230
1.0
 70
     8
 71
     3
 72
    24
 73
    20
 74
     0
 42
0.000000001
 43
0.0000000001
 40
0.0
 40
0.0
 40
0.0
 40
0.0
 40
0.0070452398566157
 40
0.0070452398566157
 40
0.0166405949263098
 40
0.0166405949263098
 40
0.0367140942673212
 40
0.0367140942673212
 40
0.0488284899780727
 40
0.0488284899780727
 40
0.0619943401801703
 40
0.0619943401801703
 40
0.0706188779136601
 40
0.0706188779136601
 40
0.0776906910435138
 40
0.0776906910435138
 40
0.0832065316241729
 40
0.0832065316241729
 40
0.0851314111881742
 40
0.0851314111881742
 40
0.0851314111881742
 40
0.0851314111881742
 10
37.56202985674343
 20
-2.000020061973702
 30
0.0
 10
37.54510572273714
 20
-2.000020928437374
 30
0.0
 10
37.52555210339341
 20
-2.00002813429163
 30
0.0
 10
37.47775545395104
 20
-2.000061132070912
 30
0.0
 10
37.44841962899004
 20
-2.00009368968819
 30
0.0
 10
37.35657224052635
 20
-2.000268440250302
 30
0.0
 10
37.29198494470153
 20
-2.000513808508068
 30
0.0
 10
37.19633422807126
 20
-2.000879055388223
 30
0.0
 10
37.16273081672088
 20
-2.000996414974859
 30
0.0
 10
37.0918211228478
 20
-2.001409895075361
 30
0.0
 10
37.05225815322935
 20
-2.001735751882622
 30
0.0
 10
36.98348581676879
 20
-2.002882807502914
 30
0.0
 10
36.95529088156353
 20
-2.003502366157766
 30
0.0
 10
36.90345404955541
 20
-2.005128901279054
 30
0.0
 10
36.87967447394819
 20
-2.006056558875585
 30
0.0
 10
36.83787606786224
 20
-2.008135314654553
 30
0.0
 10
36.81951337924874
 20
-2.009206873081035
 30
0.0
 10
36.79591310646477
 20
-2.010819410456059
 30
0.0
 10
36.78987154455696
 20
-2.011254088624415
 30
0.0
 10
36.78400653788895
 20
-2.011697501805916
 30
0.0
  0
LINE
  5
936A
330
9364
100
AcDbEntity
  8
0
100
AcDbLine
 10
35.00002745113647
 20
-3.989521269529011
 30
0.0
 11
35.00002762966377
 21
-3.989575013449858
 31
0.0
  0
SPLINE
  5
936B
330
9364
100
AcDbEntity
  8
0
100
AcDbSpline
210
0.0
220
0.0
230
1.0
 70
     8
 71
     3
 72
    10
 73
     6
 74
     0
 42
0.000000001
 43
0.0000000001
 40
0.1085577664704059
 40
0.1085577664704059
 40
0.1085577664704059
 40
0.1085577664704059
 40
0.1101517730012971
 40
0.1101517730012971
 40
0.118430552426326
 40
0.118430552426326
 40
0.118430552426326
 40
0.118430552426326
 10
35.00193324000123
 20
-3.912084002655635
 30
0.0
 10
35.00180762576466
 20
-3.916567290238193
 30
0.0
 10
35.00168915794937
 20
-3.921130305371697
 30
0.0
 10
35.00100689649001
 20
-3.94963782867486
 30
0.0
 10
35.00066597101259
 20
-3.974616802325501
 30
0.0
 10
35.00049093598351
 20
-4.000003333312227
 30
0.0
  0
SPLINE
  5
936C
330
9364
100
AcDbEntity
  8
0
100
AcDbSpline
210
0.0
220
0.0
230
1.0
 70
     8
 71
     3
 72
    28
 73
    24
 74
     0
 42
0.000000001
 43
0.0000000001
 40
0.0059924025709365
 40
0.0059924025709365
 40
0.0059924025709365
 40
0.0059924025709365
 40
0.0060018368826107
 40
0.0060018368826107
 40
0.0060343724846751
 40
0.0060343724846751
 40
0.006100120433075
 40
0.006100120433075
 40
0.0063665705704943
 40
0.0063665705704943
 40
0.0733611880690403
 40
0.0733611880690403
 40
0.1461777890895072
 40
0.1461777890895072
 40
0.1822197180556195
 40
0.1822197180556195
 40
0.2005090907943791
 40
0.2005090907943791
 40
0.2098937706588118
 40
0.2098937706588118
 40
0.2150065170040292
 40
0.2150065170040292
 40
0.2204217714578346
 40
0.2204217714578346
 40
0.2204217714578346
 40
0.2204217714578346
 10
32.99996683550278
 20
-3.998262424358836
 30
0.0
 10
32.99996641660905
 20
-3.998238328945946
 30
0.0
 10
32.99996598712165
 20
-3.998213623028794
 30
0.0
 10
32.99996403005763
 20
-3.99810103883261
 30
0.0
 10
32.9999623780623
 20
-3.998005988891021
 30
0.0
 10
32.9999571755893
 20
-3.997706594401195
 30
0.0
 10
32.99995334694
 20
-3.997486175814603
 30
0.0
 10
32.99993419807522
 20
-3.99638325385381
 30
0.0
 10
32.99991873444972
 20
-3.995490981787905
 30
0.0
 10
32.99618179785905
 20
-3.779498086367727
 30
0.0
 10
32.99444382874464
 20
-3.585310238129318
 30
0.0
 10
32.99316940668645
 20
-3.164117018570438
 30
0.0
 10
32.99375519744294
 20
-2.938044691691128
 30
0.0
 10
32.99572386727816
 20
-2.597038495774445
 30
0.0
 10
32.99651060721642
 20
-2.485243371051036
 30
0.0
 10
32.99791998566455
 20
-2.319629739665979
 30
0.0
 10
32.99852173079553
 20
-2.262940911218288
 30
0.0
 10
32.99923838886927
 20
-2.180972757096703
 30
0.0
 10
32.99942028489566
 20
-2.153992717212509
 30
0.0
 10
32.99955633675392
 20
-2.117588861874994
 30
0.0
 10
32.99957946479049
 20
-2.105610811677577
 30
0.0
 10
32.99959432354012
 20
-2.084188235915225
 30
0.0
 10
32.99958391144703
 20
-2.074632505606828
 30
0.0
 10
32.99957228829784
 20
-2.069004766163641
 30
0.0
  0
SPLINE
  5
936D
330
9364
100
AcDbEntity
  8
0
100
AcDbSpline
210
0.0
220
0.0
230
1.0
 70
     8
 71
     3
 72
    12
 73
     8
 74
     0
 42
0.000000001
 43
0.0000000001
 40
0.0
 40
0.0
 40
0.0
 40
0.0
 40
0.0073680638635567
 40
0.0073680638635567
 40
0.0094714794579455
 40
0.0094714794579455
 40
0.0106892344354006
 40
0.0106892344354006
 40
0.0106892344354006
 40
0.0106892344354006
 10
32.99996053853818
 20
-3.999985503002887
 30
0.0
 10
33.0000012068911
 20
-3.988738678358365
 30
0.0
 10
33.00005705426696
 20
-3.976817397466361
 30
0.0
 10
33.00011475911488
 20
-3.966829073020953
 30
0.0
 10
33.00012596496221
 20
-3.96500442987845
 30
0.0
 10
33.00013624741465
 20
-3.963340749395584
 30
0.0
 10
33.00013843227603
 20
-3.962989239721773
 30
0.0
 10
33.00013843227598
 20
-3.962989239729532
 30
0.0
  0
LINE
  5
936E
330
9364
100
AcDbEntity
  8
0
100
AcDbLine
 10
-33.00000000000001
 20
-2.000000000000024
 30
0.0
 11
-33.00000000000001
 21
-2.069004766163605
 31
0.0
  0
SPLINE
  5
936F
330
9364
100
AcDbEntity
  8
0
100
AcDbSpline
210
0.0
220
0.0
230
1.0
 70
     8
 71
     3
 72
    11
 73
     7
 74
     0
 42
0.000000001
 43
0.0000000001
 40
-1.0
 40
-1.0
 40
-1.0
 40
-1.0
 40
-0.7994286890685327
 40
-0.7994286890685327
 40
-0.7994286890685327
 40
-0.653357377722061
 40
-0.653357377722061
 40
-0.653357377722061
 40
-0.653357377722061
 10
-33.00000000000002
 20
-2.000000000000007
 30
0.0
 10
-32.99999961270336
 20
-1.999093543230847
 30
0.0
 10
-33.1263315060119
 20
-1.919863896630526
 30
0.0
 10
-33.33607694565033
 20
-1.790687786193962
 30
0.0
 10
-33.48882955655287
 20
-1.696611899874642
 30
0.0
 10
-33.68837056421249
 20
-1.57739137784725
 30
0.0
 10
-33.91982716790673
 20
-1.445337717162963
 30
0.0
  0
SPLINE
  5
9370
330
9364
100
AcDbEntity
  8
0
100
AcDbSpline
210
0.0
220
0.0
230
1.0
 70
     8
 71
     3
 72
    40
 73
    36
 74
     0
 42
0.000000001
 43
0.0000000001
 40
0.0
 40
0.0
 40
0.0
 40
0.0
 40
0.0038040598018608
 40
0.0038040598018608
 40
0.0084789254222413
 40
0.0084789254222413
 40
0.0158054478261672
 40
0.0158054478261672
 40
0.0260000339613782
 40
0.0260000339613782
 40
0.049520634377601
 40
0.049520634377601
 40
0.1201103983873204
 40
0.1201103983873204
 40
0.1773337571331063
 40
0.1773337571331063
 40
0.1996793211524573
 40
0.1996793211524573
 40
0.2080576299060231
 40
0.2080576299060231
 40
0.2111994537638224
 40
0.2111994537638224
 40
0.2135558719747759
 40
0.2135558719747759
 40
0.2139977583022766
 40
0.2139977583022766
 40
0.2143300853472017
 40
0.2143300853472017
 40
0.2143843564838063
 40
0.2143843564838063
 40
0.2144316605058561
 40
0.2144316605058561
 40
0.2144792390451256
 40
0.2144792390451256
 40
0.2144971596488664
 40
0.2144971596488664
 40
0.2144971596488664
 40
0.2144971596488664
 10
-32.99957228829784
 20
-2.069004766163605
 30
0.0
 10
-32.99958045322434
 20
-2.072958090530809
 30
0.0
 10
-32.99958825487937
 20
-2.078881092821934
 30
0.0
 10
-32.99959053786114
 20
-2.094285445147721
 30
0.0
 10
-32.99958182785668
 20
-2.10440291181028
 30
0.0
 10
-32.9995128732439
 20
-2.132562809696618
 30
0.0
 10
-32.99942216624686
 20
-2.152170789672909
 30
0.0
 10
-32.99908018252345
 20
-2.201629641912555
 30
0.0
 10
-32.99878019265918
 20
-2.232656804585707
 30
0.0
 10
-32.99777927584945
 20
-2.335149022794866
 30
0.0
 10
-32.99716324841528
 20
-2.406783096961438
 30
0.0
 10
-32.99498744668912
 20
-2.695965524451235
 30
0.0
 10
-32.99378539073479
 20
-2.921302550314277
 30
0.0
 10
-32.99344334744927
 20
-3.312943752498164
 30
0.0
 10
-32.99387955183501
 20
-3.483506429679076
 30
0.0
 10
-32.99604610985065
 20
-3.72404449022899
 30
0.0
 10
-32.99683120512989
 20
-3.792158760336606
 30
0.0
 10
-32.99816331324245
 20
-3.886565432678658
 30
0.0
 10
-32.99855192430975
 20
-3.91237381138843
 30
0.0
 10
-32.99912013926709
 20
-3.947930086409203
 30
0.0
 10
-32.99927855680981
 20
-3.957633754154112
 30
0.0
 10
-32.999561974196
 20
-3.97463855554359
 30
0.0
 10
-32.99968506337613
 20
-3.98191297280924
 30
0.0
 10
-32.99983522420408
 20
-3.990654828010404
 30
0.0
 10
-32.99985906985667
 20
-3.992039215354359
 30
0.0
 10
-32.99990152981815
 20
-3.994497294100886
 30
0.0
 10
-32.99992010932395
 20
-3.995570678349544
 30
0.0
 10
-32.99994240121951
 20
-3.996855641230913
 30
0.0
 10
-32.9999455560882
 20
-3.997037430534485
 30
0.0
 10
-32.99995141897172
 20
-3.997375138921984
 30
0.0
 10
-32.99995415572484
 20
-3.997532728304255
 30
0.0
 10
-32.99995943837956
 20
-3.997836826722402
 30
0.0
 10
-32.99996202135098
 20
-3.997985468273033
 30
0.0
 10
-32.99996520048404
 20
-3.998168371450204
 30
0.0
 10
-32.99996603703593
 20
-3.99821649528345
 30
0.0
 10
-32.9999668355031
 20
-3.998262424271866
 30
0.0
  0
SPLINE
  5
9371
330
9364
100
AcDbEntity
  8
0
100
AcDbSpline
210
0.0
220
0.0
230
1.0
 70
     8
 71
     3
 72
    14
 73
    10
 74
     0
 42
0.000000001
 43
0.0000000001
 40
0.0077867807861929
 40
0.0077867807861929
 40
0.0077867807861929
 40
0.0077867807861929
 40
0.008397903311363
 40
0.008397903311363
 40
0.0105249654839147
 40
0.0105249654839147
 40
0.013864492317836
 40
0.013864492317836
 40
0.0184801346910631
 40
0.0184801346910631
 40
0.0184801346910631
 40
0.0184801346910631
 10
-33.00013843227604
 20
-3.962989239725817
 30
0.0
 10
-33.00013843227601
 20
-3.962989239731022
 30
0.0
 10
-33.00013788506643
 20
-3.963077842458812
 30
0.0
 10
-33.00013331027597
 20
-3.963815700265568
 30
0.0
 10
-33.00012394049694
 20
-3.965314845066032
 30
0.0
 10
-33.00009364632259
 20
-3.970424767310665
 30
0.0
 10
-33.00006960355351
 20
-3.974738183137001
 30
0.0
 10
-33.00001543374166
 20
-3.985811780750727
 30
0.0
 10
-32.9999860147795
 20
-3.992940053702067
 30
0.0
 10
-32.99996053853818
 20
-3.999985503002889
 30
0.0
  0
LINE
  5
9372
330
9364
100
AcDbEntity
  8
0
100
AcDbLine
 10
-35.00002767570551
 20
-3.989596155764549
 30
0.0
 11
-35.00002743644379
 21
-3.989524074153118
 31
0.0
  0
SPLINE
  5
9373
330
9364
100
AcDbEntity
  8
0
100
AcDbSpline
210
0.0
220
0.0
230
1.0
 70
     8
 71
     3
 72
     8
 73
     4
 74
     0
 42
0.000000001
 43
0.0000000001
 40
0.0
 40
0.0
 40
0.0
 40
0.0
 40
0.0098328856542684
 40
0.0098328856542684
 40
0.0098328856542684
 40
0.0098328856542684
 10
-35.0004909359835
 20
-4.000003333312228
 30
0.0
 10
-35.00069882887906
 20
-3.969851200547879
 30
0.0
 10
-35.00115981056447
 20
-3.939688410006527
 30
0.0
 10
-35.00193324002653
 20
-3.912084001752101
 30
0.0
  0
SPLINE
  5
9374
330
9364
100
AcDbEntity
  8
0
100
AcDbSpline
210
0.0
220
0.0
230
1.0
 70
     8
 71
     3
 72
    22
 73
    18
 74
     0
 42
0.000000001
 43
0.0000000001
 40
0.0478714372232711
 40
0.0478714372232711
 40
0.0478714372232711
 40
0.0478714372232711
 40
0.0509143159255391
 40
0.0509143159255391
 40
0.0563767803186408
 40
0.0563767803186408
 40
0.0645907840470807
 40
0.0645907840470807
 40
0.0763651691403836
 40
0.0763651691403836
 40
0.0912951856502923
 40
0.0912951856502923
 40
0.1030602340923392
 40
0.1030602340923392
 40
0.1261855907692075
 40
0.1261855907692075
 40
0.132987798671467
 40
0.132987798671467
 40
0.132987798671467
 40
0.132987798671467
 10
-36.78400653788633
 20
-2.011697501806114
 30
0.0
 10
-36.79325056013976
 20
-2.010998624285706
 30
0.0
 10
-36.8029414905693
 20
-2.010321376286853
 30
0.0
 10
-36.83036210265046
 20
-2.008558782984279
 30
0.0
 10
-36.84861440991541
 20
-2.007560852154024
 30
0.0
 10
-36.89412250008201
 20
-2.00544088966436
 30
0.0
 10
-36.92171315937859
 20
-2.004484871870349
 30
0.0
 10
-36.98716908317614
 20
-2.002725717478026
 30
0.0
 10
-37.02499984783963
 20
-2.002137209319753
 30
0.0
 10
-37.10564424684809
 20
-2.001256390126589
 30
0.0
 10
-37.1460248605814
 20
-2.001083596417636
 30
0.0
 10
-37.22219734861578
 20
-2.000776233587715
 30
0.0
 10
-37.25771658550134
 20
-2.000641943209893
 30
0.0
 10
-37.36567728034794
 20
-2.000249312069649
 30
0.0
 10
-37.44121992783867
 20
-2.000084894484535
 30
0.0
 10
-37.52688938599998
 20
-2.000027671330783
 30
0.0
 10
-37.54568953612691
 20
-2.000020898547922
 30
0.0
 10
-37.56202985674333
 20
-2.000020061973703
 30
0.0
  0
LINE
  5
9375
330
9364
100
AcDbEntity
  8
0
100
AcDbLine
 10
-33.0
 20
-2.000000000000024
 30
0.0
 11
-31.0
 21
-2.000000000000021
 31
0.0
  0
LINE
  5
9376
330
9364
100
AcDbEntity
  8
0
100
AcDbLine
 10
-32.99999999999998
 20
-86.00000000000001
 30
0.0
 11
-30.99999999999998
 21
-86.00000000000001
 31
0.0
  0
LINE
  5
9377
330
9364
100
AcDbEntity
  8
0
100
AcDbLine
 10
31.00000000000001
 20
-2.000000000000021
 30
0.0
 11
-31.00000000000001
 21
-2.000000000000021
 31
0.0
  0
LINE
  5
9378
330
9364
100
AcDbEntity
  8
0
100
AcDbLine
 10
-30.99999999999998
 20
-86.00000000000001
 30
0.0
 11
30.99999999999998
 21
-86.00000000000001
 31
0.0
  0
CIRCLE
  5
9379
330
9364
100
AcDbEntity
  8
0
100
AcDbCircle
 10
0.0
 20
-47.99999999999998
 30
0.0
 40
2.5
  0
CIRCLE
  5
937A
330
9364
100
AcDbEntity
  8
0
100
AcDbCircle
 10
0.0
 20
-67.99999999999998
 30
0.0
 40
2.5
  0
LINE
  5
937B
330
9364
100
AcDbEntity
  8
0
100
AcDbLine
 10
33.0
 20
-2.000000000000024
 30
0.0
 11
31.0
 21
-2.000000000000021
 31
0.0
  0
LINE
  5
937C
330
9364
100
AcDbEntity
  8
0
100
AcDbLine
 10
36.99999999999999
 20
0.0
 30
0.0
 11
74.50000000000001
 21
0.0
 31
0.0
  0
ARC
  5
937D
330
9364
100
AcDbEntity
  8
0
100
AcDbCircle
 10
37.0
 20
-4.000000000000022
 30
0.0
 40
3.999999999999999
100
AcDbArc
 50
90.00000000000012
 51
180.0
  0
LINE
  5
937E
330
9364
100
AcDbEntity
  8
0
100
AcDbLine
 10
32.99999999999999
 20
-86.00000000000003
 30
0.0
 11
33.0
 21
-46.00000000000003
 31
0.0
  0
LINE
  5
937F
330
9364
100
AcDbEntity
  8
0
100
AcDbLine
 10
34.99999999999999
 20
-86.00000000000003
 30
0.0
 11
32.99999999999999
 21
-86.00000000000003
 31
0.0
  0
LINE
  5
9380
330
9364
100
AcDbEntity
  8
0
100
AcDbLine
 10
35.0
 20
-46.00000000000003
 30
0.0
 11
34.99999999999999
 21
-86.00000000000003
 31
0.0
  0
LINE
  5
9381
330
9364
100
AcDbEntity
  8
0
100
AcDbLine
 10
33.0
 20
-46.00000000000001
 30
0.0
 11
35.0
 21
-46.00000000000001
 31
0.0
  0
LINE
  5
9382
330
9364
100
AcDbEntity
  8
0
100
AcDbLine
 10
35.00000000000001
 20
-4.000000000000021
 30
0.0
 11
35.0
 21
-46.00000000000001
 31
0.0
  0
LINE
  5
9383
330
9364
100
AcDbEntity
  8
0
100
AcDbLine
 10
33.0
 20
-46.00000000000001
 30
0.0
 11
33.0
 21
-4.000000000000021
 31
0.0
  0
LINE
  5
9384
330
9364
100
AcDbEntity
  8
0
100
AcDbLine
 10
32.99999999999998
 20
-86.00000000000001
 30
0.0
 11
30.99999999999998
 21
-86.00000000000001
 31
0.0
  0
ARC
  5
9385
330
9364
100
AcDbEntity
  8
0
100
AcDbCircle
 10
37.0
 20
-4.000000000000022
 30
0.0
 40
1.999999999999997
100
AcDbArc
 50
90.00000000000026
 51
180.0
  0
LINE
  5
9386
330
9364
100
AcDbEntity
  8
0
100
AcDbLine
 10
74.50000000000001
 20
0.0
 30
0.0
 11
74.50000000000001
 21
-2.000000000000028
 31
0.0
  0
LINE
  5
9387
330
9364
100
AcDbEntity
  8
0
100
AcDbLine
 10
74.50000000000001
 20
-2.000000000000028
 30
0.0
 11
36.99999999999999
 21
-2.000000000000023
 31
0.0
  0
LINE
  5
9388
330
9364
100
AcDbEntity
  8
0
100
AcDbLine
 10
-74.50000000000001
 20
-2.000000000000028
 30
0.0
 11
-36.99999999999999
 21
-2.000000000000023
 31
0.0
  0
LINE
  5
9389
330
9364
100
AcDbEntity
  8
0
100
AcDbLine
 10
-33.0
 20
-46.00000000000001
 30
0.0
 11
-33.0
 21
-4.000000000000021
 31
0.0
  0
LINE
  5
938A
330
9364
100
AcDbEntity
  8
0
100
AcDbLine
 10
-35.00000000000001
 20
-4.000000000000021
 30
0.0
 11
-35.0
 21
-46.00000000000001
 31
0.0
  0
LINE
  5
938B
330
9364
100
AcDbEntity
  8
0
100
AcDbLine
 10
-36.99999999999999
 20
0.0
 30
0.0
 11
-74.50000000000001
 21
0.0
 31
0.0
  0
LINE
  5
938C
330
9364
100
AcDbEntity
  8
0
100
AcDbLine
 10
-74.50000000000001
 20
0.0
 30
0.0
 11
-74.50000000000001
 21
-2.000000000000028
 31
0.0
  0
ARC
  5
938D
330
9364
100
AcDbEntity
  8
0
100
AcDbCircle
 10
-37.0
 20
-4.000000000000022
 30
0.0
 40
1.999999999999997
100
AcDbArc
 50
0.0
 51
89.99999999999975
  0
ARC
  5
938E
330
9364
100
AcDbEntity
  8
0
100
AcDbCircle
 10
-37.0
 20
-4.000000000000022
 30
0.0
 40
3.999999999999999
100
AcDbArc
 50
0.0
 51
89.99999999999987
  0
LINE
  5
938F
330
9364
100
AcDbEntity
  8
0
100
AcDbLine
 10
-33.0
 20
-46.00000000000003
 30
0.0
 11
-32.99999999999999
 21
-86.00000000000003
 31
0.0
  0
LINE
  5
9390
330
9364
100
AcDbEntity
  8
0
100
AcDbLine
 10
-34.99999999999999
 20
-86.00000000000003
 30
0.0
 11
-35.0
 21
-46.00000000000003
 31
0.0
  0
LINE
  5
9391
330
9364
100
AcDbEntity
  8
0
100
AcDbLine
 10
-32.99999999999999
 20
-86.00000000000003
 30
0.0
 11
-34.99999999999999
 21
-86.00000000000003
 31
0.0
  0
LINE
  5
9392
330
9364
100
AcDbEntity
  8
0
100
AcDbLine
 10
-35.0
 20
-46.00000000000001
 30
0.0
 11
-33.0
 21
-46.00000000000001
 31
0.0
  0
ENDBLK
  5
9366
330
9364
100
AcDbEntity
  8
0
100
AcDbBlockEnd
  0
BLOCK
  5
9394
330
9393
100
AcDbEntity
  8
0
100
AcDbBlockBegin
  2
SAE380_66_2-Bottom
 70
     0
 10
0.0
 20
0.0
 30
0.0
  3
SAE380_66_2-Bottom
  1

  0
SPLINE
  5
9396
330
9393
100
AcDbEntity
  8
0
100
AcDbSpline
210
0.0
220
0.0
230
1.0
 70
     8
 71
     3
 72
    14
 73
    10
 74
     0
 42
0.000000001
 43
0.0000000001
 40
0.0
 40
0.0
 40
0.0
 40
0.0
 40
0.343514936890645
 40
0.343514936890645
 40
0.343514936890645
 40
0.7569946176848412
 40
0.7569946176848412
 40
0.7569946176848412
 40
1.0
 40
1.0
 40
1.0
 40
1.0
 10
37.60606060606065
 20
2.000000000000027
 30
0.0
 10
37.28490796719894
 20
2.000036879631409
 30
0.0
 10
36.87246555816056
 20
1.996834167075061
 30
0.0
 10
36.47647444982542
 20
1.998676128322127
 30
0.0
 10
35.99983061432349
 20
2.000893247482552
 30
0.0
 10
35.53729794764854
 20
2.001072402908466
 30
0.0
 10
35.26242807115259
 20
2.001124325805019
 30
0.0
 10
35.1008848018521
 20
2.001154841315004
 30
0.0
 10
34.99999576705053
 20
2.000250547668336
 30
0.0
 10
34.99999999948833
 20
1.999999999992517
 30
0.0
  0
LINE
  5
9397
330
9393
100
AcDbEntity
  8
0
100
AcDbLine
 10
37.00221930020533
 20
2.000000000000027
 30
0.0
 11
37.00619229303413
 21
2.000000000000027
 31
0.0
  0
LINE
  5
9398
330
9393
100
AcDbEntity
  8
0
100
AcDbLine
 10
37.56202985674335
 20
2.000000000000027
 30
0.0
 11
37.60606060606067
 21
2.000000000000027
 31
0.0
  0
ARC
  5
9399
330
9393
100
AcDbEntity
  8
0
100
AcDbCircle
 10
37.0
 20
4.000000000000022
 30
0.0
 40
1.999999999999997
100
AcDbArc
 50
182.4455220558734
 51
263.7599697046155
  0
ARC
  5
939A
330
9393
100
AcDbEntity
  8
0
100
AcDbCircle
 10
37.0
 20
4.000000000000022
 30
0.0
 40
3.999999999999998
100
AcDbArc
 50
219.6927749101255
 51
270.0
  0
LINE
  5
939B
330
9393
100
AcDbEntity
  8
0
100
AcDbLine
 10
37.60606060606067
 20
0.0
 30
0.0
 11
37.0
 21
0.0
 31
0.0
  0
SPLINE
  5
939C
330
9393
100
AcDbEntity
  8
0
100
AcDbSpline
210
0.0
220
0.0
230
1.0
 70
     8
 71
     3
 72
    17
 73
    13
 74
     0
 42
0.000000001
 43
0.0000000001
 40
-1.0
 40
-1.0
 40
-1.0
 40
-1.0
 40
-0.7994286890685327
 40
-0.7994286890685327
 40
-0.7994286890685327
 40
-0.3760960080973392
 40
-0.3760960080973392
 40
-0.3760960080973392
 40
-0.0765284972673099
 40
-0.0765284972673099
 40
-0.0765284972673099
 40
0.0
 40
0.0
 40
0.0
 40
0.0
 10
33.00000000000002
 20
2.000000000000007
 30
0.0
 10
32.99999961270336
 20
1.999093543230847
 30
0.0
 10
33.1263315060119
 20
1.919863896630526
 30
0.0
 10
33.33607694565033
 20
1.790687786193962
 30
0.0
 10
33.77877285700107
 20
1.518044261581278
 30
0.0
 10
34.61445008346436
 20
1.034207947869813
 30
0.0
 10
35.48107962103109
 20
0.6388614064335774
 30
0.0
 10
36.09434210949534
 20
0.3590980320075583
 30
0.0
 10
36.71765761685874
 20
0.1217220476560942
 30
0.0
 10
37.23393420694228
 20
0.0342615816141035
 30
0.0
 10
37.36582391522177
 20
0.0119186445647992
 30
0.0
 10
37.48832026105171
 20
0.0000045452574095
 30
0.0
 10
37.60606060611087
 20
0.0000000001152112
 30
0.0
  0
LINE
  5
939D
330
9393
100
AcDbEntity
  8
0
100
AcDbLine
 10
37.60606060606067
 20
2.000000000000027
 30
0.0
 11
37.60606060606067
 21
0.0
 31
0.0
  0
SPLINE
  5
939E
330
9393
100
AcDbEntity
  8
0
100
AcDbSpline
210
0.0
220
0.0
230
1.0
 70
     8
 71
     3
 72
    30
 73
    26
 74
     0
 42
0.000000001
 43
0.0000000001
 40
0.0364728668649685
 40
0.0364728668649685
 40
0.0364728668649685
 40
0.0364728668649685
 40
0.0383798159813459
 40
0.0383798159813459
 40
0.0414118567118492
 40
0.0414118567118492
 40
0.0445182445772065
 40
0.0445182445772065
 40
0.0472747035443335
 40
0.0472747035443335
 40
0.0509143159254243
 40
0.0509143159254243
 40
0.0563767803185402
 40
0.0563767803185402
 40
0.0645907840469058
 40
0.0645907840469058
 40
0.0763651691401729
 40
0.0763651691401729
 40
0.0912951856500362
 40
0.0912951856500362
 40
0.1030602341304508
 40
0.1030602341304508
 40
0.1261855908295886
 40
0.1261855908295886
 40
0.1329877986710506
 40
0.1329877986710506
 40
0.1329877986710506
 40
0.1329877986710506
 10
36.72383606961431
 20
2.017146192080477
 30
0.0
 10
36.72383606956299
 20
2.017146192086222
 30
0.0
 10
36.72450836877259
 20
2.017070754859002
 30
0.0
 10
36.72768868686802
 20
2.016725559065639
 30
0.0
 10
36.73087807073594
 20
2.016383757556235
 30
0.0
 10
36.74081665139708
 20
2.015388200708994
 30
0.0
 10
36.74771468894757
 20
2.014725511050249
 30
0.0
 10
36.76255940647553
 20
2.013408092465165
 30
0.0
 10
36.77042163538835
 20
2.012749694937147
 30
0.0
 10
36.78945151441927
 20
2.011267017845674
 30
0.0
 10
36.80101766426999
 20
2.010445039585856
 30
0.0
 10
36.83036210264943
 20
2.00855878298434
 30
0.0
 10
36.8486144099144
 20
2.007560852154075
 30
0.0
 10
36.89412250008081
 20
2.005440889664407
 30
0.0
 10
36.92171315937714
 20
2.004484871870396
 30
0.0
 10
36.98716908317438
 20
2.002725717478061
 30
0.0
 10
37.02499984783779
 20
2.00213720931978
 30
0.0
 10
37.10564424684617
 20
2.001256390126603
 30
0.0
 10
37.14602486057949
 20
2.001083596417645
 30
0.0
 10
37.22219734872306
 20
2.000776233587282
 30
0.0
 10
37.25771658573217
 20
2.000641943208969
 30
0.0
 10
37.36567728078231
 20
2.000249312068235
 30
0.0
 10
37.44121992835685
 20
2.000084894483818
 30
0.0
 10
37.52688938633389
 20
2.000027671330666
 30
0.0
 10
37.54568953627298
 20
2.000020898547914
 30
0.0
 10
37.56202985674334
 20
2.000020061973702
 30
0.0
  0
SPLINE
  5
939F
330
9393
100
AcDbEntity
  8
0
100
AcDbSpline
210
0.0
220
0.0
230
1.0
 70
     8
 71
     3
 72
     8
 73
     4
 74
     0
 42
0.000000001
 43
0.0000000001
 40
0.0
 40
0.0
 40
0.0
 40
0.0
 40
0.0034296926661912
 40
0.0034296926661912
 40
0.0034296926661912
 40
0.0034296926661912
 10
35.00006462073216
 20
3.999999788630939
 30
0.0
 10
35.00004298618833
 20
3.9943032437828
 30
0.0
 10
35.00002047255581
 20
3.987666427725248
 30
0.0
 10
35.0
 20
3.980806637238581
 30
0.0
  0
SPLINE
  5
93A0
330
9393
100
AcDbEntity
  8
0
100
AcDbSpline
210
0.0
220
0.0
230
1.0
 70
     8
 71
     3
 72
     8
 73
     4
 74
     0
 42
0.000000001
 43
0.0000000001
 40
0.0
 40
0.0
 40
0.0
 40
0.0
 40
0.0103048173373548
 40
0.0103048173373548
 40
0.0103048173373548
 40
0.0103048173373548
 10
35.00049093598351
 20
4.000003333312227
 30
0.0
 10
35.00070880674799
 20
3.968404041772267
 30
0.0
 10
35.00121010830369
 20
3.936727390246198
 30
0.0
 10
35.00204599474693
 20
3.908145685397892
 30
0.0
  0
SPLINE
  5
93A1
330
9393
100
AcDbEntity
  8
0
100
AcDbSpline
210
0.0
220
0.0
230
1.0
 70
     8
 71
     3
 72
    34
 73
    30
 74
     0
 42
0.000000001
 43
0.0000000001
 40
0.0436321582716019
 40
0.0436321582716019
 40
0.0436321582716019
 40
0.0436321582716019
 40
0.0436980540904814
 40
0.0436980540904814
 40
0.0440065165148511
 40
0.0440065165148511
 40
0.0441606038162263
 40
0.0441606038162263
 40
0.0443152227556756
 40
0.0443152227556756
 40
0.044470359485936
 40
0.044470359485936
 40
0.0446253066642947
 40
0.0446253066642947
 40
0.0449378074429782
 40
0.0449378074429782
 40
0.0462042925561345
 40
0.0462042925561345
 40
0.0474351592808924
 40
0.0474351592808924
 40
0.0507824822516819
 40
0.0507824822516819
 40
0.0563242414718298
 40
0.0563242414718298
 40
0.0632429960011621
 40
0.0632429960011621
 40
0.0673654341625312
 40
0.0673654341625312
 40
0.0708018301049708
 40
0.0708018301049708
 40
0.0708018301049708
 40
0.0708018301049708
 10
35.00049915075013
 20
3.969233896990758
 30
0.0
 10
35.00049915075013
 20
3.969233896990637
 30
0.0
 10
35.00049920959294
 20
3.969230805797607
 30
0.0
 10
35.00049992452125
 20
3.969193256375145
 30
0.0
 10
35.00050191664707
 20
3.969088407675119
 30
0.0
 10
35.00050905279338
 20
3.968715139317496
 30
0.0
 10
35.00051215751754
 20
3.96855293544643
 30
0.0
 10
35.00052029787708
 20
3.968129300851743
 30
0.0
 10
35.00052541276985
 20
3.967863751389411
 30
0.0
 10
35.00053786099713
 20
3.967221119502686
 30
0.0
 10
35.00054532776733
 20
3.966837246519139
 30
0.0
 10
35.00056192134098
 20
3.965990193822343
 30
0.0
 10
35.00057116904656
 20
3.965520904381922
 30
0.0
 10
35.00060023350111
 20
3.964057244231185
 30
0.0
 10
35.00062164589773
 20
3.962994035234944
 30
0.0
 10
35.00072929472287
 20
3.957732480236838
 30
0.0
 10
35.00081996733709
 20
3.953563977544263
 30
0.0
 10
35.00099797828366
 20
3.945799562778171
 30
0.0
 10
35.00108766412213
 20
3.942082792968675
 30
0.0
 10
35.00142826744536
 20
3.928595404311013
 30
0.0
 10
35.00169395626631
 20
3.919306409355072
 30
0.0
 10
35.0024187311963
 20
3.896280812760709
 30
0.0
 10
35.00289603034264
 20
3.883466093569431
 30
0.0
 10
35.00390972935374
 20
3.858873921798968
 30
0.0
 10
35.00444328622603
 20
3.847809915903995
 30
0.0
 10
35.00512191950225
 20
3.834606708129676
 30
0.0
 10
35.0053409309538
 20
3.830597305080272
 30
0.0
 10
35.00561879386969
 20
3.825619134770729
 30
0.0
 10
35.00569879693003
 20
3.82424055510671
 30
0.0
 10
35.00569879692846
 20
3.824240555133846
 30
0.0
  0
SPLINE
  5
93A2
330
9393
100
AcDbEntity
  8
0
100
AcDbSpline
210
0.0
220
0.0
230
1.0
 70
     8
 71
     3
 72
    14
 73
    10
 74
     0
 42
0.000000001
 43
0.0000000001
 40
0.0819810299322604
 40
0.0819810299322604
 40
0.0819810299322604
 40
0.0819810299322604
 40
0.0829074641119598
 40
0.0829074641119598
 40
0.0849120877654574
 40
0.0849120877654574
 40
0.0909248816954913
 40
0.0909248816954913
 40
0.0933596264868216
 40
0.0933596264868216
 40
0.0933596264868216
 40
0.0933596264868216
 10
35.00373023007571
 20
3.862416143585733
 30
0.0
 10
35.00373023006829
 20
3.862416143751294
 30
0.0
 10
35.0037428881555
 20
3.862133516722321
 30
0.0
 10
35.00379637638241
 20
3.860948261953419
 30
0.0
 10
35.00385203498228
 20
3.859727871611451
 30
0.0
 10
35.00407202863475
 20
3.855003272473283
 30
0.0
 10
35.00424238419776
 20
3.851586665364212
 30
0.0
 10
35.00435987792715
 20
3.849307698332419
 30
0.0
 10
35.00438009977226
 20
3.848926802748363
 30
0.0
 10
35.00438009977135
 20
3.848926802765469
 30
0.0
  0
CIRCLE
  5
93A3
330
9393
100
AcDbEntity
  8
0
100
AcDbCircle
 10
0.0
 20
67.99999999999998
 30
0.0
 40
2.5
  0
CIRCLE
  5
93A4
330
9393
100
AcDbEntity
  8
0
100
AcDbCircle
 10
0.0
 20
47.99999999999998
 30
0.0
 40
2.5
  0
LINE
  5
93A5
330
9393
100
AcDbEntity
  8
0
100
AcDbLine
 10
31.00000000000001
 20
2.000000000000021
 30
0.0
 11
-31.00000000000001
 21
2.000000000000021
 31
0.0
  0
LINE
  5
93A6
330
9393
100
AcDbEntity
  8
0
100
AcDbLine
 10
30.99999999999998
 20
86.00000000000001
 30
0.0
 11
-30.99999999999998
 21
86.00000000000001
 31
0.0
  0
SPLINE
  5
93A7
330
9393
100
AcDbEntity
  8
0
100
AcDbSpline
210
0.0
220
0.0
230
1.0
 70
     8
 71
     3
 72
    17
 73
    13
 74
     0
 42
0.000000001
 43
0.0000000001
 40
-1.0
 40
-1.0
 40
-1.0
 40
-1.0
 40
-0.7994286890685327
 40
-0.7994286890685327
 40
-0.7994286890685327
 40
-0.3760960080973392
 40
-0.3760960080973392
 40
-0.3760960080973392
 40
-0.0765284972673099
 40
-0.0765284972673099
 40
-0.0765284972673099
 40
0.0
 40
0.0
 40
0.0
 40
0.0
 10
-33.00000000000002
 20
2.000000000000007
 30
0.0
 10
-32.99999961270336
 20
1.999093543230847
 30
0.0
 10
-33.1263315060119
 20
1.919863896630526
 30
0.0
 10
-33.33607694565033
 20
1.790687786193962
 30
0.0
 10
-33.77877285700107
 20
1.518044261581278
 30
0.0
 10
-34.61445008346436
 20
1.034207947869813
 30
0.0
 10
-35.48107962103109
 20
0.6388614064335774
 30
0.0
 10
-36.09434210949534
 20
0.3590980320075583
 30
0.0
 10
-36.71765761685874
 20
0.1217220476560942
 30
0.0
 10
-37.23393420694228
 20
0.0342615816141035
 30
0.0
 10
-37.36582391522177
 20
0.0119186445647992
 30
0.0
 10
-37.48832026105171
 20
0.0000045452574095
 30
0.0
 10
-37.60606060611087
 20
0.0000000001152112
 30
0.0
  0
LINE
  5
93A8
330
9393
100
AcDbEntity
  8
0
100
AcDbLine
 10
-37.0
 20
0.0
 30
0.0
 11
-37.60606060606067
 21
0.0
 31
0.0
  0
ARC
  5
93A9
330
9393
100
AcDbEntity
  8
0
100
AcDbCircle
 10
-37.0
 20
4.000000000000022
 30
0.0
 40
3.999999999999999
100
AcDbArc
 50
270.0
 51
320.3072250898745
  0
ARC
  5
93AA
330
9393
100
AcDbEntity
  8
0
100
AcDbCircle
 10
-37.0
 20
4.000000000000022
 30
0.0
 40
1.999999999999996
100
AcDbArc
 50
276.2400302953828
 51
357.5544779441742
  0
LINE
  5
93AB
330
9393
100
AcDbEntity
  8
0
100
AcDbLine
 10
-37.60606060606067
 20
2.000000000000027
 30
0.0
 11
-37.56202985674331
 21
2.000000000000027
 31
0.0
  0
LINE
  5
93AC
330
9393
100
AcDbEntity
  8
0
100
AcDbLine
 10
-37.00619229303409
 20
2.000000000000027
 30
0.0
 11
-37.00221930020516
 21
2.000000000000027
 31
0.0
  0
SPLINE
  5
93AD
330
9393
100
AcDbEntity
  8
0
100
AcDbSpline
210
0.0
220
0.0
230
1.0
 70
     8
 71
     3
 72
    14
 73
    10
 74
     0
 42
0.000000001
 43
0.0000000001
 40
0.0
 40
0.0
 40
0.0
 40
0.0
 40
0.343514936890645
 40
0.343514936890645
 40
0.343514936890645
 40
0.7569946176848412
 40
0.7569946176848412
 40
0.7569946176848412
 40
1.0
 40
1.0
 40
1.0
 40
1.0
 10
-37.60606060606065
 20
2.000000000000027
 30
0.0
 10
-37.28490796719894
 20
2.000036879631409
 30
0.0
 10
-36.87246555816056
 20
1.996834167075061
 30
0.0
 10
-36.47647444982542
 20
1.998676128322127
 30
0.0
 10
-35.99983061432349
 20
2.000893247482552
 30
0.0
 10
-35.53729794764854
 20
2.001072402908466
 30
0.0
 10
-35.26242807115259
 20
2.001124325805019
 30
0.0
 10
-35.1008848018521
 20
2.001154841315004
 30
0.0
 10
-34.99999576705053
 20
2.000250547668336
 30
0.0
 10
-34.99999999948833
 20
1.999999999992517
 30
0.0
  0
LINE
  5
93AE
330
9393
100
AcDbEntity
  8
0
100
AcDbLine
 10
-37.60606060606067
 20
0.0
 30
0.0
 11
-37.60606060606067
 21
2.000000000000027
 31
0.0
  0
SPLINE
  5
93AF
330
9393
100
AcDbEntity
  8
0
100
AcDbSpline
210
0.0
220
0.0
230
1.0
 70
     8
 71
     3
 72
    10
 73
     6
 74
     0
 42
0.000000001
 43
0.0000000001
 40
0.0192480441176864
 40
0.0192480441176864
 40
0.0192480441176864
 40
0.0192480441176864
 40
0.0195090936870453
 40
0.0195090936870453
 40
0.0226780135001038
 40
0.0226780135001038
 40
0.0226780135001038
 40
0.0226780135001038
 10
-35.00000000000002
 20
3.980806637246788
 30
0.0
 10
-35.00000155886902
 20
3.981328971384574
 30
0.0
 10
-35.00000312970417
 20
3.981850394433608
 30
0.0
 10
-35.0000239098412
 20
3.988683519302489
 30
0.0
 10
-35.00004463114672
 20
3.994736374210268
 30
0.0
 10
-35.00006462073216
 20
3.999999788630941
 30
0.0
  0
SPLINE
  5
93B0
330
9393
100
AcDbEntity
  8
0
100
AcDbSpline
210
0.0
220
0.0
230
1.0
 70
     8
 71
     3
 72
    14
 73
    10
 74
     0
 42
0.000000001
 43
0.0000000001
 40
0.0250699603139245
 40
0.0250699603139245
 40
0.0250699603139245
 40
0.0250699603139245
 40
0.0257267443888911
 40
0.0257267443888911
 40
0.0325076243476208
 40
0.0325076243476208
 40
0.0360900120173681
 40
0.0360900120173681
 40
0.0364460966930355
 40
0.0364460966930355
 40
0.0364460966930355
 40
0.0364460966930355
 10
-35.00438009977132
 20
3.848926802766023
 30
0.0
 10
-35.0043800997631
 20
3.848926802920821
 30
0.0
 10
-35.00437862515704
 20
3.848954588447617
 30
0.0
 10
-35.00434682764832
 20
3.849557755550554
 30
0.0
 10
-35.00417716437301
 20
3.852833233370844
 30
0.0
 10
-35.00389200759038
 20
3.858847545675052
 30
0.0
 10
-35.00376855912968
 20
3.86156215464351
 30
0.0
 10
-35.00373220870996
 20
3.862371985680109
 30
0.0
 10
-35.0037302301117
 20
3.862416142782296
 30
0.0
 10
-35.00373023007545
 20
3.862416143590816
 30
0.0
  0
SPLINE
  5
93B1
330
9393
100
AcDbEntity
  8
0
100
AcDbSpline
210
0.0
220
0.0
230
1.0
 70
     8
 71
     3
 72
    36
 73
    32
 74
     0
 42
0.000000001
 43
0.0000000001
 40
0.0476072312380001
 40
0.0476072312380001
 40
0.0476072312380001
 40
0.0476072312380001
 40
0.0482017601914365
 40
0.0482017601914365
 40
0.0520303093923505
 40
0.0520303093923505
 40
0.0580614717121173
 40
0.0580614717121173
 40
0.066478245091419
 40
0.066478245091419
 40
0.0701802504340628
 40
0.0701802504340628
 40
0.0716763241573832
 40
0.0716763241573832
 40
0.0727360596406537
 40
0.0727360596406537
 40
0.0732982631447957
 40
0.0732982631447957
 40
0.0735333344694228
 40
0.0735333344694228
 40
0.0737708210106204
 40
0.0737708210106204
 40
0.0739324977259632
 40
0.0739324977259632
 40
0.0740946448958988
 40
0.0740946448958988
 40
0.074256329986203
 40
0.074256329986203
 40
0.0745815931036646
 40
0.0745815931036646
 40
0.0747632694987402
 40
0.0747632694987402
 40
0.0747632694987402
 40
0.0747632694987402
 10
-35.00569879692843
 20
3.824240555134041
 30
0.0
 10
-35.00569879692573
 20
3.82424055518073
 30
0.0
 10
-35.00569638180709
 20
3.824282390616322
 30
0.0
 10
-35.00566206091825
 20
3.824878703397299
 30
0.0
 10
-35.00554153425405
 20
3.826971541674604
 30
0.0
 10
-35.00510634095096
 20
3.834895403649953
 30
0.0
 10
-35.00471953452078
 20
3.84219390526047
 30
0.0
 10
-35.00367510802025
 20
3.86419246936261
 30
0.0
 10
-35.00294278889938
 20
3.881269788064001
 30
0.0
 10
-35.00193925103866
 20
3.911194819875034
 30
0.0
 10
-35.00163736910507
 20
3.921117209786532
 30
0.0
 10
-35.00124031495146
 20
3.935985297635638
 30
0.0
 10
-35.00112871208186
 20
3.940387788103952
 30
0.0
 10
-35.00094336676133
 20
3.948144712271971
 30
0.0
 10
-35.00086777687752
 20
3.951442529798695
 30
0.0
 10
-35.00075399577094
 20
3.956645052622173
 30
0.0
 10
-35.00071460523306
 20
3.958491277399281
 30
0.0
 10
-35.00065960336272
 20
3.961139029871663
 30
0.0
 10
-35.00064341153628
 20
3.961927277403121
 30
0.0
 10
-35.0006115153052
 20
3.963497636690982
 30
0.0
 10
-35.00059557808139
 20
3.964291690090874
 30
0.0
 10
-35.00057075866035
 20
3.965541568991292
 30
0.0
 10
-35.00056112233577
 20
3.966030756915248
 30
0.0
 10
-35.00054395480325
 20
3.966907586747687
 30
0.0
 10
-35.00053629312259
 20
3.967301819294546
 30
0.0
 10
-35.00052369535328
 20
3.967952723861362
 30
0.0
 10
-35.00051860993575
 20
3.968217002710176
 30
0.0
 10
-35.00050658711838
 20
3.968843215567602
 30
0.0
 10
-35.00050261290862
 20
3.969052167653147
 30
0.0
 10
-35.00049959271908
 20
3.969210666504512
 30
0.0
 10
-35.00049915074028
 20
3.969233897507953
 30
0.0
 10
-35.00049915074967
 20
3.969233897014316
 30
0.0
  0
SPLINE
  5
93B2
330
9393
100
AcDbEntity
  8
0
100
AcDbSpline
210
0.0
220
0.0
230
1.0
 70
     8
 71
     3
 72
    20
 73
    16
 74
     0
 42
0.000000001
 43
0.0000000001
 40
0.1034042841452995
 40
0.1034042841452995
 40
0.1034042841452995
 40
0.1034042841452995
 40
0.1036986928871506
 40
0.1036986928871506
 40
0.1041718181577524
 40
0.1041718181577524
 40
0.1049673826668708
 40
0.1049673826668708
 40
0.1057328112233609
 40
0.1057328112233609
 40
0.1070743656914357
 40
0.1070743656914357
 40
0.1101517729808592
 40
0.1101517729808592
 40
0.1184305524282195
 40
0.1184305524282195
 40
0.1184305524282195
 40
0.1184305524282195
 10
-35.00299632665427
 20
3.880049798700039
 30
0.0
 10
-35.00299632663008
 20
3.880049799326823
 30
0.0
 10
-35.00299484426069
 20
3.880088181689714
 30
0.0
 10
-35.00298595181025
 20
3.880318943335798
 30
0.0
 10
-35.00297530587099
 20
3.880595166542642
 30
0.0
 10
-35.00293023641851
 20
3.881774261034375
 30
0.0
 10
-35.00288310677448
 20
3.883014767837069
 30
0.0
 10
-35.00277253862814
 20
3.886002354038091
 30
0.0
 10
-35.00270996783002
 20
3.887724841305446
 30
0.0
 10
-35.00253318067263
 20
3.892731912755722
 30
0.0
 10
-35.00241468239366
 20
3.896240824194381
 30
0.0
 10
-35.00203716728153
 20
3.908074383109855
 30
0.0
 10
-35.00179166875236
 20
3.916847007449869
 30
0.0
 10
-35.00100689649189
 20
3.949637828539236
 30
0.0
 10
-35.00066597101305
 20
3.974616802257147
 30
0.0
 10
-35.00049093598351
 20
4.000003333312226
 30
0.0
  0
SPLINE
  5
93B3
330
9393
100
AcDbEntity
  8
0
100
AcDbSpline
210
0.0
220
0.0
230
1.0
 70
     8
 71
     3
 72
    32
 73
    28
 74
     0
 42
0.000000001
 43
0.0000000001
 40
0.0
 40
0.0
 40
0.0
 40
0.0
 40
0.0070452398566754
 40
0.0070452398566754
 40
0.0166405949264209
 40
0.0166405949264209
 40
0.0367140942675494
 40
0.0367140942675494
 40
0.0488284899784161
 40
0.0488284899784161
 40
0.0619943401793948
 40
0.0619943401793948
 40
0.0706188779128614
 40
0.0706188779128614
 40
0.0776906910428312
 40
0.0776906910428312
 40
0.0832065316236751
 40
0.0832065316236751
 40
0.0869816428200887
 40
0.0869816428200887
 40
0.0893395345034622
 40
0.0893395345034622
 40
0.0926179312761566
 40
0.0926179312761566
 40
0.0952548521124435
 40
0.0952548521124435
 40
0.0965320203300858
 40
0.0965320203300858
 40
0.0965320203300858
 40
0.0965320203300858
 10
-37.56202985674331
 20
2.000020061973702
 30
0.0
 10
-37.54510572273686
 20
2.000020928437373
 30
0.0
 10
-37.525552103393
 20
2.00002813429163
 30
0.0
 10
-37.47775545395027
 20
2.000061132070913
 30
0.0
 10
-37.4484196289891
 20
2.00009368968819
 30
0.0
 10
-37.35657224052484
 20
2.000268440250305
 30
0.0
 10
-37.29198494469965
 20
2.000513808508074
 30
0.0
 10
-37.19633422806887
 20
2.000879055388232
 30
0.0
 10
-37.16273081671833
 20
2.000996414974869
 30
0.0
 10
-37.09182112284789
 20
2.001409895075366
 30
0.0
 10
-37.05225815323294
 20
2.001735751882604
 30
0.0
 10
-36.98348581677635
 20
2.002882807502761
 30
0.0
 10
-36.95529088157128
 20
2.003502366157574
 30
0.0
 10
-36.90345404956298
 20
2.005128901278778
 30
0.0
 10
-36.87967447395542
 20
2.006056558875275
 30
0.0
 10
-36.83787606786839
 20
2.008135314654209
 30
0.0
 10
-36.81951337925422
 20
2.009206873080695
 30
0.0
 10
-36.79004459234852
 20
2.011220388802134
 30
0.0
 10
-36.77830835341882
 20
2.01210954925497
 30
0.0
 10
-36.76105715765152
 20
2.013538564141613
 30
0.0
 10
-36.75481154110629
 20
2.014087788305173
 30
0.0
 10
-36.74169544420886
 20
2.015295134087655
 30
0.0
 10
-36.73541374734369
 20
2.015923299455096
 30
0.0
 10
-36.72807739544868
 20
2.016681793866219
 30
0.0
 10
-36.72587093350628
 20
2.016921975300036
 30
0.0
 10
-36.7241358369662
 20
2.017112587256708
 30
0.0
 10
-36.72383606974573
 20
2.017146192065758
 30
0.0
 10
-36.72383606961273
 20
2.017146192080654
 30
0.0
  0
LINE
  5
93B4
330
9393
100
AcDbEntity
  8
0
100
AcDbLine
 10
-35.0
 20
2.000000000000029
 30
0.0
 11
-31.0
 21
2.000000000000021
 31
0.0
  0
LINE
  5
93B5
330
9393
100
AcDbEntity
  8
0
100
AcDbLine
 10
-30.99999999999998
 20
86.00000000000001
 30
0.0
 11
-34.99999999999998
 21
86.00000000000001
 31
0.0
  0
LINE
  5
93B6
330
9393
100
AcDbEntity
  8
0
100
AcDbLine
 10
-35.0
 20
2.000000000000029
 30
0.0
 11
-34.99999999999998
 21
86.00000000000001
 31
0.0
  0
LINE
  5
93B7
330
9393
100
AcDbEntity
  8
0
100
AcDbLine
 10
35.0
 20
2.000000000000029
 30
0.0
 11
31.0
 21
2.000000000000021
 31
0.0
  0
LINE
  5
93B8
330
9393
100
AcDbEntity
  8
0
100
AcDbLine
 10
35.0
 20
2.000000000000029
 30
0.0
 11
34.99999999999998
 21
86.00000000000001
 31
0.0
  0
LINE
  5
93B9
330
9393
100
AcDbEntity
  8
0
100
AcDbLine
 10
30.99999999999998
 20
86.00000000000001
 30
0.0
 11
34.99999999999998
 21
86.00000000000001
 31
0.0
  0
LINE
  5
93BA
330
9393
100
AcDbEntity
  8
0
100
AcDbLine
 10
74.50000000000006
 20
0.0
 30
0.0
 11
37.60606060606067
 21
0.0
 31
0.0
  0
LINE
  5
93BB
330
9393
100
AcDbEntity
  8
0
100
AcDbLine
 10
74.50000000000006
 20
2.000000000000019
 30
0.0
 11
74.50000000000006
 21
0.0
 31
0.0
  0
LINE
  5
93BC
330
9393
100
AcDbEntity
  8
0
100
AcDbLine
 10
37.60606060606067
 20
2.000000000000027
 30
0.0
 11
74.50000000000006
 21
2.000000000000019
 31
0.0
  0
LINE
  5
93BD
330
9393
100
AcDbEntity
  8
0
100
AcDbLine
 10
-74.50000000000006
 20
2.000000000000019
 30
0.0
 11
-37.60606060606067
 21
2.000000000000027
 31
0.0
  0
LINE
  5
93BE
330
9393
100
AcDbEntity
  8
0
100
AcDbLine
 10
-74.50000000000006
 20
0.0
 30
0.0
 11
-74.50000000000006
 21
2.000000000000019
 31
0.0
  0
LINE
  5
93BF
330
9393
100
AcDbEntity
  8
0
100
AcDbLine
 10
-37.60606060606067
 20
0.0
 30
0.0
 11
-74.50000000000006
 21
0.0
 31
0.0
  0
ENDBLK
  5
9395
330
9393
100
AcDbEntity
  8
0
100
AcDbBlockEnd
  0
BLOCK
  5
93C1
330
93C0
100
AcDbEntity
  8
0
100
AcDbBlockBegin
  2
SAE380_66_2-ISO
 70
     0
 10
0.0
 20
0.0
 30
0.0
  3
SAE380_66_2-ISO
  1

  0
LINE
  5
93C3
330
93C0
100
AcDbEntity
  8
0
100
AcDbLine
 10
53.5126564990286
 20
-38.91491103455443
 30
0.0
 11
52.0984429366555
 21
-39.73140761548215
 31
0.0
  0
SPLINE
  5
93C4
330
93C0
100
AcDbEntity
  8
0
100
AcDbSpline
210
0.0
220
0.0
230
1.0
 70
     8
 71
     3
 72
    14
 73
    10
 74
     0
 42
0.000000001
 43
0.0000000001
 40
0.0
 40
0.0
 40
0.0
 40
0.0
 40
0.343514936890645
 40
0.343514936890645
 40
0.343514936890645
 40
0.7569946176848412
 40
0.7569946176848412
 40
0.7569946176848412
 40
1.0
 40
1.0
 40
1.0
 40
1.0
 10
55.3554196257572
 20
-37.88655833319662
 30
0.0
 10
55.1283043391847
 20
-37.96775544893961
 30
0.0
 10
54.83892817467152
 20
-37.98357897897279
 30
0.0
 10
54.55761771338969
 20
-38.01145225600983
 30
0.0
 10
54.21901188510247
 20
-38.04500256912367
 30
0.0
 10
53.89182521795977
 20
-38.09660785056751
 30
0.0
 10
53.69742614931332
 20
-38.32201135514944
 30
0.0
 10
53.58317623041187
 20
-38.45448283404024
 30
0.0
 10
53.51247634192604
 20
-38.62252029016918
 30
0.0
 10
53.51265649867209
 20
-38.91491103299332
 30
0.0
  0
LINE
  5
93C5
330
93C0
100
AcDbEntity
  8
0
100
AcDbLine
 10
54.92687006140169
 20
-37.63913512685489
 30
0.0
 11
55.3554196257572
 21
-37.88655833319665
 31
0.0
  0
ELLIPSE
  5
93C6
330
93C0
100
AcDbEntity
  8
0
100
AcDbEllipse
 10
53.5126564990286
 20
-38.45563170778262
 30
0.0
 11
1.999999999999996
 21
-0.0000000000001192
 31
0.0
210
0.0
220
0.0
230
1.0
 40
0.5773502691896259
 41
0.7853981633976935
 42
2.356194490192599
  0
LINE
  5
93C7
330
93C0
100
AcDbEntity
  8
0
100
AcDbLine
 10
52.0984429366555
 20
-39.73140761548215
 30
0.0
 11
52.0984429366555
 21
-37.6391351268549
 31
0.0
  0
ELLIPSE
  5
93C8
330
93C0
100
AcDbEntity
  8
0
100
AcDbEllipse
 10
-17.90512840081267
 20
-75.24900888583821
 30
0.0
 11
-2.499999999999999
 21
-0.0000000000001486
 31
0.0
210
0.0
220
0.0
230
1.0
 40
0.5773502691896259
 41
3.742856870268582
 42
5.681921090500122
  0
ELLIPSE
  5
93C9
330
93C0
100
AcDbEntity
  8
0
100
AcDbEllipse
 10
-3.762992777081719
 20
-67.08404307656095
 30
0.0
 11
-2.499999999999999
 21
0.0000000000000002
 31
0.0
210
0.0
220
0.0
230
1.0
 40
0.5773502691896259
 41
4.37651970903235
 42
5.681921090500463
  0
LINE
  5
93CA
330
93C0
100
AcDbEntity
  8
0
100
AcDbLine
 10
-8.712740245387585
 20
-95.25317511856753
 30
0.0
 11
-52.55336067895349
 21
-69.94178110980802
 31
0.0
  0
LINE
  5
93CB
330
93C0
100
AcDbEntity
  8
0
100
AcDbLine
 10
5.429395378343357
 20
-11.15402728301174
 30
0.0
 11
5.429395378343366
 21
-31.56644180620489
 31
0.0
  0
LINE
  5
93CC
330
93C0
100
AcDbEntity
  8
0
100
AcDbLine
 10
14.78645223623654
 20
-38.60173426378764
 30
0.0
 11
6.843608940716459
 21
-34.01593154898807
 31
0.0
  0
LINE
  5
93CD
330
93C0
100
AcDbEntity
  8
0
100
AcDbLine
 10
-52.55336067895349
 20
-68.30878794795257
 30
0.0
 11
-8.712740245387582
 21
-93.62018195671204
 31
0.0
  0
ELLIPSE
  5
93CE
330
93C0
100
AcDbEntity
  8
0
100
AcDbEllipse
 10
-3.762992777081719
 20
-65.45104991470551
 30
0.0
 11
-2.5
 21
0.0000000000000001
 31
0.0
210
0.0
220
0.0
230
1.0
 40
0.577350269189626
 41
3.967723016734293
 42
7.876974031558695
  0
ELLIPSE
  5
93CF
330
93C0
100
AcDbEntity
  8
0
100
AcDbEllipse
 10
-17.90512840081267
 20
-73.61601572398277
 30
0.0
 11
-2.499999999999999
 21
0.0000000000001492
 31
0.0
210
0.0
220
0.0
230
1.0
 40
0.5773502691896259
 41
0.0
 42
6.283185307179586
  0
LINE
  5
93D0
330
93C0
100
AcDbEntity
  8
0
100
AcDbLine
 10
5.429395378343357
 20
-11.15402728301174
 30
0.0
 11
5.344153472339248
 21
-11.20324172038945
 31
0.0
  0
SPLINE
  5
93D1
330
93C0
100
AcDbEntity
  8
0
100
AcDbSpline
210
0.0
220
0.0
230
1.0
 70
     8
 71
     3
 72
    11
 73
     7
 74
     0
 42
0.000000001
 43
0.0000000001
 40
-1.0
 40
-1.0
 40
-1.0
 40
-1.0
 40
-0.7994286890685327
 40
-0.7994286890685327
 40
-0.7994286890685327
 40
-0.658115628206538
 40
-0.658115628206538
 40
-0.658115628206538
 40
-0.658115628206538
 10
5.429395378343366
 20
-11.15402728301173
 30
0.0
 10
5.430036613931781
 20
-10.75941519639695
 30
0.0
 10
5.396730295875284
 20
-10.40066690793828
 30
0.0
 10
5.339759176840992
 20
-10.0593301774371
 30
0.0
 10
5.299620020477697
 20
-9.818840458604732
 30
0.0
 10
5.245157254258807
 20
-9.588964303080791
 30
0.0
 10
5.178010705815014
 20
-9.366132126022144
 30
0.0
  0
ELLIPSE
  5
93D2
330
93C0
100
AcDbEntity
  8
0
100
AcDbEllipse
 10
1.186754691224081
 20
-8.245258213456745
 30
0.0
 11
3.999999999999998
 21
-0.0000000000000001
 31
0.0
210
0.0
220
0.0
230
1.0
 40
0.5773502691896258
 41
6.058746940098515
 42
6.283185307179587
  0
ELLIPSE
  5
93D3
330
93C0
100
AcDbEntity
  8
0
100
AcDbEllipse
 10
1.186754691224081
 20
-8.245258213456745
 30
0.0
 11
3.999999999999998
 21
-0.0000000000000001
 31
0.0
210
0.0
220
0.0
230
1.0
 40
0.5773502691896258
 41
5.497787143782132
 42
6.058746940098514
  0
LINE
  5
93D4
330
93C0
100
AcDbEntity
  8
0
100
AcDbLine
 10
4.01518181597027
 20
-9.878251375312196
 30
0.0
 11
4.01518181597027
 21
-10.07267779091645
 31
0.0
  0
LINE
  5
93D5
330
93C0
100
AcDbEntity
  8
0
100
AcDbLine
 10
4.01518181597027
 20
-10.07267779091645
 30
0.0
 11
4.01518181597027
 21
-11.97052386393946
 31
0.0
  0
LINE
  5
93D6
330
93C0
100
AcDbEntity
  8
0
100
AcDbLine
 10
5.344153472339248
 20
-11.20324172038945
 30
0.0
 11
4.01518181597027
 21
-11.97052386393946
 31
0.0
  0
SPLINE
  5
93D7
330
93C0
100
AcDbEntity
  8
0
100
AcDbSpline
210
0.0
220
0.0
230
1.0
 70
     8
 71
     3
 72
    16
 73
    12
 74
     0
 42
0.000000001
 43
0.0000000001
 40
0.0
 40
0.0
 40
0.0
 40
0.0
 40
0.0351313006841502
 40
0.0351313006841502
 40
0.0553444814872375
 40
0.0553444814872375
 40
0.0804040102845301
 40
0.0804040102845301
 40
0.1060339374719539
 40
0.1060339374719539
 40
0.1164378107756895
 40
0.1164378107756895
 40
0.1164378107756895
 40
0.1164378107756895
 10
5.175381400197962
 20
-8.419285323576479
 30
0.0
 10
5.160183511992566
 20
-8.535395392151361
 30
0.0
 10
5.145250059838417
 20
-8.653646690559728
 30
0.0
 10
5.130397671622062
 20
-8.83103342260814
 30
0.0
 10
5.126822755143658
 20
-8.894546349457218
 30
0.0
 10
5.124581317983443
 20
-9.02564363676392
 30
0.0
 10
5.127317019510875
 20
-9.091499989114391
 30
0.0
 10
5.139183201377957
 20
-9.206946027901267
 30
0.0
 10
5.148240534629895
 20
-9.25757074124891
 30
0.0
 10
5.165056590750158
 20
-9.326340776185837
 30
0.0
 10
5.170432617873048
 20
-9.346025256360523
 30
0.0
 10
5.176519901308074
 20
-9.366270346243599
 30
0.0
  0
ELLIPSE
  5
93D8
330
93C0
100
AcDbEntity
  8
0
100
AcDbEllipse
 10
6.843608940716463
 20
-32.38293838713262
 30
0.0
 11
1.000000000000105
 21
-1.732050807568816
 31
0.0
210
0.0
220
0.0
230
1.0
 40
0.5773502691896269
 41
3.926990816987
 42
5.497787143781894
  0
LINE
  5
93D9
330
93C0
100
AcDbEntity
  8
0
100
AcDbLine
 10
6.843608940716459
 20
-34.01593154898807
 30
0.0
 11
-52.55336067895349
 21
-68.30878794795257
 31
0.0
  0
ELLIPSE
  5
93DA
330
93C0
100
AcDbEntity
  8
0
100
AcDbEllipse
 10
-52.55336067895349
 20
-66.67579478609711
 30
0.0
 11
2.000000000000207
 21
-3.464101615137639
 31
0.0
210
0.0
220
0.0
230
1.0
 40
0.5773502691896258
 41
3.926990816986997
 42
5.497787143781893
  0
LINE
  5
93DB
330
93C0
100
AcDbEntity
  8
0
100
AcDbLine
 10
-53.9675742413266
 20
-65.85929820516938
 30
0.0
 11
5.429395378343366
 21
-31.56644180620489
 31
0.0
  0
LINE
  5
93DC
330
93C0
100
AcDbEntity
  8
0
100
AcDbLine
 10
-55.38178780369969
 20
-65.04280162424166
 30
0.0
 11
-53.9675742413266
 21
-65.85929820516938
 31
0.0
  0
LINE
  5
93DD
330
93C0
100
AcDbEntity
  8
0
100
AcDbLine
 10
-52.55336067895349
 20
-69.94178110980802
 30
0.0
 11
-52.55336067895349
 21
-68.30878794795257
 31
0.0
  0
ELLIPSE
  5
93DE
330
93C0
100
AcDbEntity
  8
0
100
AcDbEllipse
 10
-52.55336067895349
 20
-66.67579478609711
 30
0.0
 11
1.000000000000104
 21
-1.732050807568819
 31
0.0
210
0.0
220
0.0
230
1.0
 40
0.5773502691896257
 41
3.926990816986997
 42
5.49778714378189
  0
LINE
  5
93DF
330
93C0
100
AcDbEntity
  8
0
100
AcDbLine
 10
53.51265649902858
 20
-59.32732555774757
 30
0.0
 11
53.5126564990286
 21
-38.91491103455443
 31
0.0
  0
ELLIPSE
  5
93E0
330
93C0
100
AcDbEntity
  8
0
100
AcDbEllipse
 10
50.68422937428239
 20
-57.69433239589211
 30
0.0
 11
1.999999999999992
 21
-3.46410161513776
 31
0.0
210
0.0
220
0.0
230
1.0
 40
0.5773502691896246
 41
0.0000000000000009
 42
0.7853981633974503
  0
LINE
  5
93E1
330
93C0
100
AcDbEntity
  8
0
100
AcDbLine
 10
-8.712740245387585
 20
-93.62018195671204
 30
0.0
 11
-7.298526683014485
 21
-92.80368537578432
 31
0.0
  0
LINE
  5
93E2
330
93C0
100
AcDbEntity
  8
0
100
AcDbLine
 10
53.51265649902858
 20
-59.32732555774757
 30
0.0
 11
-5.884313120641397
 21
-93.62018195671204
 31
0.0
  0
ELLIPSE
  5
93E3
330
93C0
100
AcDbEntity
  8
0
100
AcDbEllipse
 10
-8.712740245387596
 20
-91.9871887948566
 30
0.0
 11
2.0
 21
-3.464101615137757
 31
0.0
210
0.0
220
0.0
230
0.9999999999999998
 40
0.5773502691896259
 41
5.497787143782137
 42
7.068583470577033
  0
LINE
  5
93E4
330
93C0
100
AcDbEntity
  8
0
100
AcDbLine
 10
81.44337435589726
 20
-28.0963313372621
 30
0.0
 11
82.85758791827035
 21
-27.27983475633438
 31
0.0
  0
LINE
  5
93E5
330
93C0
100
AcDbEntity
  8
0
100
AcDbLine
 10
55.3554196257572
 20
-37.88655833319666
 30
0.0
 11
81.44337435589726
 21
-28.0963313372621
 31
0.0
  0
ELLIPSE
  5
93E6
330
93C0
100
AcDbEntity
  8
0
100
AcDbEllipse
 10
69.06900568513264
 20
43.5512436391459
 30
0.0
 11
-3.25
 21
5.62916512459885
 31
0.0
210
0.0
220
0.0
230
1.0
 40
0.577350269189626
 41
0.2193254863005921
 42
2.922267167289199
  0
ELLIPSE
  5
93E7
330
93C0
100
AcDbEntity
  8
0
100
AcDbEllipse
 10
76.84718027818465
 20
43.14299534868204
 30
0.0
 11
1.250000000000128
 21
-2.165063509461022
 31
0.0
210
0.0
220
0.0
230
1.0
 40
0.5773502691896259
 41
3.742856870268576
 42
5.681921090500122
  0
LINE
  5
93E8
330
93C0
100
AcDbEntity
  8
0
100
AcDbLine
 10
56.34108362377478
 20
67.22964448604997
 30
0.0
 11
82.85758791827033
 21
51.9203335936551
 31
0.0
  0
LINE
  5
93E9
330
93C0
100
AcDbEntity
  8
0
100
AcDbLine
 10
82.85758791827035
 20
-27.27983475633438
 30
0.0
 11
82.85758791827033
 21
51.9203335936551
 31
0.0
  0
ELLIPSE
  5
93EA
330
93C0
100
AcDbEntity
  8
0
100
AcDbEllipse
 10
53.5126564990286
 20
65.59665132419451
 30
0.0
 11
3.999999999999999
 21
-0.0000000000002383
 31
0.0
210
0.0
220
0.0
230
1.0
 40
0.5773502691896259
 41
0.7853981633976881
 42
2.356194490192585
  0
ELLIPSE
  5
93EB
330
93C0
100
AcDbEntity
  8
0
100
AcDbEllipse
 10
26.28904542334652
 20
40.89762975113081
 30
0.0
 11
1.249999999999871
 21
2.165063509461172
 31
0.0
210
0.0
220
0.0
230
1.0
 40
0.577350269189626
 41
3.742856870268578
 42
5.681921090500118
  0
ELLIPSE
  5
93EC
330
93C0
100
AcDbEntity
  8
0
100
AcDbEllipse
 10
27.70325898571961
 20
40.08113317020306
 30
0.0
 11
-1.25
 21
-2.165063509461096
 31
0.0
210
0.0
220
0.0
230
1.0
 40
0.577350269189626
 41
0.0
 42
6.283185307179586
  0
LINE
  5
93ED
330
93C0
100
AcDbEntity
  8
0
100
AcDbLine
 10
-7.298526683014499
 20
-72.39127085259119
 30
0.0
 11
20.9857445644474
 21
-29.11695206342173
 31
0.0
  0
LINE
  5
93EE
330
93C0
100
AcDbEntity
  8
0
100
AcDbLine
 10
-5.884313120641406
 20
-73.20776743351892
 30
0.0
 11
-7.298526683014499
 21
-72.39127085259119
 31
0.0
  0
LINE
  5
93EF
330
93C0
100
AcDbEntity
  8
0
100
AcDbLine
 10
22.3999581268205
 20
-29.93344864434946
 30
0.0
 11
-5.884313120641406
 21
-73.20776743351892
 31
0.0
  0
LINE
  5
93F0
330
93C0
100
AcDbEntity
  8
0
100
AcDbLine
 10
22.3999581268205
 20
-29.93344864434946
 30
0.0
 11
20.9857445644474
 21
-29.11695206342173
 31
0.0
  0
LINE
  5
93F1
330
93C0
100
AcDbEntity
  8
0
100
AcDbLine
 10
20.9857445644474
 20
-29.11695206342173
 30
0.0
 11
20.98574456444742
 21
50.08321628656773
 31
0.0
  0
LINE
  5
93F2
330
93C0
100
AcDbEntity
  8
0
100
AcDbLine
 10
22.39995812682051
 20
49.26671970564
 30
0.0
 11
22.3999581268205
 21
-29.93344864434945
 31
0.0
  0
LINE
  5
93F3
330
93C0
100
AcDbEntity
  8
0
100
AcDbLine
 10
20.98574456444742
 20
50.08321628656773
 30
0.0
 11
22.39995812682051
 21
49.26671970564
 31
0.0
  0
LINE
  5
93F4
330
93C0
100
AcDbEntity
  8
0
100
AcDbLine
 10
-5.884313120641406
 20
-73.20776743351892
 30
0.0
 11
-5.884313120641402
 21
-93.62018195671204
 31
0.0
  0
LINE
  5
93F5
330
93C0
100
AcDbEntity
  8
0
100
AcDbLine
 10
52.0984429366555
 20
-37.6391351268549
 30
0.0
 11
52.0984429366555
 21
66.41314790512224
 31
0.0
  0
LINE
  5
93F6
330
93C0
100
AcDbEntity
  8
0
100
AcDbLine
 10
52.0984429366555
 20
66.41314790512224
 30
0.0
 11
22.39995812682051
 21
49.26671970564
 31
0.0
  0
LINE
  5
93F7
330
93C0
100
AcDbEntity
  8
0
100
AcDbLine
 10
20.98574456444742
 20
50.08321628656773
 30
0.0
 11
50.68422937428239
 21
67.22964448604996
 31
0.0
  0
LINE
  5
93F8
330
93C0
100
AcDbEntity
  8
0
100
AcDbLine
 10
-7.298526683014494
 20
-92.80368537578432
 30
0.0
 11
-7.298526683014499
 21
-72.39127085259119
 31
0.0
  0
LINE
  5
93F9
330
93C0
100
AcDbEntity
  8
0
100
AcDbLine
 10
-8.712740245387585
 20
-93.62018195671204
 30
0.0
 11
-8.712740245387585
 21
-95.25317511856753
 31
0.0
  0
LINE
  5
93FA
330
93C0
100
AcDbEntity
  8
0
100
AcDbLine
 10
-7.298526683014494
 20
-92.80368537578432
 30
0.0
 11
-5.884313120641402
 21
-93.62018195671204
 31
0.0
  0
ELLIPSE
  5
93FB
330
93C0
100
AcDbEntity
  8
0
100
AcDbEllipse
 10
-8.712740245387596
 20
-91.9871887948566
 30
0.0
 11
1.0
 21
-1.73205080756888
 31
0.0
210
0.0
220
0.0
230
1.0
 40
0.5773502691896258
 41
5.497787143782143
 42
7.068583470577039
  0
LINE
  5
93FC
330
93C0
100
AcDbEntity
  8
0
100
AcDbLine
 10
54.92687006140169
 20
-37.6391351268549
 30
0.0
 11
54.92687006140169
 21
66.41314790512224
 31
0.0
  0
ELLIPSE
  5
93FD
330
93C0
100
AcDbEntity
  8
0
100
AcDbEllipse
 10
53.5126564990286
 20
65.59665132419451
 30
0.0
 11
-1.999999999999997
 21
-0.00000000000012
 31
0.0
210
0.0
220
0.0
230
1.0
 40
0.5773502691896258
 41
3.926990816987007
 42
5.497787143781904
  0
LINE
  5
93FE
330
93C0
100
AcDbEntity
  8
0
100
AcDbLine
 10
82.85758791827033
 20
51.9203335936551
 30
0.0
 11
81.44337435589722
 21
51.10383701272737
 31
0.0
  0
LINE
  5
93FF
330
93C0
100
AcDbEntity
  8
0
100
AcDbLine
 10
81.44337435589726
 20
-28.0963313372621
 30
0.0
 11
81.44337435589722
 21
51.10383701272737
 31
0.0
  0
LINE
  5
9400
330
93C0
100
AcDbEntity
  8
0
100
AcDbLine
 10
52.0984429366555
 20
66.41314790512224
 30
0.0
 11
50.68422937428239
 21
67.22964448604996
 31
0.0
  0
LINE
  5
9401
330
93C0
100
AcDbEntity
  8
0
100
AcDbLine
 10
54.92687006140169
 20
66.41314790512224
 30
0.0
 11
56.34108362377478
 21
67.22964448604997
 31
0.0
  0
LINE
  5
9402
330
93C0
100
AcDbEntity
  8
0
100
AcDbLine
 10
81.44337435589722
 20
51.10383701272737
 30
0.0
 11
54.92687006140169
 21
66.41314790512224
 31
0.0
  0
ELLIPSE
  5
9403
330
93C0
100
AcDbEntity
  8
0
100
AcDbEllipse
 10
67.65479212275955
 20
42.73474705821818
 30
0.0
 11
-3.25
 21
5.629165124598853
 31
0.0
210
0.0
220
0.0
230
1.0
 40
0.5773502691896258
 41
0.0
 42
6.283185307179586
  0
ELLIPSE
  5
9404
330
93C0
100
AcDbEntity
  8
0
100
AcDbEllipse
 10
75.43296671581157
 20
42.32649876775433
 30
0.0
 11
-1.249999999999999
 21
2.165063509461097
 31
0.0
210
0.0
220
0.0
230
1.0
 40
0.5773502691896259
 41
0.0
 42
6.283185307179586
  0
LINE
  5
9405
330
93C0
100
AcDbEntity
  8
0
100
AcDbLine
 10
-6.712740245387593
 20
-95.45129040999436
 30
0.0
 11
52.6842293742824
 21
-61.15843401102988
 31
0.0
  0
ELLIPSE
  5
9406
330
93C0
100
AcDbEntity
  8
0
100
AcDbEllipse
 10
69.06900568513264
 20
-13.60351702579492
 30
0.0
 11
-3.25
 21
5.629165124598853
 31
0.0
210
0.0
220
0.0
230
1.0
 40
0.5773502691896258
 41
0.2193254863005913
 42
2.922267167289199
  0
ELLIPSE
  5
9407
330
93C0
100
AcDbEntity
  8
0
100
AcDbEllipse
 10
67.65479212275955
 20
-14.42001360672264
 30
0.0
 11
-3.25
 21
5.629165124598853
 31
0.0
210
0.0
220
0.0
230
1.0
 40
0.5773502691896258
 41
0.0
 42
6.283185307179586
  0
ELLIPSE
  5
9408
330
93C0
100
AcDbEntity
  8
0
100
AcDbEllipse
 10
61.2908310920806
 20
-21.36023454460833
 30
0.0
 11
1.250000000000128
 21
-2.165063509461022
 31
0.0
210
0.0
220
0.0
230
1.0
 40
0.5773502691896259
 41
3.742856870268578
 42
5.681921090500121
  0
ELLIPSE
  5
9409
330
93C0
100
AcDbEntity
  8
0
100
AcDbEllipse
 10
61.2908310920806
 20
-5.030302926053797
 30
0.0
 11
1.250000000000128
 21
-2.165063509461022
 31
0.0
210
0.0
220
0.0
230
1.0
 40
0.5773502691896259
 41
3.742856870268578
 42
5.681921090500121
  0
ELLIPSE
  5
940A
330
93C0
100
AcDbEntity
  8
0
100
AcDbEllipse
 10
61.2908310920806
 20
11.29962869250072
 30
0.0
 11
1.250000000000128
 21
-2.165063509461022
 31
0.0
210
0.0
220
0.0
230
1.0
 40
0.5773502691896259
 41
3.742856870268578
 42
5.681921090500121
  0
ELLIPSE
  5
940B
330
93C0
100
AcDbEntity
  8
0
100
AcDbEllipse
 10
61.2908310920806
 20
27.62956031105525
 30
0.0
 11
1.250000000000128
 21
-2.165063509461022
 31
0.0
210
0.0
220
0.0
230
1.0
 40
0.5773502691896259
 41
3.742856870268576
 42
5.681921090500122
  0
ELLIPSE
  5
940C
330
93C0
100
AcDbEntity
  8
0
100
AcDbEllipse
 10
61.2908310920806
 20
43.95949192960976
 30
0.0
 11
1.250000000000128
 21
-2.165063509461022
 31
0.0
210
0.0
220
0.0
230
1.0
 40
0.5773502691896259
 41
3.742856870268576
 42
5.681921090500122
  0
ELLIPSE
  5
940D
330
93C0
100
AcDbEntity
  8
0
100
AcDbEllipse
 10
59.87661752970752
 20
-22.17673112553605
 30
0.0
 11
-1.249999999999999
 21
2.165063509461097
 31
0.0
210
0.0
220
0.0
230
1.0
 40
0.5773502691896259
 41
0.0
 42
6.283185307179586
  0
ELLIPSE
  5
940E
330
93C0
100
AcDbEntity
  8
0
100
AcDbEllipse
 10
59.87661752970752
 20
-5.846799506981525
 30
0.0
 11
-1.249999999999999
 21
2.165063509461097
 31
0.0
210
0.0
220
0.0
230
1.0
 40
0.5773502691896259
 41
0.0
 42
6.283185307179586
  0
ELLIPSE
  5
940F
330
93C0
100
AcDbEntity
  8
0
100
AcDbEllipse
 10
59.87661752970752
 20
10.483132111573
 30
0.0
 11
-1.249999999999999
 21
2.165063509461097
 31
0.0
210
0.0
220
0.0
230
1.0
 40
0.5773502691896259
 41
0.0
 42
6.283185307179586
  0
ELLIPSE
  5
9410
330
93C0
100
AcDbEntity
  8
0
100
AcDbEllipse
 10
59.87661752970752
 20
26.81306373012752
 30
0.0
 11
-1.249999999999999
 21
2.165063509461097
 31
0.0
210
0.0
220
0.0
230
1.0
 40
0.5773502691896259
 41
0.0
 42
6.283185307179586
  0
ELLIPSE
  5
9411
330
93C0
100
AcDbEntity
  8
0
100
AcDbEllipse
 10
59.87661752970752
 20
43.14299534868204
 30
0.0
 11
-1.249999999999999
 21
2.165063509461097
 31
0.0
210
0.0
220
0.0
230
1.0
 40
0.5773502691896259
 41
0.0
 42
6.283185307179586
  0
ELLIPSE
  5
9412
330
93C0
100
AcDbEntity
  8
0
100
AcDbEllipse
 10
61.2908310920806
 20
60.28942354816429
 30
0.0
 11
1.250000000000128
 21
-2.165063509461022
 31
0.0
210
0.0
220
0.0
230
1.0
 40
0.5773502691896259
 41
3.742856870268576
 42
5.681921090500122
  0
ELLIPSE
  5
9413
330
93C0
100
AcDbEntity
  8
0
100
AcDbEllipse
 10
-2.348779214708667
 20
95.39877652805655
 30
0.0
 11
1.249999999999999
 21
-2.165063509461097
 31
0.0
210
0.0
220
0.0
230
1.0
 40
0.5773502691896259
 41
0.0
 42
6.283185307179586
  0
ELLIPSE
  5
9414
330
93C0
100
AcDbEntity
  8
0
100
AcDbEllipse
 10
-0.9345656523355794
 20
96.21527310898427
 30
0.0
 11
1.250000000000128
 21
-2.165063509461022
 31
0.0
210
0.0
220
0.0
230
1.0
 40
0.5773502691896259
 41
3.742856870268578
 42
5.681921090500118
  0
ELLIPSE
  5
9415
330
93C0
100
AcDbEntity
  8
0
100
AcDbEllipse
 10
59.87661752970752
 20
59.47292696723657
 30
0.0
 11
-1.249999999999999
 21
2.165063509461097
 31
0.0
210
0.0
220
0.0
230
1.0
 40
0.5773502691896259
 41
0.0
 42
6.283185307179586
  0
ELLIPSE
  5
9416
330
93C0
100
AcDbEntity
  8
0
100
AcDbEllipse
 10
76.84718027818465
 20
-22.17673112553605
 30
0.0
 11
1.250000000000128
 21
-2.165063509461022
 31
0.0
210
0.0
220
0.0
230
1.0
 40
0.5773502691896259
 41
3.742856870268576
 42
5.681921090500122
  0
ELLIPSE
  5
9417
330
93C0
100
AcDbEntity
  8
0
100
AcDbEllipse
 10
76.84718027818465
 20
-5.846799506981525
 30
0.0
 11
1.250000000000128
 21
-2.165063509461022
 31
0.0
210
0.0
220
0.0
230
1.0
 40
0.5773502691896259
 41
3.742856870268578
 42
5.681921090500121
  0
ELLIPSE
  5
9418
330
93C0
100
AcDbEntity
  8
0
100
AcDbEllipse
 10
76.84718027818465
 20
10.483132111573
 30
0.0
 11
1.250000000000128
 21
-2.165063509461022
 31
0.0
210
0.0
220
0.0
230
1.0
 40
0.5773502691896259
 41
3.742856870268578
 42
5.681921090500121
  0
ELLIPSE
  5
9419
330
93C0
100
AcDbEntity
  8
0
100
AcDbEllipse
 10
76.84718027818465
 20
26.81306373012752
 30
0.0
 11
1.250000000000128
 21
-2.165063509461022
 31
0.0
210
0.0
220
0.0
230
1.0
 40
0.5773502691896259
 41
3.742856870268576
 42
5.681921090500122
  0
ELLIPSE
  5
941A
330
93C0
100
AcDbEntity
  8
0
100
AcDbEllipse
 10
75.43296671581157
 20
-22.99322770646377
 30
0.0
 11
-1.249999999999999
 21
2.165063509461097
 31
0.0
210
0.0
220
0.0
230
1.0
 40
0.5773502691896259
 41
0.0
 42
6.283185307179586
  0
ELLIPSE
  5
941B
330
93C0
100
AcDbEntity
  8
0
100
AcDbEllipse
 10
75.43296671581157
 20
-6.663296087909245
 30
0.0
 11
-1.249999999999999
 21
2.165063509461097
 31
0.0
210
0.0
220
0.0
230
1.0
 40
0.5773502691896259
 41
0.0
 42
6.283185307179586
  0
ELLIPSE
  5
941C
330
93C0
100
AcDbEntity
  8
0
100
AcDbEllipse
 10
75.43296671581157
 20
9.66663553064528
 30
0.0
 11
-1.249999999999999
 21
2.165063509461097
 31
0.0
210
0.0
220
0.0
230
1.0
 40
0.5773502691896259
 41
0.0
 42
6.283185307179586
  0
ELLIPSE
  5
941D
330
93C0
100
AcDbEntity
  8
0
100
AcDbEllipse
 10
75.43296671581157
 20
25.9965671491998
 30
0.0
 11
-1.249999999999999
 21
2.165063509461097
 31
0.0
210
0.0
220
0.0
230
1.0
 40
0.5773502691896259
 41
0.0
 42
6.283185307179586
  0
LINE
  5
941E
330
93C0
100
AcDbEntity
  8
0
100
AcDbLine
 10
-21.11552067774966
 20
28.44870143918367
 30
0.0
 11
-20.408308833759
 21
27.3666827256531
 31
0.0
  0
LINE
  5
941F
330
93C0
100
AcDbEntity
  8
0
100
AcDbLine
 10
-25.68330299386472
 20
-2.172564892806772
 30
0.0
 11
-53.96757424132662
 21
-45.44688368197625
 31
0.0
  0
LINE
  5
9420
330
93C0
100
AcDbEntity
  8
0
100
AcDbLine
 10
-27.09751655623782
 20
-1.356068311879052
 30
0.0
 11
-25.68330299386472
 21
-2.172564892806772
 31
0.0
  0
LINE
  5
9421
330
93C0
100
AcDbEntity
  8
0
100
AcDbLine
 10
-55.38178780369971
 20
-44.63038710104853
 30
0.0
 11
-27.09751655623782
 21
-1.356068311879052
 31
0.0
  0
LINE
  5
9422
330
93C0
100
AcDbEntity
  8
0
100
AcDbLine
 10
-53.96757424132662
 20
-45.44688368197625
 30
0.0
 11
-55.38178780369971
 21
-44.63038710104853
 31
0.0
  0
LINE
  5
9423
330
93C0
100
AcDbEntity
  8
0
100
AcDbLine
 10
-25.68330299386472
 20
77.02760345718267
 30
0.0
 11
-25.68330299386472
 21
-2.172564892806772
 31
0.0
  0
LINE
  5
9424
330
93C0
100
AcDbEntity
  8
0
100
AcDbLine
 10
-27.09751655623781
 20
77.84410003811039
 30
0.0
 11
-25.68330299386472
 21
77.02760345718267
 31
0.0
  0
LINE
  5
9425
330
93C0
100
AcDbEntity
  8
0
100
AcDbLine
 10
-27.09751655623782
 20
-1.356068311879052
 30
0.0
 11
-27.09751655623781
 21
77.84410003811039
 31
0.0
  0
ELLIPSE
  5
9426
330
93C0
100
AcDbEntity
  8
0
100
AcDbEllipse
 10
-10.12695380776069
 20
87.64205900924313
 30
0.0
 11
-3.250000000000004
 21
5.629165124598848
 31
0.0
210
0.0
220
0.0
230
0.9999999999999998
 40
0.5773502691896258
 41
4.712388980384687
 42
7.853981633974483
  0
ELLIPSE
  5
9427
330
93C0
100
AcDbEntity
  8
0
100
AcDbEllipse
 10
-8.712740245387603
 20
88.45855559017085
 30
0.0
 11
-3.25
 21
5.62916512459885
 31
0.0
210
0.0
220
0.0
230
1.0
 40
0.577350269189626
 41
0.2193254863005921
 42
1.570796326794897
  0
ELLIPSE
  5
9428
330
93C0
100
AcDbEntity
  8
0
100
AcDbEllipse
 10
-17.90512840081271
 20
96.21527310898427
 30
0.0
 11
1.249999999999999
 21
-2.165063509461097
 31
0.0
210
0.0
220
0.0
230
1.0
 40
0.5773502691896259
 41
0.0
 42
6.283185307179586
  0
ELLIPSE
  5
9429
330
93C0
100
AcDbEntity
  8
0
100
AcDbEllipse
 10
-16.49091483843962
 20
97.03176968991199
 30
0.0
 11
1.250000000000128
 21
-2.165063509461022
 31
0.0
210
0.0
220
0.0
230
1.0
 40
0.5773502691896259
 41
3.742856870268578
 42
5.681921090500117
  0
LINE
  5
942A
330
93C0
100
AcDbEntity
  8
0
100
AcDbLine
 10
2.600968253597177
 20
94.99052823759262
 30
0.0
 11
2.600968253597182
 21
96.62352139944809
 31
0.0
  0
ELLIPSE
  5
942B
330
93C0
100
AcDbEntity
  8
0
100
AcDbEllipse
 10
1.186754691224081
 20
95.80702481852037
 30
0.0
 11
1.999999999999997
 21
-0.0000000000000003
 31
0.0
210
0.0
220
0.0
230
1.0
 40
0.5773502691896258
 41
5.49778714378214
 42
7.068583470577028
  0
LINE
  5
942C
330
93C0
100
AcDbEntity
  8
0
100
AcDbLine
 10
4.01518181597027
 20
94.17403165666492
 30
0.0
 11
4.01518181597027
 21
-9.878251375312192
 31
0.0
  0
ELLIPSE
  5
942D
330
93C0
100
AcDbEntity
  8
0
100
AcDbEllipse
 10
1.186754691224081
 20
95.80702481852037
 30
0.0
 11
3.999999999999998
 21
-0.0000000000000003
 31
0.0
210
0.0
220
0.0
230
1.0
 40
0.5773502691896259
 41
5.497787143782137
 42
7.068583470577029
  0
LINE
  5
942E
330
93C0
100
AcDbEntity
  8
0
100
AcDbLine
 10
2.600968253597182
 20
96.62352139944809
 30
0.0
 11
4.015181815970274
 21
97.44001798037585
 31
0.0
  0
LINE
  5
942F
330
93C0
100
AcDbEntity
  8
0
100
AcDbLine
 10
2.600968253597173
 20
94.99052823759265
 30
0.0
 11
4.01518181597027
 21
94.17403165666492
 31
0.0
  0
LINE
  5
9430
330
93C0
100
AcDbEntity
  8
0
100
AcDbLine
 10
5.18675469122408
 20
-8.245258213456745
 30
0.0
 11
5.18675469122408
 21
95.80702481852041
 31
0.0
  0
LINE
  5
9431
330
93C0
100
AcDbEntity
  8
0
100
AcDbLine
 10
-23.91553604089838
 20
111.9328322918429
 30
0.0
 11
2.600968253597182
 21
96.62352139944809
 31
0.0
  0
LINE
  5
9432
330
93C0
100
AcDbEntity
  8
0
100
AcDbLine
 10
-23.91553604089839
 20
79.68121734519776
 30
0.0
 11
-23.91553604089838
 21
111.9328322918429
 31
0.0
  0
LINE
  5
9433
330
93C0
100
AcDbEntity
  8
0
100
AcDbLine
 10
-53.9675742413266
 20
-65.85929820516938
 30
0.0
 11
-53.96757424132662
 21
-45.44688368197625
 31
0.0
  0
LINE
  5
9434
330
93C0
100
AcDbEntity
  8
0
100
AcDbLine
 10
-25.68330299386472
 20
77.02760345718267
 30
0.0
 11
4.01518181597027
 21
94.17403165666492
 31
0.0
  0
LINE
  5
9435
330
93C0
100
AcDbEntity
  8
0
100
AcDbLine
 10
-55.38178780369971
 20
-44.63038710104853
 30
0.0
 11
-55.38178780369969
 21
-65.04280162424166
 31
0.0
  0
LINE
  5
9436
330
93C0
100
AcDbEntity
  8
0
100
AcDbLine
 10
2.600968253597173
 20
94.99052823759265
 30
0.0
 11
-27.09751655623781
 21
77.84410003811039
 31
0.0
  0
LINE
  5
9437
330
93C0
100
AcDbEntity
  8
0
100
AcDbLine
 10
4.015181815970274
 20
97.44001798037585
 30
0.0
 11
-22.50132247852528
 21
112.7493288727707
 31
0.0
  0
LINE
  5
9438
330
93C0
100
AcDbEntity
  8
0
100
AcDbLine
 10
-22.50132247852528
 20
112.7493288727707
 30
0.0
 11
-23.91553604089838
 21
111.9328322918429
 31
0.0
  0
ELLIPSE
  5
9439
330
93C0
100
AcDbEntity
  8
0
100
AcDbEllipse
 10
26.28904542334652
 20
-40.75202834164182
 30
0.0
 11
1.249999999999871
 21
2.16506350946117
 31
0.0
210
0.0
220
0.0
230
1.0
 40
0.577350269189626
 41
3.742856870268578
 42
5.681921090500118
  0
ELLIPSE
  5
943A
330
93C0
100
AcDbEntity
  8
0
100
AcDbEllipse
 10
27.70325898571961
 20
-41.56852492256954
 30
0.0
 11
-1.25
 21
-2.165063509461096
 31
0.0
210
0.0
220
0.0
230
1.0
 40
0.577350269189626
 41
0.0
 42
6.283185307179586
  0
ELLIPSE
  5
943B
330
93C0
100
AcDbEntity
  8
0
100
AcDbEllipse
 10
26.28904542334652
 20
-24.4220967230873
 30
0.0
 11
1.249999999999871
 21
2.165063509461172
 31
0.0
210
0.0
220
0.0
230
1.0
 40
0.577350269189626
 41
3.742856870268578
 42
5.681921090500118
  0
ELLIPSE
  5
943C
330
93C0
100
AcDbEntity
  8
0
100
AcDbEllipse
 10
27.70325898571961
 20
-25.23859330401502
 30
0.0
 11
-1.25
 21
-2.165063509461096
 31
0.0
210
0.0
220
0.0
230
1.0
 40
0.577350269189626
 41
0.0
 42
6.283185307179586
  0
ELLIPSE
  5
943D
330
93C0
100
AcDbEntity
  8
0
100
AcDbEllipse
 10
26.28904542334652
 20
-8.092165104532774
 30
0.0
 11
1.249999999999871
 21
2.165063509461172
 31
0.0
210
0.0
220
0.0
230
1.0
 40
0.577350269189626
 41
3.742856870268578
 42
5.681921090500118
  0
ELLIPSE
  5
943E
330
93C0
100
AcDbEntity
  8
0
100
AcDbEllipse
 10
27.70325898571961
 20
-8.908661685460499
 30
0.0
 11
-1.25
 21
-2.165063509461096
 31
0.0
210
0.0
220
0.0
230
1.0
 40
0.577350269189626
 41
0.0
 42
6.283185307179586
  0
ELLIPSE
  5
943F
330
93C0
100
AcDbEntity
  8
0
100
AcDbEllipse
 10
26.28904542334652
 20
8.237766514021753
 30
0.0
 11
1.249999999999871
 21
2.165063509461172
 31
0.0
210
0.0
220
0.0
230
1.0
 40
0.577350269189626
 41
3.742856870268578
 42
5.681921090500118
  0
ELLIPSE
  5
9440
330
93C0
100
AcDbEntity
  8
0
100
AcDbEllipse
 10
27.70325898571961
 20
7.421269933094025
 30
0.0
 11
-1.25
 21
-2.165063509461096
 31
0.0
210
0.0
220
0.0
230
1.0
 40
0.577350269189626
 41
0.0
 42
6.283185307179586
  0
ELLIPSE
  5
9441
330
93C0
100
AcDbEntity
  8
0
100
AcDbEllipse
 10
26.28904542334652
 20
24.56769813257628
 30
0.0
 11
1.249999999999871
 21
2.165063509461172
 31
0.0
210
0.0
220
0.0
230
1.0
 40
0.577350269189626
 41
3.742856870268578
 42
5.681921090500118
  0
ELLIPSE
  5
9442
330
93C0
100
AcDbEntity
  8
0
100
AcDbEllipse
 10
27.70325898571961
 20
23.75120155164855
 30
0.0
 11
-1.25
 21
-2.165063509461096
 31
0.0
210
0.0
220
0.0
230
1.0
 40
0.577350269189626
 41
0.0
 42
6.283185307179586
  0
ELLIPSE
  5
9443
330
93C0
100
AcDbEntity
  8
0
100
AcDbEllipse
 10
-21.7942156973387
 20
-4.826178780821859
 30
0.0
 11
1.24999999999987
 21
2.165063509461172
 31
0.0
210
0.0
220
0.0
230
1.0
 40
0.5773502691896254
 41
3.742856870268578
 42
5.681921090500118
  0
ELLIPSE
  5
9444
330
93C0
100
AcDbEntity
  8
0
100
AcDbEllipse
 10
-20.3800021349656
 20
-5.642675361749587
 30
0.0
 11
1.249999999999999
 21
2.165063509461097
 31
0.0
210
0.0
220
0.0
230
1.0
 40
0.5773502691896257
 41
0.0
 42
6.283185307179586
  0
ELLIPSE
  5
9445
330
93C0
100
AcDbEntity
  8
0
100
AcDbEllipse
 10
-21.7942156973387
 20
11.50375283773266
 30
0.0
 11
1.24999999999987
 21
2.165063509461172
 31
0.0
210
0.0
220
0.0
230
1.0
 40
0.5773502691896254
 41
3.742856870268578
 42
5.681921090500118
  0
ELLIPSE
  5
9446
330
93C0
100
AcDbEntity
  8
0
100
AcDbEllipse
 10
-20.3800021349656
 20
10.68725625680494
 30
0.0
 11
1.249999999999999
 21
2.165063509461097
 31
0.0
210
0.0
220
0.0
230
1.0
 40
0.5773502691896257
 41
0.0
 42
6.283185307179586
  0
ELLIPSE
  5
9447
330
93C0
100
AcDbEntity
  8
0
100
AcDbEllipse
 10
-21.7942156973387
 20
27.83368445628719
 30
0.0
 11
1.24999999999987
 21
2.165063509461172
 31
0.0
210
0.0
220
0.0
230
1.0
 40
0.5773502691896254
 41
3.742856870268578
 42
5.681921090500117
  0
ELLIPSE
  5
9448
330
93C0
100
AcDbEntity
  8
0
100
AcDbEllipse
 10
-20.3800021349656
 20
27.01718787535946
 30
0.0
 11
1.249999999999999
 21
2.165063509461097
 31
0.0
210
0.0
220
0.0
230
1.0
 40
0.5773502691896257
 41
0.0
 42
6.283185307179586
  0
ELLIPSE
  5
9449
330
93C0
100
AcDbEntity
  8
0
100
AcDbEllipse
 10
-21.7942156973387
 20
44.16361607484171
 30
0.0
 11
1.24999999999987
 21
2.165063509461172
 31
0.0
210
0.0
220
0.0
230
1.0
 40
0.5773502691896254
 41
3.742856870268578
 42
5.681921090500117
  0
ELLIPSE
  5
944A
330
93C0
100
AcDbEntity
  8
0
100
AcDbEllipse
 10
-20.3800021349656
 20
43.34711949391399
 30
0.0
 11
1.249999999999999
 21
2.165063509461097
 31
0.0
210
0.0
220
0.0
230
1.0
 40
0.5773502691896257
 41
0.0
 42
6.283185307179586
  0
ELLIPSE
  5
944B
330
93C0
100
AcDbEntity
  8
0
100
AcDbEllipse
 10
-21.7942156973387
 20
60.49354769339624
 30
0.0
 11
1.24999999999987
 21
2.165063509461172
 31
0.0
210
0.0
220
0.0
230
1.0
 40
0.5773502691896254
 41
3.742856870268578
 42
5.681921090500117
  0
ELLIPSE
  5
944C
330
93C0
100
AcDbEntity
  8
0
100
AcDbEllipse
 10
-20.3800021349656
 20
59.67705111246852
 30
0.0
 11
1.249999999999999
 21
2.165063509461097
 31
0.0
210
0.0
220
0.0
230
1.0
 40
0.5773502691896257
 41
0.0
 42
6.283185307179586
  0
ELLIPSE
  5
944D
330
93C0
100
AcDbEntity
  8
0
100
AcDbEllipse
 10
-21.7942156973387
 20
76.82347931195076
 30
0.0
 11
1.24999999999987
 21
2.165063509461172
 31
0.0
210
0.0
220
0.0
230
1.0
 40
0.5773502691896254
 41
3.742856870268578
 42
5.681921090500117
  0
ELLIPSE
  5
944E
330
93C0
100
AcDbEntity
  8
0
100
AcDbEllipse
 10
-20.3800021349656
 20
76.00698273102304
 30
0.0
 11
1.249999999999999
 21
2.165063509461097
 31
0.0
210
0.0
220
0.0
230
1.0
 40
0.5773502691896257
 41
0.0
 42
6.283185307179586
  0
ENDBLK
  5
93C2
330
93C0
100
AcDbEntity
  8
0
100
AcDbBlockEnd
  0
ENDSEC
  0
SECTION
  2
ENTITIES
  0
INSERT
  5
944F
330
1F
100
AcDbEntity
  8
0
100
AcDbBlockReference
  2
SAE380_66_2-Front
 10
0.0
 20
0.0
 30
0.0
  0
INSERT
  5
9450
330
1F
100
AcDbEntity
  8
0
100
AcDbBlockReference
  2
SAE380_66_2-Left
 10
122.2
 20
0.0
 30
0.0
  0
INSERT
  5
9451
330
1F
100
AcDbEntity
  8
0
100
AcDbBlockReference
  2
SAE380_66_2-Right
 10
-122.2
 20
0.0
 30
0.0
  0
INSERT
  5
9452
330
1F
100
AcDbEntity
  8
0
100
AcDbBlockReference
  2
SAE380_66_2-Top
 10
0.0
 20
-49.7
 30
0.0
  0
INSERT
  5
9453
330
1F
100
AcDbEntity
  8
0
100
AcDbBlockReference
  2
SAE380_66_2-Bottom
 10
0.0
 20
204.7
 30
0.0
  0
INSERT
  5
9454
330
1F
100
AcDbEntity
  8
0
100
AcDbBlockReference
  2
SAE380_66_2-ISO
 10
177.5817878036998
 20
-162.4493288727707
 30
0.0
  0
MTEXT
  5
9455
330
1F
100
AcDbEntity
  8
0
100
AcDbMText
 10
0.0
 20
-183.4
 30
0.0
 40
15.275
 41
0.0
 71
     5
 72
     5
  1
SAE380/66/2
 73
     1
 44
1.0
1001
ACAD
1000
MTEXTBEGIN
1070
    73
1070
     1
1070
    44
1040
1.0
1070
    74
1070
     0
1000
MTEXTEND
  0
ENDSEC
  0
SECTION
  2
OBJECTS
  0
DICTIONARY
  5
C
330
0
100
AcDbDictionary
281
     1
  3
ACAD_CIP_PREVIOUS_PRODUCT_INFO
350
216
  3
ACAD_COLOR
350
6B
  3
ACAD_DETAILVIEWSTYLE
350
21B
  3
ACAD_GROUP
350
D
  3
ACAD_LAYOUT
350
1A
  3
ACAD_MATERIAL
350
6A
  3
ACAD_MLEADERSTYLE
350
12D
  3
ACAD_MLINESTYLE
350
17
  3
ACAD_PLOTSETTINGS
350
19
  3
ACAD_PLOTSTYLENAME
350
E
  3
ACAD_SCALELIST
350
10C
  3
ACAD_SECTIONVIEWSTYLE
350
219
  3
ACAD_TABLESTYLE
350
7E
  3
ACAD_VISUALSTYLE
350
EF
  3
ACDB_RECOMPOSE_DATA
350
9556
  3
AcDbVariableDictionary
350
5E
  3
DWGPROPS
350
9557
  0
DICTIONARY
  5
94A6
330
8
100
AcDbDictionary
280
     1
281
     1
  0
DICTIONARY
  5
1FF
330
2
100
AcDbDictionary
280
     1
281
     1
  3
ACAD_LAYERSTATES
360
200
  0
DICTIONARY
  5
13C
330
10
100
AcDbDictionary
280
     1
281
     1
  0
DICTIONARY
  5
1CE
330
1F
100
AcDbDictionary
280
     1
281
     1
  3
ACAD_LAYOUTSELFREF
360
94AE
  0
DICTIONARY
  5
9459
330
D2
100
AcDbDictionary
280
     1
281
     1
  3
ACAD_LAYOUTSELFREF
360
94B7
  0
DICTIONARY
  5
945B
330
D6
100
AcDbDictionary
280
     1
281
     1
  3
ACAD_LAYOUTSELFREF
360
94BA
  0
XRECORD
  5
216
102
{ACAD_REACTORS
330
C
102
}
330
C
100
AcDbXrecord
280
     1
300
ACD
300
2021
300
87393ACD_2021_0F
  0
DICTIONARY
  5
6B
102
{ACAD_REACTORS
330
C
102
}
330
C
100
AcDbDictionary
281
     1
  0
DICTIONARY
  5
21B
102
{ACAD_REACTORS
330
C
102
}
330
C
100
AcDbDictionary
281
     1
  3
Metric50
350
21C
  0
DICTIONARY
  5
D
102
{ACAD_REACTORS
330
C
102
}
330
C
100
AcDbDictionary
281
     1
  0
DICTIONARY
  5
1A
102
{ACAD_REACTORS
330
C
102
}
330
C
100
AcDbDictionary
281
     1
  3
Layout1
350
D3
  3
Layout2
350
D7
  3
Model
350
22
  0
DICTIONARY
  5
6A
102
{ACAD_REACTORS
330
C
102
}
330
C
100
AcDbDictionary
281
     1
  3
ByBlock
350
ED
  3
ByLayer
350
EC
  3
Global
350
EE
  0
DICTIONARY
  5
12D
102
{ACAD_REACTORS
330
C
102
}
330
C
100
AcDbDictionary
281
     1
  3
Standard
350
12E
  0
DICTIONARY
  5
17
102
{ACAD_REACTORS
330
C
102
}
330
C
100
AcDbDictionary
281
     1
  3
Standard
350
18
  0
DICTIONARY
  5
19
102
{ACAD_REACTORS
330
C
102
}
330
C
100
AcDbDictionary
281
     1
  0
ACDBDICTIONARYWDFLT
  5
E
102
{ACAD_REACTORS
330
C
102
}
330
C
100
AcDbDictionary
281
     1
  3
Normal
350
F
100
AcDbDictionaryWithDefault
340
F
  0
DICTIONARY
  5
10C
102
{ACAD_REACTORS
330
C
102
}
330
C
100
AcDbDictionary
281
     1
  3
A0
350
10D
  3
A1
350
1BE
  3
A2
350
1BF
  3
A3
350
1C0
  3
A4
350
1C1
  3
A5
350
1C2
  3
A6
350
1C3
  3
A7
350
1C4
  3
A8
350
1C5
  3
A9
350
1C6
  3
B0
350
1C7
  3
B1
350
1C8
  3
B2
350
1C9
  3
B3
350
1CA
  3
B4
350
1CB
  3
B5
350
1CC
  3
B6
350
1CD
  0
DICTIONARY
  5
219
102
{ACAD_REACTORS
330
C
102
}
330
C
100
AcDbDictionary
281
     1
  3
Metric50
350
21A
  0
DICTIONARY
  5
7E
102
{ACAD_REACTORS
330
C
102
}
330
C
100
AcDbDictionary
281
     1
  3
Standard
350
7F
  0
DICTIONARY
  5
EF
102
{ACAD_REACTORS
330
C
102
}
330
C
100
AcDbDictionary
281
     1
  3
2dWireframe
350
F5
  3
Basic
350
F4
  3
Brighten
350
FB
  3
ColorChange
350
FF
  3
Conceptual
350
F8
  3
Dim
350
FA
  3
EdgeColorOff
350
1E6
  3
Facepattern
350
FE
  3
Flat
350
F0
  3
FlatWithEdges
350
F1
  3
Gouraud
350
F2
  3
GouraudWithEdges
350
F3
  3
Hidden
350
F7
  3
JitterOff
350
1E4
  3
Linepattern
350
FD
  3
OverhangOff
350
1E5
  3
Realistic
350
F9
  3
Shaded
350
1F3
  3
Shaded with edges
350
1F2
  3
Shades of Gray
350
1EF
  3
Sketchy
350
1F0
  3
Thicken
350
FC
  3
Wireframe
350
F6
  3
X-Ray
350
1F1
  0
XRECORD
  5
9556
102
{ACAD_REACTORS
330
C
102
}
330
C
100
AcDbXrecord
280
     1
 90
        1
330
7F
  0
DICTIONARY
  5
5E
102
{ACAD_REACTORS
330
C
102
}
330
C
100
AcDbDictionary
281
     1
  3
CANNOSCALE
350
146
  3
CENTEREXE
350
259
  3
CENTERLTYPEFILE
350
25A
  3
CMLEADERSTYLE
350
145
  3
CTABLESTYLE
350
84
  3
CVIEWDETAILSTYLE
350
227
  3
CVIEWSECTIONSTYLE
350
228
  3
DIMASSOC
350
5F
  3
HIDETEXT
350
63
  3
INDEXCTL
350
9503
  3
LAYEREVAL
350
1AE
  3
LAYERNOTIFY
350
1AF
  3
LIGHTINGUNITS
350
9501
  3
MSLTSCALE
350
9500
  3
PSOLHEIGHT
350
9553
  3
PSOLWIDTH
350
9552
  3
SORTENTS
350
9502
  3
XCLIPFRAME
350
9554
  0
XRECORD
  5
9557
102
{ACAD_REACTORS
330
C
102
}
330
C
100
AcDbXrecord
280
     1
  1
DWGPROPS COOKIE
  2

  3

  4

  6

  7

  8
truole
  9

300
=
301
=
302
=
303
=
304
=
305
=
306
=
307
=
308
=
309
=
 40
0.0077777777777778
 41
2460398.356956019
 42
2460398.374837963
  1

 90
        0
  0
DICTIONARY
  5
200
102
{ACAD_REACTORS
330
1FF
102
}
330
1FF
100
AcDbDictionary
281
     1
  0
XRECORD
  5
94AE
102
{ACAD_REACTORS
330
1CE
102
}
330
1CE
100
AcDbXrecord
280
     1
340
1F
  0
XRECORD
  5
94B7
102
{ACAD_REACTORS
330
9459
102
}
330
9459
100
AcDbXrecord
280
     1
340
D2
  0
XRECORD
  5
94BA
102
{ACAD_REACTORS
330
945B
102
}
330
945B
100
AcDbXrecord
280
     1
340
D6
  0
ACDBDETAILVIEWSTYLE
  5
21C
102
{ACAD_XDICTIONARY
360
9596
102
}
102
{ACAD_REACTORS
330
21B
102
}
330
21B
100
AcDbModelDocViewStyle
 70
     0
  3
Metric50
290
     0
100
AcDbDetailViewStyle
 70
     0
 71
     0
 90
        3
 71
     1
340
11
 40
5.0
340
0
 40
5.0
300

 40
0.0
280
     1
 71
     2
340
16
 90
       25
 71
     3
340
11
 40
5.0
 90
        0
 40
15.0
 90
        1
300
%<\AcVar ViewDetailId>% (%<\AcVar ViewScale \f "%sn">%)
 71
     4
340
16
 90
       25
340
16
 90
       25
280
     0
  0
LAYOUT
  5
D3
102
{ACAD_XDICTIONARY
360
955B
102
}
102
{ACAD_REACTORS
330
1A
102
}
330
1A
100
AcDbPlotSettings
  1

  2
C:\Documents and Settings\basas\Application Data\Autodesk\AutoCAD 2005\R16.1\enu\plotters\Default Windows System Printer.pc3
  4

  6

 40
0.0
 41
0.0
 42
0.0
 43
0.0
 44
0.0
 45
0.0
 46
0.0
 47
0.0
 48
0.0
 49
0.0
140
0.0
141
0.0
142
1.0
143
1.0
 70
   688
 72
     0
 73
     0
 74
     5
  7

 75
    16
147
1.0
148
0.0
149
0.0
100
AcDbLayout
  1
Layout1
 70
     1
 71
     1
 10
0.0
 20
0.0
 11
12.0
 21
9.0
 12
0.0
 22
0.0
 32
0.0
 14
0.0
 24
0.0
 34
0.0
 15
0.0
 25
0.0
 35
0.0
146
0.0
 13
0.0
 23
0.0
 33
0.0
 16
1.0
 26
0.0
 36
0.0
 17
0.0
 27
1.0
 37
0.0
 76
     0
330
D2
  0
LAYOUT
  5
D7
102
{ACAD_XDICTIONARY
360
955D
102
}
102
{ACAD_REACTORS
330
1A
102
}
330
1A
100
AcDbPlotSettings
  1

  2
C:\Documents and Settings\basas\Application Data\Autodesk\AutoCAD 2005\R16.1\enu\plotters\Default Windows System Printer.pc3
  4

  6

 40
0.0
 41
0.0
 42
0.0
 43
0.0
 44
0.0
 45
0.0
 46
0.0
 47
0.0
 48
0.0
 49
0.0
140
0.0
141
0.0
142
1.0
143
1.0
 70
   688
 72
     0
 73
     0
 74
     5
  7

 75
    16
147
1.0
148
0.0
149
0.0
100
AcDbLayout
  1
Layout2
 70
     1
 71
     2
 10
0.0
 20
0.0
 11
12.0
 21
9.0
 12
0.0
 22
0.0
 32
0.0
 14
0.0
 24
0.0
 34
0.0
 15
0.0
 25
0.0
 35
0.0
146
0.0
 13
0.0
 23
0.0
 33
0.0
 16
1.0
 26
0.0
 36
0.0
 17
0.0
 27
1.0
 37
0.0
 76
     0
330
D6
  0
LAYOUT
  5
22
102
{ACAD_XDICTIONARY
360
9558
102
}
102
{ACAD_REACTORS
330
1A
102
}
330
1A
100
AcDbPlotSettings
  1

  2
none_device
  4
ISO_A4_(210.00_x_297.00_MM)
  6

 40
7.5
 41
20.0
 42
7.5
 43
20.0
 44
210.0
 45
297.0
 46
11.54999923706054
 47
-13.65000009536743
 48
0.0
 49
0.0
140
0.0
141
0.0
142
1.0
143
8.704084754739808
 70
 11952
 72
     1
 73
     0
 74
     0
  7

 75
     0
147
0.1148885871608098
148
0.0
149
0.0
100
AcDbLayout
  1
Model
 70
     1
 71
     0
 10
0.0
 20
0.0
 11
12.0
 21
9.0
 12
0.0
 22
0.0
 32
0.0
 14
0.0
 24
0.0
 34
0.0
 15
0.0
 25
0.0
 35
0.0
146
0.0
 13
0.0
 23
0.0
 33
0.0
 16
1.0
 26
0.0
 36
0.0
 17
0.0
 27
1.0
 37
0.0
 76
     0
330
1F
331
EA
1001
ACAD_PSEXT
1000
None
1000
None
1000
Not applicable
1000
The layout will not be plotted unless a new plotter configuration name is selected.
1070
     0
  0
MATERIAL
  5
ED
102
{ACAD_XDICTIONARY
360
1F9
102
}
102
{ACAD_REACTORS
330
6A
102
}
330
6A
100
AcDbMaterial
  1
ByBlock
  0
MATERIAL
  5
EC
102
{ACAD_XDICTIONARY
360
1F7
102
}
102
{ACAD_REACTORS
330
6A
102
}
330
6A
100
AcDbMaterial
  1
ByLayer
  0
MATERIAL
  5
EE
102
{ACAD_XDICTIONARY
360
173
102
}
102
{ACAD_REACTORS
330
6A
102
}
330
6A
100
AcDbMaterial
  1
Global
 43
0.0007999999797903
 43
0.0
 43
0.0
 43
0.0
 43
0.0
 43
0.0007999999797903
 43
0.0
 43
0.0
 43
0.0
 43
0.0
 43
1.0
 43
0.0
 43
0.0
 43
0.0
 43
0.0
 43
1.0
 49
0.0007999999797903
 49
0.0
 49
0.0
 49
0.0
 49
0.0
 49
0.0007999999797903
 49
0.0
 49
0.0
 49
0.0
 49
0.0
 49
1.0
 49
0.0
 49
0.0
 49
0.0
 49
0.0
 49
1.0
142
0.0007999999797903
142
0.0
142
0.0
142
0.0
142
0.0
142
0.0007999999797903
142
0.0
142
0.0
142
0.0
142
0.0
142
1.0
142
0.0
142
0.0
142
0.0
142
0.0
142
1.0
144
0.0007999999797903
144
0.0
144
0.0
144
0.0
144
0.0
144
0.0007999999797903
144
0.0
144
0.0
144
0.0
144
0.0
144
1.0
144
0.0
144
0.0
144
0.0
144
0.0
144
1.0
1001
ACAD
1070
    -1
1070
     3
1070
     0
1000

1071
        0
1070
     0
  0
MLEADERSTYLE
  5
12E
102
{ACAD_XDICTIONARY
360
9582
102
}
102
{ACAD_REACTORS
330
12D
102
}
330
12D
100
AcDbMLeaderStyle
170
     2
171
     1
172
     0
 90
        2
 40
0.0
 41
0.0
173
     1
 91
-1056964608
340
14
 92
       -2
290
     1
 42
2.0
291
     1
 43
8.0
  3
Standard
 44
4.0
300

342
11
174
     1
178
     1
175
     1
176
     0
 93
-1056964608
 45
4.0
292
     0
297
     0
 46
4.0
 94
-1056964608
 47
1.0
 49
1.0
140
1.0
293
     1
141
0.0
294
     1
177
     0
142
1.0
295
     0
296
     0
143
3.75
1001
ACAD_MLEADERVER
1070
     2
  0
MLINESTYLE
  5
18
102
{ACAD_REACTORS
330
17
102
}
330
17
100
AcDbMlineStyle
  2
STANDARD
 70
     0
  3

 62
   256
 51
90.0
 52
90.0
 71
     2
 49
0.5
 62
   256
  6
BYLAYER
 49
-0.5
 62
   256
  6
BYLAYER
  0
ACDBPLACEHOLDER
  5
F
102
{ACAD_REACTORS
330
E
102
}
330
E
  0
SCALE
  5
10D
102
{ACAD_REACTORS
330
10C
102
}
330
10C
100
AcDbScale
 70
     0
300
1:1
140
1.0
141
1.0
290
     1
  0
SCALE
  5
1BE
102
{ACAD_REACTORS
330
10C
102
}
330
10C
100
AcDbScale
 70
     0
300
1:2
140
1.0
141
2.0
290
     0
  0
SCALE
  5
1BF
102
{ACAD_REACTORS
330
10C
102
}
330
10C
100
AcDbScale
 70
     0
300
1:4
140
1.0
141
4.0
290
     0
  0
SCALE
  5
1C0
102
{ACAD_REACTORS
330
10C
102
}
330
10C
100
AcDbScale
 70
     0
300
1:5
140
1.0
141
5.0
290
     0
  0
SCALE
  5
1C1
102
{ACAD_REACTORS
330
10C
102
}
330
10C
100
AcDbScale
 70
     0
300
1:8
140
1.0
141
8.0
290
     0
  0
SCALE
  5
1C2
102
{ACAD_REACTORS
330
10C
102
}
330
10C
100
AcDbScale
 70
     0
300
1:10
140
1.0
141
10.0
290
     0
  0
SCALE
  5
1C3
102
{ACAD_REACTORS
330
10C
102
}
330
10C
100
AcDbScale
 70
     0
300
1:16
140
1.0
141
16.0
290
     0
  0
SCALE
  5
1C4
102
{ACAD_REACTORS
330
10C
102
}
330
10C
100
AcDbScale
 70
     0
300
1:20
140
1.0
141
20.0
290
     0
  0
SCALE
  5
1C5
102
{ACAD_REACTORS
330
10C
102
}
330
10C
100
AcDbScale
 70
     0
300
1:30
140
1.0
141
30.0
290
     0
  0
SCALE
  5
1C6
102
{ACAD_REACTORS
330
10C
102
}
330
10C
100
AcDbScale
 70
     0
300
1:40
140
1.0
141
40.0
290
     0
  0
SCALE
  5
1C7
102
{ACAD_REACTORS
330
10C
102
}
330
10C
100
AcDbScale
 70
     0
300
1:50
140
1.0
141
50.0
290
     0
  0
SCALE
  5
1C8
102
{ACAD_REACTORS
330
10C
102
}
330
10C
100
AcDbScale
 70
     0
300
1:100
140
1.0
141
100.0
290
     0
  0
SCALE
  5
1C9
102
{ACAD_REACTORS
330
10C
102
}
330
10C
100
AcDbScale
 70
     0
300
2:1
140
2.0
141
1.0
290
     0
  0
SCALE
  5
1CA
102
{ACAD_REACTORS
330
10C
102
}
330
10C
100
AcDbScale
 70
     0
300
4:1
140
4.0
141
1.0
290
     0
  0
SCALE
  5
1CB
102
{ACAD_REACTORS
330
10C
102
}
330
10C
100
AcDbScale
 70
     0
300
8:1
140
8.0
141
1.0
290
     0
  0
SCALE
  5
1CC
102
{ACAD_REACTORS
330
10C
102
}
330
10C
100
AcDbScale
 70
     0
300
10:1
140
10.0
141
1.0
290
     0
  0
SCALE
  5
1CD
102
{ACAD_REACTORS
330
10C
102
}
330
10C
100
AcDbScale
 70
     0
300
100:1
140
100.0
141
1.0
290
     0
  0
ACDBSECTIONVIEWSTYLE
  5
21A
102
{ACAD_XDICTIONARY
360
9594
102
}
102
{ACAD_REACTORS
330
219
102
}
330
219
100
AcDbModelDocViewStyle
 70
     0
  3
Metric50
290
     0
100
AcDbSectionViewStyle
 70
     0
 71
     0
 90
      102
 71
     1
340
11
 40
5.0
340
0
340
0
 40
5.0
300
I, O, Q, S, X, Z
 40
10.0
 90
        0
 40
2.5
 90
        0
 71
     2
340
16
 90
       25
340
16
 90
       50
 40
5.0
 40
2.5
 40
5.0
 71
     3
340
11
 40
5.0
 90
        0
 40
15.0
 90
        1
300
%<\AcVar ViewSectionStartId>%-%<\AcVar ViewSectionEndId>% (%<\AcVar ViewScale \f "%sn">%)
 71
     4
300
ANSI31
 40
1.0
 90
        0
290
     0
290
     0
 90
        6
 40
0.0
 40
1.570796326794896
 40
0.2617993877991494
 40
1.308996938995747
 40
-0.2617993877991494
 40
1.832595714594046
  0
TABLESTYLE
  5
7F
102
{ACAD_XDICTIONARY
360
162
102
}
102
{ACAD_REACTORS
330
7E
102
}
330
7E
100
AcDbTableStyle
  3
Standard
 70
     0
 71
     0
 40
1.5
 41
1.5
280
     0
281
     0
  7
Standard
140
4.5
170
     2
 62
     0
 63
     7
283
     0
274
    -2
284
     1
 64
     0
275
    -2
285
     1
 65
     0
276
    -2
286
     1
 66
     0
277
    -2
287
     1
 67
     0
278
    -2
288
     1
 68
     0
279
    -2
289
     1
 69
     0
  7
Standard
140
6.0
170
     5
 62
     0
 63
     7
283
     0
274
    -2
284
     1
 64
     0
275
    -2
285
     1
 65
     0
276
    -2
286
     1
 66
     0
277
    -2
287
     1
 67
     0
278
    -2
288
     1
 68
     0
279
    -2
289
     1
 69
     0
  7
Standard
140
4.5
170
     5
 62
     0
 63
     7
283
     0
274
    -2
284
     1
 64
     0
275
    -2
285
     1
 65
     0
276
    -2
286
     1
 66
     0
277
    -2
287
     1
 67
     0
278
    -2
288
     1
 68
     0
279
    -2
289
     1
 69
     0
  0
VISUALSTYLE
  5
F5
102
{ACAD_XDICTIONARY
360
956C
102
}
102
{ACAD_REACTORS
330
EF
102
}
330
EF
100
AcDbVisualStyle
  2
2dWireframe
 70
     4
 71
     0
 72
     2
 73
     1
 90
        0
 40
-0.6
 41
-30.0
 62
     5
 63
     7
 74
     1
 91
        4
 64
     7
 65
   257
 75
     1
175
     1
 42
1.0
 92
        0
 66
   257
 43
1.0
 76
     1
 77
     6
 78
     2
 67
     7
 79
     5
170
     0
171
     0
290
     0
174
     0
 93
        1
 44
0.0
173
     0
291
     0
 45
0.0
1001
ACAD
1000
AcDbSavedByObjectVersion
1070
     0
  0
VISUALSTYLE
  5
F4
102
{ACAD_XDICTIONARY
360
956A
102
}
102
{ACAD_REACTORS
330
EF
102
}
330
EF
100
AcDbVisualStyle
  2
Basic
 70
     7
 71
     1
 72
     0
 73
     1
 90
        0
 40
-0.6
 41
-30.0
 62
     5
 63
     7
 74
     0
 91
        4
 64
     7
 65
   257
 75
     1
175
     1
 42
1.0
 92
        8
 66
     7
 43
1.0
 76
     1
 77
     6
 78
     2
 67
     7
 79
     5
170
     0
171
     0
290
     0
174
     0
 93
        1
 44
0.0
173
     0
291
     1
 45
0.0
1001
ACAD
1000
AcDbSavedByObjectVersion
1070
     0
  0
VISUALSTYLE
  5
FB
102
{ACAD_XDICTIONARY
360
9578
102
}
102
{ACAD_REACTORS
330
EF
102
}
330
EF
100
AcDbVisualStyle
  2
Brighten
 70
    12
 71
     2
 72
     2
 73
     1
 90
        0
 40
-0.6
 41
-30.0
 62
     5
 63
     7
 74
     1
 91
        4
 64
     7
 65
   257
 75
     1
175
     1
 42
1.0
 92
        8
 66
     7
 43
1.0
 76
     1
 77
     6
 78
     2
 67
     7
 79
     5
170
     0
171
     0
290
     0
174
     0
 93
        1
 44
50.0
173
     0
291
     1
 45
0.0
1001
ACAD
1000
AcDbSavedByObjectVersion
1070
     0
  0
VISUALSTYLE
  5
FF
102
{ACAD_XDICTIONARY
360
9580
102
}
102
{ACAD_REACTORS
330
EF
102
}
330
EF
100
AcDbVisualStyle
  2
ColorChange
 70
    16
 71
     2
 72
     2
 73
     3
 90
        0
 40
-0.6
 41
-30.0
 62
     5
 63
     8
 74
     1
 91
        4
 64
     7
 65
   257
 75
     1
175
     1
 42
1.0
 92
        8
 66
     8
 43
1.0
 76
     1
 77
     6
 78
     2
 67
     7
 79
     5
170
     0
171
     0
290
     0
174
     0
 93
        1
 44
0.0
173
     0
291
     1
 45
0.0
1001
ACAD
1000
AcDbSavedByObjectVersion
1070
     0
  0
VISUALSTYLE
  5
F8
102
{ACAD_XDICTIONARY
360
9572
102
}
102
{ACAD_REACTORS
330
EF
102
}
330
EF
100
AcDbVisualStyle
  2
Conceptual
 70
     9
 71
     3
 72
     2
 73
     1
 90
        0
 40
-0.6
 41
-30.0
 62
     5
 63
     7
 74
     2
 91
        2
 64
     7
 65
   257
 75
     1
175
     1
 42
40.0
 92
        8
 66
     7
 43
1.0
 76
     1
 77
     6
 78
     2
 67
     7
 79
     3
170
     0
171
     0
290
     0
174
     0
 93
        1
 44
0.0
173
     0
291
     0
 45
0.0
1001
ACAD
1000
AcDbSavedByObjectVersion
1070
     0
  0
VISUALSTYLE
  5
FA
102
{ACAD_XDICTIONARY
360
9576
102
}
102
{ACAD_REACTORS
330
EF
102
}
330
EF
100
AcDbVisualStyle
  2
Dim
 70
    11
 71
     2
 72
     2
 73
     1
 90
        0
 40
-0.6
 41
-30.0
 62
     5
 63
     7
 74
     1
 91
        4
 64
     7
 65
   257
 75
     1
175
     1
 42
1.0
 92
        8
 66
     7
 43
1.0
 76
     1
 77
     6
 78
     2
 67
     7
 79
     5
170
     0
171
     0
290
     0
174
     0
 93
        1
 44
-50.0
173
     0
291
     1
 45
0.0
1001
ACAD
1000
AcDbSavedByObjectVersion
1070
     0
  0
VISUALSTYLE
  5
1E6
102
{ACAD_XDICTIONARY
360
9588
102
}
102
{ACAD_REACTORS
330
EF
102
}
330
EF
100
AcDbVisualStyle
  2
EdgeColorOff
 70
    22
 71
     2
 72
     2
 73
     0
 90
        0
 40
-0.6
 41
-30.0
 62
     5
 63
     7
 74
     1
 91
        4
 64
     7
 65
   257
 75
     1
175
     1
 42
1.0
 92
        8
 66
     7
 43
1.0
 76
     1
 77
     6
 78
     2
 67
     7
 79
     5
170
     0
171
     0
290
     0
174
     0
 93
        1
 44
0.0
173
     0
291
     1
 45
0.0
1001
ACAD
1000
AcDbSavedByObjectVersion
1070
     0
  0
VISUALSTYLE
  5
FE
102
{ACAD_XDICTIONARY
360
957E
102
}
102
{ACAD_REACTORS
330
EF
102
}
330
EF
100
AcDbVisualStyle
  2
Facepattern
 70
    15
 71
     2
 72
     2
 73
     1
 90
        0
 40
-0.6
 41
-30.0
 62
     5
 63
     7
 74
     1
 91
        4
 64
     7
 65
   257
 75
     1
175
     1
 42
1.0
 92
        8
 66
     7
 43
1.0
 76
     1
 77
     6
 78
     2
 67
     7
 79
     5
170
     0
171
     0
290
     0
174
     0
 93
        1
 44
0.0
173
     0
291
     1
 45
0.0
1001
ACAD
1000
AcDbSavedByObjectVersion
1070
     0
  0
VISUALSTYLE
  5
F0
102
{ACAD_XDICTIONARY
360
9562
102
}
102
{ACAD_REACTORS
330
EF
102
}
330
EF
100
AcDbVisualStyle
  2
Flat
 70
     0
 71
     2
 72
     1
 73
     1
 90
        2
 40
-0.6
 41
30.0
 62
     5
 63
     7
 74
     0
 91
        0
 64
     7
 65
   257
 75
     1
175
     1
 42
1.0
 92
        8
 66
     7
 43
1.0
 76
     1
 77
     6
 78
     2
 67
     7
 79
     5
170
     0
171
     0
290
     0
174
     0
 93
       13
 44
0.0
173
     0
291
     1
 45
0.0
1001
ACAD
1000
AcDbSavedByObjectVersion
1070
     0
  0
VISUALSTYLE
  5
F1
102
{ACAD_XDICTIONARY
360
9564
102
}
102
{ACAD_REACTORS
330
EF
102
}
330
EF
100
AcDbVisualStyle
  2
FlatWithEdges
 70
     1
 71
     2
 72
     1
 73
     1
 90
        2
 40
-0.6
 41
30.0
 62
     5
 63
     7
 74
     1
 91
        0
 64
     7
 65
   257
 75
     1
175
     1
 42
1.0
 92
        0
 66
   257
 43
1.0
 76
     1
 77
     6
 78
     2
 67
     7
 79
     5
170
     0
171
     0
290
     0
174
     0
 93
       13
 44
0.0
173
     0
291
     1
 45
0.0
1001
ACAD
1000
AcDbSavedByObjectVersion
1070
     0
  0
VISUALSTYLE
  5
F2
102
{ACAD_XDICTIONARY
360
9566
102
}
102
{ACAD_REACTORS
330
EF
102
}
330
EF
100
AcDbVisualStyle
  2
Gouraud
 70
     2
 71
     2
 72
     2
 73
     1
 90
        2
 40
-0.6
 41
30.0
 62
     5
 63
     7
 74
     0
 91
        0
 64
     7
 65
   257
 75
     1
175
     1
 42
1.0
 92
        0
 66
     7
 43
1.0
 76
     1
 77
     6
 78
     2
 67
     7
 79
     5
170
     0
171
     0
290
     0
174
     0
 93
       13
 44
0.0
173
     0
291
     1
 45
0.0
1001
ACAD
1000
AcDbSavedByObjectVersion
1070
     0
  0
VISUALSTYLE
  5
F3
102
{ACAD_XDICTIONARY
360
9568
102
}
102
{ACAD_REACTORS
330
EF
102
}
330
EF
100
AcDbVisualStyle
  2
GouraudWithEdges
 70
     3
 71
     2
 72
     2
 73
     1
 90
        2
 40
-0.6
 41
30.0
 62
     5
 63
     7
 74
     1
 91
        0
 64
     7
 65
   257
 75
     1
175
     1
 42
1.0
 92
        0
 66
   257
 43
1.0
 76
     1
 77
     6
 78
     2
 67
     7
 79
     5
170
     0
171
     0
290
     0
174
     0
 93
       13
 44
0.0
173
     0
291
     1
 45
0.0
1001
ACAD
1000
AcDbSavedByObjectVersion
1070
     0
  0
VISUALSTYLE
  5
F7
102
{ACAD_XDICTIONARY
360
9570
102
}
102
{ACAD_REACTORS
330
EF
102
}
330
EF
100
AcDbVisualStyle
  2
Hidden
 70
     6
 71
     1
 72
     2
 73
     2
 90
        0
 40
-0.6
 41
-30.0
 62
     5
 63
     7
 74
     2
 91
        2
 64
     7
 65
   257
 75
     2
175
     1
 42
40.0
 92
        0
 66
   257
 43
1.0
 76
     1
 77
     6
 78
     2
 67
     7
 79
     3
170
     0
171
     0
290
     0
174
     0
 93
        1
 44
0.0
173
     0
291
     0
 45
0.0
1001
ACAD
1000
AcDbSavedByObjectVersion
1070
     0
  0
VISUALSTYLE
  5
1E4
102
{ACAD_XDICTIONARY
360
9584
102
}
102
{ACAD_REACTORS
330
EF
102
}
330
EF
100
AcDbVisualStyle
  2
JitterOff
 70
    20
 71
     2
 72
     2
 73
     0
 90
        0
 40
-0.6
 41
-30.0
 62
     5
 63
     7
 74
     1
 91
        4
 64
     7
 65
   257
 75
     1
175
     1
 42
1.0
 92
       10
 66
     7
 43
1.0
 76
     1
 77
     6
 78
     2
 67
     7
 79
     5
170
     0
171
     0
290
     0
174
     0
 93
        1
 44
0.0
173
     0
291
     1
 45
0.0
1001
ACAD
1000
AcDbSavedByObjectVersion
1070
     0
  0
VISUALSTYLE
  5
FD
102
{ACAD_XDICTIONARY
360
957C
102
}
102
{ACAD_REACTORS
330
EF
102
}
330
EF
100
AcDbVisualStyle
  2
Linepattern
 70
    14
 71
     2
 72
     2
 73
     1
 90
        0
 40
-0.6
 41
-30.0
 62
     5
 63
     7
 74
     1
 91
        4
 64
     7
 65
   257
 75
     7
175
     7
 42
1.0
 92
        8
 66
     7
 43
1.0
 76
     1
 77
     6
 78
     2
 67
     7
 79
     5
170
     0
171
     0
290
     0
174
     0
 93
        1
 44
0.0
173
     0
291
     1
 45
0.0
1001
ACAD
1000
AcDbSavedByObjectVersion
1070
     0
  0
VISUALSTYLE
  5
1E5
102
{ACAD_XDICTIONARY
360
9586
102
}
102
{ACAD_REACTORS
330
EF
102
}
330
EF
100
AcDbVisualStyle
  2
OverhangOff
 70
    21
 71
     2
 72
     2
 73
     0
 90
        0
 40
-0.6
 41
-30.0
 62
     5
 63
     7
 74
     1
 91
        4
 64
     7
 65
   257
 75
     1
175
     1
 42
1.0
 92
        9
 66
     7
 43
1.0
 76
     1
 77
     6
 78
     2
 67
     7
 79
     5
170
     0
171
     0
290
     0
174
     0
 93
        1
 44
0.0
173
     0
291
     1
 45
0.0
1001
ACAD
1000
AcDbSavedByObjectVersion
1070
     0
  0
VISUALSTYLE
  5
F9
102
{ACAD_XDICTIONARY
360
9574
102
}
102
{ACAD_REACTORS
330
EF
102
}
330
EF
100
AcDbVisualStyle
  2
Realistic
 70
     8
 71
     2
 72
     2
 73
     0
 90
        2
 40
-0.6
 41
30.0
 62
     5
 63
     7
 74
     0
 91
        0
 64
     7
 65
   257
 75
     1
175
     1
 42
1.0
 92
        8
 66
   257
 43
1.0
 76
     1
 77
     6
 78
     2
 67
     7
 79
     3
170
     0
171
     0
290
     0
174
     0
 93
       13
 44
0.0
173
     0
291
     0
 45
0.0
1001
ACAD
1000
AcDbSavedByObjectVersion
1070
     0
  0
VISUALSTYLE
  5
1F3
102
{ACAD_XDICTIONARY
360
9592
102
}
102
{ACAD_REACTORS
330
EF
102
}
330
EF
100
AcDbVisualStyle
  2
Shaded
 70
    27
 71
     2
 72
     2
 73
     1
 90
        2
 40
-0.6
 41
30.0
 62
     5
 63
     7
 74
     0
 91
        4
 64
     7
 65
   257
 75
     1
175
     1
 42
1.0
 92
        8
 66
   257
 43
1.0
 76
     1
 77
     6
 78
     2
 67
     8
 79
     3
170
     0
171
     0
290
     0
174
     0
 93
        5
 44
0.0
173
     0
291
     0
 45
0.0
1001
ACAD
1000
AcDbSavedByObjectVersion
1070
     0
  0
VISUALSTYLE
  5
1F2
102
{ACAD_XDICTIONARY
360
9590
102
}
102
{ACAD_REACTORS
330
EF
102
}
330
EF
100
AcDbVisualStyle
  2
Shaded with edges
 70
    26
 71
     2
 72
     2
 73
     1
 90
        2
 40
-0.6
 41
30.0
 62
     5
 63
     7
 74
     1
 91
        2
 64
     7
 65
   257
 75
     2
175
     1
 42
1.0
 92
        8
 66
   257
 43
1.0
 76
     1
 77
     6
 78
     2
 67
     7
 79
     3
170
     0
171
     0
290
     0
174
     0
 93
        5
 44
0.0
173
     0
291
     0
 45
0.0
1001
ACAD
1000
AcDbSavedByObjectVersion
1070
     0
  0
VISUALSTYLE
  5
1EF
102
{ACAD_XDICTIONARY
360
958A
102
}
102
{ACAD_REACTORS
330
EF
102
}
330
EF
100
AcDbVisualStyle
  2
Shades of Gray
 70
    23
 71
     2
 72
     2
 73
     3
 90
        0
 40
-0.6
 41
-30.0
 62
     5
 63
     7
 74
     2
 91
        2
 64
     7
 65
     7
 75
     1
175
     1
 42
40.0
 92
        8
 66
     7
 43
1.0
 76
     1
 77
     6
 78
     2
 67
     7
 79
     3
170
     0
171
     0
290
     0
174
     0
 93
        1
 44
0.0
173
     0
291
     0
 45
0.0
1001
ACAD
1000
AcDbSavedByObjectVersion
1070
     0
  0
VISUALSTYLE
  5
1F0
102
{ACAD_XDICTIONARY
360
958C
102
}
102
{ACAD_REACTORS
330
EF
102
}
330
EF
100
AcDbVisualStyle
  2
Sketchy
 70
    24
 71
     1
 72
     2
 73
     2
 90
        0
 40
-0.6
 41
-30.0
 62
     5
 63
     7
 74
     2
 91
        2
 64
     7
 65
     7
 75
     1
175
     1
 42
40.0
 92
       11
 66
     7
 43
1.0
 76
     1
 77
     6
 78
     2
 67
     7
 79
     6
170
     0
171
     0
290
     0
174
     0
 93
        1
 44
0.0
173
     0
291
     0
 45
0.0
1001
ACAD
1000
AcDbSavedByObjectVersion
1070
     0
  0
VISUALSTYLE
  5
FC
102
{ACAD_XDICTIONARY
360
957A
102
}
102
{ACAD_REACTORS
330
EF
102
}
330
EF
100
AcDbVisualStyle
  2
Thicken
 70
    13
 71
     2
 72
     2
 73
     1
 90
        0
 40
-0.6
 41
-30.0
 62
     5
 63
     7
 74
     1
 91
        4
 64
     7
 65
   257
 75
     1
175
     1
 42
1.0
 92
       12
 66
     7
 43
1.0
 76
     1
 77
     6
 78
     2
 67
     7
 79
     5
170
     0
171
     0
290
     0
174
     0
 93
        1
 44
0.0
173
     0
291
     1
 45
0.0
1001
ACAD
1000
AcDbSavedByObjectVersion
1070
     0
  0
VISUALSTYLE
  5
F6
102
{ACAD_XDICTIONARY
360
956E
102
}
102
{ACAD_REACTORS
330
EF
102
}
330
EF
100
AcDbVisualStyle
  2
Wireframe
 70
     5
 71
     0
 72
     2
 73
     0
 90
        0
 40
-0.6
 41
-30.0
 62
     5
 63
     7
 74
     1
 91
        4
 64
     7
 65
   257
 75
     1
175
     1
 42
1.0
 92
        0
 66
   257
 43
1.0
 76
     1
 77
     6
 78
     2
 67
     7
 79
     3
170
     0
171
     0
290
     0
174
     0
 93
        1
 44
0.0
173
     0
291
     0
 45
0.0
1001
ACAD
1000
AcDbSavedByObjectVersion
1070
     0
  0
VISUALSTYLE
  5
1F1
102
{ACAD_XDICTIONARY
360
958E
102
}
102
{ACAD_REACTORS
330
EF
102
}
330
EF
100
AcDbVisualStyle
  2
X-Ray
 70
    25
 71
     2
 72
     2
 73
     1
 90
        1
 40
0.5
 41
-30.0
 62
     5
 63
     7
 74
     1
 91
        0
 64
     7
 65
   257
 75
     1
175
     1
 42
1.0
 92
        8
 66
     7
 43
1.0
 76
     1
 77
     6
 78
     2
 67
     7
 79
     3
170
     0
171
     0
290
     0
174
     0
 93
       13
 44
0.0
173
     0
291
     0
 45
0.0
1001
ACAD
1000
AcDbSavedByObjectVersion
1070
     0
  0
DICTIONARYVAR
  5
146
102
{ACAD_REACTORS
330
5E
102
}
330
5E
100
DictionaryVariables
280
     0
  1
1:1
  0
DICTIONARYVAR
  5
259
102
{ACAD_REACTORS
330
5E
102
}
330
5E
100
DictionaryVariables
280
     0
  1
3.500000
  0
DICTIONARYVAR
  5
25A
102
{ACAD_REACTORS
330
5E
102
}
330
5E
100
DictionaryVariables
280
     0
  1
acadiso.lin
  0
DICTIONARYVAR
  5
145
102
{ACAD_REACTORS
330
5E
102
}
330
5E
100
DictionaryVariables
280
     0
  1
STANDARD
  0
DICTIONARYVAR
  5
84
102
{ACAD_REACTORS
330
5E
102
}
330
5E
100
DictionaryVariables
280
     0
  1
STANDARD
  0
DICTIONARYVAR
  5
227
102
{ACAD_REACTORS
330
5E
102
}
330
5E
100
DictionaryVariables
280
     0
  1
Metric50
  0
DICTIONARYVAR
  5
228
102
{ACAD_REACTORS
330
5E
102
}
330
5E
100
DictionaryVariables
280
     0
  1
Metric50
  0
DICTIONARYVAR
  5
5F
102
{ACAD_REACTORS
330
5E
102
}
330
5E
100
DictionaryVariables
280
     0
  1
2
  0
DICTIONARYVAR
  5
63
102
{ACAD_REACTORS
330
5E
102
}
330
5E
100
DictionaryVariables
280
     0
  1
1
  0
DICTIONARYVAR
  5
9503
102
{ACAD_REACTORS
330
5E
102
}
330
5E
100
DictionaryVariables
280
     0
  1
0
  0
DICTIONARYVAR
  5
1AE
102
{ACAD_REACTORS
330
5E
102
}
330
5E
100
DictionaryVariables
280
     0
  1
0
  0
DICTIONARYVAR
  5
1AF
102
{ACAD_REACTORS
330
5E
102
}
330
5E
100
DictionaryVariables
280
     0
  1
0
  0
DICTIONARYVAR
  5
9501
102
{ACAD_REACTORS
330
5E
102
}
330
5E
100
DictionaryVariables
280
     0
  1
2
  0
DICTIONARYVAR
  5
9500
102
{ACAD_REACTORS
330
5E
102
}
330
5E
100
DictionaryVariables
280
     0
  1
1
  0
DICTIONARYVAR
  5
9553
102
{ACAD_REACTORS
330
5E
102
}
330
5E
100
DictionaryVariables
280
     0
  1
80.000000
  0
DICTIONARYVAR
  5
9552
102
{ACAD_REACTORS
330
5E
102
}
330
5E
100
DictionaryVariables
280
     0
  1
5.000000
  0
DICTIONARYVAR
  5
9502
102
{ACAD_REACTORS
330
5E
102
}
330
5E
100
DictionaryVariables
280
     0
  1
127
  0
DICTIONARYVAR
  5
9554
102
{ACAD_REACTORS
330
5E
102
}
330
5E
100
DictionaryVariables
280
     0
  1
2
  0
DICTIONARY
  5
9596
330
21C
100
AcDbDictionary
280
     1
281
     1
  3
ACAD_XREC_ROUNDTRIP
360
9597
  0
DICTIONARY
  5
955B
330
D3
100
AcDbDictionary
280
     1
281
     1
  3
ACAD_XREC_ROUNDTRIP
360
955C
  0
DICTIONARY
  5
955D
330
D7
100
AcDbDictionary
280
     1
281
     1
  3
ACAD_XREC_ROUNDTRIP
360
955E
  0
DICTIONARY
  5
9558
330
22
100
AcDbDictionary
280
     1
281
     1
  3
ACAD_XREC_ROUNDTRIP
360
9559
  0
DICTIONARY
  5
1F9
330
ED
100
AcDbDictionary
280
     1
281
     1
  3
ACAD_XREC_ROUNDTRIP
360
9560
  3
FBXASSET
360
1FA
  0
DICTIONARY
  5
1F7
330
EC
100
AcDbDictionary
280
     1
281
     1
  3
ACAD_XREC_ROUNDTRIP
360
955F
  3
FBXASSET
360
1F8
  0
DICTIONARY
  5
173
330
EE
100
AcDbDictionary
280
     1
281
     1
  3
ACAD_XREC_ROUNDTRIP
360
9561
  3
BUMPTILE
360
175
  3
DIFFUSETILE
360
174
  3
FBXASSET
360
1FB
  3
OPACITYTILE
360
176
  3
REFLECTIONTILE
360
177
  0
DICTIONARY
  5
9582
330
12E
100
AcDbDictionary
280
     1
281
     1
  3
ACAD_XREC_ROUNDTRIP
360
9583
  0
DICTIONARY
  5
9594
330
21A
100
AcDbDictionary
280
     1
281
     1
  3
ACAD_XREC_ROUNDTRIP
360
9595
  0
DICTIONARY
  5
162
330
7F
100
AcDbDictionary
280
     1
281
     1
  3
ACAD_ROUNDTRIP_2008_TABLESTYLE_CELLSTYLEMAP
360
9555
  3
ACAD_XREC_ROUNDTRIP
360
955A
  0
DICTIONARY
  5
956C
330
F5
100
AcDbDictionary
280
     1
281
     1
  3
ACAD_XREC_ROUNDTRIP
360
956D
  0
DICTIONARY
  5
956A
330
F4
100
AcDbDictionary
280
     1
281
     1
  3
ACAD_XREC_ROUNDTRIP
360
956B
  0
DICTIONARY
  5
9578
330
FB
100
AcDbDictionary
280
     1
281
     1
  3
ACAD_XREC_ROUNDTRIP
360
9579
  0
DICTIONARY
  5
9580
330
FF
100
AcDbDictionary
280
     1
281
     1
  3
ACAD_XREC_ROUNDTRIP
360
9581
  0
DICTIONARY
  5
9572
330
F8
100
AcDbDictionary
280
     1
281
     1
  3
ACAD_XREC_ROUNDTRIP
360
9573
  0
DICTIONARY
  5
9576
330
FA
100
AcDbDictionary
280
     1
281
     1
  3
ACAD_XREC_ROUNDTRIP
360
9577
  0
DICTIONARY
  5
9588
330
1E6
100
AcDbDictionary
280
     1
281
     1
  3
ACAD_XREC_ROUNDTRIP
360
9589
  0
DICTIONARY
  5
957E
330
FE
100
AcDbDictionary
280
     1
281
     1
  3
ACAD_XREC_ROUNDTRIP
360
957F
  0
DICTIONARY
  5
9562
330
F0
100
AcDbDictionary
280
     1
281
     1
  3
ACAD_XREC_ROUNDTRIP
360
9563
  0
DICTIONARY
  5
9564
330
F1
100
AcDbDictionary
280
     1
281
     1
  3
ACAD_XREC_ROUNDTRIP
360
9565
  0
DICTIONARY
  5
9566
330
F2
100
AcDbDictionary
280
     1
281
     1
  3
ACAD_XREC_ROUNDTRIP
360
9567
  0
DICTIONARY
  5
9568
330
F3
100
AcDbDictionary
280
     1
281
     1
  3
ACAD_XREC_ROUNDTRIP
360
9569
  0
DICTIONARY
  5
9570
330
F7
100
AcDbDictionary
280
     1
281
     1
  3
ACAD_XREC_ROUNDTRIP
360
9571
  0
DICTIONARY
  5
9584
330
1E4
100
AcDbDictionary
280
     1
281
     1
  3
ACAD_XREC_ROUNDTRIP
360
9585
  0
DICTIONARY
  5
957C
330
FD
100
AcDbDictionary
280
     1
281
     1
  3
ACAD_XREC_ROUNDTRIP
360
957D
  0
DICTIONARY
  5
9586
330
1E5
100
AcDbDictionary
280
     1
281
     1
  3
ACAD_XREC_ROUNDTRIP
360
9587
  0
DICTIONARY
  5
9574
330
F9
100
AcDbDictionary
280
     1
281
     1
  3
ACAD_XREC_ROUNDTRIP
360
9575
  0
DICTIONARY
  5
9592
330
1F3
100
AcDbDictionary
280
     1
281
     1
  3
ACAD_XREC_ROUNDTRIP
360
9593
  0
DICTIONARY
  5
9590
330
1F2
100
AcDbDictionary
280
     1
281
     1
  3
ACAD_XREC_ROUNDTRIP
360
9591
  0
DICTIONARY
  5
958A
330
1EF
100
AcDbDictionary
280
     1
281
     1
  3
ACAD_XREC_ROUNDTRIP
360
958B
  0
DICTIONARY
  5
958C
330
1F0
100
AcDbDictionary
280
     1
281
     1
  3
ACAD_XREC_ROUNDTRIP
360
958D
  0
DICTIONARY
  5
957A
330
FC
100
AcDbDictionary
280
     1
281
     1
  3
ACAD_XREC_ROUNDTRIP
360
957B
  0
DICTIONARY
  5
956E
330
F6
100
AcDbDictionary
280
     1
281
     1
  3
ACAD_XREC_ROUNDTRIP
360
956F
  0
DICTIONARY
  5
958E
330
1F1
100
AcDbDictionary
280
     1
281
     1
  3
ACAD_XREC_ROUNDTRIP
360
958F
  0
XRECORD
  5
9597
102
{ACAD_REACTORS
330
9596
102
}
330
9596
100
AcDbXrecord
280
     1
102
DISPLAYNAME
  1
Metric50
102
FLAGS
 90
        0
  0
XRECORD
  5
955C
102
{ACAD_REACTORS
330
955B
102
}
330
955B
100
AcDbXrecord
280
     1
102
SHADEPLOT
 70
     0
102
SHADEPLOTRESLEVEL
 70
     2
102
SHADEPLOTCUSTOMDPI
 70
   300
  0
XRECORD
  5
955E
102
{ACAD_REACTORS
330
955D
102
}
330
955D
100
AcDbXrecord
280
     1
102
SHADEPLOT
 70
     0
102
SHADEPLOTRESLEVEL
 70
     2
102
SHADEPLOTCUSTOMDPI
 70
   300
  0
XRECORD
  5
9559
102
{ACAD_REACTORS
330
9558
102
}
330
9558
100
AcDbXrecord
280
     1
102
SHADEPLOT
 70
     0
102
SHADEPLOTRESLEVEL
 70
     2
102
SHADEPLOTCUSTOMDPI
 70
   300
  0
XRECORD
  5
9560
102
{ACAD_REACTORS
330
1F9
102
}
330
1F9
100
AcDbXrecord
280
     1
102
MATERIAL
148
0.0
149
0.0
149
0.0
 93
        0
 94
       63
282
     0
 72
     1
 77
     1
171
     1
175
     1
179
     1
273
     0
  0
XRECORD
  5
1FA
102
{ACAD_REACTORS
330
1F9
102
}
330
1F9
100
AcDbXrecord
280
     1
 70
     1
 90
429727718
  1
D62C5603-E3A1-4AEA-B7FB-FE5D8D0755AF
310
504B03040A0000080000CC70623B3DEE336E79000000790000001B0000006175746F6465736B2D64657369676E2D7061636B6167652E786D6C3C3F786D6C2076657273696F6E3D22312E302220656E636F64696E673D227574662D3822203F3E3C666F726D6174733E3C666F726D61743E687474703A2F2F736368656D612E
310
6175746F6465736B2E636F6D2F64657369676E2D7061636B6167652F323030393C2F666F726D61743E3C2F666F726D6174733E504B0304140006080800CC70623BD486FD9CA0000000F4000000130000005B436F6E74656E745F54797065735D2E786D6C7D8EC10E82300C865F65E91D8A1E8C310C0EEA1BF002731658846E
310
D98AC1B77784ABF1D8FE5FBFBF75BBCE937A534CCEB38643598122B6FEE978D0B0485F9C41B54DDD7D022595594E1A469170414C76A4D9A4D207E29CF43ECE46F218070CC6BECC4078ACAA135ACF422C856C0E68EA1BF5669944DDD7BCDE7B1F8E415D77AECB980613C2E4AC91FC167A2B244592486606FC29C8FD7F045B9A
310
EF7053A7E60B504B0304140006080800CC70623B853B8169EB0000007C01000008000000636F72652E786D6C8D90416EC3201045AF62CDB6C206821CC7C244919D9CA01740401C94182C03558F5F9C3852BBEB6A467FFE9B197D7EFC9E1EC5975982F5AE035262288C535E5B377690E21535501C055FBC8FBF6C503839990E
310
5619041F179FE64D52DE45E362569DD7661365082642A11EB9E920A89B99642953CC8E702F67A9EE7234257977194EC9EAE275C4EABCCF5EAD5940D4AC6F0E35A568B8F43562CD7046CD199FD07E60174276A7BE677B5EADB0E0D14EEFFB6A31321A0D82627C4084204C3F096B71DD52F6819B16635EADF63F509AF53FA164
310
5DDCD1EDDD17164090FCC8732078B56691CB33A85CD7DCC40F504B0304140006080800CC70623B55019EA25F0000007C00000007000000636E782E786D6C4DCB3B0E80201045D1AD90E915ED2CF8AC45050C11660C8261F98AB1B07AC9C97D42D718D865D3E909258CFD00CCE24AC6E326A164D74DC0B4128928FF32603847
310
2BA13128B1252AC747C6BAB984FC68F0B87FE8960A5C09FE86CFB69FBA01504B0304140006080800CC70623BDBABAAF470010000D40300000C0000006662782F636F72652E786D6CC553D16E823014FD95A6AF4B694182CC941A83FA05FB810A9511A125A5257EFE2E82712ECEB8A7F100CD39F7F69E734AF9FADC366850B6
310
AF8DCE7018308C942E4C59EB2AC3DE1D498AD15A706B8CFB56869196ADCAF00863C12B6B7C374385D14E6907A836A59A41D9F7CA615434B0C8705F7CAA5606D23BA8E84F41278B93AC54100640439DE0BDB320004D43C63716C7C399D30917DCFBBA9CD9BA8469F5B156168B24CED3F7248AC8769F27244EB73B92EED8862C
310
B7F13E0C179B3C8F979C8ECD82BBBABDAA2BAC924E9558448CBD9330242CFA08E3154B5651FCC6D215639C8EE5774DBE2B5F6CF2B5768B68963BB5F5588420E442FC700B1139D4CB01F450C1E918227C2E09DF070D8140C84E1E9AAB8F1340832A9CB13130A5F1376A908D57309505ECF2A0DF179C4E9D30F5B239B87E3823
310
7A79C6F31DE1A8A5AEC08474B03C7837EAE4938639B44E5932B833D2C6B6B279CDC613877FA26EE21F4A2A4C63EC7F29A2F301D1F9F7A0E37D145F504B0304140006080800CC70623B9C113CC27E0000009D0000000B0000006662782F636E782E786D6C4DCCDF0A83201C86E15B91DFB94BFB330DD428C8FB886521330DA7
310
6397BF1A1DECE883878F57749FCDA1B7892F1BBC047A23808C7F84D9FA55424E0BE6803A256208E9EF06C84F9B91703228B1C690F78B66B34CD9A5439DF5CF0BFBF65E35BCA1B8D6A5C6F540381E886698B5741C695F9503EBA150A2F8958E3DC3EA0B504B0304140006080800CC70623B7DF2F77C2A010000120200003100
310
00006662782F41393633353835312D344632462D344230382D423046372D3739314545314133324237412F636F72652E786D6C8D51DB8EC22014FC15C2939B0D2DB4B45643319AE817EC0F6041255A68B86CFCFC856D4D76DF7CE190393373060EDB3DC707F856CE6B6B7A480A0C81328395DA5C7B18C3057510EC3873D686
310
3F34088C18550F330C39BB3A1BA7051AAC09CA84841A2BD5020AEF55806078A44B0FFD7053A328440C89E1EFC52486BBB8AA8214A99D789CF9E05200300FC927E4FB4D5B375D43103D5527440FB843077C5AA3F5861C8F645F5787F59E95B390B318B55CE45AA638FAA2957BD7248B390B7A7CC51F9C124149C82B8C378810
310
84AB2F42B7B8DD56F413775B8C5999E9FF4471926F8AA236A1AE96B8B3CC434E5839373893369E1FAF30EA395917409EB7F26AF8801C171837A4A6AC9C89E9F9C9B1A58BA30FD6A5EF5DDDCF894B9AD9B6A59C957943A9FCAE2FD5BC4DFE03504B0304140006080800CC70623BAD7543B64E01000033030000300000006662
310
782F41393633353835312D344632462D344230382D423046372D3739314545314133324237412F636E782E786D6CD593CD6EC32010845F0571AD6CE3D48AD20813A9873E410FBD12D82434182C7EAAE6EDBB2424CD25871E7B41D6EC30B3FA84F9E67BB2E40B4234DE8DB46F1925E094D7C6ED479AD3AE5951B2113C789FEE
310
6C943839C1488B4C05DF079FE72A69D8C96C13AAD6B8631503449F83828872B949AC57D26200B826A308D316B4064D6E46FCDA41C05550DC9E483A00797BFD207EFB092A45DE9514C1BBD22178396BD39D891265658C238DEA00936C654E5E433CB65A26D9F6EDB5EBC14EBF49A45CB856E66048291F6939A9A81BB5C89177
310
38143CA680F4AA299D66A042CEB3354A2684DC9D8D178FE0D9B8B41CAAD720F880EE7EF93C0C18769E099ECC04D5A102C8049A8A05632F4DDF376CF1DE0F6BB65C2F8627B65A33C6BB62177CEBBDAD973006829F89F22E814B54F4BC2BE347F8AA8F681390B50FA73F804400B5F542E796F19FF974E7F78DB802FE05E20750
310
4B0304140006080800CC70623BE75B7789680500003C100000340000006662782F41393633353835312D344632462D344230382D423046372D3739314545314133324237412F6F626A656374732E786D6CAD575B8F9B3818FD2B887D06C22499CB8AA1CA655245D5B455A356FB305264C061D8018C6C3393D95FBFC7600890
310
A4CD5EF210B0B1BFEBF98E3F7B1FF6596ABC522E1296DF9BAE3D320D9A872C4AF2F8DE2CE5CEBA358D0FBEC719939D65A691938CDE9B6ADAF4BD98B3B2D05311DD91329583D9D5FC0F438434A7A611A644887B5384CF34233629258BA878B12322891DEFF6B66BD70BFB62634E8AE781D082709A4B588AF91C528CDA28B73F
310
1C998EEF39EABBEFA97FBD6A7C7E9553F9D3D79FE442923C3C523610337627CB87ABE99D359D4CC6D6E4FACAB5E6ABF9D2726FC6A3C5F56271377BB88362213924694B38DD99FE47C48627A1E7D49F5A8BB5E1A74C0A599ED3B0F21F1E56366B89112D681E218F0915D0D6F17AD41FBA2A369DCF6335D62ABBD39779D5DDD1
310
11D4D8DE3CBB96B2E04FB8202E41051754A1AA8E8F76B4C6DFE810B580B1547F4B84911149794252234D024EF8BBE963A95AE27B3D310A9D5C215C7960FAEE415ED75694C6AFB17BCACA5D99A60A9AA65F217B0BFC53292ACB92BF283FAD0D3621576592CB5BED907C2FA8E9DF794E35E97BEA31BED21FEB401ABB94C44839
310
DCACBF0E1C5DA8DA5B2F4DFFD32AD86F543D9E565E7056502E157C00AD2671CD534549AB752FCA9CDA00677A313F04E51B22FF19E57B300579E3C97EB29F682D92935CEC18CF901B7B54FD8C51F362B56FC72FE0B3C1EAE335EDCCBF5AEC39ADB17DC238973F804BA5E6F6BFE7AF1FB32E523BE9F3BD571418E3631DCA4D48
310
5250CF639223210A9446CA30052EDF057BD35F8329C1ECD84552BF0DC8D18BE7BCE23BFE6BD960AB4A7DE79923A103BEBD80F911CBAA2C60DB19B01CF164A5583B772EE6D3FFA56666CBCDA74DC97724A48F9A58967497E489C4D979006FD7A05E227A1EBDD0F737C623387A9C844D3709995625106D157315F8B8392CD4E0
310
A0B9A720C4BE9829CEF37EA1E13111214D53925356365ADA634861B52519DD27A00AEB808EAF0628E6F435519D446F45CF2C9CF5214F0A15B2F6D06B79DA3EE3CBF7F56780D2F4E7EF73A0F5E5B02A38D07DC852C6B7C1FBB6664213E0C39E3EBA7FF4E1AD23EA2829407C85E586727488B751B2DB9502BC7B228A3FD68B6E
310
A65A22397E690AA8D158D7E404EC8CDA235CC3B7D1898680131CEC2CDF2638C65196279577750F15884AEE19F94199155B92B13297978469D4F8D358DF0AEF7631E28DC8F0D9F437D5D39A83B2231A1D52D543813A824EF8D44BCFF2FA6A31BD1E8DAD87F1CCB526B3879935BF59CDADD5C37479BB1CDD4CA7B3556B516589
310
EF352754B706114D9C885EC9131DE6EFEB43D99AFE2391C2F958179413D7CFEF6B1B6DB1E7600F00DE6E5C67454A339A4BA2E0FBA85ED26F045D454F463DBFCE484C2F90F2E5E3666003662ED8F755951A7D1BECD5B30B550B2785C8E7320B7292A4838DDA71BBC863ED7613CAF659337A3354231D4FF4A182A54904C2898C
310
98B28C4AD0CE056CCF332A80986E571EE9DBC305BB5FEB7E509220A58D25CF042D712A806AC0AD0C657FDEF80D2D9CEAA2EE4D1C76F60BFE74219A06527D6F82DF6412526107381E55E353090704D085B52408A8913C4ED159D79BDA71BB4BC506F4831350EB6F975CD22D69BF7AC49B91A2C0A9DDA3D5CA36AD20FC478E37
310
E61844E2352865EBCB61A275A65283CAAA9DD27703B4102F5AF51EF5F573B75CBB5AD38BC845F7A49F82A0966A49C2E3EA5EA0ECD326CD965F1DB402C6FA8B51A4658C5C5E2EC9E214602E55810345408596591009A82E7E7FFACA19EEA299B14A0081A705CB3296EBC14CDF658DCD336EA6D1136881AAEB87B81AB9EE53D5
310
F5EB8BC8362082DA24122F98680A4E7930C01A0079749CEA14382A0783E5EBA5A10F8C098456A03D6A4AEB6BB881E2513747552A5DB22C7EDAF83BD5528081A365F7FF06504B0304140006080000CC70623B000000000000000000000000350000006662782F41393633353835312D344632462D344230382D423046372D37
310
39314545314133324237412F76657274696365732E62696E504B0304140006080800CC70623BF270F1330600000004000000360000006662782F41393633353835312D344632462D344230382D423046372D3739314545314133324237412F747269616E676C65732E62696E636660600000504B0304140006080000CC7062
310
3B000000000000000000000000370000006662782F41393633353835312D344632462D344230382D423046372D3739314545314133324237412F617474726962757465732E62696E504B0304140006080800CC70623B08DA0BD19000000041010000360000006662782F41393633353835312D344632462D344230382D4230
310
46372D3739314545314133324237412F6469726563746F72792E786D6C858F410AC3201045AF22B36F53E9A60B35CBEEBAE80D244E44489C6234F4F835464A48035D0DF398FF9F8AF63D0E6CC63039F212F8F9020C7D47C6792B21C5FE7403D62A1188E2E60C98D7234A5830286103A55745067B9D86B8A3CF9C7F90C11DE6
310
07FB144396D7B6A82D282E9A152AD114D5EF2CB866EEE831B8EEA07A7BB5A8D7D61A2BAAEB7FD5F70921FF497D00504B0304140006080800CC70623BEDD1DC58FD000000A00100003B0000006662782F41393633353835312D344632462D344230382D423046372D3739314545314133324237412F7265736F75726365732F
310
636F72652E786D6C8D504B6E833010BD0A9A6D65B00922041947112427E8052C33A156828DFCA97AFC9A40A576D7CDCCE87D344F8F9FBFE667F689CE6B6B3A6039850C8DB2A336530731DC4903D95970676DF82583CCC8193B5861107C72362E3BA4AC096842428D1D7107A5F7182053CF7474E0D507CE32973124857FE48B
310
540F3961CEF244279DE03EB81420DB9EAC1384436FA353E879B1B182C7A8C75DA3C7F453DF353A1075D537A7BA6464B8F535A99AE14A9A2BBD90E350DD183B5CFABE3AF262350B1EF4FC9351399401471025A527C218A1E53BAB5A5AB765F5469B96525EACF23FA6B88CFF34456DC2A1DCE36E360F82A5202F42F062ED2BAD
310
579969AFDD8A6F504B010214000A0000080000CC70623B3DEE336E79000000790000001B00000000000000000000000000000000006175746F6465736B2D64657369676E2D7061636B6167652E786D6C504B01021400140006080800CC70623BD486FD9CA0000000F40000001300000000000000000000000000B20000005B
310
436F6E74656E745F54797065735D2E786D6C504B01021400140006080800CC70623B853B8169EB0000007C010000080000000000000000000000000083010000636F72652E786D6C504B01021400140006080800CC70623B55019EA25F0000007C000000070000000000000000000000000094020000636E782E786D6C504B
310
01021400140006080800CC70623BDBABAAF470010000D40300000C00000000000000000000000000180300006662782F636F72652E786D6C504B01021400140006080800CC70623B9C113CC27E0000009D0000000B00000000000000000000000000B20400006662782F636E782E786D6C504B01021400140006080800CC70
310
623B7DF2F77C2A010000120200003100000000000000000000000000590500006662782F41393633353835312D344632462D344230382D423046372D3739314545314133324237412F636F72652E786D6C504B01021400140006080800CC70623BAD7543B64E010000330300003000000000000000000000000000D2060000
310
6662782F41393633353835312D344632462D344230382D423046372D3739314545314133324237412F636E782E786D6C504B01021400140006080800CC70623BE75B7789680500003C10000034000000000000000000000000006E0800006662782F41393633353835312D344632462D344230382D423046372D3739314545
310
314133324237412F6F626A656374732E786D6C504B01021400140006080000CC70623B0000000000000000000000003500000000000000000000000000280E00006662782F41393633353835312D344632462D344230382D423046372D3739314545314133324237412F76657274696365732E62696E504B01021400140006
310
080800CC70623BF270F133060000000400000036000000000000000000000000007B0E00006662782F41393633353835312D344632462D344230382D423046372D3739314545314133324237412F747269616E676C65732E62696E504B01021400140006080000CC70623B0000000000000000000000003700000000000000
310
000000000000D50E00006662782F41393633353835312D344632462D344230382D423046372D3739314545314133324237412F617474726962757465732E62696E504B01021400140006080800CC70623B08DA0BD1900000004101000036000000000000000000000000002A0F00006662782F41393633353835312D344632
310
462D344230382D423046372D3739314545314133324237412F6469726563746F72792E786D6C504B01021400140006080800CC70623BEDD1DC58FD000000A00100003B000000000000000000000000000E1000006662782F41393633353835312D344632462D344230382D423046372D3739314545314133324237412F7265
310
736F75726365732F636F72652E786D6C504B0506000000000E000E0080040000641100000000
  0
XRECORD
  5
955F
102
{ACAD_REACTORS
330
1F7
102
}
330
1F7
100
AcDbXrecord
280
     1
102
MATERIAL
148
0.0
149
0.0
149
0.0
 93
        0
 94
       63
282
     0
 72
     1
 77
     1
171
     1
175
     1
179
     1
273
     0
  0
XRECORD
  5
1F8
102
{ACAD_REACTORS
330
1F7
102
}
330
1F7
100
AcDbXrecord
280
     1
 70
     1
 90
429727718
  1
30362254-06B7-45E0-A893-8CFA70E3D6BC
310
504B03040A0000080000CC70623B3DEE336E79000000790000001B0000006175746F6465736B2D64657369676E2D7061636B6167652E786D6C3C3F786D6C2076657273696F6E3D22312E302220656E636F64696E673D227574662D3822203F3E3C666F726D6174733E3C666F726D61743E687474703A2F2F736368656D612E
310
6175746F6465736B2E636F6D2F64657369676E2D7061636B6167652F323030393C2F666F726D61743E3C2F666F726D6174733E504B0304140006080800CC70623BD486FD9CA0000000F4000000130000005B436F6E74656E745F54797065735D2E786D6C7D8EC10E82300C865F65E91D8A1E8C310C0EEA1BF002731658846E
310
D98AC1B77784ABF1D8FE5FBFBF75BBCE937A534CCEB38643598122B6FEE978D0B0485F9C41B54DDD7D022595594E1A469170414C76A4D9A4D207E29CF43ECE46F218070CC6BECC4078ACAA135ACF422C856C0E68EA1BF5669944DDD7BCDE7B1F8E415D77AECB980613C2E4AC91FC167A2B244592486606FC29C8FD7F045B9A
310
EF7053A7E60B504B0304140006080800CC70623B1EC5D7A3EB0000007C01000008000000636F72652E786D6C8D90416EC3201045AF82665B6103C6756C6122AB4D4ED00B204C5C94182C03558F5F9C3852BBEB6A467FFE9B197D71FC9E6FE8CBACC17AD7032D0820E3B41FAD9B7A48F1820F808E52ACDEC75F36404ECDA687
310
4D0629A6D5A76597B477D1B89855E747B38B2A041301E95B6E7A08FAD3CCAA50296647B8168BD2573599823EBB0CA76447F43862C7BCCF5EAC59410E4DDD9C7973C2755553CCCFA4C603E3040F1565ED3B1FDE4E432BCA0D9622DAF9795FAF464533826484B498524CD807E51D79ED187F21878E10516EF63F505AC67F42C9
310
BA58B1FDDD071640D2FCC87D2045B96591CB3DA85CB7DCE40F504B0304140006080800CC70623B55019EA25F0000007C00000007000000636E782E786D6C4DCB3B0E80201045D1AD90E915ED2CF8AC45050C11660C8261F98AB1B07AC9C97D42D718D865D3E909258CFD00CCE24AC6E326A164D74DC0B4128928FF32603847
310
2BA13128B1252AC747C6BAB984FC68F0B87FE8960A5C09FE86CFB69FBA01504B0304140006080800CC70623B8C9102E971010000D40300000C0000006662782F636F72652E786D6CC5535B6E833010BC8AE5DF0A6C08340F1947A84D4ED00B38C6A128602363A31CBFCB234A53A551FA553EC09AD9F5CE8C31DB9E9B1AF5CA
310
7695D1198E428A91D2D214952E33ECDD315861B4E5CC1AE3BE9561A445A3323CC098B3D21ADFCE9034DA29ED00D5A6503328BA4E398C640D8B0C77F253352214DE4145770A5B214FA2546114020D759C75CE8200340D19DE981F0F6746269C33EFAB6266AB02A655C74A59CCF365BADC27CB5D902ED22848F6340DF238A141
310
BE88E2F57B92BFEDF23523433367AE6A2EEAA455C2A902F398D2751045018D3FA264435F3771F242571B4A1919CA6F9A7C5B3CD9E42BED16F12C776AEB308F40C848FC700B1139D4891EF410CEC810227CC6846F8386402064270EF5C5C709A05E49676C024C61FC95EA45ED154CA5211D1FF4FB8291A913A68E9B83EBBB33
310
E2A7673CDE118E5AE8124C0807CB8377834E366998436B950D7A7746DAD846D4CFD978E0F04FD455FC5D49D2D4C6FE9722321F10997F0F32DC47FE05504B0304140006080800CC70623BFFEA85907E0000009D0000000B0000006662782F636E782E786D6C4DCCD10A83201886E15B91FFDC95D95A811AB6F23E625948A6C3
310
E9D8E5AF46073BFAE0E1E365ED67B3E8ADC3CB78C7815C7240DA3DFC64DCC221C519D7805AC182F7F1EF06C88D9BE6703008B6049F9E274D7A1E938DBB5AE3D6131B2589BA0D3D965551E0B2EA732C9B9A624AAEB41E3A557677029960D9AFB4EF11165F504B0304140006080800CC70623B4FEEA4082C0100001202000031
310
0000006662782F39464131463745442D413632322D343644302D413938332D3331353338454246344243312F636F72652E786D6C8D515B6EC32010BC0AE2AB55850DD871ED0813254D72825EC00192A2C460F1A872FC42ED48ED5F7E00CDCECCCEB26C731F6FE05B39AFADE921293004CA082BB5B9F43086336A21D870E6AC
310
0D7F68109861543DCC30E4ECE26C9C164858139409093556AA051CBC570102714B8F1E7AF1A5C6A11862480C7F2DA6415C878B2A4891CA89C7990F2E050073937C42DE1DB7E4F87ED8A36D4329AA9B3D46DBAEAD504556557BD81DEBDD0761E52CE42C462D17B996298E3E6BE59E35C962CE821E1FF18553435012728A7187
310
0841987E927A8D9B35ADDF70BBC6989599FE4F1427F9A4286A132ABAC49D651EF234CD5CE04CDA78BA3DC2A8FB645D00B9DF8B57E215725C60BCA2A463E54C4CE327C7A65E1C7DB02E7DEFCBF594B864C5CA6CDBD49C957943E9FA5D5FBAF336F90F504B0304140006080800CC70623BAD7543B64E01000033030000300000
310
006662782F39464131463745442D413632322D343644302D413938332D3331353338454246344243312F636E782E786D6CD593CD6EC32010845F0571AD6CE3D48AD20813A9873E410FBD12D82434182C7EAAE6EDBB2424CD25871E7B41D6EC30B3FA84F9E67BB2E40B4234DE8DB46F1925E094D7C6ED479AD3AE5951B2113C
310
789FEE6C943839C1488B4C05DF079FE72A69D8C96C13AAD6B8631503449F83828872B949AC57D26200B826A308D316B4064D6E46FCDA41C05550DC9E483A00797BFD207EFB092A45DE9514C1BBD22178396BD39D891265658C238DEA00936C654E5E433CB65A26D9F6EDB5EBC14EBF49A45CB856E66048291F6939A9A81BB5
310
C8917738143CA680F4AA299D66A042CEB3354A2684DC9D8D178FE0D9B8B41CAAD720F880EE7EF93C0C18769E099ECC04D5A102C8049A8A05632F4DDF376CF1DE0F6BB65C2F8627B65A33C6BB62177CEBBDAD973006829F89F22E814B54F4BC2BE347F8AA8F681390B50FA73F804400B5F542E796F19FF974E7F78DB802FE05
310
E207504B0304140006080800CC70623B16AB87BA640500003C100000340000006662782F39464131463745442D413632322D343644302D413938332D3331353338454246344243312F6F626A656374732E786D6CAD575B6FA33818FD2B887DE6924B3BED8A326A92B68A663B534DD4D13E548A0C38942D60649B369D5FBFC7
310
600890A493BDE42160637FD7F31D7FF63E6FB3D478A55C242CBF3247B66B1A340F5994E4F19559CA8D75611A9F7D8F33263BCB4C232719BD32D5B4E97B316765A1A722BA21652A07B3B7B33F0D11D29C9A46981221AE4C113ED38CD8A4942CA2E2C58E882476BCD9DA23BB5ED8171B73523C0F841684D35CC252CCE79062D4
310
468DFA43D7747CCF51DF7D4FFDEB5593E3AB9CCA9FBEFE241792E4E19EB28198C968BAB8199F5D5A67D3E9C49A9E8F47D6EC76B6B0469F26EEFC7C3EBFBCBEB98462213924694B38DD98FE1D62C393D073EA4FADC5DAF04326852CCF6958F90F0F2B9BB5C48816348F90C7840A68EB78EDF68723159BCEE7891A6B95DDE9D3
310
BCEAEEE8086A6C6F9E5D4B59F0175C10A7A0820BAA5055C7473B5AE3CFDD452D602CD5DF12616444529E90D448938013FE6EFA58AA96F85E4F8C42275708571E98FE6827AF6B2B4AE3D7D83D64E5A64C53054DD3AF90BD06FEA9149565C94FCA0F6B834DC85599E4F2423B24DF0B6AFA979E534DFA9E7A4CC6FA631D486393
310
921829879BF5D781A373557BCB85E97FB90DB62B558F8795179C15944B051F40AB495CF35451D26A4727654E6D8033BD98EF82F21D91FF8AF2DD9982BCF1643BDD4EB516C9492E368C67C88DED563FC36D5EACF66DFF057C3658BDBFA69DF9578B3DA735B64F18C7F20770A9D45CFCF7FCF563D6456A277DBEF78A02637CA2
310
43B90A490AEAB94F72244481D24819A6C0E59B606BFA4B3025981DBB48EAB701D97BF19C577CC77F2D1B6C55A9EF3C732474C0B727303F625995056C3B02963D9EAC146BE78EC5FCEC7FA999EBC5EACBAAE41B12D27B4D2C0BBA49F244E2ECDC81B76B502F113D8F5EE8FB1BE3111CDD4FC2AA9B844CAB1288B68AB90A7CDC
310
1C166AB0D3DC5310625FCC14E779BFD0709F8890A629C9292B1B2DED31A4B0DA928CEE135085754027E3018A397D4D5427D15BD1330B677DC8934285AC3DF45A9EB68FF8F2B8FC0A509AFEECFD0FF2DE25CC6047F7214B195F07EFEB9A094D800F7BFAE8FED187B78EA8A3A400F115961BCAD1215E47C966530AF0EE8128FE
310
58CEBB996A8964FFA529A046635D9353B0336A8F700DDF46271A024E70B0B37C9DE01847591E54DED53D54202AB947E4076556AC49C6CA5C9E1226B7F1A7B1BE15DEED62C41B91E1B3E9AFAAA735036547343A925075041DF0A9979E893B391F8FCFA6967B3EFB644DCF6E5CEBFAE272625DCC6FAF3FB93793C5F90CE1EF57
310
407342756B10D1C489E8953CD1617E5CEECAD6F4EF8914CE5D5D504E5C3F1F9736DA62CFC11E00BCDDB8CC8A9466349744C1F75EBDA4DF09BA8A9E8C7A7E9991989E20E5DBDD6A6003664ED8F7A04A8DBE0DF6EAD9B9AA858342E47399053949D2C146EDB85DE4B176BB0965FBAC19BD19AA918E27FA50C1D22402E144464C
310
59462568E704B6E71915404CB72B8FF4EDE184DDAF753F284990D2C6926782963815403548A70C657FDEF80D2D9CEAA2AE4C1C76F60BFE74219A06527D6582DF6412526107381E55E353090704D085B52408D0933C4ED159D79BDA71BB4BC506F4831350EB6F979CD22D69BF7AC49B91A2C0A9DDA3D5CA36AD20FC478E37E6
310
1844E2352865EBCB6EA275A652E3836BE04EFB400BF1A2556F515F1FBB35B2AB35BD889C744FFA1004B5544B121E57F70215746DD2F5E2C1412B602CBF19455AC6C8E5E9922C4E01E65215385004546899059180EAFCF7A707CE7017CD8CDB0410789AB32C63B91E5CEBBBACB17AC6CD347A022D5075FD106377347AAABA7E
310
7D11590744509B44E205134DC1290F06580320F78E537D3D73540E06CB970B431F185308AD40BBD794D6D77003C5A36E8EAA54BA64597CD8F83BD552A080A365F7FF06504B0304140006080000CC70623B000000000000000000000000350000006662782F39464131463745442D413632322D343644302D413938332D3331
310
353338454246344243312F76657274696365732E62696E504B0304140006080800CC70623BF270F1330600000004000000360000006662782F39464131463745442D413632322D343644302D413938332D3331353338454246344243312F747269616E676C65732E62696E636660600000504B0304140006080000CC70623B
310
000000000000000000000000370000006662782F39464131463745442D413632322D343644302D413938332D3331353338454246344243312F617474726962757465732E62696E504B0304140006080800CC70623B08DA0BD19000000041010000360000006662782F39464131463745442D413632322D343644302D413938
310
332D3331353338454246344243312F6469726563746F72792E786D6C858F410AC3201045AF22B36F53E9A60B35CBEEBAE80D244E44489C6234F4F835464A48035D0DF398FF9F8AF63D0E6CC63039F212F8F9020C7D47C6792B21C5FE7403D62A1188E2E60C98D7234A5830286103A55745067B9D86B8A3CF9C7F90C11DE607
310
FB144396D7B6A82D282E9A152AD114D5EF2CB866EEE831B8EEA07A7BB5A8D7D61A2BAAEB7FD5F70921FF497D00504B0304140006080800CC70623B0D6EF93BFE000000A00100003B0000006662782F39464131463745442D413632322D343644302D413938332D3331353338454246344243312F7265736F75726365732F63
310
6F72652E786D6C8D50596E833010BD0A9ADFCA60B334011947A8694ED00B586642AC041B79A97AFC9A40A5F6AF3F33A3B7689E1E3F7DCD8FEC139DD7D6F4C0720A191A65476DA61E62B892236427C19DB5E1970C322367EC618541F0C9D9B8EC90B226A009093576C41D94DE63804C3DD2D18357379C652E63480A7FCF17A9
310
EE72C29CE5894E3AC17D702940B63D59270887DE46A7D0F36263058F518FBB468FE9A7BE6A7420864373B8D4873369AA8691FA421B3294352543C5CAF65C0F6FEF43CB8BD52C78D0F34F46E550061C419494B6843142CB0F5677F4B52BEB177AEC28E5C52AFF638ACBF84F53D42654E51E77B379102C05791282176B5F693D
310
CB4C7BED567C03504B010214000A0000080000CC70623B3DEE336E79000000790000001B00000000000000000000000000000000006175746F6465736B2D64657369676E2D7061636B6167652E786D6C504B01021400140006080800CC70623BD486FD9CA0000000F40000001300000000000000000000000000B20000005B
310
436F6E74656E745F54797065735D2E786D6C504B01021400140006080800CC70623B1EC5D7A3EB0000007C010000080000000000000000000000000083010000636F72652E786D6C504B01021400140006080800CC70623B55019EA25F0000007C000000070000000000000000000000000094020000636E782E786D6C504B
310
01021400140006080800CC70623B8C9102E971010000D40300000C00000000000000000000000000180300006662782F636F72652E786D6C504B01021400140006080800CC70623BFFEA85907E0000009D0000000B00000000000000000000000000B30400006662782F636E782E786D6C504B01021400140006080800CC70
310
623B4FEEA4082C0100001202000031000000000000000000000000005A0500006662782F39464131463745442D413632322D343644302D413938332D3331353338454246344243312F636F72652E786D6C504B01021400140006080800CC70623BAD7543B64E010000330300003000000000000000000000000000D5060000
310
6662782F39464131463745442D413632322D343644302D413938332D3331353338454246344243312F636E782E786D6C504B01021400140006080800CC70623B16AB87BA640500003C1000003400000000000000000000000000710800006662782F39464131463745442D413632322D343644302D413938332D3331353338
310
454246344243312F6F626A656374732E786D6C504B01021400140006080000CC70623B0000000000000000000000003500000000000000000000000000270E00006662782F39464131463745442D413632322D343644302D413938332D3331353338454246344243312F76657274696365732E62696E504B01021400140006
310
080800CC70623BF270F133060000000400000036000000000000000000000000007A0E00006662782F39464131463745442D413632322D343644302D413938332D3331353338454246344243312F747269616E676C65732E62696E504B01021400140006080000CC70623B0000000000000000000000003700000000000000
310
000000000000D40E00006662782F39464131463745442D413632322D343644302D413938332D3331353338454246344243312F617474726962757465732E62696E504B01021400140006080800CC70623B08DA0BD190000000410100003600000000000000000000000000290F00006662782F39464131463745442D413632
310
322D343644302D413938332D3331353338454246344243312F6469726563746F72792E786D6C504B01021400140006080800CC70623B0D6EF93BFE000000A00100003B000000000000000000000000000D1000006662782F39464131463745442D413632322D343644302D413938332D3331353338454246344243312F7265
310
736F75726365732F636F72652E786D6C504B0506000000000E000E0080040000641100000000
  0
XRECORD
  5
9561
102
{ACAD_REACTORS
330
173
102
}
330
173
100
AcDbXrecord
280
     1
102
MATERIAL
148
0.0
149
0.0
149
0.0
 93
        0
 94
       63
282
     0
 72
     1
 77
     1
171
     1
175
     1
179
     1
273
     0
  0
XRECORD
  5
175
102
{ACAD_REACTORS
330
173
102
}
330
173
100
AcDbXrecord
280
     1
270
     1
271
     1
  0
XRECORD
  5
174
102
{ACAD_REACTORS
330
173
102
}
330
173
100
AcDbXrecord
280
     1
270
     1
271
     1
  0
XRECORD
  5
1FB
102
{ACAD_REACTORS
330
173
102
}
330
173
100
AcDbXrecord
280
     1
 70
     0
 90
1673772943
  1
ECE7A1D2-D628-4531-984C-D00F80459256
310
504B03040A0000080000CC70623B3DEE336E79000000790000001B0000006175746F6465736B2D64657369676E2D7061636B6167652E786D6C3C3F786D6C2076657273696F6E3D22312E302220656E636F64696E673D227574662D3822203F3E3C666F726D6174733E3C666F726D61743E687474703A2F2F736368656D612E
310
6175746F6465736B2E636F6D2F64657369676E2D7061636B6167652F323030393C2F666F726D61743E3C2F666F726D6174733E504B0304140006080800CC70623BD486FD9CA0000000F4000000130000005B436F6E74656E745F54797065735D2E786D6C7D8EC10E82300C865F65E91D8A1E8C310C0EEA1BF002731658846E
310
D98AC1B77784ABF1D8FE5FBFBF75BBCE937A534CCEB38643598122B6FEE978D0B0485F9C41B54DDD7D022595594E1A469170414C76A4D9A4D207E29CF43ECE46F218070CC6BECC4078ACAA135ACF422C856C0E68EA1BF5669944DDD7BCDE7B1F8E415D77AECB980613C2E4AC91FC167A2B244592486606FC29C8FD7F045B9A
310
EF7053A7E60B504B0304140006080800CC70623BD9DDAED0EC0000007C01000008000000636F72652E786D6C8D90416EC3201045AF82665B61836D9CD8C2444DD39CA01740405C94182C03558F5F9C3852BBEB6A467FFE9B197D7EF89E6EE8CB2CC17A37002D0820E394D7D68D03A478C17B4007C117EFE32F1B20272733C0
310
2A83E0E3E2D3BC49CABB685CCCAAF3DA6CA20CC14440EA969B0182FA34932C648AD911AEC52CD5558EA6A0CF2EC329598D1E47ACCEFBECC59A050463A7EA5833865FEBDD0E37353BE3EE8DBDE3F6786A48D375FBF6CC78B9C282473B3DEFABC5C86834888A900E538A49F5419B9EB47DD5BC907D4F082F57FB1F28CDFA9F50
310
B22ED6D5F6EE030B20687EE43E10BC5CB3C8E51E54AE6B6EE207504B0304140006080800CC70623B55019EA25F0000007C00000007000000636E782E786D6C4DCB3B0E80201045D1AD90E915ED2CF8AC45050C11660C8261F98AB1B07AC9C97D42D718D865D3E909258CFD00CCE24AC6E326A164D74DC0B4128928FF326038
310
472BA13128B1252AC747C6BAB984FC68F0B87FE8960A5C09FE86CFB69FBA01504B0304140006080800CC70623BA24EB22D72010000D40300000C0000006662782F636F72652E786D6CC5535B6E833010BC8AE5DF0A6C5E49888CA3A6694ED00B38E05014B091B1518EDFE511A5A9D228FD2A1F60CDEC7A67C6986DCE4D8D7A
310
69BA4AAB0C073EC548AA5C17952A33ECECD15B61B4E1CC686DBF9561A44423333CC098B3D268D7CE50AE9595CA02AA74216750749DB418E5352C32DCE59FB211BE70162ABA93DF8AFC244AE9073ED050C759670D0840D390E18DF9F1706664C23973AE2A66B62A605A75ACA4C13C4976E1364A12EF355A2EBD384AF65EFA96
310
BC7B8BED2EA6719AAE16FB8491A199335B351775B991C2CA02F390D2D40B028F861F41BCA68B7518BFD0D59A524686F29B26D7164F36B94AD9289CE54E6D1DE6010819891F6E21228B3AD1831EC219194284CF98F06DD01008846CC5A1BEF83801D4CBDC6A1303536877A57A513B0953A94FC707FDBE6064EA84A9E3E6E0FA
310
EE8CF0E9198F7784A316AA0413C2C2F2E0ECA0934D1AE6D05A69BCDE9E91D2A611F573361E38FC1375157F5752AE6B6DFE4B11990F88CCBF0719EE23FF02504B0304140006080800CC70623B408A7D3B7C0000009D0000000B0000006662782F636E782E786D6C4DCCD10A83201886E15B91FFDC552A92A0064DBC8F581632
310
D3703A76F9ABD1C18E3E78F878E5F0D9027ABBFCF2292AE86E2D20171F69F6715550CB827B40839639A5F2770314A7CD293819B45C73AAFB45B35BA61ACAA1C1C7E7855C58C15BC331339661262CC762340413D68D77DA5B42298546CBE6573AF60CEB2F504B0304140006080800CC70623B449FB9BD290100001202000031
310
0000006662782F36394639363044362D344446342D343946362D394244322D3234314243333846323333332F636F72652E786D6C8D515B6EC32010BC0AE22B55850D98B871848994463E412FE002495162B07854397EA176A4F62F3F2C9A9D991D587EB84F37F0AD7D30CEF6905418026DA553C65E7A98E219ED203808EE9D
310
8B7F6810D871D23D2C3014FCE25D9A57483A1BB58D19B54EE9151C43D0110279CB971E06F9A5A7B11A53CC8C70ADE6515EC78BAE4895DB992778883E0700CB907242D17643D7E2538BD869608875438BBAE38922CAC8F1BDD90DB4691A5E2F42C153326A951B95E398B3D1FE599322163C9AE9115F7A3D46ADA0A018778810
310
84E907617BDCEE297BC5BB3DC6BC2EF47FA234AB2745C9D8D8D035EE220B50105E2F0DC1954B9FB747187D9F9D8FA0CCDB042D5FA0C015C65B42DF78BD10F3F3B363CB56C7109DCFDFBBB97E662ED92EB62D13BC2E1BCAE5777DB9966D8A1F504B0304140006080800CC70623BAD7543B64E01000033030000300000006662
310
782F36394639363044362D344446342D343946362D394244322D3234314243333846323333332F636E782E786D6CD593CD6EC32010845F0571AD6CE3D48AD20813A9873E410FBD12D82434182C7EAAE6EDBB2424CD25871E7B41D6EC30B3FA84F9E67BB2E40B4234DE8DB46F1925E094D7C6ED479AD3AE5951B2113C789FEE
310
6C943839C1488B4C05DF079FE72A69D8C96C13AAD6B8631503449F83828872B949AC57D26200B826A308D316B4064D6E46FCDA41C05550DC9E483A00797BFD207EFB092A45DE9514C1BBD22178396BD39D891265658C238DEA00936C654E5E433CB65A26D9F6EDB5EBC14EBF49A45CB856E66048291F6939A9A81BB5C89177
310
38143CA680F4AA299D66A042CEB3354A2684DC9D8D178FE0D9B8B41CAAD720F880EE7EF93C0C18769E099ECC04D5A102C8049A8A05632F4DDF376CF1DE0F6BB65C2F8627B65A33C6BB62177CEBBDAD973006829F89F22E814B54F4BC2BE347F8AA8F681390B50FA73F804400B5F542E796F19FF974E7F78DB802FE05E20750
310
4B0304140006080800CC70623B8D05915C650500003B100000340000006662782F36394639363044362D344446342D343946362D394244322D3234314243333846323333332F6F626A656374732E786D6CAD575B6FA33814FE2B887D06429276DA1565D4266D158D3A339A6846FB502932E050B66023DB74D2FDF5FB190C01
310
9276B2973C046C8ECFF53B17071F77456EBD502133CEAE6CDF9DD81665314F32965ED995DA3A17B6F5310C04E7AA47665B8C14F4CAD6DB7618A48257A5D94AE89654B91AEDDEDDFC61C998326A5B714EA4BCB265FC440BE2924AF184CA6737218AB8E976E7FA6E4338649B0A523E8D98964450A6A029F619B8588D52FE7039
310
B1BD30F0F4F730D0FF866AF6369557DB33949F31A9088B0F848DD8CCFCF9F2767A76E99CCDE733677E3EF59D9BBB9BA5E37F984D16E78BC5E5F5ED25044B25C0C96822E8D60EEFE11B91C581D77CEA34368A1F5329E68CD1B8B61F16D63A1B8E092D294B10C78C4A48EB593D192E7DED9BDEE7995E1B91FDEDD3ACEA9FE831
310
6A756F9F7D4D79F4274C90A7A04248AA51D5F8C718DAE06FB2F75AC4796EBE65D22A88A22223B995679120E2D50E41AA49C260C046A35368846B0BECD0DFF3EBEB8AD4F835768F69B9ADF25C43D30E6B646F807FAA64AD59F61715C7A54127C4AACA98BA3006A9D792DAE165E0D59B61A01FB3A9F9D838D2DAE62445C86166
310
F37564E842E7DE6A69879FEEA2DD5AE7E371E1A5E025154AC307D06A03D73EB5978C58FFA4C8E9033066E0F3BD53BEC1F39F91BE7B55103791EDE6BBB991A2046172CB4581D8B893FA674DDA17A77B3B7C413D1B511FD2743BFF8A38F03A658705E3ADF8015C3A3417FF3D7E439FF591DA0B5F18BC20C1B8981957AE6392A3
310
F43C640C01D1A0B4728E2DD4F26DB4B3C3152A252A3B4E913CEC1C72F012782FF88EFF8637AA552DBEF76408E8A8DE9E50F9E1CB3A2DA0DB1B6039A893B56063DC5B3E3FFB5F72E67AB9FEB4AEC496C4F4C1149625DD662C53E89D7BF0F6151A046260D1337DFDC94502430F83B0EE07A130A224BCAD7DAE1D9FB6CD422FF6
310
920702629C4BB9AE79C12F243C6432A6794E18E5552BA56B431AAB5D91317302B2B071E86C3A42B1A02F999E24061403B5D0EB639195DA655DD3EBEAB4FB862DDF579F014AD0E73C22F99E28DA57FB98E75C6CA2D74D53086D600F4786E0FE3144B771A8A7B900F03594DB8A633CBC49B2EDB69228BB479CF863B5E807AAAB
310
23872F6DFEB4129B949CA33823F58830E86D65621E10047D9DB34D862E8EAC3C2ABC2F7B2C40D67CDFE01F5545B92105AF983AC54D93D69E56FB8E797F88913F898A9FEC705D3F9D1B54EC8426FB500D40A03BD0119B06E1B95DDC7EB8F6975367793EBD70E66733DFB9BC982F9CE564727731999F5D4ECFCE3B8D6A4DC2A0
310
6D50FD148437D110834A64C6CDDF57FBACB5C307A2A477DFE4939736CFEF2B175371E0E10CF0DD1D5C15654E0BCA14D1E87DD02FF93782A162C0A3D95F1524A52770F972BF1EE9809D13CE7DD599467F8ECE9ADD85CE85A34CD45355448C64F9E8A031DC2D596ACC6E5DD93D9B82DE2EF5CAF81363A8E47996A0DE24564A79
310
4115AACE09C55E14540231FDA13C319787134EBF34E3A022514E5B4D9E0826E25C02D5805B15ABE1BEF51B26383D445DD9E875EE33FE4C22DA16427D65A3BCA92CA6D28DD01DF5DC53330704308475351050232CCD31583787BA75774AFB06E5070DD0C8EF484E19968C5D83BA5B90B244D31E54D55A372320FE4786B7EA58
310
44E135AA5467CB7EA333A61683CC6A8C3257034C10CF46F40EF9F5BE59BE5BD30C3C72D235E95D10345C1D45445A5F0BB47E46A5EBE5570F9380B5FA629579952296A773720405982B9DE04011506178964401AA8BDF1FBF0A8EAB6861DD6580C0E38217056766716DAEB2D6FA0917D3E4116581EADB879C4E7CFFB11EFACD
310
3D641311495D92C8676CB409A72D18610D803CE8A626049E8EC1887CB5B44CC39883690DDA8399B4B9855B481E7D71D4A9D22F96E5BB73BF5793020C02137BF837504B0304140006080000CC70623B000000000000000000000000350000006662782F36394639363044362D344446342D343946362D394244322D32343142
310
43333846323333332F76657274696365732E62696E504B0304140006080800CC70623BF270F1330600000004000000360000006662782F36394639363044362D344446342D343946362D394244322D3234314243333846323333332F747269616E676C65732E62696E636660600000504B0304140006080000CC70623B0000
310
00000000000000000000370000006662782F36394639363044362D344446342D343946362D394244322D3234314243333846323333332F617474726962757465732E62696E504B0304140006080800CC70623B08DA0BD19000000041010000360000006662782F36394639363044362D344446342D343946362D394244322D
310
3234314243333846323333332F6469726563746F72792E786D6C858F410AC3201045AF22B36F53E9A60B35CBEEBAE80D244E44489C6234F4F835464A48035D0DF398FF9F8AF63D0E6CC63039F212F8F9020C7D47C6792B21C5FE7403D62A1188E2E60C98D7234A5830286103A55745067B9D86B8A3CF9C7F90C11DE607FB14
310
4396D7B6A82D282E9A152AD114D5EF2CB866EEE831B8EEA07A7BB5A8D7D61A2BAAEB7FD5F70921FF497D00504B0304140006080800CC70623BCA768048FE000000A00100003B0000006662782F36394639363044362D344446342D343946362D394244322D3234314243333846323333332F7265736F75726365732F636F72
310
652E786D6C8D50596E833010BD0A9ADFCA60D600328E9AA639412F609909B1126CE4A5EAF16B0295DABFFECC8CDEA2797AECF8353F924FB44E193D409E5248504B332A3D0D10FC95B4901C39B3C6F85F3248B49871801506CE266BC2B243D2688FDA47549B11775038871E12F988C7004EDE7016A9083E2ADC3D5D84BC8B09
310
D33C8D74D471E6BC8D0192EDC93A815B742658898E651BCB59086ADC356A8C3FD555A1055ED7E7E254D615792D0F075295F585746FF53B694EE78A565DD736979A65AB9933AFE69F8CD2A2F038022F28ED489E135A7CE4554F9BBEA85E68DB53CAB255FEC71496F19FA6A0B42F8B3DEE6673C0F318E4497096AD7DC5F52C33
310
EEB55BFE0D504B010214000A0000080000CC70623B3DEE336E79000000790000001B00000000000000000000000000000000006175746F6465736B2D64657369676E2D7061636B6167652E786D6C504B01021400140006080800CC70623BD486FD9CA0000000F40000001300000000000000000000000000B20000005B436F
310
6E74656E745F54797065735D2E786D6C504B01021400140006080800CC70623BD9DDAED0EC0000007C010000080000000000000000000000000083010000636F72652E786D6C504B01021400140006080800CC70623B55019EA25F0000007C000000070000000000000000000000000095020000636E782E786D6C504B0102
310
1400140006080800CC70623BA24EB22D72010000D40300000C00000000000000000000000000190300006662782F636F72652E786D6C504B01021400140006080800CC70623B408A7D3B7C0000009D0000000B00000000000000000000000000B50400006662782F636E782E786D6C504B01021400140006080800CC70623B
310
449FB9BD290100001202000031000000000000000000000000005A0500006662782F36394639363044362D344446342D343946362D394244322D3234314243333846323333332F636F72652E786D6C504B01021400140006080800CC70623BAD7543B64E010000330300003000000000000000000000000000D20600006662
310
782F36394639363044362D344446342D343946362D394244322D3234314243333846323333332F636E782E786D6C504B01021400140006080800CC70623B8D05915C650500003B10000034000000000000000000000000006E0800006662782F36394639363044362D344446342D343946362D394244322D32343142433338
310
46323333332F6F626A656374732E786D6C504B01021400140006080000CC70623B0000000000000000000000003500000000000000000000000000250E00006662782F36394639363044362D344446342D343946362D394244322D3234314243333846323333332F76657274696365732E62696E504B010214001400060808
310
00CC70623BF270F13306000000040000003600000000000000000000000000780E00006662782F36394639363044362D344446342D343946362D394244322D3234314243333846323333332F747269616E676C65732E62696E504B01021400140006080000CC70623B00000000000000000000000037000000000000000000
310
00000000D20E00006662782F36394639363044362D344446342D343946362D394244322D3234314243333846323333332F617474726962757465732E62696E504B01021400140006080800CC70623B08DA0BD190000000410100003600000000000000000000000000270F00006662782F36394639363044362D344446342D
310
343946362D394244322D3234314243333846323333332F6469726563746F72792E786D6C504B01021400140006080800CC70623BCA768048FE000000A00100003B000000000000000000000000000B1000006662782F36394639363044362D344446342D343946362D394244322D3234314243333846323333332F7265736F
310
75726365732F636F72652E786D6C504B0506000000000E000E0080040000621100000000
  0
XRECORD
  5
176
102
{ACAD_REACTORS
330
173
102
}
330
173
100
AcDbXrecord
280
     1
270
     1
271
     1
  0
XRECORD
  5
177
102
{ACAD_REACTORS
330
173
102
}
330
173
100
AcDbXrecord
280
     1
270
     1
271
     1
  0
XRECORD
  5
9583
102
{ACAD_REACTORS
330
9582
102
}
330
9582
100
AcDbXrecord
280
     1
102
ACAD_ROUNDTRIP_2012_MLEADER_STYLE
298
     1
  0
XRECORD
  5
9595
102
{ACAD_REACTORS
330
9594
102
}
330
9594
100
AcDbXrecord
280
     1
102
DISPLAYNAME
  1
Metric50
102
FLAGS
 90
        0
  0
CELLSTYLEMAP
  5
9555
102
{ACAD_REACTORS
330
162
102
}
330
162
100
AcDbCellStyleMap
 90
        3
300
CELLSTYLE
  1
TABLEFORMAT_BEGIN
 90
        5
170
     1
 91
        0
 92
    32768
 62
   257
 93
        1
300
CONTENTFORMAT
  1
CONTENTFORMAT_BEGIN
 90
        0
 91
        0
 92
      512
 93
        0
300

 40
0.0
140
1.0
 94
        5
 62
     0
340
11
144
6.0
309
CONTENTFORMAT_END
171
     1
301
MARGIN
  1
CELLMARGIN_BEGIN
 40
1.5
 40
1.5
 40
1.5
 40
1.5
 40
4.5
 40
4.5
309
CELLMARGIN_END
 94
        6
 95
        1
302
GRIDFORMAT
  1
GRIDFORMAT_BEGIN
 90
        0
 91
        1
 62
     0
 92
       -2
340
14
 93
        0
 40
1.125
309
GRIDFORMAT_END
 95
        2
302
GRIDFORMAT
  1
GRIDFORMAT_BEGIN
 90
        0
 91
        1
 62
     0
 92
       -2
340
14
 93
        0
 40
1.125
309
GRIDFORMAT_END
 95
        4
302
GRIDFORMAT
  1
GRIDFORMAT_BEGIN
 90
        0
 91
        1
 62
     0
 92
       -2
340
14
 93
        0
 40
1.125
309
GRIDFORMAT_END
 95
        8
302
GRIDFORMAT
  1
GRIDFORMAT_BEGIN
 90
        0
 91
        1
 62
     0
 92
       -2
340
14
 93
        0
 40
1.125
309
GRIDFORMAT_END
 95
       16
302
GRIDFORMAT
  1
GRIDFORMAT_BEGIN
 90
        0
 91
        1
 62
     0
 92
       -2
340
14
 93
        0
 40
1.125
309
GRIDFORMAT_END
 95
       32
302
GRIDFORMAT
  1
GRIDFORMAT_BEGIN
 90
        0
 91
        1
 62
     0
 92
       -2
340
14
 93
        0
 40
1.125
309
GRIDFORMAT_END
309
TABLEFORMAT_END
  1
CELLSTYLE_BEGIN
 90
        1
 91
        1
300
_TITLE
309
CELLSTYLE_END
300
CELLSTYLE
  1
TABLEFORMAT_BEGIN
 90
        5
170
     1
 91
        0
 92
        0
 62
   257
 93
        1
300
CONTENTFORMAT
  1
CONTENTFORMAT_BEGIN
 90
        0
 91
        0
 92
      512
 93
        0
300

 40
0.0
140
1.0
 94
        5
 62
     0
340
11
144
4.5
309
CONTENTFORMAT_END
171
     1
301
MARGIN
  1
CELLMARGIN_BEGIN
 40
1.5
 40
1.5
 40
1.5
 40
1.5
 40
4.5
 40
4.5
309
CELLMARGIN_END
 94
        6
 95
        1
302
GRIDFORMAT
  1
GRIDFORMAT_BEGIN
 90
        0
 91
        1
 62
     0
 92
       -2
340
14
 93
        0
 40
1.125
309
GRIDFORMAT_END
 95
        2
302
GRIDFORMAT
  1
GRIDFORMAT_BEGIN
 90
        0
 91
        1
 62
     0
 92
       -2
340
14
 93
        0
 40
1.125
309
GRIDFORMAT_END
 95
        4
302
GRIDFORMAT
  1
GRIDFORMAT_BEGIN
 90
        0
 91
        1
 62
     0
 92
       -2
340
14
 93
        0
 40
1.125
309
GRIDFORMAT_END
 95
        8
302
GRIDFORMAT
  1
GRIDFORMAT_BEGIN
 90
        0
 91
        1
 62
     0
 92
       -2
340
14
 93
        0
 40
1.125
309
GRIDFORMAT_END
 95
       16
302
GRIDFORMAT
  1
GRIDFORMAT_BEGIN
 90
        0
 91
        1
 62
     0
 92
       -2
340
14
 93
        0
 40
1.125
309
GRIDFORMAT_END
 95
       32
302
GRIDFORMAT
  1
GRIDFORMAT_BEGIN
 90
        0
 91
        1
 62
     0
 92
       -2
340
14
 93
        0
 40
1.125
309
GRIDFORMAT_END
309
TABLEFORMAT_END
  1
CELLSTYLE_BEGIN
 90
        2
 91
        1
300
_HEADER
309
CELLSTYLE_END
300
CELLSTYLE
  1
TABLEFORMAT_BEGIN
 90
        5
170
     1
 91
        0
 92
        0
 62
   257
 93
        1
300
CONTENTFORMAT
  1
CONTENTFORMAT_BEGIN
 90
        0
 91
        0
 92
      512
 93
        0
300

 40
0.0
140
1.0
 94
        2
 62
     0
340
11
144
4.5
309
CONTENTFORMAT_END
171
     1
301
MARGIN
  1
CELLMARGIN_BEGIN
 40
1.5
 40
1.5
 40
1.5
 40
1.5
 40
4.5
 40
4.5
309
CELLMARGIN_END
 94
        6
 95
        1
302
GRIDFORMAT
  1
GRIDFORMAT_BEGIN
 90
        0
 91
        1
 62
     0
 92
       -2
340
14
 93
        0
 40
1.125
309
GRIDFORMAT_END
 95
        2
302
GRIDFORMAT
  1
GRIDFORMAT_BEGIN
 90
        0
 91
        1
 62
     0
 92
       -2
340
14
 93
        0
 40
1.125
309
GRIDFORMAT_END
 95
        4
302
GRIDFORMAT
  1
GRIDFORMAT_BEGIN
 90
        0
 91
        1
 62
     0
 92
       -2
340
14
 93
        0
 40
1.125
309
GRIDFORMAT_END
 95
        8
302
GRIDFORMAT
  1
GRIDFORMAT_BEGIN
 90
        0
 91
        1
 62
     0
 92
       -2
340
14
 93
        0
 40
1.125
309
GRIDFORMAT_END
 95
       16
302
GRIDFORMAT
  1
GRIDFORMAT_BEGIN
 90
        0
 91
        1
 62
     0
 92
       -2
340
14
 93
        0
 40
1.125
309
GRIDFORMAT_END
 95
       32
302
GRIDFORMAT
  1
GRIDFORMAT_BEGIN
 90
        0
 91
        1
 62
     0
 92
       -2
340
14
 93
        0
 40
1.125
309
GRIDFORMAT_END
309
TABLEFORMAT_END
  1
CELLSTYLE_BEGIN
 90
        3
 91
        2
300
_DATA
309
CELLSTYLE_END
  0
XRECORD
  5
955A
102
{ACAD_REACTORS
330
162
102
}
330
162
100
AcDbXrecord
280
     1
102
ACAD_ROUNDTRIP_PRE2007_TABLESTYLE
 90
      512
 91
        0
  1

 92
      512
 93
        0
  2

 94
      512
 95
        0
  3

  0
XRECORD
  5
956D
102
{ACAD_REACTORS
330
956C
102
}
330
956C
100
AcDbXrecord
280
     1
102
RTVSPost2010Prop28
280
     1
102
RTVSPost2010PropOp28
 70
     1
102
RTVSPost2010Prop29
280
     1
102
RTVSPost2010PropOp29
 70
     1
102
RTVSPost2010Prop30
280
     0
102
RTVSPost2010PropOp30
 70
     1
102
RTVSPost2010Prop31
280
     0
102
RTVSPost2010PropOp31
 70
     1
102
RTVSPost2010Prop32
280
     0
102
RTVSPost2010PropOp32
 70
     1
102
RTVSPost2010Prop33
280
     0
102
RTVSPost2010PropOp33
 70
     1
102
RTVSPost2010Prop34
280
     0
102
RTVSPost2010PropOp34
 70
     1
102
RTVSPost2010Prop35
280
     0
102
RTVSPost2010PropOp35
 70
     1
102
RTVSPost2010Prop36
280
     0
102
RTVSPost2010PropOp36
 70
     1
102
RTVSPost2010Prop37
 90
       50
102
RTVSPost2010PropOp37
 70
     1
102
RTVSPost2010Prop38
140
0.0
102
RTVSPost2010PropOp38
 70
     1
102
RTVSPost2010Prop39
140
1.0
102
RTVSPost2010PropOp39
 70
     1
102
RTVSPost2010Prop40
 90
        0
102
RTVSPost2010PropOp40
 70
     1
102
RTVSPost2010Prop41ColorIndex
 90
       18
102
RTVSPost2010Prop41ColorRGB
 90
        0
102
RTVSPost2010PropOp41
 70
     1
102
RTVSPost2010Prop42
 90
       50
102
RTVSPost2010PropOp42
 70
     1
102
RTVSPost2010Prop43
 90
        3
102
RTVSPost2010PropOp43
 70
     1
102
RTVSPost2010Prop44ColorIndex
 90
        5
102
RTVSPost2010Prop44ColorRGB
 90
      255
102
RTVSPost2010PropOp44
 70
     1
102
RTVSPost2010Prop45
280
     0
102
RTVSPost2010PropOp45
 70
     1
102
RTVSPost2010Prop46
 90
       50
102
RTVSPost2010PropOp46
 70
     1
102
RTVSPost2010Prop47
 90
       50
102
RTVSPost2010PropOp47
 70
     1
102
RTVSPost2010Prop48
 90
       50
102
RTVSPost2010PropOp48
 70
     1
102
RTVSPost2010Prop49
280
     0
102
RTVSPost2010PropOp49
 70
     1
102
RTVSPost2010Prop50
 90
       50
102
RTVSPost2010PropOp50
 70
     1
102
RTVSPost2010Prop51ColorIndex
 90
      256
102
RTVSPost2010Prop51ColorRGB
 90
-16777216
102
RTVSPost2010PropOp51
 70
     0
102
RTVSPost2010Prop52
140
1.0
102
RTVSPost2010PropOp52
 70
     0
102
RTVSPost2010Prop53
 90
        2
102
RTVSPost2010PropOp53
 70
     1
102
RTVSPost2010Prop54
  1
strokes_ogs.tif
102
RTVSPost2010PropOp54
 70
     1
102
RTVSPost2010Prop55
280
     0
102
RTVSPost2010PropOp55
 70
     1
102
RTVSPost2010Prop56
140
1.0
102
RTVSPost2010PropOp56
 70
     1
102
RTVSPost2010Prop57
140
1.0
102
RTVSPost2010PropOp57
 70
     1
102
RTVSPropertyOp0
 70
     1
102
RTVSPropertyOp1
 70
     1
102
RTVSPropertyOp2
 70
     1
102
RTVSPropertyOp3
 70
     1
102
RTVSPropertyOp4
 70
     1
102
RTVSPropertyOp5
 70
     1
102
RTVSPropertyOp6
 70
     1
102
RTVSPropertyOp7
 70
     1
102
RTVSPropertyOp8
 70
     1
102
RTVSPropertyOp9
 70
     1
102
RTVSPropertyOp10
 70
     1
102
RTVSPropertyOp11
 70
     1
102
RTVSPropertyOp12
 70
     1
102
RTVSPropertyOp13
 70
     1
102
RTVSPropertyOp14
 70
     1
102
RTVSPropertyOp15
 70
     1
102
RTVSPropertyOp16
 70
     1
102
RTVSPropertyOp17
 70
     1
102
RTVSPropertyOp18
 70
     1
102
RTVSPropertyOp19
 70
     1
102
RTVSPropertyOp20
 70
     1
102
RTVSPropertyOp21
 70
     1
102
RTVSPropertyOp22
 70
     1
102
RTVSPropertyOp23
 70
     1
102
RTVSPropertyOp24
 70
     1
102
RTVSPropertyOp25
 70
     1
102
RTVSPropertyOp26
 70
     1
102
RTVSPropertyOp27
 70
     1
102
RTVSPropertyOp28
 70
     1
102
RTVSPropertyOp29
 70
     1
102
RTVSPropertyOp30
 70
     1
102
RTVSPropertyOp31
 70
     1
102
RTVSPropertyOp32
 70
     1
102
RTVSPropertyOp33
 70
     1
102
RTVSPropertyOp34
 70
     1
102
RTVSPropertyOp35
 70
     1
102
RTVSPropertyOp36
 70
     1
102
RTVSPropertyOp37
 70
     1
102
RTVSPropertyOp38
 70
     1
102
RTVSPropertyOp39
 70
     1
102
RTVSPropertyOp40
 70
     1
102
RTVSPropertyOp41
 70
     1
102
RTVSPropertyOp42
 70
     1
102
RTVSPropertyOp43
 70
     1
102
RTVSPropertyOp44
 70
     1
102
RTVSPropertyOp45
 70
     1
102
RTVSPropertyOp46
 70
     1
102
RTVSPropertyOp47
 70
     1
102
RTVSPropertyOp48
 70
     1
102
RTVSPropertyOp49
 70
     1
102
RTVSPropertyOp50
 70
     1
102
RTVSPropertyOp51
 70
     0
102
RTVSPropertyOp52
 70
     0
102
RTVSPropertyOp53
 70
     1
102
RTVSPropertyOp54
 70
     1
102
RTVSPropertyOp55
 70
     1
102
RTVSPropertyOp56
 70
     1
102
RTVSPropertyOp57
 70
     1
102
RTVSPropertyOp58
 70
     1
102
RTVSPropertyOp59
 70
     1
102
RTVSPropertyOp60
 70
     1
102
RTVSPropertyOp61
 70
     1
102
RTVSPropertyOp62
 70
     1
  0
XRECORD
  5
956B
102
{ACAD_REACTORS
330
956A
102
}
330
956A
100
AcDbXrecord
280
     1
102
RTVSPost2010Prop28
280
     0
102
RTVSPost2010PropOp28
 70
     1
102
RTVSPost2010Prop29
280
     1
102
RTVSPost2010PropOp29
 70
     1
102
RTVSPost2010Prop30
280
     1
102
RTVSPost2010PropOp30
 70
     1
102
RTVSPost2010Prop31
280
     0
102
RTVSPost2010PropOp31
 70
     1
102
RTVSPost2010Prop32
280
     0
102
RTVSPost2010PropOp32
 70
     1
102
RTVSPost2010Prop33
280
     0
102
RTVSPost2010PropOp33
 70
     1
102
RTVSPost2010Prop34
280
     0
102
RTVSPost2010PropOp34
 70
     1
102
RTVSPost2010Prop35
280
     0
102
RTVSPost2010PropOp35
 70
     1
102
RTVSPost2010Prop36
280
     0
102
RTVSPost2010PropOp36
 70
     1
102
RTVSPost2010Prop37
 90
       50
102
RTVSPost2010PropOp37
 70
     1
102
RTVSPost2010Prop38
140
0.0
102
RTVSPost2010PropOp38
 70
     1
102
RTVSPost2010Prop39
140
1.0
102
RTVSPost2010PropOp39
 70
     1
102
RTVSPost2010Prop40
 90
        0
102
RTVSPost2010PropOp40
 70
     1
102
RTVSPost2010Prop41ColorIndex
 90
       18
102
RTVSPost2010Prop41ColorRGB
 90
        0
102
RTVSPost2010PropOp41
 70
     1
102
RTVSPost2010Prop42
 90
       50
102
RTVSPost2010PropOp42
 70
     1
102
RTVSPost2010Prop43
 90
        3
102
RTVSPost2010PropOp43
 70
     1
102
RTVSPost2010Prop44ColorIndex
 90
        5
102
RTVSPost2010Prop44ColorRGB
 90
      255
102
RTVSPost2010PropOp44
 70
     1
102
RTVSPost2010Prop45
280
     0
102
RTVSPost2010PropOp45
 70
     1
102
RTVSPost2010Prop46
 90
       50
102
RTVSPost2010PropOp46
 70
     1
102
RTVSPost2010Prop47
 90
       50
102
RTVSPost2010PropOp47
 70
     1
102
RTVSPost2010Prop48
 90
       50
102
RTVSPost2010PropOp48
 70
     1
102
RTVSPost2010Prop49
280
     0
102
RTVSPost2010PropOp49
 70
     1
102
RTVSPost2010Prop50
 90
       50
102
RTVSPost2010PropOp50
 70
     1
102
RTVSPost2010Prop51ColorIndex
 90
      256
102
RTVSPost2010Prop51ColorRGB
 90
-16777216
102
RTVSPost2010PropOp51
 70
     0
102
RTVSPost2010Prop52
140
1.0
102
RTVSPost2010PropOp52
 70
     0
102
RTVSPost2010Prop53
 90
        2
102
RTVSPost2010PropOp53
 70
     1
102
RTVSPost2010Prop54
  1
strokes_ogs.tif
102
RTVSPost2010PropOp54
 70
     1
102
RTVSPost2010Prop55
280
     0
102
RTVSPost2010PropOp55
 70
     1
102
RTVSPost2010Prop56
140
1.0
102
RTVSPost2010PropOp56
 70
     1
102
RTVSPost2010Prop57
140
1.0
102
RTVSPost2010PropOp57
 70
     1
102
RTVSPropertyOp0
 70
     1
102
RTVSPropertyOp1
 70
     1
102
RTVSPropertyOp2
 70
     1
102
RTVSPropertyOp3
 70
     1
102
RTVSPropertyOp4
 70
     1
102
RTVSPropertyOp5
 70
     1
102
RTVSPropertyOp6
 70
     1
102
RTVSPropertyOp7
 70
     1
102
RTVSPropertyOp8
 70
     1
102
RTVSPropertyOp9
 70
     1
102
RTVSPropertyOp10
 70
     1
102
RTVSPropertyOp11
 70
     1
102
RTVSPropertyOp12
 70
     1
102
RTVSPropertyOp13
 70
     1
102
RTVSPropertyOp14
 70
     1
102
RTVSPropertyOp15
 70
     1
102
RTVSPropertyOp16
 70
     1
102
RTVSPropertyOp17
 70
     1
102
RTVSPropertyOp18
 70
     1
102
RTVSPropertyOp19
 70
     1
102
RTVSPropertyOp20
 70
     1
102
RTVSPropertyOp21
 70
     1
102
RTVSPropertyOp22
 70
     1
102
RTVSPropertyOp23
 70
     1
102
RTVSPropertyOp24
 70
     1
102
RTVSPropertyOp25
 70
     1
102
RTVSPropertyOp26
 70
     1
102
RTVSPropertyOp27
 70
     1
102
RTVSPropertyOp28
 70
     1
102
RTVSPropertyOp29
 70
     1
102
RTVSPropertyOp30
 70
     1
102
RTVSPropertyOp31
 70
     1
102
RTVSPropertyOp32
 70
     1
102
RTVSPropertyOp33
 70
     1
102
RTVSPropertyOp34
 70
     1
102
RTVSPropertyOp35
 70
     1
102
RTVSPropertyOp36
 70
     1
102
RTVSPropertyOp37
 70
     1
102
RTVSPropertyOp38
 70
     1
102
RTVSPropertyOp39
 70
     1
102
RTVSPropertyOp40
 70
     1
102
RTVSPropertyOp41
 70
     1
102
RTVSPropertyOp42
 70
     1
102
RTVSPropertyOp43
 70
     1
102
RTVSPropertyOp44
 70
     1
102
RTVSPropertyOp45
 70
     1
102
RTVSPropertyOp46
 70
     1
102
RTVSPropertyOp47
 70
     1
102
RTVSPropertyOp48
 70
     1
102
RTVSPropertyOp49
 70
     1
102
RTVSPropertyOp50
 70
     1
102
RTVSPropertyOp51
 70
     0
102
RTVSPropertyOp52
 70
     0
102
RTVSPropertyOp53
 70
     1
102
RTVSPropertyOp54
 70
     1
102
RTVSPropertyOp55
 70
     1
102
RTVSPropertyOp56
 70
     1
102
RTVSPropertyOp57
 70
     1
102
RTVSPropertyOp58
 70
     1
102
RTVSPropertyOp59
 70
     1
102
RTVSPropertyOp60
 70
     1
102
RTVSPropertyOp61
 70
     1
102
RTVSPropertyOp62
 70
     1
  0
XRECORD
  5
9579
102
{ACAD_REACTORS
330
9578
102
}
330
9578
100
AcDbXrecord
280
     1
102
RTVSPost2010Prop28
280
     0
102
RTVSPost2010PropOp28
 70
     1
102
RTVSPost2010Prop29
280
     1
102
RTVSPost2010PropOp29
 70
     1
102
RTVSPost2010Prop30
280
     1
102
RTVSPost2010PropOp30
 70
     1
102
RTVSPost2010Prop31
280
     0
102
RTVSPost2010PropOp31
 70
     1
102
RTVSPost2010Prop32
280
     0
102
RTVSPost2010PropOp32
 70
     1
102
RTVSPost2010Prop33
280
     0
102
RTVSPost2010PropOp33
 70
     1
102
RTVSPost2010Prop34
280
     0
102
RTVSPost2010PropOp34
 70
     1
102
RTVSPost2010Prop35
280
     0
102
RTVSPost2010PropOp35
 70
     1
102
RTVSPost2010Prop36
280
     0
102
RTVSPost2010PropOp36
 70
     1
102
RTVSPost2010Prop37
 90
       50
102
RTVSPost2010PropOp37
 70
     1
102
RTVSPost2010Prop38
140
0.0
102
RTVSPost2010PropOp38
 70
     1
102
RTVSPost2010Prop39
140
1.0
102
RTVSPost2010PropOp39
 70
     1
102
RTVSPost2010Prop40
 90
        0
102
RTVSPost2010PropOp40
 70
     1
102
RTVSPost2010Prop41ColorIndex
 90
       18
102
RTVSPost2010Prop41ColorRGB
 90
        0
102
RTVSPost2010PropOp41
 70
     1
102
RTVSPost2010Prop42
 90
       50
102
RTVSPost2010PropOp42
 70
     1
102
RTVSPost2010Prop43
 90
        3
102
RTVSPost2010PropOp43
 70
     1
102
RTVSPost2010Prop44ColorIndex
 90
        5
102
RTVSPost2010Prop44ColorRGB
 90
      255
102
RTVSPost2010PropOp44
 70
     1
102
RTVSPost2010Prop45
280
     0
102
RTVSPost2010PropOp45
 70
     1
102
RTVSPost2010Prop46
 90
       50
102
RTVSPost2010PropOp46
 70
     1
102
RTVSPost2010Prop47
 90
       50
102
RTVSPost2010PropOp47
 70
     1
102
RTVSPost2010Prop48
 90
       50
102
RTVSPost2010PropOp48
 70
     1
102
RTVSPost2010Prop49
280
     0
102
RTVSPost2010PropOp49
 70
     1
102
RTVSPost2010Prop50
 90
       50
102
RTVSPost2010PropOp50
 70
     1
102
RTVSPost2010Prop51ColorIndex
 90
      256
102
RTVSPost2010Prop51ColorRGB
 90
-16777216
102
RTVSPost2010PropOp51
 70
     0
102
RTVSPost2010Prop52
140
1.0
102
RTVSPost2010PropOp52
 70
     0
102
RTVSPost2010Prop53
 90
        2
102
RTVSPost2010PropOp53
 70
     1
102
RTVSPost2010Prop54
  1
strokes_ogs.tif
102
RTVSPost2010PropOp54
 70
     1
102
RTVSPost2010Prop55
280
     0
102
RTVSPost2010PropOp55
 70
     1
102
RTVSPost2010Prop56
140
1.0
102
RTVSPost2010PropOp56
 70
     1
102
RTVSPost2010Prop57
140
1.0
102
RTVSPost2010PropOp57
 70
     1
102
RTVSPropertyOp0
 70
     1
102
RTVSPropertyOp1
 70
     1
102
RTVSPropertyOp2
 70
     1
102
RTVSPropertyOp3
 70
     1
102
RTVSPropertyOp4
 70
     1
102
RTVSPropertyOp5
 70
     1
102
RTVSPropertyOp6
 70
     1
102
RTVSPropertyOp7
 70
     1
102
RTVSPropertyOp8
 70
     1
102
RTVSPropertyOp9
 70
     1
102
RTVSPropertyOp10
 70
     1
102
RTVSPropertyOp11
 70
     1
102
RTVSPropertyOp12
 70
     1
102
RTVSPropertyOp13
 70
     1
102
RTVSPropertyOp14
 70
     1
102
RTVSPropertyOp15
 70
     1
102
RTVSPropertyOp16
 70
     1
102
RTVSPropertyOp17
 70
     1
102
RTVSPropertyOp18
 70
     1
102
RTVSPropertyOp19
 70
     1
102
RTVSPropertyOp20
 70
     1
102
RTVSPropertyOp21
 70
     1
102
RTVSPropertyOp22
 70
     1
102
RTVSPropertyOp23
 70
     1
102
RTVSPropertyOp24
 70
     1
102
RTVSPropertyOp25
 70
     1
102
RTVSPropertyOp26
 70
     1
102
RTVSPropertyOp27
 70
     1
102
RTVSPropertyOp28
 70
     1
102
RTVSPropertyOp29
 70
     1
102
RTVSPropertyOp30
 70
     1
102
RTVSPropertyOp31
 70
     1
102
RTVSPropertyOp32
 70
     1
102
RTVSPropertyOp33
 70
     1
102
RTVSPropertyOp34
 70
     1
102
RTVSPropertyOp35
 70
     1
102
RTVSPropertyOp36
 70
     1
102
RTVSPropertyOp37
 70
     1
102
RTVSPropertyOp38
 70
     1
102
RTVSPropertyOp39
 70
     1
102
RTVSPropertyOp40
 70
     1
102
RTVSPropertyOp41
 70
     1
102
RTVSPropertyOp42
 70
     1
102
RTVSPropertyOp43
 70
     1
102
RTVSPropertyOp44
 70
     1
102
RTVSPropertyOp45
 70
     1
102
RTVSPropertyOp46
 70
     1
102
RTVSPropertyOp47
 70
     1
102
RTVSPropertyOp48
 70
     1
102
RTVSPropertyOp49
 70
     1
102
RTVSPropertyOp50
 70
     1
102
RTVSPropertyOp51
 70
     0
102
RTVSPropertyOp52
 70
     0
102
RTVSPropertyOp53
 70
     1
102
RTVSPropertyOp54
 70
     1
102
RTVSPropertyOp55
 70
     1
102
RTVSPropertyOp56
 70
     1
102
RTVSPropertyOp57
 70
     1
102
RTVSPropertyOp58
 70
     1
102
RTVSPropertyOp59
 70
     1
102
RTVSPropertyOp60
 70
     1
102
RTVSPropertyOp61
 70
     1
102
RTVSPropertyOp62
 70
     1
  0
XRECORD
  5
9581
102
{ACAD_REACTORS
330
9580
102
}
330
9580
100
AcDbXrecord
280
     1
102
RTVSPost2010Prop28
280
     0
102
RTVSPost2010PropOp28
 70
     1
102
RTVSPost2010Prop29
280
     1
102
RTVSPost2010PropOp29
 70
     1
102
RTVSPost2010Prop30
280
     1
102
RTVSPost2010PropOp30
 70
     1
102
RTVSPost2010Prop31
280
     0
102
RTVSPost2010PropOp31
 70
     1
102
RTVSPost2010Prop32
280
     0
102
RTVSPost2010PropOp32
 70
     1
102
RTVSPost2010Prop33
280
     0
102
RTVSPost2010PropOp33
 70
     1
102
RTVSPost2010Prop34
280
     0
102
RTVSPost2010PropOp34
 70
     1
102
RTVSPost2010Prop35
280
     0
102
RTVSPost2010PropOp35
 70
     1
102
RTVSPost2010Prop36
280
     0
102
RTVSPost2010PropOp36
 70
     1
102
RTVSPost2010Prop37
 90
       50
102
RTVSPost2010PropOp37
 70
     1
102
RTVSPost2010Prop38
140
0.0
102
RTVSPost2010PropOp38
 70
     1
102
RTVSPost2010Prop39
140
1.0
102
RTVSPost2010PropOp39
 70
     1
102
RTVSPost2010Prop40
 90
        0
102
RTVSPost2010PropOp40
 70
     1
102
RTVSPost2010Prop41ColorIndex
 90
       18
102
RTVSPost2010Prop41ColorRGB
 90
        0
102
RTVSPost2010PropOp41
 70
     1
102
RTVSPost2010Prop42
 90
       50
102
RTVSPost2010PropOp42
 70
     1
102
RTVSPost2010Prop43
 90
        3
102
RTVSPost2010PropOp43
 70
     1
102
RTVSPost2010Prop44ColorIndex
 90
        5
102
RTVSPost2010Prop44ColorRGB
 90
      255
102
RTVSPost2010PropOp44
 70
     1
102
RTVSPost2010Prop45
280
     0
102
RTVSPost2010PropOp45
 70
     1
102
RTVSPost2010Prop46
 90
       50
102
RTVSPost2010PropOp46
 70
     1
102
RTVSPost2010Prop47
 90
       50
102
RTVSPost2010PropOp47
 70
     1
102
RTVSPost2010Prop48
 90
       50
102
RTVSPost2010PropOp48
 70
     1
102
RTVSPost2010Prop49
280
     0
102
RTVSPost2010PropOp49
 70
     1
102
RTVSPost2010Prop50
 90
       50
102
RTVSPost2010PropOp50
 70
     1
102
RTVSPost2010Prop51ColorIndex
 90
      256
102
RTVSPost2010Prop51ColorRGB
 90
-16777216
102
RTVSPost2010PropOp51
 70
     0
102
RTVSPost2010Prop52
140
1.0
102
RTVSPost2010PropOp52
 70
     0
102
RTVSPost2010Prop53
 90
        2
102
RTVSPost2010PropOp53
 70
     1
102
RTVSPost2010Prop54
  1
strokes_ogs.tif
102
RTVSPost2010PropOp54
 70
     1
102
RTVSPost2010Prop55
280
     0
102
RTVSPost2010PropOp55
 70
     1
102
RTVSPost2010Prop56
140
1.0
102
RTVSPost2010PropOp56
 70
     1
102
RTVSPost2010Prop57
140
1.0
102
RTVSPost2010PropOp57
 70
     1
102
RTVSPropertyOp0
 70
     1
102
RTVSPropertyOp1
 70
     1
102
RTVSPropertyOp2
 70
     1
102
RTVSPropertyOp3
 70
     1
102
RTVSPropertyOp4
 70
     1
102
RTVSPropertyOp5
 70
     1
102
RTVSPropertyOp6
 70
     1
102
RTVSPropertyOp7
 70
     1
102
RTVSPropertyOp8
 70
     1
102
RTVSPropertyOp9
 70
     1
102
RTVSPropertyOp10
 70
     1
102
RTVSPropertyOp11
 70
     1
102
RTVSPropertyOp12
 70
     1
102
RTVSPropertyOp13
 70
     1
102
RTVSPropertyOp14
 70
     1
102
RTVSPropertyOp15
 70
     1
102
RTVSPropertyOp16
 70
     1
102
RTVSPropertyOp17
 70
     1
102
RTVSPropertyOp18
 70
     1
102
RTVSPropertyOp19
 70
     1
102
RTVSPropertyOp20
 70
     1
102
RTVSPropertyOp21
 70
     1
102
RTVSPropertyOp22
 70
     1
102
RTVSPropertyOp23
 70
     1
102
RTVSPropertyOp24
 70
     1
102
RTVSPropertyOp25
 70
     1
102
RTVSPropertyOp26
 70
     1
102
RTVSPropertyOp27
 70
     1
102
RTVSPropertyOp28
 70
     1
102
RTVSPropertyOp29
 70
     1
102
RTVSPropertyOp30
 70
     1
102
RTVSPropertyOp31
 70
     1
102
RTVSPropertyOp32
 70
     1
102
RTVSPropertyOp33
 70
     1
102
RTVSPropertyOp34
 70
     1
102
RTVSPropertyOp35
 70
     1
102
RTVSPropertyOp36
 70
     1
102
RTVSPropertyOp37
 70
     1
102
RTVSPropertyOp38
 70
     1
102
RTVSPropertyOp39
 70
     1
102
RTVSPropertyOp40
 70
     1
102
RTVSPropertyOp41
 70
     1
102
RTVSPropertyOp42
 70
     1
102
RTVSPropertyOp43
 70
     1
102
RTVSPropertyOp44
 70
     1
102
RTVSPropertyOp45
 70
     1
102
RTVSPropertyOp46
 70
     1
102
RTVSPropertyOp47
 70
     1
102
RTVSPropertyOp48
 70
     1
102
RTVSPropertyOp49
 70
     1
102
RTVSPropertyOp50
 70
     1
102
RTVSPropertyOp51
 70
     0
102
RTVSPropertyOp52
 70
     0
102
RTVSPropertyOp53
 70
     1
102
RTVSPropertyOp54
 70
     1
102
RTVSPropertyOp55
 70
     1
102
RTVSPropertyOp56
 70
     1
102
RTVSPropertyOp57
 70
     1
102
RTVSPropertyOp58
 70
     1
102
RTVSPropertyOp59
 70
     1
102
RTVSPropertyOp60
 70
     1
102
RTVSPropertyOp61
 70
     1
102
RTVSPropertyOp62
 70
     1
  0
XRECORD
  5
9573
102
{ACAD_REACTORS
330
9572
102
}
330
9572
100
AcDbXrecord
280
     1
102
RTVSPost2010Prop28
280
     0
102
RTVSPost2010PropOp28
 70
     1
102
RTVSPost2010Prop29
280
     1
102
RTVSPost2010PropOp29
 70
     1
102
RTVSPost2010Prop30
280
     1
102
RTVSPost2010PropOp30
 70
     1
102
RTVSPost2010Prop31
280
     0
102
RTVSPost2010PropOp31
 70
     1
102
RTVSPost2010Prop32
280
     0
102
RTVSPost2010PropOp32
 70
     1
102
RTVSPost2010Prop33
280
     0
102
RTVSPost2010PropOp33
 70
     1
102
RTVSPost2010Prop34
280
     0
102
RTVSPost2010PropOp34
 70
     1
102
RTVSPost2010Prop35
280
     0
102
RTVSPost2010PropOp35
 70
     1
102
RTVSPost2010Prop36
280
     0
102
RTVSPost2010PropOp36
 70
     1
102
RTVSPost2010Prop37
 90
       50
102
RTVSPost2010PropOp37
 70
     1
102
RTVSPost2010Prop38
140
0.0
102
RTVSPost2010PropOp38
 70
     1
102
RTVSPost2010Prop39
140
1.0
102
RTVSPost2010PropOp39
 70
     1
102
RTVSPost2010Prop40
 90
        0
102
RTVSPost2010PropOp40
 70
     1
102
RTVSPost2010Prop41ColorIndex
 90
       18
102
RTVSPost2010Prop41ColorRGB
 90
        0
102
RTVSPost2010PropOp41
 70
     1
102
RTVSPost2010Prop42
 90
       50
102
RTVSPost2010PropOp42
 70
     1
102
RTVSPost2010Prop43
 90
        3
102
RTVSPost2010PropOp43
 70
     1
102
RTVSPost2010Prop44ColorIndex
 90
        5
102
RTVSPost2010Prop44ColorRGB
 90
      255
102
RTVSPost2010PropOp44
 70
     1
102
RTVSPost2010Prop45
280
     0
102
RTVSPost2010PropOp45
 70
     1
102
RTVSPost2010Prop46
 90
       50
102
RTVSPost2010PropOp46
 70
     1
102
RTVSPost2010Prop47
 90
       50
102
RTVSPost2010PropOp47
 70
     1
102
RTVSPost2010Prop48
 90
       50
102
RTVSPost2010PropOp48
 70
     1
102
RTVSPost2010Prop49
280
     0
102
RTVSPost2010PropOp49
 70
     1
102
RTVSPost2010Prop50
 90
       50
102
RTVSPost2010PropOp50
 70
     1
102
RTVSPost2010Prop51ColorIndex
 90
      256
102
RTVSPost2010Prop51ColorRGB
 90
-16777216
102
RTVSPost2010PropOp51
 70
     0
102
RTVSPost2010Prop52
140
1.0
102
RTVSPost2010PropOp52
 70
     0
102
RTVSPost2010Prop53
 90
        2
102
RTVSPost2010PropOp53
 70
     1
102
RTVSPost2010Prop54
  1
strokes_ogs.tif
102
RTVSPost2010PropOp54
 70
     1
102
RTVSPost2010Prop55
280
     0
102
RTVSPost2010PropOp55
 70
     1
102
RTVSPost2010Prop56
140
1.0
102
RTVSPost2010PropOp56
 70
     1
102
RTVSPost2010Prop57
140
1.0
102
RTVSPost2010PropOp57
 70
     1
102
RTVSPropertyOp0
 70
     1
102
RTVSPropertyOp1
 70
     1
102
RTVSPropertyOp2
 70
     1
102
RTVSPropertyOp3
 70
     1
102
RTVSPropertyOp4
 70
     1
102
RTVSPropertyOp5
 70
     1
102
RTVSPropertyOp6
 70
     1
102
RTVSPropertyOp7
 70
     1
102
RTVSPropertyOp8
 70
     1
102
RTVSPropertyOp9
 70
     1
102
RTVSPropertyOp10
 70
     1
102
RTVSPropertyOp11
 70
     1
102
RTVSPropertyOp12
 70
     1
102
RTVSPropertyOp13
 70
     1
102
RTVSPropertyOp14
 70
     1
102
RTVSPropertyOp15
 70
     1
102
RTVSPropertyOp16
 70
     1
102
RTVSPropertyOp17
 70
     1
102
RTVSPropertyOp18
 70
     1
102
RTVSPropertyOp19
 70
     1
102
RTVSPropertyOp20
 70
     1
102
RTVSPropertyOp21
 70
     1
102
RTVSPropertyOp22
 70
     1
102
RTVSPropertyOp23
 70
     1
102
RTVSPropertyOp24
 70
     1
102
RTVSPropertyOp25
 70
     1
102
RTVSPropertyOp26
 70
     1
102
RTVSPropertyOp27
 70
     1
102
RTVSPropertyOp28
 70
     1
102
RTVSPropertyOp29
 70
     1
102
RTVSPropertyOp30
 70
     1
102
RTVSPropertyOp31
 70
     1
102
RTVSPropertyOp32
 70
     1
102
RTVSPropertyOp33
 70
     1
102
RTVSPropertyOp34
 70
     1
102
RTVSPropertyOp35
 70
     1
102
RTVSPropertyOp36
 70
     1
102
RTVSPropertyOp37
 70
     1
102
RTVSPropertyOp38
 70
     1
102
RTVSPropertyOp39
 70
     1
102
RTVSPropertyOp40
 70
     1
102
RTVSPropertyOp41
 70
     1
102
RTVSPropertyOp42
 70
     1
102
RTVSPropertyOp43
 70
     1
102
RTVSPropertyOp44
 70
     1
102
RTVSPropertyOp45
 70
     1
102
RTVSPropertyOp46
 70
     1
102
RTVSPropertyOp47
 70
     1
102
RTVSPropertyOp48
 70
     1
102
RTVSPropertyOp49
 70
     1
102
RTVSPropertyOp50
 70
     1
102
RTVSPropertyOp51
 70
     0
102
RTVSPropertyOp52
 70
     0
102
RTVSPropertyOp53
 70
     1
102
RTVSPropertyOp54
 70
     1
102
RTVSPropertyOp55
 70
     1
102
RTVSPropertyOp56
 70
     1
102
RTVSPropertyOp57
 70
     1
102
RTVSPropertyOp58
 70
     1
102
RTVSPropertyOp59
 70
     1
102
RTVSPropertyOp60
 70
     1
102
RTVSPropertyOp61
 70
     1
102
RTVSPropertyOp62
 70
     1
  0
XRECORD
  5
9577
102
{ACAD_REACTORS
330
9576
102
}
330
9576
100
AcDbXrecord
280
     1
102
RTVSPost2010Prop28
280
     0
102
RTVSPost2010PropOp28
 70
     1
102
RTVSPost2010Prop29
280
     1
102
RTVSPost2010PropOp29
 70
     1
102
RTVSPost2010Prop30
280
     1
102
RTVSPost2010PropOp30
 70
     1
102
RTVSPost2010Prop31
280
     0
102
RTVSPost2010PropOp31
 70
     1
102
RTVSPost2010Prop32
280
     0
102
RTVSPost2010PropOp32
 70
     1
102
RTVSPost2010Prop33
280
     0
102
RTVSPost2010PropOp33
 70
     1
102
RTVSPost2010Prop34
280
     0
102
RTVSPost2010PropOp34
 70
     1
102
RTVSPost2010Prop35
280
     0
102
RTVSPost2010PropOp35
 70
     1
102
RTVSPost2010Prop36
280
     0
102
RTVSPost2010PropOp36
 70
     1
102
RTVSPost2010Prop37
 90
       50
102
RTVSPost2010PropOp37
 70
     1
102
RTVSPost2010Prop38
140
0.0
102
RTVSPost2010PropOp38
 70
     1
102
RTVSPost2010Prop39
140
1.0
102
RTVSPost2010PropOp39
 70
     1
102
RTVSPost2010Prop40
 90
        0
102
RTVSPost2010PropOp40
 70
     1
102
RTVSPost2010Prop41ColorIndex
 90
       18
102
RTVSPost2010Prop41ColorRGB
 90
        0
102
RTVSPost2010PropOp41
 70
     1
102
RTVSPost2010Prop42
 90
       50
102
RTVSPost2010PropOp42
 70
     1
102
RTVSPost2010Prop43
 90
        3
102
RTVSPost2010PropOp43
 70
     1
102
RTVSPost2010Prop44ColorIndex
 90
        5
102
RTVSPost2010Prop44ColorRGB
 90
      255
102
RTVSPost2010PropOp44
 70
     1
102
RTVSPost2010Prop45
280
     0
102
RTVSPost2010PropOp45
 70
     1
102
RTVSPost2010Prop46
 90
       50
102
RTVSPost2010PropOp46
 70
     1
102
RTVSPost2010Prop47
 90
       50
102
RTVSPost2010PropOp47
 70
     1
102
RTVSPost2010Prop48
 90
       50
102
RTVSPost2010PropOp48
 70
     1
102
RTVSPost2010Prop49
280
     0
102
RTVSPost2010PropOp49
 70
     1
102
RTVSPost2010Prop50
 90
       50
102
RTVSPost2010PropOp50
 70
     1
102
RTVSPost2010Prop51ColorIndex
 90
      256
102
RTVSPost2010Prop51ColorRGB
 90
-16777216
102
RTVSPost2010PropOp51
 70
     0
102
RTVSPost2010Prop52
140
1.0
102
RTVSPost2010PropOp52
 70
     0
102
RTVSPost2010Prop53
 90
        2
102
RTVSPost2010PropOp53
 70
     1
102
RTVSPost2010Prop54
  1
strokes_ogs.tif
102
RTVSPost2010PropOp54
 70
     1
102
RTVSPost2010Prop55
280
     0
102
RTVSPost2010PropOp55
 70
     1
102
RTVSPost2010Prop56
140
1.0
102
RTVSPost2010PropOp56
 70
     1
102
RTVSPost2010Prop57
140
1.0
102
RTVSPost2010PropOp57
 70
     1
102
RTVSPropertyOp0
 70
     1
102
RTVSPropertyOp1
 70
     1
102
RTVSPropertyOp2
 70
     1
102
RTVSPropertyOp3
 70
     1
102
RTVSPropertyOp4
 70
     1
102
RTVSPropertyOp5
 70
     1
102
RTVSPropertyOp6
 70
     1
102
RTVSPropertyOp7
 70
     1
102
RTVSPropertyOp8
 70
     1
102
RTVSPropertyOp9
 70
     1
102
RTVSPropertyOp10
 70
     1
102
RTVSPropertyOp11
 70
     1
102
RTVSPropertyOp12
 70
     1
102
RTVSPropertyOp13
 70
     1
102
RTVSPropertyOp14
 70
     1
102
RTVSPropertyOp15
 70
     1
102
RTVSPropertyOp16
 70
     1
102
RTVSPropertyOp17
 70
     1
102
RTVSPropertyOp18
 70
     1
102
RTVSPropertyOp19
 70
     1
102
RTVSPropertyOp20
 70
     1
102
RTVSPropertyOp21
 70
     1
102
RTVSPropertyOp22
 70
     1
102
RTVSPropertyOp23
 70
     1
102
RTVSPropertyOp24
 70
     1
102
RTVSPropertyOp25
 70
     1
102
RTVSPropertyOp26
 70
     1
102
RTVSPropertyOp27
 70
     1
102
RTVSPropertyOp28
 70
     1
102
RTVSPropertyOp29
 70
     1
102
RTVSPropertyOp30
 70
     1
102
RTVSPropertyOp31
 70
     1
102
RTVSPropertyOp32
 70
     1
102
RTVSPropertyOp33
 70
     1
102
RTVSPropertyOp34
 70
     1
102
RTVSPropertyOp35
 70
     1
102
RTVSPropertyOp36
 70
     1
102
RTVSPropertyOp37
 70
     1
102
RTVSPropertyOp38
 70
     1
102
RTVSPropertyOp39
 70
     1
102
RTVSPropertyOp40
 70
     1
102
RTVSPropertyOp41
 70
     1
102
RTVSPropertyOp42
 70
     1
102
RTVSPropertyOp43
 70
     1
102
RTVSPropertyOp44
 70
     1
102
RTVSPropertyOp45
 70
     1
102
RTVSPropertyOp46
 70
     1
102
RTVSPropertyOp47
 70
     1
102
RTVSPropertyOp48
 70
     1
102
RTVSPropertyOp49
 70
     1
102
RTVSPropertyOp50
 70
     1
102
RTVSPropertyOp51
 70
     0
102
RTVSPropertyOp52
 70
     0
102
RTVSPropertyOp53
 70
     1
102
RTVSPropertyOp54
 70
     1
102
RTVSPropertyOp55
 70
     1
102
RTVSPropertyOp56
 70
     1
102
RTVSPropertyOp57
 70
     1
102
RTVSPropertyOp58
 70
     1
102
RTVSPropertyOp59
 70
     1
102
RTVSPropertyOp60
 70
     1
102
RTVSPropertyOp61
 70
     1
102
RTVSPropertyOp62
 70
     1
  0
XRECORD
  5
9589
102
{ACAD_REACTORS
330
9588
102
}
330
9588
100
AcDbXrecord
280
     1
102
RTVSPost2010Prop28
280
     0
102
RTVSPost2010PropOp28
 70
     1
102
RTVSPost2010Prop29
280
     1
102
RTVSPost2010PropOp29
 70
     1
102
RTVSPost2010Prop30
280
     1
102
RTVSPost2010PropOp30
 70
     1
102
RTVSPost2010Prop31
280
     0
102
RTVSPost2010PropOp31
 70
     1
102
RTVSPost2010Prop32
280
     0
102
RTVSPost2010PropOp32
 70
     1
102
RTVSPost2010Prop33
280
     0
102
RTVSPost2010PropOp33
 70
     1
102
RTVSPost2010Prop34
280
     0
102
RTVSPost2010PropOp34
 70
     1
102
RTVSPost2010Prop35
280
     0
102
RTVSPost2010PropOp35
 70
     1
102
RTVSPost2010Prop36
280
     0
102
RTVSPost2010PropOp36
 70
     1
102
RTVSPost2010Prop37
 90
       50
102
RTVSPost2010PropOp37
 70
     1
102
RTVSPost2010Prop38
140
0.0
102
RTVSPost2010PropOp38
 70
     1
102
RTVSPost2010Prop39
140
1.0
102
RTVSPost2010PropOp39
 70
     1
102
RTVSPost2010Prop40
 90
        0
102
RTVSPost2010PropOp40
 70
     1
102
RTVSPost2010Prop41ColorIndex
 90
       18
102
RTVSPost2010Prop41ColorRGB
 90
        0
102
RTVSPost2010PropOp41
 70
     1
102
RTVSPost2010Prop42
 90
       50
102
RTVSPost2010PropOp42
 70
     1
102
RTVSPost2010Prop43
 90
        3
102
RTVSPost2010PropOp43
 70
     1
102
RTVSPost2010Prop44ColorIndex
 90
        5
102
RTVSPost2010Prop44ColorRGB
 90
      255
102
RTVSPost2010PropOp44
 70
     1
102
RTVSPost2010Prop45
280
     0
102
RTVSPost2010PropOp45
 70
     1
102
RTVSPost2010Prop46
 90
       50
102
RTVSPost2010PropOp46
 70
     1
102
RTVSPost2010Prop47
 90
       50
102
RTVSPost2010PropOp47
 70
     1
102
RTVSPost2010Prop48
 90
       50
102
RTVSPost2010PropOp48
 70
     1
102
RTVSPost2010Prop49
280
     0
102
RTVSPost2010PropOp49
 70
     1
102
RTVSPost2010Prop50
 90
       50
102
RTVSPost2010PropOp50
 70
     1
102
RTVSPost2010Prop51ColorIndex
 90
      256
102
RTVSPost2010Prop51ColorRGB
 90
-16777216
102
RTVSPost2010PropOp51
 70
     0
102
RTVSPost2010Prop52
140
1.0
102
RTVSPost2010PropOp52
 70
     0
102
RTVSPost2010Prop53
 90
        2
102
RTVSPost2010PropOp53
 70
     1
102
RTVSPost2010Prop54
  1
strokes_ogs.tif
102
RTVSPost2010PropOp54
 70
     1
102
RTVSPost2010Prop55
280
     0
102
RTVSPost2010PropOp55
 70
     1
102
RTVSPost2010Prop56
140
1.0
102
RTVSPost2010PropOp56
 70
     1
102
RTVSPost2010Prop57
140
1.0
102
RTVSPost2010PropOp57
 70
     1
102
RTVSPropertyOp0
 70
     0
102
RTVSPropertyOp1
 70
     0
102
RTVSPropertyOp2
 70
     0
102
RTVSPropertyOp3
 70
     0
102
RTVSPropertyOp4
 70
     0
102
RTVSPropertyOp5
 70
     0
102
RTVSPropertyOp6
 70
     0
102
RTVSPropertyOp7
 70
     0
102
RTVSPropertyOp8
 70
     0
102
RTVSPropertyOp9
 70
     0
102
RTVSPropertyOp10
 70
     0
102
RTVSPropertyOp11
 70
     0
102
RTVSPropertyOp12
 70
     0
102
RTVSPropertyOp13
 70
     0
102
RTVSPropertyOp14
 70
     2
102
RTVSPropertyOp15
 70
     0
102
RTVSPropertyOp16
 70
     0
102
RTVSPropertyOp17
 70
     0
102
RTVSPropertyOp18
 70
     0
102
RTVSPropertyOp19
 70
     0
102
RTVSPropertyOp20
 70
     0
102
RTVSPropertyOp21
 70
     0
102
RTVSPropertyOp22
 70
     0
102
RTVSPropertyOp23
 70
     0
102
RTVSPropertyOp24
 70
     0
102
RTVSPropertyOp25
 70
     0
102
RTVSPropertyOp26
 70
     0
102
RTVSPropertyOp27
 70
     0
102
RTVSPropertyOp28
 70
     1
102
RTVSPropertyOp29
 70
     1
102
RTVSPropertyOp30
 70
     1
102
RTVSPropertyOp31
 70
     1
102
RTVSPropertyOp32
 70
     1
102
RTVSPropertyOp33
 70
     1
102
RTVSPropertyOp34
 70
     1
102
RTVSPropertyOp35
 70
     1
102
RTVSPropertyOp36
 70
     1
102
RTVSPropertyOp37
 70
     1
102
RTVSPropertyOp38
 70
     1
102
RTVSPropertyOp39
 70
     1
102
RTVSPropertyOp40
 70
     1
102
RTVSPropertyOp41
 70
     1
102
RTVSPropertyOp42
 70
     1
102
RTVSPropertyOp43
 70
     1
102
RTVSPropertyOp44
 70
     1
102
RTVSPropertyOp45
 70
     1
102
RTVSPropertyOp46
 70
     1
102
RTVSPropertyOp47
 70
     1
102
RTVSPropertyOp48
 70
     1
102
RTVSPropertyOp49
 70
     1
102
RTVSPropertyOp50
 70
     1
102
RTVSPropertyOp51
 70
     0
102
RTVSPropertyOp52
 70
     0
102
RTVSPropertyOp53
 70
     1
102
RTVSPropertyOp54
 70
     1
102
RTVSPropertyOp55
 70
     1
102
RTVSPropertyOp56
 70
     1
102
RTVSPropertyOp57
 70
     1
102
RTVSPropertyOp58
 70
     1
102
RTVSPropertyOp59
 70
     1
102
RTVSPropertyOp60
 70
     1
102
RTVSPropertyOp61
 70
     1
102
RTVSPropertyOp62
 70
     1
  0
XRECORD
  5
957F
102
{ACAD_REACTORS
330
957E
102
}
330
957E
100
AcDbXrecord
280
     1
102
RTVSPost2010Prop28
280
     0
102
RTVSPost2010PropOp28
 70
     1
102
RTVSPost2010Prop29
280
     1
102
RTVSPost2010PropOp29
 70
     1
102
RTVSPost2010Prop30
280
     1
102
RTVSPost2010PropOp30
 70
     1
102
RTVSPost2010Prop31
280
     0
102
RTVSPost2010PropOp31
 70
     1
102
RTVSPost2010Prop32
280
     0
102
RTVSPost2010PropOp32
 70
     1
102
RTVSPost2010Prop33
280
     0
102
RTVSPost2010PropOp33
 70
     1
102
RTVSPost2010Prop34
280
     0
102
RTVSPost2010PropOp34
 70
     1
102
RTVSPost2010Prop35
280
     0
102
RTVSPost2010PropOp35
 70
     1
102
RTVSPost2010Prop36
280
     0
102
RTVSPost2010PropOp36
 70
     1
102
RTVSPost2010Prop37
 90
       50
102
RTVSPost2010PropOp37
 70
     1
102
RTVSPost2010Prop38
140
0.0
102
RTVSPost2010PropOp38
 70
     1
102
RTVSPost2010Prop39
140
1.0
102
RTVSPost2010PropOp39
 70
     1
102
RTVSPost2010Prop40
 90
        0
102
RTVSPost2010PropOp40
 70
     1
102
RTVSPost2010Prop41ColorIndex
 90
       18
102
RTVSPost2010Prop41ColorRGB
 90
        0
102
RTVSPost2010PropOp41
 70
     1
102
RTVSPost2010Prop42
 90
       50
102
RTVSPost2010PropOp42
 70
     1
102
RTVSPost2010Prop43
 90
        3
102
RTVSPost2010PropOp43
 70
     1
102
RTVSPost2010Prop44ColorIndex
 90
        5
102
RTVSPost2010Prop44ColorRGB
 90
      255
102
RTVSPost2010PropOp44
 70
     1
102
RTVSPost2010Prop45
280
     0
102
RTVSPost2010PropOp45
 70
     1
102
RTVSPost2010Prop46
 90
       50
102
RTVSPost2010PropOp46
 70
     1
102
RTVSPost2010Prop47
 90
       50
102
RTVSPost2010PropOp47
 70
     1
102
RTVSPost2010Prop48
 90
       50
102
RTVSPost2010PropOp48
 70
     1
102
RTVSPost2010Prop49
280
     0
102
RTVSPost2010PropOp49
 70
     1
102
RTVSPost2010Prop50
 90
       50
102
RTVSPost2010PropOp50
 70
     1
102
RTVSPost2010Prop51ColorIndex
 90
      256
102
RTVSPost2010Prop51ColorRGB
 90
-16777216
102
RTVSPost2010PropOp51
 70
     0
102
RTVSPost2010Prop52
140
1.0
102
RTVSPost2010PropOp52
 70
     0
102
RTVSPost2010Prop53
 90
        2
102
RTVSPost2010PropOp53
 70
     1
102
RTVSPost2010Prop54
  1
strokes_ogs.tif
102
RTVSPost2010PropOp54
 70
     1
102
RTVSPost2010Prop55
280
     0
102
RTVSPost2010PropOp55
 70
     1
102
RTVSPost2010Prop56
140
1.0
102
RTVSPost2010PropOp56
 70
     1
102
RTVSPost2010Prop57
140
1.0
102
RTVSPost2010PropOp57
 70
     1
102
RTVSPropertyOp0
 70
     1
102
RTVSPropertyOp1
 70
     1
102
RTVSPropertyOp2
 70
     1
102
RTVSPropertyOp3
 70
     1
102
RTVSPropertyOp4
 70
     1
102
RTVSPropertyOp5
 70
     1
102
RTVSPropertyOp6
 70
     1
102
RTVSPropertyOp7
 70
     1
102
RTVSPropertyOp8
 70
     1
102
RTVSPropertyOp9
 70
     1
102
RTVSPropertyOp10
 70
     1
102
RTVSPropertyOp11
 70
     1
102
RTVSPropertyOp12
 70
     1
102
RTVSPropertyOp13
 70
     1
102
RTVSPropertyOp14
 70
     1
102
RTVSPropertyOp15
 70
     1
102
RTVSPropertyOp16
 70
     1
102
RTVSPropertyOp17
 70
     1
102
RTVSPropertyOp18
 70
     1
102
RTVSPropertyOp19
 70
     1
102
RTVSPropertyOp20
 70
     1
102
RTVSPropertyOp21
 70
     1
102
RTVSPropertyOp22
 70
     1
102
RTVSPropertyOp23
 70
     1
102
RTVSPropertyOp24
 70
     1
102
RTVSPropertyOp25
 70
     1
102
RTVSPropertyOp26
 70
     1
102
RTVSPropertyOp27
 70
     1
102
RTVSPropertyOp28
 70
     1
102
RTVSPropertyOp29
 70
     1
102
RTVSPropertyOp30
 70
     1
102
RTVSPropertyOp31
 70
     1
102
RTVSPropertyOp32
 70
     1
102
RTVSPropertyOp33
 70
     1
102
RTVSPropertyOp34
 70
     1
102
RTVSPropertyOp35
 70
     1
102
RTVSPropertyOp36
 70
     1
102
RTVSPropertyOp37
 70
     1
102
RTVSPropertyOp38
 70
     1
102
RTVSPropertyOp39
 70
     1
102
RTVSPropertyOp40
 70
     1
102
RTVSPropertyOp41
 70
     1
102
RTVSPropertyOp42
 70
     1
102
RTVSPropertyOp43
 70
     1
102
RTVSPropertyOp44
 70
     1
102
RTVSPropertyOp45
 70
     1
102
RTVSPropertyOp46
 70
     1
102
RTVSPropertyOp47
 70
     1
102
RTVSPropertyOp48
 70
     1
102
RTVSPropertyOp49
 70
     1
102
RTVSPropertyOp50
 70
     1
102
RTVSPropertyOp51
 70
     0
102
RTVSPropertyOp52
 70
     0
102
RTVSPropertyOp53
 70
     1
102
RTVSPropertyOp54
 70
     1
102
RTVSPropertyOp55
 70
     1
102
RTVSPropertyOp56
 70
     1
102
RTVSPropertyOp57
 70
     1
102
RTVSPropertyOp58
 70
     1
102
RTVSPropertyOp59
 70
     1
102
RTVSPropertyOp60
 70
     1
102
RTVSPropertyOp61
 70
     1
102
RTVSPropertyOp62
 70
     1
  0
XRECORD
  5
9563
102
{ACAD_REACTORS
330
9562
102
}
330
9562
100
AcDbXrecord
280
     1
102
RTVSPost2010Prop28
280
     0
102
RTVSPost2010PropOp28
 70
     1
102
RTVSPost2010Prop29
280
     1
102
RTVSPost2010PropOp29
 70
     1
102
RTVSPost2010Prop30
280
     1
102
RTVSPost2010PropOp30
 70
     1
102
RTVSPost2010Prop31
280
     0
102
RTVSPost2010PropOp31
 70
     1
102
RTVSPost2010Prop32
280
     0
102
RTVSPost2010PropOp32
 70
     1
102
RTVSPost2010Prop33
280
     0
102
RTVSPost2010PropOp33
 70
     1
102
RTVSPost2010Prop34
280
     0
102
RTVSPost2010PropOp34
 70
     1
102
RTVSPost2010Prop35
280
     0
102
RTVSPost2010PropOp35
 70
     1
102
RTVSPost2010Prop36
280
     0
102
RTVSPost2010PropOp36
 70
     1
102
RTVSPost2010Prop37
 90
       50
102
RTVSPost2010PropOp37
 70
     1
102
RTVSPost2010Prop38
140
0.0
102
RTVSPost2010PropOp38
 70
     1
102
RTVSPost2010Prop39
140
1.0
102
RTVSPost2010PropOp39
 70
     1
102
RTVSPost2010Prop40
 90
        0
102
RTVSPost2010PropOp40
 70
     1
102
RTVSPost2010Prop41ColorIndex
 90
       18
102
RTVSPost2010Prop41ColorRGB
 90
        0
102
RTVSPost2010PropOp41
 70
     1
102
RTVSPost2010Prop42
 90
       50
102
RTVSPost2010PropOp42
 70
     1
102
RTVSPost2010Prop43
 90
        3
102
RTVSPost2010PropOp43
 70
     1
102
RTVSPost2010Prop44ColorIndex
 90
        5
102
RTVSPost2010Prop44ColorRGB
 90
      255
102
RTVSPost2010PropOp44
 70
     1
102
RTVSPost2010Prop45
280
     0
102
RTVSPost2010PropOp45
 70
     1
102
RTVSPost2010Prop46
 90
       50
102
RTVSPost2010PropOp46
 70
     1
102
RTVSPost2010Prop47
 90
       50
102
RTVSPost2010PropOp47
 70
     1
102
RTVSPost2010Prop48
 90
       50
102
RTVSPost2010PropOp48
 70
     1
102
RTVSPost2010Prop49
280
     0
102
RTVSPost2010PropOp49
 70
     1
102
RTVSPost2010Prop50
 90
       50
102
RTVSPost2010PropOp50
 70
     1
102
RTVSPost2010Prop51ColorIndex
 90
      256
102
RTVSPost2010Prop51ColorRGB
 90
-16777216
102
RTVSPost2010PropOp51
 70
     0
102
RTVSPost2010Prop52
140
1.0
102
RTVSPost2010PropOp52
 70
     0
102
RTVSPost2010Prop53
 90
        2
102
RTVSPost2010PropOp53
 70
     1
102
RTVSPost2010Prop54
  1
strokes_ogs.tif
102
RTVSPost2010PropOp54
 70
     1
102
RTVSPost2010Prop55
280
     0
102
RTVSPost2010PropOp55
 70
     1
102
RTVSPost2010Prop56
140
1.0
102
RTVSPost2010PropOp56
 70
     1
102
RTVSPost2010Prop57
140
1.0
102
RTVSPost2010PropOp57
 70
     1
102
RTVSPropertyOp0
 70
     1
102
RTVSPropertyOp1
 70
     1
102
RTVSPropertyOp2
 70
     1
102
RTVSPropertyOp3
 70
     1
102
RTVSPropertyOp4
 70
     1
102
RTVSPropertyOp5
 70
     1
102
RTVSPropertyOp6
 70
     1
102
RTVSPropertyOp7
 70
     1
102
RTVSPropertyOp8
 70
     1
102
RTVSPropertyOp9
 70
     1
102
RTVSPropertyOp10
 70
     1
102
RTVSPropertyOp11
 70
     1
102
RTVSPropertyOp12
 70
     1
102
RTVSPropertyOp13
 70
     1
102
RTVSPropertyOp14
 70
     1
102
RTVSPropertyOp15
 70
     1
102
RTVSPropertyOp16
 70
     1
102
RTVSPropertyOp17
 70
     1
102
RTVSPropertyOp18
 70
     1
102
RTVSPropertyOp19
 70
     1
102
RTVSPropertyOp20
 70
     1
102
RTVSPropertyOp21
 70
     1
102
RTVSPropertyOp22
 70
     1
102
RTVSPropertyOp23
 70
     1
102
RTVSPropertyOp24
 70
     1
102
RTVSPropertyOp25
 70
     1
102
RTVSPropertyOp26
 70
     1
102
RTVSPropertyOp27
 70
     1
102
RTVSPropertyOp28
 70
     1
102
RTVSPropertyOp29
 70
     1
102
RTVSPropertyOp30
 70
     1
102
RTVSPropertyOp31
 70
     1
102
RTVSPropertyOp32
 70
     1
102
RTVSPropertyOp33
 70
     1
102
RTVSPropertyOp34
 70
     1
102
RTVSPropertyOp35
 70
     1
102
RTVSPropertyOp36
 70
     1
102
RTVSPropertyOp37
 70
     1
102
RTVSPropertyOp38
 70
     1
102
RTVSPropertyOp39
 70
     1
102
RTVSPropertyOp40
 70
     1
102
RTVSPropertyOp41
 70
     1
102
RTVSPropertyOp42
 70
     1
102
RTVSPropertyOp43
 70
     1
102
RTVSPropertyOp44
 70
     1
102
RTVSPropertyOp45
 70
     1
102
RTVSPropertyOp46
 70
     1
102
RTVSPropertyOp47
 70
     1
102
RTVSPropertyOp48
 70
     1
102
RTVSPropertyOp49
 70
     1
102
RTVSPropertyOp50
 70
     1
102
RTVSPropertyOp51
 70
     0
102
RTVSPropertyOp52
 70
     0
102
RTVSPropertyOp53
 70
     1
102
RTVSPropertyOp54
 70
     1
102
RTVSPropertyOp55
 70
     1
102
RTVSPropertyOp56
 70
     1
102
RTVSPropertyOp57
 70
     1
102
RTVSPropertyOp58
 70
     1
102
RTVSPropertyOp59
 70
     1
102
RTVSPropertyOp60
 70
     1
102
RTVSPropertyOp61
 70
     1
102
RTVSPropertyOp62
 70
     1
  0
XRECORD
  5
9565
102
{ACAD_REACTORS
330
9564
102
}
330
9564
100
AcDbXrecord
280
     1
102
RTVSPost2010Prop28
280
     0
102
RTVSPost2010PropOp28
 70
     1
102
RTVSPost2010Prop29
280
     1
102
RTVSPost2010PropOp29
 70
     1
102
RTVSPost2010Prop30
280
     1
102
RTVSPost2010PropOp30
 70
     1
102
RTVSPost2010Prop31
280
     0
102
RTVSPost2010PropOp31
 70
     1
102
RTVSPost2010Prop32
280
     0
102
RTVSPost2010PropOp32
 70
     1
102
RTVSPost2010Prop33
280
     0
102
RTVSPost2010PropOp33
 70
     1
102
RTVSPost2010Prop34
280
     0
102
RTVSPost2010PropOp34
 70
     1
102
RTVSPost2010Prop35
280
     0
102
RTVSPost2010PropOp35
 70
     1
102
RTVSPost2010Prop36
280
     0
102
RTVSPost2010PropOp36
 70
     1
102
RTVSPost2010Prop37
 90
       50
102
RTVSPost2010PropOp37
 70
     1
102
RTVSPost2010Prop38
140
0.0
102
RTVSPost2010PropOp38
 70
     1
102
RTVSPost2010Prop39
140
1.0
102
RTVSPost2010PropOp39
 70
     1
102
RTVSPost2010Prop40
 90
        0
102
RTVSPost2010PropOp40
 70
     1
102
RTVSPost2010Prop41ColorIndex
 90
       18
102
RTVSPost2010Prop41ColorRGB
 90
        0
102
RTVSPost2010PropOp41
 70
     1
102
RTVSPost2010Prop42
 90
       50
102
RTVSPost2010PropOp42
 70
     1
102
RTVSPost2010Prop43
 90
        3
102
RTVSPost2010PropOp43
 70
     1
102
RTVSPost2010Prop44ColorIndex
 90
        5
102
RTVSPost2010Prop44ColorRGB
 90
      255
102
RTVSPost2010PropOp44
 70
     1
102
RTVSPost2010Prop45
280
     0
102
RTVSPost2010PropOp45
 70
     1
102
RTVSPost2010Prop46
 90
       50
102
RTVSPost2010PropOp46
 70
     1
102
RTVSPost2010Prop47
 90
       50
102
RTVSPost2010PropOp47
 70
     1
102
RTVSPost2010Prop48
 90
       50
102
RTVSPost2010PropOp48
 70
     1
102
RTVSPost2010Prop49
280
     0
102
RTVSPost2010PropOp49
 70
     1
102
RTVSPost2010Prop50
 90
       50
102
RTVSPost2010PropOp50
 70
     1
102
RTVSPost2010Prop51ColorIndex
 90
      256
102
RTVSPost2010Prop51ColorRGB
 90
-16777216
102
RTVSPost2010PropOp51
 70
     0
102
RTVSPost2010Prop52
140
1.0
102
RTVSPost2010PropOp52
 70
     0
102
RTVSPost2010Prop53
 90
        2
102
RTVSPost2010PropOp53
 70
     1
102
RTVSPost2010Prop54
  1
strokes_ogs.tif
102
RTVSPost2010PropOp54
 70
     1
102
RTVSPost2010Prop55
280
     0
102
RTVSPost2010PropOp55
 70
     1
102
RTVSPost2010Prop56
140
1.0
102
RTVSPost2010PropOp56
 70
     1
102
RTVSPost2010Prop57
140
1.0
102
RTVSPost2010PropOp57
 70
     1
102
RTVSPropertyOp0
 70
     1
102
RTVSPropertyOp1
 70
     1
102
RTVSPropertyOp2
 70
     1
102
RTVSPropertyOp3
 70
     1
102
RTVSPropertyOp4
 70
     1
102
RTVSPropertyOp5
 70
     1
102
RTVSPropertyOp6
 70
     1
102
RTVSPropertyOp7
 70
     1
102
RTVSPropertyOp8
 70
     1
102
RTVSPropertyOp9
 70
     1
102
RTVSPropertyOp10
 70
     1
102
RTVSPropertyOp11
 70
     1
102
RTVSPropertyOp12
 70
     1
102
RTVSPropertyOp13
 70
     1
102
RTVSPropertyOp14
 70
     1
102
RTVSPropertyOp15
 70
     1
102
RTVSPropertyOp16
 70
     1
102
RTVSPropertyOp17
 70
     1
102
RTVSPropertyOp18
 70
     1
102
RTVSPropertyOp19
 70
     1
102
RTVSPropertyOp20
 70
     1
102
RTVSPropertyOp21
 70
     1
102
RTVSPropertyOp22
 70
     1
102
RTVSPropertyOp23
 70
     1
102
RTVSPropertyOp24
 70
     1
102
RTVSPropertyOp25
 70
     1
102
RTVSPropertyOp26
 70
     1
102
RTVSPropertyOp27
 70
     1
102
RTVSPropertyOp28
 70
     1
102
RTVSPropertyOp29
 70
     1
102
RTVSPropertyOp30
 70
     1
102
RTVSPropertyOp31
 70
     1
102
RTVSPropertyOp32
 70
     1
102
RTVSPropertyOp33
 70
     1
102
RTVSPropertyOp34
 70
     1
102
RTVSPropertyOp35
 70
     1
102
RTVSPropertyOp36
 70
     1
102
RTVSPropertyOp37
 70
     1
102
RTVSPropertyOp38
 70
     1
102
RTVSPropertyOp39
 70
     1
102
RTVSPropertyOp40
 70
     1
102
RTVSPropertyOp41
 70
     1
102
RTVSPropertyOp42
 70
     1
102
RTVSPropertyOp43
 70
     1
102
RTVSPropertyOp44
 70
     1
102
RTVSPropertyOp45
 70
     1
102
RTVSPropertyOp46
 70
     1
102
RTVSPropertyOp47
 70
     1
102
RTVSPropertyOp48
 70
     1
102
RTVSPropertyOp49
 70
     1
102
RTVSPropertyOp50
 70
     1
102
RTVSPropertyOp51
 70
     0
102
RTVSPropertyOp52
 70
     0
102
RTVSPropertyOp53
 70
     1
102
RTVSPropertyOp54
 70
     1
102
RTVSPropertyOp55
 70
     1
102
RTVSPropertyOp56
 70
     1
102
RTVSPropertyOp57
 70
     1
102
RTVSPropertyOp58
 70
     1
102
RTVSPropertyOp59
 70
     1
102
RTVSPropertyOp60
 70
     1
102
RTVSPropertyOp61
 70
     1
102
RTVSPropertyOp62
 70
     1
  0
XRECORD
  5
9567
102
{ACAD_REACTORS
330
9566
102
}
330
9566
100
AcDbXrecord
280
     1
102
RTVSPost2010Prop28
280
     0
102
RTVSPost2010PropOp28
 70
     1
102
RTVSPost2010Prop29
280
     1
102
RTVSPost2010PropOp29
 70
     1
102
RTVSPost2010Prop30
280
     1
102
RTVSPost2010PropOp30
 70
     1
102
RTVSPost2010Prop31
280
     0
102
RTVSPost2010PropOp31
 70
     1
102
RTVSPost2010Prop32
280
     0
102
RTVSPost2010PropOp32
 70
     1
102
RTVSPost2010Prop33
280
     0
102
RTVSPost2010PropOp33
 70
     1
102
RTVSPost2010Prop34
280
     0
102
RTVSPost2010PropOp34
 70
     1
102
RTVSPost2010Prop35
280
     0
102
RTVSPost2010PropOp35
 70
     1
102
RTVSPost2010Prop36
280
     0
102
RTVSPost2010PropOp36
 70
     1
102
RTVSPost2010Prop37
 90
       50
102
RTVSPost2010PropOp37
 70
     1
102
RTVSPost2010Prop38
140
0.0
102
RTVSPost2010PropOp38
 70
     1
102
RTVSPost2010Prop39
140
1.0
102
RTVSPost2010PropOp39
 70
     1
102
RTVSPost2010Prop40
 90
        0
102
RTVSPost2010PropOp40
 70
     1
102
RTVSPost2010Prop41ColorIndex
 90
       18
102
RTVSPost2010Prop41ColorRGB
 90
        0
102
RTVSPost2010PropOp41
 70
     1
102
RTVSPost2010Prop42
 90
       50
102
RTVSPost2010PropOp42
 70
     1
102
RTVSPost2010Prop43
 90
        3
102
RTVSPost2010PropOp43
 70
     1
102
RTVSPost2010Prop44ColorIndex
 90
        5
102
RTVSPost2010Prop44ColorRGB
 90
      255
102
RTVSPost2010PropOp44
 70
     1
102
RTVSPost2010Prop45
280
     0
102
RTVSPost2010PropOp45
 70
     1
102
RTVSPost2010Prop46
 90
       50
102
RTVSPost2010PropOp46
 70
     1
102
RTVSPost2010Prop47
 90
       50
102
RTVSPost2010PropOp47
 70
     1
102
RTVSPost2010Prop48
 90
       50
102
RTVSPost2010PropOp48
 70
     1
102
RTVSPost2010Prop49
280
     0
102
RTVSPost2010PropOp49
 70
     1
102
RTVSPost2010Prop50
 90
       50
102
RTVSPost2010PropOp50
 70
     1
102
RTVSPost2010Prop51ColorIndex
 90
      256
102
RTVSPost2010Prop51ColorRGB
 90
-16777216
102
RTVSPost2010PropOp51
 70
     0
102
RTVSPost2010Prop52
140
1.0
102
RTVSPost2010PropOp52
 70
     0
102
RTVSPost2010Prop53
 90
        2
102
RTVSPost2010PropOp53
 70
     1
102
RTVSPost2010Prop54
  1
strokes_ogs.tif
102
RTVSPost2010PropOp54
 70
     1
102
RTVSPost2010Prop55
280
     0
102
RTVSPost2010PropOp55
 70
     1
102
RTVSPost2010Prop56
140
1.0
102
RTVSPost2010PropOp56
 70
     1
102
RTVSPost2010Prop57
140
1.0
102
RTVSPost2010PropOp57
 70
     1
102
RTVSPropertyOp0
 70
     1
102
RTVSPropertyOp1
 70
     1
102
RTVSPropertyOp2
 70
     1
102
RTVSPropertyOp3
 70
     1
102
RTVSPropertyOp4
 70
     1
102
RTVSPropertyOp5
 70
     1
102
RTVSPropertyOp6
 70
     1
102
RTVSPropertyOp7
 70
     1
102
RTVSPropertyOp8
 70
     1
102
RTVSPropertyOp9
 70
     1
102
RTVSPropertyOp10
 70
     1
102
RTVSPropertyOp11
 70
     1
102
RTVSPropertyOp12
 70
     1
102
RTVSPropertyOp13
 70
     1
102
RTVSPropertyOp14
 70
     1
102
RTVSPropertyOp15
 70
     1
102
RTVSPropertyOp16
 70
     1
102
RTVSPropertyOp17
 70
     1
102
RTVSPropertyOp18
 70
     1
102
RTVSPropertyOp19
 70
     1
102
RTVSPropertyOp20
 70
     1
102
RTVSPropertyOp21
 70
     1
102
RTVSPropertyOp22
 70
     1
102
RTVSPropertyOp23
 70
     1
102
RTVSPropertyOp24
 70
     1
102
RTVSPropertyOp25
 70
     1
102
RTVSPropertyOp26
 70
     1
102
RTVSPropertyOp27
 70
     1
102
RTVSPropertyOp28
 70
     1
102
RTVSPropertyOp29
 70
     1
102
RTVSPropertyOp30
 70
     1
102
RTVSPropertyOp31
 70
     1
102
RTVSPropertyOp32
 70
     1
102
RTVSPropertyOp33
 70
     1
102
RTVSPropertyOp34
 70
     1
102
RTVSPropertyOp35
 70
     1
102
RTVSPropertyOp36
 70
     1
102
RTVSPropertyOp37
 70
     1
102
RTVSPropertyOp38
 70
     1
102
RTVSPropertyOp39
 70
     1
102
RTVSPropertyOp40
 70
     1
102
RTVSPropertyOp41
 70
     1
102
RTVSPropertyOp42
 70
     1
102
RTVSPropertyOp43
 70
     1
102
RTVSPropertyOp44
 70
     1
102
RTVSPropertyOp45
 70
     1
102
RTVSPropertyOp46
 70
     1
102
RTVSPropertyOp47
 70
     1
102
RTVSPropertyOp48
 70
     1
102
RTVSPropertyOp49
 70
     1
102
RTVSPropertyOp50
 70
     1
102
RTVSPropertyOp51
 70
     0
102
RTVSPropertyOp52
 70
     0
102
RTVSPropertyOp53
 70
     1
102
RTVSPropertyOp54
 70
     1
102
RTVSPropertyOp55
 70
     1
102
RTVSPropertyOp56
 70
     1
102
RTVSPropertyOp57
 70
     1
102
RTVSPropertyOp58
 70
     1
102
RTVSPropertyOp59
 70
     1
102
RTVSPropertyOp60
 70
     1
102
RTVSPropertyOp61
 70
     1
102
RTVSPropertyOp62
 70
     1
  0
XRECORD
  5
9569
102
{ACAD_REACTORS
330
9568
102
}
330
9568
100
AcDbXrecord
280
     1
102
RTVSPost2010Prop28
280
     0
102
RTVSPost2010PropOp28
 70
     1
102
RTVSPost2010Prop29
280
     1
102
RTVSPost2010PropOp29
 70
     1
102
RTVSPost2010Prop30
280
     1
102
RTVSPost2010PropOp30
 70
     1
102
RTVSPost2010Prop31
280
     0
102
RTVSPost2010PropOp31
 70
     1
102
RTVSPost2010Prop32
280
     0
102
RTVSPost2010PropOp32
 70
     1
102
RTVSPost2010Prop33
280
     0
102
RTVSPost2010PropOp33
 70
     1
102
RTVSPost2010Prop34
280
     0
102
RTVSPost2010PropOp34
 70
     1
102
RTVSPost2010Prop35
280
     0
102
RTVSPost2010PropOp35
 70
     1
102
RTVSPost2010Prop36
280
     0
102
RTVSPost2010PropOp36
 70
     1
102
RTVSPost2010Prop37
 90
       50
102
RTVSPost2010PropOp37
 70
     1
102
RTVSPost2010Prop38
140
0.0
102
RTVSPost2010PropOp38
 70
     1
102
RTVSPost2010Prop39
140
1.0
102
RTVSPost2010PropOp39
 70
     1
102
RTVSPost2010Prop40
 90
        0
102
RTVSPost2010PropOp40
 70
     1
102
RTVSPost2010Prop41ColorIndex
 90
       18
102
RTVSPost2010Prop41ColorRGB
 90
        0
102
RTVSPost2010PropOp41
 70
     1
102
RTVSPost2010Prop42
 90
       50
102
RTVSPost2010PropOp42
 70
     1
102
RTVSPost2010Prop43
 90
        3
102
RTVSPost2010PropOp43
 70
     1
102
RTVSPost2010Prop44ColorIndex
 90
        5
102
RTVSPost2010Prop44ColorRGB
 90
      255
102
RTVSPost2010PropOp44
 70
     1
102
RTVSPost2010Prop45
280
     0
102
RTVSPost2010PropOp45
 70
     1
102
RTVSPost2010Prop46
 90
       50
102
RTVSPost2010PropOp46
 70
     1
102
RTVSPost2010Prop47
 90
       50
102
RTVSPost2010PropOp47
 70
     1
102
RTVSPost2010Prop48
 90
       50
102
RTVSPost2010PropOp48
 70
     1
102
RTVSPost2010Prop49
280
     0
102
RTVSPost2010PropOp49
 70
     1
102
RTVSPost2010Prop50
 90
       50
102
RTVSPost2010PropOp50
 70
     1
102
RTVSPost2010Prop51ColorIndex
 90
      256
102
RTVSPost2010Prop51ColorRGB
 90
-16777216
102
RTVSPost2010PropOp51
 70
     0
102
RTVSPost2010Prop52
140
1.0
102
RTVSPost2010PropOp52
 70
     0
102
RTVSPost2010Prop53
 90
        2
102
RTVSPost2010PropOp53
 70
     1
102
RTVSPost2010Prop54
  1
strokes_ogs.tif
102
RTVSPost2010PropOp54
 70
     1
102
RTVSPost2010Prop55
280
     0
102
RTVSPost2010PropOp55
 70
     1
102
RTVSPost2010Prop56
140
1.0
102
RTVSPost2010PropOp56
 70
     1
102
RTVSPost2010Prop57
140
1.0
102
RTVSPost2010PropOp57
 70
     1
102
RTVSPropertyOp0
 70
     1
102
RTVSPropertyOp1
 70
     1
102
RTVSPropertyOp2
 70
     1
102
RTVSPropertyOp3
 70
     1
102
RTVSPropertyOp4
 70
     1
102
RTVSPropertyOp5
 70
     1
102
RTVSPropertyOp6
 70
     1
102
RTVSPropertyOp7
 70
     1
102
RTVSPropertyOp8
 70
     1
102
RTVSPropertyOp9
 70
     1
102
RTVSPropertyOp10
 70
     1
102
RTVSPropertyOp11
 70
     1
102
RTVSPropertyOp12
 70
     1
102
RTVSPropertyOp13
 70
     1
102
RTVSPropertyOp14
 70
     1
102
RTVSPropertyOp15
 70
     1
102
RTVSPropertyOp16
 70
     1
102
RTVSPropertyOp17
 70
     1
102
RTVSPropertyOp18
 70
     1
102
RTVSPropertyOp19
 70
     1
102
RTVSPropertyOp20
 70
     1
102
RTVSPropertyOp21
 70
     1
102
RTVSPropertyOp22
 70
     1
102
RTVSPropertyOp23
 70
     1
102
RTVSPropertyOp24
 70
     1
102
RTVSPropertyOp25
 70
     1
102
RTVSPropertyOp26
 70
     1
102
RTVSPropertyOp27
 70
     1
102
RTVSPropertyOp28
 70
     1
102
RTVSPropertyOp29
 70
     1
102
RTVSPropertyOp30
 70
     1
102
RTVSPropertyOp31
 70
     1
102
RTVSPropertyOp32
 70
     1
102
RTVSPropertyOp33
 70
     1
102
RTVSPropertyOp34
 70
     1
102
RTVSPropertyOp35
 70
     1
102
RTVSPropertyOp36
 70
     1
102
RTVSPropertyOp37
 70
     1
102
RTVSPropertyOp38
 70
     1
102
RTVSPropertyOp39
 70
     1
102
RTVSPropertyOp40
 70
     1
102
RTVSPropertyOp41
 70
     1
102
RTVSPropertyOp42
 70
     1
102
RTVSPropertyOp43
 70
     1
102
RTVSPropertyOp44
 70
     1
102
RTVSPropertyOp45
 70
     1
102
RTVSPropertyOp46
 70
     1
102
RTVSPropertyOp47
 70
     1
102
RTVSPropertyOp48
 70
     1
102
RTVSPropertyOp49
 70
     1
102
RTVSPropertyOp50
 70
     1
102
RTVSPropertyOp51
 70
     0
102
RTVSPropertyOp52
 70
     0
102
RTVSPropertyOp53
 70
     1
102
RTVSPropertyOp54
 70
     1
102
RTVSPropertyOp55
 70
     1
102
RTVSPropertyOp56
 70
     1
102
RTVSPropertyOp57
 70
     1
102
RTVSPropertyOp58
 70
     1
102
RTVSPropertyOp59
 70
     1
102
RTVSPropertyOp60
 70
     1
102
RTVSPropertyOp61
 70
     1
102
RTVSPropertyOp62
 70
     1
  0
XRECORD
  5
9571
102
{ACAD_REACTORS
330
9570
102
}
330
9570
100
AcDbXrecord
280
     1
102
RTVSPost2010Prop28
280
     0
102
RTVSPost2010PropOp28
 70
     1
102
RTVSPost2010Prop29
280
     1
102
RTVSPost2010PropOp29
 70
     1
102
RTVSPost2010Prop30
280
     1
102
RTVSPost2010PropOp30
 70
     1
102
RTVSPost2010Prop31
280
     0
102
RTVSPost2010PropOp31
 70
     1
102
RTVSPost2010Prop32
280
     0
102
RTVSPost2010PropOp32
 70
     1
102
RTVSPost2010Prop33
280
     0
102
RTVSPost2010PropOp33
 70
     1
102
RTVSPost2010Prop34
280
     0
102
RTVSPost2010PropOp34
 70
     1
102
RTVSPost2010Prop35
280
     0
102
RTVSPost2010PropOp35
 70
     1
102
RTVSPost2010Prop36
280
     0
102
RTVSPost2010PropOp36
 70
     1
102
RTVSPost2010Prop37
 90
       50
102
RTVSPost2010PropOp37
 70
     1
102
RTVSPost2010Prop38
140
0.0
102
RTVSPost2010PropOp38
 70
     1
102
RTVSPost2010Prop39
140
1.0
102
RTVSPost2010PropOp39
 70
     1
102
RTVSPost2010Prop40
 90
        0
102
RTVSPost2010PropOp40
 70
     1
102
RTVSPost2010Prop41ColorIndex
 90
       18
102
RTVSPost2010Prop41ColorRGB
 90
        0
102
RTVSPost2010PropOp41
 70
     1
102
RTVSPost2010Prop42
 90
       50
102
RTVSPost2010PropOp42
 70
     1
102
RTVSPost2010Prop43
 90
        3
102
RTVSPost2010PropOp43
 70
     1
102
RTVSPost2010Prop44ColorIndex
 90
        5
102
RTVSPost2010Prop44ColorRGB
 90
      255
102
RTVSPost2010PropOp44
 70
     1
102
RTVSPost2010Prop45
280
     0
102
RTVSPost2010PropOp45
 70
     1
102
RTVSPost2010Prop46
 90
       50
102
RTVSPost2010PropOp46
 70
     1
102
RTVSPost2010Prop47
 90
       50
102
RTVSPost2010PropOp47
 70
     1
102
RTVSPost2010Prop48
 90
       50
102
RTVSPost2010PropOp48
 70
     1
102
RTVSPost2010Prop49
280
     0
102
RTVSPost2010PropOp49
 70
     1
102
RTVSPost2010Prop50
 90
       50
102
RTVSPost2010PropOp50
 70
     1
102
RTVSPost2010Prop51ColorIndex
 90
      256
102
RTVSPost2010Prop51ColorRGB
 90
-16777216
102
RTVSPost2010PropOp51
 70
     0
102
RTVSPost2010Prop52
140
1.0
102
RTVSPost2010PropOp52
 70
     0
102
RTVSPost2010Prop53
 90
        2
102
RTVSPost2010PropOp53
 70
     1
102
RTVSPost2010Prop54
  1
strokes_ogs.tif
102
RTVSPost2010PropOp54
 70
     1
102
RTVSPost2010Prop55
280
     0
102
RTVSPost2010PropOp55
 70
     1
102
RTVSPost2010Prop56
140
1.0
102
RTVSPost2010PropOp56
 70
     1
102
RTVSPost2010Prop57
140
1.0
102
RTVSPost2010PropOp57
 70
     1
102
RTVSPropertyOp0
 70
     1
102
RTVSPropertyOp1
 70
     1
102
RTVSPropertyOp2
 70
     1
102
RTVSPropertyOp3
 70
     1
102
RTVSPropertyOp4
 70
     1
102
RTVSPropertyOp5
 70
     1
102
RTVSPropertyOp6
 70
     1
102
RTVSPropertyOp7
 70
     1
102
RTVSPropertyOp8
 70
     1
102
RTVSPropertyOp9
 70
     1
102
RTVSPropertyOp10
 70
     1
102
RTVSPropertyOp11
 70
     1
102
RTVSPropertyOp12
 70
     1
102
RTVSPropertyOp13
 70
     1
102
RTVSPropertyOp14
 70
     1
102
RTVSPropertyOp15
 70
     1
102
RTVSPropertyOp16
 70
     1
102
RTVSPropertyOp17
 70
     1
102
RTVSPropertyOp18
 70
     1
102
RTVSPropertyOp19
 70
     1
102
RTVSPropertyOp20
 70
     1
102
RTVSPropertyOp21
 70
     1
102
RTVSPropertyOp22
 70
     1
102
RTVSPropertyOp23
 70
     1
102
RTVSPropertyOp24
 70
     1
102
RTVSPropertyOp25
 70
     1
102
RTVSPropertyOp26
 70
     1
102
RTVSPropertyOp27
 70
     1
102
RTVSPropertyOp28
 70
     1
102
RTVSPropertyOp29
 70
     1
102
RTVSPropertyOp30
 70
     1
102
RTVSPropertyOp31
 70
     1
102
RTVSPropertyOp32
 70
     1
102
RTVSPropertyOp33
 70
     1
102
RTVSPropertyOp34
 70
     1
102
RTVSPropertyOp35
 70
     1
102
RTVSPropertyOp36
 70
     1
102
RTVSPropertyOp37
 70
     1
102
RTVSPropertyOp38
 70
     1
102
RTVSPropertyOp39
 70
     1
102
RTVSPropertyOp40
 70
     1
102
RTVSPropertyOp41
 70
     1
102
RTVSPropertyOp42
 70
     1
102
RTVSPropertyOp43
 70
     1
102
RTVSPropertyOp44
 70
     1
102
RTVSPropertyOp45
 70
     1
102
RTVSPropertyOp46
 70
     1
102
RTVSPropertyOp47
 70
     1
102
RTVSPropertyOp48
 70
     1
102
RTVSPropertyOp49
 70
     1
102
RTVSPropertyOp50
 70
     1
102
RTVSPropertyOp51
 70
     0
102
RTVSPropertyOp52
 70
     0
102
RTVSPropertyOp53
 70
     1
102
RTVSPropertyOp54
 70
     1
102
RTVSPropertyOp55
 70
     1
102
RTVSPropertyOp56
 70
     1
102
RTVSPropertyOp57
 70
     1
102
RTVSPropertyOp58
 70
     1
102
RTVSPropertyOp59
 70
     1
102
RTVSPropertyOp60
 70
     1
102
RTVSPropertyOp61
 70
     1
102
RTVSPropertyOp62
 70
     1
  0
XRECORD
  5
9585
102
{ACAD_REACTORS
330
9584
102
}
330
9584
100
AcDbXrecord
280
     1
102
RTVSPost2010Prop28
280
     0
102
RTVSPost2010PropOp28
 70
     1
102
RTVSPost2010Prop29
280
     1
102
RTVSPost2010PropOp29
 70
     1
102
RTVSPost2010Prop30
280
     1
102
RTVSPost2010PropOp30
 70
     1
102
RTVSPost2010Prop31
280
     0
102
RTVSPost2010PropOp31
 70
     1
102
RTVSPost2010Prop32
280
     0
102
RTVSPost2010PropOp32
 70
     1
102
RTVSPost2010Prop33
280
     0
102
RTVSPost2010PropOp33
 70
     1
102
RTVSPost2010Prop34
280
     0
102
RTVSPost2010PropOp34
 70
     1
102
RTVSPost2010Prop35
280
     0
102
RTVSPost2010PropOp35
 70
     1
102
RTVSPost2010Prop36
280
     0
102
RTVSPost2010PropOp36
 70
     1
102
RTVSPost2010Prop37
 90
       50
102
RTVSPost2010PropOp37
 70
     1
102
RTVSPost2010Prop38
140
0.0
102
RTVSPost2010PropOp38
 70
     1
102
RTVSPost2010Prop39
140
1.0
102
RTVSPost2010PropOp39
 70
     1
102
RTVSPost2010Prop40
 90
        0
102
RTVSPost2010PropOp40
 70
     1
102
RTVSPost2010Prop41ColorIndex
 90
       18
102
RTVSPost2010Prop41ColorRGB
 90
        0
102
RTVSPost2010PropOp41
 70
     1
102
RTVSPost2010Prop42
 90
       50
102
RTVSPost2010PropOp42
 70
     1
102
RTVSPost2010Prop43
 90
        3
102
RTVSPost2010PropOp43
 70
     1
102
RTVSPost2010Prop44ColorIndex
 90
        5
102
RTVSPost2010Prop44ColorRGB
 90
      255
102
RTVSPost2010PropOp44
 70
     1
102
RTVSPost2010Prop45
280
     0
102
RTVSPost2010PropOp45
 70
     1
102
RTVSPost2010Prop46
 90
       50
102
RTVSPost2010PropOp46
 70
     1
102
RTVSPost2010Prop47
 90
       50
102
RTVSPost2010PropOp47
 70
     1
102
RTVSPost2010Prop48
 90
       50
102
RTVSPost2010PropOp48
 70
     1
102
RTVSPost2010Prop49
280
     0
102
RTVSPost2010PropOp49
 70
     1
102
RTVSPost2010Prop50
 90
       50
102
RTVSPost2010PropOp50
 70
     1
102
RTVSPost2010Prop51ColorIndex
 90
      256
102
RTVSPost2010Prop51ColorRGB
 90
-16777216
102
RTVSPost2010PropOp51
 70
     0
102
RTVSPost2010Prop52
140
1.0
102
RTVSPost2010PropOp52
 70
     0
102
RTVSPost2010Prop53
 90
        2
102
RTVSPost2010PropOp53
 70
     1
102
RTVSPost2010Prop54
  1
strokes_ogs.tif
102
RTVSPost2010PropOp54
 70
     1
102
RTVSPost2010Prop55
280
     0
102
RTVSPost2010PropOp55
 70
     1
102
RTVSPost2010Prop56
140
1.0
102
RTVSPost2010PropOp56
 70
     1
102
RTVSPost2010Prop57
140
1.0
102
RTVSPost2010PropOp57
 70
     1
102
RTVSPropertyOp0
 70
     0
102
RTVSPropertyOp1
 70
     0
102
RTVSPropertyOp2
 70
     0
102
RTVSPropertyOp3
 70
     0
102
RTVSPropertyOp4
 70
     0
102
RTVSPropertyOp5
 70
     0
102
RTVSPropertyOp6
 70
     0
102
RTVSPropertyOp7
 70
     0
102
RTVSPropertyOp8
 70
     0
102
RTVSPropertyOp9
 70
     0
102
RTVSPropertyOp10
 70
     0
102
RTVSPropertyOp11
 70
     0
102
RTVSPropertyOp12
 70
     0
102
RTVSPropertyOp13
 70
     0
102
RTVSPropertyOp14
 70
     2
102
RTVSPropertyOp15
 70
     0
102
RTVSPropertyOp16
 70
     0
102
RTVSPropertyOp17
 70
     0
102
RTVSPropertyOp18
 70
     0
102
RTVSPropertyOp19
 70
     0
102
RTVSPropertyOp20
 70
     0
102
RTVSPropertyOp21
 70
     0
102
RTVSPropertyOp22
 70
     0
102
RTVSPropertyOp23
 70
     0
102
RTVSPropertyOp24
 70
     0
102
RTVSPropertyOp25
 70
     0
102
RTVSPropertyOp26
 70
     0
102
RTVSPropertyOp27
 70
     0
102
RTVSPropertyOp28
 70
     1
102
RTVSPropertyOp29
 70
     1
102
RTVSPropertyOp30
 70
     1
102
RTVSPropertyOp31
 70
     1
102
RTVSPropertyOp32
 70
     1
102
RTVSPropertyOp33
 70
     1
102
RTVSPropertyOp34
 70
     1
102
RTVSPropertyOp35
 70
     1
102
RTVSPropertyOp36
 70
     1
102
RTVSPropertyOp37
 70
     1
102
RTVSPropertyOp38
 70
     1
102
RTVSPropertyOp39
 70
     1
102
RTVSPropertyOp40
 70
     1
102
RTVSPropertyOp41
 70
     1
102
RTVSPropertyOp42
 70
     1
102
RTVSPropertyOp43
 70
     1
102
RTVSPropertyOp44
 70
     1
102
RTVSPropertyOp45
 70
     1
102
RTVSPropertyOp46
 70
     1
102
RTVSPropertyOp47
 70
     1
102
RTVSPropertyOp48
 70
     1
102
RTVSPropertyOp49
 70
     1
102
RTVSPropertyOp50
 70
     1
102
RTVSPropertyOp51
 70
     0
102
RTVSPropertyOp52
 70
     0
102
RTVSPropertyOp53
 70
     1
102
RTVSPropertyOp54
 70
     1
102
RTVSPropertyOp55
 70
     1
102
RTVSPropertyOp56
 70
     1
102
RTVSPropertyOp57
 70
     1
102
RTVSPropertyOp58
 70
     1
102
RTVSPropertyOp59
 70
     1
102
RTVSPropertyOp60
 70
     1
102
RTVSPropertyOp61
 70
     1
102
RTVSPropertyOp62
 70
     1
  0
XRECORD
  5
957D
102
{ACAD_REACTORS
330
957C
102
}
330
957C
100
AcDbXrecord
280
     1
102
RTVSPost2010Prop28
280
     0
102
RTVSPost2010PropOp28
 70
     1
102
RTVSPost2010Prop29
280
     1
102
RTVSPost2010PropOp29
 70
     1
102
RTVSPost2010Prop30
280
     1
102
RTVSPost2010PropOp30
 70
     1
102
RTVSPost2010Prop31
280
     0
102
RTVSPost2010PropOp31
 70
     1
102
RTVSPost2010Prop32
280
     0
102
RTVSPost2010PropOp32
 70
     1
102
RTVSPost2010Prop33
280
     0
102
RTVSPost2010PropOp33
 70
     1
102
RTVSPost2010Prop34
280
     0
102
RTVSPost2010PropOp34
 70
     1
102
RTVSPost2010Prop35
280
     0
102
RTVSPost2010PropOp35
 70
     1
102
RTVSPost2010Prop36
280
     0
102
RTVSPost2010PropOp36
 70
     1
102
RTVSPost2010Prop37
 90
       50
102
RTVSPost2010PropOp37
 70
     1
102
RTVSPost2010Prop38
140
0.0
102
RTVSPost2010PropOp38
 70
     1
102
RTVSPost2010Prop39
140
1.0
102
RTVSPost2010PropOp39
 70
     1
102
RTVSPost2010Prop40
 90
        0
102
RTVSPost2010PropOp40
 70
     1
102
RTVSPost2010Prop41ColorIndex
 90
       18
102
RTVSPost2010Prop41ColorRGB
 90
        0
102
RTVSPost2010PropOp41
 70
     1
102
RTVSPost2010Prop42
 90
       50
102
RTVSPost2010PropOp42
 70
     1
102
RTVSPost2010Prop43
 90
        3
102
RTVSPost2010PropOp43
 70
     1
102
RTVSPost2010Prop44ColorIndex
 90
        5
102
RTVSPost2010Prop44ColorRGB
 90
      255
102
RTVSPost2010PropOp44
 70
     1
102
RTVSPost2010Prop45
280
     0
102
RTVSPost2010PropOp45
 70
     1
102
RTVSPost2010Prop46
 90
       50
102
RTVSPost2010PropOp46
 70
     1
102
RTVSPost2010Prop47
 90
       50
102
RTVSPost2010PropOp47
 70
     1
102
RTVSPost2010Prop48
 90
       50
102
RTVSPost2010PropOp48
 70
     1
102
RTVSPost2010Prop49
280
     0
102
RTVSPost2010PropOp49
 70
     1
102
RTVSPost2010Prop50
 90
       50
102
RTVSPost2010PropOp50
 70
     1
102
RTVSPost2010Prop51ColorIndex
 90
      256
102
RTVSPost2010Prop51ColorRGB
 90
-16777216
102
RTVSPost2010PropOp51
 70
     0
102
RTVSPost2010Prop52
140
1.0
102
RTVSPost2010PropOp52
 70
     0
102
RTVSPost2010Prop53
 90
        2
102
RTVSPost2010PropOp53
 70
     1
102
RTVSPost2010Prop54
  1
strokes_ogs.tif
102
RTVSPost2010PropOp54
 70
     1
102
RTVSPost2010Prop55
280
     0
102
RTVSPost2010PropOp55
 70
     1
102
RTVSPost2010Prop56
140
1.0
102
RTVSPost2010PropOp56
 70
     1
102
RTVSPost2010Prop57
140
1.0
102
RTVSPost2010PropOp57
 70
     1
102
RTVSPropertyOp0
 70
     1
102
RTVSPropertyOp1
 70
     1
102
RTVSPropertyOp2
 70
     1
102
RTVSPropertyOp3
 70
     1
102
RTVSPropertyOp4
 70
     1
102
RTVSPropertyOp5
 70
     1
102
RTVSPropertyOp6
 70
     1
102
RTVSPropertyOp7
 70
     1
102
RTVSPropertyOp8
 70
     1
102
RTVSPropertyOp9
 70
     1
102
RTVSPropertyOp10
 70
     1
102
RTVSPropertyOp11
 70
     1
102
RTVSPropertyOp12
 70
     1
102
RTVSPropertyOp13
 70
     1
102
RTVSPropertyOp14
 70
     1
102
RTVSPropertyOp15
 70
     1
102
RTVSPropertyOp16
 70
     1
102
RTVSPropertyOp17
 70
     1
102
RTVSPropertyOp18
 70
     1
102
RTVSPropertyOp19
 70
     1
102
RTVSPropertyOp20
 70
     1
102
RTVSPropertyOp21
 70
     1
102
RTVSPropertyOp22
 70
     1
102
RTVSPropertyOp23
 70
     1
102
RTVSPropertyOp24
 70
     1
102
RTVSPropertyOp25
 70
     1
102
RTVSPropertyOp26
 70
     1
102
RTVSPropertyOp27
 70
     1
102
RTVSPropertyOp28
 70
     1
102
RTVSPropertyOp29
 70
     1
102
RTVSPropertyOp30
 70
     1
102
RTVSPropertyOp31
 70
     1
102
RTVSPropertyOp32
 70
     1
102
RTVSPropertyOp33
 70
     1
102
RTVSPropertyOp34
 70
     1
102
RTVSPropertyOp35
 70
     1
102
RTVSPropertyOp36
 70
     1
102
RTVSPropertyOp37
 70
     1
102
RTVSPropertyOp38
 70
     1
102
RTVSPropertyOp39
 70
     1
102
RTVSPropertyOp40
 70
     1
102
RTVSPropertyOp41
 70
     1
102
RTVSPropertyOp42
 70
     1
102
RTVSPropertyOp43
 70
     1
102
RTVSPropertyOp44
 70
     1
102
RTVSPropertyOp45
 70
     1
102
RTVSPropertyOp46
 70
     1
102
RTVSPropertyOp47
 70
     1
102
RTVSPropertyOp48
 70
     1
102
RTVSPropertyOp49
 70
     1
102
RTVSPropertyOp50
 70
     1
102
RTVSPropertyOp51
 70
     0
102
RTVSPropertyOp52
 70
     0
102
RTVSPropertyOp53
 70
     1
102
RTVSPropertyOp54
 70
     1
102
RTVSPropertyOp55
 70
     1
102
RTVSPropertyOp56
 70
     1
102
RTVSPropertyOp57
 70
     1
102
RTVSPropertyOp58
 70
     1
102
RTVSPropertyOp59
 70
     1
102
RTVSPropertyOp60
 70
     1
102
RTVSPropertyOp61
 70
     1
102
RTVSPropertyOp62
 70
     1
  0
XRECORD
  5
9587
102
{ACAD_REACTORS
330
9586
102
}
330
9586
100
AcDbXrecord
280
     1
102
RTVSPost2010Prop28
280
     0
102
RTVSPost2010PropOp28
 70
     1
102
RTVSPost2010Prop29
280
     1
102
RTVSPost2010PropOp29
 70
     1
102
RTVSPost2010Prop30
280
     1
102
RTVSPost2010PropOp30
 70
     1
102
RTVSPost2010Prop31
280
     0
102
RTVSPost2010PropOp31
 70
     1
102
RTVSPost2010Prop32
280
     0
102
RTVSPost2010PropOp32
 70
     1
102
RTVSPost2010Prop33
280
     0
102
RTVSPost2010PropOp33
 70
     1
102
RTVSPost2010Prop34
280
     0
102
RTVSPost2010PropOp34
 70
     1
102
RTVSPost2010Prop35
280
     0
102
RTVSPost2010PropOp35
 70
     1
102
RTVSPost2010Prop36
280
     0
102
RTVSPost2010PropOp36
 70
     1
102
RTVSPost2010Prop37
 90
       50
102
RTVSPost2010PropOp37
 70
     1
102
RTVSPost2010Prop38
140
0.0
102
RTVSPost2010PropOp38
 70
     1
102
RTVSPost2010Prop39
140
1.0
102
RTVSPost2010PropOp39
 70
     1
102
RTVSPost2010Prop40
 90
        0
102
RTVSPost2010PropOp40
 70
     1
102
RTVSPost2010Prop41ColorIndex
 90
       18
102
RTVSPost2010Prop41ColorRGB
 90
        0
102
RTVSPost2010PropOp41
 70
     1
102
RTVSPost2010Prop42
 90
       50
102
RTVSPost2010PropOp42
 70
     1
102
RTVSPost2010Prop43
 90
        3
102
RTVSPost2010PropOp43
 70
     1
102
RTVSPost2010Prop44ColorIndex
 90
        5
102
RTVSPost2010Prop44ColorRGB
 90
      255
102
RTVSPost2010PropOp44
 70
     1
102
RTVSPost2010Prop45
280
     0
102
RTVSPost2010PropOp45
 70
     1
102
RTVSPost2010Prop46
 90
       50
102
RTVSPost2010PropOp46
 70
     1
102
RTVSPost2010Prop47
 90
       50
102
RTVSPost2010PropOp47
 70
     1
102
RTVSPost2010Prop48
 90
       50
102
RTVSPost2010PropOp48
 70
     1
102
RTVSPost2010Prop49
280
     0
102
RTVSPost2010PropOp49
 70
     1
102
RTVSPost2010Prop50
 90
       50
102
RTVSPost2010PropOp50
 70
     1
102
RTVSPost2010Prop51ColorIndex
 90
      256
102
RTVSPost2010Prop51ColorRGB
 90
-16777216
102
RTVSPost2010PropOp51
 70
     0
102
RTVSPost2010Prop52
140
1.0
102
RTVSPost2010PropOp52
 70
     0
102
RTVSPost2010Prop53
 90
        2
102
RTVSPost2010PropOp53
 70
     1
102
RTVSPost2010Prop54
  1
strokes_ogs.tif
102
RTVSPost2010PropOp54
 70
     1
102
RTVSPost2010Prop55
280
     0
102
RTVSPost2010PropOp55
 70
     1
102
RTVSPost2010Prop56
140
1.0
102
RTVSPost2010PropOp56
 70
     1
102
RTVSPost2010Prop57
140
1.0
102
RTVSPost2010PropOp57
 70
     1
102
RTVSPropertyOp0
 70
     0
102
RTVSPropertyOp1
 70
     0
102
RTVSPropertyOp2
 70
     0
102
RTVSPropertyOp3
 70
     0
102
RTVSPropertyOp4
 70
     0
102
RTVSPropertyOp5
 70
     0
102
RTVSPropertyOp6
 70
     0
102
RTVSPropertyOp7
 70
     0
102
RTVSPropertyOp8
 70
     0
102
RTVSPropertyOp9
 70
     0
102
RTVSPropertyOp10
 70
     0
102
RTVSPropertyOp11
 70
     0
102
RTVSPropertyOp12
 70
     0
102
RTVSPropertyOp13
 70
     0
102
RTVSPropertyOp14
 70
     2
102
RTVSPropertyOp15
 70
     0
102
RTVSPropertyOp16
 70
     0
102
RTVSPropertyOp17
 70
     0
102
RTVSPropertyOp18
 70
     0
102
RTVSPropertyOp19
 70
     0
102
RTVSPropertyOp20
 70
     0
102
RTVSPropertyOp21
 70
     0
102
RTVSPropertyOp22
 70
     0
102
RTVSPropertyOp23
 70
     0
102
RTVSPropertyOp24
 70
     0
102
RTVSPropertyOp25
 70
     0
102
RTVSPropertyOp26
 70
     0
102
RTVSPropertyOp27
 70
     0
102
RTVSPropertyOp28
 70
     1
102
RTVSPropertyOp29
 70
     1
102
RTVSPropertyOp30
 70
     1
102
RTVSPropertyOp31
 70
     1
102
RTVSPropertyOp32
 70
     1
102
RTVSPropertyOp33
 70
     1
102
RTVSPropertyOp34
 70
     1
102
RTVSPropertyOp35
 70
     1
102
RTVSPropertyOp36
 70
     1
102
RTVSPropertyOp37
 70
     1
102
RTVSPropertyOp38
 70
     1
102
RTVSPropertyOp39
 70
     1
102
RTVSPropertyOp40
 70
     1
102
RTVSPropertyOp41
 70
     1
102
RTVSPropertyOp42
 70
     1
102
RTVSPropertyOp43
 70
     1
102
RTVSPropertyOp44
 70
     1
102
RTVSPropertyOp45
 70
     1
102
RTVSPropertyOp46
 70
     1
102
RTVSPropertyOp47
 70
     1
102
RTVSPropertyOp48
 70
     1
102
RTVSPropertyOp49
 70
     1
102
RTVSPropertyOp50
 70
     1
102
RTVSPropertyOp51
 70
     0
102
RTVSPropertyOp52
 70
     0
102
RTVSPropertyOp53
 70
     1
102
RTVSPropertyOp54
 70
     1
102
RTVSPropertyOp55
 70
     1
102
RTVSPropertyOp56
 70
     1
102
RTVSPropertyOp57
 70
     1
102
RTVSPropertyOp58
 70
     1
102
RTVSPropertyOp59
 70
     1
102
RTVSPropertyOp60
 70
     1
102
RTVSPropertyOp61
 70
     1
102
RTVSPropertyOp62
 70
     1
  0
XRECORD
  5
9575
102
{ACAD_REACTORS
330
9574
102
}
330
9574
100
AcDbXrecord
280
     1
102
RTVSPost2010Prop28
280
     0
102
RTVSPost2010PropOp28
 70
     1
102
RTVSPost2010Prop29
280
     1
102
RTVSPost2010PropOp29
 70
     1
102
RTVSPost2010Prop30
280
     1
102
RTVSPost2010PropOp30
 70
     1
102
RTVSPost2010Prop31
280
     0
102
RTVSPost2010PropOp31
 70
     1
102
RTVSPost2010Prop32
280
     0
102
RTVSPost2010PropOp32
 70
     1
102
RTVSPost2010Prop33
280
     0
102
RTVSPost2010PropOp33
 70
     1
102
RTVSPost2010Prop34
280
     0
102
RTVSPost2010PropOp34
 70
     1
102
RTVSPost2010Prop35
280
     0
102
RTVSPost2010PropOp35
 70
     1
102
RTVSPost2010Prop36
280
     0
102
RTVSPost2010PropOp36
 70
     1
102
RTVSPost2010Prop37
 90
       50
102
RTVSPost2010PropOp37
 70
     1
102
RTVSPost2010Prop38
140
0.0
102
RTVSPost2010PropOp38
 70
     1
102
RTVSPost2010Prop39
140
1.0
102
RTVSPost2010PropOp39
 70
     1
102
RTVSPost2010Prop40
 90
        0
102
RTVSPost2010PropOp40
 70
     1
102
RTVSPost2010Prop41ColorIndex
 90
       18
102
RTVSPost2010Prop41ColorRGB
 90
        0
102
RTVSPost2010PropOp41
 70
     1
102
RTVSPost2010Prop42
 90
       50
102
RTVSPost2010PropOp42
 70
     1
102
RTVSPost2010Prop43
 90
        3
102
RTVSPost2010PropOp43
 70
     1
102
RTVSPost2010Prop44ColorIndex
 90
        5
102
RTVSPost2010Prop44ColorRGB
 90
      255
102
RTVSPost2010PropOp44
 70
     1
102
RTVSPost2010Prop45
280
     0
102
RTVSPost2010PropOp45
 70
     1
102
RTVSPost2010Prop46
 90
       50
102
RTVSPost2010PropOp46
 70
     1
102
RTVSPost2010Prop47
 90
       50
102
RTVSPost2010PropOp47
 70
     1
102
RTVSPost2010Prop48
 90
       50
102
RTVSPost2010PropOp48
 70
     1
102
RTVSPost2010Prop49
280
     0
102
RTVSPost2010PropOp49
 70
     1
102
RTVSPost2010Prop50
 90
       50
102
RTVSPost2010PropOp50
 70
     1
102
RTVSPost2010Prop51ColorIndex
 90
      256
102
RTVSPost2010Prop51ColorRGB
 90
-16777216
102
RTVSPost2010PropOp51
 70
     0
102
RTVSPost2010Prop52
140
1.0
102
RTVSPost2010PropOp52
 70
     0
102
RTVSPost2010Prop53
 90
        2
102
RTVSPost2010PropOp53
 70
     1
102
RTVSPost2010Prop54
  1
strokes_ogs.tif
102
RTVSPost2010PropOp54
 70
     1
102
RTVSPost2010Prop55
280
     0
102
RTVSPost2010PropOp55
 70
     1
102
RTVSPost2010Prop56
140
1.0
102
RTVSPost2010PropOp56
 70
     1
102
RTVSPost2010Prop57
140
1.0
102
RTVSPost2010PropOp57
 70
     1
102
RTVSPropertyOp0
 70
     1
102
RTVSPropertyOp1
 70
     1
102
RTVSPropertyOp2
 70
     1
102
RTVSPropertyOp3
 70
     1
102
RTVSPropertyOp4
 70
     1
102
RTVSPropertyOp5
 70
     1
102
RTVSPropertyOp6
 70
     1
102
RTVSPropertyOp7
 70
     1
102
RTVSPropertyOp8
 70
     1
102
RTVSPropertyOp9
 70
     1
102
RTVSPropertyOp10
 70
     1
102
RTVSPropertyOp11
 70
     1
102
RTVSPropertyOp12
 70
     1
102
RTVSPropertyOp13
 70
     1
102
RTVSPropertyOp14
 70
     1
102
RTVSPropertyOp15
 70
     1
102
RTVSPropertyOp16
 70
     1
102
RTVSPropertyOp17
 70
     1
102
RTVSPropertyOp18
 70
     1
102
RTVSPropertyOp19
 70
     1
102
RTVSPropertyOp20
 70
     1
102
RTVSPropertyOp21
 70
     1
102
RTVSPropertyOp22
 70
     1
102
RTVSPropertyOp23
 70
     1
102
RTVSPropertyOp24
 70
     1
102
RTVSPropertyOp25
 70
     1
102
RTVSPropertyOp26
 70
     1
102
RTVSPropertyOp27
 70
     1
102
RTVSPropertyOp28
 70
     1
102
RTVSPropertyOp29
 70
     1
102
RTVSPropertyOp30
 70
     1
102
RTVSPropertyOp31
 70
     1
102
RTVSPropertyOp32
 70
     1
102
RTVSPropertyOp33
 70
     1
102
RTVSPropertyOp34
 70
     1
102
RTVSPropertyOp35
 70
     1
102
RTVSPropertyOp36
 70
     1
102
RTVSPropertyOp37
 70
     1
102
RTVSPropertyOp38
 70
     1
102
RTVSPropertyOp39
 70
     1
102
RTVSPropertyOp40
 70
     1
102
RTVSPropertyOp41
 70
     1
102
RTVSPropertyOp42
 70
     1
102
RTVSPropertyOp43
 70
     1
102
RTVSPropertyOp44
 70
     1
102
RTVSPropertyOp45
 70
     1
102
RTVSPropertyOp46
 70
     1
102
RTVSPropertyOp47
 70
     1
102
RTVSPropertyOp48
 70
     1
102
RTVSPropertyOp49
 70
     1
102
RTVSPropertyOp50
 70
     1
102
RTVSPropertyOp51
 70
     0
102
RTVSPropertyOp52
 70
     0
102
RTVSPropertyOp53
 70
     1
102
RTVSPropertyOp54
 70
     1
102
RTVSPropertyOp55
 70
     1
102
RTVSPropertyOp56
 70
     1
102
RTVSPropertyOp57
 70
     1
102
RTVSPropertyOp58
 70
     1
102
RTVSPropertyOp59
 70
     1
102
RTVSPropertyOp60
 70
     1
102
RTVSPropertyOp61
 70
     1
102
RTVSPropertyOp62
 70
     1
  0
XRECORD
  5
9593
102
{ACAD_REACTORS
330
9592
102
}
330
9592
100
AcDbXrecord
280
     1
102
RTVSPost2010Prop28
280
     0
102
RTVSPost2010PropOp28
 70
     1
102
RTVSPost2010Prop29
280
     1
102
RTVSPost2010PropOp29
 70
     1
102
RTVSPost2010Prop30
280
     1
102
RTVSPost2010PropOp30
 70
     1
102
RTVSPost2010Prop31
280
     0
102
RTVSPost2010PropOp31
 70
     1
102
RTVSPost2010Prop32
280
     0
102
RTVSPost2010PropOp32
 70
     1
102
RTVSPost2010Prop33
280
     0
102
RTVSPost2010PropOp33
 70
     1
102
RTVSPost2010Prop34
280
     0
102
RTVSPost2010PropOp34
 70
     1
102
RTVSPost2010Prop35
280
     0
102
RTVSPost2010PropOp35
 70
     1
102
RTVSPost2010Prop36
280
     0
102
RTVSPost2010PropOp36
 70
     1
102
RTVSPost2010Prop37
 90
       50
102
RTVSPost2010PropOp37
 70
     1
102
RTVSPost2010Prop38
140
0.0
102
RTVSPost2010PropOp38
 70
     1
102
RTVSPost2010Prop39
140
1.0
102
RTVSPost2010PropOp39
 70
     1
102
RTVSPost2010Prop40
 90
        0
102
RTVSPost2010PropOp40
 70
     1
102
RTVSPost2010Prop41ColorIndex
 90
       18
102
RTVSPost2010Prop41ColorRGB
 90
        0
102
RTVSPost2010PropOp41
 70
     1
102
RTVSPost2010Prop42
 90
       50
102
RTVSPost2010PropOp42
 70
     1
102
RTVSPost2010Prop43
 90
        3
102
RTVSPost2010PropOp43
 70
     1
102
RTVSPost2010Prop44ColorIndex
 90
        5
102
RTVSPost2010Prop44ColorRGB
 90
      255
102
RTVSPost2010PropOp44
 70
     1
102
RTVSPost2010Prop45
280
     0
102
RTVSPost2010PropOp45
 70
     1
102
RTVSPost2010Prop46
 90
       50
102
RTVSPost2010PropOp46
 70
     1
102
RTVSPost2010Prop47
 90
       50
102
RTVSPost2010PropOp47
 70
     1
102
RTVSPost2010Prop48
 90
       50
102
RTVSPost2010PropOp48
 70
     1
102
RTVSPost2010Prop49
280
     0
102
RTVSPost2010PropOp49
 70
     1
102
RTVSPost2010Prop50
 90
       50
102
RTVSPost2010PropOp50
 70
     1
102
RTVSPost2010Prop51ColorIndex
 90
      256
102
RTVSPost2010Prop51ColorRGB
 90
-16777216
102
RTVSPost2010PropOp51
 70
     0
102
RTVSPost2010Prop52
140
1.0
102
RTVSPost2010PropOp52
 70
     0
102
RTVSPost2010Prop53
 90
        2
102
RTVSPost2010PropOp53
 70
     1
102
RTVSPost2010Prop54
  1
strokes_ogs.tif
102
RTVSPost2010PropOp54
 70
     1
102
RTVSPost2010Prop55
280
     0
102
RTVSPost2010PropOp55
 70
     1
102
RTVSPost2010Prop56
140
1.0
102
RTVSPost2010PropOp56
 70
     1
102
RTVSPost2010Prop57
140
1.0
102
RTVSPost2010PropOp57
 70
     1
102
RTVSPropertyOp0
 70
     1
102
RTVSPropertyOp1
 70
     1
102
RTVSPropertyOp2
 70
     1
102
RTVSPropertyOp3
 70
     1
102
RTVSPropertyOp4
 70
     1
102
RTVSPropertyOp5
 70
     1
102
RTVSPropertyOp6
 70
     1
102
RTVSPropertyOp7
 70
     1
102
RTVSPropertyOp8
 70
     1
102
RTVSPropertyOp9
 70
     1
102
RTVSPropertyOp10
 70
     1
102
RTVSPropertyOp11
 70
     1
102
RTVSPropertyOp12
 70
     1
102
RTVSPropertyOp13
 70
     1
102
RTVSPropertyOp14
 70
     1
102
RTVSPropertyOp15
 70
     1
102
RTVSPropertyOp16
 70
     1
102
RTVSPropertyOp17
 70
     1
102
RTVSPropertyOp18
 70
     1
102
RTVSPropertyOp19
 70
     1
102
RTVSPropertyOp20
 70
     1
102
RTVSPropertyOp21
 70
     1
102
RTVSPropertyOp22
 70
     1
102
RTVSPropertyOp23
 70
     1
102
RTVSPropertyOp24
 70
     1
102
RTVSPropertyOp25
 70
     1
102
RTVSPropertyOp26
 70
     1
102
RTVSPropertyOp27
 70
     1
102
RTVSPropertyOp28
 70
     1
102
RTVSPropertyOp29
 70
     1
102
RTVSPropertyOp30
 70
     1
102
RTVSPropertyOp31
 70
     1
102
RTVSPropertyOp32
 70
     1
102
RTVSPropertyOp33
 70
     1
102
RTVSPropertyOp34
 70
     1
102
RTVSPropertyOp35
 70
     1
102
RTVSPropertyOp36
 70
     1
102
RTVSPropertyOp37
 70
     1
102
RTVSPropertyOp38
 70
     1
102
RTVSPropertyOp39
 70
     1
102
RTVSPropertyOp40
 70
     1
102
RTVSPropertyOp41
 70
     1
102
RTVSPropertyOp42
 70
     1
102
RTVSPropertyOp43
 70
     1
102
RTVSPropertyOp44
 70
     1
102
RTVSPropertyOp45
 70
     1
102
RTVSPropertyOp46
 70
     1
102
RTVSPropertyOp47
 70
     1
102
RTVSPropertyOp48
 70
     1
102
RTVSPropertyOp49
 70
     1
102
RTVSPropertyOp50
 70
     1
102
RTVSPropertyOp51
 70
     0
102
RTVSPropertyOp52
 70
     0
102
RTVSPropertyOp53
 70
     1
102
RTVSPropertyOp54
 70
     1
102
RTVSPropertyOp55
 70
     1
102
RTVSPropertyOp56
 70
     1
102
RTVSPropertyOp57
 70
     1
102
RTVSPropertyOp58
 70
     1
102
RTVSPropertyOp59
 70
     1
102
RTVSPropertyOp60
 70
     1
102
RTVSPropertyOp61
 70
     1
102
RTVSPropertyOp62
 70
     1
  0
XRECORD
  5
9591
102
{ACAD_REACTORS
330
9590
102
}
330
9590
100
AcDbXrecord
280
     1
102
RTVSPost2010Prop28
280
     0
102
RTVSPost2010PropOp28
 70
     1
102
RTVSPost2010Prop29
280
     1
102
RTVSPost2010PropOp29
 70
     1
102
RTVSPost2010Prop30
280
     1
102
RTVSPost2010PropOp30
 70
     1
102
RTVSPost2010Prop31
280
     0
102
RTVSPost2010PropOp31
 70
     1
102
RTVSPost2010Prop32
280
     0
102
RTVSPost2010PropOp32
 70
     1
102
RTVSPost2010Prop33
280
     0
102
RTVSPost2010PropOp33
 70
     1
102
RTVSPost2010Prop34
280
     0
102
RTVSPost2010PropOp34
 70
     1
102
RTVSPost2010Prop35
280
     0
102
RTVSPost2010PropOp35
 70
     1
102
RTVSPost2010Prop36
280
     0
102
RTVSPost2010PropOp36
 70
     1
102
RTVSPost2010Prop37
 90
       50
102
RTVSPost2010PropOp37
 70
     1
102
RTVSPost2010Prop38
140
0.0
102
RTVSPost2010PropOp38
 70
     1
102
RTVSPost2010Prop39
140
1.0
102
RTVSPost2010PropOp39
 70
     1
102
RTVSPost2010Prop40
 90
        0
102
RTVSPost2010PropOp40
 70
     1
102
RTVSPost2010Prop41ColorIndex
 90
       18
102
RTVSPost2010Prop41ColorRGB
 90
        0
102
RTVSPost2010PropOp41
 70
     1
102
RTVSPost2010Prop42
 90
       50
102
RTVSPost2010PropOp42
 70
     1
102
RTVSPost2010Prop43
 90
        3
102
RTVSPost2010PropOp43
 70
     1
102
RTVSPost2010Prop44ColorIndex
 90
        5
102
RTVSPost2010Prop44ColorRGB
 90
      255
102
RTVSPost2010PropOp44
 70
     1
102
RTVSPost2010Prop45
280
     0
102
RTVSPost2010PropOp45
 70
     1
102
RTVSPost2010Prop46
 90
       50
102
RTVSPost2010PropOp46
 70
     1
102
RTVSPost2010Prop47
 90
       50
102
RTVSPost2010PropOp47
 70
     1
102
RTVSPost2010Prop48
 90
       50
102
RTVSPost2010PropOp48
 70
     1
102
RTVSPost2010Prop49
280
     0
102
RTVSPost2010PropOp49
 70
     1
102
RTVSPost2010Prop50
 90
       50
102
RTVSPost2010PropOp50
 70
     1
102
RTVSPost2010Prop51ColorIndex
 90
      256
102
RTVSPost2010Prop51ColorRGB
 90
-16777216
102
RTVSPost2010PropOp51
 70
     0
102
RTVSPost2010Prop52
140
1.0
102
RTVSPost2010PropOp52
 70
     0
102
RTVSPost2010Prop53
 90
        2
102
RTVSPost2010PropOp53
 70
     1
102
RTVSPost2010Prop54
  1
strokes_ogs.tif
102
RTVSPost2010PropOp54
 70
     1
102
RTVSPost2010Prop55
280
     0
102
RTVSPost2010PropOp55
 70
     1
102
RTVSPost2010Prop56
140
1.0
102
RTVSPost2010PropOp56
 70
     1
102
RTVSPost2010Prop57
140
1.0
102
RTVSPost2010PropOp57
 70
     1
102
RTVSPropertyOp0
 70
     1
102
RTVSPropertyOp1
 70
     1
102
RTVSPropertyOp2
 70
     1
102
RTVSPropertyOp3
 70
     1
102
RTVSPropertyOp4
 70
     1
102
RTVSPropertyOp5
 70
     1
102
RTVSPropertyOp6
 70
     1
102
RTVSPropertyOp7
 70
     1
102
RTVSPropertyOp8
 70
     1
102
RTVSPropertyOp9
 70
     1
102
RTVSPropertyOp10
 70
     1
102
RTVSPropertyOp11
 70
     1
102
RTVSPropertyOp12
 70
     1
102
RTVSPropertyOp13
 70
     1
102
RTVSPropertyOp14
 70
     1
102
RTVSPropertyOp15
 70
     1
102
RTVSPropertyOp16
 70
     1
102
RTVSPropertyOp17
 70
     1
102
RTVSPropertyOp18
 70
     1
102
RTVSPropertyOp19
 70
     1
102
RTVSPropertyOp20
 70
     1
102
RTVSPropertyOp21
 70
     1
102
RTVSPropertyOp22
 70
     1
102
RTVSPropertyOp23
 70
     1
102
RTVSPropertyOp24
 70
     1
102
RTVSPropertyOp25
 70
     1
102
RTVSPropertyOp26
 70
     1
102
RTVSPropertyOp27
 70
     1
102
RTVSPropertyOp28
 70
     1
102
RTVSPropertyOp29
 70
     1
102
RTVSPropertyOp30
 70
     1
102
RTVSPropertyOp31
 70
     1
102
RTVSPropertyOp32
 70
     1
102
RTVSPropertyOp33
 70
     1
102
RTVSPropertyOp34
 70
     1
102
RTVSPropertyOp35
 70
     1
102
RTVSPropertyOp36
 70
     1
102
RTVSPropertyOp37
 70
     1
102
RTVSPropertyOp38
 70
     1
102
RTVSPropertyOp39
 70
     1
102
RTVSPropertyOp40
 70
     1
102
RTVSPropertyOp41
 70
     1
102
RTVSPropertyOp42
 70
     1
102
RTVSPropertyOp43
 70
     1
102
RTVSPropertyOp44
 70
     1
102
RTVSPropertyOp45
 70
     1
102
RTVSPropertyOp46
 70
     1
102
RTVSPropertyOp47
 70
     1
102
RTVSPropertyOp48
 70
     1
102
RTVSPropertyOp49
 70
     1
102
RTVSPropertyOp50
 70
     1
102
RTVSPropertyOp51
 70
     0
102
RTVSPropertyOp52
 70
     0
102
RTVSPropertyOp53
 70
     1
102
RTVSPropertyOp54
 70
     1
102
RTVSPropertyOp55
 70
     1
102
RTVSPropertyOp56
 70
     1
102
RTVSPropertyOp57
 70
     1
102
RTVSPropertyOp58
 70
     1
102
RTVSPropertyOp59
 70
     1
102
RTVSPropertyOp60
 70
     1
102
RTVSPropertyOp61
 70
     1
102
RTVSPropertyOp62
 70
     1
  0
XRECORD
  5
958B
102
{ACAD_REACTORS
330
958A
102
}
330
958A
100
AcDbXrecord
280
     1
102
RTVSPost2010Prop28
280
     0
102
RTVSPost2010PropOp28
 70
     1
102
RTVSPost2010Prop29
280
     1
102
RTVSPost2010PropOp29
 70
     1
102
RTVSPost2010Prop30
280
     1
102
RTVSPost2010PropOp30
 70
     1
102
RTVSPost2010Prop31
280
     0
102
RTVSPost2010PropOp31
 70
     1
102
RTVSPost2010Prop32
280
     0
102
RTVSPost2010PropOp32
 70
     1
102
RTVSPost2010Prop33
280
     0
102
RTVSPost2010PropOp33
 70
     1
102
RTVSPost2010Prop34
280
     0
102
RTVSPost2010PropOp34
 70
     1
102
RTVSPost2010Prop35
280
     0
102
RTVSPost2010PropOp35
 70
     1
102
RTVSPost2010Prop36
280
     0
102
RTVSPost2010PropOp36
 70
     1
102
RTVSPost2010Prop37
 90
       50
102
RTVSPost2010PropOp37
 70
     1
102
RTVSPost2010Prop38
140
0.0
102
RTVSPost2010PropOp38
 70
     1
102
RTVSPost2010Prop39
140
1.0
102
RTVSPost2010PropOp39
 70
     1
102
RTVSPost2010Prop40
 90
        0
102
RTVSPost2010PropOp40
 70
     1
102
RTVSPost2010Prop41ColorIndex
 90
       18
102
RTVSPost2010Prop41ColorRGB
 90
        0
102
RTVSPost2010PropOp41
 70
     1
102
RTVSPost2010Prop42
 90
       50
102
RTVSPost2010PropOp42
 70
     1
102
RTVSPost2010Prop43
 90
        3
102
RTVSPost2010PropOp43
 70
     1
102
RTVSPost2010Prop44ColorIndex
 90
        5
102
RTVSPost2010Prop44ColorRGB
 90
      255
102
RTVSPost2010PropOp44
 70
     1
102
RTVSPost2010Prop45
280
     0
102
RTVSPost2010PropOp45
 70
     1
102
RTVSPost2010Prop46
 90
       50
102
RTVSPost2010PropOp46
 70
     1
102
RTVSPost2010Prop47
 90
       50
102
RTVSPost2010PropOp47
 70
     1
102
RTVSPost2010Prop48
 90
       50
102
RTVSPost2010PropOp48
 70
     1
102
RTVSPost2010Prop49
280
     0
102
RTVSPost2010PropOp49
 70
     1
102
RTVSPost2010Prop50
 90
       50
102
RTVSPost2010PropOp50
 70
     1
102
RTVSPost2010Prop51ColorIndex
 90
      256
102
RTVSPost2010Prop51ColorRGB
 90
-16777216
102
RTVSPost2010PropOp51
 70
     0
102
RTVSPost2010Prop52
140
1.0
102
RTVSPost2010PropOp52
 70
     0
102
RTVSPost2010Prop53
 90
        2
102
RTVSPost2010PropOp53
 70
     1
102
RTVSPost2010Prop54
  1
strokes_ogs.tif
102
RTVSPost2010PropOp54
 70
     1
102
RTVSPost2010Prop55
280
     0
102
RTVSPost2010PropOp55
 70
     1
102
RTVSPost2010Prop56
140
1.0
102
RTVSPost2010PropOp56
 70
     1
102
RTVSPost2010Prop57
140
1.0
102
RTVSPost2010PropOp57
 70
     1
102
RTVSPropertyOp0
 70
     1
102
RTVSPropertyOp1
 70
     1
102
RTVSPropertyOp2
 70
     1
102
RTVSPropertyOp3
 70
     1
102
RTVSPropertyOp4
 70
     1
102
RTVSPropertyOp5
 70
     1
102
RTVSPropertyOp6
 70
     1
102
RTVSPropertyOp7
 70
     1
102
RTVSPropertyOp8
 70
     1
102
RTVSPropertyOp9
 70
     1
102
RTVSPropertyOp10
 70
     1
102
RTVSPropertyOp11
 70
     1
102
RTVSPropertyOp12
 70
     1
102
RTVSPropertyOp13
 70
     1
102
RTVSPropertyOp14
 70
     1
102
RTVSPropertyOp15
 70
     1
102
RTVSPropertyOp16
 70
     1
102
RTVSPropertyOp17
 70
     1
102
RTVSPropertyOp18
 70
     1
102
RTVSPropertyOp19
 70
     1
102
RTVSPropertyOp20
 70
     1
102
RTVSPropertyOp21
 70
     1
102
RTVSPropertyOp22
 70
     1
102
RTVSPropertyOp23
 70
     1
102
RTVSPropertyOp24
 70
     1
102
RTVSPropertyOp25
 70
     1
102
RTVSPropertyOp26
 70
     1
102
RTVSPropertyOp27
 70
     1
102
RTVSPropertyOp28
 70
     1
102
RTVSPropertyOp29
 70
     1
102
RTVSPropertyOp30
 70
     1
102
RTVSPropertyOp31
 70
     1
102
RTVSPropertyOp32
 70
     1
102
RTVSPropertyOp33
 70
     1
102
RTVSPropertyOp34
 70
     1
102
RTVSPropertyOp35
 70
     1
102
RTVSPropertyOp36
 70
     1
102
RTVSPropertyOp37
 70
     1
102
RTVSPropertyOp38
 70
     1
102
RTVSPropertyOp39
 70
     1
102
RTVSPropertyOp40
 70
     1
102
RTVSPropertyOp41
 70
     1
102
RTVSPropertyOp42
 70
     1
102
RTVSPropertyOp43
 70
     1
102
RTVSPropertyOp44
 70
     1
102
RTVSPropertyOp45
 70
     1
102
RTVSPropertyOp46
 70
     1
102
RTVSPropertyOp47
 70
     1
102
RTVSPropertyOp48
 70
     1
102
RTVSPropertyOp49
 70
     1
102
RTVSPropertyOp50
 70
     1
102
RTVSPropertyOp51
 70
     0
102
RTVSPropertyOp52
 70
     0
102
RTVSPropertyOp53
 70
     1
102
RTVSPropertyOp54
 70
     1
102
RTVSPropertyOp55
 70
     1
102
RTVSPropertyOp56
 70
     1
102
RTVSPropertyOp57
 70
     1
102
RTVSPropertyOp58
 70
     1
102
RTVSPropertyOp59
 70
     1
102
RTVSPropertyOp60
 70
     1
102
RTVSPropertyOp61
 70
     1
102
RTVSPropertyOp62
 70
     1
  0
XRECORD
  5
958D
102
{ACAD_REACTORS
330
958C
102
}
330
958C
100
AcDbXrecord
280
     1
102
RTVSPost2010Prop28
280
     0
102
RTVSPost2010PropOp28
 70
     1
102
RTVSPost2010Prop29
280
     1
102
RTVSPost2010PropOp29
 70
     1
102
RTVSPost2010Prop30
280
     1
102
RTVSPost2010PropOp30
 70
     1
102
RTVSPost2010Prop31
280
     0
102
RTVSPost2010PropOp31
 70
     1
102
RTVSPost2010Prop32
280
     0
102
RTVSPost2010PropOp32
 70
     1
102
RTVSPost2010Prop33
280
     0
102
RTVSPost2010PropOp33
 70
     1
102
RTVSPost2010Prop34
280
     0
102
RTVSPost2010PropOp34
 70
     1
102
RTVSPost2010Prop35
280
     0
102
RTVSPost2010PropOp35
 70
     1
102
RTVSPost2010Prop36
280
     0
102
RTVSPost2010PropOp36
 70
     1
102
RTVSPost2010Prop37
 90
       50
102
RTVSPost2010PropOp37
 70
     1
102
RTVSPost2010Prop38
140
0.0
102
RTVSPost2010PropOp38
 70
     1
102
RTVSPost2010Prop39
140
1.0
102
RTVSPost2010PropOp39
 70
     1
102
RTVSPost2010Prop40
 90
        0
102
RTVSPost2010PropOp40
 70
     1
102
RTVSPost2010Prop41ColorIndex
 90
       18
102
RTVSPost2010Prop41ColorRGB
 90
        0
102
RTVSPost2010PropOp41
 70
     1
102
RTVSPost2010Prop42
 90
       50
102
RTVSPost2010PropOp42
 70
     1
102
RTVSPost2010Prop43
 90
        3
102
RTVSPost2010PropOp43
 70
     1
102
RTVSPost2010Prop44ColorIndex
 90
        5
102
RTVSPost2010Prop44ColorRGB
 90
      255
102
RTVSPost2010PropOp44
 70
     1
102
RTVSPost2010Prop45
280
     0
102
RTVSPost2010PropOp45
 70
     1
102
RTVSPost2010Prop46
 90
       50
102
RTVSPost2010PropOp46
 70
     1
102
RTVSPost2010Prop47
 90
       50
102
RTVSPost2010PropOp47
 70
     1
102
RTVSPost2010Prop48
 90
       50
102
RTVSPost2010PropOp48
 70
     1
102
RTVSPost2010Prop49
280
     0
102
RTVSPost2010PropOp49
 70
     1
102
RTVSPost2010Prop50
 90
       50
102
RTVSPost2010PropOp50
 70
     1
102
RTVSPost2010Prop51ColorIndex
 90
      256
102
RTVSPost2010Prop51ColorRGB
 90
-16777216
102
RTVSPost2010PropOp51
 70
     0
102
RTVSPost2010Prop52
140
1.0
102
RTVSPost2010PropOp52
 70
     0
102
RTVSPost2010Prop53
 90
        2
102
RTVSPost2010PropOp53
 70
     1
102
RTVSPost2010Prop54
  1
strokes_ogs.tif
102
RTVSPost2010PropOp54
 70
     1
102
RTVSPost2010Prop55
280
     0
102
RTVSPost2010PropOp55
 70
     1
102
RTVSPost2010Prop56
140
1.0
102
RTVSPost2010PropOp56
 70
     1
102
RTVSPost2010Prop57
140
1.0
102
RTVSPost2010PropOp57
 70
     1
102
RTVSPropertyOp0
 70
     1
102
RTVSPropertyOp1
 70
     1
102
RTVSPropertyOp2
 70
     1
102
RTVSPropertyOp3
 70
     1
102
RTVSPropertyOp4
 70
     1
102
RTVSPropertyOp5
 70
     1
102
RTVSPropertyOp6
 70
     1
102
RTVSPropertyOp7
 70
     1
102
RTVSPropertyOp8
 70
     1
102
RTVSPropertyOp9
 70
     1
102
RTVSPropertyOp10
 70
     1
102
RTVSPropertyOp11
 70
     1
102
RTVSPropertyOp12
 70
     1
102
RTVSPropertyOp13
 70
     1
102
RTVSPropertyOp14
 70
     1
102
RTVSPropertyOp15
 70
     1
102
RTVSPropertyOp16
 70
     1
102
RTVSPropertyOp17
 70
     1
102
RTVSPropertyOp18
 70
     1
102
RTVSPropertyOp19
 70
     1
102
RTVSPropertyOp20
 70
     1
102
RTVSPropertyOp21
 70
     1
102
RTVSPropertyOp22
 70
     1
102
RTVSPropertyOp23
 70
     1
102
RTVSPropertyOp24
 70
     1
102
RTVSPropertyOp25
 70
     1
102
RTVSPropertyOp26
 70
     1
102
RTVSPropertyOp27
 70
     1
102
RTVSPropertyOp28
 70
     1
102
RTVSPropertyOp29
 70
     1
102
RTVSPropertyOp30
 70
     1
102
RTVSPropertyOp31
 70
     1
102
RTVSPropertyOp32
 70
     1
102
RTVSPropertyOp33
 70
     1
102
RTVSPropertyOp34
 70
     1
102
RTVSPropertyOp35
 70
     1
102
RTVSPropertyOp36
 70
     1
102
RTVSPropertyOp37
 70
     1
102
RTVSPropertyOp38
 70
     1
102
RTVSPropertyOp39
 70
     1
102
RTVSPropertyOp40
 70
     1
102
RTVSPropertyOp41
 70
     1
102
RTVSPropertyOp42
 70
     1
102
RTVSPropertyOp43
 70
     1
102
RTVSPropertyOp44
 70
     1
102
RTVSPropertyOp45
 70
     1
102
RTVSPropertyOp46
 70
     1
102
RTVSPropertyOp47
 70
     1
102
RTVSPropertyOp48
 70
     1
102
RTVSPropertyOp49
 70
     1
102
RTVSPropertyOp50
 70
     1
102
RTVSPropertyOp51
 70
     0
102
RTVSPropertyOp52
 70
     0
102
RTVSPropertyOp53
 70
     1
102
RTVSPropertyOp54
 70
     1
102
RTVSPropertyOp55
 70
     1
102
RTVSPropertyOp56
 70
     1
102
RTVSPropertyOp57
 70
     1
102
RTVSPropertyOp58
 70
     1
102
RTVSPropertyOp59
 70
     1
102
RTVSPropertyOp60
 70
     1
102
RTVSPropertyOp61
 70
     1
102
RTVSPropertyOp62
 70
     1
  0
XRECORD
  5
957B
102
{ACAD_REACTORS
330
957A
102
}
330
957A
100
AcDbXrecord
280
     1
102
RTVSPost2010Prop28
280
     0
102
RTVSPost2010PropOp28
 70
     1
102
RTVSPost2010Prop29
280
     1
102
RTVSPost2010PropOp29
 70
     1
102
RTVSPost2010Prop30
280
     1
102
RTVSPost2010PropOp30
 70
     1
102
RTVSPost2010Prop31
280
     0
102
RTVSPost2010PropOp31
 70
     1
102
RTVSPost2010Prop32
280
     0
102
RTVSPost2010PropOp32
 70
     1
102
RTVSPost2010Prop33
280
     0
102
RTVSPost2010PropOp33
 70
     1
102
RTVSPost2010Prop34
280
     0
102
RTVSPost2010PropOp34
 70
     1
102
RTVSPost2010Prop35
280
     0
102
RTVSPost2010PropOp35
 70
     1
102
RTVSPost2010Prop36
280
     0
102
RTVSPost2010PropOp36
 70
     1
102
RTVSPost2010Prop37
 90
       50
102
RTVSPost2010PropOp37
 70
     1
102
RTVSPost2010Prop38
140
0.0
102
RTVSPost2010PropOp38
 70
     1
102
RTVSPost2010Prop39
140
1.0
102
RTVSPost2010PropOp39
 70
     1
102
RTVSPost2010Prop40
 90
        0
102
RTVSPost2010PropOp40
 70
     1
102
RTVSPost2010Prop41ColorIndex
 90
       18
102
RTVSPost2010Prop41ColorRGB
 90
        0
102
RTVSPost2010PropOp41
 70
     1
102
RTVSPost2010Prop42
 90
       50
102
RTVSPost2010PropOp42
 70
     1
102
RTVSPost2010Prop43
 90
        3
102
RTVSPost2010PropOp43
 70
     1
102
RTVSPost2010Prop44ColorIndex
 90
        5
102
RTVSPost2010Prop44ColorRGB
 90
      255
102
RTVSPost2010PropOp44
 70
     1
102
RTVSPost2010Prop45
280
     0
102
RTVSPost2010PropOp45
 70
     1
102
RTVSPost2010Prop46
 90
       50
102
RTVSPost2010PropOp46
 70
     1
102
RTVSPost2010Prop47
 90
       50
102
RTVSPost2010PropOp47
 70
     1
102
RTVSPost2010Prop48
 90
       50
102
RTVSPost2010PropOp48
 70
     1
102
RTVSPost2010Prop49
280
     0
102
RTVSPost2010PropOp49
 70
     1
102
RTVSPost2010Prop50
 90
       50
102
RTVSPost2010PropOp50
 70
     1
102
RTVSPost2010Prop51ColorIndex
 90
      256
102
RTVSPost2010Prop51ColorRGB
 90
-16777216
102
RTVSPost2010PropOp51
 70
     0
102
RTVSPost2010Prop52
140
1.0
102
RTVSPost2010PropOp52
 70
     0
102
RTVSPost2010Prop53
 90
        2
102
RTVSPost2010PropOp53
 70
     1
102
RTVSPost2010Prop54
  1
strokes_ogs.tif
102
RTVSPost2010PropOp54
 70
     1
102
RTVSPost2010Prop55
280
     0
102
RTVSPost2010PropOp55
 70
     1
102
RTVSPost2010Prop56
140
1.0
102
RTVSPost2010PropOp56
 70
     1
102
RTVSPost2010Prop57
140
1.0
102
RTVSPost2010PropOp57
 70
     1
102
RTVSPropertyOp0
 70
     1
102
RTVSPropertyOp1
 70
     1
102
RTVSPropertyOp2
 70
     1
102
RTVSPropertyOp3
 70
     1
102
RTVSPropertyOp4
 70
     1
102
RTVSPropertyOp5
 70
     1
102
RTVSPropertyOp6
 70
     1
102
RTVSPropertyOp7
 70
     1
102
RTVSPropertyOp8
 70
     1
102
RTVSPropertyOp9
 70
     1
102
RTVSPropertyOp10
 70
     1
102
RTVSPropertyOp11
 70
     1
102
RTVSPropertyOp12
 70
     1
102
RTVSPropertyOp13
 70
     1
102
RTVSPropertyOp14
 70
     1
102
RTVSPropertyOp15
 70
     1
102
RTVSPropertyOp16
 70
     1
102
RTVSPropertyOp17
 70
     1
102
RTVSPropertyOp18
 70
     1
102
RTVSPropertyOp19
 70
     1
102
RTVSPropertyOp20
 70
     1
102
RTVSPropertyOp21
 70
     1
102
RTVSPropertyOp22
 70
     1
102
RTVSPropertyOp23
 70
     1
102
RTVSPropertyOp24
 70
     1
102
RTVSPropertyOp25
 70
     1
102
RTVSPropertyOp26
 70
     1
102
RTVSPropertyOp27
 70
     1
102
RTVSPropertyOp28
 70
     1
102
RTVSPropertyOp29
 70
     1
102
RTVSPropertyOp30
 70
     1
102
RTVSPropertyOp31
 70
     1
102
RTVSPropertyOp32
 70
     1
102
RTVSPropertyOp33
 70
     1
102
RTVSPropertyOp34
 70
     1
102
RTVSPropertyOp35
 70
     1
102
RTVSPropertyOp36
 70
     1
102
RTVSPropertyOp37
 70
     1
102
RTVSPropertyOp38
 70
     1
102
RTVSPropertyOp39
 70
     1
102
RTVSPropertyOp40
 70
     1
102
RTVSPropertyOp41
 70
     1
102
RTVSPropertyOp42
 70
     1
102
RTVSPropertyOp43
 70
     1
102
RTVSPropertyOp44
 70
     1
102
RTVSPropertyOp45
 70
     1
102
RTVSPropertyOp46
 70
     1
102
RTVSPropertyOp47
 70
     1
102
RTVSPropertyOp48
 70
     1
102
RTVSPropertyOp49
 70
     1
102
RTVSPropertyOp50
 70
     1
102
RTVSPropertyOp51
 70
     0
102
RTVSPropertyOp52
 70
     0
102
RTVSPropertyOp53
 70
     1
102
RTVSPropertyOp54
 70
     1
102
RTVSPropertyOp55
 70
     1
102
RTVSPropertyOp56
 70
     1
102
RTVSPropertyOp57
 70
     1
102
RTVSPropertyOp58
 70
     1
102
RTVSPropertyOp59
 70
     1
102
RTVSPropertyOp60
 70
     1
102
RTVSPropertyOp61
 70
     1
102
RTVSPropertyOp62
 70
     1
  0
XRECORD
  5
956F
102
{ACAD_REACTORS
330
956E
102
}
330
956E
100
AcDbXrecord
280
     1
102
RTVSPost2010Prop28
280
     0
102
RTVSPost2010PropOp28
 70
     1
102
RTVSPost2010Prop29
280
     1
102
RTVSPost2010PropOp29
 70
     1
102
RTVSPost2010Prop30
280
     1
102
RTVSPost2010PropOp30
 70
     1
102
RTVSPost2010Prop31
280
     0
102
RTVSPost2010PropOp31
 70
     1
102
RTVSPost2010Prop32
280
     0
102
RTVSPost2010PropOp32
 70
     1
102
RTVSPost2010Prop33
280
     0
102
RTVSPost2010PropOp33
 70
     1
102
RTVSPost2010Prop34
280
     0
102
RTVSPost2010PropOp34
 70
     1
102
RTVSPost2010Prop35
280
     0
102
RTVSPost2010PropOp35
 70
     1
102
RTVSPost2010Prop36
280
     0
102
RTVSPost2010PropOp36
 70
     1
102
RTVSPost2010Prop37
 90
       50
102
RTVSPost2010PropOp37
 70
     1
102
RTVSPost2010Prop38
140
0.0
102
RTVSPost2010PropOp38
 70
     1
102
RTVSPost2010Prop39
140
1.0
102
RTVSPost2010PropOp39
 70
     1
102
RTVSPost2010Prop40
 90
        0
102
RTVSPost2010PropOp40
 70
     1
102
RTVSPost2010Prop41ColorIndex
 90
       18
102
RTVSPost2010Prop41ColorRGB
 90
        0
102
RTVSPost2010PropOp41
 70
     1
102
RTVSPost2010Prop42
 90
       50
102
RTVSPost2010PropOp42
 70
     1
102
RTVSPost2010Prop43
 90
        3
102
RTVSPost2010PropOp43
 70
     1
102
RTVSPost2010Prop44ColorIndex
 90
        5
102
RTVSPost2010Prop44ColorRGB
 90
      255
102
RTVSPost2010PropOp44
 70
     1
102
RTVSPost2010Prop45
280
     0
102
RTVSPost2010PropOp45
 70
     1
102
RTVSPost2010Prop46
 90
       50
102
RTVSPost2010PropOp46
 70
     1
102
RTVSPost2010Prop47
 90
       50
102
RTVSPost2010PropOp47
 70
     1
102
RTVSPost2010Prop48
 90
       50
102
RTVSPost2010PropOp48
 70
     1
102
RTVSPost2010Prop49
280
     0
102
RTVSPost2010PropOp49
 70
     1
102
RTVSPost2010Prop50
 90
       50
102
RTVSPost2010PropOp50
 70
     1
102
RTVSPost2010Prop51ColorIndex
 90
      256
102
RTVSPost2010Prop51ColorRGB
 90
-16777216
102
RTVSPost2010PropOp51
 70
     0
102
RTVSPost2010Prop52
140
1.0
102
RTVSPost2010PropOp52
 70
     0
102
RTVSPost2010Prop53
 90
        2
102
RTVSPost2010PropOp53
 70
     1
102
RTVSPost2010Prop54
  1
strokes_ogs.tif
102
RTVSPost2010PropOp54
 70
     1
102
RTVSPost2010Prop55
280
     0
102
RTVSPost2010PropOp55
 70
     1
102
RTVSPost2010Prop56
140
1.0
102
RTVSPost2010PropOp56
 70
     1
102
RTVSPost2010Prop57
140
1.0
102
RTVSPost2010PropOp57
 70
     1
102
RTVSPropertyOp0
 70
     1
102
RTVSPropertyOp1
 70
     1
102
RTVSPropertyOp2
 70
     1
102
RTVSPropertyOp3
 70
     1
102
RTVSPropertyOp4
 70
     1
102
RTVSPropertyOp5
 70
     1
102
RTVSPropertyOp6
 70
     1
102
RTVSPropertyOp7
 70
     1
102
RTVSPropertyOp8
 70
     1
102
RTVSPropertyOp9
 70
     1
102
RTVSPropertyOp10
 70
     1
102
RTVSPropertyOp11
 70
     1
102
RTVSPropertyOp12
 70
     1
102
RTVSPropertyOp13
 70
     1
102
RTVSPropertyOp14
 70
     1
102
RTVSPropertyOp15
 70
     1
102
RTVSPropertyOp16
 70
     1
102
RTVSPropertyOp17
 70
     1
102
RTVSPropertyOp18
 70
     1
102
RTVSPropertyOp19
 70
     1
102
RTVSPropertyOp20
 70
     1
102
RTVSPropertyOp21
 70
     1
102
RTVSPropertyOp22
 70
     1
102
RTVSPropertyOp23
 70
     1
102
RTVSPropertyOp24
 70
     1
102
RTVSPropertyOp25
 70
     1
102
RTVSPropertyOp26
 70
     1
102
RTVSPropertyOp27
 70
     1
102
RTVSPropertyOp28
 70
     1
102
RTVSPropertyOp29
 70
     1
102
RTVSPropertyOp30
 70
     1
102
RTVSPropertyOp31
 70
     1
102
RTVSPropertyOp32
 70
     1
102
RTVSPropertyOp33
 70
     1
102
RTVSPropertyOp34
 70
     1
102
RTVSPropertyOp35
 70
     1
102
RTVSPropertyOp36
 70
     1
102
RTVSPropertyOp37
 70
     1
102
RTVSPropertyOp38
 70
     1
102
RTVSPropertyOp39
 70
     1
102
RTVSPropertyOp40
 70
     1
102
RTVSPropertyOp41
 70
     1
102
RTVSPropertyOp42
 70
     1
102
RTVSPropertyOp43
 70
     1
102
RTVSPropertyOp44
 70
     1
102
RTVSPropertyOp45
 70
     1
102
RTVSPropertyOp46
 70
     1
102
RTVSPropertyOp47
 70
     1
102
RTVSPropertyOp48
 70
     1
102
RTVSPropertyOp49
 70
     1
102
RTVSPropertyOp50
 70
     1
102
RTVSPropertyOp51
 70
     0
102
RTVSPropertyOp52
 70
     0
102
RTVSPropertyOp53
 70
     1
102
RTVSPropertyOp54
 70
     1
102
RTVSPropertyOp55
 70
     1
102
RTVSPropertyOp56
 70
     1
102
RTVSPropertyOp57
 70
     1
102
RTVSPropertyOp58
 70
     1
102
RTVSPropertyOp59
 70
     1
102
RTVSPropertyOp60
 70
     1
102
RTVSPropertyOp61
 70
     1
102
RTVSPropertyOp62
 70
     1
  0
XRECORD
  5
958F
102
{ACAD_REACTORS
330
958E
102
}
330
958E
100
AcDbXrecord
280
     1
102
RTVSPost2010Prop28
280
     0
102
RTVSPost2010PropOp28
 70
     1
102
RTVSPost2010Prop29
280
     1
102
RTVSPost2010PropOp29
 70
     1
102
RTVSPost2010Prop30
280
     1
102
RTVSPost2010PropOp30
 70
     1
102
RTVSPost2010Prop31
280
     0
102
RTVSPost2010PropOp31
 70
     1
102
RTVSPost2010Prop32
280
     0
102
RTVSPost2010PropOp32
 70
     1
102
RTVSPost2010Prop33
280
     0
102
RTVSPost2010PropOp33
 70
     1
102
RTVSPost2010Prop34
280
     0
102
RTVSPost2010PropOp34
 70
     1
102
RTVSPost2010Prop35
280
     0
102
RTVSPost2010PropOp35
 70
     1
102
RTVSPost2010Prop36
280
     0
102
RTVSPost2010PropOp36
 70
     1
102
RTVSPost2010Prop37
 90
       50
102
RTVSPost2010PropOp37
 70
     1
102
RTVSPost2010Prop38
140
0.0
102
RTVSPost2010PropOp38
 70
     1
102
RTVSPost2010Prop39
140
1.0
102
RTVSPost2010PropOp39
 70
     1
102
RTVSPost2010Prop40
 90
        0
102
RTVSPost2010PropOp40
 70
     1
102
RTVSPost2010Prop41ColorIndex
 90
       18
102
RTVSPost2010Prop41ColorRGB
 90
        0
102
RTVSPost2010PropOp41
 70
     1
102
RTVSPost2010Prop42
 90
       50
102
RTVSPost2010PropOp42
 70
     1
102
RTVSPost2010Prop43
 90
        3
102
RTVSPost2010PropOp43
 70
     1
102
RTVSPost2010Prop44ColorIndex
 90
        5
102
RTVSPost2010Prop44ColorRGB
 90
      255
102
RTVSPost2010PropOp44
 70
     1
102
RTVSPost2010Prop45
280
     0
102
RTVSPost2010PropOp45
 70
     1
102
RTVSPost2010Prop46
 90
       50
102
RTVSPost2010PropOp46
 70
     1
102
RTVSPost2010Prop47
 90
       50
102
RTVSPost2010PropOp47
 70
     1
102
RTVSPost2010Prop48
 90
       50
102
RTVSPost2010PropOp48
 70
     1
102
RTVSPost2010Prop49
280
     0
102
RTVSPost2010PropOp49
 70
     1
102
RTVSPost2010Prop50
 90
       50
102
RTVSPost2010PropOp50
 70
     1
102
RTVSPost2010Prop51ColorIndex
 90
      256
102
RTVSPost2010Prop51ColorRGB
 90
-16777216
102
RTVSPost2010PropOp51
 70
     0
102
RTVSPost2010Prop52
140
1.0
102
RTVSPost2010PropOp52
 70
     0
102
RTVSPost2010Prop53
 90
        2
102
RTVSPost2010PropOp53
 70
     1
102
RTVSPost2010Prop54
  1
strokes_ogs.tif
102
RTVSPost2010PropOp54
 70
     1
102
RTVSPost2010Prop55
280
     0
102
RTVSPost2010PropOp55
 70
     1
102
RTVSPost2010Prop56
140
1.0
102
RTVSPost2010PropOp56
 70
     1
102
RTVSPost2010Prop57
140
1.0
102
RTVSPost2010PropOp57
 70
     1
102
RTVSPropertyOp0
 70
     1
102
RTVSPropertyOp1
 70
     1
102
RTVSPropertyOp2
 70
     1
102
RTVSPropertyOp3
 70
     1
102
RTVSPropertyOp4
 70
     1
102
RTVSPropertyOp5
 70
     1
102
RTVSPropertyOp6
 70
     1
102
RTVSPropertyOp7
 70
     1
102
RTVSPropertyOp8
 70
     1
102
RTVSPropertyOp9
 70
     1
102
RTVSPropertyOp10
 70
     1
102
RTVSPropertyOp11
 70
     1
102
RTVSPropertyOp12
 70
     1
102
RTVSPropertyOp13
 70
     1
102
RTVSPropertyOp14
 70
     1
102
RTVSPropertyOp15
 70
     1
102
RTVSPropertyOp16
 70
     1
102
RTVSPropertyOp17
 70
     1
102
RTVSPropertyOp18
 70
     1
102
RTVSPropertyOp19
 70
     1
102
RTVSPropertyOp20
 70
     1
102
RTVSPropertyOp21
 70
     1
102
RTVSPropertyOp22
 70
     1
102
RTVSPropertyOp23
 70
     1
102
RTVSPropertyOp24
 70
     1
102
RTVSPropertyOp25
 70
     1
102
RTVSPropertyOp26
 70
     1
102
RTVSPropertyOp27
 70
     1
102
RTVSPropertyOp28
 70
     1
102
RTVSPropertyOp29
 70
     1
102
RTVSPropertyOp30
 70
     1
102
RTVSPropertyOp31
 70
     1
102
RTVSPropertyOp32
 70
     1
102
RTVSPropertyOp33
 70
     1
102
RTVSPropertyOp34
 70
     1
102
RTVSPropertyOp35
 70
     1
102
RTVSPropertyOp36
 70
     1
102
RTVSPropertyOp37
 70
     1
102
RTVSPropertyOp38
 70
     1
102
RTVSPropertyOp39
 70
     1
102
RTVSPropertyOp40
 70
     1
102
RTVSPropertyOp41
 70
     1
102
RTVSPropertyOp42
 70
     1
102
RTVSPropertyOp43
 70
     1
102
RTVSPropertyOp44
 70
     1
102
RTVSPropertyOp45
 70
     1
102
RTVSPropertyOp46
 70
     1
102
RTVSPropertyOp47
 70
     1
102
RTVSPropertyOp48
 70
     1
102
RTVSPropertyOp49
 70
     1
102
RTVSPropertyOp50
 70
     1
102
RTVSPropertyOp51
 70
     0
102
RTVSPropertyOp52
 70
     0
102
RTVSPropertyOp53
 70
     1
102
RTVSPropertyOp54
 70
     1
102
RTVSPropertyOp55
 70
     1
102
RTVSPropertyOp56
 70
     1
102
RTVSPropertyOp57
 70
     1
102
RTVSPropertyOp58
 70
     1
102
RTVSPropertyOp59
 70
     1
102
RTVSPropertyOp60
 70
     1
102
RTVSPropertyOp61
 70
     1
102
RTVSPropertyOp62
 70
     1
  0
ENDSEC
  0
EOF
