  0
SECTION
  2
HEADER
  9
$ACADVER
  1
AC1015
  9
$ACADMAINTVER
 70
    18
  9
$DWGCODEPAGE
  3
ANSI_1252
  9
$INSBASE
 10
0.0
 20
0.0
 30
0.0
  9
$EXTMIN
 10
-219.3182365821187
 20
-290.7052456185981
 30
-0.0015258207003583
  9
$EXTMAX
 10
275.785218095157
 20
325.809036979928
 30
0.0000000349246037
  9
$LIMMIN
 10
0.0
 20
0.0
  9
$LIMMAX
 10
420.0
 20
297.0
  9
$ORTHOMODE
 70
     0
  9
$REGENMODE
 70
     1
  9
$FILLMODE
 70
     1
  9
$QTEXTMODE
 70
     0
  9
$MIRRTEXT
 70
     0
  9
$LTSCALE
 40
1.0
  9
$ATTMODE
 70
     1
  9
$TEXTSIZE
 40
2.5
  9
$TRACEWID
 40
1.0
  9
$TEXTSTYLE
  7
Standard
  9
$CLAYER
  8
0
  9
$CELTYPE
  6
ByLayer
  9
$CECOLOR
 62
   256
  9
$CELTSCALE
 40
1.0
  9
$DISPSILH
 70
     0
  9
$DIMSCALE
 40
1.0
  9
$DIMASZ
 40
2.5
  9
$DIMEXO
 40
0.625
  9
$DIMDLI
 40
3.75
  9
$DIMRND
 40
0.0
  9
$DIMDLE
 40
0.0
  9
$DIMEXE
 40
1.25
  9
$DIMTP
 40
0.0
  9
$DIMTM
 40
0.0
  9
$DIMTXT
 40
2.5
  9
$DIMCEN
 40
2.5
  9
$DIMTSZ
 40
0.0
  9
$DIMTOL
 70
     0
  9
$DIMLIM
 70
     0
  9
$DIMTIH
 70
     0
  9
$DIMTOH
 70
     0
  9
$DIMSE1
 70
     0
  9
$DIMSE2
 70
     0
  9
$DIMTAD
 70
     1
  9
$DIMZIN
 70
     8
  9
$DIMBLK
  1

  9
$DIMASO
 70
     1
  9
$DIMSHO
 70
     1
  9
$DIMPOST
  1

  9
$DIMAPOST
  1

  9
$DIMALT
 70
     0
  9
$DIMALTD
 70
     3
  9
$DIMALTF
 40
0.03937007874016
  9
$DIMLFAC
 40
1.0
  9
$DIMTOFL
 70
     1
  9
$DIMTVP
 40
0.0
  9
$DIMTIX
 70
     0
  9
$DIMSOXD
 70
     0
  9
$DIMSAH
 70
     0
  9
$DIMBLK1
  1

  9
$DIMBLK2
  1

  9
$DIMSTYLE
  2
ISO-25
  9
$DIMCLRD
 70
     0
  9
$DIMCLRE
 70
     0
  9
$DIMCLRT
 70
     0
  9
$DIMTFAC
 40
1.0
  9
$DIMGAP
 40
0.625
  9
$DIMJUST
 70
     0
  9
$DIMSD1
 70
     0
  9
$DIMSD2
 70
     0
  9
$DIMTOLJ
 70
     0
  9
$DIMTZIN
 70
     8
  9
$DIMALTZ
 70
     0
  9
$DIMALTTZ
 70
     0
  9
$DIMUPT
 70
     0
  9
$DIMDEC
 70
     2
  9
$DIMTDEC
 70
     2
  9
$DIMALTU
 70
     2
  9
$DIMALTTD
 70
     3
  9
$DIMTXSTY
  7
Standard
  9
$DIMAUNIT
 70
     0
  9
$DIMADEC
 70
     0
  9
$DIMALTRND
 40
0.0
  9
$DIMAZIN
 70
     0
  9
$DIMDSEP
 70
    44
  9
$DIMATFIT
 70
     3
  9
$DIMFRAC
 70
     0
  9
$DIMLDRBLK
  1

  9
$DIMLUNIT
 70
     2
  9
$DIMLWD
 70
    -2
  9
$DIMLWE
 70
    -2
  9
$DIMTMOVE
 70
     0
  9
$LUNITS
 70
     2
  9
$LUPREC
 70
     4
  9
$SKETCHINC
 40
1.0
  9
$FILLETRAD
 40
0.0
  9
$AUNITS
 70
     0
  9
$AUPREC
 70
     0
  9
$MENU
  1
.
  9
$ELEVATION
 40
0.0
  9
$PELEVATION
 40
0.0
  9
$THICKNESS
 40
0.0
  9
$LIMCHECK
 70
     0
  9
$CHAMFERA
 40
0.0
  9
$CHAMFERB
 40
0.0
  9
$CHAMFERC
 40
0.0
  9
$CHAMFERD
 40
0.0
  9
$SKPOLY
 70
     0
  9
$TDCREATE
 40
2460398.356956019
  9
$TDUCREATE
 40
2460398.065289352
  9
$TDUPDATE
 40
2460398.375636574
  9
$TDUUPDATE
 40
2460398.083969908
  9
$TDINDWG
 40
0.0078935185
  9
$TDUSRTIMER
 40
0.0078935185
  9
$USRTIMER
 70
     1
  9
$ANGBASE
 50
0.0
  9
$ANGDIR
 70
     0
  9
$PDMODE
 70
     0
  9
$PDSIZE
 40
0.0
  9
$PLINEWID
 40
0.0
  9
$SPLFRAME
 70
     0
  9
$SPLINETYPE
 70
     6
  9
$SPLINESEGS
 70
     8
  9
$HANDSEED
  5
AE28
  9
$SURFTAB1
 70
     6
  9
$SURFTAB2
 70
     6
  9
$SURFTYPE
 70
     6
  9
$SURFU
 70
     6
  9
$SURFV
 70
     6
  9
$UCSBASE
  2

  9
$UCSNAME
  2

  9
$UCSORG
 10
0.0
 20
0.0
 30
0.0
  9
$UCSXDIR
 10
1.0
 20
0.0
 30
0.0
  9
$UCSYDIR
 10
0.0
 20
1.0
 30
0.0
  9
$UCSORTHOREF
  2

  9
$UCSORTHOVIEW
 70
     0
  9
$UCSORGTOP
 10
0.0
 20
0.0
 30
0.0
  9
$UCSORGBOTTOM
 10
0.0
 20
0.0
 30
0.0
  9
$UCSORGLEFT
 10
0.0
 20
0.0
 30
0.0
  9
$UCSORGRIGHT
 10
0.0
 20
0.0
 30
0.0
  9
$UCSORGFRONT
 10
0.0
 20
0.0
 30
0.0
  9
$UCSORGBACK
 10
0.0
 20
0.0
 30
0.0
  9
$PUCSBASE
  2

  9
$PUCSNAME
  2

  9
$PUCSORG
 10
0.0
 20
0.0
 30
0.0
  9
$PUCSXDIR
 10
1.0
 20
0.0
 30
0.0
  9
$PUCSYDIR
 10
0.0
 20
1.0
 30
0.0
  9
$PUCSORTHOREF
  2

  9
$PUCSORTHOVIEW
 70
     0
  9
$PUCSORGTOP
 10
0.0
 20
0.0
 30
0.0
  9
$PUCSORGBOTTOM
 10
0.0
 20
0.0
 30
0.0
  9
$PUCSORGLEFT
 10
0.0
 20
0.0
 30
0.0
  9
$PUCSORGRIGHT
 10
0.0
 20
0.0
 30
0.0
  9
$PUCSORGFRONT
 10
0.0
 20
0.0
 30
0.0
  9
$PUCSORGBACK
 10
0.0
 20
0.0
 30
0.0
  9
$USERI1
 70
     0
  9
$USERI2
 70
     0
  9
$USERI3
 70
     0
  9
$USERI4
 70
     0
  9
$USERI5
 70
     0
  9
$USERR1
 40
0.0
  9
$USERR2
 40
0.0
  9
$USERR3
 40
0.0
  9
$USERR4
 40
0.0
  9
$USERR5
 40
0.0
  9
$WORLDVIEW
 70
     1
  9
$SHADEDGE
 70
     3
  9
$SHADEDIF
 70
    70
  9
$TILEMODE
 70
     1
  9
$MAXACTVP
 70
    48
  9
$PINSBASE
 10
0.0
 20
0.0
 30
0.0
  9
$PLIMCHECK
 70
     0
  9
$PEXTMIN
 10
0.0
 20
0.0
 30
0.0
  9
$PEXTMAX
 10
0.0
 20
0.0
 30
0.0
  9
$PLIMMIN
 10
0.0
 20
0.0
  9
$PLIMMAX
 10
12.0
 20
9.0
  9
$UNITMODE
 70
     0
  9
$VISRETAIN
 70
     1
  9
$PLINEGEN
 70
     0
  9
$PSLTSCALE
 70
     1
  9
$TREEDEPTH
 70
  3020
  9
$CMLSTYLE
  2
Standard
  9
$CMLJUST
 70
     0
  9
$CMLSCALE
 40
20.0
  9
$PROXYGRAPHICS
 70
     1
  9
$MEASUREMENT
 70
     1
  9
$CELWEIGHT
370
    -1
  9
$ENDCAPS
280
     0
  9
$JOINSTYLE
280
     0
  9
$LWDISPLAY
290
     0
  9
$INSUNITS
 70
     4
  9
$HYPERLINKBASE
  1

  9
$STYLESHEET
  1

  9
$XEDIT
290
     1
  9
$CEPSNTYPE
380
     0
  9
$PSTYLEMODE
290
     1
  9
$FINGERPRINTGUID
  2
{6C1266EE-7BC1-BF4A-B059-A6E7702B10CE}
  9
$VERSIONGUID
  2
{81B1A847-A29D-A340-986C-37118E269F88}
  9
$EXTNAMES
290
     1
  9
$PSVPSCALE
 40
0.0
  9
$OLESTARTUP
290
     0
  0
ENDSEC
  0
SECTION
  2
CLASSES
  0
CLASS
  1
ACDBDICTIONARYWDFLT
  2
AcDbDictionaryWithDefault
  3
ObjectDBX Classes
 90
        0
280
     0
281
     0
  0
CLASS
  1
ACDBPLACEHOLDER
  2
AcDbPlaceHolder
  3
ObjectDBX Classes
 90
        0
280
     0
281
     0
  0
CLASS
  1
LAYOUT
  2
AcDbLayout
  3
ObjectDBX Classes
 90
        0
280
     0
281
     0
  0
CLASS
  1
DICTIONARYVAR
  2
AcDbDictionaryVar
  3
ObjectDBX Classes
 90
        0
280
     0
281
     0
  0
CLASS
  1
TABLESTYLE
  2
AcDbTableStyle
  3
ObjectDBX Classes
 90
     4095
280
     0
281
     0
  0
CLASS
  1
MATERIAL
  2
AcDbMaterial
  3
ObjectDBX Classes
 90
     1153
280
     0
281
     0
  0
CLASS
  1
VISUALSTYLE
  2
AcDbVisualStyle
  3
ObjectDBX Classes
 90
     4095
280
     0
281
     0
  0
CLASS
  1
SCALE
  2
AcDbScale
  3
ObjectDBX Classes
 90
     1153
280
     0
281
     0
  0
CLASS
  1
MLEADERSTYLE
  2
AcDbMLeaderStyle
  3
ACDB_MLEADERSTYLE_CLASS
 90
     4095
280
     0
281
     0
  0
CLASS
  1
CELLSTYLEMAP
  2
AcDbCellStyleMap
  3
ObjectDBX Classes
 90
     1152
280
     0
281
     0
  0
CLASS
  1
EXACXREFPANELOBJECT
  2
ExAcXREFPanelObject
  3
EXAC_ESW
 90
    33793
280
     0
281
     0
  0
CLASS
  1
NPOCOLLECTION
  2
AcDbImpNonPersistentObjectsCollection
  3
ObjectDBX Classes
 90
    33921
280
     0
281
     0
  0
CLASS
  1
LAYER_INDEX
  2
AcDbLayerIndex
  3
ObjectDBX Classes
 90
    32768
280
     0
281
     0
  0
CLASS
  1
SPATIAL_INDEX
  2
AcDbSpatialIndex
  3
ObjectDBX Classes
 90
    32768
280
     0
281
     0
  0
CLASS
  1
IDBUFFER
  2
AcDbIdBuffer
  3
ObjectDBX Classes
 90
    32768
280
     0
281
     0
  0
CLASS
  1
ACDBSECTIONVIEWSTYLE
  2
AcDbSectionViewStyle
  3
ObjectDBX Classes
 90
     1025
280
     0
281
     0
  0
CLASS
  1
ACDBDETAILVIEWSTYLE
  2
AcDbDetailViewStyle
  3
ObjectDBX Classes
 90
     1025
280
     0
281
     0
  0
CLASS
  1
XRECORD
  2
AcDbXrecord
  3
ObjectDBX Classes
 90
        0
280
     0
281
     0
  0
ENDSEC
  0
SECTION
  2
TABLES
  0
TABLE
  2
VPORT
  5
8
102
{ACAD_XDICTIONARY
360
AD36
102
}
330
0
100
AcDbSymbolTable
 70
     1
  0
VPORT
  5
EA
330
8
100
AcDbSymbolTableRecord
100
AcDbViewportTableRecord
  2
*Active
 70
     0
 10
0.0
 20
0.0
 11
1.0
 21
1.0
 12
28.23349075651912
 22
17.55189568066493
 13
0.0
 23
0.0
 14
10.0
 24
10.0
 15
10.0
 25
10.0
 16
0.0
 26
0.0
 36
1.0
 17
0.0
 27
0.0
 37
0.0
 40
655.6070689749011
 41
0.9846153846153846
 42
50.0
 43
0.0
 44
0.0
 50
0.0
 51
0.0
 71
     0
 72
  1000
 73
     1
 74
     3
 75
     0
 76
     1
 77
     0
 78
     0
281
     0
 65
     1
110
0.0
120
0.0
130
0.0
111
1.0
121
0.0
131
0.0
112
0.0
122
1.0
132
0.0
 79
     0
146
0.0
1001
ACAD_NAV_VCDISPLAY
1070
     3
  0
ENDTAB
  0
TABLE
  2
LTYPE
  5
5
330
0
100
AcDbSymbolTable
 70
     1
  0
LTYPE
  5
14
330
5
100
AcDbSymbolTableRecord
100
AcDbLinetypeTableRecord
  2
ByBlock
 70
     0
  3

 72
    65
 73
     0
 40
0.0
  0
LTYPE
  5
15
330
5
100
AcDbSymbolTableRecord
100
AcDbLinetypeTableRecord
  2
ByLayer
 70
     0
  3

 72
    65
 73
     0
 40
0.0
  0
LTYPE
  5
16
330
5
100
AcDbSymbolTableRecord
100
AcDbLinetypeTableRecord
  2
Continuous
 70
     0
  3
Solid line
 72
    65
 73
     0
 40
0.0
  0
ENDTAB
  0
TABLE
  2
LAYER
  5
2
102
{ACAD_XDICTIONARY
360
1FF
102
}
330
0
100
AcDbSymbolTable
 70
     1
  0
LAYER
  5
10
102
{ACAD_XDICTIONARY
360
13C
102
}
330
2
100
AcDbSymbolTableRecord
100
AcDbLayerTableRecord
  2
0
 70
     0
 62
     7
  6
Continuous
370
    -3
390
F
  0
ENDTAB
  0
TABLE
  2
STYLE
  5
3
330
0
100
AcDbSymbolTable
 70
     1
  0
STYLE
  5
11
330
3
100
AcDbSymbolTableRecord
100
AcDbTextStyleTableRecord
  2
Standard
 70
     0
 40
0.0
 41
1.0
 50
0.0
 71
     0
 42
2.5
  3
arial.ttf
  4

1001
ACAD
1000
Arial
1071
       34
  0
ENDTAB
  0
TABLE
  2
VIEW
  5
6
330
0
100
AcDbSymbolTable
 70
     0
  0
ENDTAB
  0
TABLE
  2
UCS
  5
7
330
0
100
AcDbSymbolTable
 70
     0
  0
ENDTAB
  0
TABLE
  2
APPID
  5
9
330
0
100
AcDbSymbolTable
 70
     8
  0
APPID
  5
12
330
9
100
AcDbSymbolTableRecord
100
AcDbRegAppTableRecord
  2
ACAD
 70
     0
  0
APPID
  5
9E
330
9
100
AcDbSymbolTableRecord
100
AcDbRegAppTableRecord
  2
ACAD_PSEXT
 70
     0
  0
APPID
  5
133
330
9
100
AcDbSymbolTableRecord
100
AcDbRegAppTableRecord
  2
AcadAnnoPO
 70
     0
  0
APPID
  5
134
330
9
100
AcDbSymbolTableRecord
100
AcDbRegAppTableRecord
  2
AcadAnnotative
 70
     0
  0
APPID
  5
135
330
9
100
AcDbSymbolTableRecord
100
AcDbRegAppTableRecord
  2
ACAD_DSTYLE_DIMJAG
 70
     0
  0
APPID
  5
136
330
9
100
AcDbSymbolTableRecord
100
AcDbRegAppTableRecord
  2
ACAD_DSTYLE_DIMTALN
 70
     0
  0
APPID
  5
165
330
9
100
AcDbSymbolTableRecord
100
AcDbRegAppTableRecord
  2
ACAD_MLEADERVER
 70
     0
  0
APPID
  5
217
330
9
100
AcDbSymbolTableRecord
100
AcDbRegAppTableRecord
  2
ACAD_NAV_VCDISPLAY
 70
     0
  0
ENDTAB
  0
TABLE
  2
DIMSTYLE
  5
A
330
0
100
AcDbSymbolTable
 70
     1
100
AcDbDimStyleTable
 71
     0
  0
DIMSTYLE
105
27
330
A
100
AcDbSymbolTableRecord
100
AcDbDimStyleTableRecord
  2
ISO-25
 70
     0
 41
2.5
 42
0.625
 43
3.75
 44
1.25
 73
     0
 74
     0
 77
     1
 78
     8
140
2.5
141
2.5
143
0.03937007874016
147
0.625
171
     3
172
     1
271
     2
272
     2
274
     3
278
    44
283
     0
284
     8
340
11
  0
ENDTAB
  0
TABLE
  2
BLOCK_RECORD
  5
1
330
0
100
AcDbSymbolTable
 70
     7
  0
BLOCK_RECORD
  5
1F
102
{ACAD_XDICTIONARY
360
1CE
102
}
330
1
100
AcDbSymbolTableRecord
100
AcDbBlockTableRecord
  2
*Model_Space
340
22
  0
BLOCK_RECORD
  5
D2
102
{ACAD_XDICTIONARY
360
ACE9
102
}
330
1
100
AcDbSymbolTableRecord
100
AcDbBlockTableRecord
  2
*Paper_Space
340
D3
  0
BLOCK_RECORD
  5
D6
102
{ACAD_XDICTIONARY
360
ACEB
102
}
330
1
100
AcDbSymbolTableRecord
100
AcDbBlockTableRecord
  2
*Paper_Space0
340
D7
  0
BLOCK_RECORD
  5
AB4D
330
1
100
AcDbSymbolTableRecord
100
AcDbBlockTableRecord
  2
SAE440_72_2-Front
340
0
102
{BLKREFS
331
ACDF
102
}
  0
BLOCK_RECORD
  5
ABA5
330
1
100
AcDbSymbolTableRecord
100
AcDbBlockTableRecord
  2
SAE440_72_2-Left
340
0
102
{BLKREFS
331
ACE0
102
}
  0
BLOCK_RECORD
  5
ABC6
330
1
100
AcDbSymbolTableRecord
100
AcDbBlockTableRecord
  2
SAE440_72_2-Right
340
0
102
{BLKREFS
331
ACE1
102
}
  0
BLOCK_RECORD
  5
ABE5
330
1
100
AcDbSymbolTableRecord
100
AcDbBlockTableRecord
  2
SAE440_72_2-Top
340
0
102
{BLKREFS
331
ACE2
102
}
  0
BLOCK_RECORD
  5
AC19
330
1
100
AcDbSymbolTableRecord
100
AcDbBlockTableRecord
  2
SAE440_72_2-Bottom
340
0
102
{BLKREFS
331
ACE3
102
}
  0
BLOCK_RECORD
  5
AC44
330
1
100
AcDbSymbolTableRecord
100
AcDbBlockTableRecord
  2
SAE440_72_2-ISO
340
0
102
{BLKREFS
331
ACE4
102
}
  0
ENDTAB
  0
ENDSEC
  0
SECTION
  2
BLOCKS
  0
BLOCK
  5
20
330
1F
100
AcDbEntity
  8
0
100
AcDbBlockBegin
  2
*Model_Space
 70
     0
 10
0.0
 20
0.0
 30
0.0
  3
*Model_Space
  1

  0
ENDBLK
  5
21
330
1F
100
AcDbEntity
  8
0
100
AcDbBlockEnd
  0
BLOCK
  5
D4
330
D2
100
AcDbEntity
 67
     1
  8
0
100
AcDbBlockBegin
  2
*Paper_Space
 70
     0
 10
0.0
 20
0.0
 30
0.0
  3
*Paper_Space
  1

  0
ENDBLK
  5
D5
330
D2
100
AcDbEntity
 67
     1
  8
0
100
AcDbBlockEnd
  0
BLOCK
  5
D8
330
D6
100
AcDbEntity
 67
     1
  8
0
100
AcDbBlockBegin
  2
*Paper_Space0
 70
     0
 10
0.0
 20
0.0
 30
0.0
  3
*Paper_Space0
  1

  0
ENDBLK
  5
D9
330
D6
100
AcDbEntity
 67
     1
  8
0
100
AcDbBlockEnd
  0
BLOCK
  5
AB4E
330
AB4D
100
AcDbEntity
  8
0
100
AcDbBlockBegin
  2
SAE440_72_2-Front
 70
     0
 10
0.0
 20
0.0
 30
0.0
  3
SAE440_72_2-Front
  1

  0
SPLINE
  5
AB50
330
AB4D
100
AcDbEntity
  8
0
100
AcDbSpline
210
0.0
220
0.0
230
1.0
 70
     8
 71
     3
 72
    14
 73
    10
 74
     0
 42
0.000000001
 43
0.0000000001
 40
0.0
 40
0.0
 40
0.0
 40
0.0
 40
0.3435149368861596
 40
0.3435149368861596
 40
0.3435149368861596
 40
0.7569946176809849
 40
0.7569946176809849
 40
0.7569946176809849
 40
0.9986518541624576
 40
0.9986518541624576
 40
0.9986518541624576
 40
0.9986518541624576
 10
40.60606060606062
 20
26.5625
 30
0.0
 10
40.28490796720287
 20
26.30249636931075
 30
0.0
 10
39.87246555817092
 20
26.0752940212596
 30
0.0
 10
39.47647444984084
 20
25.8440817946191
 30
0.0
 10
38.99983061433805
 20
25.56577786252879
 30
0.0
 10
38.53729794765987
 20
25.27139780311995
 30
0.0
 10
38.26242807116038
 20
24.857927040091
 30
0.0
 10
38.10178101198886
 20
24.61627501557703
 30
0.0
 10
38.00111705872743
 20
24.36107503850251
 30
0.0
 10
38.00000923808789
 20
24.00595276364404
 30
0.0
  0
LINE
  5
AB51
330
AB4D
100
AcDbEntity
  8
0
100
AcDbLine
 10
38.0
 20
26.56250000000001
 30
0.0
 11
40.0
 21
26.56250000000001
 31
0.0
  0
SPLINE
  5
AB52
330
AB4D
100
AcDbEntity
  8
0
100
AcDbSpline
210
0.0
220
0.0
230
1.0
 70
     8
 71
     3
 72
    20
 73
    16
 74
     0
 42
0.000000001
 43
0.0000000001
 40
0.0120727937204861
 40
0.0120727937204861
 40
0.0120727937204861
 40
0.0120727937204861
 40
0.0124288508751006
 40
0.0124288508751006
 40
0.0135302217247971
 40
0.0135302217247971
 40
0.0142261533858483
 40
0.0142261533858483
 40
0.0153094160362219
 40
0.0153094160362219
 40
0.0162525248861101
 40
0.0162525248861101
 40
0.0174015733504796
 40
0.0174015733504796
 40
0.0202445336704904
 40
0.0202445336704904
 40
0.0202445336704904
 40
0.0202445336704904
 10
38.00029164702517
 20
24.05864902332838
 30
0.0
 10
38.00029164702488
 20
24.05864902330294
 30
0.0
 10
38.00029123369311
 20
24.05861294219349
 30
0.0
 10
38.00028772502038
 20
24.05830125777939
 30
0.0
 10
38.00028065344604
 20
24.05767569684578
 30
0.0
 10
38.0002614607231
 20
24.05580875754124
 30
0.0
 10
38.00025209701916
 20
24.05487008329303
 30
0.0
 10
38.00022447041391
 20
24.05189819477961
 30
0.0
 10
38.0002036250026
 20
24.04947455978526
 30
0.0
 10
38.00016554779832
 20
24.04422649454814
 30
0.0
 10
38.00014800683256
 20
24.04146120924875
 30
0.0
 10
38.00011446921852
 20
24.03509374009787
 30
0.0
 10
38.00009956667926
 20
24.03145135007737
 30
0.0
 10
38.00006174351592
 20
24.01867994133051
 30
0.0
 10
38.00005914615842
 20
24.00931579015896
 30
0.0
 10
38.00007431501592
 20
24.00000007787119
 30
0.0
  0
SPLINE
  5
AB53
330
AB4D
100
AcDbEntity
  8
0
100
AcDbSpline
210
0.0
220
0.0
230
1.0
 70
     8
 71
     3
 72
    20
 73
    16
 74
     0
 42
0.000000001
 43
0.0000000001
 40
0.0053329317574157
 40
0.0053329317574157
 40
0.0053329317574157
 40
0.0053329317574157
 40
0.0056476384760648
 40
0.0056476384760648
 40
0.0060463986065825
 40
0.0060463986065825
 40
0.0065307473372791
 40
0.0065307473372791
 40
0.0071940330747924
 40
0.0071940330747924
 40
0.0085673555897796
 40
0.0085673555897796
 40
0.0106389960747155
 40
0.0106389960747155
 40
0.0111024458880877
 40
0.0111024458880877
 40
0.0111024458880877
 40
0.0111024458880877
 10
38.00010883933675
 20
24.04546313426252
 30
0.0
 10
38.00010883931817
 20
24.04546313127149
 30
0.0
 10
38.00010796018916
 20
24.04532230030387
 30
0.0
 10
38.00010437335172
 20
24.04473468118876
 30
0.0
 10
38.00010121339593
 20
24.04421103324281
 30
0.0
 10
38.00009286789416
 20
24.0427671728875
 30
0.0
 10
38.00008734603736
 20
24.04177610101041
 30
0.0
 10
38.00007384262104
 20
24.03918105364173
 30
0.0
 10
38.00006571149213
 20
24.0374829930901
 30
0.0
 10
38.00004298010608
 20
24.03216377974364
 30
0.0
 10
38.00002983085871
 20
24.02823236318969
 30
0.0
 10
38.00000644319683
 20
24.0179319459409
 30
0.0
 10
38.0000010752483
 20
24.011262523677
 30
0.0
 10
38.00000622906573
 20
24.00302763755402
 30
0.0
 10
38.00000763232315
 20
24.00151582241814
 30
0.0
 10
38.00000948370925
 20
24.0000000134992
 30
0.0
  0
SPLINE
  5
AB54
330
AB4D
100
AcDbEntity
  8
0
100
AcDbSpline
210
0.0
220
0.0
230
1.0
 70
     8
 71
     3
 72
     8
 73
     4
 74
     0
 42
0.000000001
 43
0.0000000001
 40
0.0
 40
0.0
 40
0.0
 40
0.0
 40
0.0009484845480883
 40
0.0009484845480883
 40
0.0009484845480883
 40
0.0009484845480883
 10
35.99956040496368
 20
24.00000098503775
 30
0.0
 10
35.99956427154476
 20
24.00275539288608
 30
0.0
 10
35.99956807790145
 20
24.00547480198476
 30
0.0
 10
35.99957175544645
 20
24.00814870136545
 30
0.0
  0
SPLINE
  5
AB55
330
AB4D
100
AcDbEntity
  8
0
100
AcDbSpline
210
0.0
220
0.0
230
1.0
 70
     8
 71
     3
 72
    14
 73
    10
 74
     0
 42
0.000000001
 43
0.0000000001
 40
0.0
 40
0.0
 40
0.0
 40
0.0
 40
0.0050538733347177
 40
0.0050538733347177
 40
0.0076267643295246
 40
0.0076267643295246
 40
0.0099758051792905
 40
0.0099758051792905
 40
0.0117460251117171
 40
0.0117460251117171
 40
0.0117460251117171
 40
0.0117460251117171
 10
35.99970086423114
 20
23.99999537288795
 30
0.0
 10
35.9994369636166
 20
24.01668067542385
 30
0.0
 10
35.99916129986213
 20
24.03394686651603
 30
0.0
 10
35.99876192961181
 20
24.05896090321647
 30
0.0
 10
35.99862825754511
 20
24.06733867631051
 30
0.0
 10
35.99840269992727
 20
24.08149000762036
 30
0.0
 10
35.99830585206666
 20
24.08757028740695
 30
0.0
 10
35.99816732097151
 20
24.09624054974391
 30
0.0
 10
35.99811640302725
 20
24.09941639122801
 30
0.0
 10
35.99807359158816
 20
24.10207293141944
 30
0.0
  0
SPLINE
  5
AB56
330
AB4D
100
AcDbEntity
  8
0
100
AcDbSpline
210
0.0
220
0.0
230
1.0
 70
     8
 71
     3
 72
    34
 73
    30
 74
     0
 42
0.000000001
 43
0.0000000001
 40
0.0019685686163875
 40
0.0019685686163875
 40
0.0019685686163875
 40
0.0019685686163875
 40
0.0074296222285566
 40
0.0074296222285566
 40
0.0161449102073958
 40
0.0161449102073958
 40
0.0215828018108844
 40
0.0215828018108844
 40
0.0244032812582528
 40
0.0244032812582528
 40
0.0264872652058498
 40
0.0264872652058498
 40
0.029223671772093
 40
0.029223671772093
 40
0.0316488028976831
 40
0.0316488028976831
 40
0.0348373577588161
 40
0.0348373577588161
 40
0.0399365653338242
 40
0.0399365653338242
 40
0.0496589687446352
 40
0.0496589687446352
 40
0.074216854248994
 40
0.074216854248994
 40
0.1473304134558877
 40
0.1473304134558877
 40
0.2287250294592545
 40
0.2287250294592545
 40
0.2666307747423108
 40
0.2666307747423108
 40
0.2666307747423108
 40
0.2666307747423108
 10
35.99993371685329
 20
24.0038392791698
 30
0.0
 10
35.99985869732492
 20
24.00814127620372
 30
0.0
 10
35.9997480930614
 20
24.01437444464153
 30
0.0
 10
35.99939149886302
 20
24.03388637597871
 30
0.0
 10
35.99909597303584
 20
24.04957511787503
 30
0.0
 10
35.99852099970284
 20
24.07925634933507
 30
0.0
 10
35.99828147537597
 20
24.09145860767222
 30
0.0
 10
35.99788179486788
 20
24.11186497813079
 30
0.0
 10
35.997734629024
 20
24.11938754978406
 30
0.0
 10
35.99745965029212
 20
24.13358375588072
 30
0.0
 10
35.99733531776141
 20
24.14004598659298
 30
0.0
 10
35.99704172079535
 20
24.15551836006456
 30
0.0
 10
35.99686693817467
 20
24.16489645085435
 30
0.0
 10
35.9965566008667
 20
24.18203578087408
 30
0.0
 10
35.99641577946459
 20
24.19002350686046
 30
0.0
 10
35.9961128834391
 20
24.20773325402546
 30
0.0
 10
35.99595511782747
 20
24.2173752108438
 30
0.0
 10
35.99558173311693
 20
24.24123343370259
 30
0.0
 10
35.99538454159173
 20
24.25493749919231
 30
0.0
 10
35.99487987468835
 20
24.29285678025854
 30
0.0
 10
35.99462930976014
 20
24.31564505393281
 30
0.0
 10
35.99390946195816
 20
24.39342248147628
 30
0.0
 10
35.99367743831273
 20
24.44492696301276
 30
0.0
 10
35.99335887471764
 20
24.65930941833898
 30
0.0
 10
35.99486716526368
 20
24.84867788248678
 30
0.0
 10
35.99831999718745
 20
25.28400866362685
 30
0.0
 10
35.99958406768534
 20
25.5404792896486
 30
0.0
 10
35.99998939036781
 20
25.92888164140228
 30
0.0
 10
35.99998373131171
 20
26.05470551119154
 30
0.0
 10
35.99999053642174
 20
26.18062713409339
 30
0.0
  0
SPLINE
  5
AB57
330
AB4D
100
AcDbEntity
  8
0
100
AcDbSpline
210
0.0
220
0.0
230
1.0
 70
     8
 71
     3
 72
    12
 73
     8
 74
     0
 42
0.000000001
 43
0.0000000001
 40
0.0
 40
0.0
 40
0.0
 40
0.0
 40
0.0029763424559238
 40
0.0029763424559238
 40
0.0058215424668621
 40
0.0058215424668621
 40
0.0072780894902136
 40
0.0072780894902136
 40
0.0072780894902136
 40
0.0072780894902136
 10
35.99994048878255
 20
23.99999986757249
 30
0.0
 10
35.99992879778507
 20
24.00662299511403
 30
0.0
 10
35.9999180607573
 20
24.01206399574336
 30
0.0
 10
35.99990163952715
 20
24.01957263231845
 30
0.0
 10
35.99989565396874
 20
24.02187984859344
 30
0.0
 10
35.99989113661323
 20
24.02353105171006
 30
0.0
 10
35.99989036107348
 20
24.02378586033062
 30
0.0
 10
35.99989036107358
 20
24.02378586030094
 30
0.0
  0
SPLINE
  5
AB58
330
AB4D
100
AcDbEntity
  8
0
100
AcDbSpline
210
0.0
220
0.0
230
1.0
 70
     8
 71
     3
 72
     8
 73
     4
 74
     0
 42
0.000000001
 43
0.0000000001
 40
0.0
 40
0.0
 40
0.0
 40
0.0
 40
0.0004175945237802
 40
0.0004175945237802
 40
0.0004175945237802
 40
0.0004175945237802
 10
40.60608753399281
 20
26.56246533477608
 30
0.0
 10
40.60571552650969
 20
26.56217722338214
 30
0.0
 10
40.60533670551103
 20
26.56188389108034
 30
0.0
 10
40.60495522796807
 20
26.56158846473716
 30
0.0
  0
SPLINE
  5
AB59
330
AB4D
100
AcDbEntity
  8
0
100
AcDbSpline
210
0.0
220
0.0
230
1.0
 70
     8
 71
     3
 72
     8
 73
     4
 74
     0
 42
0.000000001
 43
0.0000000001
 40
0.0
 40
0.0
 40
0.0
 40
0.0
 40
0.0006730446984041
 40
0.0006730446984041
 40
0.0006730446984041
 40
0.0006730446984041
 10
40.60610301841193
 20
26.56244730639216
 30
0.0
 10
40.60468730895033
 20
26.56130750337807
 30
0.0
 10
40.60321073103899
 20
26.56012004499857
 30
0.0
 10
40.60168844854131
 20
26.5588973356857
 30
0.0
  0
LINE
  5
AB5A
330
AB4D
100
AcDbEntity
  8
0
100
AcDbLine
 10
33.99999999999998
 20
-2.0
 30
0.0
 11
-33.99999999999997
 21
-2.000000000000007
 31
0.0
  0
LINE
  5
AB5B
330
AB4D
100
AcDbEntity
  8
0
100
AcDbLine
 10
-33.99999999999997
 20
0.0
 30
0.0
 11
33.99999999999998
 21
0.0
 31
0.0
  0
LINE
  5
AB5C
330
AB4D
100
AcDbEntity
  8
0
100
AcDbLine
 10
-40.0
 20
26.56250000000001
 30
0.0
 11
-38.0
 21
26.56250000000001
 31
0.0
  0
SPLINE
  5
AB5D
330
AB4D
100
AcDbEntity
  8
0
100
AcDbSpline
210
0.0
220
0.0
230
1.0
 70
     8
 71
     3
 72
    14
 73
    10
 74
     0
 42
0.000000001
 43
0.0000000001
 40
0.0
 40
0.0
 40
0.0
 40
0.0
 40
0.3435149368861596
 40
0.3435149368861596
 40
0.3435149368861596
 40
0.7569946176809849
 40
0.7569946176809849
 40
0.7569946176809849
 40
0.9986524928981339
 40
0.9986524928981339
 40
0.9986524928981339
 40
0.9986524928981339
 10
-40.60606060606062
 20
26.5625
 30
0.0
 10
-40.28490796720287
 20
26.30249636931075
 30
0.0
 10
-39.87246555817092
 20
26.0752940212596
 30
0.0
 10
-39.47647444984084
 20
25.8440817946191
 30
0.0
 10
-38.99983061433805
 20
25.56577786252879
 30
0.0
 10
-38.53729794765987
 20
25.27139780311995
 30
0.0
 10
-38.26242807116038
 20
24.857927040091
 30
0.0
 10
-38.10178058737501
 20
24.61627437685513
 30
0.0
 10
-38.00111652658852
 20
24.36107368944014
 30
0.0
 10
-38.00000922930558
 20
24.00594994772049
 30
0.0
  0
SPLINE
  5
AB5E
330
AB4D
100
AcDbEntity
  8
0
100
AcDbSpline
210
0.0
220
0.0
230
1.0
 70
     8
 71
     3
 72
    32
 73
    28
 74
     0
 42
0.000000001
 43
0.0000000001
 40
0.0
 40
0.0
 40
0.0
 40
0.0
 40
0.0776271918541112
 40
0.0776271918541112
 40
0.1568374814958818
 40
0.1568374814958818
 40
0.1970112959341115
 40
0.1970112959341115
 40
0.2164315010375483
 40
0.2164315010375483
 40
0.2310065214454026
 40
0.2310065214454026
 40
0.2354687059392371
 40
0.2354687059392371
 40
0.2373980359535377
 40
0.2373980359535377
 40
0.2393330610203157
 40
0.2393330610203157
 40
0.2412694825953733
 40
0.2412694825953733
 40
0.2451789650018292
 40
0.2451789650018292
 40
0.25291031421415
 40
0.25291031421415
 40
0.2645041731170978
 40
0.2645041731170978
 40
0.2646493215199107
 40
0.2646493215199107
 40
0.2646493215199107
 40
0.2646493215199107
 10
-35.99999053642173
 20
26.18062713408446
 30
0.0
 10
-35.99997660023401
 20
25.92275218909688
 30
0.0
 10
-35.99994864802422
 20
25.66281433605674
 30
0.0
 10
-35.99779571309813
 20
25.18065903489296
 30
0.0
 10
-35.99540695023544
 20
24.95137893639616
 30
0.0
 10
-35.99366130301285
 20
24.64942513914283
 30
0.0
 10
-35.99342296812571
 20
24.55634296625932
 30
0.0
 10
-35.99377397755973
 20
24.42686216935419
 30
0.0
 10
-35.99399228822333
 20
24.38559520938551
 30
0.0
 10
-35.99468572145962
 20
24.3087940301065
 30
0.0
 10
-35.9950772412883
 20
24.27453875595361
 30
0.0
 10
-35.99589624729632
 20
24.22091777338732
 30
0.0
 10
-35.9961153223922
 20
24.20744678073253
 30
0.0
 10
-35.99646878940698
 20
24.18702502358094
 30
0.0
 10
-35.99658150829784
 20
24.18066398199292
 30
0.0
 10
-35.99681365131961
 20
24.16783573958309
 30
0.0
 10
-35.99693455086376
 20
24.1612889705867
 30
0.0
 10
-35.99717337010915
 20
24.14855236116882
 30
0.0
 10
-35.99729282701353
 20
24.14227860325472
 30
0.0
 10
-35.99763603617812
 20
24.12441472708162
 30
0.0
 10
-35.99784675104571
 20
24.1136528620833
 30
0.0
 10
-35.99840698165158
 20
24.08505350507117
 30
0.0
 10
-35.9987387711158
 20
24.06811664124604
 30
0.0
 10
-35.99944787412263
 20
24.03103555782547
 30
0.0
 10
-35.99976475002083
 20
24.01352052016584
 30
0.0
 10
-35.99992956734696
 20
24.00408109267631
 30
0.0
 10
-35.99993158065068
 20
24.00396570922663
 30
0.0
 10
-35.99993356912712
 20
24.00385167998739
 30
0.0
  0
SPLINE
  5
AB5F
330
AB4D
100
AcDbEntity
  8
0
100
AcDbSpline
210
0.0
220
0.0
230
1.0
 70
     8
 71
     3
 72
     8
 73
     4
 74
     0
 42
0.000000001
 43
0.0000000001
 40
0.0207867187871416
 40
0.0207867187871416
 40
0.0207867187871416
 40
0.0207867187871416
 40
0.0217360469989655
 40
0.0217360469989655
 40
0.0217360469989655
 40
0.0217360469989655
 10
-35.99957173053932
 20
24.00814873951825
 30
0.0
 10
-35.99956805572006
 20
24.00547682199457
 30
0.0
 10
-35.99956427498404
 20
24.00275784289334
 30
0.0
 10
-35.9995604049637
 20
24.00000098503776
 30
0.0
  0
SPLINE
  5
AB60
330
AB4D
100
AcDbEntity
  8
0
100
AcDbSpline
210
0.0
220
0.0
230
1.0
 70
     8
 71
     3
 72
    18
 73
    14
 74
     0
 42
0.000000001
 43
0.0000000001
 40
0.0359684599236379
 40
0.0359684599236379
 40
0.0359684599236379
 40
0.0359684599236379
 40
0.0373929838878338
 40
0.0373929838878338
 40
0.0388269935398455
 40
0.0388269935398455
 40
0.0410736039120967
 40
0.0410736039120967
 40
0.0431426664333942
 40
0.0431426664333942
 40
0.0457467522013243
 40
0.0457467522013243
 40
0.0477385609616932
 40
0.0477385609616932
 40
0.0477385609616932
 40
0.0477385609616932
 10
-35.99807360884826
 20
24.10207149769329
 30
0.0
 10
-35.99810813523733
 20
24.09992906234926
 30
0.0
 10
-35.99814774201649
 20
24.09746141463342
 30
0.0
 10
-35.99823833679156
 20
24.09179802780719
 30
0.0
 10
-35.99828987694773
 20
24.08856810405915
 30
0.0
 10
-35.99843588963518
 20
24.07940951624594
 30
0.0
 10
-35.99854061020425
 20
24.07283557729036
 30
0.0
 10
-35.99875345112129
 20
24.05949166761076
 30
0.0
 10
-35.99886231648969
 20
24.0526734220091
 30
0.0
 10
-35.99910891240053
 20
24.03722803393521
 30
0.0
 10
-35.99924874565849
 20
24.02846691040649
 30
0.0
 10
-35.99949199068846
 20
24.01317843571163
 30
0.0
 10
-35.99959685696364
 20
24.00657130575356
 30
0.0
 10
-35.99970086423115
 20
23.99999537288795
 30
0.0
  0
SPLINE
  5
AB61
330
AB4D
100
AcDbEntity
  8
0
100
AcDbSpline
210
0.0
220
0.0
230
1.0
 70
     8
 71
     3
 72
    12
 73
     8
 74
     0
 42
0.000000001
 43
0.0000000001
 40
0.0136503298501469
 40
0.0136503298501469
 40
0.0136503298501469
 40
0.0136503298501469
 40
0.0164817609380764
 40
0.0164817609380764
 40
0.0184447936270147
 40
0.0184447936270147
 40
0.0209304227774427
 40
0.0209304227774427
 40
0.0209304227774427
 40
0.0209304227774427
 10
-35.99989036107358
 20
24.02378586029952
 30
0.0
 10
-35.99989036107347
 20
24.02378586033592
 30
0.0
 10
-35.99989338767378
 20
24.0227988873165
 30
0.0
 10
-35.9999028957635
 20
24.01893474684025
 30
0.0
 10
-35.99990804271205
 20
24.01671478076729
 30
0.0
 10
-35.99992165030597
 20
24.01024147858874
 30
0.0
 10
-35.99993072529446
 20
24.00553103178789
 30
0.0
 10
-35.99994048878256
 20
23.9999998675725
 30
0.0
  0
SPLINE
  5
AB62
330
AB4D
100
AcDbEntity
  8
0
100
AcDbSpline
210
0.0
220
0.0
230
1.0
 70
     8
 71
     3
 72
    16
 73
    12
 74
     0
 42
0.000000001
 43
0.0000000001
 40
0.0
 40
0.0
 40
0.0
 40
0.0
 40
0.0041147701328638
 40
0.0041147701328638
 40
0.0050669104853297
 40
0.0050669104853297
 40
0.0058958097596115
 40
0.0058958097596115
 40
0.0067234516649137
 40
0.0067234516649137
 40
0.0081601476145891
 40
0.0081601476145891
 40
0.0081601476145891
 40
0.0081601476145891
 10
-38.00007431501592
 20
24.00000007787117
 30
0.0
 10
-38.00005236030857
 20
24.01348321177855
 30
0.0
 10
-38.00007089001976
 20
24.02743611947335
 30
0.0
 10
-38.00015518626342
 20
24.04264323902062
 30
0.0
 10
-38.0001733425369
 20
24.04537391437282
 30
0.0
 10
-38.0002068035992
 20
24.04980909449862
 30
0.0
 10
-38.00022231882093
 20
24.05162998384299
 30
0.0
 10
-38.00024914482327
 20
24.0545766917496
 30
0.0
 10
-38.00026066602969
 20
24.05573299462934
 30
0.0
 10
-38.00028457044037
 20
24.05805391641259
 30
0.0
 10
-38.00029164702527
 20
24.05864902333546
 30
0.0
 10
-38.00029164702517
 20
24.05864902332692
 30
0.0
  0
SPLINE
  5
AB63
330
AB4D
100
AcDbEntity
  8
0
100
AcDbSpline
210
0.0
220
0.0
230
1.0
 70
     8
 71
     3
 72
    18
 73
    14
 74
     0
 42
0.000000001
 43
0.0000000001
 40
0.0
 40
0.0
 40
0.0
 40
0.0
 40
0.002045684248327
 40
0.002045684248327
 40
0.0037103799029191
 40
0.0037103799029191
 40
0.0047886574528259
 40
0.0047886574528259
 40
0.0054058580264078
 40
0.0054058580264078
 40
0.0056713593796701
 40
0.0056713593796701
 40
0.0057658587559029
 40
0.0057658587559029
 40
0.0057658587559029
 40
0.0057658587559029
 10
-38.00000948370925
 20
24.0000000134992
 30
0.0
 10
-38.00000131162402
 20
24.00669084892391
 30
0.0
 10
-38.00000211672946
 20
24.01335086236109
 30
0.0
 10
-38.0000199570904
 20
24.02478352041074
 30
0.0
 10
-38.00003405059742
 20
24.02972464705365
 30
0.0
 10
-38.00006334256444
 20
24.03706867853133
 30
0.0
 10
-38.00007727322297
 20
24.03991934632595
 30
0.0
 10
-38.0000960428942
 20
24.04334273318931
 30
0.0
 10
-38.00010217954242
 20
24.04437249635441
 30
0.0
 10
-38.00010716091144
 20
24.04519218275787
 30
0.0
 10
-38.0001081841622
 20
24.04535741756562
 30
0.0
 10
-38.00010876159599
 20
24.04545062473848
 30
0.0
 10
-38.00010883935338
 20
24.04546313694302
 30
0.0
 10
-38.00010883933669
 20
24.04546313425597
 30
0.0
  0
SPLINE
  5
AB64
330
AB4D
100
AcDbEntity
  8
0
100
AcDbSpline
210
0.0
220
0.0
230
1.0
 70
     8
 71
     3
 72
     8
 73
     4
 74
     0
 42
0.000000001
 43
0.0000000001
 40
0.0
 40
0.0
 40
0.0
 40
0.0
 40
0.0007418618381245
 40
0.0007418618381245
 40
0.0007418618381245
 40
0.0007418618381245
 10
-38.00001228473425
 20
23.99999999359671
 30
0.0
 10
-38.00000823587388
 20
24.00154343845303
 30
0.0
 10
-38.00000411639132
 20
24.00317715695678
 30
0.0
 10
-37.99999998544273
 20
24.00485798903928
 30
0.0
  0
SPLINE
  5
AB65
330
AB4D
100
AcDbEntity
  8
0
100
AcDbSpline
210
0.0
220
0.0
230
1.0
 70
     8
 71
     3
 72
     8
 73
     4
 74
     0
 42
0.000000001
 43
0.0000000001
 40
0.2816853909334815
 40
0.2816853909334815
 40
0.2816853909334815
 40
0.2816853909334815
 40
0.2823584862536319
 40
0.2823584862536319
 40
0.2823584862536319
 40
0.2823584862536319
 10
-40.60168902081969
 20
26.55889785816263
 30
0.0
 10
-40.60321156783304
 20
26.56012077993658
 30
0.0
 10
-40.60468720247052
 20
26.56130741765001
 30
0.0
 10
-40.60610301841195
 20
26.56244730639216
 30
0.0
  0
SPLINE
  5
AB66
330
AB4D
100
AcDbEntity
  8
0
100
AcDbSpline
210
0.0
220
0.0
230
1.0
 70
     8
 71
     3
 72
     8
 73
     4
 74
     0
 42
0.000000001
 43
0.0000000001
 40
0.018488627585195
 40
0.018488627585195
 40
0.018488627585195
 40
0.018488627585195
 40
0.0189064975958559
 40
0.0189064975958559
 40
0.0189064975958559
 40
0.0189064975958559
 10
-40.60495655135901
 20
26.56158945731058
 30
0.0
 10
-40.60533779125379
 20
26.56188469961271
 30
0.0
 10
-40.60571528109657
 20
26.56217703331521
 30
0.0
 10
-40.60608753399283
 20
26.56246533477608
 30
0.0
  0
ARC
  5
AB67
330
AB4D
100
AcDbEntity
  8
0
100
AcDbCircle
 10
-33.99999999999997
 20
2.0
 30
0.0
 40
4.000000000000007
100
AcDbArc
 50
180.0
 51
270.0
  0
ARC
  5
AB68
330
AB4D
100
AcDbEntity
  8
0
100
AcDbCircle
 10
-33.99999999999997
 20
2.0
 30
0.0
 40
2.000000000000006
100
AcDbArc
 50
180.0
 51
270.0
  0
ARC
  5
AB69
330
AB4D
100
AcDbEntity
  8
0
100
AcDbCircle
 10
33.99999999999997
 20
2.0
 30
0.0
 40
4.000000000000007
100
AcDbArc
 50
270.0
 51
0.0
  0
LINE
  5
AB6A
330
AB4D
100
AcDbEntity
  8
0
100
AcDbLine
 10
40.60606060606064
 20
26.56250000000001
 30
0.0
 11
77.50000000000004
 21
56.99999999999995
 31
0.0
  0
LINE
  5
AB6B
330
AB4D
100
AcDbEntity
  8
0
100
AcDbLine
 10
35.99999999999997
 20
23.99999999999999
 30
0.0
 11
35.99999999999999
 21
56.99999999999995
 31
0.0
  0
LINE
  5
AB6C
330
AB4D
100
AcDbEntity
  8
0
100
AcDbLine
 10
37.99999999999998
 20
23.99999999999999
 30
0.0
 11
35.99999999999997
 21
23.99999999999999
 31
0.0
  0
LINE
  5
AB6D
330
AB4D
100
AcDbEntity
  8
0
100
AcDbLine
 10
37.99999999999999
 20
56.99999999999995
 30
0.0
 11
37.99999999999998
 21
23.99999999999999
 31
0.0
  0
LINE
  5
AB6E
330
AB4D
100
AcDbEntity
  8
0
100
AcDbLine
 10
37.99999999999999
 20
56.99999999999995
 30
0.0
 11
35.99999999999999
 21
56.99999999999995
 31
0.0
  0
LINE
  5
AB6F
330
AB4D
100
AcDbEntity
  8
0
100
AcDbLine
 10
35.99999999999999
 20
56.99999999999995
 30
0.0
 11
35.99999999999998
 21
184.0
 31
0.0
  0
LINE
  5
AB70
330
AB4D
100
AcDbEntity
  8
0
100
AcDbLine
 10
37.99999999999999
 20
184.0
 30
0.0
 11
37.99999999999999
 21
56.99999999999995
 31
0.0
  0
LINE
  5
AB71
330
AB4D
100
AcDbEntity
  8
0
100
AcDbLine
 10
35.99999999999998
 20
184.0
 30
0.0
 11
37.99999999999999
 21
184.0
 31
0.0
  0
LINE
  5
AB72
330
AB4D
100
AcDbEntity
  8
0
100
AcDbLine
 10
37.99999999999998
 20
23.99999999999999
 30
0.0
 11
37.99999999999998
 21
2.000000000000001
 31
0.0
  0
LINE
  5
AB73
330
AB4D
100
AcDbEntity
  8
0
100
AcDbLine
 10
35.99999999999998
 20
2.0
 30
0.0
 11
35.99999999999997
 21
23.99999999999999
 31
0.0
  0
ARC
  5
AB74
330
AB4D
100
AcDbEntity
  8
0
100
AcDbCircle
 10
33.99999999999997
 20
2.0
 30
0.0
 40
2.000000000000006
100
AcDbArc
 50
270.0
 51
0.0
  0
LINE
  5
AB75
330
AB4D
100
AcDbEntity
  8
0
100
AcDbLine
 10
40.0
 20
184.0
 30
0.0
 11
38.0
 21
184.0
 31
0.0
  0
LINE
  5
AB76
330
AB4D
100
AcDbEntity
  8
0
100
AcDbLine
 10
77.50000000000004
 20
56.99999999999995
 30
0.0
 11
77.50000000000001
 21
184.0
 31
0.0
  0
LINE
  5
AB77
330
AB4D
100
AcDbEntity
  8
0
100
AcDbLine
 10
77.50000000000001
 20
184.0
 30
0.0
 11
40.0
 21
184.0
 31
0.0
  0
CIRCLE
  5
AB78
330
AB4D
100
AcDbEntity
  8
0
100
AcDbCircle
 10
58.00000000000001
 20
164.0
 30
0.0
 40
6.5
  0
CIRCLE
  5
AB79
330
AB4D
100
AcDbEntity
  8
0
100
AcDbCircle
 10
69.00000000000003
 20
179.0
 30
0.0
 40
2.5
  0
LINE
  5
AB7A
330
AB4D
100
AcDbEntity
  8
0
100
AcDbLine
 10
-77.50000000000004
 20
56.99999999999995
 30
0.0
 11
-40.60606060606064
 21
26.56250000000001
 31
0.0
  0
LINE
  5
AB7B
330
AB4D
100
AcDbEntity
  8
0
100
AcDbLine
 10
-35.99999999999999
 20
56.99999999999995
 30
0.0
 11
-35.99999999999997
 21
23.99999999999999
 31
0.0
  0
LINE
  5
AB7C
330
AB4D
100
AcDbEntity
  8
0
100
AcDbLine
 10
-37.99999999999999
 20
56.99999999999995
 30
0.0
 11
-35.99999999999999
 21
56.99999999999995
 31
0.0
  0
LINE
  5
AB7D
330
AB4D
100
AcDbEntity
  8
0
100
AcDbLine
 10
-37.99999999999998
 20
23.99999999999999
 30
0.0
 11
-37.99999999999999
 21
56.99999999999995
 31
0.0
  0
LINE
  5
AB7E
330
AB4D
100
AcDbEntity
  8
0
100
AcDbLine
 10
-35.99999999999997
 20
23.99999999999999
 30
0.0
 11
-37.99999999999998
 21
23.99999999999999
 31
0.0
  0
LINE
  5
AB7F
330
AB4D
100
AcDbEntity
  8
0
100
AcDbLine
 10
-35.99999999999998
 20
184.0
 30
0.0
 11
-35.99999999999999
 21
56.99999999999995
 31
0.0
  0
LINE
  5
AB80
330
AB4D
100
AcDbEntity
  8
0
100
AcDbLine
 10
-37.99999999999999
 20
184.0
 30
0.0
 11
-35.99999999999998
 21
184.0
 31
0.0
  0
LINE
  5
AB81
330
AB4D
100
AcDbEntity
  8
0
100
AcDbLine
 10
-37.99999999999999
 20
56.99999999999995
 30
0.0
 11
-37.99999999999999
 21
184.0
 31
0.0
  0
CIRCLE
  5
AB82
330
AB4D
100
AcDbEntity
  8
0
100
AcDbCircle
 10
-58.00000000000001
 20
63.99999999999998
 30
0.0
 40
6.5
  0
CIRCLE
  5
AB83
330
AB4D
100
AcDbEntity
  8
0
100
AcDbCircle
 10
58.00000000000001
 20
63.99999999999998
 30
0.0
 40
6.5
  0
CIRCLE
  5
AB84
330
AB4D
100
AcDbEntity
  8
0
100
AcDbCircle
 10
-58.00000000000001
 20
164.0
 30
0.0
 40
6.5
  0
CIRCLE
  5
AB85
330
AB4D
100
AcDbEntity
  8
0
100
AcDbCircle
 10
-47.00000000000001
 20
48.99999999999998
 30
0.0
 40
2.5
  0
CIRCLE
  5
AB86
330
AB4D
100
AcDbEntity
  8
0
100
AcDbCircle
 10
-47.00000000000001
 20
68.99999999999998
 30
0.0
 40
2.5
  0
CIRCLE
  5
AB87
330
AB4D
100
AcDbEntity
  8
0
100
AcDbCircle
 10
-47.00000000000001
 20
88.99999999999998
 30
0.0
 40
2.5
  0
CIRCLE
  5
AB88
330
AB4D
100
AcDbEntity
  8
0
100
AcDbCircle
 10
-47.00000000000001
 20
109.0
 30
0.0
 40
2.5
  0
CIRCLE
  5
AB89
330
AB4D
100
AcDbEntity
  8
0
100
AcDbCircle
 10
-47.00000000000001
 20
129.0
 30
0.0
 40
2.5
  0
CIRCLE
  5
AB8A
330
AB4D
100
AcDbEntity
  8
0
100
AcDbCircle
 10
-47.00000000000001
 20
149.0
 30
0.0
 40
2.5
  0
CIRCLE
  5
AB8B
330
AB4D
100
AcDbEntity
  8
0
100
AcDbCircle
 10
47.00000000000001
 20
48.99999999999998
 30
0.0
 40
2.5
  0
CIRCLE
  5
AB8C
330
AB4D
100
AcDbEntity
  8
0
100
AcDbCircle
 10
47.00000000000001
 20
68.99999999999998
 30
0.0
 40
2.5
  0
CIRCLE
  5
AB8D
330
AB4D
100
AcDbEntity
  8
0
100
AcDbCircle
 10
47.00000000000001
 20
88.99999999999998
 30
0.0
 40
2.5
  0
CIRCLE
  5
AB8E
330
AB4D
100
AcDbEntity
  8
0
100
AcDbCircle
 10
47.00000000000001
 20
109.0
 30
0.0
 40
2.5
  0
CIRCLE
  5
AB8F
330
AB4D
100
AcDbEntity
  8
0
100
AcDbCircle
 10
47.00000000000001
 20
129.0
 30
0.0
 40
2.5
  0
CIRCLE
  5
AB90
330
AB4D
100
AcDbEntity
  8
0
100
AcDbCircle
 10
47.00000000000001
 20
149.0
 30
0.0
 40
2.5
  0
CIRCLE
  5
AB91
330
AB4D
100
AcDbEntity
  8
0
100
AcDbCircle
 10
-47.00000000000001
 20
169.0
 30
0.0
 40
2.5
  0
CIRCLE
  5
AB92
330
AB4D
100
AcDbEntity
  8
0
100
AcDbCircle
 10
47.00000000000001
 20
169.0
 30
0.0
 40
2.5
  0
CIRCLE
  5
AB93
330
AB4D
100
AcDbEntity
  8
0
100
AcDbCircle
 10
-69.00000000000003
 20
58.99999999999998
 30
0.0
 40
2.5
  0
CIRCLE
  5
AB94
330
AB4D
100
AcDbEntity
  8
0
100
AcDbCircle
 10
-69.00000000000003
 20
78.99999999999998
 30
0.0
 40
2.5
  0
CIRCLE
  5
AB95
330
AB4D
100
AcDbEntity
  8
0
100
AcDbCircle
 10
-69.00000000000003
 20
98.99999999999998
 30
0.0
 40
2.5
  0
CIRCLE
  5
AB96
330
AB4D
100
AcDbEntity
  8
0
100
AcDbCircle
 10
-69.00000000000003
 20
119.0
 30
0.0
 40
2.5
  0
CIRCLE
  5
AB97
330
AB4D
100
AcDbEntity
  8
0
100
AcDbCircle
 10
-69.00000000000003
 20
139.0
 30
0.0
 40
2.5
  0
CIRCLE
  5
AB98
330
AB4D
100
AcDbEntity
  8
0
100
AcDbCircle
 10
-69.00000000000003
 20
159.0
 30
0.0
 40
2.5
  0
CIRCLE
  5
AB99
330
AB4D
100
AcDbEntity
  8
0
100
AcDbCircle
 10
69.00000000000003
 20
58.99999999999998
 30
0.0
 40
2.5
  0
CIRCLE
  5
AB9A
330
AB4D
100
AcDbEntity
  8
0
100
AcDbCircle
 10
69.00000000000003
 20
78.99999999999998
 30
0.0
 40
2.5
  0
CIRCLE
  5
AB9B
330
AB4D
100
AcDbEntity
  8
0
100
AcDbCircle
 10
69.00000000000003
 20
98.99999999999998
 30
0.0
 40
2.5
  0
CIRCLE
  5
AB9C
330
AB4D
100
AcDbEntity
  8
0
100
AcDbCircle
 10
69.00000000000003
 20
119.0
 30
0.0
 40
2.5
  0
CIRCLE
  5
AB9D
330
AB4D
100
AcDbEntity
  8
0
100
AcDbCircle
 10
69.00000000000003
 20
139.0
 30
0.0
 40
2.5
  0
CIRCLE
  5
AB9E
330
AB4D
100
AcDbEntity
  8
0
100
AcDbCircle
 10
69.00000000000003
 20
159.0
 30
0.0
 40
2.5
  0
CIRCLE
  5
AB9F
330
AB4D
100
AcDbEntity
  8
0
100
AcDbCircle
 10
-69.00000000000003
 20
179.0
 30
0.0
 40
2.5
  0
LINE
  5
ABA0
330
AB4D
100
AcDbEntity
  8
0
100
AcDbLine
 10
-77.50000000000001
 20
184.0
 30
0.0
 11
-40.0
 21
184.0
 31
0.0
  0
LINE
  5
ABA1
330
AB4D
100
AcDbEntity
  8
0
100
AcDbLine
 10
-77.50000000000004
 20
56.99999999999995
 30
0.0
 11
-77.50000000000001
 21
184.0
 31
0.0
  0
LINE
  5
ABA2
330
AB4D
100
AcDbEntity
  8
0
100
AcDbLine
 10
-35.99999999999998
 20
2.0
 30
0.0
 11
-35.99999999999997
 21
23.99999999999999
 31
0.0
  0
LINE
  5
ABA3
330
AB4D
100
AcDbEntity
  8
0
100
AcDbLine
 10
-37.99999999999998
 20
23.99999999999999
 30
0.0
 11
-37.99999999999998
 21
2.000000000000001
 31
0.0
  0
LINE
  5
ABA4
330
AB4D
100
AcDbEntity
  8
0
100
AcDbLine
 10
-40.0
 20
184.0
 30
0.0
 11
-38.0
 21
184.0
 31
0.0
  0
ENDBLK
  5
AB4F
330
AB4D
100
AcDbEntity
  8
0
100
AcDbBlockEnd
  0
BLOCK
  5
ABA6
330
ABA5
100
AcDbEntity
  8
0
100
AcDbBlockBegin
  2
SAE440_72_2-Left
 70
     0
 10
0.0
 20
0.0
 30
0.0
  3
SAE440_72_2-Left
  1

  0
LINE
  5
ABA8
330
ABA5
100
AcDbEntity
  8
0
100
AcDbLine
 10
2.000000000000002
 20
-2.0
 30
0.0
 11
86.00000000000001
 21
-2.000000000000007
 31
0.0
  0
LINE
  5
ABA9
330
ABA5
100
AcDbEntity
  8
0
100
AcDbLine
 10
2.000000000000007
 20
2.000000000000004
 30
0.0
 11
2.000000000000002
 21
-1.999999999999999
 31
0.0
  0
LINE
  5
ABAA
330
ABA5
100
AcDbEntity
  8
0
100
AcDbLine
 10
86.00000000000001
 20
-2.000000000000007
 30
0.0
 11
86.00000000000001
 21
2.0
 31
0.0
  0
SPLINE
  5
ABAB
330
ABA5
100
AcDbEntity
  8
0
100
AcDbSpline
210
0.0
220
0.0
230
1.0
 70
     8
 71
     3
 72
    14
 73
    10
 74
     0
 42
0.000000001
 43
0.0000000001
 40
-0.481302653302233
 40
-0.481302653302233
 40
-0.481302653302233
 40
-0.481302653302233
 40
-0.3760960081024908
 40
-0.3760960081024908
 40
-0.3760960081024908
 40
-0.0765284972679688
 40
-0.0765284972679688
 40
-0.0765284972679688
 40
0.0
 40
0.0
 40
0.0
 40
0.0
 10
0.9454120927589837
 20
25.73176011521972
 30
0.0
 10
0.8408297880096654
 20
25.76867618607816
 30
0.0
 10
0.7371129357664918
 20
25.80054090482855
 30
0.0
 10
0.6388614064479709
 20
25.83423666320854
 30
0.0
 10
0.3590980320170699
 20
25.9301826411875
 30
0.0
 10
0.1217220476584611
 20
26.0400161296743
 30
0.0
 10
0.0342615816146406
 20
26.31443386955778
 30
0.0
 10
0.0119186445650116
 20
26.38453752398429
 30
0.0
 10
0.0000045452574099
 20
26.46769665104359
 30
0.0
 10
0.000000000115211
 20
26.56250000004011
 30
0.0
  0
SPLINE
  5
ABAC
330
ABA5
100
AcDbEntity
  8
0
100
AcDbSpline
210
0.0
220
0.0
230
1.0
 70
     8
 71
     3
 72
    14
 73
    10
 74
     0
 42
0.000000001
 43
0.0000000001
 40
0.0
 40
0.0
 40
0.0
 40
0.0
 40
0.3435149368861596
 40
0.3435149368861596
 40
0.3435149368861596
 40
0.7569946176809849
 40
0.7569946176809849
 40
0.7569946176809849
 40
1.0
 40
1.0
 40
1.0
 40
1.0
 10
2.000000000000013
 20
26.5625
 30
0.0
 10
2.000036879631409
 20
26.30249636931075
 30
0.0
 10
1.996834167074776
 20
26.0752940212596
 30
0.0
 10
1.998676128321891
 20
25.8440817946191
 30
0.0
 10
2.000893247482407
 20
25.56577786252879
 30
0.0
 10
2.001072402908576
 20
25.27139780311995
 30
0.0
 10
2.001124325805049
 20
24.857927040091
 30
0.0
 10
2.001154841314987
 20
24.61492689881576
 30
0.0
 10
2.00025054766809
 20
24.35822722199408
 30
0.0
 10
1.999999999992513
 20
24.00000000165235
 30
0.0
  0
LINE
  5
ABAD
330
ABA5
100
AcDbEntity
  8
0
100
AcDbLine
 10
0.0
 20
26.56250000000001
 30
0.0
 11
2.000000000000007
 21
26.56250000000001
 31
0.0
  0
SPLINE
  5
ABAE
330
ABA5
100
AcDbEntity
  8
0
100
AcDbSpline
210
0.0
220
0.0
230
1.0
 70
     8
 71
     3
 72
    18
 73
    14
 74
     0
 42
0.000000001
 43
0.0000000001
 40
0.0
 40
0.0
 40
0.0
 40
0.0
 40
0.0045852970585017
 40
0.0045852970585017
 40
0.0065400842518977
 40
0.0065400842518977
 40
0.0081563837470105
 40
0.0081563837470105
 40
0.0096016091887148
 40
0.0096016091887148
 40
0.0108226894117174
 40
0.0108226894117174
 40
0.0118646463037082
 40
0.0118646463037082
 40
0.0118646463037082
 40
0.0118646463037082
 10
1.999557272916846
 20
23.99999849441623
 30
0.0
 10
1.999513512481304
 20
24.01475837640252
 30
0.0
 10
1.999424163707874
 20
24.02919075200231
 30
0.0
 10
1.999253402761369
 20
24.04675570001292
 30
0.0
 10
1.999196850516285
 20
24.05166987406381
 30
0.0
 10
1.999091149929564
 20
24.05972733082983
 30
0.0
 10
1.999042050576846
 20
24.0630592474651
 30
0.0
 10
1.998954621983173
 20
24.06851913181204
 30
0.0
 10
1.998915397065272
 20
24.07075700162604
 30
0.0
 10
1.998855183922941
 20
24.07401363506288
 30
0.0
 10
1.998832157108719
 20
24.07517781410112
 30
0.0
 10
1.998803973822239
 20
24.07656460255184
 30
0.0
 10
1.998796572755328
 20
24.07690723965427
 30
0.0
 10
1.998796572807117
 20
24.07690723725174
 30
0.0
  0
SPLINE
  5
ABAF
330
ABA5
100
AcDbEntity
  8
0
100
AcDbSpline
210
0.0
220
0.0
230
1.0
 70
     8
 71
     3
 72
    10
 73
     6
 74
     0
 42
0.000000001
 43
0.0000000001
 40
0.005267661846619
 40
0.005267661846619
 40
0.005267661846619
 40
0.005267661846619
 40
0.005886897801183
 40
0.005886897801183
 40
0.008185552720673
 40
0.008185552720673
 40
0.008185552720673
 40
0.008185552720673
 10
1.999414228066265
 20
24.02852502901609
 30
0.0
 10
1.999398483572475
 20
24.02921804076437
 30
0.0
 10
1.999384018194646
 20
24.02984412926792
 30
0.0
 10
1.999322897808089
 20
24.03245947193616
 30
0.0
 10
1.999295499695631
 20
24.03354692650758
 30
0.0
 10
1.999295499749913
 20
24.03354692432486
 30
0.0
  0
SPLINE
  5
ABB0
330
ABA5
100
AcDbEntity
  8
0
100
AcDbSpline
210
0.0
220
0.0
230
1.0
 70
     8
 71
     3
 72
    32
 73
    28
 74
     0
 42
0.000000001
 43
0.0000000001
 40
0.0045473817588397
 40
0.0045473817588397
 40
0.0045473817588397
 40
0.0045473817588397
 40
0.0052697394776183
 40
0.0052697394776183
 40
0.0092354522051257
 40
0.0092354522051257
 40
0.0117315606132103
 40
0.0117315606132103
 40
0.0138523606838458
 40
0.0138523606838458
 40
0.0172611518614288
 40
0.0172611518614288
 40
0.0261321722858367
 40
0.0261321722858367
 40
0.0527623636548514
 40
0.0527623636548514
 40
0.0889482844753954
 40
0.0889482844753954
 40
0.1145384727045946
 40
0.1145384727045946
 40
0.1518181078023754
 40
0.1518181078023754
 40
0.1853167196154113
 40
0.1853167196154113
 40
0.226937064888066
 40
0.226937064888066
 40
0.2446335212463778
 40
0.2446335212463778
 40
0.2446335212463778
 40
0.2446335212463778
 10
1.999453047720074
 20
24.02279542166301
 30
0.0
 10
1.999422986251672
 20
24.02392487582027
 30
0.0
 10
1.999392437855907
 20
24.02505295141573
 30
0.0
 10
1.999189551833828
 20
24.03241745849149
 30
0.0
 10
1.999004120052545
 20
24.03875904561137
 30
0.0
 10
1.998515703038389
 20
24.0533512885019
 30
0.0
 10
1.998269373624067
 20
24.06029190105897
 30
0.0
 10
1.99772963021772
 20
24.0741265803541
 30
0.0
 10
1.997447670576504
 20
24.08090569244424
 30
0.0
 10
1.996652403134706
 20
24.09873068254925
 30
0.0
 10
1.996098018331855
 20
24.10998894858983
 30
0.0
 10
1.993900550857763
 20
24.15050913468977
 30
0.0
 10
1.991925809117754
 20
24.17997136582622
 30
0.0
 10
1.982426632119495
 20
24.2974287691134
 30
0.0
 10
1.971735199462738
 20
24.38490573614543
 30
0.0
 10
1.936108381385226
 20
24.58974235496122
 30
0.0
 10
1.90705121949508
 20
24.70804920484782
 30
0.0
 10
1.838871183565108
 20
24.90223815651593
 30
0.0
 10
1.804834188537116
 20
24.9810908609016
 30
0.0
 10
1.708090538548391
 20
25.16249453374455
 30
0.0
 10
1.637669279078955
 20
25.2612668767707
 30
0.0
 10
1.493722582902434
 20
25.41704852779858
 30
0.0
 10
1.420228719026546
 20
25.47927423002658
 30
0.0
 10
1.254517311036104
 20
25.59488639172643
 30
0.0
 10
1.160200334186275
 20
25.64438618780226
 30
0.0
 10
1.024260897581828
 20
25.70235777424957
 30
0.0
 10
0.9834047209078883
 20
25.71807338394954
 30
0.0
 10
0.9420912521308949
 20
25.73259712963741
 30
0.0
  0
LINE
  5
ABB1
330
ABA5
100
AcDbEntity
  8
0
100
AcDbLine
 10
2.000000000000007
 20
2.000000000000003
 30
0.0
 11
2.000000000000007
 21
23.99999999999999
 31
0.0
  0
LINE
  5
ABB2
330
ABA5
100
AcDbEntity
  8
0
100
AcDbLine
 10
2.000000000000001
 20
56.99999999999995
 30
0.0
 11
2.000000000000007
 21
26.56250000000001
 31
0.0
  0
LINE
  5
ABB3
330
ABA5
100
AcDbEntity
  8
0
100
AcDbLine
 10
0.0
 20
56.99999999999995
 30
0.0
 11
2.000000000000001
 21
56.99999999999995
 31
0.0
  0
LINE
  5
ABB4
330
ABA5
100
AcDbEntity
  8
0
100
AcDbLine
 10
0.0
 20
26.56250000000001
 30
0.0
 11
0.0
 21
56.99999999999995
 31
0.0
  0
LINE
  5
ABB5
330
ABA5
100
AcDbEntity
  8
0
100
AcDbLine
 10
86.00000000000006
 20
23.99999999999999
 30
0.0
 11
46.00000000000004
 21
56.99999999999995
 31
0.0
  0
LINE
  5
ABB6
330
ABA5
100
AcDbEntity
  8
0
100
AcDbLine
 10
46.00000000000004
 20
56.99999999999995
 30
0.0
 11
46.00000000000001
 21
184.0
 31
0.0
  0
LINE
  5
ABB7
330
ABA5
100
AcDbEntity
  8
0
100
AcDbLine
 10
2.000000000000001
 20
56.99999999999995
 30
0.0
 11
2.000000000000015
 21
184.0
 31
0.0
  0
LINE
  5
ABB8
330
ABA5
100
AcDbEntity
  8
0
100
AcDbLine
 10
86.00000000000006
 20
23.99999999999999
 30
0.0
 11
86.00000000000001
 21
2.000000000000001
 31
0.0
  0
LINE
  5
ABB9
330
ABA5
100
AcDbEntity
  8
0
100
AcDbLine
 10
4.000000000000003
 20
184.0
 30
0.0
 11
46.00000000000001
 21
184.0
 31
0.0
  0
LINE
  5
ABBA
330
ABA5
100
AcDbEntity
  8
0
100
AcDbLine
 10
0.0
 20
184.0
 30
0.0
 11
2.000000000000015
 21
184.0
 31
0.0
  0
LINE
  5
ABBB
330
ABA5
100
AcDbEntity
  8
0
100
AcDbLine
 10
0.0
 20
56.99999999999995
 30
0.0
 11
0.0
 21
184.0
 31
0.0
  0
LINE
  5
ABBC
330
ABA5
100
AcDbEntity
  8
0
100
AcDbLine
 10
2.000000000000006
 20
184.0
 30
0.0
 11
4.000000000000003
 21
184.0
 31
0.0
  0
CIRCLE
  5
ABBD
330
ABA5
100
AcDbEntity
  8
0
100
AcDbCircle
 10
38.50000000000001
 20
38.99999999999998
 30
0.0
 40
2.5
  0
CIRCLE
  5
ABBE
330
ABA5
100
AcDbEntity
  8
0
100
AcDbCircle
 10
38.50000000000001
 20
58.99999999999998
 30
0.0
 40
2.5
  0
CIRCLE
  5
ABBF
330
ABA5
100
AcDbEntity
  8
0
100
AcDbCircle
 10
38.50000000000001
 20
78.99999999999998
 30
0.0
 40
2.5
  0
CIRCLE
  5
ABC0
330
ABA5
100
AcDbEntity
  8
0
100
AcDbCircle
 10
38.50000000000001
 20
98.99999999999998
 30
0.0
 40
2.5
  0
CIRCLE
  5
ABC1
330
ABA5
100
AcDbEntity
  8
0
100
AcDbCircle
 10
38.50000000000001
 20
119.0
 30
0.0
 40
2.5
  0
CIRCLE
  5
ABC2
330
ABA5
100
AcDbEntity
  8
0
100
AcDbCircle
 10
38.50000000000001
 20
139.0
 30
0.0
 40
2.5
  0
CIRCLE
  5
ABC3
330
ABA5
100
AcDbEntity
  8
0
100
AcDbCircle
 10
38.50000000000001
 20
159.0
 30
0.0
 40
2.5
  0
CIRCLE
  5
ABC4
330
ABA5
100
AcDbEntity
  8
0
100
AcDbCircle
 10
38.50000000000001
 20
179.0
 30
0.0
 40
2.5
  0
SPLINE
  5
ABC5
330
ABA5
100
AcDbEntity
  8
0
100
AcDbSpline
210
0.0
220
0.0
230
1.0
 70
     8
 71
     3
 72
     8
 73
     4
 74
     0
 42
0.000000001
 43
0.0000000001
 40
0.0
 40
0.0
 40
0.0
 40
0.0
 40
0.0024158828174856
 40
0.0024158828174856
 40
0.0024158828174856
 40
0.0024158828174856
 10
1.999557272916846
 20
23.99999849441623
 30
0.0
 10
1.999534216595094
 20
24.00777512149706
 30
0.0
 10
1.999499214241329
 20
24.01546438923452
 30
0.0
 10
1.999453047720084
 20
24.02279542166257
 30
0.0
  0
ENDBLK
  5
ABA7
330
ABA5
100
AcDbEntity
  8
0
100
AcDbBlockEnd
  0
BLOCK
  5
ABC7
330
ABC6
100
AcDbEntity
  8
0
100
AcDbBlockBegin
  2
SAE440_72_2-Right
 70
     0
 10
0.0
 20
0.0
 30
0.0
  3
SAE440_72_2-Right
  1

  0
SPLINE
  5
ABC9
330
ABC6
100
AcDbEntity
  8
0
100
AcDbSpline
210
0.0
220
0.0
230
1.0
 70
     8
 71
     3
 72
    14
 73
    10
 74
     0
 42
0.000000001
 43
0.0000000001
 40
0.0
 40
0.0
 40
0.0
 40
0.0
 40
0.3435149368861596
 40
0.3435149368861596
 40
0.3435149368861596
 40
0.7569946176809849
 40
0.7569946176809849
 40
0.7569946176809849
 40
1.0
 40
1.0
 40
1.0
 40
1.0
 10
-2.000000000000013
 20
26.5625
 30
0.0
 10
-2.000036879631409
 20
26.30249636931075
 30
0.0
 10
-1.996834167074776
 20
26.0752940212596
 30
0.0
 10
-1.998676128321891
 20
25.8440817946191
 30
0.0
 10
-2.000893247482407
 20
25.56577786252879
 30
0.0
 10
-2.001072402908576
 20
25.27139780311995
 30
0.0
 10
-2.001124325805049
 20
24.857927040091
 30
0.0
 10
-2.001154841314987
 20
24.61492689881576
 30
0.0
 10
-2.00025054766809
 20
24.35822722199408
 30
0.0
 10
-1.999999999992513
 20
24.00000000165235
 30
0.0
  0
SPLINE
  5
ABCA
330
ABC6
100
AcDbEntity
  8
0
100
AcDbSpline
210
0.0
220
0.0
230
1.0
 70
     8
 71
     3
 72
    14
 73
    10
 74
     0
 42
0.000000001
 43
0.0000000001
 40
-0.4813026533021931
 40
-0.4813026533021931
 40
-0.4813026533021931
 40
-0.4813026533021931
 40
-0.3760960081024908
 40
-0.3760960081024908
 40
-0.3760960081024908
 40
-0.0765284972679688
 40
-0.0765284972679688
 40
-0.0765284972679688
 40
0.0
 40
0.0
 40
0.0
 40
0.0
 10
-0.9454120927588649
 20
25.73176011521976
 30
0.0
 10
-0.8408297880095869
 20
25.76867618607817
 30
0.0
 10
-0.7371129357664547
 20
25.80054090482857
 30
0.0
 10
-0.6388614064479709
 20
25.83423666320854
 30
0.0
 10
-0.3590980320170699
 20
25.9301826411875
 30
0.0
 10
-0.1217220476584611
 20
26.0400161296743
 30
0.0
 10
-0.0342615816146406
 20
26.31443386955778
 30
0.0
 10
-0.0119186445650116
 20
26.38453752398429
 30
0.0
 10
-0.0000045452574099
 20
26.46769665104359
 30
0.0
 10
-0.000000000115211
 20
26.56250000004011
 30
0.0
  0
LINE
  5
ABCB
330
ABC6
100
AcDbEntity
  8
0
100
AcDbLine
 10
-2.000000000000007
 20
26.56250000000001
 30
0.0
 11
0.0
 21
26.56250000000001
 31
0.0
  0
SPLINE
  5
ABCC
330
ABC6
100
AcDbEntity
  8
0
100
AcDbSpline
210
0.0
220
0.0
230
1.0
 70
     8
 71
     3
 72
    16
 73
    12
 74
     0
 42
0.000000001
 43
0.0000000001
 40
0.0119734590529964
 40
0.0119734590529964
 40
0.0119734590529964
 40
0.0119734590529964
 40
0.0132060105678902
 40
0.0132060105678902
 40
0.0147875485936717
 40
0.0147875485936717
 40
0.0179851231651307
 40
0.0179851231651307
 40
0.0208164923304187
 40
0.0208164923304187
 40
0.023839290331421
 40
0.023839290331421
 40
0.023839290331421
 40
0.023839290331421
 10
-1.99879657280706
 20
24.07690723725436
 30
0.0
 10
-1.998796572804466
 20
24.07690723737473
 30
0.0
 10
-1.998806859808856
 20
24.07643140310477
 30
0.0
 10
-1.99884722875158
 20
24.07441930802356
 30
0.0
 10
-1.998882256899028
 20
24.0726073253458
 30
0.0
 10
-1.999004373873105
 20
24.06565815130147
 30
0.0
 10
-1.99910833784661
 20
24.0589140248645
 30
0.0
 10
-1.999281967769323
 20
24.04429668591941
 30
0.0
 10
-1.999357294645476
 20
24.03644011291755
 30
0.0
 10
-1.999480931971489
 20
24.01925573225654
 30
0.0
 10
-1.9995284244136
 20
24.00972875642413
 30
0.0
 10
-1.999557272916847
 20
23.99999849441623
 30
0.0
  0
SPLINE
  5
ABCD
330
ABC6
100
AcDbEntity
  8
0
100
AcDbSpline
210
0.0
220
0.0
230
1.0
 70
     8
 71
     3
 72
    10
 73
     6
 74
     0
 42
0.000000001
 43
0.0000000001
 40
0.0087021369188814
 40
0.0087021369188814
 40
0.0087021369188814
 40
0.0087021369188814
 40
0.0090037601808586
 40
0.0090037601808586
 40
0.0116230169546419
 40
0.0116230169546419
 40
0.0116230169546419
 40
0.0116230169546419
 10
-1.999295499749894
 20
24.0335469243256
 30
0.0
 10
-1.999295499750077
 20
24.03354692431823
 30
0.0
 10
-1.999295947093566
 20
24.03352894117891
 30
0.0
 10
-1.999304557967499
 20
24.03318120920739
 30
0.0
 10
-1.999347677321977
 20
24.03145433549394
 30
0.0
 10
-1.999414228066227
 20
24.02852502901772
 30
0.0
  0
SPLINE
  5
ABCE
330
ABC6
100
AcDbEntity
  8
0
100
AcDbSpline
210
0.0
220
0.0
230
1.0
 70
     8
 71
     3
 72
    28
 73
    24
 74
     0
 42
0.000000001
 43
0.0000000001
 40
0.0
 40
0.0
 40
0.0
 40
0.0
 40
0.0650016965074482
 40
0.0650016965074482
 40
0.1023228294590934
 40
0.1023228294590934
 40
0.1414747326693572
 40
0.1414747326693572
 40
0.17489873854304
 40
0.17489873854304
 40
0.2169239990930718
 40
0.2169239990930718
 40
0.2285779847210613
 40
0.2285779847210613
 40
0.2316609564747281
 40
0.2316609564747281
 40
0.233282440535155
 40
0.233282440535155
 40
0.2349101251788062
 40
0.2349101251788062
 40
0.238187833564987
 40
0.238187833564987
 40
0.2398272656827185
 40
0.2398272656827185
 40
0.2398272656827185
 40
0.2398272656827185
 10
-0.9420912521307856
 20
25.73259712963747
 30
0.0
 10
-1.09384172153204
 20
25.67924926776961
 30
0.0
 10
-1.242353898740888
 20
25.60988799342067
 30
0.0
 10
-1.466451771018399
 20
25.44171617370786
 30
0.0
 10
-1.547407943209929
 20
25.36594146109842
 30
0.0
 10
-1.695446554665136
 20
25.18241413824862
 30
0.0
 10
-1.763061289552416
 20
25.07040741116012
 30
0.0
 10
-1.860492149633955
 20
24.85077461309659
 30
0.0
 10
-1.89580963277617
 20
24.74321521029215
 30
0.0
 10
-1.955911122105533
 20
24.49956902553848
 30
0.0
 10
-1.976606287620703
 20
24.36174326037956
 30
0.0
 10
-1.991714435016832
 20
24.18425647527266
 30
0.0
 10
-1.994304853257133
 20
24.14540325143141
 30
0.0
 10
-1.996731630421468
 20
24.09701129922559
 30
0.0
 10
-1.99719438596864
 20
24.08687585468778
 30
0.0
 10
-1.997809801448518
 20
24.07209790473741
 30
0.0
 10
-1.998006434209415
 20
24.0671067010204
 30
0.0
 10
-1.99835588982672
 20
24.05779769262445
 30
0.0
 10
-1.998509836621792
 20
24.05345153495812
 30
0.0
 10
-1.99890208646841
 20
24.0419134296228
 30
0.0
 10
-1.999078183316755
 20
24.03610937897345
 30
0.0
 10
-1.999308026766517
 20
24.02813339137328
 30
0.0
 10
-1.999381849970884
 20
24.02547250048792
 30
0.0
 10
-1.99945295857521
 20
24.02280293713765
 30
0.0
  0
LINE
  5
ABCF
330
ABC6
100
AcDbEntity
  8
0
100
AcDbLine
 10
-2.000000000000002
 20
-2.0
 30
0.0
 11
-86.00000000000001
 21
-2.0
 31
0.0
  0
LINE
  5
ABD0
330
ABC6
100
AcDbEntity
  8
0
100
AcDbLine
 10
-2.000000000000007
 20
2.000000000000003
 30
0.0
 11
-2.000000000000007
 21
23.99999999999999
 31
0.0
  0
LINE
  5
ABD1
330
ABC6
100
AcDbEntity
  8
0
100
AcDbLine
 10
-2.000000000000007
 20
2.000000000000004
 30
0.0
 11
-2.000000000000002
 21
-1.999999999999999
 31
0.0
  0
LINE
  5
ABD2
330
ABC6
100
AcDbEntity
  8
0
100
AcDbLine
 10
-86.00000000000001
 20
-2.000000000000007
 30
0.0
 11
-86.00000000000001
 21
2.0
 31
0.0
  0
LINE
  5
ABD3
330
ABC6
100
AcDbEntity
  8
0
100
AcDbLine
 10
0.0
 20
56.99999999999995
 30
0.0
 11
0.0
 21
26.56250000000001
 31
0.0
  0
LINE
  5
ABD4
330
ABC6
100
AcDbEntity
  8
0
100
AcDbLine
 10
-2.000000000000001
 20
56.99999999999995
 30
0.0
 11
0.0
 21
56.99999999999995
 31
0.0
  0
LINE
  5
ABD5
330
ABC6
100
AcDbEntity
  8
0
100
AcDbLine
 10
-2.000000000000007
 20
26.56250000000001
 30
0.0
 11
-2.000000000000001
 21
56.99999999999995
 31
0.0
  0
LINE
  5
ABD6
330
ABC6
100
AcDbEntity
  8
0
100
AcDbLine
 10
0.0
 20
56.99999999999995
 30
0.0
 11
0.0
 21
184.0
 31
0.0
  0
CIRCLE
  5
ABD7
330
ABC6
100
AcDbEntity
  8
0
100
AcDbCircle
 10
-38.50000000000002
 20
169.0
 30
0.0
 40
2.5
  0
LINE
  5
ABD8
330
ABC6
100
AcDbEntity
  8
0
100
AcDbLine
 10
-46.00000000000004
 20
56.99999999999995
 30
0.0
 11
-86.00000000000006
 21
23.99999999999999
 31
0.0
  0
LINE
  5
ABD9
330
ABC6
100
AcDbEntity
  8
0
100
AcDbLine
 10
-46.00000000000001
 20
184.0
 30
0.0
 11
-46.00000000000004
 21
56.99999999999995
 31
0.0
  0
LINE
  5
ABDA
330
ABC6
100
AcDbEntity
  8
0
100
AcDbLine
 10
-86.00000000000006
 20
23.99999999999999
 30
0.0
 11
-86.00000000000001
 21
2.000000000000001
 31
0.0
  0
LINE
  5
ABDB
330
ABC6
100
AcDbEntity
  8
0
100
AcDbLine
 10
-4.000000000000003
 20
184.0
 30
0.0
 11
-46.00000000000001
 21
184.0
 31
0.0
  0
LINE
  5
ABDC
330
ABC6
100
AcDbEntity
  8
0
100
AcDbLine
 10
-2.000000000000006
 20
184.0
 30
0.0
 11
-4.000000000000003
 21
184.0
 31
0.0
  0
LINE
  5
ABDD
330
ABC6
100
AcDbEntity
  8
0
100
AcDbLine
 10
0.0
 20
184.0
 30
0.0
 11
-2.000000000000015
 21
184.0
 31
0.0
  0
LINE
  5
ABDE
330
ABC6
100
AcDbEntity
  8
0
100
AcDbLine
 10
-2.000000000000001
 20
56.99999999999995
 30
0.0
 11
-2.000000000000015
 21
184.0
 31
0.0
  0
CIRCLE
  5
ABDF
330
ABC6
100
AcDbEntity
  8
0
100
AcDbCircle
 10
-38.50000000000002
 20
48.99999999999998
 30
0.0
 40
2.5
  0
CIRCLE
  5
ABE0
330
ABC6
100
AcDbEntity
  8
0
100
AcDbCircle
 10
-38.50000000000002
 20
68.99999999999998
 30
0.0
 40
2.5
  0
CIRCLE
  5
ABE1
330
ABC6
100
AcDbEntity
  8
0
100
AcDbCircle
 10
-38.50000000000002
 20
88.99999999999998
 30
0.0
 40
2.5
  0
CIRCLE
  5
ABE2
330
ABC6
100
AcDbEntity
  8
0
100
AcDbCircle
 10
-38.50000000000002
 20
109.0
 30
0.0
 40
2.5
  0
CIRCLE
  5
ABE3
330
ABC6
100
AcDbEntity
  8
0
100
AcDbCircle
 10
-38.50000000000002
 20
129.0
 30
0.0
 40
2.5
  0
CIRCLE
  5
ABE4
330
ABC6
100
AcDbEntity
  8
0
100
AcDbCircle
 10
-38.50000000000002
 20
149.0
 30
0.0
 40
2.5
  0
ENDBLK
  5
ABC8
330
ABC6
100
AcDbEntity
  8
0
100
AcDbBlockEnd
  0
BLOCK
  5
ABE6
330
ABE5
100
AcDbEntity
  8
0
100
AcDbBlockBegin
  2
SAE440_72_2-Top
 70
     0
 10
0.0
 20
0.0
 30
0.0
  3
SAE440_72_2-Top
  1

  0
LINE
  5
ABE8
330
ABE5
100
AcDbEntity
  8
0
100
AcDbLine
 10
36.00000000000001
 20
-2.000000000000005
 30
0.0
 11
36.00000000000001
 21
-2.070206720558604
 31
0.0
  0
SPLINE
  5
ABE9
330
ABE5
100
AcDbEntity
  8
0
100
AcDbSpline
210
0.0
220
0.0
230
1.0
 70
     8
 71
     3
 72
    11
 73
     7
 74
     0
 42
0.000000001
 43
0.0000000001
 40
-1.0
 40
-1.0
 40
-1.0
 40
-1.0
 40
-0.7994286890823445
 40
-0.7994286890823445
 40
-0.7994286890823445
 40
-0.6533573777220604
 40
-0.6533573777220604
 40
-0.6533573777220604
 40
-0.6533573777220604
 10
35.99999999999999
 20
-2.000000000000002
 30
0.0
 10
35.99999961270318
 20
-1.999093543230994
 30
0.0
 10
36.12633150599484
 20
-1.919863896641857
 30
0.0
 10
36.336076945607
 20
-1.790687786220653
 30
0.0
 10
36.48882955651538
 20
-1.696611899897145
 30
0.0
 10
36.68837056419075
 20
-1.577391377859532
 30
0.0
 10
36.91982716790673
 20
-1.445337717162616
 30
0.0
  0
SPLINE
  5
ABEA
330
ABE5
100
AcDbEntity
  8
0
100
AcDbSpline
210
0.0
220
0.0
230
1.0
 70
     8
 71
     3
 72
    24
 73
    20
 74
     0
 42
0.000000001
 43
0.0000000001
 40
0.0
 40
0.0
 40
0.0
 40
0.0
 40
0.0070452398487593
 40
0.0070452398487593
 40
0.0166405949071534
 40
0.0166405949071534
 40
0.0367140942140421
 40
0.0367140942140421
 40
0.048828489920529
 40
0.048828489920529
 40
0.0619943402186045
 40
0.0619943402186045
 40
0.0706188779706221
 40
0.0706188779706221
 40
0.0776906910928876
 40
0.0776906910928876
 40
0.0832065316603907
 40
0.0832065316603907
 40
0.0851314111840147
 40
0.0851314111840147
 40
0.0851314111840147
 40
0.0851314111840147
 10
40.56202985673539
 20
-2.000020061973674
 30
0.0
 10
40.5451057227522
 20
-2.000020928437336
 30
0.0
 10
40.52555210343374
 20
-2.000028134291572
 30
0.0
 10
40.47775545405326
 20
-2.000061132070757
 30
0.0
 10
40.44841962912992
 20
-2.000093689687933
 30
0.0
 10
40.3565722408129
 20
-2.000268440249417
 30
0.0
 10
40.29198494509923
 20
-2.000513808506327
 30
0.0
 10
40.1963342285464
 20
-2.000879055385911
 30
0.0
 10
40.16273081719003
 20
-2.000996414972449
 30
0.0
 10
40.09182112307807
 20
-2.001409895072475
 30
0.0
 10
40.05225815317769
 20
-2.001735751880745
 30
0.0
 10
39.98348581633607
 20
-2.002882807510685
 30
0.0
 10
39.95529088106128
 20
-2.003502366169134
 30
0.0
 10
39.90345404900708
 20
-2.005128901298205
 30
0.0
 10
39.87967447342317
 20
-2.006056558897147
 30
0.0
 10
39.83787606741164
 20
-2.008135314678645
 30
0.0
 10
39.81951337884694
 20
-2.00920687310501
 30
0.0
 10
39.79591310624774
 20
-2.010819410470548
 30
0.0
 10
39.78986947327549
 20
-2.011255025617895
 30
0.0
 10
39.78400446672968
 20
-2.011698438790058
 30
0.0
  0
SPLINE
  5
ABEB
330
ABE5
100
AcDbEntity
  8
0
100
AcDbSpline
210
0.0
220
0.0
230
1.0
 70
     8
 71
     3
 72
     8
 73
     4
 74
     0
 42
0.000000001
 43
0.0000000001
 40
0.02255321804437
 40
0.02255321804437
 40
0.02255321804437
 40
0.02255321804437
 40
0.0230051577494557
 40
0.0230051577494557
 40
0.0230051577494557
 40
0.0230051577494557
 10
38.00005918732205
 20
-3.997669946822912
 30
0.0
 10
38.00006217923023
 20
-3.998455687105698
 30
0.0
 10
38.00006517818454
 20
-3.999233130129231
 30
0.0
 10
38.00006818291072
 20
-3.999999759443455
 30
0.0
  0
SPLINE
  5
ABEC
330
ABE5
100
AcDbEntity
  8
0
100
AcDbSpline
210
0.0
220
0.0
230
1.0
 70
     8
 71
     3
 72
    12
 73
     8
 74
     0
 42
0.000000001
 43
0.0000000001
 40
0.010122530114993
 40
0.010122530114993
 40
0.010122530114993
 40
0.010122530114993
 40
0.0121410342654646
 40
0.0121410342654646
 40
0.0133830849096996
 40
0.0133830849096996
 40
0.0141064639972245
 40
0.0141064639972245
 40
0.0141064639972245
 40
0.0141064639972245
 10
37.99998998734436
 20
-3.998412118462097
 30
0.0
 10
37.99998998734288
 20
-3.998412118230532
 30
0.0
 10
37.99999068851099
 20
-3.99852276784724
 30
0.0
 10
37.9999949497111
 20
-3.999182160779092
 30
0.0
 10
37.99999820801741
 20
-3.999683996921029
 30
0.0
 10
38.00000191629179
 20
-4.000251939298734
 30
0.0
 10
38.00000285308993
 20
-4.000394833014724
 30
0.0
 10
38.00000285306632
 20
-4.000394829410937
 30
0.0
  0
SPLINE
  5
ABED
330
ABE5
100
AcDbEntity
  8
0
100
AcDbSpline
210
0.0
220
0.0
230
1.0
 70
     8
 71
     3
 72
     8
 73
     4
 74
     0
 42
0.000000001
 43
0.0000000001
 40
0.0074009778207569
 40
0.0074009778207569
 40
0.0074009778207569
 40
0.0074009778207569
 40
0.012633864583795
 40
0.012633864583795
 40
0.012633864583795
 40
0.012633864583795
 10
38.00006332208756
 20
-3.994805279656787
 30
0.0
 10
38.00006332193201
 20
-3.994805292074041
 30
0.0
 10
38.00004002206525
 20
-3.996603461811582
 30
0.0
 10
38.00000374734098
 20
-3.999999991075217
 30
0.0
  0
SPLINE
  5
ABEE
330
ABE5
100
AcDbEntity
  8
0
100
AcDbSpline
210
0.0
220
0.0
230
1.0
 70
     8
 71
     3
 72
    12
 73
     8
 74
     0
 42
0.000000001
 43
0.0000000001
 40
0.0089798261807416
 40
0.0089798261807416
 40
0.0089798261807416
 40
0.0089798261807416
 40
0.0113546723353532
 40
0.0113546723353532
 40
0.012907987415778
 40
0.012907987415778
 40
0.0147902108763063
 40
0.0147902108763063
 40
0.0147902108763063
 40
0.0147902108763063
 10
38.00020088397218
 20
-3.981813493186154
 30
0.0
 10
38.00020088397276
 20
-3.981813493135706
 30
0.0
 10
38.00019109060246
 20
-3.982640323268915
 30
0.0
 10
38.00015844553806
 20
-3.985828371554123
 30
0.0
 10
38.00014128466717
 20
-3.987570787470597
 30
0.0
 10
38.00009779394489
 20
-3.992494486704943
 30
0.0
 10
38.00007004613846
 20
-3.995945492054771
 30
0.0
 10
38.00004324849043
 20
-4.00000028468878
 30
0.0
  0
SPLINE
  5
ABEF
330
ABE5
100
AcDbEntity
  8
0
100
AcDbSpline
210
0.0
220
0.0
230
1.0
 70
     8
 71
     3
 72
    12
 73
     8
 74
     0
 42
0.000000001
 43
0.0000000001
 40
0.0633902335841731
 40
0.0633902335841731
 40
0.0633902335841731
 40
0.0633902335841731
 40
0.0668508646089127
 40
0.0668508646089127
 40
0.0731934958678927
 40
0.0731934958678927
 40
0.0741567062218227
 40
0.0741567062218227
 40
0.0741567062218227
 40
0.0741567062218227
 10
38.00192089813633
 20
-3.912418193719457
 30
0.0
 10
38.00167553335746
 20
-3.920252353676506
 30
0.0
 10
38.00143975973495
 20
-3.928419491542922
 30
0.0
 10
38.00082484920121
 20
-3.952312333082743
 30
0.0
 10
38.00047951454765
 20
-3.96884604664565
 30
0.0
 10
38.00016592007941
 20
-3.98848305683368
 30
0.0
 10
38.00012542747333
 20
-3.991142089870826
 30
0.0
 10
38.00008986413127
 20
-3.993579139072933
 30
0.0
  0
SPLINE
  5
ABF0
330
ABE5
100
AcDbEntity
  8
0
100
AcDbSpline
210
0.0
220
0.0
230
1.0
 70
     8
 71
     3
 72
    16
 73
    12
 74
     0
 42
0.000000001
 43
0.0000000001
 40
0.0743248497258005
 40
0.0743248497258005
 40
0.0743248497258005
 40
0.0743248497258005
 40
0.0744551820794528
 40
0.0744551820794528
 40
0.0745928320701543
 40
0.0745928320701543
 40
0.0748710341671977
 40
0.0748710341671977
 40
0.0754202650630546
 40
0.0754202650630546
 40
0.0754613323603371
 40
0.0754613323603371
 40
0.0754613323603371
 40
0.0754613323603371
 10
38.0000720954935
 20
-3.994805555097379
 30
0.0
 10
38.0000677259088
 20
-3.995109523545634
 30
0.0
 10
38.0000636079857
 20
-3.995397700405875
 30
0.0
 10
38.00005608275456
 20
-3.995926686948291
 30
0.0
 10
38.00005273455754
 20
-3.996163428864818
 30
0.0
 10
38.00004478603253
 20
-3.996727000646456
 30
0.0
 10
38.00004229189659
 20
-3.996905689465623
 30
0.0
 10
38.0000378392204
 20
-3.997224022345786
 30
0.0
 10
38.00003789664157
 20
-3.997220192659566
 30
0.0
 10
38.00003783815729
 20
-3.997224385605123
 30
0.0
 10
38.00003783627891
 20
-3.997224520274648
 30
0.0
 10
38.00003783627888
 20
-3.99722452027617
 30
0.0
  0
SPLINE
  5
ABF1
330
ABE5
100
AcDbEntity
  8
0
100
AcDbSpline
210
0.0
220
0.0
230
1.0
 70
     8
 71
     3
 72
    32
 73
    28
 74
     0
 42
0.000000001
 43
0.0000000001
 40
0.0039758321998568
 40
0.0039758321998568
 40
0.0039758321998568
 40
0.0039758321998568
 40
0.0043284359929028
 40
0.0043284359929028
 40
0.0052172095695456
 40
0.0052172095695456
 40
0.0058540816511875
 40
0.0058540816511875
 40
0.0071467911938444
 40
0.0071467911938444
 40
0.009670264309192
 40
0.009670264309192
 40
0.0170745007139218
 40
0.0170745007139218
 40
0.0392875060360099
 40
0.0392875060360099
 40
0.1059210263481036
 40
0.1059210263481036
 40
0.1620449115848467
 40
0.1620449115848467
 40
0.1900179792994476
 40
0.1900179792994476
 40
0.2041116074047101
 40
0.2041116074047101
 40
0.211766437126244
 40
0.211766437126244
 40
0.2198209704496134
 40
0.2198209704496134
 40
0.2198209704496134
 40
0.2198209704496134
 10
35.99996703331559
 20
-3.99820608299526
 30
0.0
 10
35.99996471346813
 20
-3.998072482462197
 30
0.0
 10
35.99996206880028
 20
-3.997920149920118
 30
0.0
 10
35.99995127552522
 20
-3.997298327449585
 30
0.0
 10
35.99994087483819
 20
-3.996699252128465
 30
0.0
 10
35.99990879519905
 20
-3.994846434174652
 30
0.0
 10
35.99989026237571
 20
-3.993775053641398
 30
0.0
 10
35.99981962960418
 20
-3.989678513991169
 30
0.0
 10
35.99975470584527
 20
-3.985894183969526
 30
0.0
 10
35.99956625359667
 20
-3.974812263324243
 30
0.0
 10
35.99943653631119
 20
-3.967070118748594
 30
0.0
 10
35.99893752932989
 20
-3.936783047814723
 30
0.0
 10
35.99857956746023
 20
-3.91396102052511
 30
0.0
 10
35.99722788515137
 20
-3.822982352703195
 30
0.0
 10
35.99638965365669
 20
-3.755041572580179
 30
0.0
 10
35.99375596358922
 20
-3.485837621189882
 30
0.0
 10
35.99333857462357
 20
-3.287678873739529
 30
0.0
 10
35.99393883001148
 20
-2.909794755131401
 30
0.0
 10
35.99483099702262
 20
-2.731879353891644
 30
0.0
 10
35.99665506265087
 20
-2.470993129524795
 30
0.0
 10
35.99727396266878
 20
-2.385953952353627
 30
0.0
 10
35.99860239565078
 20
-2.256130639493142
 30
0.0
 10
35.99911721634855
 20
-2.212583269660888
 30
0.0
 10
35.99951575973079
 20
-2.153737597995036
 30
0.0
 10
35.99958549667635
 20
-2.134351169630614
 30
0.0
 10
35.99962821047693
 20
-2.098395327035839
 30
0.0
 10
35.99959995921982
 20
-2.080673322954065
 30
0.0
 10
35.99957591650147
 20
-2.070206720558604
 30
0.0
  0
SPLINE
  5
ABF2
330
ABE5
100
AcDbEntity
  8
0
100
AcDbSpline
210
0.0
220
0.0
230
1.0
 70
     8
 71
     3
 72
    12
 73
     8
 74
     0
 42
0.000000001
 43
0.0000000001
 40
0.0
 40
0.0
 40
0.0
 40
0.0
 40
0.0073837082031626
 40
0.0073837082031626
 40
0.0094968776844453
 40
0.0094968776844453
 40
0.0106851798937761
 40
0.0106851798937761
 40
0.0106851798937761
 40
0.0106851798937761
 10
35.99996052260953
 20
-3.999985103458847
 30
0.0
 10
36.00000146855732
 20
-3.988676024699333
 30
0.0
 10
36.00005745707825
 20
-3.976740013363481
 30
0.0
 10
36.00011516119721
 20
-3.966761709165891
 30
0.0
 10
36.00012635319173
 20
-3.964941242445314
 30
0.0
 10
36.00013635879021
 20
-3.963322951708907
 30
0.0
 10
36.00013843235787
 20
-3.962989226431945
 30
0.0
 10
36.00013843227581
 20
-3.962989239756933
 30
0.0
  0
LINE
  5
ABF3
330
ABE5
100
AcDbEntity
  8
0
100
AcDbLine
 10
-36.00000000000001
 20
-2.000000000000005
 30
0.0
 11
-36.00000000000001
 21
-2.070206720559358
 31
0.0
  0
SPLINE
  5
ABF4
330
ABE5
100
AcDbEntity
  8
0
100
AcDbSpline
210
0.0
220
0.0
230
1.0
 70
     8
 71
     3
 72
    11
 73
     7
 74
     0
 42
0.000000001
 43
0.0000000001
 40
-1.0
 40
-1.0
 40
-1.0
 40
-1.0
 40
-0.7994286890823445
 40
-0.7994286890823445
 40
-0.7994286890823445
 40
-0.6533573777220604
 40
-0.6533573777220604
 40
-0.6533573777220604
 40
-0.6533573777220604
 10
-35.99999999999999
 20
-2.000000000000002
 30
0.0
 10
-35.99999961270318
 20
-1.999093543230994
 30
0.0
 10
-36.12633150599484
 20
-1.919863896641857
 30
0.0
 10
-36.336076945607
 20
-1.790687786220653
 30
0.0
 10
-36.48882955651538
 20
-1.696611899897145
 30
0.0
 10
-36.68837056419075
 20
-1.577391377859532
 30
0.0
 10
-36.91982716790673
 20
-1.445337717162616
 30
0.0
  0
SPLINE
  5
ABF5
330
ABE5
100
AcDbEntity
  8
0
100
AcDbSpline
210
0.0
220
0.0
230
1.0
 70
     8
 71
     3
 72
    36
 73
    32
 74
     0
 42
0.000000001
 43
0.0000000001
 40
0.0
 40
0.0
 40
0.0
 40
0.0
 40
0.0038186266467796
 40
0.0038186266467796
 40
0.0092110776904658
 40
0.0092110776904658
 40
0.020076867361385
 40
0.020076867361385
 40
0.0329596385105737
 40
0.0329596385105737
 40
0.0591156618691571
 40
0.0591156618691571
 40
0.134551291223298
 40
0.134551291223298
 40
0.1757861603169569
 40
0.1757861603169569
 40
0.1964212775851588
 40
0.1964212775851588
 40
0.2066579026978752
 40
0.2066579026978752
 40
0.211763163997351
 40
0.211763163997351
 40
0.2131061588869185
 40
0.2131061588869185
 40
0.2139676116433488
 40
0.2139676116433488
 40
0.2144336030457506
 40
0.2144336030457506
 40
0.2150508682318494
 40
0.2150508682318494
 40
0.2158703634600282
 40
0.2158703634600282
 40
0.2158703634600282
 40
0.2158703634600282
 10
-35.9995759165015
 20
-2.070206720559358
 30
0.0
 10
-35.99958731507188
 20
-2.075168900887381
 30
0.0
 10
-35.9995997918339
 20
-2.08204232608543
 30
0.0
 10
-35.99961779112469
 20
-2.100031816327453
 30
0.0
 10
-35.99961861325105
 20
-2.112003662980423
 30
0.0
 10
-35.99954447401458
 20
-2.150334542521449
 30
0.0
 10
-35.99937038822935
 20
-2.179691941695848
 30
0.0
 10
-35.99872413986569
 20
-2.248520978071391
 30
0.0
 10
-35.9982513718892
 20
-2.288793425759204
 30
0.0
 10
-35.99709519548202
 20
-2.409489027905855
 30
0.0
 10
-35.9965247567565
 20
-2.488728512890182
 30
0.0
 10
-35.99434480627562
 20
-2.804300082729679
 30
0.0
 10
-35.99335882245565
 20
-3.043030613992156
 30
0.0
 10
-35.9937415183638
 20
-3.396688308568051
 30
0.0
 10
-35.99424593010937
 20
-3.519914738623842
 30
0.0
 10
-35.99587459494401
 20
-3.706842550871091
 30
0.0
 10
-35.99656654629936
 20
-3.769599965497516
 30
0.0
 10
-35.99783703085048
 20
-3.86420382945395
 30
0.0
 10
-35.99829636696772
 20
-3.895676290547448
 30
0.0
 10
-35.99903677401773
 20
-3.942787615477609
 30
0.0
 10
-35.99929363798087
 20
-3.958562459725704
 30
0.0
 10
-35.99961917574154
 20
-3.977923340751945
 30
0.0
 10
-35.99968738264782
 20
-3.981944807068737
 30
0.0
 10
-35.99979276869382
 20
-3.988112186503419
 30
0.0
 10
-35.99983287206592
 20
-3.99044622779862
 30
0.0
 10
-35.99988203756058
 20
-3.993298189396686
 30
0.0
 10
-35.99989689451025
 20
-3.994158025617618
 30
0.0
 10
-35.99992455540246
 20
-3.995757213357648
 30
0.0
 10
-35.99993555834296
 20
-3.996391952336539
 30
0.0
 10
-35.99995493655474
 20
-3.99750945216506
 30
0.0
 10
-35.99996174087936
 20
-3.997901304364815
 30
0.0
 10
-35.99996703337112
 20
-3.998206067980279
 30
0.0
  0
SPLINE
  5
ABF6
330
ABE5
100
AcDbEntity
  8
0
100
AcDbSpline
210
0.0
220
0.0
230
1.0
 70
     8
 71
     3
 72
    14
 73
    10
 74
     0
 42
0.000000001
 43
0.0000000001
 40
0.0078284967057091
 40
0.0078284967057091
 40
0.0078284967057091
 40
0.0078284967057091
 40
0.008175470253889
 40
0.008175470253889
 40
0.0102323022275353
 40
0.0102323022275353
 40
0.0133243205833852
 40
0.0133243205833852
 40
0.01851748894146
 40
0.01851748894146
 40
0.01851748894146
 40
0.01851748894146
 10
-36.00013843227579
 20
-3.962989239759306
 30
0.0
 10
-36.00013843227579
 20
-3.962989239759856
 30
0.0
 10
-36.00013825702474
 20
-3.963017667606119
 30
0.0
 10
-36.00013591754635
 20
-3.963395595979937
 30
0.0
 10
-36.00012809275746
 20
-3.964642654701391
 30
0.0
 10
-36.00010165207912
 20
-3.969046452269901
 30
0.0
 10
-36.00007995556418
 20
-3.972835758743324
 30
0.0
 10
-36.00002328167466
 20
-3.983975793909044
 30
0.0
 10
-35.99998932103909
 20
-3.992031112272805
 30
0.0
 10
-35.99996052260955
 20
-3.999985103458849
 30
0.0
  0
SPLINE
  5
ABF7
330
ABE5
100
AcDbEntity
  8
0
100
AcDbSpline
210
0.0
220
0.0
230
1.0
 70
     8
 71
     3
 72
     8
 73
     4
 74
     0
 42
0.000000001
 43
0.0000000001
 40
0.0
 40
0.0
 40
0.0
 40
0.0
 40
0.0004520061815671
 40
0.0004520061815671
 40
0.0004520061815671
 40
0.0004520061815671
 10
-38.0000681830875
 20
-3.999999804543631
 30
0.0
 10
-38.00006517791921
 20
-3.999233062859
 30
0.0
 10
-38.00006218292497
 20
-3.998454380304496
 30
0.0
 10
-38.00005919128896
 20
-3.997668711503193
 30
0.0
  0
SPLINE
  5
ABF8
330
ABE5
100
AcDbEntity
  8
0
100
AcDbSpline
210
0.0
220
0.0
230
1.0
 70
     8
 71
     3
 72
    10
 73
     6
 74
     0
 42
0.000000001
 43
0.0000000001
 40
0.0346071744228437
 40
0.0346071744228437
 40
0.0346071744228437
 40
0.0346071744228437
 40
0.0346561748162674
 40
0.0346561748162674
 40
0.0453277130857202
 40
0.0453277130857202
 40
0.0453277130857202
 40
0.0453277130857202
 10
-38.00008995444843
 20
-3.993572650719054
 30
0.0
 10
-38.00009177961536
 20
-3.993447577502187
 30
0.0
 10
-38.00009362498435
 20
-3.993321253466566
 30
0.0
 10
-38.00049666815647
 20
-3.965827391708253
 30
0.0
 10
-38.00116362566299
 20
-3.93689452390053
 30
0.0
 10
-38.00191695803081
 20
-3.912841657403893
 30
0.0
  0
SPLINE
  5
ABF9
330
ABE5
100
AcDbEntity
  8
0
100
AcDbSpline
210
0.0
220
0.0
230
1.0
 70
     8
 71
     3
 72
    12
 73
     8
 74
     0
 42
0.000000001
 43
0.0000000001
 40
0.0
 40
0.0
 40
0.0
 40
0.0
 40
0.0023856748762368
 40
0.0023856748762368
 40
0.0047234853777328
 40
0.0047234853777328
 40
0.0058053285372778
 40
0.0058053285372778
 40
0.0058053285372778
 40
0.0058053285372778
 10
-38.00004324879
 20
-4.000000239365856
 30
0.0
 10
-38.0000772141985
 20
-3.994860888986637
 30
0.0
 10
-38.00011270432508
 20
-3.99069496931682
 30
0.0
 10
-38.00016689582371
 20
-3.984895764343832
 30
0.0
 10
-38.00018616639387
 20
-3.983140306476306
 30
0.0
 10
-38.00019894125279
 20
-3.981982318476755
 30
0.0
 10
-38.00020088388775
 20
-3.981813500573344
 30
0.0
 10
-38.0002008839722
 20
-3.981813493185351
 30
0.0
  0
SPLINE
  5
ABFA
330
ABE5
100
AcDbEntity
  8
0
100
AcDbSpline
210
0.0
220
0.0
230
1.0
 70
     8
 71
     3
 72
    22
 73
    18
 74
     0
 42
0.000000001
 43
0.0000000001
 40
0.0478714372383989
 40
0.0478714372383989
 40
0.0478714372383989
 40
0.0478714372383989
 40
0.0509143159530503
 40
0.0509143159530503
 40
0.0563767803535882
 40
0.0563767803535882
 40
0.0645907840936994
 40
0.0645907840936994
 40
0.0763651692005554
 40
0.0763651692005554
 40
0.0912951857173292
 40
0.0912951857173292
 40
0.1030602276418308
 40
0.1030602276418308
 40
0.1261855805276063
 40
0.1261855805276063
 40
0.1329877987526636
 40
0.1329877987526636
 40
0.1329877987526636
 40
0.1329877987526636
 10
-39.78400601956996
 20
-2.01169768552937
 30
0.0
 10
-39.79325004186181
 20
-2.010998808006209
 30
0.0
 10
-39.80294149068465
 20
-2.010321376277724
 30
0.0
 10
-39.83036210283501
 20
-2.008558782972339
 30
0.0
 10
-39.84861441012646
 20
-2.007560852141883
 30
0.0
 10
-39.89412250035802
 20
-2.005440889652402
 30
0.0
 10
-39.92171315969216
 20
-2.004484871859181
 30
0.0
 10
-39.98716908356263
 20
-2.002725717469461
 30
0.0
 10
-40.02499984825997
 20
-2.002137209312907
 30
0.0
 10
-40.10564424729422
 20
-2.001256390123066
 30
0.0
 10
-40.14602486102126
 20
-2.00108359641506
 30
0.0
 10
-40.2221973305064
 20
-2.000776233660549
 30
0.0
 10
-40.25771654640673
 20
-2.000641943365973
 30
0.0
 10
-40.36567720665688
 20
-2.000249312309533
 30
0.0
 10
-40.44121983988781
 20
-2.000084894605838
 30
0.0
 10
-40.52688932929943
 20
-2.000027671350186
 30
0.0
 10
-40.54568951132548
 20
-2.000020898549155
 30
0.0
 10
-40.56202985673531
 20
-2.000020061973675
 30
0.0
  0
LINE
  5
ABFB
330
ABE5
100
AcDbEntity
  8
0
100
AcDbLine
 10
-36.0
 20
-2.000000000000005
 30
0.0
 11
-33.99999999999999
 21
-2.000000000000002
 31
0.0
  0
LINE
  5
ABFC
330
ABE5
100
AcDbEntity
  8
0
100
AcDbLine
 10
-35.99999999999998
 20
-86.00000000000001
 30
0.0
 11
-33.99999999999997
 21
-86.00000000000001
 31
0.0
  0
LINE
  5
ABFD
330
ABE5
100
AcDbEntity
  8
0
100
AcDbLine
 10
34.0
 20
-2.000000000000002
 30
0.0
 11
-34.0
 21
-2.000000000000002
 31
0.0
  0
LINE
  5
ABFE
330
ABE5
100
AcDbEntity
  8
0
100
AcDbLine
 10
-33.99999999999997
 20
-86.00000000000001
 30
0.0
 11
33.99999999999998
 21
-86.00000000000001
 31
0.0
  0
CIRCLE
  5
ABFF
330
ABE5
100
AcDbEntity
  8
0
100
AcDbCircle
 10
0.0
 20
-47.99999999999998
 30
0.0
 40
2.5
  0
CIRCLE
  5
AC00
330
ABE5
100
AcDbEntity
  8
0
100
AcDbCircle
 10
0.0
 20
-67.99999999999998
 30
0.0
 40
2.5
  0
LINE
  5
AC01
330
ABE5
100
AcDbEntity
  8
0
100
AcDbLine
 10
36.0
 20
-2.000000000000005
 30
0.0
 11
33.99999999999999
 21
-2.000000000000002
 31
0.0
  0
LINE
  5
AC02
330
ABE5
100
AcDbEntity
  8
0
100
AcDbLine
 10
40.0
 20
0.0
 30
0.0
 11
77.50000000000001
 21
0.0
 31
0.0
  0
ARC
  5
AC03
330
ABE5
100
AcDbEntity
  8
0
100
AcDbCircle
 10
40.0
 20
-4.000000000000004
 30
0.0
 40
3.999999999999999
100
AcDbArc
 50
90.00000000000012
 51
180.0
  0
LINE
  5
AC04
330
ABE5
100
AcDbEntity
  8
0
100
AcDbLine
 10
35.99999999999997
 20
-86.00000000000006
 30
0.0
 11
35.99999999999999
 21
-46.00000000000004
 31
0.0
  0
LINE
  5
AC05
330
ABE5
100
AcDbEntity
  8
0
100
AcDbLine
 10
37.99999999999998
 20
-86.00000000000006
 30
0.0
 11
35.99999999999997
 21
-86.00000000000006
 31
0.0
  0
LINE
  5
AC06
330
ABE5
100
AcDbEntity
  8
0
100
AcDbLine
 10
37.99999999999999
 20
-46.00000000000004
 30
0.0
 11
37.99999999999998
 21
-86.00000000000006
 31
0.0
  0
LINE
  5
AC07
330
ABE5
100
AcDbEntity
  8
0
100
AcDbLine
 10
35.99999999999998
 20
-46.00000000000001
 30
0.0
 11
37.99999999999999
 21
-46.00000000000001
 31
0.0
  0
LINE
  5
AC08
330
ABE5
100
AcDbEntity
  8
0
100
AcDbLine
 10
38.0
 20
-4.000000000000003
 30
0.0
 11
37.99999999999999
 21
-46.00000000000001
 31
0.0
  0
LINE
  5
AC09
330
ABE5
100
AcDbEntity
  8
0
100
AcDbLine
 10
35.99999999999998
 20
-46.00000000000001
 30
0.0
 11
36.0
 21
-4.000000000000003
 31
0.0
  0
LINE
  5
AC0A
330
ABE5
100
AcDbEntity
  8
0
100
AcDbLine
 10
35.99999999999998
 20
-86.00000000000001
 30
0.0
 11
33.99999999999997
 21
-86.00000000000001
 31
0.0
  0
ARC
  5
AC0B
330
ABE5
100
AcDbEntity
  8
0
100
AcDbCircle
 10
40.0
 20
-4.000000000000004
 30
0.0
 40
1.999999999999997
100
AcDbArc
 50
90.00000000000012
 51
180.0
  0
LINE
  5
AC0C
330
ABE5
100
AcDbEntity
  8
0
100
AcDbLine
 10
77.50000000000001
 20
0.0
 30
0.0
 11
77.50000000000001
 21
-2.000000000000015
 31
0.0
  0
LINE
  5
AC0D
330
ABE5
100
AcDbEntity
  8
0
100
AcDbLine
 10
77.50000000000001
 20
-2.000000000000015
 30
0.0
 11
40.0
 21
-2.000000000000006
 31
0.0
  0
LINE
  5
AC0E
330
ABE5
100
AcDbEntity
  8
0
100
AcDbLine
 10
-77.50000000000001
 20
-2.000000000000015
 30
0.0
 11
-40.0
 21
-2.000000000000006
 31
0.0
  0
LINE
  5
AC0F
330
ABE5
100
AcDbEntity
  8
0
100
AcDbLine
 10
-35.99999999999998
 20
-46.00000000000001
 30
0.0
 11
-36.0
 21
-4.000000000000003
 31
0.0
  0
LINE
  5
AC10
330
ABE5
100
AcDbEntity
  8
0
100
AcDbLine
 10
-38.0
 20
-4.000000000000003
 30
0.0
 11
-37.99999999999999
 21
-46.00000000000001
 31
0.0
  0
LINE
  5
AC11
330
ABE5
100
AcDbEntity
  8
0
100
AcDbLine
 10
-40.0
 20
0.0
 30
0.0
 11
-77.50000000000001
 21
0.0
 31
0.0
  0
LINE
  5
AC12
330
ABE5
100
AcDbEntity
  8
0
100
AcDbLine
 10
-77.50000000000001
 20
0.0
 30
0.0
 11
-77.50000000000001
 21
-2.000000000000015
 31
0.0
  0
ARC
  5
AC13
330
ABE5
100
AcDbEntity
  8
0
100
AcDbCircle
 10
-40.0
 20
-4.000000000000004
 30
0.0
 40
1.999999999999997
100
AcDbArc
 50
0.0
 51
89.99999999999987
  0
ARC
  5
AC14
330
ABE5
100
AcDbEntity
  8
0
100
AcDbCircle
 10
-40.0
 20
-4.000000000000004
 30
0.0
 40
3.999999999999999
100
AcDbArc
 50
0.0
 51
89.99999999999987
  0
LINE
  5
AC15
330
ABE5
100
AcDbEntity
  8
0
100
AcDbLine
 10
-35.99999999999999
 20
-46.00000000000004
 30
0.0
 11
-35.99999999999997
 21
-86.00000000000006
 31
0.0
  0
LINE
  5
AC16
330
ABE5
100
AcDbEntity
  8
0
100
AcDbLine
 10
-37.99999999999998
 20
-86.00000000000006
 30
0.0
 11
-37.99999999999999
 21
-46.00000000000004
 31
0.0
  0
LINE
  5
AC17
330
ABE5
100
AcDbEntity
  8
0
100
AcDbLine
 10
-35.99999999999997
 20
-86.00000000000006
 30
0.0
 11
-37.99999999999998
 21
-86.00000000000006
 31
0.0
  0
LINE
  5
AC18
330
ABE5
100
AcDbEntity
  8
0
100
AcDbLine
 10
-37.99999999999999
 20
-46.00000000000001
 30
0.0
 11
-35.99999999999998
 21
-46.00000000000001
 31
0.0
  0
ENDBLK
  5
ABE7
330
ABE5
100
AcDbEntity
  8
0
100
AcDbBlockEnd
  0
BLOCK
  5
AC1A
330
AC19
100
AcDbEntity
  8
0
100
AcDbBlockBegin
  2
SAE440_72_2-Bottom
 70
     0
 10
0.0
 20
0.0
 30
0.0
  3
SAE440_72_2-Bottom
  1

  0
SPLINE
  5
AC1C
330
AC19
100
AcDbEntity
  8
0
100
AcDbSpline
210
0.0
220
0.0
230
1.0
 70
     8
 71
     3
 72
    14
 73
    10
 74
     0
 42
0.000000001
 43
0.0000000001
 40
0.0
 40
0.0
 40
0.0
 40
0.0
 40
0.3435149368861596
 40
0.3435149368861596
 40
0.3435149368861596
 40
0.7569946176809849
 40
0.7569946176809849
 40
0.7569946176809849
 40
1.0
 40
1.0
 40
1.0
 40
1.0
 10
40.60606060606062
 20
2.000000000000013
 30
0.0
 10
40.28490796720287
 20
2.000036879631409
 30
0.0
 10
39.87246555817092
 20
1.996834167074776
 30
0.0
 10
39.47647444984084
 20
1.998676128321891
 30
0.0
 10
38.99983061433805
 20
2.000893247482407
 30
0.0
 10
38.53729794765987
 20
2.001072402908576
 30
0.0
 10
38.26242807116038
 20
2.001124325805049
 30
0.0
 10
38.10088480185549
 20
2.001154841314987
 30
0.0
 10
37.99999576705054
 20
2.00025054766809
 30
0.0
 10
37.99999999948833
 20
1.999999999992513
 30
0.0
  0
LINE
  5
AC1D
330
AC19
100
AcDbEntity
  8
0
100
AcDbLine
 10
40.00221616204662
 20
2.000000000000007
 30
0.0
 11
40.00619229318797
 21
2.000000000000007
 31
0.0
  0
LINE
  5
AC1E
330
AC19
100
AcDbEntity
  8
0
100
AcDbLine
 10
40.56202985673544
 20
2.000000000000007
 30
0.0
 11
40.60606060606064
 21
2.000000000000007
 31
0.0
  0
ARC
  5
AC1F
330
AC19
100
AcDbEntity
  8
0
100
AcDbCircle
 10
40.0
 20
4.000000000000004
 30
0.0
 40
1.999999999999996
100
AcDbArc
 50
182.3258455716764
 51
263.759969705622
  0
ARC
  5
AC20
330
AC19
100
AcDbEntity
  8
0
100
AcDbCircle
 10
40.0
 20
4.000000000000004
 30
0.0
 40
3.999999999999998
100
AcDbArc
 50
219.6927749101254
 51
270.0
  0
LINE
  5
AC21
330
AC19
100
AcDbEntity
  8
0
100
AcDbLine
 10
40.60606060606062
 20
0.0
 30
0.0
 11
40.0
 21
0.0
 31
0.0
  0
SPLINE
  5
AC22
330
AC19
100
AcDbEntity
  8
0
100
AcDbSpline
210
0.0
220
0.0
230
1.0
 70
     8
 71
     3
 72
    17
 73
    13
 74
     0
 42
0.000000001
 43
0.0000000001
 40
-1.0
 40
-1.0
 40
-1.0
 40
-1.0
 40
-0.7994286890823445
 40
-0.7994286890823445
 40
-0.7994286890823445
 40
-0.3760960081024908
 40
-0.3760960081024908
 40
-0.3760960081024908
 40
-0.0765284972679688
 40
-0.0765284972679688
 40
-0.0765284972679688
 40
0.0
 40
0.0
 40
0.0
 40
0.0
 10
35.99999999999999
 20
2.000000000000002
 30
0.0
 10
35.99999961270318
 20
1.999093543230994
 30
0.0
 10
36.12633150599484
 20
1.919863896641857
 30
0.0
 10
36.336076945607
 20
1.790687786220653
 30
0.0
 10
36.77877285694183
 20
1.518044261616035
 30
0.0
 10
37.61445008341439
 20
1.034207947893264
 30
0.0
 10
38.48107962099951
 20
0.6388614064479709
 30
0.0
 10
39.09434210947345
 20
0.3590980320170699
 30
0.0
 10
39.71765761684755
 20
0.1217220476584611
 30
0.0
 10
40.2339342069388
 20
0.0342615816146406
 30
0.0
 10
40.36582391521941
 20
0.0119186445650116
 30
0.0
 10
40.48832026105052
 20
0.0000045452574099
 30
0.0
 10
40.60606060611081
 20
0.000000000115211
 30
0.0
  0
LINE
  5
AC23
330
AC19
100
AcDbEntity
  8
0
100
AcDbLine
 10
40.60606060606062
 20
2.000000000000007
 30
0.0
 11
40.60606060606062
 21
0.0
 31
0.0
  0
SPLINE
  5
AC24
330
AC19
100
AcDbEntity
  8
0
100
AcDbSpline
210
0.0
220
0.0
230
1.0
 70
     8
 71
     3
 72
    30
 73
    26
 74
     0
 42
0.000000001
 43
0.0000000001
 40
0.0364728668789563
 40
0.0364728668789563
 40
0.0364728668789563
 40
0.0364728668789563
 40
0.038379816004871
 40
0.038379816004871
 40
0.0414118567377478
 40
0.0414118567377478
 40
0.0445182445995345
 40
0.0445182445995345
 40
0.0472747035651881
 40
0.0472747035651881
 40
0.0509143159529851
 40
0.0509143159529851
 40
0.056376780353637
 40
0.056376780353637
 40
0.0645907840937324
 40
0.0645907840937324
 40
0.0763651692006027
 40
0.0763651692006027
 40
0.0912951857173966
 40
0.0912951857173966
 40
0.1030602276342095
 40
0.1030602276342095
 40
0.1261855805155321
 40
0.1261855805155321
 40
0.132987798752754
 40
0.132987798752754
 40
0.132987798752754
 40
0.132987798752754
 10
39.72383606963028
 20
2.017146192077466
 30
0.0
 10
39.72383606957895
 20
2.017146192083212
 30
0.0
 10
39.72450836879518
 20
2.017070754855254
 30
0.0
 10
39.72768868691199
 20
2.016725559059672
 30
0.0
 10
39.73087807079185
 20
2.016383757549119
 30
0.0
 10
39.74081665147691
 20
2.015388200699983
 30
0.0
 10
39.74771468903339
 20
2.014725511041049
 30
0.0
 10
39.76255940656394
 20
2.013408092456406
 30
0.0
 10
39.77042163547586
 20
2.012749694928816
 30
0.0
 10
39.7894515145286
 20
2.011267017836388
 30
0.0
 10
39.8010176644037
 20
2.010445039575428
 30
0.0
 10
39.83036210283476
 20
2.008558782972351
 30
0.0
 10
39.8486144101266
 20
2.007560852141875
 30
0.0
 10
39.89412250035849
 20
2.005440889652386
 30
0.0
 10
39.92171315969257
 20
2.004484871859168
 30
0.0
 10
39.98716908356303
 20
2.002725717469453
 30
0.0
 10
40.0249998482604
 20
2.002137209312901
 30
0.0
 10
40.10564424729472
 20
2.001256390123063
 30
0.0
 10
40.14602486102178
 20
2.001083596415057
 30
0.0
 10
40.22219733048507
 20
2.000776233660635
 30
0.0
 10
40.25771654636067
 20
2.000641943366157
 30
0.0
 10
40.36567720657006
 20
2.000249312309815
 30
0.0
 10
40.44121983978428
 20
2.000084894605983
 30
0.0
 10
40.52688932923271
 20
2.000027671350211
 30
0.0
 10
40.5456895112964
 20
2.000020898549157
 30
0.0
 10
40.56202985673545
 20
2.000020061973676
 30
0.0
  0
SPLINE
  5
AC25
330
AC19
100
AcDbEntity
  8
0
100
AcDbSpline
210
0.0
220
0.0
230
1.0
 70
     8
 71
     3
 72
     8
 73
     4
 74
     0
 42
0.000000001
 43
0.0000000001
 40
0.0
 40
0.0
 40
0.0
 40
0.0
 40
0.0035844581830498
 40
0.0035844581830498
 40
0.0035844581830498
 40
0.0035844581830498
 10
38.00006818291073
 20
3.999999759443455
 30
0.0
 10
38.00004435160045
 20
3.993919411361456
 30
0.0
 10
38.00002088730776
 20
3.9871764481313
 30
0.0
 10
38.00000004833794
 20
3.980382203121113
 30
0.0
  0
SPLINE
  5
AC26
330
AC19
100
AcDbEntity
  8
0
100
AcDbSpline
210
0.0
220
0.0
230
1.0
 70
     8
 71
     3
 72
    16
 73
    12
 74
     0
 42
0.000000001
 43
0.0000000001
 40
0.0342246246997117
 40
0.0342246246997117
 40
0.0342246246997117
 40
0.0342246246997117
 40
0.0346561751174938
 40
0.0346561751174938
 40
0.0493193974962634
 40
0.0493193974962634
 40
0.0566730744646067
 40
0.0566730744646067
 40
0.0653760107149031
 40
0.0653760107149031
 40
0.0712624209534464
 40
0.0712624209534464
 40
0.0712624209534464
 40
0.0712624209534464
 10
38.00005333994752
 20
3.996120833088018
 30
0.0
 10
38.00006314016736
 20
3.995427944753039
 30
0.0
 10
38.00007924257061
 20
3.994302359789905
 30
0.0
 10
38.00064673643301
 20
3.955590373793328
 30
0.0
 10
38.00169156742666
 20
3.916214937746515
 30
0.0
 10
38.00335343165455
 20
3.872210127048278
 30
0.0
 10
38.00392768224134
 20
3.859359251133754
 30
0.0
 10
38.00502638659134
 20
3.836898643541741
 30
0.0
 10
38.00550428330989
 20
3.828489634868094
 30
0.0
 10
38.00608715114154
 20
3.818602173779686
 30
0.0
 10
38.00623590775978
 20
3.816253830630129
 30
0.0
 10
38.00623590788629
 20
3.816253828617482
 30
0.0
  0
SPLINE
  5
AC27
330
AC19
100
AcDbEntity
  8
0
100
AcDbSpline
210
0.0
220
0.0
230
1.0
 70
     8
 71
     3
 72
     8
 73
     4
 74
     0
 42
0.000000001
 43
0.0000000001
 40
0.0003712429269366
 40
0.0003712429269366
 40
0.0003712429269366
 40
0.0003712429269366
 40
0.0010920491602356
 40
0.0010920491602356
 40
0.0010920491602356
 40
0.0010920491602356
 10
38.00005917932759
 20
3.997672736207356
 30
0.0
 10
38.00006952181369
 20
3.99621126187244
 30
0.0
 10
38.00007984479555
 20
3.99484727520224
 30
0.0
 10
38.00008992516151
 20
3.993579806487128
 30
0.0
  0
CIRCLE
  5
AC28
330
AC19
100
AcDbEntity
  8
0
100
AcDbCircle
 10
0.0
 20
67.99999999999998
 30
0.0
 40
2.5
  0
CIRCLE
  5
AC29
330
AC19
100
AcDbEntity
  8
0
100
AcDbCircle
 10
0.0
 20
47.99999999999998
 30
0.0
 40
2.5
  0
LINE
  5
AC2A
330
AC19
100
AcDbEntity
  8
0
100
AcDbLine
 10
34.0
 20
2.000000000000002
 30
0.0
 11
-34.0
 21
2.000000000000002
 31
0.0
  0
LINE
  5
AC2B
330
AC19
100
AcDbEntity
  8
0
100
AcDbLine
 10
33.99999999999998
 20
86.00000000000001
 30
0.0
 11
-33.99999999999997
 21
86.00000000000001
 31
0.0
  0
SPLINE
  5
AC2C
330
AC19
100
AcDbEntity
  8
0
100
AcDbSpline
210
0.0
220
0.0
230
1.0
 70
     8
 71
     3
 72
    17
 73
    13
 74
     0
 42
0.000000001
 43
0.0000000001
 40
-1.0
 40
-1.0
 40
-1.0
 40
-1.0
 40
-0.7994286890823445
 40
-0.7994286890823445
 40
-0.7994286890823445
 40
-0.3760960081024908
 40
-0.3760960081024908
 40
-0.3760960081024908
 40
-0.0765284972679688
 40
-0.0765284972679688
 40
-0.0765284972679688
 40
0.0
 40
0.0
 40
0.0
 40
0.0
 10
-35.99999999999999
 20
2.000000000000002
 30
0.0
 10
-35.99999961270318
 20
1.999093543230994
 30
0.0
 10
-36.12633150599484
 20
1.919863896641857
 30
0.0
 10
-36.336076945607
 20
1.790687786220653
 30
0.0
 10
-36.77877285694183
 20
1.518044261616035
 30
0.0
 10
-37.61445008341439
 20
1.034207947893264
 30
0.0
 10
-38.48107962099951
 20
0.6388614064479709
 30
0.0
 10
-39.09434210947345
 20
0.3590980320170699
 30
0.0
 10
-39.71765761684755
 20
0.1217220476584611
 30
0.0
 10
-40.2339342069388
 20
0.0342615816146406
 30
0.0
 10
-40.36582391521941
 20
0.0119186445650116
 30
0.0
 10
-40.48832026105052
 20
0.0000045452574099
 30
0.0
 10
-40.60606060611081
 20
0.000000000115211
 30
0.0
  0
LINE
  5
AC2D
330
AC19
100
AcDbEntity
  8
0
100
AcDbLine
 10
-40.0
 20
0.0
 30
0.0
 11
-40.60606060606062
 21
0.0
 31
0.0
  0
ARC
  5
AC2E
330
AC19
100
AcDbEntity
  8
0
100
AcDbCircle
 10
-40.0
 20
4.000000000000004
 30
0.0
 40
3.999999999999999
100
AcDbArc
 50
270.0
 51
320.3072250898746
  0
ARC
  5
AC2F
330
AC19
100
AcDbEntity
  8
0
100
AcDbCircle
 10
-40.0
 20
4.000000000000004
 30
0.0
 40
1.999999999999996
100
AcDbArc
 50
276.2400302943774
 51
357.6741544283124
  0
LINE
  5
AC30
330
AC19
100
AcDbEntity
  8
0
100
AcDbLine
 10
-40.60606060606064
 20
2.000000000000007
 30
0.0
 11
-40.56202985673544
 21
2.000000000000007
 31
0.0
  0
LINE
  5
AC31
330
AC19
100
AcDbEntity
  8
0
100
AcDbLine
 10
-40.00619229318805
 20
2.000000000000007
 30
0.0
 11
-40.00221616204663
 21
2.000000000000007
 31
0.0
  0
SPLINE
  5
AC32
330
AC19
100
AcDbEntity
  8
0
100
AcDbSpline
210
0.0
220
0.0
230
1.0
 70
     8
 71
     3
 72
    14
 73
    10
 74
     0
 42
0.000000001
 43
0.0000000001
 40
0.0
 40
0.0
 40
0.0
 40
0.0
 40
0.3435149368861596
 40
0.3435149368861596
 40
0.3435149368861596
 40
0.7569946176809849
 40
0.7569946176809849
 40
0.7569946176809849
 40
1.0
 40
1.0
 40
1.0
 40
1.0
 10
-40.60606060606062
 20
2.000000000000013
 30
0.0
 10
-40.28490796720287
 20
2.000036879631409
 30
0.0
 10
-39.87246555817092
 20
1.996834167074776
 30
0.0
 10
-39.47647444984084
 20
1.998676128321891
 30
0.0
 10
-38.99983061433805
 20
2.000893247482407
 30
0.0
 10
-38.53729794765987
 20
2.001072402908576
 30
0.0
 10
-38.26242807116038
 20
2.001124325805049
 30
0.0
 10
-38.10088480185549
 20
2.001154841314987
 30
0.0
 10
-37.99999576705054
 20
2.00025054766809
 30
0.0
 10
-37.99999999948833
 20
1.999999999992513
 30
0.0
  0
LINE
  5
AC33
330
AC19
100
AcDbEntity
  8
0
100
AcDbLine
 10
-40.60606060606062
 20
0.0
 30
0.0
 11
-40.60606060606062
 21
2.000000000000007
 31
0.0
  0
SPLINE
  5
AC34
330
AC19
100
AcDbEntity
  8
0
100
AcDbSpline
210
0.0
220
0.0
230
1.0
 70
     8
 71
     3
 72
    10
 73
     6
 74
     0
 42
0.000000001
 43
0.0000000001
 40
0.0194209731650445
 40
0.0194209731650445
 40
0.0194209731650445
 40
0.0194209731650445
 40
0.0196622419440959
 40
0.0196622419440959
 40
0.0230051729749323
 40
0.0230051729749323
 40
0.0230051729749323
 40
0.0230051729749323
 10
-38.00000000127187
 20
3.980395661592253
 30
0.0
 10
-38.0000014035104
 20
3.98085284120261
 30
0.0
 10
-38.00000281603941
 20
3.981310172695255
 30
0.0
 10
-38.00002398161055
 20
3.988091083032008
 30
0.0
 10
-38.00004595757217
 20
3.99432916401991
 30
0.0
 10
-38.00006818308749
 20
3.99999980454363
 30
0.0
  0
SPLINE
  5
AC35
330
AC19
100
AcDbEntity
  8
0
100
AcDbSpline
210
0.0
220
0.0
230
1.0
 70
     8
 71
     3
 72
     8
 73
     4
 74
     0
 42
0.000000001
 43
0.0000000001
 40
0.0136968585376155
 40
0.0136968585376155
 40
0.0136968585376155
 40
0.0136968585376155
 40
0.0144188232624516
 40
0.0144188232624516
 40
0.0144188232624516
 40
0.0144188232624516
 10
-38.00008995401342
 20
3.993574803799064
 30
0.0
 10
-38.00007988210031
 20
3.994841209683957
 30
0.0
 10
-38.00006953570817
 20
3.996209075711407
 30
0.0
 10
-38.00005918409832
 20
3.99767183930391
 30
0.0
  0
SPLINE
  5
AC36
330
AC19
100
AcDbEntity
  8
0
100
AcDbSpline
210
0.0
220
0.0
230
1.0
 70
     8
 71
     3
 72
    20
 73
    16
 74
     0
 42
0.000000001
 43
0.0000000001
 40
0.0375071351853412
 40
0.0375071351853412
 40
0.0375071351853412
 40
0.0375071351853412
 40
0.0458839272244776
 40
0.0458839272244776
 40
0.055889363361404
 40
0.055889363361404
 40
0.0668508488631853
 40
0.0668508488631853
 40
0.073193472537171
 40
0.073193472537171
 40
0.0742665402534425
 40
0.0742665402534425
 40
0.0744551933452609
 40
0.0744551933452609
 40
0.0745413694504775
 40
0.0745413694504775
 40
0.0745413694504775
 40
0.0745413694504775
 10
-38.00623590788632
 20
3.816253828617329
 30
0.0
 10
-38.00623590761568
 20
3.816253832922907
 30
0.0
 10
-38.00591396116688
 20
3.821367263245544
 30
0.0
 10
-38.00504489959148
 20
3.836763478694083
 30
0.0
 10
-38.00435072523669
 20
3.849779472893317
 30
0.0
 10
-38.00277903429671
 20
3.886064087080315
 30
0.0
 10
-38.00191025885192
 20
3.910137927121859
 30
0.0
 10
-38.00082485546328
 20
3.952312057479172
 30
0.0
 10
-38.00047952056475
 20
3.968845734543338
 30
0.0
 10
-38.00016120973344
 20
3.988778003618132
 30
0.0
 10
-38.00011562363633
 20
3.991791827945996
 30
0.0
 10
-38.00007150104421
 20
3.994845612007829
 30
0.0
 10
-38.0000652463422
 20
3.995282532231811
 30
0.0
 10
-38.00005752874228
 20
3.995825041076147
 30
0.0
 10
-38.00005530887207
 20
3.995981627288875
 30
0.0
 10
-38.00005334599902
 20
3.996120404975849
 30
0.0
  0
SPLINE
  5
AC37
330
AC19
100
AcDbEntity
  8
0
100
AcDbSpline
210
0.0
220
0.0
230
1.0
 70
     8
 71
     3
 72
    32
 73
    28
 74
     0
 42
0.000000001
 43
0.0000000001
 40
0.0
 40
0.0
 40
0.0
 40
0.0
 40
0.0070452398488124
 40
0.0070452398488124
 40
0.0166405949072501
 40
0.0166405949072501
 40
0.0367140942143318
 40
0.0367140942143318
 40
0.0488284899207584
 40
0.0488284899207584
 40
0.0619943402178468
 40
0.0619943402178468
 40
0.0706188779699269
 40
0.0706188779699269
 40
0.0776906910923012
 40
0.0776906910923012
 40
0.0832065316599655
 40
0.0832065316599655
 40
0.0869816428433232
 40
0.0869816428433232
 40
0.0893395345175351
 40
0.0893395345175351
 40
0.0926179312869618
 40
0.0926179312869618
 40
0.0952548521184955
 40
0.0952548521184955
 40
0.0965320203271336
 40
0.0965320203271336
 40
0.0965320203271336
 40
0.0965320203271336
 10
-40.56202985673544
 20
2.000020061973675
 30
0.0
 10
-40.54510572275211
 20
2.000020928437337
 30
0.0
 10
-40.52555210343345
 20
2.000028134291572
 30
0.0
 10
-40.47775545405268
 20
2.000061132070757
 30
0.0
 10
-40.44841962912918
 20
2.000093689687933
 30
0.0
 10
-40.35657224081142
 20
2.00026844024942
 30
0.0
 10
-40.2919849450971
 20
2.000513808506335
 30
0.0
 10
-40.1963342285441
 20
2.00087905538592
 30
0.0
 10
-40.16273081718803
 20
2.000996414972457
 30
0.0
 10
-40.09182112307883
 20
2.001409895072474
 30
0.0
 10
-40.05225815318159
 20
2.00173575188072
 30
0.0
 10
-39.98348581634328
 20
2.002882807510538
 30
0.0
 10
-39.95529088106841
 20
2.003502366168954
 30
0.0
 10
-39.90345404901376
 20
2.00512890129796
 30
0.0
 10
-39.87967447342951
 20
2.006056558896874
 30
0.0
 10
-39.83787606741702
 20
2.008135314678344
 30
0.0
 10
-39.81951337885173
 20
2.009206873104711
 30
0.0
 10
-39.79004459204798
 20
2.011220388823111
 30
0.0
 10
-39.77830835316905
 20
2.01210954927348
 30
0.0
 10
-39.76105715748706
 20
2.01353856415463
 30
0.0
 10
-39.7548115409761
 20
2.014087788315627
 30
0.0
 10
-39.74169544412685
 20
2.015295134094369
 30
0.0
 10
-39.73541374728559
 20
2.015923299459711
 30
0.0
 10
-39.7280773954316
 20
2.016681793866808
 30
0.0
 10
-39.72587093349975
 20
2.016921975299501
 30
0.0
 10
-39.72413583697781
 20
2.017112587254191
 30
0.0
 10
-39.72383606976168
 20
2.01714619206275
 30
0.0
 10
-39.72383606962868
 20
2.017146192077646
 30
0.0
  0
LINE
  5
AC38
330
AC19
100
AcDbEntity
  8
0
100
AcDbLine
 10
-37.99999999999999
 20
2.000000000000007
 30
0.0
 11
-33.99999999999999
 21
2.000000000000002
 31
0.0
  0
LINE
  5
AC39
330
AC19
100
AcDbEntity
  8
0
100
AcDbLine
 10
-33.99999999999997
 20
86.00000000000001
 30
0.0
 11
-37.99999999999998
 21
86.00000000000001
 31
0.0
  0
LINE
  5
AC3A
330
AC19
100
AcDbEntity
  8
0
100
AcDbLine
 10
-37.99999999999999
 20
2.000000000000007
 30
0.0
 11
-37.99999999999998
 21
86.00000000000001
 31
0.0
  0
LINE
  5
AC3B
330
AC19
100
AcDbEntity
  8
0
100
AcDbLine
 10
37.99999999999999
 20
2.000000000000007
 30
0.0
 11
33.99999999999999
 21
2.000000000000002
 31
0.0
  0
LINE
  5
AC3C
330
AC19
100
AcDbEntity
  8
0
100
AcDbLine
 10
37.99999999999999
 20
2.000000000000007
 30
0.0
 11
37.99999999999998
 21
86.00000000000001
 31
0.0
  0
LINE
  5
AC3D
330
AC19
100
AcDbEntity
  8
0
100
AcDbLine
 10
33.99999999999997
 20
86.00000000000001
 30
0.0
 11
37.99999999999998
 21
86.00000000000001
 31
0.0
  0
LINE
  5
AC3E
330
AC19
100
AcDbEntity
  8
0
100
AcDbLine
 10
77.50000000000004
 20
0.0
 30
0.0
 11
40.60606060606062
 21
0.0
 31
0.0
  0
LINE
  5
AC3F
330
AC19
100
AcDbEntity
  8
0
100
AcDbLine
 10
77.50000000000004
 20
2.000000000000001
 30
0.0
 11
77.50000000000004
 21
0.0
 31
0.0
  0
LINE
  5
AC40
330
AC19
100
AcDbEntity
  8
0
100
AcDbLine
 10
40.60606060606064
 20
2.000000000000007
 30
0.0
 11
77.50000000000004
 21
2.000000000000001
 31
0.0
  0
LINE
  5
AC41
330
AC19
100
AcDbEntity
  8
0
100
AcDbLine
 10
-77.50000000000004
 20
2.000000000000001
 30
0.0
 11
-40.60606060606064
 21
2.000000000000007
 31
0.0
  0
LINE
  5
AC42
330
AC19
100
AcDbEntity
  8
0
100
AcDbLine
 10
-77.50000000000004
 20
0.0
 30
0.0
 11
-77.50000000000004
 21
2.000000000000001
 31
0.0
  0
LINE
  5
AC43
330
AC19
100
AcDbEntity
  8
0
100
AcDbLine
 10
-40.60606060606062
 20
0.0
 30
0.0
 11
-77.50000000000004
 21
0.0
 31
0.0
  0
ENDBLK
  5
AC1B
330
AC19
100
AcDbEntity
  8
0
100
AcDbBlockEnd
  0
BLOCK
  5
AC45
330
AC44
100
AcDbEntity
  8
0
100
AcDbBlockBegin
  2
SAE440_72_2-ISO
 70
     0
 10
0.0
 20
0.0
 30
0.0
  3
SAE440_72_2-ISO
  1

  0
LINE
  5
AC47
330
AC44
100
AcDbEntity
  8
0
100
AcDbLine
 10
55.6339768425814
 20
-53.61184949125746
 30
0.0
 11
55.38200417802649
 21
-53.75732597696667
 31
0.0
  0
SPLINE
  5
AC48
330
AC44
100
AcDbEntity
  8
0
100
AcDbSpline
210
0.0
220
0.0
230
1.0
 70
     8
 71
     3
 72
    14
 73
    10
 74
     0
 42
0.000000001
 43
0.0000000001
 40
0.0
 40
0.0
 40
0.0
 40
0.0
 40
0.3435149368861596
 40
0.3435149368861596
 40
0.3435149368861596
 40
0.7569946176809849
 40
0.7569946176809849
 40
0.7569946176809849
 40
1.0
 40
1.0
 40
1.0
 40
1.0
 10
57.47673996930998
 20
-52.58349678989961
 30
0.0
 10
57.24962468274028
 20
-52.66469390564101
 30
0.0
 10
56.96024851823183
 20
-52.68051743567534
 30
0.0
 10
56.67893805695353
 20
-52.70839071271159
 30
0.0
 10
56.34033222866566
 20
-52.74194102582495
 30
0.0
 10
56.01314556152049
 20
-52.79354630726698
 30
0.0
 10
55.8187464928716
 20
-53.01894981184648
 30
0.0
 10
55.70449657396706
 20
-53.15142129073777
 30
0.0
 10
55.63379668547901
 20
-53.31945874686683
 30
0.0
 10
55.63397684222488
 20
-53.61184948969636
 30
0.0
  0
LINE
  5
AC49
330
AC44
100
AcDbEntity
  8
0
100
AcDbLine
 10
57.0481904049545
 20
-52.33607358355786
 30
0.0
 11
57.47673996930999
 21
-52.58349678989961
 31
0.0
  0
ELLIPSE
  5
AC4A
330
AC44
100
AcDbEntity
  8
0
100
AcDbEllipse
 10
55.6339768425814
 20
-53.15257016448558
 30
0.0
 11
1.999999999999997
 21
-0.0000000000001196
 31
0.0
210
0.0
220
0.0
230
1.0
 40
0.5773502691896259
 41
0.7853981633976908
 42
2.356194490192613
  0
LINE
  5
AC4B
330
AC44
100
AcDbEntity
  8
0
100
AcDbLine
 10
54.21976328020831
 20
-54.42834607218518
 30
0.0
 11
54.21976328020831
 21
-52.33607358355786
 31
0.0
  0
LINE
  5
AC4C
330
AC44
100
AcDbEntity
  8
0
100
AcDbLine
 10
55.38200417802649
 20
-53.75732597696667
 30
0.0
 11
54.21976328020831
 21
-54.42834607218518
 31
0.0
  0
ELLIPSE
  5
AC4D
330
AC44
100
AcDbEntity
  8
0
100
AcDbEllipse
 10
-17.90512840081954
 20
-86.27171272836646
 30
0.0
 11
-2.5
 21
-0.0000000000001497
 31
0.0
210
0.0
220
0.0
230
1.0
 40
0.5773502691896258
 41
3.742856870268575
 42
5.681921090500119
  0
ELLIPSE
  5
AC4E
330
AC44
100
AcDbEntity
  8
0
100
AcDbEllipse
 10
-3.762992777088589
 20
-78.1067469190892
 30
0.0
 11
-2.5
 21
-0.0000000000001497
 31
0.0
210
0.0
220
0.0
230
1.0
 40
0.5773502691896258
 41
3.74285687026858
 42
5.681921090500121
  0
LINE
  5
AC4F
330
AC44
100
AcDbEntity
  8
0
100
AcDbLine
 10
-6.591419901834818
 20
-107.5006238324873
 30
0.0
 11
-54.67468102252002
 21
-79.7397400809447
 31
0.0
  0
LINE
  5
AC50
330
AC44
100
AcDbEntity
  8
0
100
AcDbLine
 10
3.308075034776867
 20
-23.40147599693159
 30
0.0
 11
3.30807503477688
 21
-41.36440077734156
 31
0.0
  0
LINE
  5
AC51
330
AC44
100
AcDbEntity
  8
0
100
AcDbLine
 10
18.07013989132887
 20
-51.52027605792202
 30
0.0
 11
4.722288597149968
 21
-43.81389052012472
 31
0.0
  0
LINE
  5
AC52
330
AC44
100
AcDbEntity
  8
0
100
AcDbLine
 10
-54.67468102252002
 20
-78.10674691908923
 30
0.0
 11
-6.591419901834818
 21
-105.8676306706319
 31
0.0
  0
ELLIPSE
  5
AC53
330
AC44
100
AcDbEntity
  8
0
100
AcDbEllipse
 10
-3.762992777088589
 20
-76.47375375723377
 30
0.0
 11
-2.5
 21
0.0000000000001493
 31
0.0
210
0.0
220
0.0
230
1.0
 40
0.5773502691896257
 41
0.0
 42
6.283185307179586
  0
ELLIPSE
  5
AC54
330
AC44
100
AcDbEntity
  8
0
100
AcDbEllipse
 10
-17.90512840081954
 20
-84.63871956651102
 30
0.0
 11
-2.5
 21
0.0000000000001493
 31
0.0
210
0.0
220
0.0
230
1.0
 40
0.5773502691896257
 41
0.0
 42
6.283185307179586
  0
LINE
  5
AC55
330
AC44
100
AcDbEntity
  8
0
100
AcDbLine
 10
3.308075034776867
 20
-23.40147599693159
 30
0.0
 11
3.222833128770545
 21
-23.45069043431057
 31
0.0
  0
SPLINE
  5
AC56
330
AC44
100
AcDbEntity
  8
0
100
AcDbSpline
210
0.0
220
0.0
230
1.0
 70
     8
 71
     3
 72
    11
 73
     7
 74
     0
 42
0.000000001
 43
0.0000000001
 40
-1.0
 40
-1.0
 40
-1.0
 40
-1.0
 40
-0.7994286890823445
 40
-0.7994286890823445
 40
-0.7994286890823445
 40
-0.6581413268949338
 40
-0.6581413268949338
 40
-0.6581413268949338
 40
-0.6581413268949338
 10
3.308075034776889
 20
-23.4014759969316
 30
0.0
 10
3.308716270365303
 20
-23.00686391034409
 30
0.0
 10
3.275409952312826
 20
-22.64811562190857
 30
0.0
 10
3.218438833286252
 20
-22.30677889142745
 30
0.0
 10
3.178306976485281
 20
-22.06633290717026
 30
0.0
 10
3.123856719033373
 20
-21.83649662628573
 30
0.0
 10
3.056726994084546
 20
-21.6137024110313
 30
0.0
  0
ELLIPSE
  5
AC57
330
AC44
100
AcDbEntity
  8
0
100
AcDbEllipse
 10
-0.9345656523424095
 20
-20.49270692737655
 30
0.0
 11
3.999999999999999
 21
-0.0000000000000002
 31
0.0
210
0.0
220
0.0
230
1.0
 40
0.5773502691896257
 41
6.058746940106699
 42
6.283185307179586
  0
ELLIPSE
  5
AC58
330
AC44
100
AcDbEntity
  8
0
100
AcDbEllipse
 10
-0.9345656523424095
 20
-20.49270692737655
 30
0.0
 11
3.999999999999999
 21
0.0000000000000001
 31
0.0
210
0.0
220
0.0
230
1.0
 40
0.5773502691896257
 41
5.497787143782124
 42
6.058746940106699
  0
LINE
  5
AC59
330
AC44
100
AcDbEntity
  8
0
100
AcDbLine
 10
1.893861472403779
 20
-22.12570008923201
 30
0.0
 11
1.893861472403779
 21
-22.32166428960352
 31
0.0
  0
LINE
  5
AC5A
330
AC44
100
AcDbEntity
  8
0
100
AcDbLine
 10
1.893861472403779
 20
-22.32166428960352
 30
0.0
 11
1.893861472403779
 21
-24.21797257785932
 31
0.0
  0
LINE
  5
AC5B
330
AC44
100
AcDbEntity
  8
0
100
AcDbLine
 10
3.222833128770545
 20
-23.45069043431057
 30
0.0
 11
1.893861472403779
 21
-24.21797257785932
 31
0.0
  0
SPLINE
  5
AC5C
330
AC44
100
AcDbEntity
  8
0
100
AcDbSpline
210
0.0
220
0.0
230
1.0
 70
     8
 71
     3
 72
    16
 73
    12
 74
     0
 42
0.000000001
 43
0.0000000001
 40
0.0
 40
0.0
 40
0.0
 40
0.0
 40
0.0351246664851174
 40
0.0351246664851174
 40
0.0553378244329371
 40
0.0553378244329371
 40
0.0803968549097902
 40
0.0803968549097902
 40
0.1060254099123726
 40
0.1060254099123726
 40
0.1164299434913619
 40
0.1164299434913619
 40
0.1164299434913619
 40
0.1164299434913619
 10
3.054061678024195
 20
-20.66673466979368
 30
0.0
 10
3.03886705264778
 20
-20.7828229106885
 30
0.0
 10
3.023937178202076
 20
-20.90105118425207
 30
0.0
 10
3.009084541306776
 20
-21.07841634125801
 30
0.0
 10
3.00550856965732
 20
-21.14192922679325
 30
0.0
 10
3.003264789112409
 20
-21.27302434832923
 30
0.0
 10
3.005998878449975
 20
-21.33887794952394
 30
0.0
 10
3.01786410369099
 20
-21.45431860229994
 30
0.0
 10
3.026915700900625
 20
-21.50492369587596
 30
0.0
 10
3.043759441217162
 20
-21.57377252428547
 30
0.0
 10
3.049148983726452
 20
-21.59349581296494
 30
0.0
 10
3.055258496981299
 20
-21.61379988021527
 30
0.0
  0
ELLIPSE
  5
AC5D
330
AC44
100
AcDbEntity
  8
0
100
AcDbEllipse
 10
4.722288597149977
 20
-42.18089735826928
 30
0.0
 11
1.000000000000105
 21
-1.732050807568816
 31
0.0
210
0.0
220
0.0
230
1.0
 40
0.5773502691896266
 41
3.926990816987
 42
5.497787143781893
  0
LINE
  5
AC5E
330
AC44
100
AcDbEntity
  8
0
100
AcDbLine
 10
4.722288597149968
 20
-43.81389052012472
 30
0.0
 11
-54.67468102252002
 21
-78.10674691908923
 31
0.0
  0
ELLIPSE
  5
AC5F
330
AC44
100
AcDbEntity
  8
0
100
AcDbEllipse
 10
-54.67468102252002
 20
-76.47375375723377
 30
0.0
 11
2.000000000000211
 21
-3.464101615137642
 31
0.0
210
0.0
220
0.0
230
1.0
 40
0.5773502691896259
 41
3.926990816986998
 42
5.497787143781892
  0
LINE
  5
AC60
330
AC44
100
AcDbEntity
  8
0
100
AcDbLine
 10
-56.08889458489311
 20
-75.65725717630605
 30
0.0
 11
3.30807503477688
 21
-41.36440077734156
 31
0.0
  0
LINE
  5
AC61
330
AC44
100
AcDbEntity
  8
0
100
AcDbLine
 10
-57.50310814726621
 20
-74.84076059537833
 30
0.0
 11
-56.08889458489311
 21
-75.65725717630605
 31
0.0
  0
LINE
  5
AC62
330
AC44
100
AcDbEntity
  8
0
100
AcDbLine
 10
-54.67468102252002
 20
-79.7397400809447
 30
0.0
 11
-54.67468102252002
 21
-78.10674691908923
 31
0.0
  0
ELLIPSE
  5
AC63
330
AC44
100
AcDbEntity
  8
0
100
AcDbEllipse
 10
-54.67468102252002
 20
-76.47375375723377
 30
0.0
 11
1.000000000000107
 21
-1.732050807568823
 31
0.0
210
0.0
220
0.0
230
1.0
 40
0.5773502691896258
 41
3.926990816986995
 42
5.497787143781895
  0
LINE
  5
AC64
330
AC44
100
AcDbEntity
  8
0
100
AcDbLine
 10
55.63397684258138
 20
-71.57477427166741
 30
0.0
 11
55.6339768425814
 21
-53.61184949125746
 31
0.0
  0
ELLIPSE
  5
AC65
330
AC44
100
AcDbEntity
  8
0
100
AcDbEllipse
 10
52.80554971783519
 20
-69.94178110981195
 30
0.0
 11
1.999999999999997
 21
-3.464101615137757
 31
0.0
210
0.0
220
0.0
230
1.0
 40
0.5773502691896251
 41
0.0
 42
0.7853981633974501
  0
LINE
  5
AC66
330
AC44
100
AcDbEntity
  8
0
100
AcDbLine
 10
-6.591419901834818
 20
-105.8676306706319
 30
0.0
 11
-5.177206339461717
 21
-105.0511340897041
 31
0.0
  0
LINE
  5
AC67
330
AC44
100
AcDbEntity
  8
0
100
AcDbLine
 10
55.63397684258138
 20
-71.57477427166741
 30
0.0
 11
-3.762992777088633
 21
-105.8676306706318
 31
0.0
  0
ELLIPSE
  5
AC68
330
AC44
100
AcDbEntity
  8
0
100
AcDbEllipse
 10
-6.591419901834822
 20
-104.2346375087764
 30
0.0
 11
2.000000000000005
 21
-3.464101615137761
 31
0.0
210
0.0
220
0.0
230
1.0
 40
0.5773502691896258
 41
5.497787143782137
 42
7.068583470577028
  0
LINE
  5
AC69
330
AC44
100
AcDbEntity
  8
0
100
AcDbLine
 10
83.56469469945006
 20
-42.79326979396512
 30
0.0
 11
84.97890826182315
 21
-41.97677321303739
 31
0.0
  0
LINE
  5
AC6A
330
AC44
100
AcDbEntity
  8
0
100
AcDbLine
 10
57.47673996930999
 20
-52.58349678989961
 30
0.0
 11
83.56469469945006
 21
-42.79326979396512
 31
0.0
  0
ELLIPSE
  5
AC6B
330
AC44
100
AcDbEntity
  8
0
100
AcDbEllipse
 10
71.19032602868546
 20
53.34920261027463
 30
0.0
 11
-3.25
 21
5.629165124598853
 31
0.0
210
0.0
220
0.0
230
1.0
 40
0.5773502691896258
 41
0.2193254863005959
 42
2.922267167289197
  0
ELLIPSE
  5
AC6C
330
AC44
100
AcDbEntity
  8
0
100
AcDbEllipse
 10
78.96850062173749
 20
61.10592012908803
 30
0.0
 11
1.250000000000129
 21
-2.165063509461022
 31
0.0
210
0.0
220
0.0
230
1.0
 40
0.5773502691896257
 41
3.742856870268585
 42
5.681921090500116
  0
LINE
  5
AC6D
330
AC44
100
AcDbEntity
  8
0
100
AcDbLine
 10
58.46240396732759
 20
77.02760345717869
 30
0.0
 11
84.97890826182311
 21
61.71829256478382
 31
0.0
  0
LINE
  5
AC6E
330
AC44
100
AcDbEntity
  8
0
100
AcDbLine
 10
84.97890826182315
 20
-41.97677321303739
 30
0.0
 11
84.97890826182311
 21
61.71829256478382
 31
0.0
  0
ELLIPSE
  5
AC6F
330
AC44
100
AcDbEntity
  8
0
100
AcDbEllipse
 10
55.6339768425814
 20
75.39461029532322
 30
0.0
 11
3.999999999999999
 21
-0.0000000000002381
 31
0.0
210
0.0
220
0.0
230
1.0
 40
0.5773502691896258
 41
0.7853981633976881
 42
2.356194490192585
  0
ELLIPSE
  5
AC70
330
AC44
100
AcDbEntity
  8
0
100
AcDbEllipse
 10
28.41036576689929
 20
50.69558872225954
 30
0.0
 11
1.249999999999872
 21
2.165063509461171
 31
0.0
210
0.0
220
0.0
230
1.0
 40
0.577350269189626
 41
3.742856870268578
 42
5.681921090500105
  0
ELLIPSE
  5
AC71
330
AC44
100
AcDbEntity
  8
0
100
AcDbEllipse
 10
29.82457932927239
 20
49.87909214133181
 30
0.0
 11
-1.250000000000001
 21
-2.165063509461095
 31
0.0
210
0.0
220
0.0
230
1.0
 40
0.5773502691896261
 41
0.0
 42
6.283185307179586
  0
LINE
  5
AC72
330
AC44
100
AcDbEntity
  8
0
100
AcDbLine
 10
-5.177206339461757
 20
-87.08820930929423
 30
0.0
 11
23.10706490800016
 21
-43.81389052012477
 31
0.0
  0
LINE
  5
AC73
330
AC44
100
AcDbEntity
  8
0
100
AcDbLine
 10
-3.762992777088656
 20
-87.90470589022195
 30
0.0
 11
-5.177206339461757
 21
-87.08820930929423
 31
0.0
  0
LINE
  5
AC74
330
AC44
100
AcDbEntity
  8
0
100
AcDbLine
 10
24.52127847037326
 20
-44.63038710105251
 30
0.0
 11
-3.762992777088656
 21
-87.90470589022195
 31
0.0
  0
LINE
  5
AC75
330
AC44
100
AcDbEntity
  8
0
100
AcDbLine
 10
24.52127847037326
 20
-44.63038710105251
 30
0.0
 11
23.10706490800016
 21
-43.81389052012477
 31
0.0
  0
LINE
  5
AC76
330
AC44
100
AcDbEntity
  8
0
100
AcDbLine
 10
23.10706490800016
 20
-43.81389052012477
 30
0.0
 11
23.10706490800018
 21
59.88117525769645
 31
0.0
  0
LINE
  5
AC77
330
AC44
100
AcDbEntity
  8
0
100
AcDbLine
 10
24.52127847037329
 20
59.0646786767687
 30
0.0
 11
24.52127847037326
 21
-44.63038710105251
 31
0.0
  0
LINE
  5
AC78
330
AC44
100
AcDbEntity
  8
0
100
AcDbLine
 10
23.10706490800018
 20
59.88117525769645
 30
0.0
 11
24.52127847037329
 21
59.0646786767687
 31
0.0
  0
LINE
  5
AC79
330
AC44
100
AcDbEntity
  8
0
100
AcDbLine
 10
-3.762992777088656
 20
-87.90470589022195
 30
0.0
 11
-3.762992777088629
 21
-105.8676306706318
 31
0.0
  0
LINE
  5
AC7A
330
AC44
100
AcDbEntity
  8
0
100
AcDbLine
 10
54.21976328020831
 20
-52.33607358355786
 30
0.0
 11
54.21976328020831
 21
76.21110687625097
 31
0.0
  0
LINE
  5
AC7B
330
AC44
100
AcDbEntity
  8
0
100
AcDbLine
 10
54.21976328020831
 20
76.21110687625097
 30
0.0
 11
24.52127847037329
 21
59.0646786767687
 31
0.0
  0
LINE
  5
AC7C
330
AC44
100
AcDbEntity
  8
0
100
AcDbLine
 10
23.10706490800018
 20
59.88117525769645
 30
0.0
 11
52.8055497178352
 21
77.02760345717869
 31
0.0
  0
LINE
  5
AC7D
330
AC44
100
AcDbEntity
  8
0
100
AcDbLine
 10
-5.177206339461726
 20
-105.0511340897041
 30
0.0
 11
-5.177206339461757
 21
-87.08820930929423
 31
0.0
  0
LINE
  5
AC7E
330
AC44
100
AcDbEntity
  8
0
100
AcDbLine
 10
-6.591419901834818
 20
-105.8676306706319
 30
0.0
 11
-6.591419901834818
 21
-107.5006238324873
 31
0.0
  0
LINE
  5
AC7F
330
AC44
100
AcDbEntity
  8
0
100
AcDbLine
 10
-5.177206339461726
 20
-105.0511340897041
 30
0.0
 11
-3.762992777088629
 21
-105.8676306706318
 31
0.0
  0
ELLIPSE
  5
AC80
330
AC44
100
AcDbEntity
  8
0
100
AcDbEllipse
 10
-6.591419901834822
 20
-104.2346375087764
 30
0.0
 11
1.000000000000003
 21
-1.732050807568882
 31
0.0
210
0.0
220
0.0
230
1.0
 40
0.5773502691896259
 41
5.497787143782131
 42
7.068583470577029
  0
LINE
  5
AC81
330
AC44
100
AcDbEntity
  8
0
100
AcDbLine
 10
57.0481904049545
 20
-52.33607358355786
 30
0.0
 11
57.04819040495448
 21
76.21110687625097
 31
0.0
  0
ELLIPSE
  5
AC82
330
AC44
100
AcDbEntity
  8
0
100
AcDbEllipse
 10
55.6339768425814
 20
75.39461029532322
 30
0.0
 11
-1.999999999999997
 21
-0.0000000000001193
 31
0.0
210
0.0
220
0.0
230
1.0
 40
0.5773502691896257
 41
3.926990816986998
 42
5.497787143781891
  0
LINE
  5
AC83
330
AC44
100
AcDbEntity
  8
0
100
AcDbLine
 10
84.97890826182311
 20
61.71829256478382
 30
0.0
 11
83.56469469945002
 21
60.90179598385609
 31
0.0
  0
LINE
  5
AC84
330
AC44
100
AcDbEntity
  8
0
100
AcDbLine
 10
83.56469469945006
 20
-42.79326979396512
 30
0.0
 11
83.56469469945002
 21
60.9017959838561
 31
0.0
  0
LINE
  5
AC85
330
AC44
100
AcDbEntity
  8
0
100
AcDbLine
 10
54.21976328020831
 20
76.21110687625097
 30
0.0
 11
52.8055497178352
 21
77.02760345717869
 31
0.0
  0
LINE
  5
AC86
330
AC44
100
AcDbEntity
  8
0
100
AcDbLine
 10
57.04819040495448
 20
76.21110687625097
 30
0.0
 11
58.46240396732759
 21
77.02760345717869
 31
0.0
  0
LINE
  5
AC87
330
AC44
100
AcDbEntity
  8
0
100
AcDbLine
 10
83.56469469945002
 20
60.90179598385609
 30
0.0
 11
57.04819040495448
 21
76.21110687625097
 31
0.0
  0
ELLIPSE
  5
AC88
330
AC44
100
AcDbEntity
  8
0
100
AcDbEllipse
 10
69.77611246631237
 20
52.53270602934691
 30
0.0
 11
-3.25
 21
5.62916512459885
 31
0.0
210
0.0
220
0.0
230
1.0
 40
0.5773502691896258
 41
0.0
 42
6.283185307179586
  0
ELLIPSE
  5
AC89
330
AC44
100
AcDbEntity
  8
0
100
AcDbEllipse
 10
77.5542870593644
 20
60.28942354816031
 30
0.0
 11
-1.25
 21
2.165063509461096
 31
0.0
210
0.0
220
0.0
230
1.0
 40
0.5773502691896258
 41
0.0
 42
6.283185307179586
  0
LINE
  5
AC8A
330
AC44
100
AcDbEntity
  8
0
100
AcDbLine
 10
-4.591419901834821
 20
-107.6987391239142
 30
0.0
 11
54.8055497178352
 21
-73.4058827249497
 31
0.0
  0
ELLIPSE
  5
AC8B
330
AC44
100
AcDbEntity
  8
0
100
AcDbEllipse
 10
71.19032602868546
 20
-28.30045548249796
 30
0.0
 11
-3.25
 21
5.62916512459885
 31
0.0
210
0.0
220
0.0
230
1.0
 40
0.5773502691896258
 41
0.2193254863005913
 42
2.922267167289199
  0
ELLIPSE
  5
AC8C
330
AC44
100
AcDbEntity
  8
0
100
AcDbEllipse
 10
69.77611246631237
 20
-29.11695206342568
 30
0.0
 11
-3.25
 21
5.62916512459885
 31
0.0
210
0.0
220
0.0
230
1.0
 40
0.5773502691896258
 41
0.0
 42
6.283185307179586
  0
ELLIPSE
  5
AC8D
330
AC44
100
AcDbEntity
  8
0
100
AcDbEllipse
 10
63.41215143563342
 20
-36.05717300131136
 30
0.0
 11
1.250000000000129
 21
-2.165063509461022
 31
0.0
210
0.0
220
0.0
230
1.0
 40
0.5773502691896258
 41
3.74285687026858
 42
5.681921090500121
  0
ELLIPSE
  5
AC8E
330
AC44
100
AcDbEntity
  8
0
100
AcDbEllipse
 10
63.41215143563342
 20
-19.72724138275683
 30
0.0
 11
1.250000000000129
 21
-2.165063509461022
 31
0.0
210
0.0
220
0.0
230
1.0
 40
0.5773502691896258
 41
3.742856870268578
 42
5.681921090500121
  0
ELLIPSE
  5
AC8F
330
AC44
100
AcDbEntity
  8
0
100
AcDbEllipse
 10
63.41215143563342
 20
-3.397309764202312
 30
0.0
 11
1.250000000000129
 21
-2.165063509461022
 31
0.0
210
0.0
220
0.0
230
1.0
 40
0.5773502691896258
 41
3.742856870268576
 42
5.681921090500121
  0
ELLIPSE
  5
AC90
330
AC44
100
AcDbEntity
  8
0
100
AcDbEllipse
 10
63.41215143563342
 20
12.9326218543522
 30
0.0
 11
1.250000000000129
 21
-2.165063509461022
 31
0.0
210
0.0
220
0.0
230
1.0
 40
0.5773502691896258
 41
3.742856870268578
 42
5.681921090500121
  0
ELLIPSE
  5
AC91
330
AC44
100
AcDbEntity
  8
0
100
AcDbEllipse
 10
63.41215143563342
 20
29.26255347290674
 30
0.0
 11
1.250000000000129
 21
-2.165063509461022
 31
0.0
210
0.0
220
0.0
230
1.0
 40
0.5773502691896258
 41
3.74285687026858
 42
5.681921090500121
  0
ELLIPSE
  5
AC92
330
AC44
100
AcDbEntity
  8
0
100
AcDbEllipse
 10
63.41215143563342
 20
45.59248509146124
 30
0.0
 11
1.250000000000129
 21
-2.165063509461022
 31
0.0
210
0.0
220
0.0
230
1.0
 40
0.5773502691896258
 41
3.74285687026858
 42
5.681921090500122
  0
ELLIPSE
  5
AC93
330
AC44
100
AcDbEntity
  8
0
100
AcDbEllipse
 10
61.99793787326033
 20
-36.87366958223908
 30
0.0
 11
-1.25
 21
2.165063509461096
 31
0.0
210
0.0
220
0.0
230
1.0
 40
0.5773502691896258
 41
0.0
 42
6.283185307179586
  0
ELLIPSE
  5
AC94
330
AC44
100
AcDbEntity
  8
0
100
AcDbEllipse
 10
61.99793787326033
 20
-20.54373796368456
 30
0.0
 11
-1.25
 21
2.165063509461096
 31
0.0
210
0.0
220
0.0
230
1.0
 40
0.5773502691896258
 41
0.0
 42
6.283185307179586
  0
ELLIPSE
  5
AC95
330
AC44
100
AcDbEntity
  8
0
100
AcDbEllipse
 10
61.99793787326033
 20
-4.213806345130031
 30
0.0
 11
-1.25
 21
2.165063509461096
 31
0.0
210
0.0
220
0.0
230
1.0
 40
0.5773502691896258
 41
0.0
 42
6.283185307179586
  0
ELLIPSE
  5
AC96
330
AC44
100
AcDbEntity
  8
0
100
AcDbEllipse
 10
61.99793787326033
 20
12.11612527342448
 30
0.0
 11
-1.25
 21
2.165063509461096
 31
0.0
210
0.0
220
0.0
230
1.0
 40
0.5773502691896258
 41
0.0
 42
6.283185307179586
  0
ELLIPSE
  5
AC97
330
AC44
100
AcDbEntity
  8
0
100
AcDbEllipse
 10
61.99793787326033
 20
28.44605689197902
 30
0.0
 11
-1.25
 21
2.165063509461096
 31
0.0
210
0.0
220
0.0
230
1.0
 40
0.5773502691896258
 41
0.0
 42
6.283185307179586
  0
ELLIPSE
  5
AC98
330
AC44
100
AcDbEntity
  8
0
100
AcDbEllipse
 10
61.99793787326033
 20
44.7759885105335
 30
0.0
 11
-1.25
 21
2.165063509461096
 31
0.0
210
0.0
220
0.0
230
1.0
 40
0.5773502691896258
 41
0.0
 42
6.283185307179586
  0
ELLIPSE
  5
AC99
330
AC44
100
AcDbEntity
  8
0
100
AcDbEllipse
 10
63.41215143563342
 20
61.92241671001577
 30
0.0
 11
1.250000000000129
 21
-2.165063509461022
 31
0.0
210
0.0
220
0.0
230
1.0
 40
0.5773502691896257
 41
3.742856870268585
 42
5.681921090500116
  0
ELLIPSE
  5
AC9A
330
AC44
100
AcDbEntity
  8
0
100
AcDbEllipse
 10
61.99793787326033
 20
61.10592012908803
 30
0.0
 11
-1.25
 21
2.165063509461096
 31
0.0
210
0.0
220
0.0
230
1.0
 40
0.5773502691896258
 41
0.0
 42
6.283185307179586
  0
ELLIPSE
  5
AC9B
330
AC44
100
AcDbEntity
  8
0
100
AcDbEllipse
 10
78.96850062173749
 20
-36.87366958223908
 30
0.0
 11
1.250000000000129
 21
-2.165063509461022
 31
0.0
210
0.0
220
0.0
230
1.0
 40
0.5773502691896258
 41
3.742856870268576
 42
5.681921090500121
  0
ELLIPSE
  5
AC9C
330
AC44
100
AcDbEntity
  8
0
100
AcDbEllipse
 10
78.96850062173749
 20
-20.54373796368456
 30
0.0
 11
1.250000000000129
 21
-2.165063509461022
 31
0.0
210
0.0
220
0.0
230
1.0
 40
0.5773502691896258
 41
3.742856870268578
 42
5.681921090500121
  0
ELLIPSE
  5
AC9D
330
AC44
100
AcDbEntity
  8
0
100
AcDbEllipse
 10
78.96850062173749
 20
-4.213806345130048
 30
0.0
 11
1.250000000000129
 21
-2.165063509461022
 31
0.0
210
0.0
220
0.0
230
1.0
 40
0.5773502691896258
 41
3.742856870268576
 42
5.681921090500121
  0
ELLIPSE
  5
AC9E
330
AC44
100
AcDbEntity
  8
0
100
AcDbEllipse
 10
78.96850062173749
 20
12.11612527342447
 30
0.0
 11
1.250000000000129
 21
-2.165063509461022
 31
0.0
210
0.0
220
0.0
230
1.0
 40
0.5773502691896258
 41
3.742856870268578
 42
5.681921090500121
  0
ELLIPSE
  5
AC9F
330
AC44
100
AcDbEntity
  8
0
100
AcDbEllipse
 10
78.96850062173749
 20
28.44605689197898
 30
0.0
 11
1.250000000000129
 21
-2.165063509461022
 31
0.0
210
0.0
220
0.0
230
1.0
 40
0.5773502691896258
 41
3.74285687026858
 42
5.681921090500121
  0
ELLIPSE
  5
ACA0
330
AC44
100
AcDbEntity
  8
0
100
AcDbEllipse
 10
78.96850062173749
 20
44.7759885105335
 30
0.0
 11
1.250000000000129
 21
-2.165063509461022
 31
0.0
210
0.0
220
0.0
230
1.0
 40
0.5773502691896258
 41
3.74285687026858
 42
5.681921090500122
  0
ELLIPSE
  5
ACA1
330
AC44
100
AcDbEntity
  8
0
100
AcDbEllipse
 10
-20.0264487443792
 20
100.2977560136189
 30
0.0
 11
1.25
 21
-2.165063509461096
 31
0.0
210
0.0
220
0.0
230
0.9999999999999998
 40
0.577350269189626
 41
0.0
 42
6.283185307179586
  0
ELLIPSE
  5
ACA2
330
AC44
100
AcDbEntity
  8
0
100
AcDbEllipse
 10
-18.61223518200611
 20
101.1142525945466
 30
0.0
 11
1.250000000000129
 21
-2.165063509461021
 31
0.0
210
0.0
220
0.0
230
1.0
 40
0.577350269189626
 41
3.742856870268578
 42
5.681921090500116
  0
ELLIPSE
  5
ACA3
330
AC44
100
AcDbEntity
  8
0
100
AcDbEllipse
 10
77.5542870593644
 20
-37.6901661631668
 30
0.0
 11
-1.25
 21
2.165063509461096
 31
0.0
210
0.0
220
0.0
230
1.0
 40
0.5773502691896258
 41
0.0
 42
6.283185307179586
  0
ELLIPSE
  5
ACA4
330
AC44
100
AcDbEntity
  8
0
100
AcDbEllipse
 10
77.5542870593644
 20
-21.36023454461228
 30
0.0
 11
-1.25
 21
2.165063509461096
 31
0.0
210
0.0
220
0.0
230
1.0
 40
0.5773502691896258
 41
0.0
 42
6.283185307179586
  0
ELLIPSE
  5
ACA5
330
AC44
100
AcDbEntity
  8
0
100
AcDbEllipse
 10
77.5542870593644
 20
-5.030302926057768
 30
0.0
 11
-1.25
 21
2.165063509461096
 31
0.0
210
0.0
220
0.0
230
1.0
 40
0.5773502691896258
 41
0.0
 42
6.283185307179586
  0
ELLIPSE
  5
ACA6
330
AC44
100
AcDbEntity
  8
0
100
AcDbEllipse
 10
77.5542870593644
 20
11.29962869249675
 30
0.0
 11
-1.25
 21
2.165063509461096
 31
0.0
210
0.0
220
0.0
230
1.0
 40
0.5773502691896258
 41
0.0
 42
6.283185307179586
  0
ELLIPSE
  5
ACA7
330
AC44
100
AcDbEntity
  8
0
100
AcDbEllipse
 10
77.5542870593644
 20
27.62956031105126
 30
0.0
 11
-1.25
 21
2.165063509461096
 31
0.0
210
0.0
220
0.0
230
1.0
 40
0.5773502691896258
 41
0.0
 42
6.283185307179586
  0
ELLIPSE
  5
ACA8
330
AC44
100
AcDbEntity
  8
0
100
AcDbEllipse
 10
77.5542870593644
 20
43.95949192960578
 30
0.0
 11
-1.25
 21
2.165063509461096
 31
0.0
210
0.0
220
0.0
230
1.0
 40
0.5773502691896258
 41
0.0
 42
6.283185307179586
  0
ELLIPSE
  5
ACA9
330
AC44
100
AcDbEntity
  8
0
100
AcDbEllipse
 10
-12.24827415132718
 20
99.88950772315504
 30
0.0
 11
-3.250000000000007
 21
5.629165124598846
 31
0.0
210
0.0
220
0.0
230
1.0
 40
0.577350269189626
 41
4.712388980384689
 42
7.853981633974483
  0
ELLIPSE
  5
ACAA
330
AC44
100
AcDbEntity
  8
0
100
AcDbEllipse
 10
-10.83406058895408
 20
100.7060043040827
 30
0.0
 11
-3.250000000000002
 21
5.62916512459885
 31
0.0
210
0.0
220
0.0
230
1.0
 40
0.5773502691896259
 41
0.219325486300593
 42
1.570796326794897
  0
ELLIPSE
  5
ACAB
330
AC44
100
AcDbEntity
  8
0
100
AcDbEllipse
 10
-20.0264487443792
 20
116.6276876321734
 30
0.0
 11
1.25
 21
-2.165063509461096
 31
0.0
210
0.0
220
0.0
230
0.9999999999999998
 40
0.577350269189626
 41
0.0
 42
6.283185307179586
  0
ELLIPSE
  5
ACAC
330
AC44
100
AcDbEntity
  8
0
100
AcDbEllipse
 10
-18.61223518200611
 20
117.4441842131011
 30
0.0
 11
1.250000000000129
 21
-2.165063509461021
 31
0.0
210
0.0
220
0.0
230
1.0
 40
0.5773502691896259
 41
3.742856870268589
 42
5.681921090500121
  0
LINE
  5
ACAD
330
AC44
100
AcDbEntity
  8
0
100
AcDbLine
 10
0.4796479100306828
 20
107.2379769515045
 30
0.0
 11
0.4796479100306872
 21
108.87097011336
 31
0.0
  0
ELLIPSE
  5
ACAE
330
AC44
100
AcDbEntity
  8
0
100
AcDbEllipse
 10
-0.9345656523424095
 20
108.0544735324322
 30
0.0
 11
1.999999999999997
 21
0.0000000000000001
 31
0.0
210
0.0
220
0.0
230
1.0
 40
0.5773502691896258
 41
5.497787143782139
 42
7.068583470577028
  0
LINE
  5
ACAF
330
AC44
100
AcDbEntity
  8
0
100
AcDbLine
 10
1.893861472403779
 20
106.4214803705768
 30
0.0
 11
1.893861472403779
 21
-22.12570008923201
 31
0.0
  0
ELLIPSE
  5
ACB0
330
AC44
100
AcDbEntity
  8
0
100
AcDbEllipse
 10
-0.9345656523424095
 20
108.0544735324322
 30
0.0
 11
3.999999999999999
 21
-0.0000000000000001
 31
0.0
210
0.0
220
0.0
230
1.0
 40
0.5773502691896257
 41
5.497787143782135
 42
7.068583470577028
  0
LINE
  5
ACB1
330
AC44
100
AcDbEntity
  8
0
100
AcDbLine
 10
0.4796479100306872
 20
108.87097011336
 30
0.0
 11
1.893861472403783
 21
109.6874666942877
 31
0.0
  0
LINE
  5
ACB2
330
AC44
100
AcDbEntity
  8
0
100
AcDbLine
 10
0.4796479100306828
 20
107.2379769515045
 30
0.0
 11
1.893861472403779
 21
106.4214803705768
 31
0.0
  0
LINE
  5
ACB3
330
AC44
100
AcDbEntity
  8
0
100
AcDbLine
 10
3.065434347657589
 20
-20.49270692737654
 30
0.0
 11
3.065434347657589
 21
108.0544735324322
 31
0.0
  0
LINE
  5
ACB4
330
AC44
100
AcDbEntity
  8
0
100
AcDbLine
 10
-26.03685638446487
 20
124.1802810057548
 30
0.0
 11
0.4796479100306872
 21
108.87097011336
 31
0.0
  0
LINE
  5
ACB5
330
AC44
100
AcDbEntity
  8
0
100
AcDbLine
 10
-26.03685638446487
 20
91.92866605910964
 30
0.0
 11
-26.03685638446487
 21
124.1802810057548
 31
0.0
  0
LINE
  5
ACB6
330
AC44
100
AcDbEntity
  8
0
100
AcDbLine
 10
-56.08889458489311
 20
-75.65725717630605
 30
0.0
 11
-56.08889458489314
 21
-57.69433239589611
 31
0.0
  0
LINE
  5
ACB7
330
AC44
100
AcDbEntity
  8
0
100
AcDbLine
 10
-27.80462333743121
 20
89.27505217109455
 30
0.0
 11
1.893861472403779
 21
106.4214803705768
 31
0.0
  0
LINE
  5
ACB8
330
AC44
100
AcDbEntity
  8
0
100
AcDbLine
 10
-57.50310814726624
 20
-56.87783581496837
 30
0.0
 11
-57.50310814726621
 21
-74.84076059537833
 31
0.0
  0
LINE
  5
ACB9
330
AC44
100
AcDbEntity
  8
0
100
AcDbLine
 10
0.4796479100306828
 20
107.2379769515045
 30
0.0
 11
-29.21883689980431
 21
90.09154875202229
 31
0.0
  0
LINE
  5
ACBA
330
AC44
100
AcDbEntity
  8
0
100
AcDbLine
 10
1.893861472403783
 20
109.6874666942877
 30
0.0
 11
-24.62264282209176
 21
124.9967775866826
 31
0.0
  0
LINE
  5
ACBB
330
AC44
100
AcDbEntity
  8
0
100
AcDbLine
 10
-24.62264282209176
 20
124.9967775866826
 30
0.0
 11
-26.03685638446487
 21
124.1802810057548
 31
0.0
  0
ELLIPSE
  5
ACBC
330
AC44
100
AcDbEntity
  8
0
100
AcDbEllipse
 10
28.41036576689929
 20
-47.28400098906758
 30
0.0
 11
1.249999999999872
 21
2.165063509461171
 31
0.0
210
0.0
220
0.0
230
1.0
 40
0.577350269189626
 41
3.742856870268578
 42
5.681921090500119
  0
ELLIPSE
  5
ACBD
330
AC44
100
AcDbEntity
  8
0
100
AcDbEllipse
 10
29.82457932927239
 20
-48.10049756999531
 30
0.0
 11
-1.250000000000001
 21
-2.165063509461095
 31
0.0
210
0.0
220
0.0
230
1.0
 40
0.5773502691896261
 41
0.0
 42
6.283185307179586
  0
ELLIPSE
  5
ACBE
330
AC44
100
AcDbEntity
  8
0
100
AcDbEllipse
 10
28.41036576689929
 20
-30.95406937051306
 30
0.0
 11
1.249999999999872
 21
2.165063509461171
 31
0.0
210
0.0
220
0.0
230
1.0
 40
0.577350269189626
 41
3.74285687026858
 42
5.681921090500119
  0
ELLIPSE
  5
ACBF
330
AC44
100
AcDbEntity
  8
0
100
AcDbEllipse
 10
29.82457932927239
 20
-31.7705659514408
 30
0.0
 11
-1.250000000000001
 21
-2.165063509461095
 31
0.0
210
0.0
220
0.0
230
1.0
 40
0.5773502691896261
 41
0.0
 42
6.283185307179586
  0
ELLIPSE
  5
ACC0
330
AC44
100
AcDbEntity
  8
0
100
AcDbEllipse
 10
28.41036576689929
 20
-14.62413775195854
 30
0.0
 11
1.249999999999872
 21
2.165063509461171
 31
0.0
210
0.0
220
0.0
230
1.0
 40
0.577350269189626
 41
3.74285687026858
 42
5.681921090500119
  0
ELLIPSE
  5
ACC1
330
AC44
100
AcDbEntity
  8
0
100
AcDbEllipse
 10
29.82457932927239
 20
-15.44063433288626
 30
0.0
 11
-1.250000000000001
 21
-2.165063509461095
 31
0.0
210
0.0
220
0.0
230
1.0
 40
0.5773502691896261
 41
0.0
 42
6.283185307179586
  0
ELLIPSE
  5
ACC2
330
AC44
100
AcDbEntity
  8
0
100
AcDbEllipse
 10
28.41036576689929
 20
1.705793866595977
 30
0.0
 11
1.249999999999872
 21
2.165063509461171
 31
0.0
210
0.0
220
0.0
230
1.0
 40
0.577350269189626
 41
3.742856870268578
 42
5.68192109050012
  0
ELLIPSE
  5
ACC3
330
AC44
100
AcDbEntity
  8
0
100
AcDbEllipse
 10
29.82457932927239
 20
0.889297285668249
 30
0.0
 11
-1.250000000000001
 21
-2.165063509461095
 31
0.0
210
0.0
220
0.0
230
1.0
 40
0.5773502691896261
 41
0.0
 42
6.283185307179586
  0
ELLIPSE
  5
ACC4
330
AC44
100
AcDbEntity
  8
0
100
AcDbEllipse
 10
28.41036576689929
 20
18.0357254851505
 30
0.0
 11
1.249999999999872
 21
2.165063509461171
 31
0.0
210
0.0
220
0.0
230
1.0
 40
0.577350269189626
 41
3.74285687026858
 42
5.681921090500119
  0
ELLIPSE
  5
ACC5
330
AC44
100
AcDbEntity
  8
0
100
AcDbEllipse
 10
29.82457932927239
 20
17.21922890422277
 30
0.0
 11
-1.250000000000001
 21
-2.165063509461095
 31
0.0
210
0.0
220
0.0
230
1.0
 40
0.5773502691896261
 41
0.0
 42
6.283185307179586
  0
ELLIPSE
  5
ACC6
330
AC44
100
AcDbEntity
  8
0
100
AcDbEllipse
 10
28.41036576689929
 20
34.36565710370502
 30
0.0
 11
1.249999999999872
 21
2.165063509461171
 31
0.0
210
0.0
220
0.0
230
1.0
 40
0.577350269189626
 41
3.74285687026858
 42
5.681921090500119
  0
ELLIPSE
  5
ACC7
330
AC44
100
AcDbEntity
  8
0
100
AcDbEllipse
 10
29.82457932927239
 20
33.54916052277729
 30
0.0
 11
-1.250000000000001
 21
-2.165063509461095
 31
0.0
210
0.0
220
0.0
230
1.0
 40
0.5773502691896261
 41
0.0
 42
6.283185307179586
  0
ELLIPSE
  5
ACC8
330
AC44
100
AcDbEntity
  8
0
100
AcDbEllipse
 10
-23.91553604090521
 20
-25.23859330401898
 30
0.0
 11
1.249999999999871
 21
2.165063509461171
 31
0.0
210
0.0
220
0.0
230
1.0
 40
0.5773502691896257
 41
3.742856870268578
 42
5.681921090500114
  0
ELLIPSE
  5
ACC9
330
AC44
100
AcDbEntity
  8
0
100
AcDbEllipse
 10
-22.50132247853211
 20
-26.0550898849467
 30
0.0
 11
1.249999999999999
 21
2.165063509461096
 31
0.0
210
0.0
220
0.0
230
1.0
 40
0.5773502691896258
 41
0.0
 42
6.283185307179586
  0
ELLIPSE
  5
ACCA
330
AC44
100
AcDbEntity
  8
0
100
AcDbEllipse
 10
-23.91553604090521
 20
-8.90866168546446
 30
0.0
 11
1.249999999999871
 21
2.165063509461171
 31
0.0
210
0.0
220
0.0
230
1.0
 40
0.5773502691896257
 41
3.742856870268578
 42
5.681921090500114
  0
ELLIPSE
  5
ACCB
330
AC44
100
AcDbEntity
  8
0
100
AcDbEllipse
 10
-22.50132247853211
 20
-9.725158266392188
 30
0.0
 11
1.249999999999999
 21
2.165063509461096
 31
0.0
210
0.0
220
0.0
230
1.0
 40
0.5773502691896258
 41
0.0
 42
6.283185307179586
  0
ELLIPSE
  5
ACCC
330
AC44
100
AcDbEntity
  8
0
100
AcDbEllipse
 10
-23.91553604090521
 20
7.421269933090055
 30
0.0
 11
1.249999999999871
 21
2.165063509461171
 31
0.0
210
0.0
220
0.0
230
1.0
 40
0.5773502691896257
 41
3.742856870268578
 42
5.681921090500114
  0
ELLIPSE
  5
ACCD
330
AC44
100
AcDbEntity
  8
0
100
AcDbEllipse
 10
-22.50132247853211
 20
6.604773352162327
 30
0.0
 11
1.249999999999999
 21
2.165063509461096
 31
0.0
210
0.0
220
0.0
230
1.0
 40
0.5773502691896258
 41
0.0
 42
6.283185307179586
  0
ELLIPSE
  5
ACCE
330
AC44
100
AcDbEntity
  8
0
100
AcDbEllipse
 10
-23.91553604090521
 20
23.75120155164458
 30
0.0
 11
1.249999999999871
 21
2.165063509461171
 31
0.0
210
0.0
220
0.0
230
1.0
 40
0.5773502691896257
 41
3.742856870268578
 42
5.681921090500118
  0
ELLIPSE
  5
ACCF
330
AC44
100
AcDbEntity
  8
0
100
AcDbEllipse
 10
-22.50132247853211
 20
22.93470497071684
 30
0.0
 11
1.249999999999999
 21
2.165063509461096
 31
0.0
210
0.0
220
0.0
230
1.0
 40
0.5773502691896258
 41
0.0
 42
6.283185307179586
  0
ELLIPSE
  5
ACD0
330
AC44
100
AcDbEntity
  8
0
100
AcDbEllipse
 10
-23.91553604090521
 20
40.08113317019911
 30
0.0
 11
1.249999999999871
 21
2.165063509461171
 31
0.0
210
0.0
220
0.0
230
1.0
 40
0.5773502691896257
 41
3.742856870268578
 42
5.681921090500118
  0
ELLIPSE
  5
ACD1
330
AC44
100
AcDbEntity
  8
0
100
AcDbEllipse
 10
-22.50132247853211
 20
39.26463658927137
 30
0.0
 11
1.249999999999999
 21
2.165063509461096
 31
0.0
210
0.0
220
0.0
230
1.0
 40
0.5773502691896258
 41
0.0
 42
6.283185307179586
  0
ELLIPSE
  5
ACD2
330
AC44
100
AcDbEntity
  8
0
100
AcDbEllipse
 10
-23.91553604090521
 20
56.41106478875361
 30
0.0
 11
1.249999999999871
 21
2.165063509461171
 31
0.0
210
0.0
220
0.0
230
1.0
 40
0.5773502691896257
 41
3.742856870268578
 42
5.681921090500118
  0
ELLIPSE
  5
ACD3
330
AC44
100
AcDbEntity
  8
0
100
AcDbEllipse
 10
-22.50132247853211
 20
55.59456820782587
 30
0.0
 11
1.249999999999999
 21
2.165063509461096
 31
0.0
210
0.0
220
0.0
230
1.0
 40
0.5773502691896258
 41
0.0
 42
6.283185307179586
  0
ELLIPSE
  5
ACD4
330
AC44
100
AcDbEntity
  8
0
100
AcDbEllipse
 10
-23.91553604090521
 20
72.74099640730813
 30
0.0
 11
1.249999999999871
 21
2.165063509461171
 31
0.0
210
0.0
220
0.0
230
1.0
 40
0.5773502691896257
 41
3.742856870268578
 42
5.681921090500118
  0
ELLIPSE
  5
ACD5
330
AC44
100
AcDbEntity
  8
0
100
AcDbEllipse
 10
-22.50132247853211
 20
71.9244998263804
 30
0.0
 11
1.249999999999999
 21
2.165063509461096
 31
0.0
210
0.0
220
0.0
230
1.0
 40
0.5773502691896258
 41
0.0
 42
6.283185307179586
  0
ELLIPSE
  5
ACD6
330
AC44
100
AcDbEntity
  8
0
100
AcDbEllipse
 10
-23.91553604090521
 20
89.07092802586266
 30
0.0
 11
1.249999999999871
 21
2.165063509461171
 31
0.0
210
0.0
220
0.0
230
1.0
 40
0.5773502691896257
 41
3.74285687026858
 42
5.681921090500104
  0
ELLIPSE
  5
ACD7
330
AC44
100
AcDbEntity
  8
0
100
AcDbEllipse
 10
-22.50132247853211
 20
88.25443144493492
 30
0.0
 11
1.249999999999999
 21
2.165063509461096
 31
0.0
210
0.0
220
0.0
230
1.0
 40
0.5773502691896258
 41
0.0
 42
6.283185307179586
  0
LINE
  5
ACD8
330
AC44
100
AcDbEntity
  8
0
100
AcDbLine
 10
-27.80462333743124
 20
-14.42001360672664
 30
0.0
 11
-56.08889458489314
 21
-57.69433239589611
 31
0.0
  0
LINE
  5
ACD9
330
AC44
100
AcDbEntity
  8
0
100
AcDbLine
 10
-29.21883689980434
 20
-13.60351702579891
 30
0.0
 11
-27.80462333743124
 21
-14.42001360672664
 31
0.0
  0
LINE
  5
ACDA
330
AC44
100
AcDbEntity
  8
0
100
AcDbLine
 10
-57.50310814726624
 20
-56.87783581496837
 30
0.0
 11
-29.21883689980434
 21
-13.60351702579891
 31
0.0
  0
LINE
  5
ACDB
330
AC44
100
AcDbEntity
  8
0
100
AcDbLine
 10
-56.08889458489314
 20
-57.69433239589611
 30
0.0
 11
-57.50310814726624
 21
-56.87783581496837
 31
0.0
  0
LINE
  5
ACDC
330
AC44
100
AcDbEntity
  8
0
100
AcDbLine
 10
-27.80462333743121
 20
89.27505217109455
 30
0.0
 11
-27.80462333743124
 21
-14.42001360672664
 31
0.0
  0
LINE
  5
ACDD
330
AC44
100
AcDbEntity
  8
0
100
AcDbLine
 10
-29.21883689980431
 20
90.09154875202229
 30
0.0
 11
-27.80462333743121
 21
89.27505217109455
 31
0.0
  0
LINE
  5
ACDE
330
AC44
100
AcDbEntity
  8
0
100
AcDbLine
 10
-29.21883689980434
 20
-13.60351702579891
 30
0.0
 11
-29.21883689980431
 21
90.09154875202231
 31
0.0
  0
ENDBLK
  5
AC46
330
AC44
100
AcDbEntity
  8
0
100
AcDbBlockEnd
  0
ENDSEC
  0
SECTION
  2
ENTITIES
  0
INSERT
  5
ACDF
330
1F
100
AcDbEntity
  8
0
100
AcDbBlockReference
  2
SAE440_72_2-Front
 10
0.0
 20
0.0
 30
0.0
  0
INSERT
  5
ACE0
330
1F
100
AcDbEntity
  8
0
100
AcDbBlockReference
  2
SAE440_72_2-Left
 10
133.3
 20
0.0
 30
0.0
  0
INSERT
  5
ACE1
330
1F
100
AcDbEntity
  8
0
100
AcDbBlockReference
  2
SAE440_72_2-Right
 10
-133.3
 20
0.0
 30
0.0
  0
INSERT
  5
ACE2
330
1F
100
AcDbEntity
  8
0
100
AcDbBlockReference
  2
SAE440_72_2-Top
 10
0.0
 20
-57.80000000000001
 30
0.0
  0
INSERT
  5
ACE3
330
1F
100
AcDbEntity
  8
0
100
AcDbBlockReference
  2
SAE440_72_2-Bottom
 10
0.0
 20
239.8
 30
0.0
  0
INSERT
  5
ACE4
330
1F
100
AcDbEntity
  8
0
100
AcDbBlockReference
  2
SAE440_72_2-ISO
 10
190.8031081472664
 20
-182.7967775866826
 30
0.0
  0
MTEXT
  5
ACE5
330
1F
100
AcDbEntity
  8
0
100
AcDbMText
 10
0.0
 20
-199.6000000000001
 30
0.0
 40
16.6625
 41
0.0
 71
     5
 72
     5
  1
SAE440/72/2
 73
     1
 44
1.0
1001
ACAD
1000
MTEXTBEGIN
1070
    73
1070
     1
1070
    44
1040
1.0
1070
    74
1070
     0
1000
MTEXTEND
  0
ENDSEC
  0
SECTION
  2
OBJECTS
  0
DICTIONARY
  5
C
330
0
100
AcDbDictionary
281
     1
  3
ACAD_CIP_PREVIOUS_PRODUCT_INFO
350
216
  3
ACAD_COLOR
350
6B
  3
ACAD_DETAILVIEWSTYLE
350
21B
  3
ACAD_GROUP
350
D
  3
ACAD_LAYOUT
350
1A
  3
ACAD_MATERIAL
350
6A
  3
ACAD_MLEADERSTYLE
350
12D
  3
ACAD_MLINESTYLE
350
17
  3
ACAD_PLOTSETTINGS
350
19
  3
ACAD_PLOTSTYLENAME
350
E
  3
ACAD_SCALELIST
350
10C
  3
ACAD_SECTIONVIEWSTYLE
350
219
  3
ACAD_TABLESTYLE
350
7E
  3
ACAD_VISUALSTYLE
350
EF
  3
ACDB_RECOMPOSE_DATA
350
ADE6
  3
AcDbVariableDictionary
350
5E
  3
DWGPROPS
350
ADE7
  0
DICTIONARY
  5
AD36
330
8
100
AcDbDictionary
280
     1
281
     1
  0
DICTIONARY
  5
1FF
330
2
100
AcDbDictionary
280
     1
281
     1
  3
ACAD_LAYERSTATES
360
200
  0
DICTIONARY
  5
13C
330
10
100
AcDbDictionary
280
     1
281
     1
  0
DICTIONARY
  5
1CE
330
1F
100
AcDbDictionary
280
     1
281
     1
  3
ACAD_LAYOUTSELFREF
360
AD3E
  0
DICTIONARY
  5
ACE9
330
D2
100
AcDbDictionary
280
     1
281
     1
  3
ACAD_LAYOUTSELFREF
360
AD47
  0
DICTIONARY
  5
ACEB
330
D6
100
AcDbDictionary
280
     1
281
     1
  3
ACAD_LAYOUTSELFREF
360
AD4A
  0
XRECORD
  5
216
102
{ACAD_REACTORS
330
C
102
}
330
C
100
AcDbXrecord
280
     1
300
ACD
300
2021
300
87393ACD_2021_0F
  0
DICTIONARY
  5
6B
102
{ACAD_REACTORS
330
C
102
}
330
C
100
AcDbDictionary
281
     1
  0
DICTIONARY
  5
21B
102
{ACAD_REACTORS
330
C
102
}
330
C
100
AcDbDictionary
281
     1
  3
Metric50
350
21C
  0
DICTIONARY
  5
D
102
{ACAD_REACTORS
330
C
102
}
330
C
100
AcDbDictionary
281
     1
  0
DICTIONARY
  5
1A
102
{ACAD_REACTORS
330
C
102
}
330
C
100
AcDbDictionary
281
     1
  3
Layout1
350
D3
  3
Layout2
350
D7
  3
Model
350
22
  0
DICTIONARY
  5
6A
102
{ACAD_REACTORS
330
C
102
}
330
C
100
AcDbDictionary
281
     1
  3
ByBlock
350
ED
  3
ByLayer
350
EC
  3
Global
350
EE
  0
DICTIONARY
  5
12D
102
{ACAD_REACTORS
330
C
102
}
330
C
100
AcDbDictionary
281
     1
  3
Standard
350
12E
  0
DICTIONARY
  5
17
102
{ACAD_REACTORS
330
C
102
}
330
C
100
AcDbDictionary
281
     1
  3
Standard
350
18
  0
DICTIONARY
  5
19
102
{ACAD_REACTORS
330
C
102
}
330
C
100
AcDbDictionary
281
     1
  0
ACDBDICTIONARYWDFLT
  5
E
102
{ACAD_REACTORS
330
C
102
}
330
C
100
AcDbDictionary
281
     1
  3
Normal
350
F
100
AcDbDictionaryWithDefault
340
F
  0
DICTIONARY
  5
10C
102
{ACAD_REACTORS
330
C
102
}
330
C
100
AcDbDictionary
281
     1
  3
A0
350
10D
  3
A1
350
1BE
  3
A2
350
1BF
  3
A3
350
1C0
  3
A4
350
1C1
  3
A5
350
1C2
  3
A6
350
1C3
  3
A7
350
1C4
  3
A8
350
1C5
  3
A9
350
1C6
  3
B0
350
1C7
  3
B1
350
1C8
  3
B2
350
1C9
  3
B3
350
1CA
  3
B4
350
1CB
  3
B5
350
1CC
  3
B6
350
1CD
  0
DICTIONARY
  5
219
102
{ACAD_REACTORS
330
C
102
}
330
C
100
AcDbDictionary
281
     1
  3
Metric50
350
21A
  0
DICTIONARY
  5
7E
102
{ACAD_REACTORS
330
C
102
}
330
C
100
AcDbDictionary
281
     1
  3
Standard
350
7F
  0
DICTIONARY
  5
EF
102
{ACAD_REACTORS
330
C
102
}
330
C
100
AcDbDictionary
281
     1
  3
2dWireframe
350
F5
  3
Basic
350
F4
  3
Brighten
350
FB
  3
ColorChange
350
FF
  3
Conceptual
350
F8
  3
Dim
350
FA
  3
EdgeColorOff
350
1E6
  3
Facepattern
350
FE
  3
Flat
350
F0
  3
FlatWithEdges
350
F1
  3
Gouraud
350
F2
  3
GouraudWithEdges
350
F3
  3
Hidden
350
F7
  3
JitterOff
350
1E4
  3
Linepattern
350
FD
  3
OverhangOff
350
1E5
  3
Realistic
350
F9
  3
Shaded
350
1F3
  3
Shaded with edges
350
1F2
  3
Shades of Gray
350
1EF
  3
Sketchy
350
1F0
  3
Thicken
350
FC
  3
Wireframe
350
F6
  3
X-Ray
350
1F1
  0
XRECORD
  5
ADE6
102
{ACAD_REACTORS
330
C
102
}
330
C
100
AcDbXrecord
280
     1
 90
        1
330
7F
  0
DICTIONARY
  5
5E
102
{ACAD_REACTORS
330
C
102
}
330
C
100
AcDbDictionary
281
     1
  3
CANNOSCALE
350
146
  3
CENTEREXE
350
259
  3
CENTERLTYPEFILE
350
25A
  3
CMLEADERSTYLE
350
145
  3
CTABLESTYLE
350
84
  3
CVIEWDETAILSTYLE
350
227
  3
CVIEWSECTIONSTYLE
350
228
  3
DIMASSOC
350
5F
  3
HIDETEXT
350
63
  3
INDEXCTL
350
AD93
  3
LAYEREVAL
350
1AE
  3
LAYERNOTIFY
350
1AF
  3
LIGHTINGUNITS
350
AD91
  3
MSLTSCALE
350
AD90
  3
PSOLHEIGHT
350
ADE3
  3
PSOLWIDTH
350
ADE2
  3
SORTENTS
350
AD92
  3
XCLIPFRAME
350
ADE4
  0
XRECORD
  5
ADE7
102
{ACAD_REACTORS
330
C
102
}
330
C
100
AcDbXrecord
280
     1
  1
DWGPROPS COOKIE
  2

  3

  4

  6

  7

  8
truole
  9

300
=
301
=
302
=
303
=
304
=
305
=
306
=
307
=
308
=
309
=
 40
0.0078935185185185
 41
2460398.356956019
 42
2460398.375636574
  1

 90
        0
  0
DICTIONARY
  5
200
102
{ACAD_REACTORS
330
1FF
102
}
330
1FF
100
AcDbDictionary
281
     1
  0
XRECORD
  5
AD3E
102
{ACAD_REACTORS
330
1CE
102
}
330
1CE
100
AcDbXrecord
280
     1
340
1F
  0
XRECORD
  5
AD47
102
{ACAD_REACTORS
330
ACE9
102
}
330
ACE9
100
AcDbXrecord
280
     1
340
D2
  0
XRECORD
  5
AD4A
102
{ACAD_REACTORS
330
ACEB
102
}
330
ACEB
100
AcDbXrecord
280
     1
340
D6
  0
ACDBDETAILVIEWSTYLE
  5
21C
102
{ACAD_XDICTIONARY
360
AE26
102
}
102
{ACAD_REACTORS
330
21B
102
}
330
21B
100
AcDbModelDocViewStyle
 70
     0
  3
Metric50
290
     0
100
AcDbDetailViewStyle
 70
     0
 71
     0
 90
        3
 71
     1
340
11
 40
5.0
340
0
 40
5.0
300

 40
0.0
280
     1
 71
     2
340
16
 90
       25
 71
     3
340
11
 40
5.0
 90
        0
 40
15.0
 90
        1
300
%<\AcVar ViewDetailId>% (%<\AcVar ViewScale \f "%sn">%)
 71
     4
340
16
 90
       25
340
16
 90
       25
280
     0
  0
LAYOUT
  5
D3
102
{ACAD_XDICTIONARY
360
ADEB
102
}
102
{ACAD_REACTORS
330
1A
102
}
330
1A
100
AcDbPlotSettings
  1

  2
C:\Documents and Settings\basas\Application Data\Autodesk\AutoCAD 2005\R16.1\enu\plotters\Default Windows System Printer.pc3
  4

  6

 40
0.0
 41
0.0
 42
0.0
 43
0.0
 44
0.0
 45
0.0
 46
0.0
 47
0.0
 48
0.0
 49
0.0
140
0.0
141
0.0
142
1.0
143
1.0
 70
   688
 72
     0
 73
     0
 74
     5
  7

 75
    16
147
1.0
148
0.0
149
0.0
100
AcDbLayout
  1
Layout1
 70
     1
 71
     1
 10
0.0
 20
0.0
 11
12.0
 21
9.0
 12
0.0
 22
0.0
 32
0.0
 14
0.0
 24
0.0
 34
0.0
 15
0.0
 25
0.0
 35
0.0
146
0.0
 13
0.0
 23
0.0
 33
0.0
 16
1.0
 26
0.0
 36
0.0
 17
0.0
 27
1.0
 37
0.0
 76
     0
330
D2
  0
LAYOUT
  5
D7
102
{ACAD_XDICTIONARY
360
ADED
102
}
102
{ACAD_REACTORS
330
1A
102
}
330
1A
100
AcDbPlotSettings
  1

  2
C:\Documents and Settings\basas\Application Data\Autodesk\AutoCAD 2005\R16.1\enu\plotters\Default Windows System Printer.pc3
  4

  6

 40
0.0
 41
0.0
 42
0.0
 43
0.0
 44
0.0
 45
0.0
 46
0.0
 47
0.0
 48
0.0
 49
0.0
140
0.0
141
0.0
142
1.0
143
1.0
 70
   688
 72
     0
 73
     0
 74
     5
  7

 75
    16
147
1.0
148
0.0
149
0.0
100
AcDbLayout
  1
Layout2
 70
     1
 71
     2
 10
0.0
 20
0.0
 11
12.0
 21
9.0
 12
0.0
 22
0.0
 32
0.0
 14
0.0
 24
0.0
 34
0.0
 15
0.0
 25
0.0
 35
0.0
146
0.0
 13
0.0
 23
0.0
 33
0.0
 16
1.0
 26
0.0
 36
0.0
 17
0.0
 27
1.0
 37
0.0
 76
     0
330
D6
  0
LAYOUT
  5
22
102
{ACAD_XDICTIONARY
360
ADE8
102
}
102
{ACAD_REACTORS
330
1A
102
}
330
1A
100
AcDbPlotSettings
  1

  2
none_device
  4
ISO_A4_(210.00_x_297.00_MM)
  6

 40
7.5
 41
20.0
 42
7.5
 43
20.0
 44
210.0
 45
297.0
 46
11.54999923706054
 47
-13.65000009536743
 48
0.0
 49
0.0
140
0.0
141
0.0
142
1.0
143
8.704084754739808
 70
 11952
 72
     1
 73
     0
 74
     0
  7

 75
     0
147
0.1148885871608098
148
0.0
149
0.0
100
AcDbLayout
  1
Model
 70
     1
 71
     0
 10
0.0
 20
0.0
 11
12.0
 21
9.0
 12
0.0
 22
0.0
 32
0.0
 14
0.0
 24
0.0
 34
0.0
 15
0.0
 25
0.0
 35
0.0
146
0.0
 13
0.0
 23
0.0
 33
0.0
 16
1.0
 26
0.0
 36
0.0
 17
0.0
 27
1.0
 37
0.0
 76
     0
330
1F
331
EA
1001
ACAD_PSEXT
1000
None
1000
None
1000
Not applicable
1000
The layout will not be plotted unless a new plotter configuration name is selected.
1070
     0
  0
MATERIAL
  5
ED
102
{ACAD_XDICTIONARY
360
1F9
102
}
102
{ACAD_REACTORS
330
6A
102
}
330
6A
100
AcDbMaterial
  1
ByBlock
  0
MATERIAL
  5
EC
102
{ACAD_XDICTIONARY
360
1F7
102
}
102
{ACAD_REACTORS
330
6A
102
}
330
6A
100
AcDbMaterial
  1
ByLayer
  0
MATERIAL
  5
EE
102
{ACAD_XDICTIONARY
360
173
102
}
102
{ACAD_REACTORS
330
6A
102
}
330
6A
100
AcDbMaterial
  1
Global
 43
0.0007999999797903
 43
0.0
 43
0.0
 43
0.0
 43
0.0
 43
0.0007999999797903
 43
0.0
 43
0.0
 43
0.0
 43
0.0
 43
1.0
 43
0.0
 43
0.0
 43
0.0
 43
0.0
 43
1.0
 49
0.0007999999797903
 49
0.0
 49
0.0
 49
0.0
 49
0.0
 49
0.0007999999797903
 49
0.0
 49
0.0
 49
0.0
 49
0.0
 49
1.0
 49
0.0
 49
0.0
 49
0.0
 49
0.0
 49
1.0
142
0.0007999999797903
142
0.0
142
0.0
142
0.0
142
0.0
142
0.0007999999797903
142
0.0
142
0.0
142
0.0
142
0.0
142
1.0
142
0.0
142
0.0
142
0.0
142
0.0
142
1.0
144
0.0007999999797903
144
0.0
144
0.0
144
0.0
144
0.0
144
0.0007999999797903
144
0.0
144
0.0
144
0.0
144
0.0
144
1.0
144
0.0
144
0.0
144
0.0
144
0.0
144
1.0
1001
ACAD
1070
    -1
1070
     3
1070
     0
1000

1071
        0
1070
     0
  0
MLEADERSTYLE
  5
12E
102
{ACAD_XDICTIONARY
360
AE12
102
}
102
{ACAD_REACTORS
330
12D
102
}
330
12D
100
AcDbMLeaderStyle
170
     2
171
     1
172
     0
 90
        2
 40
0.0
 41
0.0
173
     1
 91
-1056964608
340
14
 92
       -2
290
     1
 42
2.0
291
     1
 43
8.0
  3
Standard
 44
4.0
300

342
11
174
     1
178
     1
175
     1
176
     0
 93
-1056964608
 45
4.0
292
     0
297
     0
 46
4.0
 94
-1056964608
 47
1.0
 49
1.0
140
1.0
293
     1
141
0.0
294
     1
177
     0
142
1.0
295
     0
296
     0
143
3.75
1001
ACAD_MLEADERVER
1070
     2
  0
MLINESTYLE
  5
18
102
{ACAD_REACTORS
330
17
102
}
330
17
100
AcDbMlineStyle
  2
STANDARD
 70
     0
  3

 62
   256
 51
90.0
 52
90.0
 71
     2
 49
0.5
 62
   256
  6
BYLAYER
 49
-0.5
 62
   256
  6
BYLAYER
  0
ACDBPLACEHOLDER
  5
F
102
{ACAD_REACTORS
330
E
102
}
330
E
  0
SCALE
  5
10D
102
{ACAD_REACTORS
330
10C
102
}
330
10C
100
AcDbScale
 70
     0
300
1:1
140
1.0
141
1.0
290
     1
  0
SCALE
  5
1BE
102
{ACAD_REACTORS
330
10C
102
}
330
10C
100
AcDbScale
 70
     0
300
1:2
140
1.0
141
2.0
290
     0
  0
SCALE
  5
1BF
102
{ACAD_REACTORS
330
10C
102
}
330
10C
100
AcDbScale
 70
     0
300
1:4
140
1.0
141
4.0
290
     0
  0
SCALE
  5
1C0
102
{ACAD_REACTORS
330
10C
102
}
330
10C
100
AcDbScale
 70
     0
300
1:5
140
1.0
141
5.0
290
     0
  0
SCALE
  5
1C1
102
{ACAD_REACTORS
330
10C
102
}
330
10C
100
AcDbScale
 70
     0
300
1:8
140
1.0
141
8.0
290
     0
  0
SCALE
  5
1C2
102
{ACAD_REACTORS
330
10C
102
}
330
10C
100
AcDbScale
 70
     0
300
1:10
140
1.0
141
10.0
290
     0
  0
SCALE
  5
1C3
102
{ACAD_REACTORS
330
10C
102
}
330
10C
100
AcDbScale
 70
     0
300
1:16
140
1.0
141
16.0
290
     0
  0
SCALE
  5
1C4
102
{ACAD_REACTORS
330
10C
102
}
330
10C
100
AcDbScale
 70
     0
300
1:20
140
1.0
141
20.0
290
     0
  0
SCALE
  5
1C5
102
{ACAD_REACTORS
330
10C
102
}
330
10C
100
AcDbScale
 70
     0
300
1:30
140
1.0
141
30.0
290
     0
  0
SCALE
  5
1C6
102
{ACAD_REACTORS
330
10C
102
}
330
10C
100
AcDbScale
 70
     0
300
1:40
140
1.0
141
40.0
290
     0
  0
SCALE
  5
1C7
102
{ACAD_REACTORS
330
10C
102
}
330
10C
100
AcDbScale
 70
     0
300
1:50
140
1.0
141
50.0
290
     0
  0
SCALE
  5
1C8
102
{ACAD_REACTORS
330
10C
102
}
330
10C
100
AcDbScale
 70
     0
300
1:100
140
1.0
141
100.0
290
     0
  0
SCALE
  5
1C9
102
{ACAD_REACTORS
330
10C
102
}
330
10C
100
AcDbScale
 70
     0
300
2:1
140
2.0
141
1.0
290
     0
  0
SCALE
  5
1CA
102
{ACAD_REACTORS
330
10C
102
}
330
10C
100
AcDbScale
 70
     0
300
4:1
140
4.0
141
1.0
290
     0
  0
SCALE
  5
1CB
102
{ACAD_REACTORS
330
10C
102
}
330
10C
100
AcDbScale
 70
     0
300
8:1
140
8.0
141
1.0
290
     0
  0
SCALE
  5
1CC
102
{ACAD_REACTORS
330
10C
102
}
330
10C
100
AcDbScale
 70
     0
300
10:1
140
10.0
141
1.0
290
     0
  0
SCALE
  5
1CD
102
{ACAD_REACTORS
330
10C
102
}
330
10C
100
AcDbScale
 70
     0
300
100:1
140
100.0
141
1.0
290
     0
  0
ACDBSECTIONVIEWSTYLE
  5
21A
102
{ACAD_XDICTIONARY
360
AE24
102
}
102
{ACAD_REACTORS
330
219
102
}
330
219
100
AcDbModelDocViewStyle
 70
     0
  3
Metric50
290
     0
100
AcDbSectionViewStyle
 70
     0
 71
     0
 90
      102
 71
     1
340
11
 40
5.0
340
0
340
0
 40
5.0
300
I, O, Q, S, X, Z
 40
10.0
 90
        0
 40
2.5
 90
        0
 71
     2
340
16
 90
       25
340
16
 90
       50
 40
5.0
 40
2.5
 40
5.0
 71
     3
340
11
 40
5.0
 90
        0
 40
15.0
 90
        1
300
%<\AcVar ViewSectionStartId>%-%<\AcVar ViewSectionEndId>% (%<\AcVar ViewScale \f "%sn">%)
 71
     4
300
ANSI31
 40
1.0
 90
        0
290
     0
290
     0
 90
        6
 40
0.0
 40
1.570796326794896
 40
0.2617993877991494
 40
1.308996938995747
 40
-0.2617993877991494
 40
1.832595714594046
  0
TABLESTYLE
  5
7F
102
{ACAD_XDICTIONARY
360
162
102
}
102
{ACAD_REACTORS
330
7E
102
}
330
7E
100
AcDbTableStyle
  3
Standard
 70
     0
 71
     0
 40
1.5
 41
1.5
280
     0
281
     0
  7
Standard
140
4.5
170
     2
 62
     0
 63
     7
283
     0
274
    -2
284
     1
 64
     0
275
    -2
285
     1
 65
     0
276
    -2
286
     1
 66
     0
277
    -2
287
     1
 67
     0
278
    -2
288
     1
 68
     0
279
    -2
289
     1
 69
     0
  7
Standard
140
6.0
170
     5
 62
     0
 63
     7
283
     0
274
    -2
284
     1
 64
     0
275
    -2
285
     1
 65
     0
276
    -2
286
     1
 66
     0
277
    -2
287
     1
 67
     0
278
    -2
288
     1
 68
     0
279
    -2
289
     1
 69
     0
  7
Standard
140
4.5
170
     5
 62
     0
 63
     7
283
     0
274
    -2
284
     1
 64
     0
275
    -2
285
     1
 65
     0
276
    -2
286
     1
 66
     0
277
    -2
287
     1
 67
     0
278
    -2
288
     1
 68
     0
279
    -2
289
     1
 69
     0
  0
VISUALSTYLE
  5
F5
102
{ACAD_XDICTIONARY
360
ADFC
102
}
102
{ACAD_REACTORS
330
EF
102
}
330
EF
100
AcDbVisualStyle
  2
2dWireframe
 70
     4
 71
     0
 72
     2
 73
     1
 90
        0
 40
-0.6
 41
-30.0
 62
     5
 63
     7
 74
     1
 91
        4
 64
     7
 65
   257
 75
     1
175
     1
 42
1.0
 92
        0
 66
   257
 43
1.0
 76
     1
 77
     6
 78
     2
 67
     7
 79
     5
170
     0
171
     0
290
     0
174
     0
 93
        1
 44
0.0
173
     0
291
     0
 45
0.0
1001
ACAD
1000
AcDbSavedByObjectVersion
1070
     0
  0
VISUALSTYLE
  5
F4
102
{ACAD_XDICTIONARY
360
ADFA
102
}
102
{ACAD_REACTORS
330
EF
102
}
330
EF
100
AcDbVisualStyle
  2
Basic
 70
     7
 71
     1
 72
     0
 73
     1
 90
        0
 40
-0.6
 41
-30.0
 62
     5
 63
     7
 74
     0
 91
        4
 64
     7
 65
   257
 75
     1
175
     1
 42
1.0
 92
        8
 66
     7
 43
1.0
 76
     1
 77
     6
 78
     2
 67
     7
 79
     5
170
     0
171
     0
290
     0
174
     0
 93
        1
 44
0.0
173
     0
291
     1
 45
0.0
1001
ACAD
1000
AcDbSavedByObjectVersion
1070
     0
  0
VISUALSTYLE
  5
FB
102
{ACAD_XDICTIONARY
360
AE08
102
}
102
{ACAD_REACTORS
330
EF
102
}
330
EF
100
AcDbVisualStyle
  2
Brighten
 70
    12
 71
     2
 72
     2
 73
     1
 90
        0
 40
-0.6
 41
-30.0
 62
     5
 63
     7
 74
     1
 91
        4
 64
     7
 65
   257
 75
     1
175
     1
 42
1.0
 92
        8
 66
     7
 43
1.0
 76
     1
 77
     6
 78
     2
 67
     7
 79
     5
170
     0
171
     0
290
     0
174
     0
 93
        1
 44
50.0
173
     0
291
     1
 45
0.0
1001
ACAD
1000
AcDbSavedByObjectVersion
1070
     0
  0
VISUALSTYLE
  5
FF
102
{ACAD_XDICTIONARY
360
AE10
102
}
102
{ACAD_REACTORS
330
EF
102
}
330
EF
100
AcDbVisualStyle
  2
ColorChange
 70
    16
 71
     2
 72
     2
 73
     3
 90
        0
 40
-0.6
 41
-30.0
 62
     5
 63
     8
 74
     1
 91
        4
 64
     7
 65
   257
 75
     1
175
     1
 42
1.0
 92
        8
 66
     8
 43
1.0
 76
     1
 77
     6
 78
     2
 67
     7
 79
     5
170
     0
171
     0
290
     0
174
     0
 93
        1
 44
0.0
173
     0
291
     1
 45
0.0
1001
ACAD
1000
AcDbSavedByObjectVersion
1070
     0
  0
VISUALSTYLE
  5
F8
102
{ACAD_XDICTIONARY
360
AE02
102
}
102
{ACAD_REACTORS
330
EF
102
}
330
EF
100
AcDbVisualStyle
  2
Conceptual
 70
     9
 71
     3
 72
     2
 73
     1
 90
        0
 40
-0.6
 41
-30.0
 62
     5
 63
     7
 74
     2
 91
        2
 64
     7
 65
   257
 75
     1
175
     1
 42
40.0
 92
        8
 66
     7
 43
1.0
 76
     1
 77
     6
 78
     2
 67
     7
 79
     3
170
     0
171
     0
290
     0
174
     0
 93
        1
 44
0.0
173
     0
291
     0
 45
0.0
1001
ACAD
1000
AcDbSavedByObjectVersion
1070
     0
  0
VISUALSTYLE
  5
FA
102
{ACAD_XDICTIONARY
360
AE06
102
}
102
{ACAD_REACTORS
330
EF
102
}
330
EF
100
AcDbVisualStyle
  2
Dim
 70
    11
 71
     2
 72
     2
 73
     1
 90
        0
 40
-0.6
 41
-30.0
 62
     5
 63
     7
 74
     1
 91
        4
 64
     7
 65
   257
 75
     1
175
     1
 42
1.0
 92
        8
 66
     7
 43
1.0
 76
     1
 77
     6
 78
     2
 67
     7
 79
     5
170
     0
171
     0
290
     0
174
     0
 93
        1
 44
-50.0
173
     0
291
     1
 45
0.0
1001
ACAD
1000
AcDbSavedByObjectVersion
1070
     0
  0
VISUALSTYLE
  5
1E6
102
{ACAD_XDICTIONARY
360
AE18
102
}
102
{ACAD_REACTORS
330
EF
102
}
330
EF
100
AcDbVisualStyle
  2
EdgeColorOff
 70
    22
 71
     2
 72
     2
 73
     0
 90
        0
 40
-0.6
 41
-30.0
 62
     5
 63
     7
 74
     1
 91
        4
 64
     7
 65
   257
 75
     1
175
     1
 42
1.0
 92
        8
 66
     7
 43
1.0
 76
     1
 77
     6
 78
     2
 67
     7
 79
     5
170
     0
171
     0
290
     0
174
     0
 93
        1
 44
0.0
173
     0
291
     1
 45
0.0
1001
ACAD
1000
AcDbSavedByObjectVersion
1070
     0
  0
VISUALSTYLE
  5
FE
102
{ACAD_XDICTIONARY
360
AE0E
102
}
102
{ACAD_REACTORS
330
EF
102
}
330
EF
100
AcDbVisualStyle
  2
Facepattern
 70
    15
 71
     2
 72
     2
 73
     1
 90
        0
 40
-0.6
 41
-30.0
 62
     5
 63
     7
 74
     1
 91
        4
 64
     7
 65
   257
 75
     1
175
     1
 42
1.0
 92
        8
 66
     7
 43
1.0
 76
     1
 77
     6
 78
     2
 67
     7
 79
     5
170
     0
171
     0
290
     0
174
     0
 93
        1
 44
0.0
173
     0
291
     1
 45
0.0
1001
ACAD
1000
AcDbSavedByObjectVersion
1070
     0
  0
VISUALSTYLE
  5
F0
102
{ACAD_XDICTIONARY
360
ADF2
102
}
102
{ACAD_REACTORS
330
EF
102
}
330
EF
100
AcDbVisualStyle
  2
Flat
 70
     0
 71
     2
 72
     1
 73
     1
 90
        2
 40
-0.6
 41
30.0
 62
     5
 63
     7
 74
     0
 91
        0
 64
     7
 65
   257
 75
     1
175
     1
 42
1.0
 92
        8
 66
     7
 43
1.0
 76
     1
 77
     6
 78
     2
 67
     7
 79
     5
170
     0
171
     0
290
     0
174
     0
 93
       13
 44
0.0
173
     0
291
     1
 45
0.0
1001
ACAD
1000
AcDbSavedByObjectVersion
1070
     0
  0
VISUALSTYLE
  5
F1
102
{ACAD_XDICTIONARY
360
ADF4
102
}
102
{ACAD_REACTORS
330
EF
102
}
330
EF
100
AcDbVisualStyle
  2
FlatWithEdges
 70
     1
 71
     2
 72
     1
 73
     1
 90
        2
 40
-0.6
 41
30.0
 62
     5
 63
     7
 74
     1
 91
        0
 64
     7
 65
   257
 75
     1
175
     1
 42
1.0
 92
        0
 66
   257
 43
1.0
 76
     1
 77
     6
 78
     2
 67
     7
 79
     5
170
     0
171
     0
290
     0
174
     0
 93
       13
 44
0.0
173
     0
291
     1
 45
0.0
1001
ACAD
1000
AcDbSavedByObjectVersion
1070
     0
  0
VISUALSTYLE
  5
F2
102
{ACAD_XDICTIONARY
360
ADF6
102
}
102
{ACAD_REACTORS
330
EF
102
}
330
EF
100
AcDbVisualStyle
  2
Gouraud
 70
     2
 71
     2
 72
     2
 73
     1
 90
        2
 40
-0.6
 41
30.0
 62
     5
 63
     7
 74
     0
 91
        0
 64
     7
 65
   257
 75
     1
175
     1
 42
1.0
 92
        0
 66
     7
 43
1.0
 76
     1
 77
     6
 78
     2
 67
     7
 79
     5
170
     0
171
     0
290
     0
174
     0
 93
       13
 44
0.0
173
     0
291
     1
 45
0.0
1001
ACAD
1000
AcDbSavedByObjectVersion
1070
     0
  0
VISUALSTYLE
  5
F3
102
{ACAD_XDICTIONARY
360
ADF8
102
}
102
{ACAD_REACTORS
330
EF
102
}
330
EF
100
AcDbVisualStyle
  2
GouraudWithEdges
 70
     3
 71
     2
 72
     2
 73
     1
 90
        2
 40
-0.6
 41
30.0
 62
     5
 63
     7
 74
     1
 91
        0
 64
     7
 65
   257
 75
     1
175
     1
 42
1.0
 92
        0
 66
   257
 43
1.0
 76
     1
 77
     6
 78
     2
 67
     7
 79
     5
170
     0
171
     0
290
     0
174
     0
 93
       13
 44
0.0
173
     0
291
     1
 45
0.0
1001
ACAD
1000
AcDbSavedByObjectVersion
1070
     0
  0
VISUALSTYLE
  5
F7
102
{ACAD_XDICTIONARY
360
AE00
102
}
102
{ACAD_REACTORS
330
EF
102
}
330
EF
100
AcDbVisualStyle
  2
Hidden
 70
     6
 71
     1
 72
     2
 73
     2
 90
        0
 40
-0.6
 41
-30.0
 62
     5
 63
     7
 74
     2
 91
        2
 64
     7
 65
   257
 75
     2
175
     1
 42
40.0
 92
        0
 66
   257
 43
1.0
 76
     1
 77
     6
 78
     2
 67
     7
 79
     3
170
     0
171
     0
290
     0
174
     0
 93
        1
 44
0.0
173
     0
291
     0
 45
0.0
1001
ACAD
1000
AcDbSavedByObjectVersion
1070
     0
  0
VISUALSTYLE
  5
1E4
102
{ACAD_XDICTIONARY
360
AE14
102
}
102
{ACAD_REACTORS
330
EF
102
}
330
EF
100
AcDbVisualStyle
  2
JitterOff
 70
    20
 71
     2
 72
     2
 73
     0
 90
        0
 40
-0.6
 41
-30.0
 62
     5
 63
     7
 74
     1
 91
        4
 64
     7
 65
   257
 75
     1
175
     1
 42
1.0
 92
       10
 66
     7
 43
1.0
 76
     1
 77
     6
 78
     2
 67
     7
 79
     5
170
     0
171
     0
290
     0
174
     0
 93
        1
 44
0.0
173
     0
291
     1
 45
0.0
1001
ACAD
1000
AcDbSavedByObjectVersion
1070
     0
  0
VISUALSTYLE
  5
FD
102
{ACAD_XDICTIONARY
360
AE0C
102
}
102
{ACAD_REACTORS
330
EF
102
}
330
EF
100
AcDbVisualStyle
  2
Linepattern
 70
    14
 71
     2
 72
     2
 73
     1
 90
        0
 40
-0.6
 41
-30.0
 62
     5
 63
     7
 74
     1
 91
        4
 64
     7
 65
   257
 75
     7
175
     7
 42
1.0
 92
        8
 66
     7
 43
1.0
 76
     1
 77
     6
 78
     2
 67
     7
 79
     5
170
     0
171
     0
290
     0
174
     0
 93
        1
 44
0.0
173
     0
291
     1
 45
0.0
1001
ACAD
1000
AcDbSavedByObjectVersion
1070
     0
  0
VISUALSTYLE
  5
1E5
102
{ACAD_XDICTIONARY
360
AE16
102
}
102
{ACAD_REACTORS
330
EF
102
}
330
EF
100
AcDbVisualStyle
  2
OverhangOff
 70
    21
 71
     2
 72
     2
 73
     0
 90
        0
 40
-0.6
 41
-30.0
 62
     5
 63
     7
 74
     1
 91
        4
 64
     7
 65
   257
 75
     1
175
     1
 42
1.0
 92
        9
 66
     7
 43
1.0
 76
     1
 77
     6
 78
     2
 67
     7
 79
     5
170
     0
171
     0
290
     0
174
     0
 93
        1
 44
0.0
173
     0
291
     1
 45
0.0
1001
ACAD
1000
AcDbSavedByObjectVersion
1070
     0
  0
VISUALSTYLE
  5
F9
102
{ACAD_XDICTIONARY
360
AE04
102
}
102
{ACAD_REACTORS
330
EF
102
}
330
EF
100
AcDbVisualStyle
  2
Realistic
 70
     8
 71
     2
 72
     2
 73
     0
 90
        2
 40
-0.6
 41
30.0
 62
     5
 63
     7
 74
     0
 91
        0
 64
     7
 65
   257
 75
     1
175
     1
 42
1.0
 92
        8
 66
   257
 43
1.0
 76
     1
 77
     6
 78
     2
 67
     7
 79
     3
170
     0
171
     0
290
     0
174
     0
 93
       13
 44
0.0
173
     0
291
     0
 45
0.0
1001
ACAD
1000
AcDbSavedByObjectVersion
1070
     0
  0
VISUALSTYLE
  5
1F3
102
{ACAD_XDICTIONARY
360
AE22
102
}
102
{ACAD_REACTORS
330
EF
102
}
330
EF
100
AcDbVisualStyle
  2
Shaded
 70
    27
 71
     2
 72
     2
 73
     1
 90
        2
 40
-0.6
 41
30.0
 62
     5
 63
     7
 74
     0
 91
        4
 64
     7
 65
   257
 75
     1
175
     1
 42
1.0
 92
        8
 66
   257
 43
1.0
 76
     1
 77
     6
 78
     2
 67
     8
 79
     3
170
     0
171
     0
290
     0
174
     0
 93
        5
 44
0.0
173
     0
291
     0
 45
0.0
1001
ACAD
1000
AcDbSavedByObjectVersion
1070
     0
  0
VISUALSTYLE
  5
1F2
102
{ACAD_XDICTIONARY
360
AE20
102
}
102
{ACAD_REACTORS
330
EF
102
}
330
EF
100
AcDbVisualStyle
  2
Shaded with edges
 70
    26
 71
     2
 72
     2
 73
     1
 90
        2
 40
-0.6
 41
30.0
 62
     5
 63
     7
 74
     1
 91
        2
 64
     7
 65
   257
 75
     2
175
     1
 42
1.0
 92
        8
 66
   257
 43
1.0
 76
     1
 77
     6
 78
     2
 67
     7
 79
     3
170
     0
171
     0
290
     0
174
     0
 93
        5
 44
0.0
173
     0
291
     0
 45
0.0
1001
ACAD
1000
AcDbSavedByObjectVersion
1070
     0
  0
VISUALSTYLE
  5
1EF
102
{ACAD_XDICTIONARY
360
AE1A
102
}
102
{ACAD_REACTORS
330
EF
102
}
330
EF
100
AcDbVisualStyle
  2
Shades of Gray
 70
    23
 71
     2
 72
     2
 73
     3
 90
        0
 40
-0.6
 41
-30.0
 62
     5
 63
     7
 74
     2
 91
        2
 64
     7
 65
     7
 75
     1
175
     1
 42
40.0
 92
        8
 66
     7
 43
1.0
 76
     1
 77
     6
 78
     2
 67
     7
 79
     3
170
     0
171
     0
290
     0
174
     0
 93
        1
 44
0.0
173
     0
291
     0
 45
0.0
1001
ACAD
1000
AcDbSavedByObjectVersion
1070
     0
  0
VISUALSTYLE
  5
1F0
102
{ACAD_XDICTIONARY
360
AE1C
102
}
102
{ACAD_REACTORS
330
EF
102
}
330
EF
100
AcDbVisualStyle
  2
Sketchy
 70
    24
 71
     1
 72
     2
 73
     2
 90
        0
 40
-0.6
 41
-30.0
 62
     5
 63
     7
 74
     2
 91
        2
 64
     7
 65
     7
 75
     1
175
     1
 42
40.0
 92
       11
 66
     7
 43
1.0
 76
     1
 77
     6
 78
     2
 67
     7
 79
     6
170
     0
171
     0
290
     0
174
     0
 93
        1
 44
0.0
173
     0
291
     0
 45
0.0
1001
ACAD
1000
AcDbSavedByObjectVersion
1070
     0
  0
VISUALSTYLE
  5
FC
102
{ACAD_XDICTIONARY
360
AE0A
102
}
102
{ACAD_REACTORS
330
EF
102
}
330
EF
100
AcDbVisualStyle
  2
Thicken
 70
    13
 71
     2
 72
     2
 73
     1
 90
        0
 40
-0.6
 41
-30.0
 62
     5
 63
     7
 74
     1
 91
        4
 64
     7
 65
   257
 75
     1
175
     1
 42
1.0
 92
       12
 66
     7
 43
1.0
 76
     1
 77
     6
 78
     2
 67
     7
 79
     5
170
     0
171
     0
290
     0
174
     0
 93
        1
 44
0.0
173
     0
291
     1
 45
0.0
1001
ACAD
1000
AcDbSavedByObjectVersion
1070
     0
  0
VISUALSTYLE
  5
F6
102
{ACAD_XDICTIONARY
360
ADFE
102
}
102
{ACAD_REACTORS
330
EF
102
}
330
EF
100
AcDbVisualStyle
  2
Wireframe
 70
     5
 71
     0
 72
     2
 73
     0
 90
        0
 40
-0.6
 41
-30.0
 62
     5
 63
     7
 74
     1
 91
        4
 64
     7
 65
   257
 75
     1
175
     1
 42
1.0
 92
        0
 66
   257
 43
1.0
 76
     1
 77
     6
 78
     2
 67
     7
 79
     3
170
     0
171
     0
290
     0
174
     0
 93
        1
 44
0.0
173
     0
291
     0
 45
0.0
1001
ACAD
1000
AcDbSavedByObjectVersion
1070
     0
  0
VISUALSTYLE
  5
1F1
102
{ACAD_XDICTIONARY
360
AE1E
102
}
102
{ACAD_REACTORS
330
EF
102
}
330
EF
100
AcDbVisualStyle
  2
X-Ray
 70
    25
 71
     2
 72
     2
 73
     1
 90
        1
 40
0.5
 41
-30.0
 62
     5
 63
     7
 74
     1
 91
        0
 64
     7
 65
   257
 75
     1
175
     1
 42
1.0
 92
        8
 66
     7
 43
1.0
 76
     1
 77
     6
 78
     2
 67
     7
 79
     3
170
     0
171
     0
290
     0
174
     0
 93
       13
 44
0.0
173
     0
291
     0
 45
0.0
1001
ACAD
1000
AcDbSavedByObjectVersion
1070
     0
  0
DICTIONARYVAR
  5
146
102
{ACAD_REACTORS
330
5E
102
}
330
5E
100
DictionaryVariables
280
     0
  1
1:1
  0
DICTIONARYVAR
  5
259
102
{ACAD_REACTORS
330
5E
102
}
330
5E
100
DictionaryVariables
280
     0
  1
3.500000
  0
DICTIONARYVAR
  5
25A
102
{ACAD_REACTORS
330
5E
102
}
330
5E
100
DictionaryVariables
280
     0
  1
acadiso.lin
  0
DICTIONARYVAR
  5
145
102
{ACAD_REACTORS
330
5E
102
}
330
5E
100
DictionaryVariables
280
     0
  1
STANDARD
  0
DICTIONARYVAR
  5
84
102
{ACAD_REACTORS
330
5E
102
}
330
5E
100
DictionaryVariables
280
     0
  1
STANDARD
  0
DICTIONARYVAR
  5
227
102
{ACAD_REACTORS
330
5E
102
}
330
5E
100
DictionaryVariables
280
     0
  1
Metric50
  0
DICTIONARYVAR
  5
228
102
{ACAD_REACTORS
330
5E
102
}
330
5E
100
DictionaryVariables
280
     0
  1
Metric50
  0
DICTIONARYVAR
  5
5F
102
{ACAD_REACTORS
330
5E
102
}
330
5E
100
DictionaryVariables
280
     0
  1
2
  0
DICTIONARYVAR
  5
63
102
{ACAD_REACTORS
330
5E
102
}
330
5E
100
DictionaryVariables
280
     0
  1
1
  0
DICTIONARYVAR
  5
AD93
102
{ACAD_REACTORS
330
5E
102
}
330
5E
100
DictionaryVariables
280
     0
  1
0
  0
DICTIONARYVAR
  5
1AE
102
{ACAD_REACTORS
330
5E
102
}
330
5E
100
DictionaryVariables
280
     0
  1
0
  0
DICTIONARYVAR
  5
1AF
102
{ACAD_REACTORS
330
5E
102
}
330
5E
100
DictionaryVariables
280
     0
  1
0
  0
DICTIONARYVAR
  5
AD91
102
{ACAD_REACTORS
330
5E
102
}
330
5E
100
DictionaryVariables
280
     0
  1
2
  0
DICTIONARYVAR
  5
AD90
102
{ACAD_REACTORS
330
5E
102
}
330
5E
100
DictionaryVariables
280
     0
  1
1
  0
DICTIONARYVAR
  5
ADE3
102
{ACAD_REACTORS
330
5E
102
}
330
5E
100
DictionaryVariables
280
     0
  1
80.000000
  0
DICTIONARYVAR
  5
ADE2
102
{ACAD_REACTORS
330
5E
102
}
330
5E
100
DictionaryVariables
280
     0
  1
5.000000
  0
DICTIONARYVAR
  5
AD92
102
{ACAD_REACTORS
330
5E
102
}
330
5E
100
DictionaryVariables
280
     0
  1
127
  0
DICTIONARYVAR
  5
ADE4
102
{ACAD_REACTORS
330
5E
102
}
330
5E
100
DictionaryVariables
280
     0
  1
2
  0
DICTIONARY
  5
AE26
330
21C
100
AcDbDictionary
280
     1
281
     1
  3
ACAD_XREC_ROUNDTRIP
360
AE27
  0
DICTIONARY
  5
ADEB
330
D3
100
AcDbDictionary
280
     1
281
     1
  3
ACAD_XREC_ROUNDTRIP
360
ADEC
  0
DICTIONARY
  5
ADED
330
D7
100
AcDbDictionary
280
     1
281
     1
  3
ACAD_XREC_ROUNDTRIP
360
ADEE
  0
DICTIONARY
  5
ADE8
330
22
100
AcDbDictionary
280
     1
281
     1
  3
ACAD_XREC_ROUNDTRIP
360
ADE9
  0
DICTIONARY
  5
1F9
330
ED
100
AcDbDictionary
280
     1
281
     1
  3
ACAD_XREC_ROUNDTRIP
360
ADF0
  3
FBXASSET
360
1FA
  0
DICTIONARY
  5
1F7
330
EC
100
AcDbDictionary
280
     1
281
     1
  3
ACAD_XREC_ROUNDTRIP
360
ADEF
  3
FBXASSET
360
1F8
  0
DICTIONARY
  5
173
330
EE
100
AcDbDictionary
280
     1
281
     1
  3
ACAD_XREC_ROUNDTRIP
360
ADF1
  3
BUMPTILE
360
175
  3
DIFFUSETILE
360
174
  3
FBXASSET
360
1FB
  3
OPACITYTILE
360
176
  3
REFLECTIONTILE
360
177
  0
DICTIONARY
  5
AE12
330
12E
100
AcDbDictionary
280
     1
281
     1
  3
ACAD_XREC_ROUNDTRIP
360
AE13
  0
DICTIONARY
  5
AE24
330
21A
100
AcDbDictionary
280
     1
281
     1
  3
ACAD_XREC_ROUNDTRIP
360
AE25
  0
DICTIONARY
  5
162
330
7F
100
AcDbDictionary
280
     1
281
     1
  3
ACAD_ROUNDTRIP_2008_TABLESTYLE_CELLSTYLEMAP
360
ADE5
  3
ACAD_XREC_ROUNDTRIP
360
ADEA
  0
DICTIONARY
  5
ADFC
330
F5
100
AcDbDictionary
280
     1
281
     1
  3
ACAD_XREC_ROUNDTRIP
360
ADFD
  0
DICTIONARY
  5
ADFA
330
F4
100
AcDbDictionary
280
     1
281
     1
  3
ACAD_XREC_ROUNDTRIP
360
ADFB
  0
DICTIONARY
  5
AE08
330
FB
100
AcDbDictionary
280
     1
281
     1
  3
ACAD_XREC_ROUNDTRIP
360
AE09
  0
DICTIONARY
  5
AE10
330
FF
100
AcDbDictionary
280
     1
281
     1
  3
ACAD_XREC_ROUNDTRIP
360
AE11
  0
DICTIONARY
  5
AE02
330
F8
100
AcDbDictionary
280
     1
281
     1
  3
ACAD_XREC_ROUNDTRIP
360
AE03
  0
DICTIONARY
  5
AE06
330
FA
100
AcDbDictionary
280
     1
281
     1
  3
ACAD_XREC_ROUNDTRIP
360
AE07
  0
DICTIONARY
  5
AE18
330
1E6
100
AcDbDictionary
280
     1
281
     1
  3
ACAD_XREC_ROUNDTRIP
360
AE19
  0
DICTIONARY
  5
AE0E
330
FE
100
AcDbDictionary
280
     1
281
     1
  3
ACAD_XREC_ROUNDTRIP
360
AE0F
  0
DICTIONARY
  5
ADF2
330
F0
100
AcDbDictionary
280
     1
281
     1
  3
ACAD_XREC_ROUNDTRIP
360
ADF3
  0
DICTIONARY
  5
ADF4
330
F1
100
AcDbDictionary
280
     1
281
     1
  3
ACAD_XREC_ROUNDTRIP
360
ADF5
  0
DICTIONARY
  5
ADF6
330
F2
100
AcDbDictionary
280
     1
281
     1
  3
ACAD_XREC_ROUNDTRIP
360
ADF7
  0
DICTIONARY
  5
ADF8
330
F3
100
AcDbDictionary
280
     1
281
     1
  3
ACAD_XREC_ROUNDTRIP
360
ADF9
  0
DICTIONARY
  5
AE00
330
F7
100
AcDbDictionary
280
     1
281
     1
  3
ACAD_XREC_ROUNDTRIP
360
AE01
  0
DICTIONARY
  5
AE14
330
1E4
100
AcDbDictionary
280
     1
281
     1
  3
ACAD_XREC_ROUNDTRIP
360
AE15
  0
DICTIONARY
  5
AE0C
330
FD
100
AcDbDictionary
280
     1
281
     1
  3
ACAD_XREC_ROUNDTRIP
360
AE0D
  0
DICTIONARY
  5
AE16
330
1E5
100
AcDbDictionary
280
     1
281
     1
  3
ACAD_XREC_ROUNDTRIP
360
AE17
  0
DICTIONARY
  5
AE04
330
F9
100
AcDbDictionary
280
     1
281
     1
  3
ACAD_XREC_ROUNDTRIP
360
AE05
  0
DICTIONARY
  5
AE22
330
1F3
100
AcDbDictionary
280
     1
281
     1
  3
ACAD_XREC_ROUNDTRIP
360
AE23
  0
DICTIONARY
  5
AE20
330
1F2
100
AcDbDictionary
280
     1
281
     1
  3
ACAD_XREC_ROUNDTRIP
360
AE21
  0
DICTIONARY
  5
AE1A
330
1EF
100
AcDbDictionary
280
     1
281
     1
  3
ACAD_XREC_ROUNDTRIP
360
AE1B
  0
DICTIONARY
  5
AE1C
330
1F0
100
AcDbDictionary
280
     1
281
     1
  3
ACAD_XREC_ROUNDTRIP
360
AE1D
  0
DICTIONARY
  5
AE0A
330
FC
100
AcDbDictionary
280
     1
281
     1
  3
ACAD_XREC_ROUNDTRIP
360
AE0B
  0
DICTIONARY
  5
ADFE
330
F6
100
AcDbDictionary
280
     1
281
     1
  3
ACAD_XREC_ROUNDTRIP
360
ADFF
  0
DICTIONARY
  5
AE1E
330
1F1
100
AcDbDictionary
280
     1
281
     1
  3
ACAD_XREC_ROUNDTRIP
360
AE1F
  0
XRECORD
  5
AE27
102
{ACAD_REACTORS
330
AE26
102
}
330
AE26
100
AcDbXrecord
280
     1
102
DISPLAYNAME
  1
Metric50
102
FLAGS
 90
        0
  0
XRECORD
  5
ADEC
102
{ACAD_REACTORS
330
ADEB
102
}
330
ADEB
100
AcDbXrecord
280
     1
102
SHADEPLOT
 70
     0
102
SHADEPLOTRESLEVEL
 70
     2
102
SHADEPLOTCUSTOMDPI
 70
   300
  0
XRECORD
  5
ADEE
102
{ACAD_REACTORS
330
ADED
102
}
330
ADED
100
AcDbXrecord
280
     1
102
SHADEPLOT
 70
     0
102
SHADEPLOTRESLEVEL
 70
     2
102
SHADEPLOTCUSTOMDPI
 70
   300
  0
XRECORD
  5
ADE9
102
{ACAD_REACTORS
330
ADE8
102
}
330
ADE8
100
AcDbXrecord
280
     1
102
SHADEPLOT
 70
     0
102
SHADEPLOTRESLEVEL
 70
     2
102
SHADEPLOTCUSTOMDPI
 70
   300
  0
XRECORD
  5
ADF0
102
{ACAD_REACTORS
330
1F9
102
}
330
1F9
100
AcDbXrecord
280
     1
102
MATERIAL
148
0.0
149
0.0
149
0.0
 93
        0
 94
       63
282
     0
 72
     1
 77
     1
171
     1
175
     1
179
     1
273
     0
  0
XRECORD
  5
1FA
102
{ACAD_REACTORS
330
1F9
102
}
330
1F9
100
AcDbXrecord
280
     1
 70
     1
 90
429727718
  1
D62C5603-E3A1-4AEA-B7FB-FE5D8D0755AF
310
504B03040A0000080000CC70623B3DEE336E79000000790000001B0000006175746F6465736B2D64657369676E2D7061636B6167652E786D6C3C3F786D6C2076657273696F6E3D22312E302220656E636F64696E673D227574662D3822203F3E3C666F726D6174733E3C666F726D61743E687474703A2F2F736368656D612E
310
6175746F6465736B2E636F6D2F64657369676E2D7061636B6167652F323030393C2F666F726D61743E3C2F666F726D6174733E504B0304140006080800CC70623BD486FD9CA0000000F4000000130000005B436F6E74656E745F54797065735D2E786D6C7D8EC10E82300C865F65E91D8A1E8C310C0EEA1BF002731658846E
310
D98AC1B77784ABF1D8FE5FBFBF75BBCE937A534CCEB38643598122B6FEE978D0B0485F9C41B54DDD7D022595594E1A469170414C76A4D9A4D207E29CF43ECE46F218070CC6BECC4078ACAA135ACF422C856C0E68EA1BF5669944DDD7BCDE7B1F8E415D77AECB980613C2E4AC91FC167A2B244592486606FC29C8FD7F045B9A
310
EF7053A7E60B504B0304140006080800CC70623B853B8169EB0000007C01000008000000636F72652E786D6C8D90416EC3201045AF62CDB6C206821CC7C244919D9CA01740401C94182C03558F5F9C3852BBEB6A467FFE9B197D7EFC9E1EC5975982F5AE035262288C535E5B377690E21535501C055FBC8FBF6C503839990E
310
5619041F179FE64D52DE45E362569DD7661365082642A11EB9E920A89B99642953CC8E702F67A9EE7234257977194EC9EAE275C4EABCCF5EAD5940D4AC6F0E35A568B8F43562CD7046CD199FD07E60174276A7BE677B5EADB0E0D14EEFFB6A31321A0D82627C4084204C3F096B71DD52F6819B16635EADF63F509AF53FA164
310
5DDCD1EDDD17164090FCC8732078B56691CB33A85CD7DCC40F504B0304140006080800CC70623B55019EA25F0000007C00000007000000636E782E786D6C4DCB3B0E80201045D1AD90E915ED2CF8AC45050C11660C8261F98AB1B07AC9C97D42D718D865D3E909258CFD00CCE24AC6E326A164D74DC0B4128928FF32603847
310
2BA13128B1252AC747C6BAB984FC68F0B87FE8960A5C09FE86CFB69FBA01504B0304140006080800CC70623BDBABAAF470010000D40300000C0000006662782F636F72652E786D6CC553D16E823014FD95A6AF4B694182CC941A83FA05FB810A9511A125A5257EFE2E82712ECEB8A7F100CD39F7F69E734AF9FADC366850B6
310
AF8DCE7018308C942E4C59EB2AC3DE1D498AD15A706B8CFB56869196ADCAF00863C12B6B7C374385D14E6907A836A59A41D9F7CA615434B0C8705F7CAA5606D23BA8E84F41278B93AC54100640439DE0BDB320004D43C63716C7C399D30917DCFBBA9CD9BA8469F5B156168B24CED3F7248AC8769F27244EB73B92EED8862C
310
B7F13E0C179B3C8F979C8ECD82BBBABDAA2BAC924E9558448CBD9330242CFA08E3154B5651FCC6D215639C8EE5774DBE2B5F6CF2B5768B68963BB5F5588420E442FC700B1139D4CB01F450C1E918227C2E09DF070D8140C84E1E9AAB8F1340832A9CB13130A5F1376A908D57309505ECF2A0DF179C4E9D30F5B239B87E3823
310
7A79C6F31DE1A8A5AEC08474B03C7837EAE4938639B44E5932B833D2C6B6B279CDC613877FA26EE21F4A2A4C63EC7F29A2F301D1F9F7A0E37D145F504B0304140006080800CC70623B9C113CC27E0000009D0000000B0000006662782F636E782E786D6C4DCCDF0A83201C86E15B91DFB94BFB330DD428C8FB886521330DA7
310
6397BF1A1DECE883878F57749FCDA1B7892F1BBC047A23808C7F84D9FA55424E0BE6803A256208E9EF06C84F9B91703228B1C690F78B66B34CD9A5439DF5CF0BFBF65E35BCA1B8D6A5C6F540381E886698B5741C695F9503EBA150A2F8958E3DC3EA0B504B0304140006080800CC70623B7DF2F77C2A010000120200003100
310
00006662782F41393633353835312D344632462D344230382D423046372D3739314545314133324237412F636F72652E786D6C8D51DB8EC22014FC15C2939B0D2DB4B45643319AE817EC0F6041255A68B86CFCFC856D4D76DF7CE190393373060EDB3DC707F856CE6B6B7A480A0C81328395DA5C7B18C3057510EC3873D686
310
3F34088C18550F330C39BB3A1BA7051AAC09CA84841A2BD5020AEF55806078A44B0FFD7053A328440C89E1EFC52486BBB8AA8214A99D789CF9E05200300FC927E4FB4D5B375D43103D5527440FB843077C5AA3F5861C8F645F5787F59E95B390B318B55CE45AA638FAA2957BD7248B390B7A7CC51F9C124149C82B8C378810
310
84AB2F42B7B8DD56F413775B8C5999E9FF4471926F8AA236A1AE96B8B3CC434E5839373893369E1FAF30EA395917409EB7F26AF8801C171837A4A6AC9C89E9F9C9B1A58BA30FD6A5EF5DDDCF894B9AD9B6A59C957943A9FCAE2FD5BC4DFE03504B0304140006080800CC70623BAD7543B64E01000033030000300000006662
310
782F41393633353835312D344632462D344230382D423046372D3739314545314133324237412F636E782E786D6CD593CD6EC32010845F0571AD6CE3D48AD20813A9873E410FBD12D82434182C7EAAE6EDBB2424CD25871E7B41D6EC30B3FA84F9E67BB2E40B4234DE8DB46F1925E094D7C6ED479AD3AE5951B2113C789FEE
310
6C943839C1488B4C05DF079FE72A69D8C96C13AAD6B8631503449F83828872B949AC57D26200B826A308D316B4064D6E46FCDA41C05550DC9E483A00797BFD207EFB092A45DE9514C1BBD22178396BD39D891265658C238DEA00936C654E5E433CB65A26D9F6EDB5EBC14EBF49A45CB856E66048291F6939A9A81BB5C89177
310
38143CA680F4AA299D66A042CEB3354A2684DC9D8D178FE0D9B8B41CAAD720F880EE7EF93C0C18769E099ECC04D5A102C8049A8A05632F4DDF376CF1DE0F6BB65C2F8627B65A33C6BB62177CEBBDAD973006829F89F22E814B54F4BC2BE347F8AA8F681390B50FA73F804400B5F542E796F19FF974E7F78DB802FE05E20750
310
4B0304140006080800CC70623BE75B7789680500003C100000340000006662782F41393633353835312D344632462D344230382D423046372D3739314545314133324237412F6F626A656374732E786D6CAD575B8F9B3818FD2B887D06C22499CB8AA1CA655245D5B455A356FB305264C061D8018C6C3393D95FBFC7600890
310
A4CD5EF210B0B1BFEBF98E3F7B1FF6596ABC522E1296DF9BAE3D320D9A872C4AF2F8DE2CE5CEBA358D0FBEC719939D65A691938CDE9B6ADAF4BD98B3B2D05311DD91329583D9D5FC0F438434A7A611A644887B5384CF34233629258BA878B12322891DEFF6B66BD70BFB62634E8AE781D082709A4B588AF91C528CDA28B73F
310
1C998EEF39EABBEFA97FBD6A7C7E9553F9D3D79FE442923C3C523610337627CB87ABE99D359D4CC6D6E4FACAB5E6ABF9D2726FC6A3C5F56271377BB88362213924694B38DD99FE47C48627A1E7D49F5A8BB5E1A74C0A599ED3B0F21F1E56366B89112D681E218F0915D0D6F17AD41FBA2A369DCF6335D62ABBD39779D5DDD1
310
11D4D8DE3CBB96B2E04FB8202E41051754A1AA8E8F76B4C6DFE810B580B1547F4B84911149794252234D024EF8BBE963A95AE27B3D310A9D5C215C7960FAEE415ED75694C6AFB17BCACA5D99A60A9AA65F217B0BFC53292ACB92BF283FAD0D3621576592CB5BED907C2FA8E9DF794E35E97BEA31BED21FEB401ABB94C44839
310
DCACBF0E1C5DA8DA5B2F4DFFD32AD86F543D9E565E7056502E157C00AD2671CD534549AB752FCA9CDA00677A313F04E51B22FF19E57B300579E3C97EB29F682D92935CEC18CF901B7B54FD8C51F362B56FC72FE0B3C1EAE335EDCCBF5AEC39ADB17DC238973F804BA5E6F6BFE7AF1FB32E523BE9F3BD571418E3631DCA4D48
310
5250CF639223210A9446CA30052EDF057BD35F8329C1ECD84552BF0DC8D18BE7BCE23BFE6BD960AB4A7DE79923A103BEBD80F911CBAA2C60DB19B01CF164A5583B772EE6D3FFA56666CBCDA74DC97724A48F9A58967497E489C4D979006FD7A05E227A1EBDD0F737C623387A9C844D3709995625106D157315F8B8392CD4E0
310
A0B9A720C4BE9829CEF37EA1E13111214D53925356365ADA634861B52519DD27A00AEB808EAF0628E6F435519D446F45CF2C9CF5214F0A15B2F6D06B79DA3EE3CBF7F56780D2F4E7EF73A0F5E5B02A38D07DC852C6B7C1FBB6664213E0C39E3EBA7FF4E1AD23EA2829407C85E586727488B751B2DB9502BC7B228A3FD68B6E
310
A65A22397E690AA8D158D7E404EC8CDA235CC3B7D1898680131CEC2CDF2638C65196279577750F15884AEE19F94199155B92B13297978469D4F8D358DF0AEF7631E28DC8F0D9F437D5D39A83B2231A1D52D543813A824EF8D44BCFF2FA6A31BD1E8DAD87F1CCB526B3879935BF59CDADD5C37479BB1CDD4CA7B3556B516589
310
EF352754B706114D9C885EC9131DE6EFEB43D99AFE2391C2F958179413D7CFEF6B1B6DB1E7600F00DE6E5C67454A339A4BA2E0FBA85ED26F045D454F463DBFCE484C2F90F2E5E3666003662ED8F755951A7D1BECD5B30B550B2785C8E7320B7292A4838DDA71BBC863ED7613CAF659337A3354231D4FF4A182A54904C2898C
310
98B28C4AD0CE056CCF332A80986E571EE9DBC305BB5FEB7E509220A58D25CF042D712A806AC0AD0C657FDEF80D2D9CEAA2EE4D1C76F60BFE74219A06527D6F82DF6412526107381E55E353090704D085B52408A8913C4ED159D79BDA71BB4BC506F4831350EB6F975CD22D69BF7AC49B91A2C0A9DDA3D5CA36AD20FC478E37
310
E61844E2352865EBCB61A275A65283CAAA9DD27703B4102F5AF51EF5F573B75CBB5AD38BC845F7A49F82A0966A49C2E3EA5EA0ECD326CD965F1DB402C6FA8B51A4658C5C5E2EC9E214602E55810345408596591009A82E7E7FFACA19EEA299B14A0081A705CB3296EBC14CDF658DCD336EA6D1136881AAEB87B81AB9EE53D5
310
F5EB8BC8362082DA24122F98680A4E7930C01A0079749CEA14382A0783E5EBA5A10F8C098456A03D6A4AEB6BB881E2513747552A5DB22C7EDAF83BD5528081A365F7FF06504B0304140006080000CC70623B000000000000000000000000350000006662782F41393633353835312D344632462D344230382D423046372D37
310
39314545314133324237412F76657274696365732E62696E504B0304140006080800CC70623BF270F1330600000004000000360000006662782F41393633353835312D344632462D344230382D423046372D3739314545314133324237412F747269616E676C65732E62696E636660600000504B0304140006080000CC7062
310
3B000000000000000000000000370000006662782F41393633353835312D344632462D344230382D423046372D3739314545314133324237412F617474726962757465732E62696E504B0304140006080800CC70623B08DA0BD19000000041010000360000006662782F41393633353835312D344632462D344230382D4230
310
46372D3739314545314133324237412F6469726563746F72792E786D6C858F410AC3201045AF22B36F53E9A60B35CBEEBAE80D244E44489C6234F4F835464A48035D0DF398FF9F8AF63D0E6CC63039F212F8F9020C7D47C6792B21C5FE7403D62A1188E2E60C98D7234A5830286103A55745067B9D86B8A3CF9C7F90C11DE6
310
07FB144396D7B6A82D282E9A152AD114D5EF2CB866EEE831B8EEA07A7BB5A8D7D61A2BAAEB7FD5F70921FF497D00504B0304140006080800CC70623BEDD1DC58FD000000A00100003B0000006662782F41393633353835312D344632462D344230382D423046372D3739314545314133324237412F7265736F75726365732F
310
636F72652E786D6C8D504B6E833010BD0A9A6D65B00922041947112427E8052C33A156828DFCA97AFC9A40A576D7CDCCE87D344F8F9FBFE667F689CE6B6B3A6039850C8DB2A336530731DC4903D95970676DF82583CCC8193B5861107C72362E3BA4AC096842428D1D7107A5F7182053CF7474E0D507CE32973124857FE48B
310
540F3961CEF244279DE03EB81420DB9EAC1384436FA353E879B1B182C7A8C75DA3C7F453DF353A1075D537A7BA6464B8F535A99AE14A9A2BBD90E350DD183B5CFABE3AF262350B1EF4FC9351399401471025A527C218A1E53BAB5A5AB765F5469B96525EACF23FA6B88CFF34456DC2A1DCE36E360F82A5202F42F062ED2BAD
310
579969AFDD8A6F504B010214000A0000080000CC70623B3DEE336E79000000790000001B00000000000000000000000000000000006175746F6465736B2D64657369676E2D7061636B6167652E786D6C504B01021400140006080800CC70623BD486FD9CA0000000F40000001300000000000000000000000000B20000005B
310
436F6E74656E745F54797065735D2E786D6C504B01021400140006080800CC70623B853B8169EB0000007C010000080000000000000000000000000083010000636F72652E786D6C504B01021400140006080800CC70623B55019EA25F0000007C000000070000000000000000000000000094020000636E782E786D6C504B
310
01021400140006080800CC70623BDBABAAF470010000D40300000C00000000000000000000000000180300006662782F636F72652E786D6C504B01021400140006080800CC70623B9C113CC27E0000009D0000000B00000000000000000000000000B20400006662782F636E782E786D6C504B01021400140006080800CC70
310
623B7DF2F77C2A010000120200003100000000000000000000000000590500006662782F41393633353835312D344632462D344230382D423046372D3739314545314133324237412F636F72652E786D6C504B01021400140006080800CC70623BAD7543B64E010000330300003000000000000000000000000000D2060000
310
6662782F41393633353835312D344632462D344230382D423046372D3739314545314133324237412F636E782E786D6C504B01021400140006080800CC70623BE75B7789680500003C10000034000000000000000000000000006E0800006662782F41393633353835312D344632462D344230382D423046372D3739314545
310
314133324237412F6F626A656374732E786D6C504B01021400140006080000CC70623B0000000000000000000000003500000000000000000000000000280E00006662782F41393633353835312D344632462D344230382D423046372D3739314545314133324237412F76657274696365732E62696E504B01021400140006
310
080800CC70623BF270F133060000000400000036000000000000000000000000007B0E00006662782F41393633353835312D344632462D344230382D423046372D3739314545314133324237412F747269616E676C65732E62696E504B01021400140006080000CC70623B0000000000000000000000003700000000000000
310
000000000000D50E00006662782F41393633353835312D344632462D344230382D423046372D3739314545314133324237412F617474726962757465732E62696E504B01021400140006080800CC70623B08DA0BD1900000004101000036000000000000000000000000002A0F00006662782F41393633353835312D344632
310
462D344230382D423046372D3739314545314133324237412F6469726563746F72792E786D6C504B01021400140006080800CC70623BEDD1DC58FD000000A00100003B000000000000000000000000000E1000006662782F41393633353835312D344632462D344230382D423046372D3739314545314133324237412F7265
310
736F75726365732F636F72652E786D6C504B0506000000000E000E0080040000641100000000
  0
XRECORD
  5
ADEF
102
{ACAD_REACTORS
330
1F7
102
}
330
1F7
100
AcDbXrecord
280
     1
102
MATERIAL
148
0.0
149
0.0
149
0.0
 93
        0
 94
       63
282
     0
 72
     1
 77
     1
171
     1
175
     1
179
     1
273
     0
  0
XRECORD
  5
1F8
102
{ACAD_REACTORS
330
1F7
102
}
330
1F7
100
AcDbXrecord
280
     1
 70
     1
 90
429727718
  1
30362254-06B7-45E0-A893-8CFA70E3D6BC
310
504B03040A0000080000CC70623B3DEE336E79000000790000001B0000006175746F6465736B2D64657369676E2D7061636B6167652E786D6C3C3F786D6C2076657273696F6E3D22312E302220656E636F64696E673D227574662D3822203F3E3C666F726D6174733E3C666F726D61743E687474703A2F2F736368656D612E
310
6175746F6465736B2E636F6D2F64657369676E2D7061636B6167652F323030393C2F666F726D61743E3C2F666F726D6174733E504B0304140006080800CC70623BD486FD9CA0000000F4000000130000005B436F6E74656E745F54797065735D2E786D6C7D8EC10E82300C865F65E91D8A1E8C310C0EEA1BF002731658846E
310
D98AC1B77784ABF1D8FE5FBFBF75BBCE937A534CCEB38643598122B6FEE978D0B0485F9C41B54DDD7D022595594E1A469170414C76A4D9A4D207E29CF43ECE46F218070CC6BECC4078ACAA135ACF422C856C0E68EA1BF5669944DDD7BCDE7B1F8E415D77AECB980613C2E4AC91FC167A2B244592486606FC29C8FD7F045B9A
310
EF7053A7E60B504B0304140006080800CC70623B1EC5D7A3EB0000007C01000008000000636F72652E786D6C8D90416EC3201045AF82665B6103C6756C6122AB4D4ED00B204C5C94182C03558F5F9C3852BBEB6A467FFE9B197D71FC9E6FE8CBACC17AD7032D0820E3B41FAD9B7A48F1820F808E52ACDEC75F36404ECDA687
310
4D0629A6D5A76597B477D1B89855E747B38B2A041301E95B6E7A08FAD3CCAA50296647B8168BD2573599823EBB0CA76447F43862C7BCCF5EAC59410E4DDD9C7973C2755553CCCFA4C603E3040F1565ED3B1FDE4E432BCA0D9622DAF9795FAF464533826484B498524CD807E51D79ED187F21878E10516EF63F505AC67F42C9
310
BA58B1FDDD071640D2FCC87D2045B96591CB3DA85CB7DCE40F504B0304140006080800CC70623B55019EA25F0000007C00000007000000636E782E786D6C4DCB3B0E80201045D1AD90E915ED2CF8AC45050C11660C8261F98AB1B07AC9C97D42D718D865D3E909258CFD00CCE24AC6E326A164D74DC0B4128928FF32603847
310
2BA13128B1252AC747C6BAB984FC68F0B87FE8960A5C09FE86CFB69FBA01504B0304140006080800CC70623B8C9102E971010000D40300000C0000006662782F636F72652E786D6CC5535B6E833010BC8AE5DF0A6C08340F1947A84D4ED00B38C6A128602363A31CBFCB234A53A551FA553EC09AD9F5CE8C31DB9E9B1AF5CA
310
7695D1198E428A91D2D214952E33ECDD315861B4E5CC1AE3BE9561A445A3323CC098B3D21ADFCE9034DA29ED00D5A6503328BA4E398C640D8B0C77F253352214DE4145770A5B214FA2546114020D759C75CE8200340D19DE981F0F6746269C33EFAB6266AB02A655C74A59CCF365BADC27CB5D902ED22848F6340DF238A141
310
BE88E2F57B92BFEDF23523433367AE6A2EEAA455C2A902F398D2751045018D3FA264435F3771F242571B4A1919CA6F9A7C5B3CD9E42BED16F12C776AEB308F40C848FC700B1139D4891EF410CEC810227CC6846F8386402064270EF5C5C709A05E49676C024C61FC95EA45ED154CA5211D1FF4FB8291A913A68E9B83EBBB33
310
E2A7673CDE118E5AE8124C0807CB8377834E366998436B950D7A7746DAD846D4CFD978E0F04FD455FC5D49D2D4C6FE9722321F10997F0F32DC47FE05504B0304140006080800CC70623BFFEA85907E0000009D0000000B0000006662782F636E782E786D6C4DCCD10A83201886E15B91FFDC95D95A811AB6F23E625948A6C3
310
E9D8E5AF46073BFAE0E1E365ED67B3E8ADC3CB78C7815C7240DA3DFC64DCC221C519D7805AC182F7F1EF06C88D9BE6703008B6049F9E274D7A1E938DBB5AE3D6131B2589BA0D3D965551E0B2EA732C9B9A624AAEB41E3A557677029960D9AFB4EF11165F504B0304140006080800CC70623B4FEEA4082C0100001202000031
310
0000006662782F39464131463745442D413632322D343644302D413938332D3331353338454246344243312F636F72652E786D6C8D515B6EC32010BC0AE2AB55850DD871ED0813254D72825EC00192A2C460F1A872FC42ED48ED5F7E00CDCECCCEB26C731F6FE05B39AFADE921293004CA082BB5B9F43086336A21D870E6AC
310
0D7F68109861543DCC30E4ECE26C9C164858139409093556AA051CBC570102714B8F1E7AF1A5C6A11862480C7F2DA6415C878B2A4891CA89C7990F2E050073937C42DE1DB7E4F87ED8A36D4329AA9B3D46DBAEAD504556557BD81DEBDD0761E52CE42C462D17B996298E3E6BE59E35C962CE821E1FF18553435012728A7187
310
0841987E927A8D9B35ADDF70BBC6989599FE4F1427F9A4286A132ABAC49D651EF234CD5CE04CDA78BA3DC2A8FB645D00B9DF8B57E215725C60BCA2A463E54C4CE327C7A65E1C7DB02E7DEFCBF594B864C5CA6CDBD49C957943E9FA5D5FBAF336F90F504B0304140006080800CC70623BAD7543B64E01000033030000300000
310
006662782F39464131463745442D413632322D343644302D413938332D3331353338454246344243312F636E782E786D6CD593CD6EC32010845F0571AD6CE3D48AD20813A9873E410FBD12D82434182C7EAAE6EDBB2424CD25871E7B41D6EC30B3FA84F9E67BB2E40B4234DE8DB46F1925E094D7C6ED479AD3AE5951B2113C
310
789FEE6C943839C1488B4C05DF079FE72A69D8C96C13AAD6B8631503449F83828872B949AC57D26200B826A308D316B4064D6E46FCDA41C05550DC9E483A00797BFD207EFB092A45DE9514C1BBD22178396BD39D891265658C238DEA00936C654E5E433CB65A26D9F6EDB5EBC14EBF49A45CB856E66048291F6939A9A81BB5
310
C8917738143CA680F4AA299D66A042CEB3354A2684DC9D8D178FE0D9B8B41CAAD720F880EE7EF93C0C18769E099ECC04D5A102C8049A8A05632F4DDF376CF1DE0F6BB65C2F8627B65A33C6BB62177CEBBDAD973006829F89F22E814B54F4BC2BE347F8AA8F681390B50FA73F804400B5F542E796F19FF974E7F78DB802FE05
310
E207504B0304140006080800CC70623B16AB87BA640500003C100000340000006662782F39464131463745442D413632322D343644302D413938332D3331353338454246344243312F6F626A656374732E786D6CAD575B6FA33818FD2B887DE6924B3BED8A326A92B68A663B534DD4D13E548A0C38942D60649B369D5FBFC7
310
600890A493BDE42160637FD7F31D7FF63E6FB3D478A55C242CBF3247B66B1A340F5994E4F19559CA8D75611A9F7D8F33263BCB4C232719BD32D5B4E97B316765A1A722BA21652A07B3B7B33F0D11D29C9A46981221AE4C113ED38CD8A4942CA2E2C58E882476BCD9DA23BB5ED8171B73523C0F841684D35CC252CCE79062D4
310
468DFA43D7747CCF51DF7D4FFDEB5593E3AB9CCA9FBEFE241792E4E19EB28198C968BAB8199F5D5A67D3E9C49A9E8F47D6EC76B6B0469F26EEFC7C3EBFBCBEB98462213924694B38DD98FE1D62C393D073EA4FADC5DAF04326852CCF6958F90F0F2B9BB5C48816348F90C7840A68EB78EDF68723159BCEE7891A6B95DDE9D3
310
BCEAEEE8086A6C6F9E5D4B59F0175C10A7A0820BAA5055C7473B5AE3CFDD452D602CD5DF12616444529E90D448938013FE6EFA58AA96F85E4F8C42275708571E98FE6827AF6B2B4AE3D7D83D64E5A64C53054DD3AF90BD06FEA9149565C94FCA0F6B834DC85599E4F2423B24DF0B6AFA979E534DFA9E7A4CC6FA631D486393
310
921829879BF5D781A373557BCB85E97FB90DB62B558F8795179C15944B051F40AB495CF35451D26A4727654E6D8033BD98EF82F21D91FF8AF2DD9982BCF1643BDD4EB516C9492E368C67C88DED563FC36D5EACF66DFF057C3658BDBFA69DF9578B3DA735B64F18C7F20770A9D45CFCF7FCF563D6456A277DBEF78A02637CA2
310
43B90A490AEAB94F72244481D24819A6C0E59B606BFA4B3025981DBB48EAB701D97BF19C577CC77F2D1B6C55A9EF3C732474C0B727303F625995056C3B02963D9EAC146BE78EC5FCEC7FA999EBC5EACBAAE41B12D27B4D2C0BBA49F244E2ECDC81B76B502F113D8F5EE8FB1BE3111CDD4FC2AA9B844CAB1288B68AB90A7CDC
310
1C166AB0D3DC5310625FCC14E779BFD0709F8890A629C9292B1B2DED31A4B0DA928CEE135085754027E3018A397D4D5427D15BD1330B677DC8934285AC3DF45A9EB68FF8F2B8FC0A509AFEECFD0FF2DE25CC6047F7214B195F07EFEB9A094D800F7BFAE8FED187B78EA8A3A400F115961BCAD1215E47C966530AF0EE8128FE
310
58CEBB996A8964FFA529A046635D9353B0336A8F700DDF46271A024E70B0B37C9DE01847591E54DED53D54202AB947E4076556AC49C6CA5C9E1226B7F1A7B1BE15DEED62C41B91E1B3E9AFAAA735036547343A925075041DF0A9979E893B391F8FCFA6967B3EFB644DCF6E5CEBFAE272625DCC6FAF3FB93793C5F90CE1EF57
310
407342756B10D1C489E8953CD1617E5CEECAD6F4EF8914CE5D5D504E5C3F1F9736DA62CFC11E00BCDDB8CC8A9466349744C1F75EBDA4DF09BA8A9E8C7A7E9991989E20E5DBDD6A6003664ED8F7A04A8DBE0DF6EAD9B9AA858342E47399053949D2C146EDB85DE4B176BB0965FBAC19BD19AA918E27FA50C1D22402E144464C
310
59462568E704B6E71915404CB72B8FF4EDE184DDAF753F284990D2C6926782963815403548A70C657FDEF80D2D9CEAA2AE4C1C76F60BFE74219A06527D6582DF6412526107381E55E353090704D085B52408D0933C4ED159D79BDA71BB4BC506F4831350EB6F979CD22D69BF7AC49B91A2C0A9DDA3D5CA36AD20FC478E37E6
310
1844E2352865EBCB6EA275A652E3836BE04EFB400BF1A2556F515F1FBB35B2AB35BD889C744FFA1004B5544B121E57F70215746DD2F5E2C1412B602CBF19455AC6C8E5E9922C4E01E65215385004546899059180EAFCF7A707CE7017CD8CDB0410789AB32C63B91E5CEBBBACB17AC6CD347A022D5075FD106377347AAABA7E
310
7D11590744509B44E205134DC1290F06580320F78E537D3D73540E06CB970B431F185308AD40BBD794D6D77003C5A36E8EAA54BA64597CD8F83BD552A080A365F7FF06504B0304140006080000CC70623B000000000000000000000000350000006662782F39464131463745442D413632322D343644302D413938332D3331
310
353338454246344243312F76657274696365732E62696E504B0304140006080800CC70623BF270F1330600000004000000360000006662782F39464131463745442D413632322D343644302D413938332D3331353338454246344243312F747269616E676C65732E62696E636660600000504B0304140006080000CC70623B
310
000000000000000000000000370000006662782F39464131463745442D413632322D343644302D413938332D3331353338454246344243312F617474726962757465732E62696E504B0304140006080800CC70623B08DA0BD19000000041010000360000006662782F39464131463745442D413632322D343644302D413938
310
332D3331353338454246344243312F6469726563746F72792E786D6C858F410AC3201045AF22B36F53E9A60B35CBEEBAE80D244E44489C6234F4F835464A48035D0DF398FF9F8AF63D0E6CC63039F212F8F9020C7D47C6792B21C5FE7403D62A1188E2E60C98D7234A5830286103A55745067B9D86B8A3CF9C7F90C11DE607
310
FB144396D7B6A82D282E9A152AD114D5EF2CB866EEE831B8EEA07A7BB5A8D7D61A2BAAEB7FD5F70921FF497D00504B0304140006080800CC70623B0D6EF93BFE000000A00100003B0000006662782F39464131463745442D413632322D343644302D413938332D3331353338454246344243312F7265736F75726365732F63
310
6F72652E786D6C8D50596E833010BD0A9ADFCA60B334011947A8694ED00B586642AC041B79A97AFC9A40A5F6AF3F33A3B7689E1E3F7DCD8FEC139DD7D6F4C0720A191A65476DA61E62B892236427C19DB5E1970C322367EC618541F0C9D9B8EC90B226A009093576C41D94DE63804C3DD2D18357379C652E63480A7FCF17A9
310
EE72C29CE5894E3AC17D702940B63D59270887DE46A7D0F36263058F518FBB468FE9A7BE6A7420864373B8D4873369AA8691FA421B3294352543C5CAF65C0F6FEF43CB8BD52C78D0F34F46E550061C419494B6843142CB0F5677F4B52BEB177AEC28E5C52AFF638ACBF84F53D42654E51E77B379102C05791282176B5F693D
310
CB4C7BED567C03504B010214000A0000080000CC70623B3DEE336E79000000790000001B00000000000000000000000000000000006175746F6465736B2D64657369676E2D7061636B6167652E786D6C504B01021400140006080800CC70623BD486FD9CA0000000F40000001300000000000000000000000000B20000005B
310
436F6E74656E745F54797065735D2E786D6C504B01021400140006080800CC70623B1EC5D7A3EB0000007C010000080000000000000000000000000083010000636F72652E786D6C504B01021400140006080800CC70623B55019EA25F0000007C000000070000000000000000000000000094020000636E782E786D6C504B
310
01021400140006080800CC70623B8C9102E971010000D40300000C00000000000000000000000000180300006662782F636F72652E786D6C504B01021400140006080800CC70623BFFEA85907E0000009D0000000B00000000000000000000000000B30400006662782F636E782E786D6C504B01021400140006080800CC70
310
623B4FEEA4082C0100001202000031000000000000000000000000005A0500006662782F39464131463745442D413632322D343644302D413938332D3331353338454246344243312F636F72652E786D6C504B01021400140006080800CC70623BAD7543B64E010000330300003000000000000000000000000000D5060000
310
6662782F39464131463745442D413632322D343644302D413938332D3331353338454246344243312F636E782E786D6C504B01021400140006080800CC70623B16AB87BA640500003C1000003400000000000000000000000000710800006662782F39464131463745442D413632322D343644302D413938332D3331353338
310
454246344243312F6F626A656374732E786D6C504B01021400140006080000CC70623B0000000000000000000000003500000000000000000000000000270E00006662782F39464131463745442D413632322D343644302D413938332D3331353338454246344243312F76657274696365732E62696E504B01021400140006
310
080800CC70623BF270F133060000000400000036000000000000000000000000007A0E00006662782F39464131463745442D413632322D343644302D413938332D3331353338454246344243312F747269616E676C65732E62696E504B01021400140006080000CC70623B0000000000000000000000003700000000000000
310
000000000000D40E00006662782F39464131463745442D413632322D343644302D413938332D3331353338454246344243312F617474726962757465732E62696E504B01021400140006080800CC70623B08DA0BD190000000410100003600000000000000000000000000290F00006662782F39464131463745442D413632
310
322D343644302D413938332D3331353338454246344243312F6469726563746F72792E786D6C504B01021400140006080800CC70623B0D6EF93BFE000000A00100003B000000000000000000000000000D1000006662782F39464131463745442D413632322D343644302D413938332D3331353338454246344243312F7265
310
736F75726365732F636F72652E786D6C504B0506000000000E000E0080040000641100000000
  0
XRECORD
  5
ADF1
102
{ACAD_REACTORS
330
173
102
}
330
173
100
AcDbXrecord
280
     1
102
MATERIAL
148
0.0
149
0.0
149
0.0
 93
        0
 94
       63
282
     0
 72
     1
 77
     1
171
     1
175
     1
179
     1
273
     0
  0
XRECORD
  5
175
102
{ACAD_REACTORS
330
173
102
}
330
173
100
AcDbXrecord
280
     1
270
     1
271
     1
  0
XRECORD
  5
174
102
{ACAD_REACTORS
330
173
102
}
330
173
100
AcDbXrecord
280
     1
270
     1
271
     1
  0
XRECORD
  5
1FB
102
{ACAD_REACTORS
330
173
102
}
330
173
100
AcDbXrecord
280
     1
 70
     0
 90
1673772943
  1
ECE7A1D2-D628-4531-984C-D00F80459256
310
504B03040A0000080000CC70623B3DEE336E79000000790000001B0000006175746F6465736B2D64657369676E2D7061636B6167652E786D6C3C3F786D6C2076657273696F6E3D22312E302220656E636F64696E673D227574662D3822203F3E3C666F726D6174733E3C666F726D61743E687474703A2F2F736368656D612E
310
6175746F6465736B2E636F6D2F64657369676E2D7061636B6167652F323030393C2F666F726D61743E3C2F666F726D6174733E504B0304140006080800CC70623BD486FD9CA0000000F4000000130000005B436F6E74656E745F54797065735D2E786D6C7D8EC10E82300C865F65E91D8A1E8C310C0EEA1BF002731658846E
310
D98AC1B77784ABF1D8FE5FBFBF75BBCE937A534CCEB38643598122B6FEE978D0B0485F9C41B54DDD7D022595594E1A469170414C76A4D9A4D207E29CF43ECE46F218070CC6BECC4078ACAA135ACF422C856C0E68EA1BF5669944DDD7BCDE7B1F8E415D77AECB980613C2E4AC91FC167A2B244592486606FC29C8FD7F045B9A
310
EF7053A7E60B504B0304140006080800CC70623BD9DDAED0EC0000007C01000008000000636F72652E786D6C8D90416EC3201045AF82665B61836D9CD8C2444DD39CA01740405C94182C03558F5F9C3852BBEB6A467FFE9B197D7EF89E6EE8CB2CC17A37002D0820E394D7D68D03A478C17B4007C117EFE32F1B20272733C0
310
2A83E0E3E2D3BC49CABB685CCCAAF3DA6CA20CC14440EA969B0182FA34932C648AD911AEC52CD5558EA6A0CF2EC329598D1E47ACCEFBECC59A050463A7EA5833865FEBDD0E37353BE3EE8DBDE3F6786A48D375FBF6CC78B9C282473B3DEFABC5C86834888A900E538A49F5419B9EB47DD5BC907D4F082F57FB1F28CDFA9F50
310
B22ED6D5F6EE030B20687EE43E10BC5CB3C8E51E54AE6B6EE207504B0304140006080800CC70623B55019EA25F0000007C00000007000000636E782E786D6C4DCB3B0E80201045D1AD90E915ED2CF8AC45050C11660C8261F98AB1B07AC9C97D42D718D865D3E909258CFD00CCE24AC6E326A164D74DC0B4128928FF326038
310
472BA13128B1252AC747C6BAB984FC68F0B87FE8960A5C09FE86CFB69FBA01504B0304140006080800CC70623BA24EB22D72010000D40300000C0000006662782F636F72652E786D6CC5535B6E833010BC8AE5DF0A6C5E49888CA3A6694ED00B38E05014B091B1518EDFE511A5A9D228FD2A1F60CDEC7A67C6986DCE4D8D7A
310
69BA4AAB0C073EC548AA5C17952A33ECECD15B61B4E1CC686DBF9561A44423333CC098B3D268D7CE50AE9595CA02AA74216750749DB418E5352C32DCE59FB211BE70162ABA93DF8AFC244AE9073ED050C759670D0840D390E18DF9F1706664C23973AE2A66B62A605A75ACA4C13C4976E1364A12EF355A2EBD384AF65EFA96
310
BC7B8BED2EA6719AAE16FB8491A199335B351775B991C2CA02F390D2D40B028F861F41BCA68B7518BFD0D59A524686F29B26D7164F36B94AD9289CE54E6D1DE6010819891F6E21228B3AD1831EC219194284CF98F06DD01008846CC5A1BEF83801D4CBDC6A1303536877A57A513B0953A94FC707FDBE6064EA84A9E3E6E0FA
310
EE8CF0E9198F7784A316AA0413C2C2F2E0ECA0934D1AE6D05A69BCDE9E91D2A611F573361E38FC1375157F5752AE6B6DFE4B11990F88CCBF0719EE23FF02504B0304140006080800CC70623B408A7D3B7C0000009D0000000B0000006662782F636E782E786D6C4DCCD10A83201886E15B91FFDC552A92A0064DBC8F581632
310
D3703A76F9ABD1C18E3E78F878E5F0D9027ABBFCF2292AE86E2D20171F69F6715550CB827B40839639A5F2770314A7CD293819B45C73AAFB45B35BA61ACAA1C1C7E7855C58C15BC331339661262CC762340413D68D77DA5B42298546CBE6573AF60CEB2F504B0304140006080800CC70623B449FB9BD290100001202000031
310
0000006662782F36394639363044362D344446342D343946362D394244322D3234314243333846323333332F636F72652E786D6C8D515B6EC32010BC0AE22B55850D98B871848994463E412FE002495162B07854397EA176A4F62F3F2C9A9D991D587EB84F37F0AD7D30CEF6905418026DA553C65E7A98E219ED203808EE9D
310
8B7F6810D871D23D2C3014FCE25D9A57483A1BB58D19B54EE9151C43D0110279CB971E06F9A5A7B11A53CC8C70ADE6515EC78BAE4895DB992778883E0700CB907242D17643D7E2538BD869608875438BBAE38922CAC8F1BDD90DB4691A5E2F42C153326A951B95E398B3D1FE599322163C9AE9115F7A3D46ADA0A018778810
310
84E907617BDCEE297BC5BB3DC6BC2EF47FA234AB2745C9D8D8D035EE220B50105E2F0DC1954B9FB747187D9F9D8FA0CCDB042D5FA0C015C65B42DF78BD10F3F3B363CB56C7109DCFDFBBB97E662ED92EB62D13BC2E1BCAE5777DB9966D8A1F504B0304140006080800CC70623BAD7543B64E01000033030000300000006662
310
782F36394639363044362D344446342D343946362D394244322D3234314243333846323333332F636E782E786D6CD593CD6EC32010845F0571AD6CE3D48AD20813A9873E410FBD12D82434182C7EAAE6EDBB2424CD25871E7B41D6EC30B3FA84F9E67BB2E40B4234DE8DB46F1925E094D7C6ED479AD3AE5951B2113C789FEE
310
6C943839C1488B4C05DF079FE72A69D8C96C13AAD6B8631503449F83828872B949AC57D26200B826A308D316B4064D6E46FCDA41C05550DC9E483A00797BFD207EFB092A45DE9514C1BBD22178396BD39D891265658C238DEA00936C654E5E433CB65A26D9F6EDB5EBC14EBF49A45CB856E66048291F6939A9A81BB5C89177
310
38143CA680F4AA299D66A042CEB3354A2684DC9D8D178FE0D9B8B41CAAD720F880EE7EF93C0C18769E099ECC04D5A102C8049A8A05632F4DDF376CF1DE0F6BB65C2F8627B65A33C6BB62177CEBBDAD973006829F89F22E814B54F4BC2BE347F8AA8F681390B50FA73F804400B5F542E796F19FF974E7F78DB802FE05E20750
310
4B0304140006080800CC70623B8D05915C650500003B100000340000006662782F36394639363044362D344446342D343946362D394244322D3234314243333846323333332F6F626A656374732E786D6CAD575B6FA33814FE2B887D06429276DA1565D4266D158D3A339A6846FB502932E050B66023DB74D2FDF5FB190C01
310
9276B2973C046C8ECFF53B17071F77456EBD502133CEAE6CDF9DD81665314F32965ED995DA3A17B6F5310C04E7AA47665B8C14F4CAD6DB7618A48257A5D94AE89654B91AEDDEDDFC61C998326A5B714EA4BCB265FC440BE2924AF184CA6737218AB8E976E7FA6E4338649B0A523E8D98964450A6A029F619B8588D52FE7039
310
B1BD30F0F4F730D0FF866AF6369557DB33949F31A9088B0F848DD8CCFCF9F2767A76E99CCDE733677E3EF59D9BBB9BA5E37F984D16E78BC5E5F5ED25044B25C0C96822E8D60EEFE11B91C581D77CEA34368A1F5329E68CD1B8B61F16D63A1B8E092D294B10C78C4A48EB593D192E7DED9BDEE7995E1B91FDEDD3ACEA9FE831
310
6A756F9F7D4D79F4274C90A7A04248AA51D5F8C718DAE06FB2F75AC4796EBE65D22A88A22223B995679120E2D50E41AA49C260C046A35368846B0BECD0DFF3EBEB8AD4F835768F69B9ADF25C43D30E6B646F807FAA64AD59F61715C7A54127C4AACA98BA3006A9D792DAE165E0D59B61A01FB3A9F9D838D2DAE62445C86166
310
F37564E842E7DE6A69879FEEA2DD5AE7E371E1A5E025154AC307D06A03D73EB5978C58FFA4C8E9033066E0F3BD53BEC1F39F91BE7B55103791EDE6BBB991A2046172CB4581D8B893FA674DDA17A77B3B7C413D1B511FD2743BFF8A38F03A658705E3ADF8015C3A3417FF3D7E439FF591DA0B5F18BC20C1B8981957AE6392A3
310
F43C640C01D1A0B4728E2DD4F26DB4B3C3152A252A3B4E913CEC1C72F012782FF88EFF8637AA552DBEF76408E8A8DE9E50F9E1CB3A2DA0DB1B6039A893B56063DC5B3E3FFB5F72E67AB9FEB4AEC496C4F4C1149625DD662C53E89D7BF0F6151A046260D1337DFDC94502430F83B0EE07A130A224BCAD7DAE1D9FB6CD422FF6
310
920702629C4BB9AE79C12F243C6432A6794E18E5552BA56B431AAB5D91317302B2B071E86C3A42B1A02F999E24061403B5D0EB639195DA655DD3EBEAB4FB862DDF579F014AD0E73C22F99E28DA57FB98E75C6CA2D74D53086D600F4786E0FE3144B771A8A7B900F03594DB8A633CBC49B2EDB69228BB479CF863B5E807AAAB
310
23872F6DFEB4129B949CA33823F58830E86D65621E10047D9DB34D862E8EAC3C2ABC2F7B2C40D67CDFE01F5545B92105AF983AC54D93D69E56FB8E797F88913F898A9FEC705D3F9D1B54EC8426FB500D40A03BD0119B06E1B95DDC7EB8F6975367793EBD70E66733DFB9BC982F9CE564727731999F5D4ECFCE3B8D6A4DC2A0
310
6D50FD148437D110834A64C6CDDF57FBACB5C307A2A477DFE4939736CFEF2B175371E0E10CF0DD1D5C15654E0BCA14D1E87DD02FF93782A162C0A3D95F1524A52770F972BF1EE9809D13CE7DD599467F8ECE9ADD85CE85A34CD45355448C64F9E8A031DC2D596ACC6E5DD93D9B82DE2EF5CAF81363A8E47996A0DE24564A79
310
4115AACE09C55E14540231FDA13C319787134EBF34E3A022514E5B4D9E0826E25C02D5805B15ABE1BEF51B26383D445DD9E875EE33FE4C22DA16427D65A3BCA92CA6D28DD01DF5DC53330704308475351050232CCD31583787BA75774AFB06E5070DD0C8EF484E19968C5D83BA5B90B244D31E54D55A372320FE4786B7EA58
310
44E135AA5467CB7EA333A61683CC6A8C3257034C10CF46F40EF9F5BE59BE5BD30C3C72D235E95D10345C1D45445A5F0BB47E46A5EBE5570F9380B5FA629579952296A773720405982B9DE04011506178964401AA8BDF1FBF0A8EAB6861DD6580C0E38217056766716DAEB2D6FA0917D3E4116581EADB879C4E7CFFB11EFACD
310
3D641311495D92C8676CB409A72D18610D803CE8A626049E8EC1887CB5B44CC39883690DDA8399B4B9855B481E7D71D4A9D22F96E5BB73BF5793020C02137BF837504B0304140006080000CC70623B000000000000000000000000350000006662782F36394639363044362D344446342D343946362D394244322D32343142
310
43333846323333332F76657274696365732E62696E504B0304140006080800CC70623BF270F1330600000004000000360000006662782F36394639363044362D344446342D343946362D394244322D3234314243333846323333332F747269616E676C65732E62696E636660600000504B0304140006080000CC70623B0000
310
00000000000000000000370000006662782F36394639363044362D344446342D343946362D394244322D3234314243333846323333332F617474726962757465732E62696E504B0304140006080800CC70623B08DA0BD19000000041010000360000006662782F36394639363044362D344446342D343946362D394244322D
310
3234314243333846323333332F6469726563746F72792E786D6C858F410AC3201045AF22B36F53E9A60B35CBEEBAE80D244E44489C6234F4F835464A48035D0DF398FF9F8AF63D0E6CC63039F212F8F9020C7D47C6792B21C5FE7403D62A1188E2E60C98D7234A5830286103A55745067B9D86B8A3CF9C7F90C11DE607FB14
310
4396D7B6A82D282E9A152AD114D5EF2CB866EEE831B8EEA07A7BB5A8D7D61A2BAAEB7FD5F70921FF497D00504B0304140006080800CC70623BCA768048FE000000A00100003B0000006662782F36394639363044362D344446342D343946362D394244322D3234314243333846323333332F7265736F75726365732F636F72
310
652E786D6C8D50596E833010BD0A9ADFCA60D600328E9AA639412F609909B1126CE4A5EAF16B0295DABFFECC8CDEA2797AECF8353F924FB44E193D409E5248504B332A3D0D10FC95B4901C39B3C6F85F3248B49871801506CE266BC2B243D2688FDA47549B11775038871E12F988C7004EDE7016A9083E2ADC3D5D84BC8B09
310
D33C8D74D471E6BC8D0192EDC93A815B742658898E651BCB59086ADC356A8C3FD555A1055ED7E7E254D615792D0F075295F585746FF53B694EE78A565DD736979A65AB9933AFE69F8CD2A2F038022F28ED489E135A7CE4554F9BBEA85E68DB53CAB255FEC71496F19FA6A0B42F8B3DEE6673C0F318E4497096AD7DC5F52C33
310
EEB55BFE0D504B010214000A0000080000CC70623B3DEE336E79000000790000001B00000000000000000000000000000000006175746F6465736B2D64657369676E2D7061636B6167652E786D6C504B01021400140006080800CC70623BD486FD9CA0000000F40000001300000000000000000000000000B20000005B436F
310
6E74656E745F54797065735D2E786D6C504B01021400140006080800CC70623BD9DDAED0EC0000007C010000080000000000000000000000000083010000636F72652E786D6C504B01021400140006080800CC70623B55019EA25F0000007C000000070000000000000000000000000095020000636E782E786D6C504B0102
310
1400140006080800CC70623BA24EB22D72010000D40300000C00000000000000000000000000190300006662782F636F72652E786D6C504B01021400140006080800CC70623B408A7D3B7C0000009D0000000B00000000000000000000000000B50400006662782F636E782E786D6C504B01021400140006080800CC70623B
310
449FB9BD290100001202000031000000000000000000000000005A0500006662782F36394639363044362D344446342D343946362D394244322D3234314243333846323333332F636F72652E786D6C504B01021400140006080800CC70623BAD7543B64E010000330300003000000000000000000000000000D20600006662
310
782F36394639363044362D344446342D343946362D394244322D3234314243333846323333332F636E782E786D6C504B01021400140006080800CC70623B8D05915C650500003B10000034000000000000000000000000006E0800006662782F36394639363044362D344446342D343946362D394244322D32343142433338
310
46323333332F6F626A656374732E786D6C504B01021400140006080000CC70623B0000000000000000000000003500000000000000000000000000250E00006662782F36394639363044362D344446342D343946362D394244322D3234314243333846323333332F76657274696365732E62696E504B010214001400060808
310
00CC70623BF270F13306000000040000003600000000000000000000000000780E00006662782F36394639363044362D344446342D343946362D394244322D3234314243333846323333332F747269616E676C65732E62696E504B01021400140006080000CC70623B00000000000000000000000037000000000000000000
310
00000000D20E00006662782F36394639363044362D344446342D343946362D394244322D3234314243333846323333332F617474726962757465732E62696E504B01021400140006080800CC70623B08DA0BD190000000410100003600000000000000000000000000270F00006662782F36394639363044362D344446342D
310
343946362D394244322D3234314243333846323333332F6469726563746F72792E786D6C504B01021400140006080800CC70623BCA768048FE000000A00100003B000000000000000000000000000B1000006662782F36394639363044362D344446342D343946362D394244322D3234314243333846323333332F7265736F
310
75726365732F636F72652E786D6C504B0506000000000E000E0080040000621100000000
  0
XRECORD
  5
176
102
{ACAD_REACTORS
330
173
102
}
330
173
100
AcDbXrecord
280
     1
270
     1
271
     1
  0
XRECORD
  5
177
102
{ACAD_REACTORS
330
173
102
}
330
173
100
AcDbXrecord
280
     1
270
     1
271
     1
  0
XRECORD
  5
AE13
102
{ACAD_REACTORS
330
AE12
102
}
330
AE12
100
AcDbXrecord
280
     1
102
ACAD_ROUNDTRIP_2012_MLEADER_STYLE
298
     1
  0
XRECORD
  5
AE25
102
{ACAD_REACTORS
330
AE24
102
}
330
AE24
100
AcDbXrecord
280
     1
102
DISPLAYNAME
  1
Metric50
102
FLAGS
 90
        0
  0
CELLSTYLEMAP
  5
ADE5
102
{ACAD_REACTORS
330
162
102
}
330
162
100
AcDbCellStyleMap
 90
        3
300
CELLSTYLE
  1
TABLEFORMAT_BEGIN
 90
        5
170
     1
 91
        0
 92
    32768
 62
   257
 93
        1
300
CONTENTFORMAT
  1
CONTENTFORMAT_BEGIN
 90
        0
 91
        0
 92
      512
 93
        0
300

 40
0.0
140
1.0
 94
        5
 62
     0
340
11
144
6.0
309
CONTENTFORMAT_END
171
     1
301
MARGIN
  1
CELLMARGIN_BEGIN
 40
1.5
 40
1.5
 40
1.5
 40
1.5
 40
4.5
 40
4.5
309
CELLMARGIN_END
 94
        6
 95
        1
302
GRIDFORMAT
  1
GRIDFORMAT_BEGIN
 90
        0
 91
        1
 62
     0
 92
       -2
340
14
 93
        0
 40
1.125
309
GRIDFORMAT_END
 95
        2
302
GRIDFORMAT
  1
GRIDFORMAT_BEGIN
 90
        0
 91
        1
 62
     0
 92
       -2
340
14
 93
        0
 40
1.125
309
GRIDFORMAT_END
 95
        4
302
GRIDFORMAT
  1
GRIDFORMAT_BEGIN
 90
        0
 91
        1
 62
     0
 92
       -2
340
14
 93
        0
 40
1.125
309
GRIDFORMAT_END
 95
        8
302
GRIDFORMAT
  1
GRIDFORMAT_BEGIN
 90
        0
 91
        1
 62
     0
 92
       -2
340
14
 93
        0
 40
1.125
309
GRIDFORMAT_END
 95
       16
302
GRIDFORMAT
  1
GRIDFORMAT_BEGIN
 90
        0
 91
        1
 62
     0
 92
       -2
340
14
 93
        0
 40
1.125
309
GRIDFORMAT_END
 95
       32
302
GRIDFORMAT
  1
GRIDFORMAT_BEGIN
 90
        0
 91
        1
 62
     0
 92
       -2
340
14
 93
        0
 40
1.125
309
GRIDFORMAT_END
309
TABLEFORMAT_END
  1
CELLSTYLE_BEGIN
 90
        1
 91
        1
300
_TITLE
309
CELLSTYLE_END
300
CELLSTYLE
  1
TABLEFORMAT_BEGIN
 90
        5
170
     1
 91
        0
 92
        0
 62
   257
 93
        1
300
CONTENTFORMAT
  1
CONTENTFORMAT_BEGIN
 90
        0
 91
        0
 92
      512
 93
        0
300

 40
0.0
140
1.0
 94
        5
 62
     0
340
11
144
4.5
309
CONTENTFORMAT_END
171
     1
301
MARGIN
  1
CELLMARGIN_BEGIN
 40
1.5
 40
1.5
 40
1.5
 40
1.5
 40
4.5
 40
4.5
309
CELLMARGIN_END
 94
        6
 95
        1
302
GRIDFORMAT
  1
GRIDFORMAT_BEGIN
 90
        0
 91
        1
 62
     0
 92
       -2
340
14
 93
        0
 40
1.125
309
GRIDFORMAT_END
 95
        2
302
GRIDFORMAT
  1
GRIDFORMAT_BEGIN
 90
        0
 91
        1
 62
     0
 92
       -2
340
14
 93
        0
 40
1.125
309
GRIDFORMAT_END
 95
        4
302
GRIDFORMAT
  1
GRIDFORMAT_BEGIN
 90
        0
 91
        1
 62
     0
 92
       -2
340
14
 93
        0
 40
1.125
309
GRIDFORMAT_END
 95
        8
302
GRIDFORMAT
  1
GRIDFORMAT_BEGIN
 90
        0
 91
        1
 62
     0
 92
       -2
340
14
 93
        0
 40
1.125
309
GRIDFORMAT_END
 95
       16
302
GRIDFORMAT
  1
GRIDFORMAT_BEGIN
 90
        0
 91
        1
 62
     0
 92
       -2
340
14
 93
        0
 40
1.125
309
GRIDFORMAT_END
 95
       32
302
GRIDFORMAT
  1
GRIDFORMAT_BEGIN
 90
        0
 91
        1
 62
     0
 92
       -2
340
14
 93
        0
 40
1.125
309
GRIDFORMAT_END
309
TABLEFORMAT_END
  1
CELLSTYLE_BEGIN
 90
        2
 91
        1
300
_HEADER
309
CELLSTYLE_END
300
CELLSTYLE
  1
TABLEFORMAT_BEGIN
 90
        5
170
     1
 91
        0
 92
        0
 62
   257
 93
        1
300
CONTENTFORMAT
  1
CONTENTFORMAT_BEGIN
 90
        0
 91
        0
 92
      512
 93
        0
300

 40
0.0
140
1.0
 94
        2
 62
     0
340
11
144
4.5
309
CONTENTFORMAT_END
171
     1
301
MARGIN
  1
CELLMARGIN_BEGIN
 40
1.5
 40
1.5
 40
1.5
 40
1.5
 40
4.5
 40
4.5
309
CELLMARGIN_END
 94
        6
 95
        1
302
GRIDFORMAT
  1
GRIDFORMAT_BEGIN
 90
        0
 91
        1
 62
     0
 92
       -2
340
14
 93
        0
 40
1.125
309
GRIDFORMAT_END
 95
        2
302
GRIDFORMAT
  1
GRIDFORMAT_BEGIN
 90
        0
 91
        1
 62
     0
 92
       -2
340
14
 93
        0
 40
1.125
309
GRIDFORMAT_END
 95
        4
302
GRIDFORMAT
  1
GRIDFORMAT_BEGIN
 90
        0
 91
        1
 62
     0
 92
       -2
340
14
 93
        0
 40
1.125
309
GRIDFORMAT_END
 95
        8
302
GRIDFORMAT
  1
GRIDFORMAT_BEGIN
 90
        0
 91
        1
 62
     0
 92
       -2
340
14
 93
        0
 40
1.125
309
GRIDFORMAT_END
 95
       16
302
GRIDFORMAT
  1
GRIDFORMAT_BEGIN
 90
        0
 91
        1
 62
     0
 92
       -2
340
14
 93
        0
 40
1.125
309
GRIDFORMAT_END
 95
       32
302
GRIDFORMAT
  1
GRIDFORMAT_BEGIN
 90
        0
 91
        1
 62
     0
 92
       -2
340
14
 93
        0
 40
1.125
309
GRIDFORMAT_END
309
TABLEFORMAT_END
  1
CELLSTYLE_BEGIN
 90
        3
 91
        2
300
_DATA
309
CELLSTYLE_END
  0
XRECORD
  5
ADEA
102
{ACAD_REACTORS
330
162
102
}
330
162
100
AcDbXrecord
280
     1
102
ACAD_ROUNDTRIP_PRE2007_TABLESTYLE
 90
      512
 91
        0
  1

 92
      512
 93
        0
  2

 94
      512
 95
        0
  3

  0
XRECORD
  5
ADFD
102
{ACAD_REACTORS
330
ADFC
102
}
330
ADFC
100
AcDbXrecord
280
     1
102
RTVSPost2010Prop28
280
     1
102
RTVSPost2010PropOp28
 70
     1
102
RTVSPost2010Prop29
280
     1
102
RTVSPost2010PropOp29
 70
     1
102
RTVSPost2010Prop30
280
     0
102
RTVSPost2010PropOp30
 70
     1
102
RTVSPost2010Prop31
280
     0
102
RTVSPost2010PropOp31
 70
     1
102
RTVSPost2010Prop32
280
     0
102
RTVSPost2010PropOp32
 70
     1
102
RTVSPost2010Prop33
280
     0
102
RTVSPost2010PropOp33
 70
     1
102
RTVSPost2010Prop34
280
     0
102
RTVSPost2010PropOp34
 70
     1
102
RTVSPost2010Prop35
280
     0
102
RTVSPost2010PropOp35
 70
     1
102
RTVSPost2010Prop36
280
     0
102
RTVSPost2010PropOp36
 70
     1
102
RTVSPost2010Prop37
 90
       50
102
RTVSPost2010PropOp37
 70
     1
102
RTVSPost2010Prop38
140
0.0
102
RTVSPost2010PropOp38
 70
     1
102
RTVSPost2010Prop39
140
1.0
102
RTVSPost2010PropOp39
 70
     1
102
RTVSPost2010Prop40
 90
        0
102
RTVSPost2010PropOp40
 70
     1
102
RTVSPost2010Prop41ColorIndex
 90
       18
102
RTVSPost2010Prop41ColorRGB
 90
        0
102
RTVSPost2010PropOp41
 70
     1
102
RTVSPost2010Prop42
 90
       50
102
RTVSPost2010PropOp42
 70
     1
102
RTVSPost2010Prop43
 90
        3
102
RTVSPost2010PropOp43
 70
     1
102
RTVSPost2010Prop44ColorIndex
 90
        5
102
RTVSPost2010Prop44ColorRGB
 90
      255
102
RTVSPost2010PropOp44
 70
     1
102
RTVSPost2010Prop45
280
     0
102
RTVSPost2010PropOp45
 70
     1
102
RTVSPost2010Prop46
 90
       50
102
RTVSPost2010PropOp46
 70
     1
102
RTVSPost2010Prop47
 90
       50
102
RTVSPost2010PropOp47
 70
     1
102
RTVSPost2010Prop48
 90
       50
102
RTVSPost2010PropOp48
 70
     1
102
RTVSPost2010Prop49
280
     0
102
RTVSPost2010PropOp49
 70
     1
102
RTVSPost2010Prop50
 90
       50
102
RTVSPost2010PropOp50
 70
     1
102
RTVSPost2010Prop51ColorIndex
 90
      256
102
RTVSPost2010Prop51ColorRGB
 90
-16777216
102
RTVSPost2010PropOp51
 70
     0
102
RTVSPost2010Prop52
140
1.0
102
RTVSPost2010PropOp52
 70
     0
102
RTVSPost2010Prop53
 90
        2
102
RTVSPost2010PropOp53
 70
     1
102
RTVSPost2010Prop54
  1
strokes_ogs.tif
102
RTVSPost2010PropOp54
 70
     1
102
RTVSPost2010Prop55
280
     0
102
RTVSPost2010PropOp55
 70
     1
102
RTVSPost2010Prop56
140
1.0
102
RTVSPost2010PropOp56
 70
     1
102
RTVSPost2010Prop57
140
1.0
102
RTVSPost2010PropOp57
 70
     1
102
RTVSPropertyOp0
 70
     1
102
RTVSPropertyOp1
 70
     1
102
RTVSPropertyOp2
 70
     1
102
RTVSPropertyOp3
 70
     1
102
RTVSPropertyOp4
 70
     1
102
RTVSPropertyOp5
 70
     1
102
RTVSPropertyOp6
 70
     1
102
RTVSPropertyOp7
 70
     1
102
RTVSPropertyOp8
 70
     1
102
RTVSPropertyOp9
 70
     1
102
RTVSPropertyOp10
 70
     1
102
RTVSPropertyOp11
 70
     1
102
RTVSPropertyOp12
 70
     1
102
RTVSPropertyOp13
 70
     1
102
RTVSPropertyOp14
 70
     1
102
RTVSPropertyOp15
 70
     1
102
RTVSPropertyOp16
 70
     1
102
RTVSPropertyOp17
 70
     1
102
RTVSPropertyOp18
 70
     1
102
RTVSPropertyOp19
 70
     1
102
RTVSPropertyOp20
 70
     1
102
RTVSPropertyOp21
 70
     1
102
RTVSPropertyOp22
 70
     1
102
RTVSPropertyOp23
 70
     1
102
RTVSPropertyOp24
 70
     1
102
RTVSPropertyOp25
 70
     1
102
RTVSPropertyOp26
 70
     1
102
RTVSPropertyOp27
 70
     1
102
RTVSPropertyOp28
 70
     1
102
RTVSPropertyOp29
 70
     1
102
RTVSPropertyOp30
 70
     1
102
RTVSPropertyOp31
 70
     1
102
RTVSPropertyOp32
 70
     1
102
RTVSPropertyOp33
 70
     1
102
RTVSPropertyOp34
 70
     1
102
RTVSPropertyOp35
 70
     1
102
RTVSPropertyOp36
 70
     1
102
RTVSPropertyOp37
 70
     1
102
RTVSPropertyOp38
 70
     1
102
RTVSPropertyOp39
 70
     1
102
RTVSPropertyOp40
 70
     1
102
RTVSPropertyOp41
 70
     1
102
RTVSPropertyOp42
 70
     1
102
RTVSPropertyOp43
 70
     1
102
RTVSPropertyOp44
 70
     1
102
RTVSPropertyOp45
 70
     1
102
RTVSPropertyOp46
 70
     1
102
RTVSPropertyOp47
 70
     1
102
RTVSPropertyOp48
 70
     1
102
RTVSPropertyOp49
 70
     1
102
RTVSPropertyOp50
 70
     1
102
RTVSPropertyOp51
 70
     0
102
RTVSPropertyOp52
 70
     0
102
RTVSPropertyOp53
 70
     1
102
RTVSPropertyOp54
 70
     1
102
RTVSPropertyOp55
 70
     1
102
RTVSPropertyOp56
 70
     1
102
RTVSPropertyOp57
 70
     1
102
RTVSPropertyOp58
 70
     1
102
RTVSPropertyOp59
 70
     1
102
RTVSPropertyOp60
 70
     1
102
RTVSPropertyOp61
 70
     1
102
RTVSPropertyOp62
 70
     1
  0
XRECORD
  5
ADFB
102
{ACAD_REACTORS
330
ADFA
102
}
330
ADFA
100
AcDbXrecord
280
     1
102
RTVSPost2010Prop28
280
     0
102
RTVSPost2010PropOp28
 70
     1
102
RTVSPost2010Prop29
280
     1
102
RTVSPost2010PropOp29
 70
     1
102
RTVSPost2010Prop30
280
     1
102
RTVSPost2010PropOp30
 70
     1
102
RTVSPost2010Prop31
280
     0
102
RTVSPost2010PropOp31
 70
     1
102
RTVSPost2010Prop32
280
     0
102
RTVSPost2010PropOp32
 70
     1
102
RTVSPost2010Prop33
280
     0
102
RTVSPost2010PropOp33
 70
     1
102
RTVSPost2010Prop34
280
     0
102
RTVSPost2010PropOp34
 70
     1
102
RTVSPost2010Prop35
280
     0
102
RTVSPost2010PropOp35
 70
     1
102
RTVSPost2010Prop36
280
     0
102
RTVSPost2010PropOp36
 70
     1
102
RTVSPost2010Prop37
 90
       50
102
RTVSPost2010PropOp37
 70
     1
102
RTVSPost2010Prop38
140
0.0
102
RTVSPost2010PropOp38
 70
     1
102
RTVSPost2010Prop39
140
1.0
102
RTVSPost2010PropOp39
 70
     1
102
RTVSPost2010Prop40
 90
        0
102
RTVSPost2010PropOp40
 70
     1
102
RTVSPost2010Prop41ColorIndex
 90
       18
102
RTVSPost2010Prop41ColorRGB
 90
        0
102
RTVSPost2010PropOp41
 70
     1
102
RTVSPost2010Prop42
 90
       50
102
RTVSPost2010PropOp42
 70
     1
102
RTVSPost2010Prop43
 90
        3
102
RTVSPost2010PropOp43
 70
     1
102
RTVSPost2010Prop44ColorIndex
 90
        5
102
RTVSPost2010Prop44ColorRGB
 90
      255
102
RTVSPost2010PropOp44
 70
     1
102
RTVSPost2010Prop45
280
     0
102
RTVSPost2010PropOp45
 70
     1
102
RTVSPost2010Prop46
 90
       50
102
RTVSPost2010PropOp46
 70
     1
102
RTVSPost2010Prop47
 90
       50
102
RTVSPost2010PropOp47
 70
     1
102
RTVSPost2010Prop48
 90
       50
102
RTVSPost2010PropOp48
 70
     1
102
RTVSPost2010Prop49
280
     0
102
RTVSPost2010PropOp49
 70
     1
102
RTVSPost2010Prop50
 90
       50
102
RTVSPost2010PropOp50
 70
     1
102
RTVSPost2010Prop51ColorIndex
 90
      256
102
RTVSPost2010Prop51ColorRGB
 90
-16777216
102
RTVSPost2010PropOp51
 70
     0
102
RTVSPost2010Prop52
140
1.0
102
RTVSPost2010PropOp52
 70
     0
102
RTVSPost2010Prop53
 90
        2
102
RTVSPost2010PropOp53
 70
     1
102
RTVSPost2010Prop54
  1
strokes_ogs.tif
102
RTVSPost2010PropOp54
 70
     1
102
RTVSPost2010Prop55
280
     0
102
RTVSPost2010PropOp55
 70
     1
102
RTVSPost2010Prop56
140
1.0
102
RTVSPost2010PropOp56
 70
     1
102
RTVSPost2010Prop57
140
1.0
102
RTVSPost2010PropOp57
 70
     1
102
RTVSPropertyOp0
 70
     1
102
RTVSPropertyOp1
 70
     1
102
RTVSPropertyOp2
 70
     1
102
RTVSPropertyOp3
 70
     1
102
RTVSPropertyOp4
 70
     1
102
RTVSPropertyOp5
 70
     1
102
RTVSPropertyOp6
 70
     1
102
RTVSPropertyOp7
 70
     1
102
RTVSPropertyOp8
 70
     1
102
RTVSPropertyOp9
 70
     1
102
RTVSPropertyOp10
 70
     1
102
RTVSPropertyOp11
 70
     1
102
RTVSPropertyOp12
 70
     1
102
RTVSPropertyOp13
 70
     1
102
RTVSPropertyOp14
 70
     1
102
RTVSPropertyOp15
 70
     1
102
RTVSPropertyOp16
 70
     1
102
RTVSPropertyOp17
 70
     1
102
RTVSPropertyOp18
 70
     1
102
RTVSPropertyOp19
 70
     1
102
RTVSPropertyOp20
 70
     1
102
RTVSPropertyOp21
 70
     1
102
RTVSPropertyOp22
 70
     1
102
RTVSPropertyOp23
 70
     1
102
RTVSPropertyOp24
 70
     1
102
RTVSPropertyOp25
 70
     1
102
RTVSPropertyOp26
 70
     1
102
RTVSPropertyOp27
 70
     1
102
RTVSPropertyOp28
 70
     1
102
RTVSPropertyOp29
 70
     1
102
RTVSPropertyOp30
 70
     1
102
RTVSPropertyOp31
 70
     1
102
RTVSPropertyOp32
 70
     1
102
RTVSPropertyOp33
 70
     1
102
RTVSPropertyOp34
 70
     1
102
RTVSPropertyOp35
 70
     1
102
RTVSPropertyOp36
 70
     1
102
RTVSPropertyOp37
 70
     1
102
RTVSPropertyOp38
 70
     1
102
RTVSPropertyOp39
 70
     1
102
RTVSPropertyOp40
 70
     1
102
RTVSPropertyOp41
 70
     1
102
RTVSPropertyOp42
 70
     1
102
RTVSPropertyOp43
 70
     1
102
RTVSPropertyOp44
 70
     1
102
RTVSPropertyOp45
 70
     1
102
RTVSPropertyOp46
 70
     1
102
RTVSPropertyOp47
 70
     1
102
RTVSPropertyOp48
 70
     1
102
RTVSPropertyOp49
 70
     1
102
RTVSPropertyOp50
 70
     1
102
RTVSPropertyOp51
 70
     0
102
RTVSPropertyOp52
 70
     0
102
RTVSPropertyOp53
 70
     1
102
RTVSPropertyOp54
 70
     1
102
RTVSPropertyOp55
 70
     1
102
RTVSPropertyOp56
 70
     1
102
RTVSPropertyOp57
 70
     1
102
RTVSPropertyOp58
 70
     1
102
RTVSPropertyOp59
 70
     1
102
RTVSPropertyOp60
 70
     1
102
RTVSPropertyOp61
 70
     1
102
RTVSPropertyOp62
 70
     1
  0
XRECORD
  5
AE09
102
{ACAD_REACTORS
330
AE08
102
}
330
AE08
100
AcDbXrecord
280
     1
102
RTVSPost2010Prop28
280
     0
102
RTVSPost2010PropOp28
 70
     1
102
RTVSPost2010Prop29
280
     1
102
RTVSPost2010PropOp29
 70
     1
102
RTVSPost2010Prop30
280
     1
102
RTVSPost2010PropOp30
 70
     1
102
RTVSPost2010Prop31
280
     0
102
RTVSPost2010PropOp31
 70
     1
102
RTVSPost2010Prop32
280
     0
102
RTVSPost2010PropOp32
 70
     1
102
RTVSPost2010Prop33
280
     0
102
RTVSPost2010PropOp33
 70
     1
102
RTVSPost2010Prop34
280
     0
102
RTVSPost2010PropOp34
 70
     1
102
RTVSPost2010Prop35
280
     0
102
RTVSPost2010PropOp35
 70
     1
102
RTVSPost2010Prop36
280
     0
102
RTVSPost2010PropOp36
 70
     1
102
RTVSPost2010Prop37
 90
       50
102
RTVSPost2010PropOp37
 70
     1
102
RTVSPost2010Prop38
140
0.0
102
RTVSPost2010PropOp38
 70
     1
102
RTVSPost2010Prop39
140
1.0
102
RTVSPost2010PropOp39
 70
     1
102
RTVSPost2010Prop40
 90
        0
102
RTVSPost2010PropOp40
 70
     1
102
RTVSPost2010Prop41ColorIndex
 90
       18
102
RTVSPost2010Prop41ColorRGB
 90
        0
102
RTVSPost2010PropOp41
 70
     1
102
RTVSPost2010Prop42
 90
       50
102
RTVSPost2010PropOp42
 70
     1
102
RTVSPost2010Prop43
 90
        3
102
RTVSPost2010PropOp43
 70
     1
102
RTVSPost2010Prop44ColorIndex
 90
        5
102
RTVSPost2010Prop44ColorRGB
 90
      255
102
RTVSPost2010PropOp44
 70
     1
102
RTVSPost2010Prop45
280
     0
102
RTVSPost2010PropOp45
 70
     1
102
RTVSPost2010Prop46
 90
       50
102
RTVSPost2010PropOp46
 70
     1
102
RTVSPost2010Prop47
 90
       50
102
RTVSPost2010PropOp47
 70
     1
102
RTVSPost2010Prop48
 90
       50
102
RTVSPost2010PropOp48
 70
     1
102
RTVSPost2010Prop49
280
     0
102
RTVSPost2010PropOp49
 70
     1
102
RTVSPost2010Prop50
 90
       50
102
RTVSPost2010PropOp50
 70
     1
102
RTVSPost2010Prop51ColorIndex
 90
      256
102
RTVSPost2010Prop51ColorRGB
 90
-16777216
102
RTVSPost2010PropOp51
 70
     0
102
RTVSPost2010Prop52
140
1.0
102
RTVSPost2010PropOp52
 70
     0
102
RTVSPost2010Prop53
 90
        2
102
RTVSPost2010PropOp53
 70
     1
102
RTVSPost2010Prop54
  1
strokes_ogs.tif
102
RTVSPost2010PropOp54
 70
     1
102
RTVSPost2010Prop55
280
     0
102
RTVSPost2010PropOp55
 70
     1
102
RTVSPost2010Prop56
140
1.0
102
RTVSPost2010PropOp56
 70
     1
102
RTVSPost2010Prop57
140
1.0
102
RTVSPost2010PropOp57
 70
     1
102
RTVSPropertyOp0
 70
     1
102
RTVSPropertyOp1
 70
     1
102
RTVSPropertyOp2
 70
     1
102
RTVSPropertyOp3
 70
     1
102
RTVSPropertyOp4
 70
     1
102
RTVSPropertyOp5
 70
     1
102
RTVSPropertyOp6
 70
     1
102
RTVSPropertyOp7
 70
     1
102
RTVSPropertyOp8
 70
     1
102
RTVSPropertyOp9
 70
     1
102
RTVSPropertyOp10
 70
     1
102
RTVSPropertyOp11
 70
     1
102
RTVSPropertyOp12
 70
     1
102
RTVSPropertyOp13
 70
     1
102
RTVSPropertyOp14
 70
     1
102
RTVSPropertyOp15
 70
     1
102
RTVSPropertyOp16
 70
     1
102
RTVSPropertyOp17
 70
     1
102
RTVSPropertyOp18
 70
     1
102
RTVSPropertyOp19
 70
     1
102
RTVSPropertyOp20
 70
     1
102
RTVSPropertyOp21
 70
     1
102
RTVSPropertyOp22
 70
     1
102
RTVSPropertyOp23
 70
     1
102
RTVSPropertyOp24
 70
     1
102
RTVSPropertyOp25
 70
     1
102
RTVSPropertyOp26
 70
     1
102
RTVSPropertyOp27
 70
     1
102
RTVSPropertyOp28
 70
     1
102
RTVSPropertyOp29
 70
     1
102
RTVSPropertyOp30
 70
     1
102
RTVSPropertyOp31
 70
     1
102
RTVSPropertyOp32
 70
     1
102
RTVSPropertyOp33
 70
     1
102
RTVSPropertyOp34
 70
     1
102
RTVSPropertyOp35
 70
     1
102
RTVSPropertyOp36
 70
     1
102
RTVSPropertyOp37
 70
     1
102
RTVSPropertyOp38
 70
     1
102
RTVSPropertyOp39
 70
     1
102
RTVSPropertyOp40
 70
     1
102
RTVSPropertyOp41
 70
     1
102
RTVSPropertyOp42
 70
     1
102
RTVSPropertyOp43
 70
     1
102
RTVSPropertyOp44
 70
     1
102
RTVSPropertyOp45
 70
     1
102
RTVSPropertyOp46
 70
     1
102
RTVSPropertyOp47
 70
     1
102
RTVSPropertyOp48
 70
     1
102
RTVSPropertyOp49
 70
     1
102
RTVSPropertyOp50
 70
     1
102
RTVSPropertyOp51
 70
     0
102
RTVSPropertyOp52
 70
     0
102
RTVSPropertyOp53
 70
     1
102
RTVSPropertyOp54
 70
     1
102
RTVSPropertyOp55
 70
     1
102
RTVSPropertyOp56
 70
     1
102
RTVSPropertyOp57
 70
     1
102
RTVSPropertyOp58
 70
     1
102
RTVSPropertyOp59
 70
     1
102
RTVSPropertyOp60
 70
     1
102
RTVSPropertyOp61
 70
     1
102
RTVSPropertyOp62
 70
     1
  0
XRECORD
  5
AE11
102
{ACAD_REACTORS
330
AE10
102
}
330
AE10
100
AcDbXrecord
280
     1
102
RTVSPost2010Prop28
280
     0
102
RTVSPost2010PropOp28
 70
     1
102
RTVSPost2010Prop29
280
     1
102
RTVSPost2010PropOp29
 70
     1
102
RTVSPost2010Prop30
280
     1
102
RTVSPost2010PropOp30
 70
     1
102
RTVSPost2010Prop31
280
     0
102
RTVSPost2010PropOp31
 70
     1
102
RTVSPost2010Prop32
280
     0
102
RTVSPost2010PropOp32
 70
     1
102
RTVSPost2010Prop33
280
     0
102
RTVSPost2010PropOp33
 70
     1
102
RTVSPost2010Prop34
280
     0
102
RTVSPost2010PropOp34
 70
     1
102
RTVSPost2010Prop35
280
     0
102
RTVSPost2010PropOp35
 70
     1
102
RTVSPost2010Prop36
280
     0
102
RTVSPost2010PropOp36
 70
     1
102
RTVSPost2010Prop37
 90
       50
102
RTVSPost2010PropOp37
 70
     1
102
RTVSPost2010Prop38
140
0.0
102
RTVSPost2010PropOp38
 70
     1
102
RTVSPost2010Prop39
140
1.0
102
RTVSPost2010PropOp39
 70
     1
102
RTVSPost2010Prop40
 90
        0
102
RTVSPost2010PropOp40
 70
     1
102
RTVSPost2010Prop41ColorIndex
 90
       18
102
RTVSPost2010Prop41ColorRGB
 90
        0
102
RTVSPost2010PropOp41
 70
     1
102
RTVSPost2010Prop42
 90
       50
102
RTVSPost2010PropOp42
 70
     1
102
RTVSPost2010Prop43
 90
        3
102
RTVSPost2010PropOp43
 70
     1
102
RTVSPost2010Prop44ColorIndex
 90
        5
102
RTVSPost2010Prop44ColorRGB
 90
      255
102
RTVSPost2010PropOp44
 70
     1
102
RTVSPost2010Prop45
280
     0
102
RTVSPost2010PropOp45
 70
     1
102
RTVSPost2010Prop46
 90
       50
102
RTVSPost2010PropOp46
 70
     1
102
RTVSPost2010Prop47
 90
       50
102
RTVSPost2010PropOp47
 70
     1
102
RTVSPost2010Prop48
 90
       50
102
RTVSPost2010PropOp48
 70
     1
102
RTVSPost2010Prop49
280
     0
102
RTVSPost2010PropOp49
 70
     1
102
RTVSPost2010Prop50
 90
       50
102
RTVSPost2010PropOp50
 70
     1
102
RTVSPost2010Prop51ColorIndex
 90
      256
102
RTVSPost2010Prop51ColorRGB
 90
-16777216
102
RTVSPost2010PropOp51
 70
     0
102
RTVSPost2010Prop52
140
1.0
102
RTVSPost2010PropOp52
 70
     0
102
RTVSPost2010Prop53
 90
        2
102
RTVSPost2010PropOp53
 70
     1
102
RTVSPost2010Prop54
  1
strokes_ogs.tif
102
RTVSPost2010PropOp54
 70
     1
102
RTVSPost2010Prop55
280
     0
102
RTVSPost2010PropOp55
 70
     1
102
RTVSPost2010Prop56
140
1.0
102
RTVSPost2010PropOp56
 70
     1
102
RTVSPost2010Prop57
140
1.0
102
RTVSPost2010PropOp57
 70
     1
102
RTVSPropertyOp0
 70
     1
102
RTVSPropertyOp1
 70
     1
102
RTVSPropertyOp2
 70
     1
102
RTVSPropertyOp3
 70
     1
102
RTVSPropertyOp4
 70
     1
102
RTVSPropertyOp5
 70
     1
102
RTVSPropertyOp6
 70
     1
102
RTVSPropertyOp7
 70
     1
102
RTVSPropertyOp8
 70
     1
102
RTVSPropertyOp9
 70
     1
102
RTVSPropertyOp10
 70
     1
102
RTVSPropertyOp11
 70
     1
102
RTVSPropertyOp12
 70
     1
102
RTVSPropertyOp13
 70
     1
102
RTVSPropertyOp14
 70
     1
102
RTVSPropertyOp15
 70
     1
102
RTVSPropertyOp16
 70
     1
102
RTVSPropertyOp17
 70
     1
102
RTVSPropertyOp18
 70
     1
102
RTVSPropertyOp19
 70
     1
102
RTVSPropertyOp20
 70
     1
102
RTVSPropertyOp21
 70
     1
102
RTVSPropertyOp22
 70
     1
102
RTVSPropertyOp23
 70
     1
102
RTVSPropertyOp24
 70
     1
102
RTVSPropertyOp25
 70
     1
102
RTVSPropertyOp26
 70
     1
102
RTVSPropertyOp27
 70
     1
102
RTVSPropertyOp28
 70
     1
102
RTVSPropertyOp29
 70
     1
102
RTVSPropertyOp30
 70
     1
102
RTVSPropertyOp31
 70
     1
102
RTVSPropertyOp32
 70
     1
102
RTVSPropertyOp33
 70
     1
102
RTVSPropertyOp34
 70
     1
102
RTVSPropertyOp35
 70
     1
102
RTVSPropertyOp36
 70
     1
102
RTVSPropertyOp37
 70
     1
102
RTVSPropertyOp38
 70
     1
102
RTVSPropertyOp39
 70
     1
102
RTVSPropertyOp40
 70
     1
102
RTVSPropertyOp41
 70
     1
102
RTVSPropertyOp42
 70
     1
102
RTVSPropertyOp43
 70
     1
102
RTVSPropertyOp44
 70
     1
102
RTVSPropertyOp45
 70
     1
102
RTVSPropertyOp46
 70
     1
102
RTVSPropertyOp47
 70
     1
102
RTVSPropertyOp48
 70
     1
102
RTVSPropertyOp49
 70
     1
102
RTVSPropertyOp50
 70
     1
102
RTVSPropertyOp51
 70
     0
102
RTVSPropertyOp52
 70
     0
102
RTVSPropertyOp53
 70
     1
102
RTVSPropertyOp54
 70
     1
102
RTVSPropertyOp55
 70
     1
102
RTVSPropertyOp56
 70
     1
102
RTVSPropertyOp57
 70
     1
102
RTVSPropertyOp58
 70
     1
102
RTVSPropertyOp59
 70
     1
102
RTVSPropertyOp60
 70
     1
102
RTVSPropertyOp61
 70
     1
102
RTVSPropertyOp62
 70
     1
  0
XRECORD
  5
AE03
102
{ACAD_REACTORS
330
AE02
102
}
330
AE02
100
AcDbXrecord
280
     1
102
RTVSPost2010Prop28
280
     0
102
RTVSPost2010PropOp28
 70
     1
102
RTVSPost2010Prop29
280
     1
102
RTVSPost2010PropOp29
 70
     1
102
RTVSPost2010Prop30
280
     1
102
RTVSPost2010PropOp30
 70
     1
102
RTVSPost2010Prop31
280
     0
102
RTVSPost2010PropOp31
 70
     1
102
RTVSPost2010Prop32
280
     0
102
RTVSPost2010PropOp32
 70
     1
102
RTVSPost2010Prop33
280
     0
102
RTVSPost2010PropOp33
 70
     1
102
RTVSPost2010Prop34
280
     0
102
RTVSPost2010PropOp34
 70
     1
102
RTVSPost2010Prop35
280
     0
102
RTVSPost2010PropOp35
 70
     1
102
RTVSPost2010Prop36
280
     0
102
RTVSPost2010PropOp36
 70
     1
102
RTVSPost2010Prop37
 90
       50
102
RTVSPost2010PropOp37
 70
     1
102
RTVSPost2010Prop38
140
0.0
102
RTVSPost2010PropOp38
 70
     1
102
RTVSPost2010Prop39
140
1.0
102
RTVSPost2010PropOp39
 70
     1
102
RTVSPost2010Prop40
 90
        0
102
RTVSPost2010PropOp40
 70
     1
102
RTVSPost2010Prop41ColorIndex
 90
       18
102
RTVSPost2010Prop41ColorRGB
 90
        0
102
RTVSPost2010PropOp41
 70
     1
102
RTVSPost2010Prop42
 90
       50
102
RTVSPost2010PropOp42
 70
     1
102
RTVSPost2010Prop43
 90
        3
102
RTVSPost2010PropOp43
 70
     1
102
RTVSPost2010Prop44ColorIndex
 90
        5
102
RTVSPost2010Prop44ColorRGB
 90
      255
102
RTVSPost2010PropOp44
 70
     1
102
RTVSPost2010Prop45
280
     0
102
RTVSPost2010PropOp45
 70
     1
102
RTVSPost2010Prop46
 90
       50
102
RTVSPost2010PropOp46
 70
     1
102
RTVSPost2010Prop47
 90
       50
102
RTVSPost2010PropOp47
 70
     1
102
RTVSPost2010Prop48
 90
       50
102
RTVSPost2010PropOp48
 70
     1
102
RTVSPost2010Prop49
280
     0
102
RTVSPost2010PropOp49
 70
     1
102
RTVSPost2010Prop50
 90
       50
102
RTVSPost2010PropOp50
 70
     1
102
RTVSPost2010Prop51ColorIndex
 90
      256
102
RTVSPost2010Prop51ColorRGB
 90
-16777216
102
RTVSPost2010PropOp51
 70
     0
102
RTVSPost2010Prop52
140
1.0
102
RTVSPost2010PropOp52
 70
     0
102
RTVSPost2010Prop53
 90
        2
102
RTVSPost2010PropOp53
 70
     1
102
RTVSPost2010Prop54
  1
strokes_ogs.tif
102
RTVSPost2010PropOp54
 70
     1
102
RTVSPost2010Prop55
280
     0
102
RTVSPost2010PropOp55
 70
     1
102
RTVSPost2010Prop56
140
1.0
102
RTVSPost2010PropOp56
 70
     1
102
RTVSPost2010Prop57
140
1.0
102
RTVSPost2010PropOp57
 70
     1
102
RTVSPropertyOp0
 70
     1
102
RTVSPropertyOp1
 70
     1
102
RTVSPropertyOp2
 70
     1
102
RTVSPropertyOp3
 70
     1
102
RTVSPropertyOp4
 70
     1
102
RTVSPropertyOp5
 70
     1
102
RTVSPropertyOp6
 70
     1
102
RTVSPropertyOp7
 70
     1
102
RTVSPropertyOp8
 70
     1
102
RTVSPropertyOp9
 70
     1
102
RTVSPropertyOp10
 70
     1
102
RTVSPropertyOp11
 70
     1
102
RTVSPropertyOp12
 70
     1
102
RTVSPropertyOp13
 70
     1
102
RTVSPropertyOp14
 70
     1
102
RTVSPropertyOp15
 70
     1
102
RTVSPropertyOp16
 70
     1
102
RTVSPropertyOp17
 70
     1
102
RTVSPropertyOp18
 70
     1
102
RTVSPropertyOp19
 70
     1
102
RTVSPropertyOp20
 70
     1
102
RTVSPropertyOp21
 70
     1
102
RTVSPropertyOp22
 70
     1
102
RTVSPropertyOp23
 70
     1
102
RTVSPropertyOp24
 70
     1
102
RTVSPropertyOp25
 70
     1
102
RTVSPropertyOp26
 70
     1
102
RTVSPropertyOp27
 70
     1
102
RTVSPropertyOp28
 70
     1
102
RTVSPropertyOp29
 70
     1
102
RTVSPropertyOp30
 70
     1
102
RTVSPropertyOp31
 70
     1
102
RTVSPropertyOp32
 70
     1
102
RTVSPropertyOp33
 70
     1
102
RTVSPropertyOp34
 70
     1
102
RTVSPropertyOp35
 70
     1
102
RTVSPropertyOp36
 70
     1
102
RTVSPropertyOp37
 70
     1
102
RTVSPropertyOp38
 70
     1
102
RTVSPropertyOp39
 70
     1
102
RTVSPropertyOp40
 70
     1
102
RTVSPropertyOp41
 70
     1
102
RTVSPropertyOp42
 70
     1
102
RTVSPropertyOp43
 70
     1
102
RTVSPropertyOp44
 70
     1
102
RTVSPropertyOp45
 70
     1
102
RTVSPropertyOp46
 70
     1
102
RTVSPropertyOp47
 70
     1
102
RTVSPropertyOp48
 70
     1
102
RTVSPropertyOp49
 70
     1
102
RTVSPropertyOp50
 70
     1
102
RTVSPropertyOp51
 70
     0
102
RTVSPropertyOp52
 70
     0
102
RTVSPropertyOp53
 70
     1
102
RTVSPropertyOp54
 70
     1
102
RTVSPropertyOp55
 70
     1
102
RTVSPropertyOp56
 70
     1
102
RTVSPropertyOp57
 70
     1
102
RTVSPropertyOp58
 70
     1
102
RTVSPropertyOp59
 70
     1
102
RTVSPropertyOp60
 70
     1
102
RTVSPropertyOp61
 70
     1
102
RTVSPropertyOp62
 70
     1
  0
XRECORD
  5
AE07
102
{ACAD_REACTORS
330
AE06
102
}
330
AE06
100
AcDbXrecord
280
     1
102
RTVSPost2010Prop28
280
     0
102
RTVSPost2010PropOp28
 70
     1
102
RTVSPost2010Prop29
280
     1
102
RTVSPost2010PropOp29
 70
     1
102
RTVSPost2010Prop30
280
     1
102
RTVSPost2010PropOp30
 70
     1
102
RTVSPost2010Prop31
280
     0
102
RTVSPost2010PropOp31
 70
     1
102
RTVSPost2010Prop32
280
     0
102
RTVSPost2010PropOp32
 70
     1
102
RTVSPost2010Prop33
280
     0
102
RTVSPost2010PropOp33
 70
     1
102
RTVSPost2010Prop34
280
     0
102
RTVSPost2010PropOp34
 70
     1
102
RTVSPost2010Prop35
280
     0
102
RTVSPost2010PropOp35
 70
     1
102
RTVSPost2010Prop36
280
     0
102
RTVSPost2010PropOp36
 70
     1
102
RTVSPost2010Prop37
 90
       50
102
RTVSPost2010PropOp37
 70
     1
102
RTVSPost2010Prop38
140
0.0
102
RTVSPost2010PropOp38
 70
     1
102
RTVSPost2010Prop39
140
1.0
102
RTVSPost2010PropOp39
 70
     1
102
RTVSPost2010Prop40
 90
        0
102
RTVSPost2010PropOp40
 70
     1
102
RTVSPost2010Prop41ColorIndex
 90
       18
102
RTVSPost2010Prop41ColorRGB
 90
        0
102
RTVSPost2010PropOp41
 70
     1
102
RTVSPost2010Prop42
 90
       50
102
RTVSPost2010PropOp42
 70
     1
102
RTVSPost2010Prop43
 90
        3
102
RTVSPost2010PropOp43
 70
     1
102
RTVSPost2010Prop44ColorIndex
 90
        5
102
RTVSPost2010Prop44ColorRGB
 90
      255
102
RTVSPost2010PropOp44
 70
     1
102
RTVSPost2010Prop45
280
     0
102
RTVSPost2010PropOp45
 70
     1
102
RTVSPost2010Prop46
 90
       50
102
RTVSPost2010PropOp46
 70
     1
102
RTVSPost2010Prop47
 90
       50
102
RTVSPost2010PropOp47
 70
     1
102
RTVSPost2010Prop48
 90
       50
102
RTVSPost2010PropOp48
 70
     1
102
RTVSPost2010Prop49
280
     0
102
RTVSPost2010PropOp49
 70
     1
102
RTVSPost2010Prop50
 90
       50
102
RTVSPost2010PropOp50
 70
     1
102
RTVSPost2010Prop51ColorIndex
 90
      256
102
RTVSPost2010Prop51ColorRGB
 90
-16777216
102
RTVSPost2010PropOp51
 70
     0
102
RTVSPost2010Prop52
140
1.0
102
RTVSPost2010PropOp52
 70
     0
102
RTVSPost2010Prop53
 90
        2
102
RTVSPost2010PropOp53
 70
     1
102
RTVSPost2010Prop54
  1
strokes_ogs.tif
102
RTVSPost2010PropOp54
 70
     1
102
RTVSPost2010Prop55
280
     0
102
RTVSPost2010PropOp55
 70
     1
102
RTVSPost2010Prop56
140
1.0
102
RTVSPost2010PropOp56
 70
     1
102
RTVSPost2010Prop57
140
1.0
102
RTVSPost2010PropOp57
 70
     1
102
RTVSPropertyOp0
 70
     1
102
RTVSPropertyOp1
 70
     1
102
RTVSPropertyOp2
 70
     1
102
RTVSPropertyOp3
 70
     1
102
RTVSPropertyOp4
 70
     1
102
RTVSPropertyOp5
 70
     1
102
RTVSPropertyOp6
 70
     1
102
RTVSPropertyOp7
 70
     1
102
RTVSPropertyOp8
 70
     1
102
RTVSPropertyOp9
 70
     1
102
RTVSPropertyOp10
 70
     1
102
RTVSPropertyOp11
 70
     1
102
RTVSPropertyOp12
 70
     1
102
RTVSPropertyOp13
 70
     1
102
RTVSPropertyOp14
 70
     1
102
RTVSPropertyOp15
 70
     1
102
RTVSPropertyOp16
 70
     1
102
RTVSPropertyOp17
 70
     1
102
RTVSPropertyOp18
 70
     1
102
RTVSPropertyOp19
 70
     1
102
RTVSPropertyOp20
 70
     1
102
RTVSPropertyOp21
 70
     1
102
RTVSPropertyOp22
 70
     1
102
RTVSPropertyOp23
 70
     1
102
RTVSPropertyOp24
 70
     1
102
RTVSPropertyOp25
 70
     1
102
RTVSPropertyOp26
 70
     1
102
RTVSPropertyOp27
 70
     1
102
RTVSPropertyOp28
 70
     1
102
RTVSPropertyOp29
 70
     1
102
RTVSPropertyOp30
 70
     1
102
RTVSPropertyOp31
 70
     1
102
RTVSPropertyOp32
 70
     1
102
RTVSPropertyOp33
 70
     1
102
RTVSPropertyOp34
 70
     1
102
RTVSPropertyOp35
 70
     1
102
RTVSPropertyOp36
 70
     1
102
RTVSPropertyOp37
 70
     1
102
RTVSPropertyOp38
 70
     1
102
RTVSPropertyOp39
 70
     1
102
RTVSPropertyOp40
 70
     1
102
RTVSPropertyOp41
 70
     1
102
RTVSPropertyOp42
 70
     1
102
RTVSPropertyOp43
 70
     1
102
RTVSPropertyOp44
 70
     1
102
RTVSPropertyOp45
 70
     1
102
RTVSPropertyOp46
 70
     1
102
RTVSPropertyOp47
 70
     1
102
RTVSPropertyOp48
 70
     1
102
RTVSPropertyOp49
 70
     1
102
RTVSPropertyOp50
 70
     1
102
RTVSPropertyOp51
 70
     0
102
RTVSPropertyOp52
 70
     0
102
RTVSPropertyOp53
 70
     1
102
RTVSPropertyOp54
 70
     1
102
RTVSPropertyOp55
 70
     1
102
RTVSPropertyOp56
 70
     1
102
RTVSPropertyOp57
 70
     1
102
RTVSPropertyOp58
 70
     1
102
RTVSPropertyOp59
 70
     1
102
RTVSPropertyOp60
 70
     1
102
RTVSPropertyOp61
 70
     1
102
RTVSPropertyOp62
 70
     1
  0
XRECORD
  5
AE19
102
{ACAD_REACTORS
330
AE18
102
}
330
AE18
100
AcDbXrecord
280
     1
102
RTVSPost2010Prop28
280
     0
102
RTVSPost2010PropOp28
 70
     1
102
RTVSPost2010Prop29
280
     1
102
RTVSPost2010PropOp29
 70
     1
102
RTVSPost2010Prop30
280
     1
102
RTVSPost2010PropOp30
 70
     1
102
RTVSPost2010Prop31
280
     0
102
RTVSPost2010PropOp31
 70
     1
102
RTVSPost2010Prop32
280
     0
102
RTVSPost2010PropOp32
 70
     1
102
RTVSPost2010Prop33
280
     0
102
RTVSPost2010PropOp33
 70
     1
102
RTVSPost2010Prop34
280
     0
102
RTVSPost2010PropOp34
 70
     1
102
RTVSPost2010Prop35
280
     0
102
RTVSPost2010PropOp35
 70
     1
102
RTVSPost2010Prop36
280
     0
102
RTVSPost2010PropOp36
 70
     1
102
RTVSPost2010Prop37
 90
       50
102
RTVSPost2010PropOp37
 70
     1
102
RTVSPost2010Prop38
140
0.0
102
RTVSPost2010PropOp38
 70
     1
102
RTVSPost2010Prop39
140
1.0
102
RTVSPost2010PropOp39
 70
     1
102
RTVSPost2010Prop40
 90
        0
102
RTVSPost2010PropOp40
 70
     1
102
RTVSPost2010Prop41ColorIndex
 90
       18
102
RTVSPost2010Prop41ColorRGB
 90
        0
102
RTVSPost2010PropOp41
 70
     1
102
RTVSPost2010Prop42
 90
       50
102
RTVSPost2010PropOp42
 70
     1
102
RTVSPost2010Prop43
 90
        3
102
RTVSPost2010PropOp43
 70
     1
102
RTVSPost2010Prop44ColorIndex
 90
        5
102
RTVSPost2010Prop44ColorRGB
 90
      255
102
RTVSPost2010PropOp44
 70
     1
102
RTVSPost2010Prop45
280
     0
102
RTVSPost2010PropOp45
 70
     1
102
RTVSPost2010Prop46
 90
       50
102
RTVSPost2010PropOp46
 70
     1
102
RTVSPost2010Prop47
 90
       50
102
RTVSPost2010PropOp47
 70
     1
102
RTVSPost2010Prop48
 90
       50
102
RTVSPost2010PropOp48
 70
     1
102
RTVSPost2010Prop49
280
     0
102
RTVSPost2010PropOp49
 70
     1
102
RTVSPost2010Prop50
 90
       50
102
RTVSPost2010PropOp50
 70
     1
102
RTVSPost2010Prop51ColorIndex
 90
      256
102
RTVSPost2010Prop51ColorRGB
 90
-16777216
102
RTVSPost2010PropOp51
 70
     0
102
RTVSPost2010Prop52
140
1.0
102
RTVSPost2010PropOp52
 70
     0
102
RTVSPost2010Prop53
 90
        2
102
RTVSPost2010PropOp53
 70
     1
102
RTVSPost2010Prop54
  1
strokes_ogs.tif
102
RTVSPost2010PropOp54
 70
     1
102
RTVSPost2010Prop55
280
     0
102
RTVSPost2010PropOp55
 70
     1
102
RTVSPost2010Prop56
140
1.0
102
RTVSPost2010PropOp56
 70
     1
102
RTVSPost2010Prop57
140
1.0
102
RTVSPost2010PropOp57
 70
     1
102
RTVSPropertyOp0
 70
     0
102
RTVSPropertyOp1
 70
     0
102
RTVSPropertyOp2
 70
     0
102
RTVSPropertyOp3
 70
     0
102
RTVSPropertyOp4
 70
     0
102
RTVSPropertyOp5
 70
     0
102
RTVSPropertyOp6
 70
     0
102
RTVSPropertyOp7
 70
     0
102
RTVSPropertyOp8
 70
     0
102
RTVSPropertyOp9
 70
     0
102
RTVSPropertyOp10
 70
     0
102
RTVSPropertyOp11
 70
     0
102
RTVSPropertyOp12
 70
     0
102
RTVSPropertyOp13
 70
     0
102
RTVSPropertyOp14
 70
     2
102
RTVSPropertyOp15
 70
     0
102
RTVSPropertyOp16
 70
     0
102
RTVSPropertyOp17
 70
     0
102
RTVSPropertyOp18
 70
     0
102
RTVSPropertyOp19
 70
     0
102
RTVSPropertyOp20
 70
     0
102
RTVSPropertyOp21
 70
     0
102
RTVSPropertyOp22
 70
     0
102
RTVSPropertyOp23
 70
     0
102
RTVSPropertyOp24
 70
     0
102
RTVSPropertyOp25
 70
     0
102
RTVSPropertyOp26
 70
     0
102
RTVSPropertyOp27
 70
     0
102
RTVSPropertyOp28
 70
     1
102
RTVSPropertyOp29
 70
     1
102
RTVSPropertyOp30
 70
     1
102
RTVSPropertyOp31
 70
     1
102
RTVSPropertyOp32
 70
     1
102
RTVSPropertyOp33
 70
     1
102
RTVSPropertyOp34
 70
     1
102
RTVSPropertyOp35
 70
     1
102
RTVSPropertyOp36
 70
     1
102
RTVSPropertyOp37
 70
     1
102
RTVSPropertyOp38
 70
     1
102
RTVSPropertyOp39
 70
     1
102
RTVSPropertyOp40
 70
     1
102
RTVSPropertyOp41
 70
     1
102
RTVSPropertyOp42
 70
     1
102
RTVSPropertyOp43
 70
     1
102
RTVSPropertyOp44
 70
     1
102
RTVSPropertyOp45
 70
     1
102
RTVSPropertyOp46
 70
     1
102
RTVSPropertyOp47
 70
     1
102
RTVSPropertyOp48
 70
     1
102
RTVSPropertyOp49
 70
     1
102
RTVSPropertyOp50
 70
     1
102
RTVSPropertyOp51
 70
     0
102
RTVSPropertyOp52
 70
     0
102
RTVSPropertyOp53
 70
     1
102
RTVSPropertyOp54
 70
     1
102
RTVSPropertyOp55
 70
     1
102
RTVSPropertyOp56
 70
     1
102
RTVSPropertyOp57
 70
     1
102
RTVSPropertyOp58
 70
     1
102
RTVSPropertyOp59
 70
     1
102
RTVSPropertyOp60
 70
     1
102
RTVSPropertyOp61
 70
     1
102
RTVSPropertyOp62
 70
     1
  0
XRECORD
  5
AE0F
102
{ACAD_REACTORS
330
AE0E
102
}
330
AE0E
100
AcDbXrecord
280
     1
102
RTVSPost2010Prop28
280
     0
102
RTVSPost2010PropOp28
 70
     1
102
RTVSPost2010Prop29
280
     1
102
RTVSPost2010PropOp29
 70
     1
102
RTVSPost2010Prop30
280
     1
102
RTVSPost2010PropOp30
 70
     1
102
RTVSPost2010Prop31
280
     0
102
RTVSPost2010PropOp31
 70
     1
102
RTVSPost2010Prop32
280
     0
102
RTVSPost2010PropOp32
 70
     1
102
RTVSPost2010Prop33
280
     0
102
RTVSPost2010PropOp33
 70
     1
102
RTVSPost2010Prop34
280
     0
102
RTVSPost2010PropOp34
 70
     1
102
RTVSPost2010Prop35
280
     0
102
RTVSPost2010PropOp35
 70
     1
102
RTVSPost2010Prop36
280
     0
102
RTVSPost2010PropOp36
 70
     1
102
RTVSPost2010Prop37
 90
       50
102
RTVSPost2010PropOp37
 70
     1
102
RTVSPost2010Prop38
140
0.0
102
RTVSPost2010PropOp38
 70
     1
102
RTVSPost2010Prop39
140
1.0
102
RTVSPost2010PropOp39
 70
     1
102
RTVSPost2010Prop40
 90
        0
102
RTVSPost2010PropOp40
 70
     1
102
RTVSPost2010Prop41ColorIndex
 90
       18
102
RTVSPost2010Prop41ColorRGB
 90
        0
102
RTVSPost2010PropOp41
 70
     1
102
RTVSPost2010Prop42
 90
       50
102
RTVSPost2010PropOp42
 70
     1
102
RTVSPost2010Prop43
 90
        3
102
RTVSPost2010PropOp43
 70
     1
102
RTVSPost2010Prop44ColorIndex
 90
        5
102
RTVSPost2010Prop44ColorRGB
 90
      255
102
RTVSPost2010PropOp44
 70
     1
102
RTVSPost2010Prop45
280
     0
102
RTVSPost2010PropOp45
 70
     1
102
RTVSPost2010Prop46
 90
       50
102
RTVSPost2010PropOp46
 70
     1
102
RTVSPost2010Prop47
 90
       50
102
RTVSPost2010PropOp47
 70
     1
102
RTVSPost2010Prop48
 90
       50
102
RTVSPost2010PropOp48
 70
     1
102
RTVSPost2010Prop49
280
     0
102
RTVSPost2010PropOp49
 70
     1
102
RTVSPost2010Prop50
 90
       50
102
RTVSPost2010PropOp50
 70
     1
102
RTVSPost2010Prop51ColorIndex
 90
      256
102
RTVSPost2010Prop51ColorRGB
 90
-16777216
102
RTVSPost2010PropOp51
 70
     0
102
RTVSPost2010Prop52
140
1.0
102
RTVSPost2010PropOp52
 70
     0
102
RTVSPost2010Prop53
 90
        2
102
RTVSPost2010PropOp53
 70
     1
102
RTVSPost2010Prop54
  1
strokes_ogs.tif
102
RTVSPost2010PropOp54
 70
     1
102
RTVSPost2010Prop55
280
     0
102
RTVSPost2010PropOp55
 70
     1
102
RTVSPost2010Prop56
140
1.0
102
RTVSPost2010PropOp56
 70
     1
102
RTVSPost2010Prop57
140
1.0
102
RTVSPost2010PropOp57
 70
     1
102
RTVSPropertyOp0
 70
     1
102
RTVSPropertyOp1
 70
     1
102
RTVSPropertyOp2
 70
     1
102
RTVSPropertyOp3
 70
     1
102
RTVSPropertyOp4
 70
     1
102
RTVSPropertyOp5
 70
     1
102
RTVSPropertyOp6
 70
     1
102
RTVSPropertyOp7
 70
     1
102
RTVSPropertyOp8
 70
     1
102
RTVSPropertyOp9
 70
     1
102
RTVSPropertyOp10
 70
     1
102
RTVSPropertyOp11
 70
     1
102
RTVSPropertyOp12
 70
     1
102
RTVSPropertyOp13
 70
     1
102
RTVSPropertyOp14
 70
     1
102
RTVSPropertyOp15
 70
     1
102
RTVSPropertyOp16
 70
     1
102
RTVSPropertyOp17
 70
     1
102
RTVSPropertyOp18
 70
     1
102
RTVSPropertyOp19
 70
     1
102
RTVSPropertyOp20
 70
     1
102
RTVSPropertyOp21
 70
     1
102
RTVSPropertyOp22
 70
     1
102
RTVSPropertyOp23
 70
     1
102
RTVSPropertyOp24
 70
     1
102
RTVSPropertyOp25
 70
     1
102
RTVSPropertyOp26
 70
     1
102
RTVSPropertyOp27
 70
     1
102
RTVSPropertyOp28
 70
     1
102
RTVSPropertyOp29
 70
     1
102
RTVSPropertyOp30
 70
     1
102
RTVSPropertyOp31
 70
     1
102
RTVSPropertyOp32
 70
     1
102
RTVSPropertyOp33
 70
     1
102
RTVSPropertyOp34
 70
     1
102
RTVSPropertyOp35
 70
     1
102
RTVSPropertyOp36
 70
     1
102
RTVSPropertyOp37
 70
     1
102
RTVSPropertyOp38
 70
     1
102
RTVSPropertyOp39
 70
     1
102
RTVSPropertyOp40
 70
     1
102
RTVSPropertyOp41
 70
     1
102
RTVSPropertyOp42
 70
     1
102
RTVSPropertyOp43
 70
     1
102
RTVSPropertyOp44
 70
     1
102
RTVSPropertyOp45
 70
     1
102
RTVSPropertyOp46
 70
     1
102
RTVSPropertyOp47
 70
     1
102
RTVSPropertyOp48
 70
     1
102
RTVSPropertyOp49
 70
     1
102
RTVSPropertyOp50
 70
     1
102
RTVSPropertyOp51
 70
     0
102
RTVSPropertyOp52
 70
     0
102
RTVSPropertyOp53
 70
     1
102
RTVSPropertyOp54
 70
     1
102
RTVSPropertyOp55
 70
     1
102
RTVSPropertyOp56
 70
     1
102
RTVSPropertyOp57
 70
     1
102
RTVSPropertyOp58
 70
     1
102
RTVSPropertyOp59
 70
     1
102
RTVSPropertyOp60
 70
     1
102
RTVSPropertyOp61
 70
     1
102
RTVSPropertyOp62
 70
     1
  0
XRECORD
  5
ADF3
102
{ACAD_REACTORS
330
ADF2
102
}
330
ADF2
100
AcDbXrecord
280
     1
102
RTVSPost2010Prop28
280
     0
102
RTVSPost2010PropOp28
 70
     1
102
RTVSPost2010Prop29
280
     1
102
RTVSPost2010PropOp29
 70
     1
102
RTVSPost2010Prop30
280
     1
102
RTVSPost2010PropOp30
 70
     1
102
RTVSPost2010Prop31
280
     0
102
RTVSPost2010PropOp31
 70
     1
102
RTVSPost2010Prop32
280
     0
102
RTVSPost2010PropOp32
 70
     1
102
RTVSPost2010Prop33
280
     0
102
RTVSPost2010PropOp33
 70
     1
102
RTVSPost2010Prop34
280
     0
102
RTVSPost2010PropOp34
 70
     1
102
RTVSPost2010Prop35
280
     0
102
RTVSPost2010PropOp35
 70
     1
102
RTVSPost2010Prop36
280
     0
102
RTVSPost2010PropOp36
 70
     1
102
RTVSPost2010Prop37
 90
       50
102
RTVSPost2010PropOp37
 70
     1
102
RTVSPost2010Prop38
140
0.0
102
RTVSPost2010PropOp38
 70
     1
102
RTVSPost2010Prop39
140
1.0
102
RTVSPost2010PropOp39
 70
     1
102
RTVSPost2010Prop40
 90
        0
102
RTVSPost2010PropOp40
 70
     1
102
RTVSPost2010Prop41ColorIndex
 90
       18
102
RTVSPost2010Prop41ColorRGB
 90
        0
102
RTVSPost2010PropOp41
 70
     1
102
RTVSPost2010Prop42
 90
       50
102
RTVSPost2010PropOp42
 70
     1
102
RTVSPost2010Prop43
 90
        3
102
RTVSPost2010PropOp43
 70
     1
102
RTVSPost2010Prop44ColorIndex
 90
        5
102
RTVSPost2010Prop44ColorRGB
 90
      255
102
RTVSPost2010PropOp44
 70
     1
102
RTVSPost2010Prop45
280
     0
102
RTVSPost2010PropOp45
 70
     1
102
RTVSPost2010Prop46
 90
       50
102
RTVSPost2010PropOp46
 70
     1
102
RTVSPost2010Prop47
 90
       50
102
RTVSPost2010PropOp47
 70
     1
102
RTVSPost2010Prop48
 90
       50
102
RTVSPost2010PropOp48
 70
     1
102
RTVSPost2010Prop49
280
     0
102
RTVSPost2010PropOp49
 70
     1
102
RTVSPost2010Prop50
 90
       50
102
RTVSPost2010PropOp50
 70
     1
102
RTVSPost2010Prop51ColorIndex
 90
      256
102
RTVSPost2010Prop51ColorRGB
 90
-16777216
102
RTVSPost2010PropOp51
 70
     0
102
RTVSPost2010Prop52
140
1.0
102
RTVSPost2010PropOp52
 70
     0
102
RTVSPost2010Prop53
 90
        2
102
RTVSPost2010PropOp53
 70
     1
102
RTVSPost2010Prop54
  1
strokes_ogs.tif
102
RTVSPost2010PropOp54
 70
     1
102
RTVSPost2010Prop55
280
     0
102
RTVSPost2010PropOp55
 70
     1
102
RTVSPost2010Prop56
140
1.0
102
RTVSPost2010PropOp56
 70
     1
102
RTVSPost2010Prop57
140
1.0
102
RTVSPost2010PropOp57
 70
     1
102
RTVSPropertyOp0
 70
     1
102
RTVSPropertyOp1
 70
     1
102
RTVSPropertyOp2
 70
     1
102
RTVSPropertyOp3
 70
     1
102
RTVSPropertyOp4
 70
     1
102
RTVSPropertyOp5
 70
     1
102
RTVSPropertyOp6
 70
     1
102
RTVSPropertyOp7
 70
     1
102
RTVSPropertyOp8
 70
     1
102
RTVSPropertyOp9
 70
     1
102
RTVSPropertyOp10
 70
     1
102
RTVSPropertyOp11
 70
     1
102
RTVSPropertyOp12
 70
     1
102
RTVSPropertyOp13
 70
     1
102
RTVSPropertyOp14
 70
     1
102
RTVSPropertyOp15
 70
     1
102
RTVSPropertyOp16
 70
     1
102
RTVSPropertyOp17
 70
     1
102
RTVSPropertyOp18
 70
     1
102
RTVSPropertyOp19
 70
     1
102
RTVSPropertyOp20
 70
     1
102
RTVSPropertyOp21
 70
     1
102
RTVSPropertyOp22
 70
     1
102
RTVSPropertyOp23
 70
     1
102
RTVSPropertyOp24
 70
     1
102
RTVSPropertyOp25
 70
     1
102
RTVSPropertyOp26
 70
     1
102
RTVSPropertyOp27
 70
     1
102
RTVSPropertyOp28
 70
     1
102
RTVSPropertyOp29
 70
     1
102
RTVSPropertyOp30
 70
     1
102
RTVSPropertyOp31
 70
     1
102
RTVSPropertyOp32
 70
     1
102
RTVSPropertyOp33
 70
     1
102
RTVSPropertyOp34
 70
     1
102
RTVSPropertyOp35
 70
     1
102
RTVSPropertyOp36
 70
     1
102
RTVSPropertyOp37
 70
     1
102
RTVSPropertyOp38
 70
     1
102
RTVSPropertyOp39
 70
     1
102
RTVSPropertyOp40
 70
     1
102
RTVSPropertyOp41
 70
     1
102
RTVSPropertyOp42
 70
     1
102
RTVSPropertyOp43
 70
     1
102
RTVSPropertyOp44
 70
     1
102
RTVSPropertyOp45
 70
     1
102
RTVSPropertyOp46
 70
     1
102
RTVSPropertyOp47
 70
     1
102
RTVSPropertyOp48
 70
     1
102
RTVSPropertyOp49
 70
     1
102
RTVSPropertyOp50
 70
     1
102
RTVSPropertyOp51
 70
     0
102
RTVSPropertyOp52
 70
     0
102
RTVSPropertyOp53
 70
     1
102
RTVSPropertyOp54
 70
     1
102
RTVSPropertyOp55
 70
     1
102
RTVSPropertyOp56
 70
     1
102
RTVSPropertyOp57
 70
     1
102
RTVSPropertyOp58
 70
     1
102
RTVSPropertyOp59
 70
     1
102
RTVSPropertyOp60
 70
     1
102
RTVSPropertyOp61
 70
     1
102
RTVSPropertyOp62
 70
     1
  0
XRECORD
  5
ADF5
102
{ACAD_REACTORS
330
ADF4
102
}
330
ADF4
100
AcDbXrecord
280
     1
102
RTVSPost2010Prop28
280
     0
102
RTVSPost2010PropOp28
 70
     1
102
RTVSPost2010Prop29
280
     1
102
RTVSPost2010PropOp29
 70
     1
102
RTVSPost2010Prop30
280
     1
102
RTVSPost2010PropOp30
 70
     1
102
RTVSPost2010Prop31
280
     0
102
RTVSPost2010PropOp31
 70
     1
102
RTVSPost2010Prop32
280
     0
102
RTVSPost2010PropOp32
 70
     1
102
RTVSPost2010Prop33
280
     0
102
RTVSPost2010PropOp33
 70
     1
102
RTVSPost2010Prop34
280
     0
102
RTVSPost2010PropOp34
 70
     1
102
RTVSPost2010Prop35
280
     0
102
RTVSPost2010PropOp35
 70
     1
102
RTVSPost2010Prop36
280
     0
102
RTVSPost2010PropOp36
 70
     1
102
RTVSPost2010Prop37
 90
       50
102
RTVSPost2010PropOp37
 70
     1
102
RTVSPost2010Prop38
140
0.0
102
RTVSPost2010PropOp38
 70
     1
102
RTVSPost2010Prop39
140
1.0
102
RTVSPost2010PropOp39
 70
     1
102
RTVSPost2010Prop40
 90
        0
102
RTVSPost2010PropOp40
 70
     1
102
RTVSPost2010Prop41ColorIndex
 90
       18
102
RTVSPost2010Prop41ColorRGB
 90
        0
102
RTVSPost2010PropOp41
 70
     1
102
RTVSPost2010Prop42
 90
       50
102
RTVSPost2010PropOp42
 70
     1
102
RTVSPost2010Prop43
 90
        3
102
RTVSPost2010PropOp43
 70
     1
102
RTVSPost2010Prop44ColorIndex
 90
        5
102
RTVSPost2010Prop44ColorRGB
 90
      255
102
RTVSPost2010PropOp44
 70
     1
102
RTVSPost2010Prop45
280
     0
102
RTVSPost2010PropOp45
 70
     1
102
RTVSPost2010Prop46
 90
       50
102
RTVSPost2010PropOp46
 70
     1
102
RTVSPost2010Prop47
 90
       50
102
RTVSPost2010PropOp47
 70
     1
102
RTVSPost2010Prop48
 90
       50
102
RTVSPost2010PropOp48
 70
     1
102
RTVSPost2010Prop49
280
     0
102
RTVSPost2010PropOp49
 70
     1
102
RTVSPost2010Prop50
 90
       50
102
RTVSPost2010PropOp50
 70
     1
102
RTVSPost2010Prop51ColorIndex
 90
      256
102
RTVSPost2010Prop51ColorRGB
 90
-16777216
102
RTVSPost2010PropOp51
 70
     0
102
RTVSPost2010Prop52
140
1.0
102
RTVSPost2010PropOp52
 70
     0
102
RTVSPost2010Prop53
 90
        2
102
RTVSPost2010PropOp53
 70
     1
102
RTVSPost2010Prop54
  1
strokes_ogs.tif
102
RTVSPost2010PropOp54
 70
     1
102
RTVSPost2010Prop55
280
     0
102
RTVSPost2010PropOp55
 70
     1
102
RTVSPost2010Prop56
140
1.0
102
RTVSPost2010PropOp56
 70
     1
102
RTVSPost2010Prop57
140
1.0
102
RTVSPost2010PropOp57
 70
     1
102
RTVSPropertyOp0
 70
     1
102
RTVSPropertyOp1
 70
     1
102
RTVSPropertyOp2
 70
     1
102
RTVSPropertyOp3
 70
     1
102
RTVSPropertyOp4
 70
     1
102
RTVSPropertyOp5
 70
     1
102
RTVSPropertyOp6
 70
     1
102
RTVSPropertyOp7
 70
     1
102
RTVSPropertyOp8
 70
     1
102
RTVSPropertyOp9
 70
     1
102
RTVSPropertyOp10
 70
     1
102
RTVSPropertyOp11
 70
     1
102
RTVSPropertyOp12
 70
     1
102
RTVSPropertyOp13
 70
     1
102
RTVSPropertyOp14
 70
     1
102
RTVSPropertyOp15
 70
     1
102
RTVSPropertyOp16
 70
     1
102
RTVSPropertyOp17
 70
     1
102
RTVSPropertyOp18
 70
     1
102
RTVSPropertyOp19
 70
     1
102
RTVSPropertyOp20
 70
     1
102
RTVSPropertyOp21
 70
     1
102
RTVSPropertyOp22
 70
     1
102
RTVSPropertyOp23
 70
     1
102
RTVSPropertyOp24
 70
     1
102
RTVSPropertyOp25
 70
     1
102
RTVSPropertyOp26
 70
     1
102
RTVSPropertyOp27
 70
     1
102
RTVSPropertyOp28
 70
     1
102
RTVSPropertyOp29
 70
     1
102
RTVSPropertyOp30
 70
     1
102
RTVSPropertyOp31
 70
     1
102
RTVSPropertyOp32
 70
     1
102
RTVSPropertyOp33
 70
     1
102
RTVSPropertyOp34
 70
     1
102
RTVSPropertyOp35
 70
     1
102
RTVSPropertyOp36
 70
     1
102
RTVSPropertyOp37
 70
     1
102
RTVSPropertyOp38
 70
     1
102
RTVSPropertyOp39
 70
     1
102
RTVSPropertyOp40
 70
     1
102
RTVSPropertyOp41
 70
     1
102
RTVSPropertyOp42
 70
     1
102
RTVSPropertyOp43
 70
     1
102
RTVSPropertyOp44
 70
     1
102
RTVSPropertyOp45
 70
     1
102
RTVSPropertyOp46
 70
     1
102
RTVSPropertyOp47
 70
     1
102
RTVSPropertyOp48
 70
     1
102
RTVSPropertyOp49
 70
     1
102
RTVSPropertyOp50
 70
     1
102
RTVSPropertyOp51
 70
     0
102
RTVSPropertyOp52
 70
     0
102
RTVSPropertyOp53
 70
     1
102
RTVSPropertyOp54
 70
     1
102
RTVSPropertyOp55
 70
     1
102
RTVSPropertyOp56
 70
     1
102
RTVSPropertyOp57
 70
     1
102
RTVSPropertyOp58
 70
     1
102
RTVSPropertyOp59
 70
     1
102
RTVSPropertyOp60
 70
     1
102
RTVSPropertyOp61
 70
     1
102
RTVSPropertyOp62
 70
     1
  0
XRECORD
  5
ADF7
102
{ACAD_REACTORS
330
ADF6
102
}
330
ADF6
100
AcDbXrecord
280
     1
102
RTVSPost2010Prop28
280
     0
102
RTVSPost2010PropOp28
 70
     1
102
RTVSPost2010Prop29
280
     1
102
RTVSPost2010PropOp29
 70
     1
102
RTVSPost2010Prop30
280
     1
102
RTVSPost2010PropOp30
 70
     1
102
RTVSPost2010Prop31
280
     0
102
RTVSPost2010PropOp31
 70
     1
102
RTVSPost2010Prop32
280
     0
102
RTVSPost2010PropOp32
 70
     1
102
RTVSPost2010Prop33
280
     0
102
RTVSPost2010PropOp33
 70
     1
102
RTVSPost2010Prop34
280
     0
102
RTVSPost2010PropOp34
 70
     1
102
RTVSPost2010Prop35
280
     0
102
RTVSPost2010PropOp35
 70
     1
102
RTVSPost2010Prop36
280
     0
102
RTVSPost2010PropOp36
 70
     1
102
RTVSPost2010Prop37
 90
       50
102
RTVSPost2010PropOp37
 70
     1
102
RTVSPost2010Prop38
140
0.0
102
RTVSPost2010PropOp38
 70
     1
102
RTVSPost2010Prop39
140
1.0
102
RTVSPost2010PropOp39
 70
     1
102
RTVSPost2010Prop40
 90
        0
102
RTVSPost2010PropOp40
 70
     1
102
RTVSPost2010Prop41ColorIndex
 90
       18
102
RTVSPost2010Prop41ColorRGB
 90
        0
102
RTVSPost2010PropOp41
 70
     1
102
RTVSPost2010Prop42
 90
       50
102
RTVSPost2010PropOp42
 70
     1
102
RTVSPost2010Prop43
 90
        3
102
RTVSPost2010PropOp43
 70
     1
102
RTVSPost2010Prop44ColorIndex
 90
        5
102
RTVSPost2010Prop44ColorRGB
 90
      255
102
RTVSPost2010PropOp44
 70
     1
102
RTVSPost2010Prop45
280
     0
102
RTVSPost2010PropOp45
 70
     1
102
RTVSPost2010Prop46
 90
       50
102
RTVSPost2010PropOp46
 70
     1
102
RTVSPost2010Prop47
 90
       50
102
RTVSPost2010PropOp47
 70
     1
102
RTVSPost2010Prop48
 90
       50
102
RTVSPost2010PropOp48
 70
     1
102
RTVSPost2010Prop49
280
     0
102
RTVSPost2010PropOp49
 70
     1
102
RTVSPost2010Prop50
 90
       50
102
RTVSPost2010PropOp50
 70
     1
102
RTVSPost2010Prop51ColorIndex
 90
      256
102
RTVSPost2010Prop51ColorRGB
 90
-16777216
102
RTVSPost2010PropOp51
 70
     0
102
RTVSPost2010Prop52
140
1.0
102
RTVSPost2010PropOp52
 70
     0
102
RTVSPost2010Prop53
 90
        2
102
RTVSPost2010PropOp53
 70
     1
102
RTVSPost2010Prop54
  1
strokes_ogs.tif
102
RTVSPost2010PropOp54
 70
     1
102
RTVSPost2010Prop55
280
     0
102
RTVSPost2010PropOp55
 70
     1
102
RTVSPost2010Prop56
140
1.0
102
RTVSPost2010PropOp56
 70
     1
102
RTVSPost2010Prop57
140
1.0
102
RTVSPost2010PropOp57
 70
     1
102
RTVSPropertyOp0
 70
     1
102
RTVSPropertyOp1
 70
     1
102
RTVSPropertyOp2
 70
     1
102
RTVSPropertyOp3
 70
     1
102
RTVSPropertyOp4
 70
     1
102
RTVSPropertyOp5
 70
     1
102
RTVSPropertyOp6
 70
     1
102
RTVSPropertyOp7
 70
     1
102
RTVSPropertyOp8
 70
     1
102
RTVSPropertyOp9
 70
     1
102
RTVSPropertyOp10
 70
     1
102
RTVSPropertyOp11
 70
     1
102
RTVSPropertyOp12
 70
     1
102
RTVSPropertyOp13
 70
     1
102
RTVSPropertyOp14
 70
     1
102
RTVSPropertyOp15
 70
     1
102
RTVSPropertyOp16
 70
     1
102
RTVSPropertyOp17
 70
     1
102
RTVSPropertyOp18
 70
     1
102
RTVSPropertyOp19
 70
     1
102
RTVSPropertyOp20
 70
     1
102
RTVSPropertyOp21
 70
     1
102
RTVSPropertyOp22
 70
     1
102
RTVSPropertyOp23
 70
     1
102
RTVSPropertyOp24
 70
     1
102
RTVSPropertyOp25
 70
     1
102
RTVSPropertyOp26
 70
     1
102
RTVSPropertyOp27
 70
     1
102
RTVSPropertyOp28
 70
     1
102
RTVSPropertyOp29
 70
     1
102
RTVSPropertyOp30
 70
     1
102
RTVSPropertyOp31
 70
     1
102
RTVSPropertyOp32
 70
     1
102
RTVSPropertyOp33
 70
     1
102
RTVSPropertyOp34
 70
     1
102
RTVSPropertyOp35
 70
     1
102
RTVSPropertyOp36
 70
     1
102
RTVSPropertyOp37
 70
     1
102
RTVSPropertyOp38
 70
     1
102
RTVSPropertyOp39
 70
     1
102
RTVSPropertyOp40
 70
     1
102
RTVSPropertyOp41
 70
     1
102
RTVSPropertyOp42
 70
     1
102
RTVSPropertyOp43
 70
     1
102
RTVSPropertyOp44
 70
     1
102
RTVSPropertyOp45
 70
     1
102
RTVSPropertyOp46
 70
     1
102
RTVSPropertyOp47
 70
     1
102
RTVSPropertyOp48
 70
     1
102
RTVSPropertyOp49
 70
     1
102
RTVSPropertyOp50
 70
     1
102
RTVSPropertyOp51
 70
     0
102
RTVSPropertyOp52
 70
     0
102
RTVSPropertyOp53
 70
     1
102
RTVSPropertyOp54
 70
     1
102
RTVSPropertyOp55
 70
     1
102
RTVSPropertyOp56
 70
     1
102
RTVSPropertyOp57
 70
     1
102
RTVSPropertyOp58
 70
     1
102
RTVSPropertyOp59
 70
     1
102
RTVSPropertyOp60
 70
     1
102
RTVSPropertyOp61
 70
     1
102
RTVSPropertyOp62
 70
     1
  0
XRECORD
  5
ADF9
102
{ACAD_REACTORS
330
ADF8
102
}
330
ADF8
100
AcDbXrecord
280
     1
102
RTVSPost2010Prop28
280
     0
102
RTVSPost2010PropOp28
 70
     1
102
RTVSPost2010Prop29
280
     1
102
RTVSPost2010PropOp29
 70
     1
102
RTVSPost2010Prop30
280
     1
102
RTVSPost2010PropOp30
 70
     1
102
RTVSPost2010Prop31
280
     0
102
RTVSPost2010PropOp31
 70
     1
102
RTVSPost2010Prop32
280
     0
102
RTVSPost2010PropOp32
 70
     1
102
RTVSPost2010Prop33
280
     0
102
RTVSPost2010PropOp33
 70
     1
102
RTVSPost2010Prop34
280
     0
102
RTVSPost2010PropOp34
 70
     1
102
RTVSPost2010Prop35
280
     0
102
RTVSPost2010PropOp35
 70
     1
102
RTVSPost2010Prop36
280
     0
102
RTVSPost2010PropOp36
 70
     1
102
RTVSPost2010Prop37
 90
       50
102
RTVSPost2010PropOp37
 70
     1
102
RTVSPost2010Prop38
140
0.0
102
RTVSPost2010PropOp38
 70
     1
102
RTVSPost2010Prop39
140
1.0
102
RTVSPost2010PropOp39
 70
     1
102
RTVSPost2010Prop40
 90
        0
102
RTVSPost2010PropOp40
 70
     1
102
RTVSPost2010Prop41ColorIndex
 90
       18
102
RTVSPost2010Prop41ColorRGB
 90
        0
102
RTVSPost2010PropOp41
 70
     1
102
RTVSPost2010Prop42
 90
       50
102
RTVSPost2010PropOp42
 70
     1
102
RTVSPost2010Prop43
 90
        3
102
RTVSPost2010PropOp43
 70
     1
102
RTVSPost2010Prop44ColorIndex
 90
        5
102
RTVSPost2010Prop44ColorRGB
 90
      255
102
RTVSPost2010PropOp44
 70
     1
102
RTVSPost2010Prop45
280
     0
102
RTVSPost2010PropOp45
 70
     1
102
RTVSPost2010Prop46
 90
       50
102
RTVSPost2010PropOp46
 70
     1
102
RTVSPost2010Prop47
 90
       50
102
RTVSPost2010PropOp47
 70
     1
102
RTVSPost2010Prop48
 90
       50
102
RTVSPost2010PropOp48
 70
     1
102
RTVSPost2010Prop49
280
     0
102
RTVSPost2010PropOp49
 70
     1
102
RTVSPost2010Prop50
 90
       50
102
RTVSPost2010PropOp50
 70
     1
102
RTVSPost2010Prop51ColorIndex
 90
      256
102
RTVSPost2010Prop51ColorRGB
 90
-16777216
102
RTVSPost2010PropOp51
 70
     0
102
RTVSPost2010Prop52
140
1.0
102
RTVSPost2010PropOp52
 70
     0
102
RTVSPost2010Prop53
 90
        2
102
RTVSPost2010PropOp53
 70
     1
102
RTVSPost2010Prop54
  1
strokes_ogs.tif
102
RTVSPost2010PropOp54
 70
     1
102
RTVSPost2010Prop55
280
     0
102
RTVSPost2010PropOp55
 70
     1
102
RTVSPost2010Prop56
140
1.0
102
RTVSPost2010PropOp56
 70
     1
102
RTVSPost2010Prop57
140
1.0
102
RTVSPost2010PropOp57
 70
     1
102
RTVSPropertyOp0
 70
     1
102
RTVSPropertyOp1
 70
     1
102
RTVSPropertyOp2
 70
     1
102
RTVSPropertyOp3
 70
     1
102
RTVSPropertyOp4
 70
     1
102
RTVSPropertyOp5
 70
     1
102
RTVSPropertyOp6
 70
     1
102
RTVSPropertyOp7
 70
     1
102
RTVSPropertyOp8
 70
     1
102
RTVSPropertyOp9
 70
     1
102
RTVSPropertyOp10
 70
     1
102
RTVSPropertyOp11
 70
     1
102
RTVSPropertyOp12
 70
     1
102
RTVSPropertyOp13
 70
     1
102
RTVSPropertyOp14
 70
     1
102
RTVSPropertyOp15
 70
     1
102
RTVSPropertyOp16
 70
     1
102
RTVSPropertyOp17
 70
     1
102
RTVSPropertyOp18
 70
     1
102
RTVSPropertyOp19
 70
     1
102
RTVSPropertyOp20
 70
     1
102
RTVSPropertyOp21
 70
     1
102
RTVSPropertyOp22
 70
     1
102
RTVSPropertyOp23
 70
     1
102
RTVSPropertyOp24
 70
     1
102
RTVSPropertyOp25
 70
     1
102
RTVSPropertyOp26
 70
     1
102
RTVSPropertyOp27
 70
     1
102
RTVSPropertyOp28
 70
     1
102
RTVSPropertyOp29
 70
     1
102
RTVSPropertyOp30
 70
     1
102
RTVSPropertyOp31
 70
     1
102
RTVSPropertyOp32
 70
     1
102
RTVSPropertyOp33
 70
     1
102
RTVSPropertyOp34
 70
     1
102
RTVSPropertyOp35
 70
     1
102
RTVSPropertyOp36
 70
     1
102
RTVSPropertyOp37
 70
     1
102
RTVSPropertyOp38
 70
     1
102
RTVSPropertyOp39
 70
     1
102
RTVSPropertyOp40
 70
     1
102
RTVSPropertyOp41
 70
     1
102
RTVSPropertyOp42
 70
     1
102
RTVSPropertyOp43
 70
     1
102
RTVSPropertyOp44
 70
     1
102
RTVSPropertyOp45
 70
     1
102
RTVSPropertyOp46
 70
     1
102
RTVSPropertyOp47
 70
     1
102
RTVSPropertyOp48
 70
     1
102
RTVSPropertyOp49
 70
     1
102
RTVSPropertyOp50
 70
     1
102
RTVSPropertyOp51
 70
     0
102
RTVSPropertyOp52
 70
     0
102
RTVSPropertyOp53
 70
     1
102
RTVSPropertyOp54
 70
     1
102
RTVSPropertyOp55
 70
     1
102
RTVSPropertyOp56
 70
     1
102
RTVSPropertyOp57
 70
     1
102
RTVSPropertyOp58
 70
     1
102
RTVSPropertyOp59
 70
     1
102
RTVSPropertyOp60
 70
     1
102
RTVSPropertyOp61
 70
     1
102
RTVSPropertyOp62
 70
     1
  0
XRECORD
  5
AE01
102
{ACAD_REACTORS
330
AE00
102
}
330
AE00
100
AcDbXrecord
280
     1
102
RTVSPost2010Prop28
280
     0
102
RTVSPost2010PropOp28
 70
     1
102
RTVSPost2010Prop29
280
     1
102
RTVSPost2010PropOp29
 70
     1
102
RTVSPost2010Prop30
280
     1
102
RTVSPost2010PropOp30
 70
     1
102
RTVSPost2010Prop31
280
     0
102
RTVSPost2010PropOp31
 70
     1
102
RTVSPost2010Prop32
280
     0
102
RTVSPost2010PropOp32
 70
     1
102
RTVSPost2010Prop33
280
     0
102
RTVSPost2010PropOp33
 70
     1
102
RTVSPost2010Prop34
280
     0
102
RTVSPost2010PropOp34
 70
     1
102
RTVSPost2010Prop35
280
     0
102
RTVSPost2010PropOp35
 70
     1
102
RTVSPost2010Prop36
280
     0
102
RTVSPost2010PropOp36
 70
     1
102
RTVSPost2010Prop37
 90
       50
102
RTVSPost2010PropOp37
 70
     1
102
RTVSPost2010Prop38
140
0.0
102
RTVSPost2010PropOp38
 70
     1
102
RTVSPost2010Prop39
140
1.0
102
RTVSPost2010PropOp39
 70
     1
102
RTVSPost2010Prop40
 90
        0
102
RTVSPost2010PropOp40
 70
     1
102
RTVSPost2010Prop41ColorIndex
 90
       18
102
RTVSPost2010Prop41ColorRGB
 90
        0
102
RTVSPost2010PropOp41
 70
     1
102
RTVSPost2010Prop42
 90
       50
102
RTVSPost2010PropOp42
 70
     1
102
RTVSPost2010Prop43
 90
        3
102
RTVSPost2010PropOp43
 70
     1
102
RTVSPost2010Prop44ColorIndex
 90
        5
102
RTVSPost2010Prop44ColorRGB
 90
      255
102
RTVSPost2010PropOp44
 70
     1
102
RTVSPost2010Prop45
280
     0
102
RTVSPost2010PropOp45
 70
     1
102
RTVSPost2010Prop46
 90
       50
102
RTVSPost2010PropOp46
 70
     1
102
RTVSPost2010Prop47
 90
       50
102
RTVSPost2010PropOp47
 70
     1
102
RTVSPost2010Prop48
 90
       50
102
RTVSPost2010PropOp48
 70
     1
102
RTVSPost2010Prop49
280
     0
102
RTVSPost2010PropOp49
 70
     1
102
RTVSPost2010Prop50
 90
       50
102
RTVSPost2010PropOp50
 70
     1
102
RTVSPost2010Prop51ColorIndex
 90
      256
102
RTVSPost2010Prop51ColorRGB
 90
-16777216
102
RTVSPost2010PropOp51
 70
     0
102
RTVSPost2010Prop52
140
1.0
102
RTVSPost2010PropOp52
 70
     0
102
RTVSPost2010Prop53
 90
        2
102
RTVSPost2010PropOp53
 70
     1
102
RTVSPost2010Prop54
  1
strokes_ogs.tif
102
RTVSPost2010PropOp54
 70
     1
102
RTVSPost2010Prop55
280
     0
102
RTVSPost2010PropOp55
 70
     1
102
RTVSPost2010Prop56
140
1.0
102
RTVSPost2010PropOp56
 70
     1
102
RTVSPost2010Prop57
140
1.0
102
RTVSPost2010PropOp57
 70
     1
102
RTVSPropertyOp0
 70
     1
102
RTVSPropertyOp1
 70
     1
102
RTVSPropertyOp2
 70
     1
102
RTVSPropertyOp3
 70
     1
102
RTVSPropertyOp4
 70
     1
102
RTVSPropertyOp5
 70
     1
102
RTVSPropertyOp6
 70
     1
102
RTVSPropertyOp7
 70
     1
102
RTVSPropertyOp8
 70
     1
102
RTVSPropertyOp9
 70
     1
102
RTVSPropertyOp10
 70
     1
102
RTVSPropertyOp11
 70
     1
102
RTVSPropertyOp12
 70
     1
102
RTVSPropertyOp13
 70
     1
102
RTVSPropertyOp14
 70
     1
102
RTVSPropertyOp15
 70
     1
102
RTVSPropertyOp16
 70
     1
102
RTVSPropertyOp17
 70
     1
102
RTVSPropertyOp18
 70
     1
102
RTVSPropertyOp19
 70
     1
102
RTVSPropertyOp20
 70
     1
102
RTVSPropertyOp21
 70
     1
102
RTVSPropertyOp22
 70
     1
102
RTVSPropertyOp23
 70
     1
102
RTVSPropertyOp24
 70
     1
102
RTVSPropertyOp25
 70
     1
102
RTVSPropertyOp26
 70
     1
102
RTVSPropertyOp27
 70
     1
102
RTVSPropertyOp28
 70
     1
102
RTVSPropertyOp29
 70
     1
102
RTVSPropertyOp30
 70
     1
102
RTVSPropertyOp31
 70
     1
102
RTVSPropertyOp32
 70
     1
102
RTVSPropertyOp33
 70
     1
102
RTVSPropertyOp34
 70
     1
102
RTVSPropertyOp35
 70
     1
102
RTVSPropertyOp36
 70
     1
102
RTVSPropertyOp37
 70
     1
102
RTVSPropertyOp38
 70
     1
102
RTVSPropertyOp39
 70
     1
102
RTVSPropertyOp40
 70
     1
102
RTVSPropertyOp41
 70
     1
102
RTVSPropertyOp42
 70
     1
102
RTVSPropertyOp43
 70
     1
102
RTVSPropertyOp44
 70
     1
102
RTVSPropertyOp45
 70
     1
102
RTVSPropertyOp46
 70
     1
102
RTVSPropertyOp47
 70
     1
102
RTVSPropertyOp48
 70
     1
102
RTVSPropertyOp49
 70
     1
102
RTVSPropertyOp50
 70
     1
102
RTVSPropertyOp51
 70
     0
102
RTVSPropertyOp52
 70
     0
102
RTVSPropertyOp53
 70
     1
102
RTVSPropertyOp54
 70
     1
102
RTVSPropertyOp55
 70
     1
102
RTVSPropertyOp56
 70
     1
102
RTVSPropertyOp57
 70
     1
102
RTVSPropertyOp58
 70
     1
102
RTVSPropertyOp59
 70
     1
102
RTVSPropertyOp60
 70
     1
102
RTVSPropertyOp61
 70
     1
102
RTVSPropertyOp62
 70
     1
  0
XRECORD
  5
AE15
102
{ACAD_REACTORS
330
AE14
102
}
330
AE14
100
AcDbXrecord
280
     1
102
RTVSPost2010Prop28
280
     0
102
RTVSPost2010PropOp28
 70
     1
102
RTVSPost2010Prop29
280
     1
102
RTVSPost2010PropOp29
 70
     1
102
RTVSPost2010Prop30
280
     1
102
RTVSPost2010PropOp30
 70
     1
102
RTVSPost2010Prop31
280
     0
102
RTVSPost2010PropOp31
 70
     1
102
RTVSPost2010Prop32
280
     0
102
RTVSPost2010PropOp32
 70
     1
102
RTVSPost2010Prop33
280
     0
102
RTVSPost2010PropOp33
 70
     1
102
RTVSPost2010Prop34
280
     0
102
RTVSPost2010PropOp34
 70
     1
102
RTVSPost2010Prop35
280
     0
102
RTVSPost2010PropOp35
 70
     1
102
RTVSPost2010Prop36
280
     0
102
RTVSPost2010PropOp36
 70
     1
102
RTVSPost2010Prop37
 90
       50
102
RTVSPost2010PropOp37
 70
     1
102
RTVSPost2010Prop38
140
0.0
102
RTVSPost2010PropOp38
 70
     1
102
RTVSPost2010Prop39
140
1.0
102
RTVSPost2010PropOp39
 70
     1
102
RTVSPost2010Prop40
 90
        0
102
RTVSPost2010PropOp40
 70
     1
102
RTVSPost2010Prop41ColorIndex
 90
       18
102
RTVSPost2010Prop41ColorRGB
 90
        0
102
RTVSPost2010PropOp41
 70
     1
102
RTVSPost2010Prop42
 90
       50
102
RTVSPost2010PropOp42
 70
     1
102
RTVSPost2010Prop43
 90
        3
102
RTVSPost2010PropOp43
 70
     1
102
RTVSPost2010Prop44ColorIndex
 90
        5
102
RTVSPost2010Prop44ColorRGB
 90
      255
102
RTVSPost2010PropOp44
 70
     1
102
RTVSPost2010Prop45
280
     0
102
RTVSPost2010PropOp45
 70
     1
102
RTVSPost2010Prop46
 90
       50
102
RTVSPost2010PropOp46
 70
     1
102
RTVSPost2010Prop47
 90
       50
102
RTVSPost2010PropOp47
 70
     1
102
RTVSPost2010Prop48
 90
       50
102
RTVSPost2010PropOp48
 70
     1
102
RTVSPost2010Prop49
280
     0
102
RTVSPost2010PropOp49
 70
     1
102
RTVSPost2010Prop50
 90
       50
102
RTVSPost2010PropOp50
 70
     1
102
RTVSPost2010Prop51ColorIndex
 90
      256
102
RTVSPost2010Prop51ColorRGB
 90
-16777216
102
RTVSPost2010PropOp51
 70
     0
102
RTVSPost2010Prop52
140
1.0
102
RTVSPost2010PropOp52
 70
     0
102
RTVSPost2010Prop53
 90
        2
102
RTVSPost2010PropOp53
 70
     1
102
RTVSPost2010Prop54
  1
strokes_ogs.tif
102
RTVSPost2010PropOp54
 70
     1
102
RTVSPost2010Prop55
280
     0
102
RTVSPost2010PropOp55
 70
     1
102
RTVSPost2010Prop56
140
1.0
102
RTVSPost2010PropOp56
 70
     1
102
RTVSPost2010Prop57
140
1.0
102
RTVSPost2010PropOp57
 70
     1
102
RTVSPropertyOp0
 70
     0
102
RTVSPropertyOp1
 70
     0
102
RTVSPropertyOp2
 70
     0
102
RTVSPropertyOp3
 70
     0
102
RTVSPropertyOp4
 70
     0
102
RTVSPropertyOp5
 70
     0
102
RTVSPropertyOp6
 70
     0
102
RTVSPropertyOp7
 70
     0
102
RTVSPropertyOp8
 70
     0
102
RTVSPropertyOp9
 70
     0
102
RTVSPropertyOp10
 70
     0
102
RTVSPropertyOp11
 70
     0
102
RTVSPropertyOp12
 70
     0
102
RTVSPropertyOp13
 70
     0
102
RTVSPropertyOp14
 70
     2
102
RTVSPropertyOp15
 70
     0
102
RTVSPropertyOp16
 70
     0
102
RTVSPropertyOp17
 70
     0
102
RTVSPropertyOp18
 70
     0
102
RTVSPropertyOp19
 70
     0
102
RTVSPropertyOp20
 70
     0
102
RTVSPropertyOp21
 70
     0
102
RTVSPropertyOp22
 70
     0
102
RTVSPropertyOp23
 70
     0
102
RTVSPropertyOp24
 70
     0
102
RTVSPropertyOp25
 70
     0
102
RTVSPropertyOp26
 70
     0
102
RTVSPropertyOp27
 70
     0
102
RTVSPropertyOp28
 70
     1
102
RTVSPropertyOp29
 70
     1
102
RTVSPropertyOp30
 70
     1
102
RTVSPropertyOp31
 70
     1
102
RTVSPropertyOp32
 70
     1
102
RTVSPropertyOp33
 70
     1
102
RTVSPropertyOp34
 70
     1
102
RTVSPropertyOp35
 70
     1
102
RTVSPropertyOp36
 70
     1
102
RTVSPropertyOp37
 70
     1
102
RTVSPropertyOp38
 70
     1
102
RTVSPropertyOp39
 70
     1
102
RTVSPropertyOp40
 70
     1
102
RTVSPropertyOp41
 70
     1
102
RTVSPropertyOp42
 70
     1
102
RTVSPropertyOp43
 70
     1
102
RTVSPropertyOp44
 70
     1
102
RTVSPropertyOp45
 70
     1
102
RTVSPropertyOp46
 70
     1
102
RTVSPropertyOp47
 70
     1
102
RTVSPropertyOp48
 70
     1
102
RTVSPropertyOp49
 70
     1
102
RTVSPropertyOp50
 70
     1
102
RTVSPropertyOp51
 70
     0
102
RTVSPropertyOp52
 70
     0
102
RTVSPropertyOp53
 70
     1
102
RTVSPropertyOp54
 70
     1
102
RTVSPropertyOp55
 70
     1
102
RTVSPropertyOp56
 70
     1
102
RTVSPropertyOp57
 70
     1
102
RTVSPropertyOp58
 70
     1
102
RTVSPropertyOp59
 70
     1
102
RTVSPropertyOp60
 70
     1
102
RTVSPropertyOp61
 70
     1
102
RTVSPropertyOp62
 70
     1
  0
XRECORD
  5
AE0D
102
{ACAD_REACTORS
330
AE0C
102
}
330
AE0C
100
AcDbXrecord
280
     1
102
RTVSPost2010Prop28
280
     0
102
RTVSPost2010PropOp28
 70
     1
102
RTVSPost2010Prop29
280
     1
102
RTVSPost2010PropOp29
 70
     1
102
RTVSPost2010Prop30
280
     1
102
RTVSPost2010PropOp30
 70
     1
102
RTVSPost2010Prop31
280
     0
102
RTVSPost2010PropOp31
 70
     1
102
RTVSPost2010Prop32
280
     0
102
RTVSPost2010PropOp32
 70
     1
102
RTVSPost2010Prop33
280
     0
102
RTVSPost2010PropOp33
 70
     1
102
RTVSPost2010Prop34
280
     0
102
RTVSPost2010PropOp34
 70
     1
102
RTVSPost2010Prop35
280
     0
102
RTVSPost2010PropOp35
 70
     1
102
RTVSPost2010Prop36
280
     0
102
RTVSPost2010PropOp36
 70
     1
102
RTVSPost2010Prop37
 90
       50
102
RTVSPost2010PropOp37
 70
     1
102
RTVSPost2010Prop38
140
0.0
102
RTVSPost2010PropOp38
 70
     1
102
RTVSPost2010Prop39
140
1.0
102
RTVSPost2010PropOp39
 70
     1
102
RTVSPost2010Prop40
 90
        0
102
RTVSPost2010PropOp40
 70
     1
102
RTVSPost2010Prop41ColorIndex
 90
       18
102
RTVSPost2010Prop41ColorRGB
 90
        0
102
RTVSPost2010PropOp41
 70
     1
102
RTVSPost2010Prop42
 90
       50
102
RTVSPost2010PropOp42
 70
     1
102
RTVSPost2010Prop43
 90
        3
102
RTVSPost2010PropOp43
 70
     1
102
RTVSPost2010Prop44ColorIndex
 90
        5
102
RTVSPost2010Prop44ColorRGB
 90
      255
102
RTVSPost2010PropOp44
 70
     1
102
RTVSPost2010Prop45
280
     0
102
RTVSPost2010PropOp45
 70
     1
102
RTVSPost2010Prop46
 90
       50
102
RTVSPost2010PropOp46
 70
     1
102
RTVSPost2010Prop47
 90
       50
102
RTVSPost2010PropOp47
 70
     1
102
RTVSPost2010Prop48
 90
       50
102
RTVSPost2010PropOp48
 70
     1
102
RTVSPost2010Prop49
280
     0
102
RTVSPost2010PropOp49
 70
     1
102
RTVSPost2010Prop50
 90
       50
102
RTVSPost2010PropOp50
 70
     1
102
RTVSPost2010Prop51ColorIndex
 90
      256
102
RTVSPost2010Prop51ColorRGB
 90
-16777216
102
RTVSPost2010PropOp51
 70
     0
102
RTVSPost2010Prop52
140
1.0
102
RTVSPost2010PropOp52
 70
     0
102
RTVSPost2010Prop53
 90
        2
102
RTVSPost2010PropOp53
 70
     1
102
RTVSPost2010Prop54
  1
strokes_ogs.tif
102
RTVSPost2010PropOp54
 70
     1
102
RTVSPost2010Prop55
280
     0
102
RTVSPost2010PropOp55
 70
     1
102
RTVSPost2010Prop56
140
1.0
102
RTVSPost2010PropOp56
 70
     1
102
RTVSPost2010Prop57
140
1.0
102
RTVSPost2010PropOp57
 70
     1
102
RTVSPropertyOp0
 70
     1
102
RTVSPropertyOp1
 70
     1
102
RTVSPropertyOp2
 70
     1
102
RTVSPropertyOp3
 70
     1
102
RTVSPropertyOp4
 70
     1
102
RTVSPropertyOp5
 70
     1
102
RTVSPropertyOp6
 70
     1
102
RTVSPropertyOp7
 70
     1
102
RTVSPropertyOp8
 70
     1
102
RTVSPropertyOp9
 70
     1
102
RTVSPropertyOp10
 70
     1
102
RTVSPropertyOp11
 70
     1
102
RTVSPropertyOp12
 70
     1
102
RTVSPropertyOp13
 70
     1
102
RTVSPropertyOp14
 70
     1
102
RTVSPropertyOp15
 70
     1
102
RTVSPropertyOp16
 70
     1
102
RTVSPropertyOp17
 70
     1
102
RTVSPropertyOp18
 70
     1
102
RTVSPropertyOp19
 70
     1
102
RTVSPropertyOp20
 70
     1
102
RTVSPropertyOp21
 70
     1
102
RTVSPropertyOp22
 70
     1
102
RTVSPropertyOp23
 70
     1
102
RTVSPropertyOp24
 70
     1
102
RTVSPropertyOp25
 70
     1
102
RTVSPropertyOp26
 70
     1
102
RTVSPropertyOp27
 70
     1
102
RTVSPropertyOp28
 70
     1
102
RTVSPropertyOp29
 70
     1
102
RTVSPropertyOp30
 70
     1
102
RTVSPropertyOp31
 70
     1
102
RTVSPropertyOp32
 70
     1
102
RTVSPropertyOp33
 70
     1
102
RTVSPropertyOp34
 70
     1
102
RTVSPropertyOp35
 70
     1
102
RTVSPropertyOp36
 70
     1
102
RTVSPropertyOp37
 70
     1
102
RTVSPropertyOp38
 70
     1
102
RTVSPropertyOp39
 70
     1
102
RTVSPropertyOp40
 70
     1
102
RTVSPropertyOp41
 70
     1
102
RTVSPropertyOp42
 70
     1
102
RTVSPropertyOp43
 70
     1
102
RTVSPropertyOp44
 70
     1
102
RTVSPropertyOp45
 70
     1
102
RTVSPropertyOp46
 70
     1
102
RTVSPropertyOp47
 70
     1
102
RTVSPropertyOp48
 70
     1
102
RTVSPropertyOp49
 70
     1
102
RTVSPropertyOp50
 70
     1
102
RTVSPropertyOp51
 70
     0
102
RTVSPropertyOp52
 70
     0
102
RTVSPropertyOp53
 70
     1
102
RTVSPropertyOp54
 70
     1
102
RTVSPropertyOp55
 70
     1
102
RTVSPropertyOp56
 70
     1
102
RTVSPropertyOp57
 70
     1
102
RTVSPropertyOp58
 70
     1
102
RTVSPropertyOp59
 70
     1
102
RTVSPropertyOp60
 70
     1
102
RTVSPropertyOp61
 70
     1
102
RTVSPropertyOp62
 70
     1
  0
XRECORD
  5
AE17
102
{ACAD_REACTORS
330
AE16
102
}
330
AE16
100
AcDbXrecord
280
     1
102
RTVSPost2010Prop28
280
     0
102
RTVSPost2010PropOp28
 70
     1
102
RTVSPost2010Prop29
280
     1
102
RTVSPost2010PropOp29
 70
     1
102
RTVSPost2010Prop30
280
     1
102
RTVSPost2010PropOp30
 70
     1
102
RTVSPost2010Prop31
280
     0
102
RTVSPost2010PropOp31
 70
     1
102
RTVSPost2010Prop32
280
     0
102
RTVSPost2010PropOp32
 70
     1
102
RTVSPost2010Prop33
280
     0
102
RTVSPost2010PropOp33
 70
     1
102
RTVSPost2010Prop34
280
     0
102
RTVSPost2010PropOp34
 70
     1
102
RTVSPost2010Prop35
280
     0
102
RTVSPost2010PropOp35
 70
     1
102
RTVSPost2010Prop36
280
     0
102
RTVSPost2010PropOp36
 70
     1
102
RTVSPost2010Prop37
 90
       50
102
RTVSPost2010PropOp37
 70
     1
102
RTVSPost2010Prop38
140
0.0
102
RTVSPost2010PropOp38
 70
     1
102
RTVSPost2010Prop39
140
1.0
102
RTVSPost2010PropOp39
 70
     1
102
RTVSPost2010Prop40
 90
        0
102
RTVSPost2010PropOp40
 70
     1
102
RTVSPost2010Prop41ColorIndex
 90
       18
102
RTVSPost2010Prop41ColorRGB
 90
        0
102
RTVSPost2010PropOp41
 70
     1
102
RTVSPost2010Prop42
 90
       50
102
RTVSPost2010PropOp42
 70
     1
102
RTVSPost2010Prop43
 90
        3
102
RTVSPost2010PropOp43
 70
     1
102
RTVSPost2010Prop44ColorIndex
 90
        5
102
RTVSPost2010Prop44ColorRGB
 90
      255
102
RTVSPost2010PropOp44
 70
     1
102
RTVSPost2010Prop45
280
     0
102
RTVSPost2010PropOp45
 70
     1
102
RTVSPost2010Prop46
 90
       50
102
RTVSPost2010PropOp46
 70
     1
102
RTVSPost2010Prop47
 90
       50
102
RTVSPost2010PropOp47
 70
     1
102
RTVSPost2010Prop48
 90
       50
102
RTVSPost2010PropOp48
 70
     1
102
RTVSPost2010Prop49
280
     0
102
RTVSPost2010PropOp49
 70
     1
102
RTVSPost2010Prop50
 90
       50
102
RTVSPost2010PropOp50
 70
     1
102
RTVSPost2010Prop51ColorIndex
 90
      256
102
RTVSPost2010Prop51ColorRGB
 90
-16777216
102
RTVSPost2010PropOp51
 70
     0
102
RTVSPost2010Prop52
140
1.0
102
RTVSPost2010PropOp52
 70
     0
102
RTVSPost2010Prop53
 90
        2
102
RTVSPost2010PropOp53
 70
     1
102
RTVSPost2010Prop54
  1
strokes_ogs.tif
102
RTVSPost2010PropOp54
 70
     1
102
RTVSPost2010Prop55
280
     0
102
RTVSPost2010PropOp55
 70
     1
102
RTVSPost2010Prop56
140
1.0
102
RTVSPost2010PropOp56
 70
     1
102
RTVSPost2010Prop57
140
1.0
102
RTVSPost2010PropOp57
 70
     1
102
RTVSPropertyOp0
 70
     0
102
RTVSPropertyOp1
 70
     0
102
RTVSPropertyOp2
 70
     0
102
RTVSPropertyOp3
 70
     0
102
RTVSPropertyOp4
 70
     0
102
RTVSPropertyOp5
 70
     0
102
RTVSPropertyOp6
 70
     0
102
RTVSPropertyOp7
 70
     0
102
RTVSPropertyOp8
 70
     0
102
RTVSPropertyOp9
 70
     0
102
RTVSPropertyOp10
 70
     0
102
RTVSPropertyOp11
 70
     0
102
RTVSPropertyOp12
 70
     0
102
RTVSPropertyOp13
 70
     0
102
RTVSPropertyOp14
 70
     2
102
RTVSPropertyOp15
 70
     0
102
RTVSPropertyOp16
 70
     0
102
RTVSPropertyOp17
 70
     0
102
RTVSPropertyOp18
 70
     0
102
RTVSPropertyOp19
 70
     0
102
RTVSPropertyOp20
 70
     0
102
RTVSPropertyOp21
 70
     0
102
RTVSPropertyOp22
 70
     0
102
RTVSPropertyOp23
 70
     0
102
RTVSPropertyOp24
 70
     0
102
RTVSPropertyOp25
 70
     0
102
RTVSPropertyOp26
 70
     0
102
RTVSPropertyOp27
 70
     0
102
RTVSPropertyOp28
 70
     1
102
RTVSPropertyOp29
 70
     1
102
RTVSPropertyOp30
 70
     1
102
RTVSPropertyOp31
 70
     1
102
RTVSPropertyOp32
 70
     1
102
RTVSPropertyOp33
 70
     1
102
RTVSPropertyOp34
 70
     1
102
RTVSPropertyOp35
 70
     1
102
RTVSPropertyOp36
 70
     1
102
RTVSPropertyOp37
 70
     1
102
RTVSPropertyOp38
 70
     1
102
RTVSPropertyOp39
 70
     1
102
RTVSPropertyOp40
 70
     1
102
RTVSPropertyOp41
 70
     1
102
RTVSPropertyOp42
 70
     1
102
RTVSPropertyOp43
 70
     1
102
RTVSPropertyOp44
 70
     1
102
RTVSPropertyOp45
 70
     1
102
RTVSPropertyOp46
 70
     1
102
RTVSPropertyOp47
 70
     1
102
RTVSPropertyOp48
 70
     1
102
RTVSPropertyOp49
 70
     1
102
RTVSPropertyOp50
 70
     1
102
RTVSPropertyOp51
 70
     0
102
RTVSPropertyOp52
 70
     0
102
RTVSPropertyOp53
 70
     1
102
RTVSPropertyOp54
 70
     1
102
RTVSPropertyOp55
 70
     1
102
RTVSPropertyOp56
 70
     1
102
RTVSPropertyOp57
 70
     1
102
RTVSPropertyOp58
 70
     1
102
RTVSPropertyOp59
 70
     1
102
RTVSPropertyOp60
 70
     1
102
RTVSPropertyOp61
 70
     1
102
RTVSPropertyOp62
 70
     1
  0
XRECORD
  5
AE05
102
{ACAD_REACTORS
330
AE04
102
}
330
AE04
100
AcDbXrecord
280
     1
102
RTVSPost2010Prop28
280
     0
102
RTVSPost2010PropOp28
 70
     1
102
RTVSPost2010Prop29
280
     1
102
RTVSPost2010PropOp29
 70
     1
102
RTVSPost2010Prop30
280
     1
102
RTVSPost2010PropOp30
 70
     1
102
RTVSPost2010Prop31
280
     0
102
RTVSPost2010PropOp31
 70
     1
102
RTVSPost2010Prop32
280
     0
102
RTVSPost2010PropOp32
 70
     1
102
RTVSPost2010Prop33
280
     0
102
RTVSPost2010PropOp33
 70
     1
102
RTVSPost2010Prop34
280
     0
102
RTVSPost2010PropOp34
 70
     1
102
RTVSPost2010Prop35
280
     0
102
RTVSPost2010PropOp35
 70
     1
102
RTVSPost2010Prop36
280
     0
102
RTVSPost2010PropOp36
 70
     1
102
RTVSPost2010Prop37
 90
       50
102
RTVSPost2010PropOp37
 70
     1
102
RTVSPost2010Prop38
140
0.0
102
RTVSPost2010PropOp38
 70
     1
102
RTVSPost2010Prop39
140
1.0
102
RTVSPost2010PropOp39
 70
     1
102
RTVSPost2010Prop40
 90
        0
102
RTVSPost2010PropOp40
 70
     1
102
RTVSPost2010Prop41ColorIndex
 90
       18
102
RTVSPost2010Prop41ColorRGB
 90
        0
102
RTVSPost2010PropOp41
 70
     1
102
RTVSPost2010Prop42
 90
       50
102
RTVSPost2010PropOp42
 70
     1
102
RTVSPost2010Prop43
 90
        3
102
RTVSPost2010PropOp43
 70
     1
102
RTVSPost2010Prop44ColorIndex
 90
        5
102
RTVSPost2010Prop44ColorRGB
 90
      255
102
RTVSPost2010PropOp44
 70
     1
102
RTVSPost2010Prop45
280
     0
102
RTVSPost2010PropOp45
 70
     1
102
RTVSPost2010Prop46
 90
       50
102
RTVSPost2010PropOp46
 70
     1
102
RTVSPost2010Prop47
 90
       50
102
RTVSPost2010PropOp47
 70
     1
102
RTVSPost2010Prop48
 90
       50
102
RTVSPost2010PropOp48
 70
     1
102
RTVSPost2010Prop49
280
     0
102
RTVSPost2010PropOp49
 70
     1
102
RTVSPost2010Prop50
 90
       50
102
RTVSPost2010PropOp50
 70
     1
102
RTVSPost2010Prop51ColorIndex
 90
      256
102
RTVSPost2010Prop51ColorRGB
 90
-16777216
102
RTVSPost2010PropOp51
 70
     0
102
RTVSPost2010Prop52
140
1.0
102
RTVSPost2010PropOp52
 70
     0
102
RTVSPost2010Prop53
 90
        2
102
RTVSPost2010PropOp53
 70
     1
102
RTVSPost2010Prop54
  1
strokes_ogs.tif
102
RTVSPost2010PropOp54
 70
     1
102
RTVSPost2010Prop55
280
     0
102
RTVSPost2010PropOp55
 70
     1
102
RTVSPost2010Prop56
140
1.0
102
RTVSPost2010PropOp56
 70
     1
102
RTVSPost2010Prop57
140
1.0
102
RTVSPost2010PropOp57
 70
     1
102
RTVSPropertyOp0
 70
     1
102
RTVSPropertyOp1
 70
     1
102
RTVSPropertyOp2
 70
     1
102
RTVSPropertyOp3
 70
     1
102
RTVSPropertyOp4
 70
     1
102
RTVSPropertyOp5
 70
     1
102
RTVSPropertyOp6
 70
     1
102
RTVSPropertyOp7
 70
     1
102
RTVSPropertyOp8
 70
     1
102
RTVSPropertyOp9
 70
     1
102
RTVSPropertyOp10
 70
     1
102
RTVSPropertyOp11
 70
     1
102
RTVSPropertyOp12
 70
     1
102
RTVSPropertyOp13
 70
     1
102
RTVSPropertyOp14
 70
     1
102
RTVSPropertyOp15
 70
     1
102
RTVSPropertyOp16
 70
     1
102
RTVSPropertyOp17
 70
     1
102
RTVSPropertyOp18
 70
     1
102
RTVSPropertyOp19
 70
     1
102
RTVSPropertyOp20
 70
     1
102
RTVSPropertyOp21
 70
     1
102
RTVSPropertyOp22
 70
     1
102
RTVSPropertyOp23
 70
     1
102
RTVSPropertyOp24
 70
     1
102
RTVSPropertyOp25
 70
     1
102
RTVSPropertyOp26
 70
     1
102
RTVSPropertyOp27
 70
     1
102
RTVSPropertyOp28
 70
     1
102
RTVSPropertyOp29
 70
     1
102
RTVSPropertyOp30
 70
     1
102
RTVSPropertyOp31
 70
     1
102
RTVSPropertyOp32
 70
     1
102
RTVSPropertyOp33
 70
     1
102
RTVSPropertyOp34
 70
     1
102
RTVSPropertyOp35
 70
     1
102
RTVSPropertyOp36
 70
     1
102
RTVSPropertyOp37
 70
     1
102
RTVSPropertyOp38
 70
     1
102
RTVSPropertyOp39
 70
     1
102
RTVSPropertyOp40
 70
     1
102
RTVSPropertyOp41
 70
     1
102
RTVSPropertyOp42
 70
     1
102
RTVSPropertyOp43
 70
     1
102
RTVSPropertyOp44
 70
     1
102
RTVSPropertyOp45
 70
     1
102
RTVSPropertyOp46
 70
     1
102
RTVSPropertyOp47
 70
     1
102
RTVSPropertyOp48
 70
     1
102
RTVSPropertyOp49
 70
     1
102
RTVSPropertyOp50
 70
     1
102
RTVSPropertyOp51
 70
     0
102
RTVSPropertyOp52
 70
     0
102
RTVSPropertyOp53
 70
     1
102
RTVSPropertyOp54
 70
     1
102
RTVSPropertyOp55
 70
     1
102
RTVSPropertyOp56
 70
     1
102
RTVSPropertyOp57
 70
     1
102
RTVSPropertyOp58
 70
     1
102
RTVSPropertyOp59
 70
     1
102
RTVSPropertyOp60
 70
     1
102
RTVSPropertyOp61
 70
     1
102
RTVSPropertyOp62
 70
     1
  0
XRECORD
  5
AE23
102
{ACAD_REACTORS
330
AE22
102
}
330
AE22
100
AcDbXrecord
280
     1
102
RTVSPost2010Prop28
280
     0
102
RTVSPost2010PropOp28
 70
     1
102
RTVSPost2010Prop29
280
     1
102
RTVSPost2010PropOp29
 70
     1
102
RTVSPost2010Prop30
280
     1
102
RTVSPost2010PropOp30
 70
     1
102
RTVSPost2010Prop31
280
     0
102
RTVSPost2010PropOp31
 70
     1
102
RTVSPost2010Prop32
280
     0
102
RTVSPost2010PropOp32
 70
     1
102
RTVSPost2010Prop33
280
     0
102
RTVSPost2010PropOp33
 70
     1
102
RTVSPost2010Prop34
280
     0
102
RTVSPost2010PropOp34
 70
     1
102
RTVSPost2010Prop35
280
     0
102
RTVSPost2010PropOp35
 70
     1
102
RTVSPost2010Prop36
280
     0
102
RTVSPost2010PropOp36
 70
     1
102
RTVSPost2010Prop37
 90
       50
102
RTVSPost2010PropOp37
 70
     1
102
RTVSPost2010Prop38
140
0.0
102
RTVSPost2010PropOp38
 70
     1
102
RTVSPost2010Prop39
140
1.0
102
RTVSPost2010PropOp39
 70
     1
102
RTVSPost2010Prop40
 90
        0
102
RTVSPost2010PropOp40
 70
     1
102
RTVSPost2010Prop41ColorIndex
 90
       18
102
RTVSPost2010Prop41ColorRGB
 90
        0
102
RTVSPost2010PropOp41
 70
     1
102
RTVSPost2010Prop42
 90
       50
102
RTVSPost2010PropOp42
 70
     1
102
RTVSPost2010Prop43
 90
        3
102
RTVSPost2010PropOp43
 70
     1
102
RTVSPost2010Prop44ColorIndex
 90
        5
102
RTVSPost2010Prop44ColorRGB
 90
      255
102
RTVSPost2010PropOp44
 70
     1
102
RTVSPost2010Prop45
280
     0
102
RTVSPost2010PropOp45
 70
     1
102
RTVSPost2010Prop46
 90
       50
102
RTVSPost2010PropOp46
 70
     1
102
RTVSPost2010Prop47
 90
       50
102
RTVSPost2010PropOp47
 70
     1
102
RTVSPost2010Prop48
 90
       50
102
RTVSPost2010PropOp48
 70
     1
102
RTVSPost2010Prop49
280
     0
102
RTVSPost2010PropOp49
 70
     1
102
RTVSPost2010Prop50
 90
       50
102
RTVSPost2010PropOp50
 70
     1
102
RTVSPost2010Prop51ColorIndex
 90
      256
102
RTVSPost2010Prop51ColorRGB
 90
-16777216
102
RTVSPost2010PropOp51
 70
     0
102
RTVSPost2010Prop52
140
1.0
102
RTVSPost2010PropOp52
 70
     0
102
RTVSPost2010Prop53
 90
        2
102
RTVSPost2010PropOp53
 70
     1
102
RTVSPost2010Prop54
  1
strokes_ogs.tif
102
RTVSPost2010PropOp54
 70
     1
102
RTVSPost2010Prop55
280
     0
102
RTVSPost2010PropOp55
 70
     1
102
RTVSPost2010Prop56
140
1.0
102
RTVSPost2010PropOp56
 70
     1
102
RTVSPost2010Prop57
140
1.0
102
RTVSPost2010PropOp57
 70
     1
102
RTVSPropertyOp0
 70
     1
102
RTVSPropertyOp1
 70
     1
102
RTVSPropertyOp2
 70
     1
102
RTVSPropertyOp3
 70
     1
102
RTVSPropertyOp4
 70
     1
102
RTVSPropertyOp5
 70
     1
102
RTVSPropertyOp6
 70
     1
102
RTVSPropertyOp7
 70
     1
102
RTVSPropertyOp8
 70
     1
102
RTVSPropertyOp9
 70
     1
102
RTVSPropertyOp10
 70
     1
102
RTVSPropertyOp11
 70
     1
102
RTVSPropertyOp12
 70
     1
102
RTVSPropertyOp13
 70
     1
102
RTVSPropertyOp14
 70
     1
102
RTVSPropertyOp15
 70
     1
102
RTVSPropertyOp16
 70
     1
102
RTVSPropertyOp17
 70
     1
102
RTVSPropertyOp18
 70
     1
102
RTVSPropertyOp19
 70
     1
102
RTVSPropertyOp20
 70
     1
102
RTVSPropertyOp21
 70
     1
102
RTVSPropertyOp22
 70
     1
102
RTVSPropertyOp23
 70
     1
102
RTVSPropertyOp24
 70
     1
102
RTVSPropertyOp25
 70
     1
102
RTVSPropertyOp26
 70
     1
102
RTVSPropertyOp27
 70
     1
102
RTVSPropertyOp28
 70
     1
102
RTVSPropertyOp29
 70
     1
102
RTVSPropertyOp30
 70
     1
102
RTVSPropertyOp31
 70
     1
102
RTVSPropertyOp32
 70
     1
102
RTVSPropertyOp33
 70
     1
102
RTVSPropertyOp34
 70
     1
102
RTVSPropertyOp35
 70
     1
102
RTVSPropertyOp36
 70
     1
102
RTVSPropertyOp37
 70
     1
102
RTVSPropertyOp38
 70
     1
102
RTVSPropertyOp39
 70
     1
102
RTVSPropertyOp40
 70
     1
102
RTVSPropertyOp41
 70
     1
102
RTVSPropertyOp42
 70
     1
102
RTVSPropertyOp43
 70
     1
102
RTVSPropertyOp44
 70
     1
102
RTVSPropertyOp45
 70
     1
102
RTVSPropertyOp46
 70
     1
102
RTVSPropertyOp47
 70
     1
102
RTVSPropertyOp48
 70
     1
102
RTVSPropertyOp49
 70
     1
102
RTVSPropertyOp50
 70
     1
102
RTVSPropertyOp51
 70
     0
102
RTVSPropertyOp52
 70
     0
102
RTVSPropertyOp53
 70
     1
102
RTVSPropertyOp54
 70
     1
102
RTVSPropertyOp55
 70
     1
102
RTVSPropertyOp56
 70
     1
102
RTVSPropertyOp57
 70
     1
102
RTVSPropertyOp58
 70
     1
102
RTVSPropertyOp59
 70
     1
102
RTVSPropertyOp60
 70
     1
102
RTVSPropertyOp61
 70
     1
102
RTVSPropertyOp62
 70
     1
  0
XRECORD
  5
AE21
102
{ACAD_REACTORS
330
AE20
102
}
330
AE20
100
AcDbXrecord
280
     1
102
RTVSPost2010Prop28
280
     0
102
RTVSPost2010PropOp28
 70
     1
102
RTVSPost2010Prop29
280
     1
102
RTVSPost2010PropOp29
 70
     1
102
RTVSPost2010Prop30
280
     1
102
RTVSPost2010PropOp30
 70
     1
102
RTVSPost2010Prop31
280
     0
102
RTVSPost2010PropOp31
 70
     1
102
RTVSPost2010Prop32
280
     0
102
RTVSPost2010PropOp32
 70
     1
102
RTVSPost2010Prop33
280
     0
102
RTVSPost2010PropOp33
 70
     1
102
RTVSPost2010Prop34
280
     0
102
RTVSPost2010PropOp34
 70
     1
102
RTVSPost2010Prop35
280
     0
102
RTVSPost2010PropOp35
 70
     1
102
RTVSPost2010Prop36
280
     0
102
RTVSPost2010PropOp36
 70
     1
102
RTVSPost2010Prop37
 90
       50
102
RTVSPost2010PropOp37
 70
     1
102
RTVSPost2010Prop38
140
0.0
102
RTVSPost2010PropOp38
 70
     1
102
RTVSPost2010Prop39
140
1.0
102
RTVSPost2010PropOp39
 70
     1
102
RTVSPost2010Prop40
 90
        0
102
RTVSPost2010PropOp40
 70
     1
102
RTVSPost2010Prop41ColorIndex
 90
       18
102
RTVSPost2010Prop41ColorRGB
 90
        0
102
RTVSPost2010PropOp41
 70
     1
102
RTVSPost2010Prop42
 90
       50
102
RTVSPost2010PropOp42
 70
     1
102
RTVSPost2010Prop43
 90
        3
102
RTVSPost2010PropOp43
 70
     1
102
RTVSPost2010Prop44ColorIndex
 90
        5
102
RTVSPost2010Prop44ColorRGB
 90
      255
102
RTVSPost2010PropOp44
 70
     1
102
RTVSPost2010Prop45
280
     0
102
RTVSPost2010PropOp45
 70
     1
102
RTVSPost2010Prop46
 90
       50
102
RTVSPost2010PropOp46
 70
     1
102
RTVSPost2010Prop47
 90
       50
102
RTVSPost2010PropOp47
 70
     1
102
RTVSPost2010Prop48
 90
       50
102
RTVSPost2010PropOp48
 70
     1
102
RTVSPost2010Prop49
280
     0
102
RTVSPost2010PropOp49
 70
     1
102
RTVSPost2010Prop50
 90
       50
102
RTVSPost2010PropOp50
 70
     1
102
RTVSPost2010Prop51ColorIndex
 90
      256
102
RTVSPost2010Prop51ColorRGB
 90
-16777216
102
RTVSPost2010PropOp51
 70
     0
102
RTVSPost2010Prop52
140
1.0
102
RTVSPost2010PropOp52
 70
     0
102
RTVSPost2010Prop53
 90
        2
102
RTVSPost2010PropOp53
 70
     1
102
RTVSPost2010Prop54
  1
strokes_ogs.tif
102
RTVSPost2010PropOp54
 70
     1
102
RTVSPost2010Prop55
280
     0
102
RTVSPost2010PropOp55
 70
     1
102
RTVSPost2010Prop56
140
1.0
102
RTVSPost2010PropOp56
 70
     1
102
RTVSPost2010Prop57
140
1.0
102
RTVSPost2010PropOp57
 70
     1
102
RTVSPropertyOp0
 70
     1
102
RTVSPropertyOp1
 70
     1
102
RTVSPropertyOp2
 70
     1
102
RTVSPropertyOp3
 70
     1
102
RTVSPropertyOp4
 70
     1
102
RTVSPropertyOp5
 70
     1
102
RTVSPropertyOp6
 70
     1
102
RTVSPropertyOp7
 70
     1
102
RTVSPropertyOp8
 70
     1
102
RTVSPropertyOp9
 70
     1
102
RTVSPropertyOp10
 70
     1
102
RTVSPropertyOp11
 70
     1
102
RTVSPropertyOp12
 70
     1
102
RTVSPropertyOp13
 70
     1
102
RTVSPropertyOp14
 70
     1
102
RTVSPropertyOp15
 70
     1
102
RTVSPropertyOp16
 70
     1
102
RTVSPropertyOp17
 70
     1
102
RTVSPropertyOp18
 70
     1
102
RTVSPropertyOp19
 70
     1
102
RTVSPropertyOp20
 70
     1
102
RTVSPropertyOp21
 70
     1
102
RTVSPropertyOp22
 70
     1
102
RTVSPropertyOp23
 70
     1
102
RTVSPropertyOp24
 70
     1
102
RTVSPropertyOp25
 70
     1
102
RTVSPropertyOp26
 70
     1
102
RTVSPropertyOp27
 70
     1
102
RTVSPropertyOp28
 70
     1
102
RTVSPropertyOp29
 70
     1
102
RTVSPropertyOp30
 70
     1
102
RTVSPropertyOp31
 70
     1
102
RTVSPropertyOp32
 70
     1
102
RTVSPropertyOp33
 70
     1
102
RTVSPropertyOp34
 70
     1
102
RTVSPropertyOp35
 70
     1
102
RTVSPropertyOp36
 70
     1
102
RTVSPropertyOp37
 70
     1
102
RTVSPropertyOp38
 70
     1
102
RTVSPropertyOp39
 70
     1
102
RTVSPropertyOp40
 70
     1
102
RTVSPropertyOp41
 70
     1
102
RTVSPropertyOp42
 70
     1
102
RTVSPropertyOp43
 70
     1
102
RTVSPropertyOp44
 70
     1
102
RTVSPropertyOp45
 70
     1
102
RTVSPropertyOp46
 70
     1
102
RTVSPropertyOp47
 70
     1
102
RTVSPropertyOp48
 70
     1
102
RTVSPropertyOp49
 70
     1
102
RTVSPropertyOp50
 70
     1
102
RTVSPropertyOp51
 70
     0
102
RTVSPropertyOp52
 70
     0
102
RTVSPropertyOp53
 70
     1
102
RTVSPropertyOp54
 70
     1
102
RTVSPropertyOp55
 70
     1
102
RTVSPropertyOp56
 70
     1
102
RTVSPropertyOp57
 70
     1
102
RTVSPropertyOp58
 70
     1
102
RTVSPropertyOp59
 70
     1
102
RTVSPropertyOp60
 70
     1
102
RTVSPropertyOp61
 70
     1
102
RTVSPropertyOp62
 70
     1
  0
XRECORD
  5
AE1B
102
{ACAD_REACTORS
330
AE1A
102
}
330
AE1A
100
AcDbXrecord
280
     1
102
RTVSPost2010Prop28
280
     0
102
RTVSPost2010PropOp28
 70
     1
102
RTVSPost2010Prop29
280
     1
102
RTVSPost2010PropOp29
 70
     1
102
RTVSPost2010Prop30
280
     1
102
RTVSPost2010PropOp30
 70
     1
102
RTVSPost2010Prop31
280
     0
102
RTVSPost2010PropOp31
 70
     1
102
RTVSPost2010Prop32
280
     0
102
RTVSPost2010PropOp32
 70
     1
102
RTVSPost2010Prop33
280
     0
102
RTVSPost2010PropOp33
 70
     1
102
RTVSPost2010Prop34
280
     0
102
RTVSPost2010PropOp34
 70
     1
102
RTVSPost2010Prop35
280
     0
102
RTVSPost2010PropOp35
 70
     1
102
RTVSPost2010Prop36
280
     0
102
RTVSPost2010PropOp36
 70
     1
102
RTVSPost2010Prop37
 90
       50
102
RTVSPost2010PropOp37
 70
     1
102
RTVSPost2010Prop38
140
0.0
102
RTVSPost2010PropOp38
 70
     1
102
RTVSPost2010Prop39
140
1.0
102
RTVSPost2010PropOp39
 70
     1
102
RTVSPost2010Prop40
 90
        0
102
RTVSPost2010PropOp40
 70
     1
102
RTVSPost2010Prop41ColorIndex
 90
       18
102
RTVSPost2010Prop41ColorRGB
 90
        0
102
RTVSPost2010PropOp41
 70
     1
102
RTVSPost2010Prop42
 90
       50
102
RTVSPost2010PropOp42
 70
     1
102
RTVSPost2010Prop43
 90
        3
102
RTVSPost2010PropOp43
 70
     1
102
RTVSPost2010Prop44ColorIndex
 90
        5
102
RTVSPost2010Prop44ColorRGB
 90
      255
102
RTVSPost2010PropOp44
 70
     1
102
RTVSPost2010Prop45
280
     0
102
RTVSPost2010PropOp45
 70
     1
102
RTVSPost2010Prop46
 90
       50
102
RTVSPost2010PropOp46
 70
     1
102
RTVSPost2010Prop47
 90
       50
102
RTVSPost2010PropOp47
 70
     1
102
RTVSPost2010Prop48
 90
       50
102
RTVSPost2010PropOp48
 70
     1
102
RTVSPost2010Prop49
280
     0
102
RTVSPost2010PropOp49
 70
     1
102
RTVSPost2010Prop50
 90
       50
102
RTVSPost2010PropOp50
 70
     1
102
RTVSPost2010Prop51ColorIndex
 90
      256
102
RTVSPost2010Prop51ColorRGB
 90
-16777216
102
RTVSPost2010PropOp51
 70
     0
102
RTVSPost2010Prop52
140
1.0
102
RTVSPost2010PropOp52
 70
     0
102
RTVSPost2010Prop53
 90
        2
102
RTVSPost2010PropOp53
 70
     1
102
RTVSPost2010Prop54
  1
strokes_ogs.tif
102
RTVSPost2010PropOp54
 70
     1
102
RTVSPost2010Prop55
280
     0
102
RTVSPost2010PropOp55
 70
     1
102
RTVSPost2010Prop56
140
1.0
102
RTVSPost2010PropOp56
 70
     1
102
RTVSPost2010Prop57
140
1.0
102
RTVSPost2010PropOp57
 70
     1
102
RTVSPropertyOp0
 70
     1
102
RTVSPropertyOp1
 70
     1
102
RTVSPropertyOp2
 70
     1
102
RTVSPropertyOp3
 70
     1
102
RTVSPropertyOp4
 70
     1
102
RTVSPropertyOp5
 70
     1
102
RTVSPropertyOp6
 70
     1
102
RTVSPropertyOp7
 70
     1
102
RTVSPropertyOp8
 70
     1
102
RTVSPropertyOp9
 70
     1
102
RTVSPropertyOp10
 70
     1
102
RTVSPropertyOp11
 70
     1
102
RTVSPropertyOp12
 70
     1
102
RTVSPropertyOp13
 70
     1
102
RTVSPropertyOp14
 70
     1
102
RTVSPropertyOp15
 70
     1
102
RTVSPropertyOp16
 70
     1
102
RTVSPropertyOp17
 70
     1
102
RTVSPropertyOp18
 70
     1
102
RTVSPropertyOp19
 70
     1
102
RTVSPropertyOp20
 70
     1
102
RTVSPropertyOp21
 70
     1
102
RTVSPropertyOp22
 70
     1
102
RTVSPropertyOp23
 70
     1
102
RTVSPropertyOp24
 70
     1
102
RTVSPropertyOp25
 70
     1
102
RTVSPropertyOp26
 70
     1
102
RTVSPropertyOp27
 70
     1
102
RTVSPropertyOp28
 70
     1
102
RTVSPropertyOp29
 70
     1
102
RTVSPropertyOp30
 70
     1
102
RTVSPropertyOp31
 70
     1
102
RTVSPropertyOp32
 70
     1
102
RTVSPropertyOp33
 70
     1
102
RTVSPropertyOp34
 70
     1
102
RTVSPropertyOp35
 70
     1
102
RTVSPropertyOp36
 70
     1
102
RTVSPropertyOp37
 70
     1
102
RTVSPropertyOp38
 70
     1
102
RTVSPropertyOp39
 70
     1
102
RTVSPropertyOp40
 70
     1
102
RTVSPropertyOp41
 70
     1
102
RTVSPropertyOp42
 70
     1
102
RTVSPropertyOp43
 70
     1
102
RTVSPropertyOp44
 70
     1
102
RTVSPropertyOp45
 70
     1
102
RTVSPropertyOp46
 70
     1
102
RTVSPropertyOp47
 70
     1
102
RTVSPropertyOp48
 70
     1
102
RTVSPropertyOp49
 70
     1
102
RTVSPropertyOp50
 70
     1
102
RTVSPropertyOp51
 70
     0
102
RTVSPropertyOp52
 70
     0
102
RTVSPropertyOp53
 70
     1
102
RTVSPropertyOp54
 70
     1
102
RTVSPropertyOp55
 70
     1
102
RTVSPropertyOp56
 70
     1
102
RTVSPropertyOp57
 70
     1
102
RTVSPropertyOp58
 70
     1
102
RTVSPropertyOp59
 70
     1
102
RTVSPropertyOp60
 70
     1
102
RTVSPropertyOp61
 70
     1
102
RTVSPropertyOp62
 70
     1
  0
XRECORD
  5
AE1D
102
{ACAD_REACTORS
330
AE1C
102
}
330
AE1C
100
AcDbXrecord
280
     1
102
RTVSPost2010Prop28
280
     0
102
RTVSPost2010PropOp28
 70
     1
102
RTVSPost2010Prop29
280
     1
102
RTVSPost2010PropOp29
 70
     1
102
RTVSPost2010Prop30
280
     1
102
RTVSPost2010PropOp30
 70
     1
102
RTVSPost2010Prop31
280
     0
102
RTVSPost2010PropOp31
 70
     1
102
RTVSPost2010Prop32
280
     0
102
RTVSPost2010PropOp32
 70
     1
102
RTVSPost2010Prop33
280
     0
102
RTVSPost2010PropOp33
 70
     1
102
RTVSPost2010Prop34
280
     0
102
RTVSPost2010PropOp34
 70
     1
102
RTVSPost2010Prop35
280
     0
102
RTVSPost2010PropOp35
 70
     1
102
RTVSPost2010Prop36
280
     0
102
RTVSPost2010PropOp36
 70
     1
102
RTVSPost2010Prop37
 90
       50
102
RTVSPost2010PropOp37
 70
     1
102
RTVSPost2010Prop38
140
0.0
102
RTVSPost2010PropOp38
 70
     1
102
RTVSPost2010Prop39
140
1.0
102
RTVSPost2010PropOp39
 70
     1
102
RTVSPost2010Prop40
 90
        0
102
RTVSPost2010PropOp40
 70
     1
102
RTVSPost2010Prop41ColorIndex
 90
       18
102
RTVSPost2010Prop41ColorRGB
 90
        0
102
RTVSPost2010PropOp41
 70
     1
102
RTVSPost2010Prop42
 90
       50
102
RTVSPost2010PropOp42
 70
     1
102
RTVSPost2010Prop43
 90
        3
102
RTVSPost2010PropOp43
 70
     1
102
RTVSPost2010Prop44ColorIndex
 90
        5
102
RTVSPost2010Prop44ColorRGB
 90
      255
102
RTVSPost2010PropOp44
 70
     1
102
RTVSPost2010Prop45
280
     0
102
RTVSPost2010PropOp45
 70
     1
102
RTVSPost2010Prop46
 90
       50
102
RTVSPost2010PropOp46
 70
     1
102
RTVSPost2010Prop47
 90
       50
102
RTVSPost2010PropOp47
 70
     1
102
RTVSPost2010Prop48
 90
       50
102
RTVSPost2010PropOp48
 70
     1
102
RTVSPost2010Prop49
280
     0
102
RTVSPost2010PropOp49
 70
     1
102
RTVSPost2010Prop50
 90
       50
102
RTVSPost2010PropOp50
 70
     1
102
RTVSPost2010Prop51ColorIndex
 90
      256
102
RTVSPost2010Prop51ColorRGB
 90
-16777216
102
RTVSPost2010PropOp51
 70
     0
102
RTVSPost2010Prop52
140
1.0
102
RTVSPost2010PropOp52
 70
     0
102
RTVSPost2010Prop53
 90
        2
102
RTVSPost2010PropOp53
 70
     1
102
RTVSPost2010Prop54
  1
strokes_ogs.tif
102
RTVSPost2010PropOp54
 70
     1
102
RTVSPost2010Prop55
280
     0
102
RTVSPost2010PropOp55
 70
     1
102
RTVSPost2010Prop56
140
1.0
102
RTVSPost2010PropOp56
 70
     1
102
RTVSPost2010Prop57
140
1.0
102
RTVSPost2010PropOp57
 70
     1
102
RTVSPropertyOp0
 70
     1
102
RTVSPropertyOp1
 70
     1
102
RTVSPropertyOp2
 70
     1
102
RTVSPropertyOp3
 70
     1
102
RTVSPropertyOp4
 70
     1
102
RTVSPropertyOp5
 70
     1
102
RTVSPropertyOp6
 70
     1
102
RTVSPropertyOp7
 70
     1
102
RTVSPropertyOp8
 70
     1
102
RTVSPropertyOp9
 70
     1
102
RTVSPropertyOp10
 70
     1
102
RTVSPropertyOp11
 70
     1
102
RTVSPropertyOp12
 70
     1
102
RTVSPropertyOp13
 70
     1
102
RTVSPropertyOp14
 70
     1
102
RTVSPropertyOp15
 70
     1
102
RTVSPropertyOp16
 70
     1
102
RTVSPropertyOp17
 70
     1
102
RTVSPropertyOp18
 70
     1
102
RTVSPropertyOp19
 70
     1
102
RTVSPropertyOp20
 70
     1
102
RTVSPropertyOp21
 70
     1
102
RTVSPropertyOp22
 70
     1
102
RTVSPropertyOp23
 70
     1
102
RTVSPropertyOp24
 70
     1
102
RTVSPropertyOp25
 70
     1
102
RTVSPropertyOp26
 70
     1
102
RTVSPropertyOp27
 70
     1
102
RTVSPropertyOp28
 70
     1
102
RTVSPropertyOp29
 70
     1
102
RTVSPropertyOp30
 70
     1
102
RTVSPropertyOp31
 70
     1
102
RTVSPropertyOp32
 70
     1
102
RTVSPropertyOp33
 70
     1
102
RTVSPropertyOp34
 70
     1
102
RTVSPropertyOp35
 70
     1
102
RTVSPropertyOp36
 70
     1
102
RTVSPropertyOp37
 70
     1
102
RTVSPropertyOp38
 70
     1
102
RTVSPropertyOp39
 70
     1
102
RTVSPropertyOp40
 70
     1
102
RTVSPropertyOp41
 70
     1
102
RTVSPropertyOp42
 70
     1
102
RTVSPropertyOp43
 70
     1
102
RTVSPropertyOp44
 70
     1
102
RTVSPropertyOp45
 70
     1
102
RTVSPropertyOp46
 70
     1
102
RTVSPropertyOp47
 70
     1
102
RTVSPropertyOp48
 70
     1
102
RTVSPropertyOp49
 70
     1
102
RTVSPropertyOp50
 70
     1
102
RTVSPropertyOp51
 70
     0
102
RTVSPropertyOp52
 70
     0
102
RTVSPropertyOp53
 70
     1
102
RTVSPropertyOp54
 70
     1
102
RTVSPropertyOp55
 70
     1
102
RTVSPropertyOp56
 70
     1
102
RTVSPropertyOp57
 70
     1
102
RTVSPropertyOp58
 70
     1
102
RTVSPropertyOp59
 70
     1
102
RTVSPropertyOp60
 70
     1
102
RTVSPropertyOp61
 70
     1
102
RTVSPropertyOp62
 70
     1
  0
XRECORD
  5
AE0B
102
{ACAD_REACTORS
330
AE0A
102
}
330
AE0A
100
AcDbXrecord
280
     1
102
RTVSPost2010Prop28
280
     0
102
RTVSPost2010PropOp28
 70
     1
102
RTVSPost2010Prop29
280
     1
102
RTVSPost2010PropOp29
 70
     1
102
RTVSPost2010Prop30
280
     1
102
RTVSPost2010PropOp30
 70
     1
102
RTVSPost2010Prop31
280
     0
102
RTVSPost2010PropOp31
 70
     1
102
RTVSPost2010Prop32
280
     0
102
RTVSPost2010PropOp32
 70
     1
102
RTVSPost2010Prop33
280
     0
102
RTVSPost2010PropOp33
 70
     1
102
RTVSPost2010Prop34
280
     0
102
RTVSPost2010PropOp34
 70
     1
102
RTVSPost2010Prop35
280
     0
102
RTVSPost2010PropOp35
 70
     1
102
RTVSPost2010Prop36
280
     0
102
RTVSPost2010PropOp36
 70
     1
102
RTVSPost2010Prop37
 90
       50
102
RTVSPost2010PropOp37
 70
     1
102
RTVSPost2010Prop38
140
0.0
102
RTVSPost2010PropOp38
 70
     1
102
RTVSPost2010Prop39
140
1.0
102
RTVSPost2010PropOp39
 70
     1
102
RTVSPost2010Prop40
 90
        0
102
RTVSPost2010PropOp40
 70
     1
102
RTVSPost2010Prop41ColorIndex
 90
       18
102
RTVSPost2010Prop41ColorRGB
 90
        0
102
RTVSPost2010PropOp41
 70
     1
102
RTVSPost2010Prop42
 90
       50
102
RTVSPost2010PropOp42
 70
     1
102
RTVSPost2010Prop43
 90
        3
102
RTVSPost2010PropOp43
 70
     1
102
RTVSPost2010Prop44ColorIndex
 90
        5
102
RTVSPost2010Prop44ColorRGB
 90
      255
102
RTVSPost2010PropOp44
 70
     1
102
RTVSPost2010Prop45
280
     0
102
RTVSPost2010PropOp45
 70
     1
102
RTVSPost2010Prop46
 90
       50
102
RTVSPost2010PropOp46
 70
     1
102
RTVSPost2010Prop47
 90
       50
102
RTVSPost2010PropOp47
 70
     1
102
RTVSPost2010Prop48
 90
       50
102
RTVSPost2010PropOp48
 70
     1
102
RTVSPost2010Prop49
280
     0
102
RTVSPost2010PropOp49
 70
     1
102
RTVSPost2010Prop50
 90
       50
102
RTVSPost2010PropOp50
 70
     1
102
RTVSPost2010Prop51ColorIndex
 90
      256
102
RTVSPost2010Prop51ColorRGB
 90
-16777216
102
RTVSPost2010PropOp51
 70
     0
102
RTVSPost2010Prop52
140
1.0
102
RTVSPost2010PropOp52
 70
     0
102
RTVSPost2010Prop53
 90
        2
102
RTVSPost2010PropOp53
 70
     1
102
RTVSPost2010Prop54
  1
strokes_ogs.tif
102
RTVSPost2010PropOp54
 70
     1
102
RTVSPost2010Prop55
280
     0
102
RTVSPost2010PropOp55
 70
     1
102
RTVSPost2010Prop56
140
1.0
102
RTVSPost2010PropOp56
 70
     1
102
RTVSPost2010Prop57
140
1.0
102
RTVSPost2010PropOp57
 70
     1
102
RTVSPropertyOp0
 70
     1
102
RTVSPropertyOp1
 70
     1
102
RTVSPropertyOp2
 70
     1
102
RTVSPropertyOp3
 70
     1
102
RTVSPropertyOp4
 70
     1
102
RTVSPropertyOp5
 70
     1
102
RTVSPropertyOp6
 70
     1
102
RTVSPropertyOp7
 70
     1
102
RTVSPropertyOp8
 70
     1
102
RTVSPropertyOp9
 70
     1
102
RTVSPropertyOp10
 70
     1
102
RTVSPropertyOp11
 70
     1
102
RTVSPropertyOp12
 70
     1
102
RTVSPropertyOp13
 70
     1
102
RTVSPropertyOp14
 70
     1
102
RTVSPropertyOp15
 70
     1
102
RTVSPropertyOp16
 70
     1
102
RTVSPropertyOp17
 70
     1
102
RTVSPropertyOp18
 70
     1
102
RTVSPropertyOp19
 70
     1
102
RTVSPropertyOp20
 70
     1
102
RTVSPropertyOp21
 70
     1
102
RTVSPropertyOp22
 70
     1
102
RTVSPropertyOp23
 70
     1
102
RTVSPropertyOp24
 70
     1
102
RTVSPropertyOp25
 70
     1
102
RTVSPropertyOp26
 70
     1
102
RTVSPropertyOp27
 70
     1
102
RTVSPropertyOp28
 70
     1
102
RTVSPropertyOp29
 70
     1
102
RTVSPropertyOp30
 70
     1
102
RTVSPropertyOp31
 70
     1
102
RTVSPropertyOp32
 70
     1
102
RTVSPropertyOp33
 70
     1
102
RTVSPropertyOp34
 70
     1
102
RTVSPropertyOp35
 70
     1
102
RTVSPropertyOp36
 70
     1
102
RTVSPropertyOp37
 70
     1
102
RTVSPropertyOp38
 70
     1
102
RTVSPropertyOp39
 70
     1
102
RTVSPropertyOp40
 70
     1
102
RTVSPropertyOp41
 70
     1
102
RTVSPropertyOp42
 70
     1
102
RTVSPropertyOp43
 70
     1
102
RTVSPropertyOp44
 70
     1
102
RTVSPropertyOp45
 70
     1
102
RTVSPropertyOp46
 70
     1
102
RTVSPropertyOp47
 70
     1
102
RTVSPropertyOp48
 70
     1
102
RTVSPropertyOp49
 70
     1
102
RTVSPropertyOp50
 70
     1
102
RTVSPropertyOp51
 70
     0
102
RTVSPropertyOp52
 70
     0
102
RTVSPropertyOp53
 70
     1
102
RTVSPropertyOp54
 70
     1
102
RTVSPropertyOp55
 70
     1
102
RTVSPropertyOp56
 70
     1
102
RTVSPropertyOp57
 70
     1
102
RTVSPropertyOp58
 70
     1
102
RTVSPropertyOp59
 70
     1
102
RTVSPropertyOp60
 70
     1
102
RTVSPropertyOp61
 70
     1
102
RTVSPropertyOp62
 70
     1
  0
XRECORD
  5
ADFF
102
{ACAD_REACTORS
330
ADFE
102
}
330
ADFE
100
AcDbXrecord
280
     1
102
RTVSPost2010Prop28
280
     0
102
RTVSPost2010PropOp28
 70
     1
102
RTVSPost2010Prop29
280
     1
102
RTVSPost2010PropOp29
 70
     1
102
RTVSPost2010Prop30
280
     1
102
RTVSPost2010PropOp30
 70
     1
102
RTVSPost2010Prop31
280
     0
102
RTVSPost2010PropOp31
 70
     1
102
RTVSPost2010Prop32
280
     0
102
RTVSPost2010PropOp32
 70
     1
102
RTVSPost2010Prop33
280
     0
102
RTVSPost2010PropOp33
 70
     1
102
RTVSPost2010Prop34
280
     0
102
RTVSPost2010PropOp34
 70
     1
102
RTVSPost2010Prop35
280
     0
102
RTVSPost2010PropOp35
 70
     1
102
RTVSPost2010Prop36
280
     0
102
RTVSPost2010PropOp36
 70
     1
102
RTVSPost2010Prop37
 90
       50
102
RTVSPost2010PropOp37
 70
     1
102
RTVSPost2010Prop38
140
0.0
102
RTVSPost2010PropOp38
 70
     1
102
RTVSPost2010Prop39
140
1.0
102
RTVSPost2010PropOp39
 70
     1
102
RTVSPost2010Prop40
 90
        0
102
RTVSPost2010PropOp40
 70
     1
102
RTVSPost2010Prop41ColorIndex
 90
       18
102
RTVSPost2010Prop41ColorRGB
 90
        0
102
RTVSPost2010PropOp41
 70
     1
102
RTVSPost2010Prop42
 90
       50
102
RTVSPost2010PropOp42
 70
     1
102
RTVSPost2010Prop43
 90
        3
102
RTVSPost2010PropOp43
 70
     1
102
RTVSPost2010Prop44ColorIndex
 90
        5
102
RTVSPost2010Prop44ColorRGB
 90
      255
102
RTVSPost2010PropOp44
 70
     1
102
RTVSPost2010Prop45
280
     0
102
RTVSPost2010PropOp45
 70
     1
102
RTVSPost2010Prop46
 90
       50
102
RTVSPost2010PropOp46
 70
     1
102
RTVSPost2010Prop47
 90
       50
102
RTVSPost2010PropOp47
 70
     1
102
RTVSPost2010Prop48
 90
       50
102
RTVSPost2010PropOp48
 70
     1
102
RTVSPost2010Prop49
280
     0
102
RTVSPost2010PropOp49
 70
     1
102
RTVSPost2010Prop50
 90
       50
102
RTVSPost2010PropOp50
 70
     1
102
RTVSPost2010Prop51ColorIndex
 90
      256
102
RTVSPost2010Prop51ColorRGB
 90
-16777216
102
RTVSPost2010PropOp51
 70
     0
102
RTVSPost2010Prop52
140
1.0
102
RTVSPost2010PropOp52
 70
     0
102
RTVSPost2010Prop53
 90
        2
102
RTVSPost2010PropOp53
 70
     1
102
RTVSPost2010Prop54
  1
strokes_ogs.tif
102
RTVSPost2010PropOp54
 70
     1
102
RTVSPost2010Prop55
280
     0
102
RTVSPost2010PropOp55
 70
     1
102
RTVSPost2010Prop56
140
1.0
102
RTVSPost2010PropOp56
 70
     1
102
RTVSPost2010Prop57
140
1.0
102
RTVSPost2010PropOp57
 70
     1
102
RTVSPropertyOp0
 70
     1
102
RTVSPropertyOp1
 70
     1
102
RTVSPropertyOp2
 70
     1
102
RTVSPropertyOp3
 70
     1
102
RTVSPropertyOp4
 70
     1
102
RTVSPropertyOp5
 70
     1
102
RTVSPropertyOp6
 70
     1
102
RTVSPropertyOp7
 70
     1
102
RTVSPropertyOp8
 70
     1
102
RTVSPropertyOp9
 70
     1
102
RTVSPropertyOp10
 70
     1
102
RTVSPropertyOp11
 70
     1
102
RTVSPropertyOp12
 70
     1
102
RTVSPropertyOp13
 70
     1
102
RTVSPropertyOp14
 70
     1
102
RTVSPropertyOp15
 70
     1
102
RTVSPropertyOp16
 70
     1
102
RTVSPropertyOp17
 70
     1
102
RTVSPropertyOp18
 70
     1
102
RTVSPropertyOp19
 70
     1
102
RTVSPropertyOp20
 70
     1
102
RTVSPropertyOp21
 70
     1
102
RTVSPropertyOp22
 70
     1
102
RTVSPropertyOp23
 70
     1
102
RTVSPropertyOp24
 70
     1
102
RTVSPropertyOp25
 70
     1
102
RTVSPropertyOp26
 70
     1
102
RTVSPropertyOp27
 70
     1
102
RTVSPropertyOp28
 70
     1
102
RTVSPropertyOp29
 70
     1
102
RTVSPropertyOp30
 70
     1
102
RTVSPropertyOp31
 70
     1
102
RTVSPropertyOp32
 70
     1
102
RTVSPropertyOp33
 70
     1
102
RTVSPropertyOp34
 70
     1
102
RTVSPropertyOp35
 70
     1
102
RTVSPropertyOp36
 70
     1
102
RTVSPropertyOp37
 70
     1
102
RTVSPropertyOp38
 70
     1
102
RTVSPropertyOp39
 70
     1
102
RTVSPropertyOp40
 70
     1
102
RTVSPropertyOp41
 70
     1
102
RTVSPropertyOp42
 70
     1
102
RTVSPropertyOp43
 70
     1
102
RTVSPropertyOp44
 70
     1
102
RTVSPropertyOp45
 70
     1
102
RTVSPropertyOp46
 70
     1
102
RTVSPropertyOp47
 70
     1
102
RTVSPropertyOp48
 70
     1
102
RTVSPropertyOp49
 70
     1
102
RTVSPropertyOp50
 70
     1
102
RTVSPropertyOp51
 70
     0
102
RTVSPropertyOp52
 70
     0
102
RTVSPropertyOp53
 70
     1
102
RTVSPropertyOp54
 70
     1
102
RTVSPropertyOp55
 70
     1
102
RTVSPropertyOp56
 70
     1
102
RTVSPropertyOp57
 70
     1
102
RTVSPropertyOp58
 70
     1
102
RTVSPropertyOp59
 70
     1
102
RTVSPropertyOp60
 70
     1
102
RTVSPropertyOp61
 70
     1
102
RTVSPropertyOp62
 70
     1
  0
XRECORD
  5
AE1F
102
{ACAD_REACTORS
330
AE1E
102
}
330
AE1E
100
AcDbXrecord
280
     1
102
RTVSPost2010Prop28
280
     0
102
RTVSPost2010PropOp28
 70
     1
102
RTVSPost2010Prop29
280
     1
102
RTVSPost2010PropOp29
 70
     1
102
RTVSPost2010Prop30
280
     1
102
RTVSPost2010PropOp30
 70
     1
102
RTVSPost2010Prop31
280
     0
102
RTVSPost2010PropOp31
 70
     1
102
RTVSPost2010Prop32
280
     0
102
RTVSPost2010PropOp32
 70
     1
102
RTVSPost2010Prop33
280
     0
102
RTVSPost2010PropOp33
 70
     1
102
RTVSPost2010Prop34
280
     0
102
RTVSPost2010PropOp34
 70
     1
102
RTVSPost2010Prop35
280
     0
102
RTVSPost2010PropOp35
 70
     1
102
RTVSPost2010Prop36
280
     0
102
RTVSPost2010PropOp36
 70
     1
102
RTVSPost2010Prop37
 90
       50
102
RTVSPost2010PropOp37
 70
     1
102
RTVSPost2010Prop38
140
0.0
102
RTVSPost2010PropOp38
 70
     1
102
RTVSPost2010Prop39
140
1.0
102
RTVSPost2010PropOp39
 70
     1
102
RTVSPost2010Prop40
 90
        0
102
RTVSPost2010PropOp40
 70
     1
102
RTVSPost2010Prop41ColorIndex
 90
       18
102
RTVSPost2010Prop41ColorRGB
 90
        0
102
RTVSPost2010PropOp41
 70
     1
102
RTVSPost2010Prop42
 90
       50
102
RTVSPost2010PropOp42
 70
     1
102
RTVSPost2010Prop43
 90
        3
102
RTVSPost2010PropOp43
 70
     1
102
RTVSPost2010Prop44ColorIndex
 90
        5
102
RTVSPost2010Prop44ColorRGB
 90
      255
102
RTVSPost2010PropOp44
 70
     1
102
RTVSPost2010Prop45
280
     0
102
RTVSPost2010PropOp45
 70
     1
102
RTVSPost2010Prop46
 90
       50
102
RTVSPost2010PropOp46
 70
     1
102
RTVSPost2010Prop47
 90
       50
102
RTVSPost2010PropOp47
 70
     1
102
RTVSPost2010Prop48
 90
       50
102
RTVSPost2010PropOp48
 70
     1
102
RTVSPost2010Prop49
280
     0
102
RTVSPost2010PropOp49
 70
     1
102
RTVSPost2010Prop50
 90
       50
102
RTVSPost2010PropOp50
 70
     1
102
RTVSPost2010Prop51ColorIndex
 90
      256
102
RTVSPost2010Prop51ColorRGB
 90
-16777216
102
RTVSPost2010PropOp51
 70
     0
102
RTVSPost2010Prop52
140
1.0
102
RTVSPost2010PropOp52
 70
     0
102
RTVSPost2010Prop53
 90
        2
102
RTVSPost2010PropOp53
 70
     1
102
RTVSPost2010Prop54
  1
strokes_ogs.tif
102
RTVSPost2010PropOp54
 70
     1
102
RTVSPost2010Prop55
280
     0
102
RTVSPost2010PropOp55
 70
     1
102
RTVSPost2010Prop56
140
1.0
102
RTVSPost2010PropOp56
 70
     1
102
RTVSPost2010Prop57
140
1.0
102
RTVSPost2010PropOp57
 70
     1
102
RTVSPropertyOp0
 70
     1
102
RTVSPropertyOp1
 70
     1
102
RTVSPropertyOp2
 70
     1
102
RTVSPropertyOp3
 70
     1
102
RTVSPropertyOp4
 70
     1
102
RTVSPropertyOp5
 70
     1
102
RTVSPropertyOp6
 70
     1
102
RTVSPropertyOp7
 70
     1
102
RTVSPropertyOp8
 70
     1
102
RTVSPropertyOp9
 70
     1
102
RTVSPropertyOp10
 70
     1
102
RTVSPropertyOp11
 70
     1
102
RTVSPropertyOp12
 70
     1
102
RTVSPropertyOp13
 70
     1
102
RTVSPropertyOp14
 70
     1
102
RTVSPropertyOp15
 70
     1
102
RTVSPropertyOp16
 70
     1
102
RTVSPropertyOp17
 70
     1
102
RTVSPropertyOp18
 70
     1
102
RTVSPropertyOp19
 70
     1
102
RTVSPropertyOp20
 70
     1
102
RTVSPropertyOp21
 70
     1
102
RTVSPropertyOp22
 70
     1
102
RTVSPropertyOp23
 70
     1
102
RTVSPropertyOp24
 70
     1
102
RTVSPropertyOp25
 70
     1
102
RTVSPropertyOp26
 70
     1
102
RTVSPropertyOp27
 70
     1
102
RTVSPropertyOp28
 70
     1
102
RTVSPropertyOp29
 70
     1
102
RTVSPropertyOp30
 70
     1
102
RTVSPropertyOp31
 70
     1
102
RTVSPropertyOp32
 70
     1
102
RTVSPropertyOp33
 70
     1
102
RTVSPropertyOp34
 70
     1
102
RTVSPropertyOp35
 70
     1
102
RTVSPropertyOp36
 70
     1
102
RTVSPropertyOp37
 70
     1
102
RTVSPropertyOp38
 70
     1
102
RTVSPropertyOp39
 70
     1
102
RTVSPropertyOp40
 70
     1
102
RTVSPropertyOp41
 70
     1
102
RTVSPropertyOp42
 70
     1
102
RTVSPropertyOp43
 70
     1
102
RTVSPropertyOp44
 70
     1
102
RTVSPropertyOp45
 70
     1
102
RTVSPropertyOp46
 70
     1
102
RTVSPropertyOp47
 70
     1
102
RTVSPropertyOp48
 70
     1
102
RTVSPropertyOp49
 70
     1
102
RTVSPropertyOp50
 70
     1
102
RTVSPropertyOp51
 70
     0
102
RTVSPropertyOp52
 70
     0
102
RTVSPropertyOp53
 70
     1
102
RTVSPropertyOp54
 70
     1
102
RTVSPropertyOp55
 70
     1
102
RTVSPropertyOp56
 70
     1
102
RTVSPropertyOp57
 70
     1
102
RTVSPropertyOp58
 70
     1
102
RTVSPropertyOp59
 70
     1
102
RTVSPropertyOp60
 70
     1
102
RTVSPropertyOp61
 70
     1
102
RTVSPropertyOp62
 70
     1
  0
ENDSEC
  0
EOF
