  0
SECTION
  2
HEADER
  9
$ACADVER
  1
AC1015
  9
$ACADMAINTVER
 70
    18
  9
$DWGCODEPAGE
  3
ANSI_1252
  9
$INSBASE
 10
0.0
 20
0.0
 30
0.0
  9
$EXTMIN
 10
-227.1047966497773
 20
-250.0091396141904
 30
-0.0015258207003583
  9
$EXTMAX
 10
317.5378426554821
 20
255.610520052503
 30
0.0000000349246037
  9
$LIMMIN
 10
0.0
 20
0.0
  9
$LIMMAX
 10
420.0
 20
297.0
  9
$ORTHOMODE
 70
     0
  9
$REGENMODE
 70
     1
  9
$FILLMODE
 70
     1
  9
$QTEXTMODE
 70
     0
  9
$MIRRTEXT
 70
     0
  9
$LTSCALE
 40
1.0
  9
$ATTMODE
 70
     1
  9
$TEXTSIZE
 40
2.5
  9
$TRACEWID
 40
1.0
  9
$TEXTSTYLE
  7
Standard
  9
$CLAYER
  8
0
  9
$CELTYPE
  6
ByLayer
  9
$CECOLOR
 62
   256
  9
$CELTSCALE
 40
1.0
  9
$DISPSILH
 70
     0
  9
$DIMSCALE
 40
1.0
  9
$DIMASZ
 40
2.5
  9
$DIMEXO
 40
0.625
  9
$DIMDLI
 40
3.75
  9
$DIMRND
 40
0.0
  9
$DIMDLE
 40
0.0
  9
$DIMEXE
 40
1.25
  9
$DIMTP
 40
0.0
  9
$DIMTM
 40
0.0
  9
$DIMTXT
 40
2.5
  9
$DIMCEN
 40
2.5
  9
$DIMTSZ
 40
0.0
  9
$DIMTOL
 70
     0
  9
$DIMLIM
 70
     0
  9
$DIMTIH
 70
     0
  9
$DIMTOH
 70
     0
  9
$DIMSE1
 70
     0
  9
$DIMSE2
 70
     0
  9
$DIMTAD
 70
     1
  9
$DIMZIN
 70
     8
  9
$DIMBLK
  1

  9
$DIMASO
 70
     1
  9
$DIMSHO
 70
     1
  9
$DIMPOST
  1

  9
$DIMAPOST
  1

  9
$DIMALT
 70
     0
  9
$DIMALTD
 70
     3
  9
$DIMALTF
 40
0.03937007874016
  9
$DIMLFAC
 40
1.0
  9
$DIMTOFL
 70
     1
  9
$DIMTVP
 40
0.0
  9
$DIMTIX
 70
     0
  9
$DIMSOXD
 70
     0
  9
$DIMSAH
 70
     0
  9
$DIMBLK1
  1

  9
$DIMBLK2
  1

  9
$DIMSTYLE
  2
ISO-25
  9
$DIMCLRD
 70
     0
  9
$DIMCLRE
 70
     0
  9
$DIMCLRT
 70
     0
  9
$DIMTFAC
 40
1.0
  9
$DIMGAP
 40
0.625
  9
$DIMJUST
 70
     0
  9
$DIMSD1
 70
     0
  9
$DIMSD2
 70
     0
  9
$DIMTOLJ
 70
     0
  9
$DIMTZIN
 70
     8
  9
$DIMALTZ
 70
     0
  9
$DIMALTTZ
 70
     0
  9
$DIMUPT
 70
     0
  9
$DIMDEC
 70
     2
  9
$DIMTDEC
 70
     2
  9
$DIMALTU
 70
     2
  9
$DIMALTTD
 70
     3
  9
$DIMTXSTY
  7
Standard
  9
$DIMAUNIT
 70
     0
  9
$DIMADEC
 70
     0
  9
$DIMALTRND
 40
0.0
  9
$DIMAZIN
 70
     0
  9
$DIMDSEP
 70
    44
  9
$DIMATFIT
 70
     3
  9
$DIMFRAC
 70
     0
  9
$DIMLDRBLK
  1

  9
$DIMLUNIT
 70
     2
  9
$DIMLWD
 70
    -2
  9
$DIMLWE
 70
    -2
  9
$DIMTMOVE
 70
     0
  9
$LUNITS
 70
     2
  9
$LUPREC
 70
     4
  9
$SKETCHINC
 40
1.0
  9
$FILLETRAD
 40
0.0
  9
$AUNITS
 70
     0
  9
$AUPREC
 70
     0
  9
$MENU
  1
.
  9
$ELEVATION
 40
0.0
  9
$PELEVATION
 40
0.0
  9
$THICKNESS
 40
0.0
  9
$LIMCHECK
 70
     0
  9
$CHAMFERA
 40
0.0
  9
$CHAMFERB
 40
0.0
  9
$CHAMFERC
 40
0.0
  9
$CHAMFERD
 40
0.0
  9
$SKPOLY
 70
     0
  9
$TDCREATE
 40
2460398.356956019
  9
$TDUCREATE
 40
2460398.065289352
  9
$TDUPDATE
 40
2460398.382997685
  9
$TDUUPDATE
 40
2460398.091331019
  9
$TDINDWG
 40
0.0089930556
  9
$TDUSRTIMER
 40
0.0089930556
  9
$USRTIMER
 70
     1
  9
$ANGBASE
 50
0.0
  9
$ANGDIR
 70
     0
  9
$PDMODE
 70
     0
  9
$PDSIZE
 40
0.0
  9
$PLINEWID
 40
0.0
  9
$SPLFRAME
 70
     0
  9
$SPLINETYPE
 70
     6
  9
$SPLINESEGS
 70
     8
  9
$HANDSEED
  5
18AB8
  9
$SURFTAB1
 70
     6
  9
$SURFTAB2
 70
     6
  9
$SURFTYPE
 70
     6
  9
$SURFU
 70
     6
  9
$SURFV
 70
     6
  9
$UCSBASE
  2

  9
$UCSNAME
  2

  9
$UCSORG
 10
0.0
 20
0.0
 30
0.0
  9
$UCSXDIR
 10
1.0
 20
0.0
 30
0.0
  9
$UCSYDIR
 10
0.0
 20
1.0
 30
0.0
  9
$UCSORTHOREF
  2

  9
$UCSORTHOVIEW
 70
     0
  9
$UCSORGTOP
 10
0.0
 20
0.0
 30
0.0
  9
$UCSORGBOTTOM
 10
0.0
 20
0.0
 30
0.0
  9
$UCSORGLEFT
 10
0.0
 20
0.0
 30
0.0
  9
$UCSORGRIGHT
 10
0.0
 20
0.0
 30
0.0
  9
$UCSORGFRONT
 10
0.0
 20
0.0
 30
0.0
  9
$UCSORGBACK
 10
0.0
 20
0.0
 30
0.0
  9
$PUCSBASE
  2

  9
$PUCSNAME
  2

  9
$PUCSORG
 10
0.0
 20
0.0
 30
0.0
  9
$PUCSXDIR
 10
1.0
 20
0.0
 30
0.0
  9
$PUCSYDIR
 10
0.0
 20
1.0
 30
0.0
  9
$PUCSORTHOREF
  2

  9
$PUCSORTHOVIEW
 70
     0
  9
$PUCSORGTOP
 10
0.0
 20
0.0
 30
0.0
  9
$PUCSORGBOTTOM
 10
0.0
 20
0.0
 30
0.0
  9
$PUCSORGLEFT
 10
0.0
 20
0.0
 30
0.0
  9
$PUCSORGRIGHT
 10
0.0
 20
0.0
 30
0.0
  9
$PUCSORGFRONT
 10
0.0
 20
0.0
 30
0.0
  9
$PUCSORGBACK
 10
0.0
 20
0.0
 30
0.0
  9
$USERI1
 70
     0
  9
$USERI2
 70
     0
  9
$USERI3
 70
     0
  9
$USERI4
 70
     0
  9
$USERI5
 70
     0
  9
$USERR1
 40
0.0
  9
$USERR2
 40
0.0
  9
$USERR3
 40
0.0
  9
$USERR4
 40
0.0
  9
$USERR5
 40
0.0
  9
$WORLDVIEW
 70
     1
  9
$SHADEDGE
 70
     3
  9
$SHADEDIF
 70
    70
  9
$TILEMODE
 70
     1
  9
$MAXACTVP
 70
    48
  9
$PINSBASE
 10
0.0
 20
0.0
 30
0.0
  9
$PLIMCHECK
 70
     0
  9
$PEXTMIN
 10
0.0
 20
0.0
 30
0.0
  9
$PEXTMAX
 10
0.0
 20
0.0
 30
0.0
  9
$PLIMMIN
 10
0.0
 20
0.0
  9
$PLIMMAX
 10
12.0
 20
9.0
  9
$UNITMODE
 70
     0
  9
$VISRETAIN
 70
     1
  9
$PLINEGEN
 70
     0
  9
$PSLTSCALE
 70
     1
  9
$TREEDEPTH
 70
  3020
  9
$CMLSTYLE
  2
Standard
  9
$CMLJUST
 70
     0
  9
$CMLSCALE
 40
20.0
  9
$PROXYGRAPHICS
 70
     1
  9
$MEASUREMENT
 70
     1
  9
$CELWEIGHT
370
    -1
  9
$ENDCAPS
280
     0
  9
$JOINSTYLE
280
     0
  9
$LWDISPLAY
290
     0
  9
$INSUNITS
 70
     4
  9
$HYPERLINKBASE
  1

  9
$STYLESHEET
  1

  9
$XEDIT
290
     1
  9
$CEPSNTYPE
380
     0
  9
$PSTYLEMODE
290
     1
  9
$FINGERPRINTGUID
  2
{6C1266EE-7BC1-BF4A-B059-A6E7702B10CE}
  9
$VERSIONGUID
  2
{E47FE4DF-A109-F34E-9EAD-0DB196263493}
  9
$EXTNAMES
290
     1
  9
$PSVPSCALE
 40
0.0
  9
$OLESTARTUP
290
     0
  0
ENDSEC
  0
SECTION
  2
CLASSES
  0
CLASS
  1
ACDBDICTIONARYWDFLT
  2
AcDbDictionaryWithDefault
  3
ObjectDBX Classes
 90
        0
280
     0
281
     0
  0
CLASS
  1
ACDBPLACEHOLDER
  2
AcDbPlaceHolder
  3
ObjectDBX Classes
 90
        0
280
     0
281
     0
  0
CLASS
  1
LAYOUT
  2
AcDbLayout
  3
ObjectDBX Classes
 90
        0
280
     0
281
     0
  0
CLASS
  1
DICTIONARYVAR
  2
AcDbDictionaryVar
  3
ObjectDBX Classes
 90
        0
280
     0
281
     0
  0
CLASS
  1
TABLESTYLE
  2
AcDbTableStyle
  3
ObjectDBX Classes
 90
     4095
280
     0
281
     0
  0
CLASS
  1
MATERIAL
  2
AcDbMaterial
  3
ObjectDBX Classes
 90
     1153
280
     0
281
     0
  0
CLASS
  1
VISUALSTYLE
  2
AcDbVisualStyle
  3
ObjectDBX Classes
 90
     4095
280
     0
281
     0
  0
CLASS
  1
SCALE
  2
AcDbScale
  3
ObjectDBX Classes
 90
     1153
280
     0
281
     0
  0
CLASS
  1
MLEADERSTYLE
  2
AcDbMLeaderStyle
  3
ACDB_MLEADERSTYLE_CLASS
 90
     4095
280
     0
281
     0
  0
CLASS
  1
CELLSTYLEMAP
  2
AcDbCellStyleMap
  3
ObjectDBX Classes
 90
     1152
280
     0
281
     0
  0
CLASS
  1
EXACXREFPANELOBJECT
  2
ExAcXREFPanelObject
  3
EXAC_ESW
 90
    33793
280
     0
281
     0
  0
CLASS
  1
NPOCOLLECTION
  2
AcDbImpNonPersistentObjectsCollection
  3
ObjectDBX Classes
 90
    33921
280
     0
281
     0
  0
CLASS
  1
LAYER_INDEX
  2
AcDbLayerIndex
  3
ObjectDBX Classes
 90
    32768
280
     0
281
     0
  0
CLASS
  1
SPATIAL_INDEX
  2
AcDbSpatialIndex
  3
ObjectDBX Classes
 90
    32768
280
     0
281
     0
  0
CLASS
  1
IDBUFFER
  2
AcDbIdBuffer
  3
ObjectDBX Classes
 90
    32768
280
     0
281
     0
  0
CLASS
  1
ACDBSECTIONVIEWSTYLE
  2
AcDbSectionViewStyle
  3
ObjectDBX Classes
 90
     1025
280
     0
281
     0
  0
CLASS
  1
ACDBDETAILVIEWSTYLE
  2
AcDbDetailViewStyle
  3
ObjectDBX Classes
 90
     1025
280
     0
281
     0
  0
CLASS
  1
XRECORD
  2
AcDbXrecord
  3
ObjectDBX Classes
 90
        0
280
     0
281
     0
  0
ENDSEC
  0
SECTION
  2
TABLES
  0
TABLE
  2
VPORT
  5
8
102
{ACAD_XDICTIONARY
360
189C6
102
}
330
0
100
AcDbSymbolTable
 70
     1
  0
VPORT
  5
EA
330
8
100
AcDbSymbolTableRecord
100
AcDbViewportTableRecord
  2
*Active
 70
     0
 10
0.0
 20
0.0
 11
1.0
 21
1.0
 12
45.21652300285237
 22
2.800690219156336
 13
0.0
 23
0.0
 14
10.0
 24
10.0
 15
10.0
 25
10.0
 16
0.0
 26
0.0
 36
1.0
 17
0.0
 27
0.0
 37
0.0
 40
588.3208998492693
 41
0.9846153846153846
 42
50.0
 43
0.0
 44
0.0
 50
0.0
 51
0.0
 71
     0
 72
  1000
 73
     1
 74
     3
 75
     0
 76
     1
 77
     0
 78
     0
281
     0
 65
     1
110
0.0
120
0.0
130
0.0
111
1.0
121
0.0
131
0.0
112
0.0
122
1.0
132
0.0
 79
     0
146
0.0
1001
ACAD_NAV_VCDISPLAY
1070
     3
  0
ENDTAB
  0
TABLE
  2
LTYPE
  5
5
330
0
100
AcDbSymbolTable
 70
     1
  0
LTYPE
  5
14
330
5
100
AcDbSymbolTableRecord
100
AcDbLinetypeTableRecord
  2
ByBlock
 70
     0
  3

 72
    65
 73
     0
 40
0.0
  0
LTYPE
  5
15
330
5
100
AcDbSymbolTableRecord
100
AcDbLinetypeTableRecord
  2
ByLayer
 70
     0
  3

 72
    65
 73
     0
 40
0.0
  0
LTYPE
  5
16
330
5
100
AcDbSymbolTableRecord
100
AcDbLinetypeTableRecord
  2
Continuous
 70
     0
  3
Solid line
 72
    65
 73
     0
 40
0.0
  0
ENDTAB
  0
TABLE
  2
LAYER
  5
2
102
{ACAD_XDICTIONARY
360
1FF
102
}
330
0
100
AcDbSymbolTable
 70
     1
  0
LAYER
  5
10
102
{ACAD_XDICTIONARY
360
13C
102
}
330
2
100
AcDbSymbolTableRecord
100
AcDbLayerTableRecord
  2
0
 70
     0
 62
     7
  6
Continuous
370
    -3
390
F
  0
ENDTAB
  0
TABLE
  2
STYLE
  5
3
330
0
100
AcDbSymbolTable
 70
     1
  0
STYLE
  5
11
330
3
100
AcDbSymbolTableRecord
100
AcDbTextStyleTableRecord
  2
Standard
 70
     0
 40
0.0
 41
1.0
 50
0.0
 71
     0
 42
2.5
  3
arial.ttf
  4

1001
ACAD
1000
Arial
1071
       34
  0
ENDTAB
  0
TABLE
  2
VIEW
  5
6
330
0
100
AcDbSymbolTable
 70
     0
  0
ENDTAB
  0
TABLE
  2
UCS
  5
7
330
0
100
AcDbSymbolTable
 70
     0
  0
ENDTAB
  0
TABLE
  2
APPID
  5
9
330
0
100
AcDbSymbolTable
 70
     8
  0
APPID
  5
12
330
9
100
AcDbSymbolTableRecord
100
AcDbRegAppTableRecord
  2
ACAD
 70
     0
  0
APPID
  5
9E
330
9
100
AcDbSymbolTableRecord
100
AcDbRegAppTableRecord
  2
ACAD_PSEXT
 70
     0
  0
APPID
  5
133
330
9
100
AcDbSymbolTableRecord
100
AcDbRegAppTableRecord
  2
AcadAnnoPO
 70
     0
  0
APPID
  5
134
330
9
100
AcDbSymbolTableRecord
100
AcDbRegAppTableRecord
  2
AcadAnnotative
 70
     0
  0
APPID
  5
135
330
9
100
AcDbSymbolTableRecord
100
AcDbRegAppTableRecord
  2
ACAD_DSTYLE_DIMJAG
 70
     0
  0
APPID
  5
136
330
9
100
AcDbSymbolTableRecord
100
AcDbRegAppTableRecord
  2
ACAD_DSTYLE_DIMTALN
 70
     0
  0
APPID
  5
165
330
9
100
AcDbSymbolTableRecord
100
AcDbRegAppTableRecord
  2
ACAD_MLEADERVER
 70
     0
  0
APPID
  5
217
330
9
100
AcDbSymbolTableRecord
100
AcDbRegAppTableRecord
  2
ACAD_NAV_VCDISPLAY
 70
     0
  0
ENDTAB
  0
TABLE
  2
DIMSTYLE
  5
A
330
0
100
AcDbSymbolTable
 70
     1
100
AcDbDimStyleTable
 71
     0
  0
DIMSTYLE
105
27
330
A
100
AcDbSymbolTableRecord
100
AcDbDimStyleTableRecord
  2
ISO-25
 70
     0
 41
2.5
 42
0.625
 43
3.75
 44
1.25
 73
     0
 74
     0
 77
     1
 78
     8
140
2.5
141
2.5
143
0.03937007874016
147
0.625
171
     3
172
     1
271
     2
272
     2
274
     3
278
    44
283
     0
284
     8
340
11
  0
ENDTAB
  0
TABLE
  2
BLOCK_RECORD
  5
1
330
0
100
AcDbSymbolTable
 70
     7
  0
BLOCK_RECORD
  5
1F
102
{ACAD_XDICTIONARY
360
1CE
102
}
330
1
100
AcDbSymbolTableRecord
100
AcDbBlockTableRecord
  2
*Model_Space
340
22
  0
BLOCK_RECORD
  5
D2
102
{ACAD_XDICTIONARY
360
18979
102
}
330
1
100
AcDbSymbolTableRecord
100
AcDbBlockTableRecord
  2
*Paper_Space
340
D3
  0
BLOCK_RECORD
  5
D6
102
{ACAD_XDICTIONARY
360
1897B
102
}
330
1
100
AcDbSymbolTableRecord
100
AcDbBlockTableRecord
  2
*Paper_Space0
340
D7
  0
BLOCK_RECORD
  5
187D7
330
1
100
AcDbSymbolTableRecord
100
AcDbBlockTableRecord
  2
SAEL380_120_2-Front
340
0
102
{BLKREFS
331
1896F
102
}
  0
BLOCK_RECORD
  5
1882E
330
1
100
AcDbSymbolTableRecord
100
AcDbBlockTableRecord
  2
SAEL380_120_2-Left
340
0
102
{BLKREFS
331
18970
102
}
  0
BLOCK_RECORD
  5
18854
330
1
100
AcDbSymbolTableRecord
100
AcDbBlockTableRecord
  2
SAEL380_120_2-Right
340
0
102
{BLKREFS
331
18971
102
}
  0
BLOCK_RECORD
  5
18877
330
1
100
AcDbSymbolTableRecord
100
AcDbBlockTableRecord
  2
SAEL380_120_2-Top
340
0
102
{BLKREFS
331
18972
102
}
  0
BLOCK_RECORD
  5
188B0
330
1
100
AcDbSymbolTableRecord
100
AcDbBlockTableRecord
  2
SAEL380_120_2-Bottom
340
0
102
{BLKREFS
331
18973
102
}
  0
BLOCK_RECORD
  5
188D9
330
1
100
AcDbSymbolTableRecord
100
AcDbBlockTableRecord
  2
SAEL380_120_2-ISO
340
0
102
{BLKREFS
331
18974
102
}
  0
ENDTAB
  0
ENDSEC
  0
SECTION
  2
BLOCKS
  0
BLOCK
  5
20
330
1F
100
AcDbEntity
  8
0
100
AcDbBlockBegin
  2
*Model_Space
 70
     0
 10
0.0
 20
0.0
 30
0.0
  3
*Model_Space
  1

  0
ENDBLK
  5
21
330
1F
100
AcDbEntity
  8
0
100
AcDbBlockEnd
  0
BLOCK
  5
D4
330
D2
100
AcDbEntity
 67
     1
  8
0
100
AcDbBlockBegin
  2
*Paper_Space
 70
     0
 10
0.0
 20
0.0
 30
0.0
  3
*Paper_Space
  1

  0
ENDBLK
  5
D5
330
D2
100
AcDbEntity
 67
     1
  8
0
100
AcDbBlockEnd
  0
BLOCK
  5
D8
330
D6
100
AcDbEntity
 67
     1
  8
0
100
AcDbBlockBegin
  2
*Paper_Space0
 70
     0
 10
0.0
 20
0.0
 30
0.0
  3
*Paper_Space0
  1

  0
ENDBLK
  5
D9
330
D6
100
AcDbEntity
 67
     1
  8
0
100
AcDbBlockEnd
  0
BLOCK
  5
187D8
330
187D7
100
AcDbEntity
  8
0
100
AcDbBlockBegin
  2
SAEL380_120_2-Front
 70
     0
 10
0.0
 20
0.0
 30
0.0
  3
SAEL380_120_2-Front
  1

  0
SPLINE
  5
187DA
330
187D7
100
AcDbEntity
  8
0
100
AcDbSpline
210
0.0
220
0.0
230
1.0
 70
     8
 71
     3
 72
    14
 73
    10
 74
     0
 42
0.000000001
 43
0.0000000001
 40
0.0
 40
0.0
 40
0.0
 40
0.0
 40
0.348559854941544
 40
0.348559854941544
 40
0.348559854941544
 40
0.8654995748602793
 40
0.8654995748602793
 40
0.8654995748602793
 40
0.9976303284963121
 40
0.9976303284963121
 40
0.9976303284963121
 40
0.9976303284963121
 10
64.13175911166544
 20
20.45511890543734
 30
0.0
 10
63.7253333521448
 20
20.38345511605573
 30
0.0
 10
63.33402563088935
 20
20.20973301918311
 30
0.0
 10
63.0088641646537
 20
19.96426210793863
 30
0.0
 10
62.52662596395098
 20
19.60021082002368
 30
0.0
 10
62.17434846327503
 20
19.07671017180292
 30
0.0
 10
62.04949116767849
 20
18.47892975664162
 30
0.0
 10
62.01757741075781
 20
18.32613597098217
 30
0.0
 10
62.00152445513205
 20
18.16840374611452
 30
0.0
 10
62.00006447731353
 20
18.00859988944784
 30
0.0
  0
LINE
  5
187DB
330
187D7
100
AcDbEntity
  8
0
100
AcDbLine
 10
64.0
 20
20.45511890543733
 30
0.0
 11
64.13175911166542
 21
20.45511890543733
 31
0.0
  0
LINE
  5
187DC
330
187D7
100
AcDbEntity
  8
0
100
AcDbLine
 10
62.00000000000001
 20
20.45511890543732
 30
0.0
 11
64.0
 21
20.45511890543732
 31
0.0
  0
SPLINE
  5
187DD
330
187D7
100
AcDbEntity
  8
0
100
AcDbSpline
210
0.0
220
0.0
230
1.0
 70
     8
 71
     3
 72
     8
 73
     4
 74
     0
 42
0.000000001
 43
0.0000000001
 40
0.0
 40
0.0
 40
0.0
 40
0.0
 40
0.0034060621428397
 40
0.0034060621428397
 40
0.0034060621428397
 40
0.0034060621428397
 10
59.99959001087589
 20
18.00000174207358
 30
0.0
 10
59.99959570550952
 20
18.00980119932978
 30
0.0
 10
59.99960268453552
 20
18.01916040217575
 30
0.0
 10
59.99960849700568
 20
18.02750072407221
 30
0.0
  0
SPLINE
  5
187DE
330
187D7
100
AcDbEntity
  8
0
100
AcDbSpline
210
0.0
220
0.0
230
1.0
 70
     8
 71
     3
 72
    10
 73
     6
 74
     0
 42
0.000000001
 43
0.0000000001
 40
0.0
 40
0.0
 40
0.0
 40
0.0
 40
0.0051190533219084
 40
0.0051190533219084
 40
0.0091558372063476
 40
0.0091558372063476
 40
0.0091558372063476
 40
0.0091558372063476
 10
59.99992738658005
 20
17.99999918638155
 30
0.0
 10
59.99977493615595
 20
18.01340622862933
 30
0.0
 10
59.99962485425815
 20
18.02616279361875
 30
0.0
 10
59.9994137652763
 20
18.0439476797013
 30
0.0
 10
59.99933811129174
 20
18.05023671208022
 30
0.0
 10
59.99927637040336
 20
18.05531338248865
 30
0.0
  0
SPLINE
  5
187DF
330
187D7
100
AcDbEntity
  8
0
100
AcDbSpline
210
0.0
220
0.0
230
1.0
 70
     8
 71
     3
 72
    36
 73
    32
 74
     0
 42
0.000000001
 43
0.0000000001
 40
0.0414385180003494
 40
0.0414385180003494
 40
0.0414385180003494
 40
0.0414385180003494
 40
0.0475447852690977
 40
0.0475447852690977
 40
0.0576832443349908
 40
0.0576832443349908
 40
0.0621319133244039
 40
0.0621319133244039
 40
0.0637713538659335
 40
0.0637713538659335
 40
0.0647087102021108
 40
0.0647087102021108
 40
0.0656482232439328
 40
0.0656482232439328
 40
0.0665879894946135
 40
0.0665879894946135
 40
0.0684837144959888
 40
0.0684837144959888
 40
0.0722592819619435
 40
0.0722592819619435
 40
0.0771321452688517
 40
0.0771321452688517
 40
0.0917504745958417
 40
0.0917504745958417
 40
0.1355334183398061
 40
0.1355334183398061
 40
0.2106007675892785
 40
0.2106007675892785
 40
0.2998171529114969
 40
0.2998171529114969
 40
0.3074841521389204
 40
0.3074841521389204
 40
0.3074841521389204
 40
0.3074841521389204
 10
59.999941588765
 20
18.00494385444742
 30
0.0
 10
59.99989970059832
 20
18.00834878129516
 30
0.0
 10
59.99983119987959
 20
18.01382329953878
 30
0.0
 10
59.99960065811088
 20
18.03157702298546
 30
0.0
 10
59.99941293063422
 20
18.04550328602599
 30
0.0
 10
59.99907952644697
 20
18.06950545805679
 30
0.0
 10
59.99896868247444
 20
18.07741423630036
 30
0.0
 10
59.99877812522087
 20
18.09100054349047
 30
0.0
 10
59.99872210259447
 20
18.09499472040059
 30
0.0
 10
59.99862466626983
 20
18.10196029013278
 30
0.0
 10
59.99858698336938
 20
18.10465793660116
 30
0.0
 10
59.99850801517027
 20
18.11032639648314
 30
0.0
 10
59.99846628184629
 20
18.11332959712736
 30
0.0
 10
59.9983814509398
 20
18.11945805140891
 30
0.0
 10
59.99833788369918
 20
18.12261741156644
 30
0.0
 10
59.99820820728953
 20
18.13206688061912
 30
0.0
 10
59.99812234887073
 20
18.13838760996192
 30
0.0
 10
59.99788243803745
 20
18.15626290755986
 30
0.0
 10
59.9977379754952
 20
18.16731608052995
 30
0.0
 10
59.99743098742865
 20
18.19147753208015
 30
0.0
 10
59.99727311071727
 20
18.20442791337412
 30
0.0
 10
59.99668272601205
 20
18.25512494290991
 30
0.0
 10
59.99633261065675
 20
18.29076298841156
 30
0.0
 10
59.99521778302836
 20
18.43048212642824
 30
0.0
 10
59.99498620106958
 20
18.52888067847988
 30
0.0
 10
59.99544713045441
 20
18.82927014148648
 30
0.0
 10
59.99720686532086
 20
19.04550381124261
 30
0.0
 10
59.99971654469895
 20
19.54112664998858
 30
0.0
 10
59.99994641652709
 20
19.83885895236082
 30
0.0
 10
59.99999540448081
 20
20.16031641267315
 30
0.0
 10
60.00000016384074
 20
20.18578626019494
 30
0.0
 10
60.00000020111091
 20
20.21124850946178
 30
0.0
  0
SPLINE
  5
187E0
330
187D7
100
AcDbEntity
  8
0
100
AcDbSpline
210
0.0
220
0.0
230
1.0
 70
     8
 71
     3
 72
    12
 73
     8
 74
     0
 42
0.000000001
 43
0.0000000001
 40
0.0
 40
0.0
 40
0.0
 40
0.0
 40
0.0034277773841921
 40
0.0034277773841921
 40
0.006393975984942
 40
0.006393975984942
 40
0.0082123024624153
 40
0.0082123024624153
 40
0.0082123024624153
 40
0.0082123024624153
 10
59.99994876821415
 20
17.99999998001358
 30
0.0
 10
59.99993642713604
 20
18.00944694211348
 30
0.0
 10
59.99992444661184
 20
18.01801956014138
 30
0.0
 10
59.99990509166758
 20
18.03010504413682
 30
0.0
 10
59.99989715165918
 20
18.0342708408595
 30
0.0
 10
59.99988974849664
 20
18.03782411613791
 30
0.0
 10
59.99988815265521
 20
18.03848469212436
 30
0.0
 10
59.99988815265734
 20
18.03848469124801
 30
0.0
  0
SPLINE
  5
187E1
330
187D7
100
AcDbEntity
  8
0
100
AcDbSpline
210
0.0
220
0.0
230
1.0
 70
     8
 71
     3
 72
    10
 73
     6
 74
     0
 42
0.000000001
 43
0.0000000001
 40
0.0160425285646982
 40
0.0160425285646982
 40
0.0160425285646982
 40
0.0160425285646982
 40
0.016190431059136
 40
0.016190431059136
 40
0.0179265316767411
 40
0.0179265316767411
 40
0.0179265316767411
 40
0.0179265316767411
 10
62.00000000000001
 20
18.01740072700704
 30
0.0
 10
62.00000270564842
 20
18.01694617626441
 30
0.0
 10
62.00000546116126
 20
18.01649147213672
 30
0.0
 10
62.00004118119597
 20
18.01069806175252
 30
0.0
 10
62.00008089420425
 20
18.00533346473832
 30
0.0
 10
62.00012551434466
 20
18.00000344465385
 30
0.0
  0
SPLINE
  5
187E2
330
187D7
100
AcDbEntity
  8
0
100
AcDbSpline
210
0.0
220
0.0
230
1.0
 70
     8
 71
     3
 72
     8
 73
     4
 74
     0
 42
0.000000001
 43
0.0000000001
 40
0.0127246857513853
 40
0.0127246857513853
 40
0.0127246857513853
 40
0.0127246857513853
 40
0.0132726086115933
 40
0.0132726086115933
 40
0.0132726086115933
 40
0.0132726086115933
 10
61.99999999999997
 20
18.00239297082272
 30
0.0
 10
62.00001434040403
 20
18.00158309037063
 30
0.0
 10
62.00002865187274
 20
18.0007841841381
 30
0.0
 10
62.00004283221722
 20
18.00000108865575
 30
0.0
  0
SPLINE
  5
187E3
330
187D7
100
AcDbEntity
  8
0
100
AcDbSpline
210
0.0
220
0.0
230
1.0
 70
     8
 71
     3
 72
     8
 73
     4
 74
     0
 42
0.000000001
 43
0.0000000001
 40
0.0055415281918179
 40
0.0055415281918179
 40
0.0055415281918179
 40
0.0055415281918179
 40
0.0058013209466225
 40
0.0058013209466225
 40
0.0058013209466225
 40
0.0058013209466225
 10
61.99999999951202
 20
18.00018907142007
 30
0.0
 10
62.00000164065941
 20
18.00012343790944
 30
0.0
 10
62.00000321876338
 20
18.00006048509576
 30
0.0
 10
62.00000473457894
 20
18.00000013111007
 30
0.0
  0
SPLINE
  5
187E4
330
187D7
100
AcDbEntity
  8
0
100
AcDbSpline
210
0.0
220
0.0
230
1.0
 70
     8
 71
     3
 72
    11
 73
     7
 74
     0
 42
0.000000001
 43
0.0000000001
 40
-0.998678494906828
 40
-0.998678494906828
 40
-0.998678494906828
 40
-0.998678494906828
 40
-0.3431304487040065
 40
-0.3431304487040065
 40
-0.3431304487040065
 40
0.0
 40
0.0
 40
0.0
 40
0.0
 10
-62.00000486914337
 20
18.00481103770068
 30
0.0
 10
-62.00162970011106
 20
18.80017968524738
 30
0.0
 10
-62.4097412238406
 20
19.51844637577921
 30
0.0
 10
-63.02395927112677
 20
19.97554896400292
 30
0.0
 10
-63.34545655174284
 20
20.21480803450047
 30
0.0
 10
-63.72797894222756
 20
20.37949722539771
 30
0.0
 10
-64.13175911198215
 20
20.45511890551005
 30
0.0
  0
LINE
  5
187E5
330
187D7
100
AcDbEntity
  8
0
100
AcDbLine
 10
-64.0
 20
20.45511890543732
 30
0.0
 11
-62.00000000000001
 21
20.45511890543732
 31
0.0
  0
SPLINE
  5
187E6
330
187D7
100
AcDbEntity
  8
0
100
AcDbSpline
210
0.0
220
0.0
230
1.0
 70
     8
 71
     3
 72
    30
 73
    26
 74
     0
 42
0.000000001
 43
0.0000000001
 40
0.0083715349806911
 40
0.0083715349806911
 40
0.0083715349806911
 40
0.0083715349806911
 40
0.0331639453943503
 40
0.0331639453943503
 40
0.1253112496645475
 40
0.1253112496645475
 40
0.2071864656231117
 40
0.2071864656231117
 40
0.2263335421812247
 40
0.2263335421812247
 40
0.2405099545325909
 40
0.2405099545325909
 40
0.2436199159272734
 40
0.2436199159272734
 40
0.2456985945885248
 40
0.2456985945885248
 40
0.2486579384261845
 40
0.2486579384261845
 40
0.2511794976646481
 40
0.2511794976646481
 40
0.2542864954279273
 40
0.2542864954279273
 40
0.2592223264358621
 40
0.2592223264358621
 40
0.2669113752363061
 40
0.2669113752363061
 40
0.2669113752363061
 40
0.2669113752363061
 10
-59.99999999999994
 20
20.18501722744244
 30
0.0
 10
-59.99996923399635
 20
20.10279485514971
 30
0.0
 10
-59.9999697622608
 20
20.02094627489123
 30
0.0
 10
-59.99974170364364
 20
19.63708287851387
 30
0.0
 10
-59.99865824952557
 20
19.34179650737416
 30
0.0
 10
-59.99538484765098
 20
18.84179465987272
 30
0.0
 10
-59.99397420934943
 20
18.62632402281114
 30
0.0
 10
-59.99507793259525
 20
18.38434033857079
 30
0.0
 10
-59.99539801504477
 20
18.33888091973111
 30
0.0
 10
-59.99625090795015
 20
18.2544933176369
 30
0.0
 10
-59.99671337307123
 20
18.21640571117464
 30
0.0
 10
-59.99749408135152
 20
18.16216522270575
 30
0.0
 10
-59.99764479169771
 20
18.15198155129024
 30
0.0
 10
-59.99790512545743
 20
18.13478260257927
 30
0.0
 10
-59.99801287409912
 20
18.12776469645956
 30
0.0
 10
-59.99827133190017
 20
18.11109969442059
 30
0.0
 10
-59.99842423778784
 20
18.10138235197329
 30
0.0
 10
-59.99867827300906
 20
18.08531016563922
 30
0.0
 10
-59.99878649399295
 20
18.07849164735498
 30
0.0
 10
-59.99900330288795
 20
18.06481833509921
 30
0.0
 10
-59.99910863458939
 20
18.05816635123521
 30
0.0
 10
-59.99935250846188
 20
18.04268984891418
 30
0.0
 10
-59.9994770321163
 20
18.03470694754799
 30
0.0
 10
-59.99974955528572
 20
18.0170240226287
 30
0.0
 10
-59.99987432043224
 20
18.00867294000031
 30
0.0
 10
-59.9999464304567
 20
18.0037559018438
 30
0.0
  0
SPLINE
  5
187E7
330
187D7
100
AcDbEntity
  8
0
100
AcDbSpline
210
0.0
220
0.0
230
1.0
 70
     8
 71
     3
 72
     8
 73
     4
 74
     0
 42
0.000000001
 43
0.0000000001
 40
0.0200060214947876
 40
0.0200060214947876
 40
0.0200060214947876
 40
0.0200060214947876
 40
0.0210643646336529
 40
0.0210643646336529
 40
0.0210643646336529
 40
0.0210643646336529
 10
-59.99965404240263
 20
18.00885185028221
 30
0.0
 10
-59.99965137419621
 20
18.0059561993571
 30
0.0
 10
-59.99964861980206
 20
18.00300069564442
 30
0.0
 10
-59.99964583035358
 20
18.00000071808542
 30
0.0
  0
SPLINE
  5
187E8
330
187D7
100
AcDbEntity
  8
0
100
AcDbSpline
210
0.0
220
0.0
230
1.0
 70
     8
 71
     3
 72
    16
 73
    12
 74
     0
 42
0.000000001
 43
0.0000000001
 40
0.0330413991399504
 40
0.0330413991399504
 40
0.0330413991399504
 40
0.0330413991399504
 40
0.0346841761091955
 40
0.0346841761091955
 40
0.03776962419592
 40
0.03776962419592
 40
0.0397563631526735
 40
0.0397563631526735
 40
0.0428487134793451
 40
0.0428487134793451
 40
0.0441388161128535
 40
0.0441388161128535
 40
0.0441388161128535
 40
0.0441388161128535
 10
-59.99883034504327
 20
18.0757257066506
 30
0.0
 10
-59.99885350825119
 20
18.07393269607355
 30
0.0
 10
-59.99887951790046
 20
18.07190532081936
 30
0.0
 10
-59.99896342019391
 20
18.06531309759187
 30
0.0
 10
-59.99903026068828
 20
18.0600038097905
 30
0.0
 10
-59.99916226309901
 20
18.04937815906958
 30
0.0
 10
-59.99922008968162
 20
18.04469380072246
 30
0.0
 10
-59.99938091346006
 20
18.03156570288098
 30
0.0
 10
-59.99949373213569
 20
18.02226533401703
 30
0.0
 10
-59.99965921991681
 20
18.00842470895465
 30
0.0
 10
-59.99970915519295
 20
18.00422600058636
 30
0.0
 10
-59.99975917954484
 20
17.99999713536432
 30
0.0
  0
SPLINE
  5
187E9
330
187D7
100
AcDbEntity
  8
0
100
AcDbSpline
210
0.0
220
0.0
230
1.0
 70
     8
 71
     3
 72
    14
 73
    10
 74
     0
 42
0.000000001
 43
0.0000000001
 40
0.0154989466840177
 40
0.0154989466840177
 40
0.0154989466840177
 40
0.0154989466840177
 40
0.0156139895599374
 40
0.0156139895599374
 40
0.0197735799363902
 40
0.0197735799363902
 40
0.0217755268904262
 40
0.0217755268904262
 40
0.0247063075974038
 40
0.0247063075974038
 40
0.0247063075974038
 40
0.0247063075974038
 10
-59.99988788440989
 20
18.03363720586305
 30
0.0
 10
-59.99988788440989
 20
18.03363720586224
 30
0.0
 10
-59.99988788851064
 20
18.03363580556107
 30
0.0
 10
-59.99988819300303
 20
18.03353104160657
 30
0.0
 10
-59.99989410520225
 20
18.03149649252584
 30
0.0
 10
-59.99990869234984
 20
18.02469884998392
 30
0.0
 10
-59.99991435122148
 20
18.02188650207306
 30
0.0
 10
-59.99992991833675
 20
18.01353700575
 30
0.0
 10
-59.99994070965666
 20
18.00722567833652
 30
0.0
 10
-59.99995269132057
 20
18.00000001778499
 30
0.0
  0
SPLINE
  5
187EA
330
187D7
100
AcDbEntity
  8
0
100
AcDbSpline
210
0.0
220
0.0
230
1.0
 70
     8
 71
     3
 72
    10
 73
     6
 74
     0
 42
0.000000001
 43
0.0000000001
 40
0.0
 40
0.0
 40
0.0
 40
0.0
 40
0.0019801174430405
 40
0.0019801174430405
 40
0.0024939941699919
 40
0.0024939941699919
 40
0.0024939941699919
 40
0.0024939941699919
 10
-62.00005222766918
 20
17.99999968301915
 30
0.0
 10
-62.00003498554962
 20
18.00511539988404
 30
0.0
 10
-62.00001916634954
 20
18.01050495977784
 30
0.0
 10
-62.00000495393291
 20
18.01705297481292
 30
0.0
 10
-62.00000247977024
 20
18.01840258377363
 30
0.0
 10
-62.00000017433395
 20
18.01973059158483
 30
0.0
  0
SPLINE
  5
187EB
330
187D7
100
AcDbEntity
  8
0
100
AcDbSpline
210
0.0
220
0.0
230
1.0
 70
     8
 71
     3
 72
    10
 73
     6
 74
     0
 42
0.000000001
 43
0.0000000001
 40
0.0208836677461506
 40
0.0208836677461506
 40
0.0208836677461506
 40
0.0208836677461506
 40
0.0210577011748534
 40
0.0210577011748534
 40
0.023201837578534
 40
0.023201837578534
 40
0.023201837578534
 40
0.023201837578534
 10
-64.11022255376083
 20
20.45121232398802
 30
0.0
 10
-64.11075962302644
 20
20.45130699481024
 30
0.0
 10
-64.11129696391523
 20
20.4514016885383
 30
0.0
 10
-64.11845694250882
 20
20.45266314953924
 30
0.0
 10
-64.12512872502839
 20
20.45383500675948
 30
0.0
 10
-64.13177975901321
 20
20.45500156745593
 30
0.0
  0
LINE
  5
187EC
330
187D7
100
AcDbEntity
  8
0
100
AcDbLine
 10
57.99999999999998
 20
-2.0
 30
0.0
 11
-58.0
 21
-2.000000000000003
 31
0.0
  0
LINE
  5
187ED
330
187D7
100
AcDbEntity
  8
0
100
AcDbLine
 10
-57.99999999999998
 20
0.0
 30
0.0
 11
57.99999999999998
 21
0.0
 31
0.0
  0
ARC
  5
187EE
330
187D7
100
AcDbEntity
  8
0
100
AcDbCircle
 10
-57.99999999999998
 20
2.0
 30
0.0
 40
4.000000000000003
100
AcDbArc
 50
180.0
 51
270.0
  0
ARC
  5
187EF
330
187D7
100
AcDbEntity
  8
0
100
AcDbCircle
 10
-57.99999999999998
 20
2.0
 30
0.0
 40
2.000000000000001
100
AcDbArc
 50
180.0
 51
270.0
  0
ARC
  5
187F0
330
187D7
100
AcDbEntity
  8
0
100
AcDbCircle
 10
57.99999999999998
 20
2.0
 30
0.0
 40
4.000000000000003
100
AcDbArc
 50
270.0
 51
0.0
  0
LINE
  5
187F1
330
187D7
100
AcDbEntity
  8
0
100
AcDbLine
 10
64.13175911166542
 20
20.45511890543733
 30
0.0
 11
91.60844518146811
 21
25.29999999999999
 31
0.0
  0
LINE
  5
187F2
330
187D7
100
AcDbEntity
  8
0
100
AcDbLine
 10
91.60844518146811
 20
25.29999999999999
 30
0.0
 11
101.5
 21
33.59999999999998
 31
0.0
  0
LINE
  5
187F3
330
187D7
100
AcDbEntity
  8
0
100
AcDbLine
 10
60.0
 20
25.29999999999999
 30
0.0
 11
60.0
 21
33.59999999999998
 31
0.0
  0
LINE
  5
187F4
330
187D7
100
AcDbEntity
  8
0
100
AcDbLine
 10
61.99999999999999
 20
25.29999999999999
 30
0.0
 11
60.0
 21
25.29999999999999
 31
0.0
  0
LINE
  5
187F5
330
187D7
100
AcDbEntity
  8
0
100
AcDbLine
 10
61.99999999999999
 20
33.59999999999998
 30
0.0
 11
61.99999999999999
 21
25.29999999999999
 31
0.0
  0
LINE
  5
187F6
330
187D7
100
AcDbEntity
  8
0
100
AcDbLine
 10
61.99999999999999
 20
33.59999999999998
 30
0.0
 11
60.0
 21
33.59999999999998
 31
0.0
  0
LINE
  5
187F7
330
187D7
100
AcDbEntity
  8
0
100
AcDbLine
 10
60.0
 20
20.71960937650001
 30
0.0
 11
60.0
 21
25.29999999999999
 31
0.0
  0
LINE
  5
187F8
330
187D7
100
AcDbEntity
  8
0
100
AcDbLine
 10
61.99999999999999
 20
25.29999999999999
 30
0.0
 11
61.99999999999999
 21
20.71960937650001
 31
0.0
  0
LINE
  5
187F9
330
187D7
100
AcDbEntity
  8
0
100
AcDbLine
 10
60.0
 20
20.71960937650002
 30
0.0
 11
60.0
 21
15.79557061143898
 31
0.0
  0
LINE
  5
187FA
330
187D7
100
AcDbEntity
  8
0
100
AcDbLine
 10
62.0
 20
15.79557061143898
 30
0.0
 11
62.0
 21
20.71960937650002
 31
0.0
  0
LINE
  5
187FB
330
187D7
100
AcDbEntity
  8
0
100
AcDbLine
 10
60.0
 20
33.59999999999998
 30
0.0
 11
60.0
 21
130.0
 31
0.0
  0
LINE
  5
187FC
330
187D7
100
AcDbEntity
  8
0
100
AcDbLine
 10
61.99999999999999
 20
130.0
 30
0.0
 11
61.99999999999999
 21
33.59999999999998
 31
0.0
  0
LINE
  5
187FD
330
187D7
100
AcDbEntity
  8
0
100
AcDbLine
 10
60.0
 20
130.0
 30
0.0
 11
61.99999999999999
 21
130.0
 31
0.0
  0
LINE
  5
187FE
330
187D7
100
AcDbEntity
  8
0
100
AcDbLine
 10
101.5
 20
33.59999999999998
 30
0.0
 11
101.5
 21
130.0
 31
0.0
  0
LINE
  5
187FF
330
187D7
100
AcDbEntity
  8
0
100
AcDbLine
 10
61.99999999999999
 20
15.79557061143898
 30
0.0
 11
61.99999999999999
 21
1.999999999999999
 31
0.0
  0
LINE
  5
18800
330
187D7
100
AcDbEntity
  8
0
100
AcDbLine
 10
59.99999999999999
 20
2.0
 30
0.0
 11
60.0
 21
15.79557061143898
 31
0.0
  0
ARC
  5
18801
330
187D7
100
AcDbEntity
  8
0
100
AcDbCircle
 10
57.99999999999998
 20
2.0
 30
0.0
 40
2.000000000000001
100
AcDbArc
 50
270.0
 51
0.0
  0
LINE
  5
18802
330
187D7
100
AcDbEntity
  8
0
100
AcDbLine
 10
64.0
 20
130.0
 30
0.0
 11
62.0
 21
130.0
 31
0.0
  0
LINE
  5
18803
330
187D7
100
AcDbEntity
  8
0
100
AcDbLine
 10
101.5
 20
130.0
 30
0.0
 11
64.0
 21
130.0
 31
0.0
  0
CIRCLE
  5
18804
330
187D7
100
AcDbEntity
  8
0
100
AcDbCircle
 10
82.0
 20
110.0
 30
0.0
 40
6.5
  0
CIRCLE
  5
18805
330
187D7
100
AcDbEntity
  8
0
100
AcDbCircle
 10
93.0
 20
115.0
 30
0.0
 40
2.5
  0
CIRCLE
  5
18806
330
187D7
100
AcDbEntity
  8
0
100
AcDbCircle
 10
-82.0
 20
40.0
 30
0.0
 40
6.5
  0
CIRCLE
  5
18807
330
187D7
100
AcDbEntity
  8
0
100
AcDbCircle
 10
82.0
 20
40.0
 30
0.0
 40
6.5
  0
CIRCLE
  5
18808
330
187D7
100
AcDbEntity
  8
0
100
AcDbCircle
 10
-82.0
 20
110.0
 30
0.0
 40
6.5
  0
CIRCLE
  5
18809
330
187D7
100
AcDbEntity
  8
0
100
AcDbCircle
 10
-71.0
 20
45.0
 30
0.0
 40
2.5
  0
CIRCLE
  5
1880A
330
187D7
100
AcDbEntity
  8
0
100
AcDbCircle
 10
-71.0
 20
65.0
 30
0.0
 40
2.5
  0
CIRCLE
  5
1880B
330
187D7
100
AcDbEntity
  8
0
100
AcDbCircle
 10
-71.0
 20
85.0
 30
0.0
 40
2.5
  0
CIRCLE
  5
1880C
330
187D7
100
AcDbEntity
  8
0
100
AcDbCircle
 10
-71.0
 20
105.0
 30
0.0
 40
2.5
  0
CIRCLE
  5
1880D
330
187D7
100
AcDbEntity
  8
0
100
AcDbCircle
 10
71.0
 20
45.0
 30
0.0
 40
2.5
  0
CIRCLE
  5
1880E
330
187D7
100
AcDbEntity
  8
0
100
AcDbCircle
 10
71.0
 20
65.0
 30
0.0
 40
2.5
  0
CIRCLE
  5
1880F
330
187D7
100
AcDbEntity
  8
0
100
AcDbCircle
 10
71.0
 20
85.0
 30
0.0
 40
2.5
  0
CIRCLE
  5
18810
330
187D7
100
AcDbEntity
  8
0
100
AcDbCircle
 10
71.0
 20
105.0
 30
0.0
 40
2.5
  0
CIRCLE
  5
18811
330
187D7
100
AcDbEntity
  8
0
100
AcDbCircle
 10
-71.0
 20
125.0
 30
0.0
 40
2.5
  0
CIRCLE
  5
18812
330
187D7
100
AcDbEntity
  8
0
100
AcDbCircle
 10
71.0
 20
125.0
 30
0.0
 40
2.5
  0
CIRCLE
  5
18813
330
187D7
100
AcDbEntity
  8
0
100
AcDbCircle
 10
-93.0
 20
35.0
 30
0.0
 40
2.5
  0
CIRCLE
  5
18814
330
187D7
100
AcDbEntity
  8
0
100
AcDbCircle
 10
-93.0
 20
55.0
 30
0.0
 40
2.5
  0
CIRCLE
  5
18815
330
187D7
100
AcDbEntity
  8
0
100
AcDbCircle
 10
-93.0
 20
75.0
 30
0.0
 40
2.5
  0
CIRCLE
  5
18816
330
187D7
100
AcDbEntity
  8
0
100
AcDbCircle
 10
-93.0
 20
95.0
 30
0.0
 40
2.5
  0
CIRCLE
  5
18817
330
187D7
100
AcDbEntity
  8
0
100
AcDbCircle
 10
93.0
 20
35.0
 30
0.0
 40
2.5
  0
CIRCLE
  5
18818
330
187D7
100
AcDbEntity
  8
0
100
AcDbCircle
 10
93.0
 20
55.0
 30
0.0
 40
2.5
  0
CIRCLE
  5
18819
330
187D7
100
AcDbEntity
  8
0
100
AcDbCircle
 10
93.0
 20
75.0
 30
0.0
 40
2.5
  0
CIRCLE
  5
1881A
330
187D7
100
AcDbEntity
  8
0
100
AcDbCircle
 10
93.0
 20
95.0
 30
0.0
 40
2.5
  0
CIRCLE
  5
1881B
330
187D7
100
AcDbEntity
  8
0
100
AcDbCircle
 10
-93.0
 20
115.0
 30
0.0
 40
2.5
  0
LINE
  5
1881C
330
187D7
100
AcDbEntity
  8
0
100
AcDbLine
 10
-101.5
 20
130.0
 30
0.0
 11
-64.0
 21
130.0
 31
0.0
  0
LINE
  5
1881D
330
187D7
100
AcDbEntity
  8
0
100
AcDbLine
 10
-101.5
 20
33.59999999999998
 30
0.0
 11
-101.5
 21
130.0
 31
0.0
  0
LINE
  5
1881E
330
187D7
100
AcDbEntity
  8
0
100
AcDbLine
 10
-61.99999999999999
 20
15.79557061143898
 30
0.0
 11
-61.99999999999999
 21
1.999999999999999
 31
0.0
  0
LINE
  5
1881F
330
187D7
100
AcDbEntity
  8
0
100
AcDbLine
 10
-59.99999999999999
 20
2.0
 30
0.0
 11
-60.0
 21
15.79557061143898
 31
0.0
  0
LINE
  5
18820
330
187D7
100
AcDbEntity
  8
0
100
AcDbLine
 10
-101.5
 20
33.59999999999998
 30
0.0
 11
-91.60844518146811
 21
25.29999999999999
 31
0.0
  0
LINE
  5
18821
330
187D7
100
AcDbEntity
  8
0
100
AcDbLine
 10
-91.60844518146811
 20
25.29999999999999
 30
0.0
 11
-64.13175911166542
 21
20.45511890543733
 31
0.0
  0
LINE
  5
18822
330
187D7
100
AcDbEntity
  8
0
100
AcDbLine
 10
-60.0
 20
33.59999999999998
 30
0.0
 11
-60.0
 21
25.29999999999999
 31
0.0
  0
LINE
  5
18823
330
187D7
100
AcDbEntity
  8
0
100
AcDbLine
 10
-61.99999999999999
 20
33.59999999999998
 30
0.0
 11
-60.0
 21
33.59999999999998
 31
0.0
  0
LINE
  5
18824
330
187D7
100
AcDbEntity
  8
0
100
AcDbLine
 10
-61.99999999999999
 20
25.29999999999999
 30
0.0
 11
-61.99999999999999
 21
33.59999999999998
 31
0.0
  0
LINE
  5
18825
330
187D7
100
AcDbEntity
  8
0
100
AcDbLine
 10
-61.99999999999999
 20
25.29999999999999
 30
0.0
 11
-60.0
 21
25.29999999999999
 31
0.0
  0
LINE
  5
18826
330
187D7
100
AcDbEntity
  8
0
100
AcDbLine
 10
-60.0
 20
25.29999999999999
 30
0.0
 11
-60.0
 21
20.71960937650001
 31
0.0
  0
LINE
  5
18827
330
187D7
100
AcDbEntity
  8
0
100
AcDbLine
 10
-61.99999999999999
 20
20.71960937650001
 30
0.0
 11
-61.99999999999999
 21
25.29999999999999
 31
0.0
  0
LINE
  5
18828
330
187D7
100
AcDbEntity
  8
0
100
AcDbLine
 10
-60.0
 20
15.79557061143898
 30
0.0
 11
-60.0
 21
20.71960937650002
 31
0.0
  0
LINE
  5
18829
330
187D7
100
AcDbEntity
  8
0
100
AcDbLine
 10
-62.0
 20
20.71960937650002
 30
0.0
 11
-62.0
 21
15.79557061143898
 31
0.0
  0
LINE
  5
1882A
330
187D7
100
AcDbEntity
  8
0
100
AcDbLine
 10
-60.0
 20
130.0
 30
0.0
 11
-60.0
 21
33.59999999999998
 31
0.0
  0
LINE
  5
1882B
330
187D7
100
AcDbEntity
  8
0
100
AcDbLine
 10
-61.99999999999999
 20
130.0
 30
0.0
 11
-60.0
 21
130.0
 31
0.0
  0
LINE
  5
1882C
330
187D7
100
AcDbEntity
  8
0
100
AcDbLine
 10
-61.99999999999999
 20
33.59999999999998
 30
0.0
 11
-61.99999999999999
 21
130.0
 31
0.0
  0
LINE
  5
1882D
330
187D7
100
AcDbEntity
  8
0
100
AcDbLine
 10
-64.0
 20
130.0
 30
0.0
 11
-62.0
 21
130.0
 31
0.0
  0
ENDBLK
  5
187D9
330
187D7
100
AcDbEntity
  8
0
100
AcDbBlockEnd
  0
BLOCK
  5
1882F
330
1882E
100
AcDbEntity
  8
0
100
AcDbBlockBegin
  2
SAEL380_120_2-Left
 70
     0
 10
0.0
 20
0.0
 30
0.0
  3
SAEL380_120_2-Left
  1

  0
SPLINE
  5
18831
330
1882E
100
AcDbEntity
  8
0
100
AcDbSpline
210
0.0
220
0.0
230
1.0
 70
     8
 71
     3
 72
    11
 73
     7
 74
     0
 42
0.000000001
 43
0.0000000001
 40
0.0
 40
0.0
 40
0.0
 40
0.0
 40
0.261781108193879
 40
0.261781108193879
 40
0.261781108193879
 40
0.3960501671855965
 40
0.3960501671855965
 40
0.3960501671855965
 40
0.3960501671855965
 10
0.0000000000000046
 20
20.45511890543732
 30
0.0
 10
0.0000027386115342
 20
20.37405676088144
 30
0.0
 10
0.1339233472870547
 20
20.31280595426448
 30
0.0
 10
0.3381654048683048
 20
20.23354764833965
 30
0.0
 10
0.4429223488172794
 20
20.19289560042364
 30
0.0
 10
0.5643187334248518
 20
20.14677216999575
 30
0.0
 10
0.6928986953353089
 20
20.08876492376194
 30
0.0
  0
SPLINE
  5
18832
330
1882E
100
AcDbEntity
  8
0
100
AcDbSpline
210
0.0
220
0.0
230
1.0
 70
     8
 71
     3
 72
    11
 73
     7
 74
     0
 42
0.000000001
 43
0.0000000001
 40
0.6179658067815446
 40
0.6179658067815446
 40
0.6179658067815446
 40
0.6179658067815446
 40
0.6625127830941434
 40
0.6625127830941434
 40
0.6625127830941434
 40
0.7459556101434794
 40
0.7459556101434794
 40
0.7459556101434794
 40
0.7459556101434794
 10
1.346615167131607
 20
19.6748096130987
 30
0.0
 10
1.388583077980845
 20
19.63671993575952
 30
0.0
 10
1.429621439203738
 20
19.59615556672943
 30
0.0
 10
1.469384925780689
 20
19.55288232605366
 30
0.0
 10
1.543867595716263
 20
19.47182538714417
 30
0.0
 10
1.613957594871202
 20
19.38123817650197
 30
0.0
 10
1.67729499509863
 20
19.27955629650188
 30
0.0
  0
LINE
  5
18833
330
1882E
100
AcDbEntity
  8
0
100
AcDbLine
 10
1.550899218628969
 20
20.45511890543732
 30
0.0
 11
1.436268738279037
 21
20.45511890543732
 31
0.0
  0
LINE
  5
18834
330
1882E
100
AcDbEntity
  8
0
100
AcDbLine
 10
1.856196108169944
 20
20.45511890543732
 30
0.0
 11
1.71132716498339
 21
20.45511890543732
 31
0.0
  0
LINE
  5
18835
330
1882E
100
AcDbEntity
  8
0
100
AcDbLine
 10
0.1411546862692742
 20
20.45511890543732
 30
0.0
 11
0.0
 21
20.45511890543732
 31
0.0
  0
SPLINE
  5
18836
330
1882E
100
AcDbEntity
  8
0
100
AcDbSpline
210
0.0
220
0.0
230
1.0
 70
     8
 71
     3
 72
    11
 73
     7
 74
     0
 42
0.000000001
 43
0.0000000001
 40
0.0
 40
0.0
 40
0.0
 40
0.0
 40
0.3887969604032898
 40
0.3887969604032898
 40
0.3887969604032898
 40
0.7137735507408053
 40
0.7137735507408053
 40
0.7137735507408053
 40
0.7137735507408053
 10
0.0000000000000074
 20
20.45511890543733
 30
0.0
 10
0.0000030911017691
 20
20.33104241538149
 30
0.0
 10
0.3039348702462982
 20
20.26263025580289
 30
0.0
 10
0.672562555872399
 20
20.09802991267156
 30
0.0
 10
0.9806806241168596
 20
19.9604484402657
 30
0.0
 10
1.333711376746005
 20
19.75977839914656
 30
0.0
 10
1.600844246340089
 20
19.39369669890466
 30
0.0
  0
SPLINE
  5
18837
330
1882E
100
AcDbEntity
  8
0
100
AcDbSpline
210
0.0
220
0.0
230
1.0
 70
     8
 71
     3
 72
    11
 73
     7
 74
     0
 42
0.000000001
 43
0.0000000001
 40
-1.0
 40
-1.0
 40
-1.0
 40
-1.0
 40
-0.3431304487040065
 40
-0.3431304487040065
 40
-0.3431304487040065
 40
0.0
 40
0.0
 40
0.0
 40
0.0
 10
2.000000000000035
 20
17.99999999999997
 30
0.0
 10
2.001022898057999
 20
18.79728274744084
 30
0.0
 10
2.00047507198056
 20
19.51752491258221
 30
0.0
 10
2.000035680246237
 20
19.97554896400292
 30
0.0
 10
1.999806154181804
 20
20.21480803450047
 30
0.0
 10
1.999937013537953
 20
20.37949722539771
 30
0.0
 10
1.999999999087712
 20
20.45511890551005
 30
0.0
  0
SPLINE
  5
18838
330
1882E
100
AcDbEntity
  8
0
100
AcDbSpline
210
0.0
220
0.0
230
1.0
 70
     8
 71
     3
 72
    14
 73
    10
 74
     0
 42
0.000000001
 43
0.0000000001
 40
0.0
 40
0.0
 40
0.0
 40
0.0
 40
0.0046326347170709
 40
0.0046326347170709
 40
0.0064933814079254
 40
0.0064933814079254
 40
0.0093289531365888
 40
0.0093289531365888
 40
0.0116174009143567
 40
0.0116174009143567
 40
0.0116174009143567
 40
0.0116174009143567
 10
1.999651619387661
 20
17.9999994340255
 30
0.0
 10
1.999624374764805
 20
18.01480673573246
 30
0.0
 10
1.999553555872307
 20
18.02928489659595
 30
0.0
 10
1.99941672094078
 20
18.04609522029082
 30
0.0
 10
1.999373225136624
 20
18.05056404008766
 30
0.0
 10
1.99926437466674
 20
18.06037400858708
 30
0.0
 10
1.999197915116772
 20
18.06507739154637
 30
0.0
 10
1.999112292231728
 20
18.07059543074633
 30
0.0
 10
1.999087261595507
 20
18.07195731854248
 30
0.0
 10
1.999087261617056
 20
18.0719573173624
 30
0.0
  0
SPLINE
  5
18839
330
1882E
100
AcDbEntity
  8
0
100
AcDbSpline
210
0.0
220
0.0
230
1.0
 70
     8
 71
     3
 72
    10
 73
     6
 74
     0
 42
0.000000001
 43
0.0000000001
 40
0.0
 40
0.0
 40
0.0
 40
0.0
 40
0.0025944945454953
 40
0.0025944945454953
 40
0.0030127493669905
 40
0.0030127493669905
 40
0.0030127493669905
 40
0.0030127493669905
 10
1.999982148180832
 20
17.99999994473451
 30
0.0
 10
1.999934714440842
 20
18.00289015577722
 30
0.0
 10
1.999907463295942
 20
18.00438848179645
 30
0.0
 10
1.999900618953745
 20
18.00477131752816
 30
0.0
 10
1.99990016554158
 20
18.004796532659
 30
0.0
 10
1.999900165542135
 20
18.00479653262813
 30
0.0
  0
SPLINE
  5
1883A
330
1882E
100
AcDbEntity
  8
0
100
AcDbSpline
210
0.0
220
0.0
230
1.0
 70
     8
 71
     3
 72
    34
 73
    30
 74
     0
 42
0.000000001
 43
0.0000000001
 40
0.0033854793005181
 40
0.0033854793005181
 40
0.0033854793005181
 40
0.0033854793005181
 40
0.0044430512741481
 40
0.0044430512741481
 40
0.006069944919504
 40
0.006069944919504
 40
0.0086356101405666
 40
0.0086356101405666
 40
0.0131065654347723
 40
0.0131065654347723
 40
0.0222097609792651
 40
0.0222097609792651
 40
0.0403781088660054
 40
0.0403781088660054
 40
0.0850706072337177
 40
0.0850706072337177
 40
0.1274139117916799
 40
0.1274139117916799
 40
0.1450357288881743
 40
0.1450357288881743
 40
0.1582217564886962
 40
0.1582217564886962
 40
0.1601486824501361
 40
0.1601486824501361
 40
0.1624073466495644
 40
0.1624073466495644
 40
0.1634221624740999
 40
0.1634221624740999
 40
0.1640183183703313
 40
0.1640183183703313
 40
0.1640183183703313
 40
0.1640183183703313
 10
1.999597345445325
 20
18.01795957019758
 30
0.0
 10
1.999530930942405
 20
18.02067804387808
 30
0.0
 10
1.999455924051505
 20
18.02364080244605
 30
0.0
 10
1.999247803357309
 20
18.03148728740812
 30
0.0
 10
1.999103838442812
 20
18.03659760385405
 30
0.0
 10
1.998701357000072
 20
18.04995005135219
 30
0.0
 10
1.998420765532479
 20
18.05843467551358
 30
0.0
 10
1.997575616107988
 20
18.08172011011285
 30
0.0
 10
1.996949405621083
 20
18.09670540194186
 30
0.0
 10
1.994802425445608
 20
18.14186198334489
 30
0.0
 10
1.993012947097604
 20
18.17201595982455
 30
0.0
 10
1.986657466513363
 20
18.26088302725171
 30
0.0
 10
1.981077082395458
 20
18.31879060732044
 30
0.0
 10
1.956664005640456
 20
18.51660260499987
 30
0.0
 10
1.930281967800255
 20
18.65419554299831
 30
0.0
 10
1.854496337934716
 20
18.91690106740814
 30
0.0
 10
1.805683914375889
 20
19.04315706781551
 30
0.0
 10
1.718465528091636
 20
19.21124921882246
 30
0.0
 10
1.690560577277547
 20
19.2594873552844
 30
0.0
 10
1.638983874551502
 20
19.33987457133792
 30
0.0
 10
1.615186646275292
 20
19.37408025362969
 30
0.0
 10
1.590685547552796
 20
19.4071624425831
 30
0.0
 10
1.587635254713337
 20
19.41124058315967
 30
0.0
 10
1.581500648210111
 20
19.41937764311329
 30
0.0
 10
1.5783982463011
 20
19.42344489043599
 30
0.0
 10
1.575428743852771
 20
19.4273189555813
 30
0.0
 10
1.57472318779928
 20
19.42823622234381
 30
0.0
 10
1.574119921287826
 20
19.42902010818156
 30
0.0
 10
1.574004820028939
 20
19.42916951127086
 30
0.0
 10
1.574004822217392
 20
19.42916950842938
 30
0.0
  0
LINE
  5
1883B
330
1882E
100
AcDbEntity
  8
0
100
AcDbLine
 10
2.000000000000006
 20
-2.0
 30
0.0
 11
86.00000000000001
 21
-2.000000000000003
 31
0.0
  0
LINE
  5
1883C
330
1882E
100
AcDbEntity
  8
0
100
AcDbLine
 10
86.00000000000001
 20
-2.000000000000003
 30
0.0
 11
86.00000000000001
 21
2.0
 31
0.0
  0
LINE
  5
1883D
330
1882E
100
AcDbEntity
  8
0
100
AcDbLine
 10
2.000000000000063
 20
2.0
 30
0.0
 11
2.000000000000059
 21
-2.0
 31
0.0
  0
LINE
  5
1883E
330
1882E
100
AcDbEntity
  8
0
100
AcDbLine
 10
2.000000000000063
 20
2.0
 30
0.0
 11
2.000000000000063
 21
17.99999999999998
 31
0.0
  0
LINE
  5
1883F
330
1882E
100
AcDbEntity
  8
0
100
AcDbLine
 10
1.999999999999984
 20
33.59999999999998
 30
0.0
 11
2.00000000000001
 21
130.0
 31
0.0
  0
LINE
  5
18840
330
1882E
100
AcDbEntity
  8
0
100
AcDbLine
 10
0.0
 20
130.0
 30
0.0
 11
2.00000000000001
 21
130.0
 31
0.0
  0
LINE
  5
18841
330
1882E
100
AcDbEntity
  8
0
100
AcDbLine
 10
0.0
 20
33.59999999999998
 30
0.0
 11
0.0
 21
130.0
 31
0.0
  0
LINE
  5
18842
330
1882E
100
AcDbEntity
  8
0
100
AcDbLine
 10
4.000000000000003
 20
130.0
 30
0.0
 11
46.00000000000001
 21
130.0
 31
0.0
  0
LINE
  5
18843
330
1882E
100
AcDbEntity
  8
0
100
AcDbLine
 10
86.00000000000003
 20
15.79557061143898
 30
0.0
 11
86.00000000000001
 21
1.999999999999999
 31
0.0
  0
LINE
  5
18844
330
1882E
100
AcDbEntity
  8
0
100
AcDbLine
 10
1.999999999999984
 20
33.59999999999998
 30
0.0
 11
1.999999999999984
 21
25.29999999999999
 31
0.0
  0
LINE
  5
18845
330
1882E
100
AcDbEntity
  8
0
100
AcDbLine
 10
1.999999999999984
 20
25.29999999999999
 30
0.0
 11
2.000000000000005
 21
20.45511890543733
 31
0.0
  0
LINE
  5
18846
330
1882E
100
AcDbEntity
  8
0
100
AcDbLine
 10
0.0
 20
20.45511890543733
 30
0.0
 11
0.0
 21
25.29999999999999
 31
0.0
  0
LINE
  5
18847
330
1882E
100
AcDbEntity
  8
0
100
AcDbLine
 10
1.999999999999984
 20
25.29999999999999
 30
0.0
 11
0.0
 21
25.29999999999999
 31
0.0
  0
LINE
  5
18848
330
1882E
100
AcDbEntity
  8
0
100
AcDbLine
 10
0.0
 20
25.29999999999999
 30
0.0
 11
0.0
 21
33.59999999999998
 31
0.0
  0
LINE
  5
18849
330
1882E
100
AcDbEntity
  8
0
100
AcDbLine
 10
0.0
 20
33.59999999999998
 30
0.0
 11
1.999999999999984
 21
33.59999999999998
 31
0.0
  0
LINE
  5
1884A
330
1882E
100
AcDbEntity
  8
0
100
AcDbLine
 10
55.89155481853197
 20
25.29999999999999
 30
0.0
 11
46.00000000000003
 21
33.59999999999998
 31
0.0
  0
LINE
  5
1884B
330
1882E
100
AcDbEntity
  8
0
100
AcDbLine
 10
81.86824088833468
 20
20.71960937650001
 30
0.0
 11
55.89155481853197
 21
25.29999999999999
 31
0.0
  0
ARC
  5
1884C
330
1882E
100
AcDbEntity
  8
0
100
AcDbCircle
 10
81.00000000000003
 20
15.79557061143898
 30
0.0
 40
5.0
100
AcDbArc
 50
0.0
 51
80.00000000000003
  0
LINE
  5
1884D
330
1882E
100
AcDbEntity
  8
0
100
AcDbLine
 10
46.00000000000003
 20
33.59999999999998
 30
0.0
 11
46.00000000000001
 21
130.0
 31
0.0
  0
LINE
  5
1884E
330
1882E
100
AcDbEntity
  8
0
100
AcDbLine
 10
2.000000000000002
 20
130.0
 30
0.0
 11
4.000000000000003
 21
130.0
 31
0.0
  0
CIRCLE
  5
1884F
330
1882E
100
AcDbEntity
  8
0
100
AcDbCircle
 10
38.50000000000001
 20
45.0
 30
0.0
 40
2.5
  0
CIRCLE
  5
18850
330
1882E
100
AcDbEntity
  8
0
100
AcDbCircle
 10
38.50000000000001
 20
65.0
 30
0.0
 40
2.5
  0
CIRCLE
  5
18851
330
1882E
100
AcDbEntity
  8
0
100
AcDbCircle
 10
38.50000000000001
 20
85.0
 30
0.0
 40
2.5
  0
CIRCLE
  5
18852
330
1882E
100
AcDbEntity
  8
0
100
AcDbCircle
 10
38.50000000000001
 20
105.0
 30
0.0
 40
2.5
  0
CIRCLE
  5
18853
330
1882E
100
AcDbEntity
  8
0
100
AcDbCircle
 10
38.50000000000001
 20
125.0
 30
0.0
 40
2.5
  0
ENDBLK
  5
18830
330
1882E
100
AcDbEntity
  8
0
100
AcDbBlockEnd
  0
BLOCK
  5
18855
330
18854
100
AcDbEntity
  8
0
100
AcDbBlockBegin
  2
SAEL380_120_2-Right
 70
     0
 10
0.0
 20
0.0
 30
0.0
  3
SAEL380_120_2-Right
  1

  0
SPLINE
  5
18857
330
18854
100
AcDbEntity
  8
0
100
AcDbSpline
210
0.0
220
0.0
230
1.0
 70
     8
 71
     3
 72
    17
 73
    13
 74
     0
 42
0.000000001
 43
0.0000000001
 40
0.0
 40
0.0
 40
0.0
 40
0.0
 40
0.261781108193879
 40
0.261781108193879
 40
0.261781108193879
 40
0.6625127830941434
 40
0.6625127830941434
 40
0.6625127830941434
 40
0.9325549540131666
 40
0.9325549540131666
 40
0.9325549540131666
 40
1.0
 40
1.0
 40
1.0
 40
1.0
 10
-0.0000000000000046
 20
20.45511890543732
 30
0.0
 10
-0.0000027386115342
 20
20.37405676088144
 30
0.0
 10
-0.1339233472870547
 20
20.31280595426448
 30
0.0
 10
-0.3381654048683048
 20
20.23354764833965
 30
0.0
 10
-0.6508169265319463
 20
20.11221989515629
 30
0.0
 10
-1.11168413675207
 20
19.94215584470234
 30
0.0
 10
-1.469384925780689
 20
19.55288232605366
 30
0.0
 10
-1.710429753676503
 20
19.29056149483077
 30
0.0
 10
-1.905468651238778
 20
18.92842689670154
 30
0.0
 10
-1.974513308028864
 20
18.41345423808365
 30
0.0
 10
-1.99175772595257
 20
18.28483597626091
 30
0.0
 10
-1.998996119032313
 20
18.14589880785515
 30
0.0
 10
-1.999999999999947
 20
17.99999999999996
 30
0.0
  0
SPLINE
  5
18858
330
18854
100
AcDbEntity
  8
0
100
AcDbSpline
210
0.0
220
0.0
230
1.0
 70
     8
 71
     3
 72
    14
 73
    10
 74
     0
 42
0.000000001
 43
0.0000000001
 40
0.0
 40
0.0
 40
0.0
 40
0.0
 40
0.348559854941544
 40
0.348559854941544
 40
0.348559854941544
 40
0.8654995748602793
 40
0.8654995748602793
 40
0.8654995748602793
 40
1.0
 40
1.0
 40
1.0
 40
1.0
 10
-2.000000000000011
 20
20.45511890543734
 30
0.0
 10
-2.000392936217105
 20
20.38345511605573
 30
0.0
 10
-2.00002650580948
 20
20.20973301918311
 30
0.0
 10
-1.999997840240097
 20
19.96426210793863
 30
0.0
 10
-1.999955327107279
 20
19.60021082002368
 30
0.0
 10
-2.000200767143466
 20
19.07671017180292
 30
0.0
 10
-2.000192835568736
 20
18.47892975664162
 30
0.0
 10
-2.000190771884844
 20
18.32339572263079
 30
0.0
 10
-2.000021289363671
 20
18.16274452619746
 30
0.0
 10
-2.000000000000094
 20
17.99999999999994
 30
0.0
  0
SPLINE
  5
18859
330
18854
100
AcDbEntity
  8
0
100
AcDbSpline
210
0.0
220
0.0
230
1.0
 70
     8
 71
     3
 72
     8
 73
     4
 74
     0
 42
0.000000001
 43
0.0000000001
 40
0.3961028966857136
 40
0.3961028966857136
 40
0.3961028966857136
 40
0.3961028966857136
 40
0.618013979256474
 40
0.618013979256474
 40
0.618013979256474
 40
0.618013979256474
 10
-0.6934099662314185
 20
20.0886540104716
 30
0.0
 10
-0.9051429725949958
 20
19.99273383381116
 30
0.0
 10
-1.136446942890016
 20
19.86632360910149
 30
0.0
 10
-1.345671055527172
 20
19.6768430879179
 30
0.0
  0
SPLINE
  5
1885A
330
18854
100
AcDbEntity
  8
0
100
AcDbSpline
210
0.0
220
0.0
230
1.0
 70
     8
 71
     3
 72
     8
 73
     4
 74
     0
 42
0.000000001
 43
0.0000000001
 40
0.8189011253916177
 40
0.8189011253916177
 40
0.8189011253916177
 40
0.8189011253916177
 40
0.9811508850927726
 40
0.9811508850927726
 40
0.9811508850927726
 40
0.9811508850927726
 10
-1.827483575200432
 20
18.98610087293936
 30
0.0
 10
-1.924124801561743
 20
18.74970723920274
 30
0.0
 10
-1.986054147552181
 20
18.46924110732751
 30
0.0
 10
-1.99782142463445
 20
18.12350867911087
 30
0.0
  0
SPLINE
  5
1885B
330
18854
100
AcDbEntity
  8
0
100
AcDbSpline
210
0.0
220
0.0
230
1.0
 70
     8
 71
     3
 72
     8
 73
     4
 74
     0
 42
0.000000001
 43
0.0000000001
 40
0.022435982954697
 40
0.022435982954697
 40
0.022435982954697
 40
0.022435982954697
 40
0.0243475415361594
 40
0.0243475415361594
 40
0.0243475415361594
 40
0.0243475415361594
 10
-1.999597692118025
 20
18.01794439524716
 30
0.0
 10
-1.999622228611843
 20
18.01213472712452
 30
0.0
 10
-1.999640377471172
 20
18.00610935340723
 30
0.0
 10
-1.999651619387662
 20
17.99999943402551
 30
0.0
  0
SPLINE
  5
1885C
330
18854
100
AcDbEntity
  8
0
100
AcDbSpline
210
0.0
220
0.0
230
1.0
 70
     8
 71
     3
 72
    10
 73
     6
 74
     0
 42
0.000000001
 43
0.0000000001
 40
0.0399354823672898
 40
0.0399354823672898
 40
0.0399354823672898
 40
0.0399354823672898
 40
0.0483234785853409
 40
0.0483234785853409
 40
0.0590964739293025
 40
0.0590964739293025
 40
0.0590964739293025
 40
0.0590964739293025
 10
-1.999919135597058
 20
18.004751657923
 30
0.0
 10
-1.999919135607903
 20
18.00475165707024
 30
0.0
 10
-1.999922315455929
 20
18.00450734399869
 30
0.0
 10
-1.999936218705065
 20
18.00318705863419
 30
0.0
 10
-1.999948707124301
 20
18.00190771749144
 30
0.0
 10
-1.99996245411395
 20
17.99999974170374
 30
0.0
  0
SPLINE
  5
1885D
330
18854
100
AcDbEntity
  8
0
100
AcDbSpline
210
0.0
220
0.0
230
1.0
 70
     8
 71
     3
 72
    24
 73
    20
 74
     0
 42
0.000000001
 43
0.0000000001
 40
0.1875280295854243
 40
0.1875280295854243
 40
0.1875280295854243
 40
0.1875280295854243
 40
0.2079178050245812
 40
0.2079178050245812
 40
0.2616715763997972
 40
0.2616715763997972
 40
0.3003928963020594
 40
0.3003928963020594
 40
0.3129761235067789
 40
0.3129761235067789
 40
0.3198152948103554
 40
0.3198152948103554
 40
0.3237005352550612
 40
0.3237005352550612
 40
0.3259152436601955
 40
0.3259152436601955
 40
0.3278153487592306
 40
0.3278153487592306
 40
0.3282954906914483
 40
0.3282954906914483
 40
0.3282954906914483
 40
0.3282954906914483
 10
-1.677944091937362
 20
19.27861582190609
 30
0.0
 10
-1.711363542798307
 20
19.22442667582521
 30
0.0
 10
-1.742360916166925
 20
19.1675822002665
 30
0.0
 10
-1.843778686042331
 20
18.95618140124019
 30
0.0
 10
-1.896255103302745
 20
18.79283816501736
 30
0.0
 10
-1.957352682216924
 20
18.50946737253126
 30
0.0
 10
-1.974695820134903
 20
18.38915663955636
 30
0.0
 10
-1.989417120584625
 20
18.22455785332582
 30
0.0
 10
-1.992378427056079
 20
18.18347356575767
 30
0.0
 10
-1.995938998060005
 20
18.1192066724698
 30
0.0
 10
-1.997005799338528
 20
18.09624380971178
 30
0.0
 10
-1.998356278496659
 20
18.06064504459389
 30
0.0
 10
-1.998785824246672
 20
18.04759734170743
 30
0.0
 10
-1.999329225850457
 20
18.02861662812241
 30
0.0
 10
-1.999502495446145
 20
18.02191363010845
 30
0.0
 10
-1.999746404154537
 20
18.01178394804681
 30
0.0
 10
-1.999831116385496
 20
18.00795249525483
 30
0.0
 10
-1.999910268078677
 20
18.00424709667928
 30
0.0
 10
-1.999924995415155
 20
18.00354883483368
 30
0.0
 10
-1.999938624351154
 20
18.00289553354787
 30
0.0
  0
LINE
  5
1885E
330
18854
100
AcDbEntity
  8
0
100
AcDbLine
 10
-2.000000000000006
 20
-2.0
 30
0.0
 11
-86.00000000000001
 21
-2.0
 31
0.0
  0
LINE
  5
1885F
330
18854
100
AcDbEntity
  8
0
100
AcDbLine
 10
-86.00000000000001
 20
-2.000000000000003
 30
0.0
 11
-86.00000000000001
 21
2.0
 31
0.0
  0
LINE
  5
18860
330
18854
100
AcDbEntity
  8
0
100
AcDbLine
 10
0.0
 20
33.59999999999998
 30
0.0
 11
0.0
 21
130.0
 31
0.0
  0
LINE
  5
18861
330
18854
100
AcDbEntity
  8
0
100
AcDbLine
 10
0.0
 20
33.59999999999998
 30
0.0
 11
0.0
 21
25.29999999999999
 31
0.0
  0
LINE
  5
18862
330
18854
100
AcDbEntity
  8
0
100
AcDbLine
 10
0.0
 20
25.29999999999999
 30
0.0
 11
0.0
 21
20.45511890543733
 31
0.0
  0
CIRCLE
  5
18863
330
18854
100
AcDbEntity
  8
0
100
AcDbCircle
 10
-38.50000000000004
 20
115.0
 30
0.0
 40
2.5
  0
LINE
  5
18864
330
18854
100
AcDbEntity
  8
0
100
AcDbLine
 10
-1.999999999999984
 20
25.29999999999999
 30
0.0
 11
0.0
 21
25.29999999999999
 31
0.0
  0
LINE
  5
18865
330
18854
100
AcDbEntity
  8
0
100
AcDbLine
 10
-2.000000000000005
 20
20.45511890543733
 30
0.0
 11
-1.999999999999984
 21
25.29999999999999
 31
0.0
  0
LINE
  5
18866
330
18854
100
AcDbEntity
  8
0
100
AcDbLine
 10
-1.999999999999984
 20
33.59999999999998
 30
0.0
 11
0.0
 21
33.59999999999998
 31
0.0
  0
LINE
  5
18867
330
18854
100
AcDbEntity
  8
0
100
AcDbLine
 10
-1.999999999999984
 20
25.29999999999999
 30
0.0
 11
-1.999999999999984
 21
33.59999999999998
 31
0.0
  0
LINE
  5
18868
330
18854
100
AcDbEntity
  8
0
100
AcDbLine
 10
-46.00000000000003
 20
33.59999999999998
 30
0.0
 11
-55.89155481853197
 21
25.29999999999999
 31
0.0
  0
LINE
  5
18869
330
18854
100
AcDbEntity
  8
0
100
AcDbLine
 10
-55.89155481853197
 20
25.29999999999999
 30
0.0
 11
-81.86824088833468
 21
20.71960937650001
 31
0.0
  0
ARC
  5
1886A
330
18854
100
AcDbEntity
  8
0
100
AcDbCircle
 10
-81.00000000000003
 20
15.79557061143898
 30
0.0
 40
5.0
100
AcDbArc
 50
100.0
 51
180.0
  0
LINE
  5
1886B
330
18854
100
AcDbEntity
  8
0
100
AcDbLine
 10
-46.00000000000001
 20
130.0
 30
0.0
 11
-46.00000000000003
 21
33.59999999999998
 31
0.0
  0
LINE
  5
1886C
330
18854
100
AcDbEntity
  8
0
100
AcDbLine
 10
0.0
 20
130.0
 30
0.0
 11
-2.00000000000001
 21
130.0
 31
0.0
  0
LINE
  5
1886D
330
18854
100
AcDbEntity
  8
0
100
AcDbLine
 10
-1.999999999999984
 20
33.59999999999998
 30
0.0
 11
-2.00000000000001
 21
130.0
 31
0.0
  0
LINE
  5
1886E
330
18854
100
AcDbEntity
  8
0
100
AcDbLine
 10
-86.00000000000003
 20
15.79557061143898
 30
0.0
 11
-86.00000000000001
 21
1.999999999999999
 31
0.0
  0
LINE
  5
1886F
330
18854
100
AcDbEntity
  8
0
100
AcDbLine
 10
-4.000000000000003
 20
130.0
 30
0.0
 11
-46.00000000000001
 21
130.0
 31
0.0
  0
LINE
  5
18870
330
18854
100
AcDbEntity
  8
0
100
AcDbLine
 10
-2.000000000000002
 20
130.0
 30
0.0
 11
-4.000000000000003
 21
130.0
 31
0.0
  0
LINE
  5
18871
330
18854
100
AcDbEntity
  8
0
100
AcDbLine
 10
-1.999999999999937
 20
17.99999999999996
 30
0.0
 11
-1.999999999999937
 21
1.999999999999995
 31
0.0
  0
LINE
  5
18872
330
18854
100
AcDbEntity
  8
0
100
AcDbLine
 10
-1.999999999999941
 20
-2.000000000000003
 30
0.0
 11
-1.999999999999937
 21
1.999999999999996
 31
0.0
  0
CIRCLE
  5
18873
330
18854
100
AcDbEntity
  8
0
100
AcDbCircle
 10
-38.50000000000004
 20
34.99999999999999
 30
0.0
 40
2.5
  0
CIRCLE
  5
18874
330
18854
100
AcDbEntity
  8
0
100
AcDbCircle
 10
-38.50000000000004
 20
54.99999999999999
 30
0.0
 40
2.5
  0
CIRCLE
  5
18875
330
18854
100
AcDbEntity
  8
0
100
AcDbCircle
 10
-38.50000000000004
 20
74.99999999999999
 30
0.0
 40
2.5
  0
CIRCLE
  5
18876
330
18854
100
AcDbEntity
  8
0
100
AcDbCircle
 10
-38.50000000000004
 20
94.99999999999998
 30
0.0
 40
2.5
  0
ENDBLK
  5
18856
330
18854
100
AcDbEntity
  8
0
100
AcDbBlockEnd
  0
BLOCK
  5
18878
330
18877
100
AcDbEntity
  8
0
100
AcDbBlockBegin
  2
SAEL380_120_2-Top
 70
     0
 10
0.0
 20
0.0
 30
0.0
  3
SAEL380_120_2-Top
  1

  0
SPLINE
  5
1887A
330
18877
100
AcDbEntity
  8
0
100
AcDbSpline
210
0.0
220
0.0
230
1.0
 70
     8
 71
     3
 72
    14
 73
    10
 74
     0
 42
0.000000001
 43
0.0000000001
 40
0.520300250005382
 40
0.520300250005382
 40
0.520300250005382
 40
0.520300250005382
 40
0.6625127830941434
 40
0.6625127830941434
 40
0.6625127830941434
 40
0.9325549540131666
 40
0.9325549540131666
 40
0.9325549540131666
 40
1.0
 40
1.0
 40
1.0
 40
1.0
 10
61.28539660470256
 20
-1.060816610342786
 30
0.0
 10
61.0621876182494
 20
-1.202508729296078
 30
0.0
 10
60.85809062031731
 20
-1.342443287567864
 30
0.0
 10
60.68051291196465
 20
-1.469384925780689
 30
0.0
 10
60.34331710489434
 20
-1.710429753676503
 30
0.0
 10
60.11521516622678
 20
-1.905468651238778
 30
0.0
 10
60.03032674272031
 20
-1.974513308028864
 30
0.0
 10
60.00912522590663
 20
-1.99175772595257
 30
0.0
 10
60.00000592074773
 20
-1.998996119032313
 30
0.0
 10
59.99999999999996
 20
-1.999999999999947
 30
0.0
  0
LINE
  5
1887B
330
18877
100
AcDbEntity
  8
0
100
AcDbLine
 10
59.99999999999996
 20
-1.999999999999939
 30
0.0
 11
59.99999999999996
 21
-2.070345427591504
 31
0.0
  0
LINE
  5
1887C
330
18877
100
AcDbEntity
  8
0
100
AcDbLine
 10
64.13175911166544
 20
-2.000000000000011
 30
0.0
 11
64.13060915541939
 21
-2.000001109801844
 31
0.0
  0
SPLINE
  5
1887D
330
18877
100
AcDbEntity
  8
0
100
AcDbSpline
210
0.0
220
0.0
230
1.0
 70
     8
 71
     3
 72
    30
 73
    26
 74
     0
 42
0.000000001
 43
0.0000000001
 40
0.0015027001689846
 40
0.0015027001689846
 40
0.0015027001689846
 40
0.0015027001689846
 40
0.0016443332169452
 40
0.0016443332169452
 40
0.0020548020062206
 40
0.0020548020062206
 40
0.0025525961737187
 40
0.0025525961737187
 40
0.0037877770844442
 40
0.0037877770844442
 40
0.0074892194429225
 40
0.0074892194429225
 40
0.0185925167837307
 40
0.0185925167837307
 40
0.0519100619414044
 40
0.0519100619414044
 40
0.1519673596561762
 40
0.1519673596561762
 40
0.1833603978134056
 40
0.1833603978134056
 40
0.1990528111264684
 40
0.1990528111264684
 40
0.2072143647686939
 40
0.2072143647686939
 40
0.2158456047015613
 40
0.2158456047015613
 40
0.2158456047015613
 40
0.2158456047015613
 10
59.99995563544626
 20
-3.997115741987705
 30
0.0
 10
59.99995191566577
 20
-3.996871832533738
 30
0.0
 10
59.99994784243186
 20
-3.996604609455082
 30
0.0
 10
59.99993054672501
 20
-3.995469183337769
 30
0.0
 10
59.99991478285516
 20
-3.994432554522229
 30
0.0
 10
59.99987807297867
 20
-3.992011727369942
 30
0.0
 10
59.99985654020942
 20
-3.990587571733998
 30
0.0
 10
59.99978081334515
 20
-3.985561563392034
 30
0.0
 10
59.99972512600365
 20
-3.981835125024162
 30
0.0
 10
59.99950464263377
 20
-3.966947528183743
 30
0.0
 10
59.9993418041295
 20
-3.955654124466832
 30
0.0
 10
59.99871073072757
 20
-3.910616500549726
 30
0.0
 10
59.99827923828424
 20
-3.876891166257395
 30
0.0
 10
59.99673170767137
 20
-3.742539649962051
 30
0.0
 10
59.99598718237049
 20
-3.642953833070166
 30
0.0
 10
59.99432440370482
 20
-3.247332277397243
 30
0.0
 10
59.99574930427045
 20
-2.942217923741466
 30
0.0
 10
59.99766371145745
 20
-2.534431686283929
 30
0.0
 10
59.99813092205778
 20
-2.438274302870157
 30
0.0
 10
59.99898132497602
 20
-2.292039520854885
 30
0.0
 10
59.99929197910613
 20
-2.242204745501759
 30
0.0
 10
59.99955258617013
 20
-2.172131697231447
 30
0.0
 10
59.99960133936138
 20
-2.149091537825419
 30
0.0
 10
59.99962890602169
 20
-2.106056915149878
 30
0.0
 10
59.99960809948753
 20
-2.085785615563427
 30
0.0
 10
59.99959346470955
 20
-2.070345427591504
 30
0.0
  0
SPLINE
  5
1887E
330
18877
100
AcDbEntity
  8
0
100
AcDbSpline
210
0.0
220
0.0
230
1.0
 70
     8
 71
     3
 72
     8
 73
     4
 74
     0
 42
0.000000001
 43
0.0000000001
 40
0.0
 40
0.0
 40
0.0
 40
0.0
 40
0.0097523205063742
 40
0.0097523205063742
 40
0.0097523205063742
 40
0.0097523205063742
 10
59.99994710972564
 20
-3.99998158171047
 30
0.0
 10
59.99999022418851
 20
-3.98527186224159
 30
0.0
 10
60.00005789088986
 20
-3.969110094499297
 30
0.0
 10
60.00005789079435
 20
-3.9691101173118
 30
0.0
  0
SPLINE
  5
1887F
330
18877
100
AcDbEntity
  8
0
100
AcDbSpline
210
0.0
220
0.0
230
1.0
 70
     8
 71
     3
 72
     8
 73
     4
 74
     0
 42
0.000000001
 43
0.0000000001
 40
0.0153549767186907
 40
0.0153549767186907
 40
0.0153549767186907
 40
0.0153549767186907
 40
0.0166124921732755
 40
0.0166124921732755
 40
0.0166124921732755
 40
0.0166124921732755
 10
62.00003470184658
 20
-3.988218396457105
 30
0.0
 10
62.00005131974321
 20
-3.992147035481511
 30
0.0
 10
62.00007199361046
 20
-3.996084590536149
 30
0.0
 10
62.00009591881823
 20
-3.999999456531901
 30
0.0
  0
SPLINE
  5
18880
330
18877
100
AcDbEntity
  8
0
100
AcDbSpline
210
0.0
220
0.0
230
1.0
 70
     8
 71
     3
 72
     8
 73
     4
 74
     0
 42
0.000000001
 43
0.0000000001
 40
0.0
 40
0.0
 40
0.0
 40
0.0
 40
0.0187140236101998
 40
0.0187140236101998
 40
0.0187140236101998
 40
0.0187140236101998
 10
64.13060894494113
 20
-2.00000110755356
 30
0.0
 10
64.06876718207158
 20
-2.000060418896553
 30
0.0
 10
64.00671791741041
 20
-2.000137139562696
 30
0.0
 10
63.94477938686235
 20
-2.000762474363006
 30
0.0
  0
LINE
  5
18881
330
18877
100
AcDbEntity
  8
0
100
AcDbLine
 10
-60.0
 20
-2.00000000000006
 30
0.0
 11
-60.0
 21
-2.069080955044008
 31
0.0
  0
SPLINE
  5
18882
330
18877
100
AcDbEntity
  8
0
100
AcDbSpline
210
0.0
220
0.0
230
1.0
 70
     8
 71
     3
 72
    14
 73
    10
 74
     0
 42
0.000000001
 43
0.0000000001
 40
0.5179001693901972
 40
0.5179001693901972
 40
0.5179001693901972
 40
0.5179001693901972
 40
0.7589260150786517
 40
0.7589260150786517
 40
0.7589260150786517
 40
0.9876827822009085
 40
0.9876827822009085
 40
0.9876827822009085
 40
1.0
 40
1.0
 40
1.0
 40
1.0
 10
-61.29656398501551
 20
-1.052843227062564
 30
0.0
 10
-60.91685978032811
 20
-1.292520296714597
 30
0.0
 10
-60.59374878781362
 20
-1.528316943870661
 30
0.0
 10
-60.36345203901017
 20
-1.706865596818325
 30
0.0
 10
-60.14487821932473
 20
-1.876325484017044
 30
0.0
 10
-60.01602507397457
 20
-1.988136705347795
 30
0.0
 10
-60.00125653912393
 20
-1.998997710296708
 30
0.0
 10
-60.00046133965238
 20
-1.99958251207178
 30
0.0
 10
-60.00000002089466
 20
-1.999892494308388
 30
0.0
 10
-59.99999999999574
 20
-1.999999999999915
 30
0.0
  0
SPLINE
  5
18883
330
18877
100
AcDbEntity
  8
0
100
AcDbSpline
210
0.0
220
0.0
230
1.0
 70
     8
 71
     3
 72
    10
 73
     6
 74
     0
 42
0.000000001
 43
0.0000000001
 40
0.0
 40
0.0
 40
0.0
 40
0.0
 40
0.0070726682291249
 40
0.0070726682291249
 40
0.008001810242901
 40
0.008001810242901
 40
0.008001810242901
 40
0.008001810242901
 10
-61.17624276409251
 20
-1.166909575141302
 30
0.0
 10
-61.16953053893436
 20
-1.173599768657768
 30
0.0
 10
-61.16525759027388
 20
-1.177793229699984
 30
0.0
 10
-61.16429268365812
 20
-1.178732882962459
 30
0.0
 10
-61.16423633968131
 20
-1.178787519979595
 30
0.0
 10
-61.16423633968053
 20
-1.178787519980346
 30
0.0
  0
SPLINE
  5
18884
330
18877
100
AcDbEntity
  8
0
100
AcDbSpline
210
0.0
220
0.0
230
1.0
 70
     8
 71
     3
 72
    16
 73
    12
 74
     0
 42
0.000000001
 43
0.0000000001
 40
0.00927698113196
 40
0.00927698113196
 40
0.00927698113196
 40
0.00927698113196
 40
0.0093865744692795
 40
0.0093865744692795
 40
0.0112177528333881
 40
0.0112177528333881
 40
0.0136381475263506
 40
0.0136381475263506
 40
0.017341532289031
 40
0.017341532289031
 40
0.0205988054450747
 40
0.0205988054450747
 40
0.0205988054450747
 40
0.0205988054450747
 10
-60.00013000810944
 20
-3.947522000425044
 30
0.0
 10
-60.00013000811687
 20
-3.947521999158543
 30
0.0
 10
-60.00012998954215
 20
-3.947525160567185
 30
0.0
 10
-60.00012933653059
 20
-3.947635913270585
 30
0.0
 10
-60.00012343715874
 20
-3.9486148569332
 30
0.0
 10
-60.00010188235059
 20
-3.952241483014798
 30
0.0
 10
-60.00008379284658
 20
-3.955332372216266
 30
0.0
 10
-60.00003450289263
 20
-3.964534223114653
 30
0.0
 10
-60.00000153786753
 20
-3.971422025398869
 30
0.0
 10
-59.99994645090255
 20
-3.985511019571789
 30
0.0
 10
-59.99992302557055
 20
-3.992621533436026
 30
0.0
 10
-59.99990303612587
 20
-3.999982127783805
 30
0.0
  0
LINE
  5
18885
330
18877
100
AcDbEntity
  8
0
100
AcDbLine
 10
-59.99997710452101
 20
-3.99880678759837
 30
0.0
 11
-59.9999800089375
 21
-4.000000004327611
 31
0.0
  0
SPLINE
  5
18886
330
18877
100
AcDbEntity
  8
0
100
AcDbSpline
210
0.0
220
0.0
230
1.0
 70
     8
 71
     3
 72
    30
 73
    26
 74
     0
 42
0.000000001
 43
0.0000000001
 40
0.0
 40
0.0
 40
0.0
 40
0.0
 40
0.0049150264378637
 40
0.0049150264378637
 40
0.0111015609518906
 40
0.0111015609518906
 40
0.0210030734037705
 40
0.0210030734037705
 40
0.0355345163865465
 40
0.0355345163865465
 40
0.074635805474825
 40
0.074635805474825
 40
0.1921291429591432
 40
0.1921291429591432
 40
0.2067246465516348
 40
0.2067246465516348
 40
0.2103959597197407
 40
0.2103959597197407
 40
0.2131532783073677
 40
0.2131532783073677
 40
0.2146456875610248
 40
0.2146456875610248
 40
0.2161261646449061
 40
0.2161261646449061
 40
0.2162004087114706
 40
0.2162004087114706
 40
0.2162004087114706
 40
0.2162004087114706
 10
-59.99965330783482
 20
-2.069080955044008
 30
0.0
 10
-59.9996642284082
 20
-2.076825069170612
 30
0.0
 10
-59.99967524032531
 20
-2.086926433580798
 30
0.0
 10
-59.99968461876722
 20
-2.112030423025357
 30
0.0
 10
-59.99967805933977
 20
-2.127855095395118
 30
0.0
 10
-59.99959059951177
 20
-2.171345679616531
 30
0.0
 10
-59.99945895903728
 20
-2.200985468594499
 30
0.0
 10
-59.99901169219824
 20
-2.275727315454898
 30
0.0
 10
-59.99867579147629
 20
-2.321404824007156
 30
0.0
 10
-59.99761990445431
 20
-2.486368909527572
 30
0.0
 10
-59.99693764269733
 20
-2.605866606713763
 30
0.0
 10
-59.99431084347051
 20
-3.089797645691772
 30
0.0
 10
-59.99345648871659
 20
-3.435031682661681
 30
0.0
 10
-59.99776152412279
 20
-3.833410532620119
 30
0.0
 10
-59.99830406645665
 20
-3.877809433781683
 30
0.0
 10
-59.99904023845473
 20
-3.93271785045035
 30
0.0
 10
-59.99919110963222
 20
-3.943724504067064
 30
0.0
 10
-59.99945542839676
 20
-3.962632744535995
 30
0.0
 10
-59.99957024541422
 20
-3.970720670493756
 30
0.0
 10
-59.99973365684038
 20
-3.982092896175036
 30
0.0
 10
-59.99978917035322
 20
-3.985926338960201
 30
0.0
 10
-59.99987121663433
 20
-3.991569632826352
 30
0.0
 10
-59.99989792895082
 20
-3.993396423013552
 30
0.0
 10
-59.99991621758399
 20
-3.994647071965889
 30
0.0
 10
-59.99991707195031
 20
-3.994705493422825
 30
0.0
 10
-59.99991790801303
 20
-3.99476265998595
 30
0.0
  0
SPLINE
  5
18887
330
18877
100
AcDbEntity
  8
0
100
AcDbSpline
210
0.0
220
0.0
230
1.0
 70
     8
 71
     3
 72
    10
 73
     6
 74
     0
 42
0.000000001
 43
0.0000000001
 40
0.0
 40
0.0
 40
0.0
 40
0.0
 40
0.0016452785771765
 40
0.0016452785771765
 40
0.0026592691939744
 40
0.0026592691939744
 40
0.0026592691939744
 40
0.0026592691939744
 10
-62.00001774533607
 20
-4.000000128515413
 30
0.0
 10
-62.00002899027631
 20
-3.995159663337287
 30
0.0
 10
-62.00004680448083
 20
-3.990388866221096
 30
0.0
 10
-62.00008098294232
 20
-3.983587438698613
 30
0.0
 10
-62.0000952679215
 20
-3.981190963502417
 30
0.0
 10
-62.00010895891175
 20
-3.97912544226353
 30
0.0
  0
LINE
  5
18888
330
18877
100
AcDbEntity
  8
0
100
AcDbLine
 10
-60.0
 20
-2.00000000000006
 30
0.0
 11
-58.0
 21
-2.000000000000059
 31
0.0
  0
LINE
  5
18889
330
18877
100
AcDbEntity
  8
0
100
AcDbLine
 10
-58.0
 20
-2.000000000000006
 30
0.0
 11
58.0
 21
-2.000000000000006
 31
0.0
  0
LINE
  5
1888A
330
18877
100
AcDbEntity
  8
0
100
AcDbLine
 10
57.99999999999994
 20
-1.999999999999941
 30
0.0
 11
59.99999999999994
 21
-1.999999999999939
 31
0.0
  0
LINE
  5
1888B
330
18877
100
AcDbEntity
  8
0
100
AcDbLine
 10
64.0
 20
0.0
 30
0.0
 11
101.5
 21
0.0
 31
0.0
  0
ARC
  5
1888C
330
18877
100
AcDbEntity
  8
0
100
AcDbCircle
 10
64.0
 20
-4.000000000000004
 30
0.0
 40
4.000000000000003
100
AcDbArc
 50
90.0
 51
180.0
  0
LINE
  5
1888D
330
18877
100
AcDbEntity
  8
0
100
AcDbLine
 10
60.0
 20
-55.89155481853197
 30
0.0
 11
60.0
 21
-46.00000000000003
 31
0.0
  0
LINE
  5
1888E
330
18877
100
AcDbEntity
  8
0
100
AcDbLine
 10
61.99999999999999
 20
-55.89155481853197
 30
0.0
 11
60.0
 21
-55.89155481853197
 31
0.0
  0
LINE
  5
1888F
330
18877
100
AcDbEntity
  8
0
100
AcDbLine
 10
61.99999999999999
 20
-46.00000000000003
 30
0.0
 11
61.99999999999999
 21
-55.89155481853197
 31
0.0
  0
LINE
  5
18890
330
18877
100
AcDbEntity
  8
0
100
AcDbLine
 10
60.0
 20
-81.86824088833468
 30
0.0
 11
60.0
 21
-55.89155481853197
 31
0.0
  0
LINE
  5
18891
330
18877
100
AcDbEntity
  8
0
100
AcDbLine
 10
61.99999999999999
 20
-55.89155481853197
 30
0.0
 11
61.99999999999999
 21
-81.86824088833468
 31
0.0
  0
LINE
  5
18892
330
18877
100
AcDbEntity
  8
0
100
AcDbLine
 10
60.0
 20
-81.86824088833468
 30
0.0
 11
60.0
 21
-86.00000000000003
 31
0.0
  0
LINE
  5
18893
330
18877
100
AcDbEntity
  8
0
100
AcDbLine
 10
61.99999999999999
 20
-86.00000000000003
 30
0.0
 11
60.0
 21
-86.00000000000003
 31
0.0
  0
LINE
  5
18894
330
18877
100
AcDbEntity
  8
0
100
AcDbLine
 10
62.0
 20
-86.00000000000003
 30
0.0
 11
62.0
 21
-81.86824088833468
 31
0.0
  0
LINE
  5
18895
330
18877
100
AcDbEntity
  8
0
100
AcDbLine
 10
60.0
 20
-46.00000000000001
 30
0.0
 11
61.99999999999999
 21
-46.00000000000001
 31
0.0
  0
LINE
  5
18896
330
18877
100
AcDbEntity
  8
0
100
AcDbLine
 10
101.5
 20
0.0
 30
0.0
 11
101.5
 21
-2.00000000000001
 31
0.0
  0
LINE
  5
18897
330
18877
100
AcDbEntity
  8
0
100
AcDbLine
 10
62.0
 20
-4.000000000000003
 30
0.0
 11
61.99999999999999
 21
-46.00000000000001
 31
0.0
  0
LINE
  5
18898
330
18877
100
AcDbEntity
  8
0
100
AcDbLine
 10
60.0
 20
-46.00000000000001
 30
0.0
 11
60.0
 21
-4.000000000000003
 31
0.0
  0
LINE
  5
18899
330
18877
100
AcDbEntity
  8
0
100
AcDbLine
 10
60.0
 20
-86.00000000000001
 30
0.0
 11
57.99999999999998
 21
-86.00000000000001
 31
0.0
  0
ARC
  5
1889A
330
18877
100
AcDbEntity
  8
0
100
AcDbCircle
 10
64.0
 20
-4.000000000000004
 30
0.0
 40
2.000000000000001
100
AcDbArc
 50
90.0
 51
180.0
  0
LINE
  5
1889B
330
18877
100
AcDbEntity
  8
0
100
AcDbLine
 10
101.5
 20
-2.00000000000001
 30
0.0
 11
64.0
 21
-2.000000000000001
 31
0.0
  0
LINE
  5
1889C
330
18877
100
AcDbEntity
  8
0
100
AcDbLine
 10
-101.5
 20
-2.00000000000001
 30
0.0
 11
-64.0
 21
-2.000000000000001
 31
0.0
  0
LINE
  5
1889D
330
18877
100
AcDbEntity
  8
0
100
AcDbLine
 10
-101.5
 20
0.0
 30
0.0
 11
-101.5
 21
-2.00000000000001
 31
0.0
  0
LINE
  5
1889E
330
18877
100
AcDbEntity
  8
0
100
AcDbLine
 10
-62.0
 20
-4.000000000000003
 30
0.0
 11
-61.99999999999999
 21
-46.00000000000001
 31
0.0
  0
LINE
  5
1889F
330
18877
100
AcDbEntity
  8
0
100
AcDbLine
 10
-60.0
 20
-46.00000000000001
 30
0.0
 11
-60.0
 21
-4.000000000000003
 31
0.0
  0
LINE
  5
188A0
330
18877
100
AcDbEntity
  8
0
100
AcDbLine
 10
-64.0
 20
0.0
 30
0.0
 11
-101.5
 21
0.0
 31
0.0
  0
ARC
  5
188A1
330
18877
100
AcDbEntity
  8
0
100
AcDbCircle
 10
-64.0
 20
-4.000000000000004
 30
0.0
 40
2.000000000000001
100
AcDbArc
 50
0.0
 51
90.0
  0
ARC
  5
188A2
330
18877
100
AcDbEntity
  8
0
100
AcDbCircle
 10
-64.0
 20
-4.000000000000004
 30
0.0
 40
4.000000000000003
100
AcDbArc
 50
0.0
 51
90.0
  0
LINE
  5
188A3
330
18877
100
AcDbEntity
  8
0
100
AcDbLine
 10
-57.99999999999998
 20
-86.00000000000001
 30
0.0
 11
57.99999999999998
 21
-86.00000000000001
 31
0.0
  0
CIRCLE
  5
188A4
330
18877
100
AcDbEntity
  8
0
100
AcDbCircle
 10
0.0
 20
-67.99999999999998
 30
0.0
 40
2.5
  0
CIRCLE
  5
188A5
330
18877
100
AcDbEntity
  8
0
100
AcDbCircle
 10
0.0
 20
-47.99999999999998
 30
0.0
 40
2.5
  0
LINE
  5
188A6
330
18877
100
AcDbEntity
  8
0
100
AcDbLine
 10
-60.0
 20
-46.00000000000003
 30
0.0
 11
-60.0
 21
-55.89155481853197
 31
0.0
  0
LINE
  5
188A7
330
18877
100
AcDbEntity
  8
0
100
AcDbLine
 10
-61.99999999999999
 20
-55.89155481853197
 30
0.0
 11
-61.99999999999999
 21
-46.00000000000003
 31
0.0
  0
LINE
  5
188A8
330
18877
100
AcDbEntity
  8
0
100
AcDbLine
 10
-61.99999999999999
 20
-55.89155481853197
 30
0.0
 11
-60.0
 21
-55.89155481853197
 31
0.0
  0
LINE
  5
188A9
330
18877
100
AcDbEntity
  8
0
100
AcDbLine
 10
-60.0
 20
-55.89155481853197
 30
0.0
 11
-60.0
 21
-81.86824088833468
 31
0.0
  0
LINE
  5
188AA
330
18877
100
AcDbEntity
  8
0
100
AcDbLine
 10
-61.99999999999999
 20
-81.86824088833468
 30
0.0
 11
-61.99999999999999
 21
-55.89155481853197
 31
0.0
  0
LINE
  5
188AB
330
18877
100
AcDbEntity
  8
0
100
AcDbLine
 10
-60.0
 20
-86.00000000000003
 30
0.0
 11
-60.0
 21
-81.86824088833468
 31
0.0
  0
LINE
  5
188AC
330
18877
100
AcDbEntity
  8
0
100
AcDbLine
 10
-62.0
 20
-81.86824088833468
 30
0.0
 11
-62.0
 21
-86.00000000000003
 31
0.0
  0
LINE
  5
188AD
330
18877
100
AcDbEntity
  8
0
100
AcDbLine
 10
-60.0
 20
-86.00000000000003
 30
0.0
 11
-61.99999999999999
 21
-86.00000000000003
 31
0.0
  0
LINE
  5
188AE
330
18877
100
AcDbEntity
  8
0
100
AcDbLine
 10
-61.99999999999999
 20
-46.00000000000001
 30
0.0
 11
-60.0
 21
-46.00000000000001
 31
0.0
  0
LINE
  5
188AF
330
18877
100
AcDbEntity
  8
0
100
AcDbLine
 10
-60.0
 20
-86.00000000000001
 30
0.0
 11
-57.99999999999998
 21
-86.00000000000001
 31
0.0
  0
ENDBLK
  5
18879
330
18877
100
AcDbEntity
  8
0
100
AcDbBlockEnd
  0
BLOCK
  5
188B1
330
188B0
100
AcDbEntity
  8
0
100
AcDbBlockBegin
  2
SAEL380_120_2-Bottom
 70
     0
 10
0.0
 20
0.0
 30
0.0
  3
SAEL380_120_2-Bottom
  1

  0
LINE
  5
188B3
330
188B0
100
AcDbEntity
  8
0
100
AcDbLine
 10
64.13175911166542
 20
0.0
 30
0.0
 11
64.0
 21
0.0
 31
0.0
  0
SPLINE
  5
188B4
330
188B0
100
AcDbEntity
  8
0
100
AcDbSpline
210
0.0
220
0.0
230
1.0
 70
     8
 71
     3
 72
    17
 73
    13
 74
     0
 42
0.000000001
 43
0.0000000001
 40
0.0
 40
0.0
 40
0.0
 40
0.0
 40
0.261781108193879
 40
0.261781108193879
 40
0.261781108193879
 40
0.6625127830941434
 40
0.6625127830941434
 40
0.6625127830941434
 40
0.9325549540131666
 40
0.9325549540131666
 40
0.9325549540131666
 40
1.0
 40
1.0
 40
1.0
 40
1.0
 10
64.1317591116654
 20
0.0000000000000046
 30
0.0
 10
63.66353984426511
 20
0.0000027386115342
 30
0.0
 10
63.14136652738029
 20
0.1339233472870547
 30
0.0
 10
62.6476410155047
 20
0.3381654048683048
 30
0.0
 10
61.89185136865074
 20
0.6508169265319463
 30
0.0
 10
61.18089787064267
 20
1.11168413675207
 30
0.0
 10
60.68051291196465
 20
1.469384925780689
 30
0.0
 10
60.34331710489434
 20
1.710429753676503
 30
0.0
 10
60.11521516622678
 20
1.905468651238778
 30
0.0
 10
60.03032674272031
 20
1.974513308028864
 30
0.0
 10
60.00912522590663
 20
1.99175772595257
 30
0.0
 10
60.00000592074773
 20
1.998996119032313
 30
0.0
 10
59.99999999999996
 20
1.999999999999947
 30
0.0
  0
ARC
  5
188B5
330
188B0
100
AcDbEntity
  8
0
100
AcDbCircle
 10
64.0
 20
4.000000000000004
 30
0.0
 40
3.999999999999994
100
AcDbArc
 50
227.2690898082156
 51
270.0
  0
SPLINE
  5
188B6
330
188B0
100
AcDbEntity
  8
0
100
AcDbSpline
210
0.0
220
0.0
230
1.0
 70
     8
 71
     3
 72
    14
 73
    10
 74
     0
 42
0.000000001
 43
0.0000000001
 40
0.0
 40
0.0
 40
0.0
 40
0.0
 40
0.348559854941544
 40
0.348559854941544
 40
0.348559854941544
 40
0.8654995748602793
 40
0.8654995748602793
 40
0.8654995748602793
 40
1.0
 40
1.0
 40
1.0
 40
1.0
 10
64.13175911166544
 20
2.000000000000011
 30
0.0
 10
63.7253333521448
 20
2.000392936217105
 30
0.0
 10
63.33402563088935
 20
2.00002650580948
 30
0.0
 10
63.0088641646537
 20
1.999997840240097
 30
0.0
 10
62.52662596395098
 20
1.999955327107279
 30
0.0
 10
62.17434846327503
 20
2.000200767143466
 30
0.0
 10
62.04949116767849
 20
2.000192835568736
 30
0.0
 10
62.01700506012581
 20
2.000190771884844
 30
0.0
 10
62.00095375979771
 20
2.000021289363671
 30
0.0
 10
61.99999999999992
 20
2.000000000000094
 30
0.0
  0
ARC
  5
188B7
330
188B0
100
AcDbEntity
  8
0
100
AcDbCircle
 10
64.0
 20
4.000000000000004
 30
0.0
 40
1.999999999999992
100
AcDbArc
 50
180.1981750687838
 51
268.4577231628581
  0
SPLINE
  5
188B8
330
188B0
100
AcDbEntity
  8
0
100
AcDbSpline
210
0.0
220
0.0
230
1.0
 70
     8
 71
     3
 72
    24
 73
    20
 74
     0
 42
0.000000001
 43
0.0000000001
 40
0.0113383521882702
 40
0.0113383521882702
 40
0.0113383521882702
 40
0.0113383521882702
 40
0.011353364242266
 40
0.011353364242266
 40
0.0113721927277598
 40
0.0113721927277598
 40
0.0114102223030871
 40
0.0114102223030871
 40
0.0114856947806845
 40
0.0114856947806845
 40
0.0117873764302321
 40
0.0117873764302321
 40
0.0141790027719137
 40
0.0141790027719137
 40
0.0182372047904396
 40
0.0182372047904396
 40
0.0303887067973767
 40
0.0303887067973767
 40
0.0367664533272197
 40
0.0367664533272197
 40
0.0367664533272197
 40
0.0367664533272197
 10
63.87841960384722
 20
2.001769872716797
 30
0.0
 10
63.87841958400493
 20
2.001769873158121
 30
0.0
 10
63.87842622798324
 20
2.001769725382428
 30
0.0
 10
63.87845554716037
 20
2.001769075364012
 30
0.0
 10
63.87848221750234
 20
2.001768484919736
 30
0.0
 10
63.8785829319795
 20
2.001766261499313
 30
0.0
 10
63.87867824147306
 20
2.001764164909063
 30
0.0
 10
63.87898154829432
 20
2.001757523721895
 30
0.0
 10
63.87921597460214
 20
2.001752426775716
 30
0.0
 10
63.88039348435853
 20
2.001726997566764
 30
0.0
 10
63.88141136409401
 20
2.001705526230605
 30
0.0
 10
63.89033759881638
 20
2.001520703367946
 30
0.0
 10
63.89835185560077
 20
2.001376654078162
 30
0.0
 10
63.9198453023468
 20
2.001037179421571
 30
0.0
 10
63.93334175869636
 20
2.000875159555982
 30
0.0
 10
63.98698543463656
 20
2.000345609593548
 30
0.0
 10
64.02707169468181
 20
2.000187449712522
 30
0.0
 10
64.08841880298402
 20
2.000044629823974
 30
0.0
 10
64.10953324808629
 20
2.000021320882335
 30
0.0
 10
64.130608944941
 20
2.000001107553559
 30
0.0
  0
SPLINE
  5
188B9
330
188B0
100
AcDbEntity
  8
0
100
AcDbSpline
210
0.0
220
0.0
230
1.0
 70
     8
 71
     3
 72
     8
 73
     4
 74
     0
 42
0.000000001
 43
0.0000000001
 40
0.0
 40
0.0
 40
0.0
 40
0.0
 40
0.000318422871319
 40
0.000318422871319
 40
0.000318422871319
 40
0.000318422871319
 10
62.00001849632805
 20
3.999999594508192
 30
0.0
 10
62.00001238881529
 20
3.999550932631925
 30
0.0
 10
62.00000621685441
 20
3.999093113860017
 30
0.0
 10
61.99999999999988
 20
3.998627106963076
 30
0.0
  0
SPLINE
  5
188BA
330
188B0
100
AcDbEntity
  8
0
100
AcDbSpline
210
0.0
220
0.0
230
1.0
 70
     8
 71
     3
 72
     8
 73
     4
 74
     0
 42
0.000000001
 43
0.0000000001
 40
0.0
 40
0.0
 40
0.0
 40
0.0
 40
0.0023999599142848
 40
0.0023999599142848
 40
0.0023999599142848
 40
0.0023999599142848
 10
62.00009591881823
 20
3.999999456531901
 30
0.0
 10
62.00005025771773
 20
3.992527960714218
 30
0.0
 10
62.00001630236204
 20
3.984956868318139
 30
0.0
 10
61.99999999999996
 20
3.977537457161189
 30
0.0
  0
SPLINE
  5
188BB
330
188B0
100
AcDbEntity
  8
0
100
AcDbSpline
210
0.0
220
0.0
230
1.0
 70
     8
 71
     3
 72
    14
 73
    10
 74
     0
 42
0.000000001
 43
0.0000000001
 40
0.0045368368263906
 40
0.0045368368263906
 40
0.0045368368263906
 40
0.0045368368263906
 40
0.0053773124761385
 40
0.0053773124761385
 40
0.0067257469624375
 40
0.0067257469624375
 40
0.0074867510318054
 40
0.0074867510318054
 40
0.0080881374166512
 40
0.0080881374166512
 40
0.0080881374166512
 40
0.0080881374166512
 10
61.99999999999995
 20
3.958279173729052
 30
0.0
 10
62.00000585682468
 20
3.955866161278729
 30
0.0
 10
62.00001401469383
 20
3.953523229352407
 30
0.0
 10
62.00004007900968
 20
3.947738180714182
 30
0.0
 10
62.00006183408067
 20
3.94440735287151
 30
0.0
 10
62.00009261681384
 20
3.940531972647393
 30
0.0
 10
62.00010301425259
 20
3.939394770971553
 30
0.0
 10
62.00011517268714
 20
3.938134633721982
 30
0.0
 10
62.00011831917191
 20
3.937840477618482
 30
0.0
 10
62.00011831908728
 20
3.937840485582904
 30
0.0
  0
LINE
  5
188BC
330
188B0
100
AcDbEntity
  8
0
100
AcDbLine
 10
-64.0
 20
0.0
 30
0.0
 11
-64.13175911166542
 21
0.0
 31
0.0
  0
ARC
  5
188BD
330
188B0
100
AcDbEntity
  8
0
100
AcDbCircle
 10
-64.0
 20
4.000000000000004
 30
0.0
 40
3.999999999999994
100
AcDbArc
 50
270.0
 51
312.5711212966237
  0
SPLINE
  5
188BE
330
188B0
100
AcDbEntity
  8
0
100
AcDbSpline
210
0.0
220
0.0
230
1.0
 70
     8
 71
     3
 72
    17
 73
    13
 74
     0
 42
0.000000001
 43
0.0000000001
 40
0.0
 40
0.0
 40
0.0
 40
0.0
 40
0.3887969604032898
 40
0.3887969604032898
 40
0.3887969604032898
 40
0.7589260150786517
 40
0.7589260150786517
 40
0.7589260150786517
 40
0.9876827822009085
 40
0.9876827822009085
 40
0.9876827822009085
 40
1.0
 40
1.0
 40
1.0
 40
1.0
 10
-64.13175911166546
 20
0.0000000000000074
 30
0.0
 10
-63.41479181431079
 20
0.0000030911017691
 30
0.0
 10
-62.6433956910799
 20
0.3039348702462982
 30
0.0
 10
-61.94986397634036
 20
0.672562555872399
 30
0.0
 10
-61.28963186522081
 20
1.023490754144395
 30
0.0
 10
-60.71710505778066
 20
1.432679050805746
 30
0.0
 10
-60.36345203901017
 20
1.706865596818325
 30
0.0
 10
-60.14487821932473
 20
1.876325484017044
 30
0.0
 10
-60.01602507397457
 20
1.988136705347795
 30
0.0
 10
-60.00125653912393
 20
1.998997710296708
 30
0.0
 10
-60.00046133965238
 20
1.99958251207178
 30
0.0
 10
-60.00000002089466
 20
1.999892494308388
 30
0.0
 10
-59.99999999999574
 20
1.999999999999915
 30
0.0
  0
SPLINE
  5
188BF
330
188B0
100
AcDbEntity
  8
0
100
AcDbSpline
210
0.0
220
0.0
230
1.0
 70
     8
 71
     3
 72
    11
 73
     7
 74
     0
 42
0.000000001
 43
0.0000000001
 40
-1.0
 40
-1.0
 40
-1.0
 40
-1.0
 40
-0.3431304487040065
 40
-0.3431304487040065
 40
-0.3431304487040065
 40
0.0
 40
0.0
 40
0.0
 40
0.0
 10
-61.99999999999999
 20
2.000000000000035
 30
0.0
 10
-61.99998513133508
 20
2.001022898057999
 30
0.0
 10
-62.40850303499616
 20
2.00047507198056
 30
0.0
 10
-63.02395927112677
 20
2.000035680246237
 30
0.0
 10
-63.34545655174284
 20
1.999806154181804
 30
0.0
 10
-63.72797894222756
 20
1.999937013537953
 30
0.0
 10
-64.13175911198215
 20
1.999999999087712
 30
0.0
  0
ARC
  5
188C0
330
188B0
100
AcDbEntity
  8
0
100
AcDbCircle
 10
-64.0
 20
4.000000000000004
 30
0.0
 40
1.999999999999992
100
AcDbArc
 50
270.7785627568519
 51
359.9938164166529
  0
SPLINE
  5
188C1
330
188B0
100
AcDbEntity
  8
0
100
AcDbSpline
210
0.0
220
0.0
230
1.0
 70
     8
 71
     3
 72
    14
 73
    10
 74
     0
 42
0.000000001
 43
0.0000000001
 40
0.0029193854538388
 40
0.0029193854538388
 40
0.0029193854538388
 40
0.0029193854538388
 40
0.0033933488712117
 40
0.0033933488712117
 40
0.0046316444851512
 40
0.0046316444851512
 40
0.0064243293382653
 40
0.0064243293382653
 40
0.0070029461300756
 40
0.0070029461300756
 40
0.0070029461300756
 40
0.0070029461300756
 10
-62.00004424349035
 20
3.986612588080827
 30
0.0
 10
-62.00004424349042
 20
3.986612588063213
 30
0.0
 10
-62.00004380058119
 20
3.986710110089887
 30
0.0
 10
-62.00004097286042
 20
3.987347280712764
 30
0.0
 10
-62.00003660890192
 20
3.988342783508121
 30
0.0
 10
-62.00002400967033
 20
3.991644226160828
 30
0.0
 10
-62.00001397060095
 20
3.994788755150536
 30
0.0
 10
-62.00000593442902
 20
3.998330294185422
 30
0.0
 10
-62.00000431724533
 20
3.999137934834125
 30
0.0
 10
-62.00000296644262
 20
3.999887457706232
 30
0.0
  0
SPLINE
  5
188C2
330
188B0
100
AcDbEntity
  8
0
100
AcDbSpline
210
0.0
220
0.0
230
1.0
 70
     8
 71
     3
 72
    16
 73
    12
 74
     0
 42
0.000000001
 43
0.0000000001
 40
0.0076429795346761
 40
0.0076429795346761
 40
0.0076429795346761
 40
0.0076429795346761
 40
0.0083179321425188
 40
0.0083179321425188
 40
0.0092883379555153
 40
0.0092883379555153
 40
0.0110010925428881
 40
0.0110010925428881
 40
0.0124359326477502
 40
0.0124359326477502
 40
0.0135604733432498
 40
0.0135604733432498
 40
0.0135604733432498
 40
0.0135604733432498
 10
-62.00018576829801
 20
3.969421407063554
 30
0.0
 10
-62.00018576830199
 20
3.969421406648081
 30
0.0
 10
-62.00018457400571
 20
3.96954581171324
 30
0.0
 10
-62.00017873867494
 20
3.970174155322573
 30
0.0
 10
-62.00017275977649
 20
3.970824805353398
 30
0.0
 10
-62.0001501622641
 20
3.973455428960957
 30
0.0
 10
-62.00012807381217
 20
3.976165918886913
 30
0.0
 10
-62.00008542159223
 20
3.982749865159717
 30
0.0
 10
-62.00006519006965
 20
3.986414479383016
 30
0.0
 10
-62.0000360333034
 20
3.993427397313467
 30
0.0
 10
-62.00002543120342
 20
3.996691691783764
 30
0.0
 10
-62.00001774533607
 20
4.00000012851541
 30
0.0
  0
CIRCLE
  5
188C3
330
188B0
100
AcDbEntity
  8
0
100
AcDbCircle
 10
0.0
 20
67.99999999999998
 30
0.0
 40
2.5
  0
CIRCLE
  5
188C4
330
188B0
100
AcDbEntity
  8
0
100
AcDbCircle
 10
0.0
 20
47.99999999999998
 30
0.0
 40
2.5
  0
LINE
  5
188C5
330
188B0
100
AcDbEntity
  8
0
100
AcDbLine
 10
57.99999999999998
 20
86.00000000000001
 30
0.0
 11
-58.0
 21
86.00000000000001
 31
0.0
  0
LINE
  5
188C6
330
188B0
100
AcDbEntity
  8
0
100
AcDbLine
 10
58.0
 20
2.000000000000006
 30
0.0
 11
-58.0
 21
2.000000000000006
 31
0.0
  0
LINE
  5
188C7
330
188B0
100
AcDbEntity
  8
0
100
AcDbLine
 10
-62.00000000000001
 20
2.000000000000063
 30
0.0
 11
-58.0
 21
2.000000000000059
 31
0.0
  0
LINE
  5
188C8
330
188B0
100
AcDbEntity
  8
0
100
AcDbLine
 10
57.99999999999994
 20
1.999999999999941
 30
0.0
 11
61.99999999999995
 21
1.999999999999937
 31
0.0
  0
LINE
  5
188C9
330
188B0
100
AcDbEntity
  8
0
100
AcDbLine
 10
-57.99999999999998
 20
86.00000000000001
 30
0.0
 11
-61.99999999999999
 21
86.00000000000001
 31
0.0
  0
LINE
  5
188CA
330
188B0
100
AcDbEntity
  8
0
100
AcDbLine
 10
-62.00000000000001
 20
2.000000000000063
 30
0.0
 11
-61.99999999999999
 21
86.00000000000001
 31
0.0
  0
LINE
  5
188CB
330
188B0
100
AcDbEntity
  8
0
100
AcDbLine
 10
61.99999999999995
 20
1.999999999999937
 30
0.0
 11
61.99999999999999
 21
86.00000000000001
 31
0.0
  0
LINE
  5
188CC
330
188B0
100
AcDbEntity
  8
0
100
AcDbLine
 10
57.99999999999998
 20
86.00000000000001
 30
0.0
 11
61.99999999999999
 21
86.00000000000001
 31
0.0
  0
LINE
  5
188CD
330
188B0
100
AcDbEntity
  8
0
100
AcDbLine
 10
101.5
 20
0.0
 30
0.0
 11
91.60844518146811
 21
0.0
 31
0.0
  0
LINE
  5
188CE
330
188B0
100
AcDbEntity
  8
0
100
AcDbLine
 10
91.60844518146811
 20
0.0
 30
0.0
 11
64.13175911166542
 21
0.0
 31
0.0
  0
LINE
  5
188CF
330
188B0
100
AcDbEntity
  8
0
100
AcDbLine
 10
91.60844518146811
 20
1.999999999999984
 30
0.0
 11
91.60844518146811
 21
0.0
 31
0.0
  0
LINE
  5
188D0
330
188B0
100
AcDbEntity
  8
0
100
AcDbLine
 10
64.13175911166542
 20
2.000000000000005
 30
0.0
 11
91.60844518146811
 21
1.999999999999984
 31
0.0
  0
LINE
  5
188D1
330
188B0
100
AcDbEntity
  8
0
100
AcDbLine
 10
101.5
 20
1.999999999999984
 30
0.0
 11
101.5
 21
0.0
 31
0.0
  0
LINE
  5
188D2
330
188B0
100
AcDbEntity
  8
0
100
AcDbLine
 10
91.60844518146811
 20
1.999999999999984
 30
0.0
 11
101.5
 21
1.999999999999984
 31
0.0
  0
LINE
  5
188D3
330
188B0
100
AcDbEntity
  8
0
100
AcDbLine
 10
-101.5
 20
1.999999999999984
 30
0.0
 11
-91.60844518146811
 21
1.999999999999984
 31
0.0
  0
LINE
  5
188D4
330
188B0
100
AcDbEntity
  8
0
100
AcDbLine
 10
-91.60844518146811
 20
1.999999999999984
 30
0.0
 11
-64.13175911166542
 21
2.000000000000005
 31
0.0
  0
LINE
  5
188D5
330
188B0
100
AcDbEntity
  8
0
100
AcDbLine
 10
-64.13175911166542
 20
0.0
 30
0.0
 11
-91.60844518146811
 21
0.0
 31
0.0
  0
LINE
  5
188D6
330
188B0
100
AcDbEntity
  8
0
100
AcDbLine
 10
-91.60844518146811
 20
1.999999999999984
 30
0.0
 11
-91.60844518146811
 21
0.0
 31
0.0
  0
LINE
  5
188D7
330
188B0
100
AcDbEntity
  8
0
100
AcDbLine
 10
-91.60844518146811
 20
0.0
 30
0.0
 11
-101.5
 21
0.0
 31
0.0
  0
LINE
  5
188D8
330
188B0
100
AcDbEntity
  8
0
100
AcDbLine
 10
-101.5
 20
0.0
 30
0.0
 11
-101.5
 21
1.999999999999984
 31
0.0
  0
ENDBLK
  5
188B2
330
188B0
100
AcDbEntity
  8
0
100
AcDbBlockEnd
  0
BLOCK
  5
188DA
330
188D9
100
AcDbEntity
  8
0
100
AcDbBlockBegin
  2
SAEL380_120_2-ISO
 70
     0
 10
0.0
 20
0.0
 30
0.0
  3
SAEL380_120_2-ISO
  1

  0
SPLINE
  5
188DC
330
188D9
100
AcDbEntity
  8
0
100
AcDbSpline
210
0.0
220
0.0
230
1.0
 70
     8
 71
     3
 72
    14
 73
    10
 74
     0
 42
0.000000001
 43
0.0000000001
 40
0.0
 40
0.0
 40
0.0
 40
0.0
 40
0.348559854941544
 40
0.348559854941544
 40
0.348559854941544
 40
0.8654995748602793
 40
0.8654995748602793
 40
0.8654995748602793
 40
1.0
 40
1.0
 40
1.0
 40
1.0
 10
74.12535748297651
 20
-45.12131347759648
 30
0.0
 10
73.83769322450689
 20
-45.014064510617
 30
0.0
 10
73.56125598670257
 20
-44.99600770590975
 30
0.0
 10
73.3313523785653
 20
-45.06367555027296
 30
0.0
 10
72.9903885380257
 20
-45.1640319051908
 30
0.0
 10
72.74111717612433
 20
-45.44775190763184
 30
0.0
 10
72.65283534419769
 20
-45.88486155722555
 30
0.0
 10
72.6298656564977
 20
-45.99859132384566
 30
0.0
 10
72.61863551542884
 20
-46.12314036958721
 30
0.0
 10
72.61797615926155
 20
-46.25562265663895
 30
0.0
  0
LINE
  5
188DD
330
188D9
100
AcDbEntity
  8
0
100
AcDbLine
 10
74.03218972163478
 20
-45.06752304550603
 30
0.0
 11
74.12535748297651
 21
-45.12131347759647
 31
0.0
  0
ELLIPSE
  5
188DE
330
188D9
100
AcDbEntity
  8
0
100
AcDbEllipse
 10
72.61797615926169
 20
-45.88401962643376
 30
0.0
 11
1.999999999999992
 21
-0.0000000000001193
 31
0.0
210
0.0
220
0.0
230
1.0
 40
0.5773502691896258
 41
0.7853981633976899
 42
2.356194490192596
  0
LINE
  5
188DF
330
188D9
100
AcDbEntity
  8
0
100
AcDbLine
 10
71.20376259688858
 20
-47.07211923756665
 30
0.0
 11
71.20376259688858
 21
-45.06752304550603
 31
0.0
  0
LINE
  5
188E0
330
188D9
100
AcDbEntity
  8
0
100
AcDbLine
 10
72.61797615926169
 20
-46.25562265663888
 30
0.0
 11
71.20376259688857
 21
-47.07211923756662
 31
0.0
  0
ELLIPSE
  5
188E1
330
188D9
100
AcDbEntity
  8
0
100
AcDbEllipse
 10
-17.89169183261641
 20
6.371761552940702
 30
0.0
 11
3.999999999999994
 21
-0.0000000000000003
 31
0.0
210
0.0
220
0.0
230
1.0
 40
0.5773502691896258
 41
5.497787143782133
 42
6.283185307179587
  0
LINE
  5
188E2
330
188D9
100
AcDbEntity
  8
0
100
AcDbLine
 10
-15.06326470787022
 20
4.738768391085255
 30
0.0
 11
-15.06326470787022
 21
4.553068585149886
 31
0.0
  0
LINE
  5
188E3
330
188D9
100
AcDbEntity
  8
0
100
AcDbLine
 10
-15.06326470787022
 20
4.553068585149886
 30
0.0
 11
-15.06326470787022
 21
2.734172199024644
 31
0.0
  0
LINE
  5
188E4
330
188D9
100
AcDbEntity
  8
0
100
AcDbLine
 10
-13.72451592405288
 20
3.507099169738863
 30
0.0
 11
-15.06326470787022
 21
2.734172199024635
 31
0.0
  0
LINE
  5
188E5
330
188D9
100
AcDbEntity
  8
0
100
AcDbLine
 10
-13.64905114549716
 20
3.550668779952346
 30
0.0
 11
-13.72451592405288
 21
3.507099169738863
 31
0.0
  0
SPLINE
  5
188E6
330
188D9
100
AcDbEntity
  8
0
100
AcDbSpline
210
0.0
220
0.0
230
1.0
 70
     8
 71
     3
 72
    14
 73
    10
 74
     0
 42
0.000000001
 43
0.0000000001
 40
0.5576226294173621
 40
0.5576226294173621
 40
0.5576226294173621
 40
0.5576226294173621
 40
0.7589260150786517
 40
0.7589260150786517
 40
0.7589260150786517
 40
0.9876827822009085
 40
0.9876827822009085
 40
0.9876827822009085
 40
1.0
 40
1.0
 40
1.0
 40
1.0
 10
-13.85014792416713
 20
5.828360823445049
 30
0.0
 10
-13.7774378843548
 20
5.508094256361824
 30
0.0
 10
-13.72933417189974
 20
5.172834518044311
 30
0.0
 10
-13.69877322262846
 20
4.824031932975776
 30
0.0
 10
-13.66404442791635
 20
4.427660299870623
 30
0.0
 10
-13.65199396787777
 20
4.032635106977373
 30
0.0
 10
-13.64923092698657
 20
3.618081668476929
 30
0.0
 10
-13.64908215334864
 20
3.595760383491102
 30
0.0
 10
-13.64897514226832
 20
3.573317466451366
 30
0.0
 10
-13.64905114549405
 20
3.550668779980981
 30
0.0
  0
SPLINE
  5
188E7
330
188D9
100
AcDbEntity
  8
0
100
AcDbSpline
210
0.0
220
0.0
230
1.0
 70
     8
 71
     3
 72
    16
 73
    12
 74
     0
 42
0.000000001
 43
0.0000000001
 40
0.0
 40
0.0
 40
0.0
 40
0.0
 40
0.0133074359356758
 40
0.0133074359356758
 40
0.0242556098028331
 40
0.0242556098028331
 40
0.0413163936806458
 40
0.0413163936806458
 40
0.0578922816819508
 40
0.0578922816819508
 40
0.0674650901112341
 40
0.0674650901112341
 40
0.0674650901112341
 40
0.0674650901112341
 10
-13.89169189119509
 20
6.373239877128886
 30
0.0
 10
-13.89164317356274
 20
6.328882080533464
 30
0.0
 10
-13.89141253324434
 20
6.28422896612351
 30
0.0
 10
-13.89004848337305
 20
6.204847956266172
 30
0.0
 10
-13.88906790388325
 20
6.16946750804086
 30
0.0
 10
-13.88533291758072
 20
6.083410801726891
 30
0.0
 10
-13.88179745985312
 20
6.034500357543173
 30
0.0
 10
-13.87289867307856
 20
5.950559485721855
 30
0.0
 10
-13.86760867352766
 20
5.914227612682658
 30
0.0
 10
-13.8580226728879
 20
5.861211439381293
 30
0.0
 10
-13.85422692901504
 20
5.842569431760322
 30
0.0
 10
-13.85003588935308
 20
5.823951319571278
 30
0.0
  0
ELLIPSE
  5
188E8
330
188D9
100
AcDbEntity
  8
0
100
AcDbEllipse
 10
-17.89169183261639
 20
-64.21854743704887
 30
0.0
 11
-2.5
 21
-0.0000000000001495
 31
0.0
210
0.0
220
0.0
230
1.0
 40
0.5773502691896258
 41
3.74285687026858
 42
5.681921090500121
  0
ELLIPSE
  5
188E9
330
188D9
100
AcDbEntity
  8
0
100
AcDbEllipse
 10
-3.74955620888544
 20
-56.05358162777161
 30
0.0
 11
-2.5
 21
-0.0000000000001495
 31
0.0
210
0.0
220
0.0
230
1.0
 40
0.5773502691896258
 41
3.742856870268582
 42
5.681921090500121
  0
LINE
  5
188EA
330
188D9
100
AcDbEntity
  8
0
100
AcDbLine
 10
10.39257941484547
 20
-95.24541751230247
 30
0.0
 11
-71.63180720279402
 21
-47.88861581849435
 31
0.0
  0
LINE
  5
188EB
330
188D9
100
AcDbEntity
  8
0
100
AcDbLine
 10
-71.63180720279402
 20
-46.25562265663891
 30
0.0
 11
10.39257941484548
 21
-93.61242435044701
 31
0.0
  0
ELLIPSE
  5
188EC
330
188D9
100
AcDbEntity
  8
0
100
AcDbEllipse
 10
-17.89169183261639
 20
-62.58555427519342
 30
0.0
 11
-2.5
 21
0.0000000000001492
 31
0.0
210
0.0
220
0.0
230
1.0
 40
0.5773502691896258
 41
0.0
 42
6.283185307179586
  0
ELLIPSE
  5
188ED
330
188D9
100
AcDbEntity
  8
0
100
AcDbEllipse
 10
-3.74955620888544
 20
-54.42058846591615
 30
0.0
 11
-2.5
 21
0.0000000000001492
 31
0.0
210
0.0
220
0.0
230
1.0
 40
0.5773502691896258
 41
0.0
 42
6.283185307179586
  0
LINE
  5
188EE
330
188D9
100
AcDbEntity
  8
0
100
AcDbLine
 10
-13.64905114549716
 20
3.550668779952346
 30
0.0
 11
-13.64905114549716
 21
-9.513276514891252
 31
0.0
  0
ELLIPSE
  5
188EF
330
188D9
100
AcDbEntity
  8
0
100
AcDbEllipse
 10
-12.23483758312407
 20
-10.32977309581897
 30
0.0
 11
1.000000000000104
 21
-1.732050807568816
 31
0.0
210
0.0
220
0.0
230
1.0
 40
0.5773502691896263
 41
3.926990816986998
 42
5.497787143781895
  0
LINE
  5
188F0
330
188D9
100
AcDbEntity
  8
0
100
AcDbLine
 10
-12.23483758312403
 20
-11.96276625767441
 30
0.0
 11
40.09106422468044
 21
-42.17313975200025
 31
0.0
  0
LINE
  5
188F1
330
188D9
100
AcDbEntity
  8
0
100
AcDbLine
 10
46.20698558957542
 20
-45.70416859836495
 30
0.0
 11
47.05661831173665
 21
-46.19470427921705
 31
0.0
  0
LINE
  5
188F2
330
188D9
100
AcDbEntity
  8
0
100
AcDbLine
 10
72.61797615926169
 20
-46.25562265663888
 30
0.0
 11
72.61797615926169
 21
-59.31956795148247
 31
0.0
  0
ELLIPSE
  5
188F3
330
188D9
100
AcDbEntity
  8
0
100
AcDbEllipse
 10
69.7895490345155
 20
-57.68657478962702
 30
0.0
 11
2.000000000000003
 21
-3.464101615137753
 31
0.0
210
0.0
220
0.0
230
1.0
 40
0.5773502691896266
 41
0.0
 42
0.7853981633974492
  0
ELLIPSE
  5
188F4
330
188D9
100
AcDbEntity
  8
0
100
AcDbEllipse
 10
-71.63180720279402
 20
-44.62262949478345
 30
0.0
 11
2.000000000000208
 21
-3.464101615137638
 31
0.0
210
0.0
220
0.0
230
1.0
 40
0.5773502691896258
 41
3.926990816986997
 42
5.497787143781893
  0
LINE
  5
188F5
330
188D9
100
AcDbEntity
  8
0
100
AcDbLine
 10
-71.63180720279402
 20
-46.25562265663891
 30
0.0
 11
-12.23483758312403
 21
-11.96276625767441
 31
0.0
  0
LINE
  5
188F6
330
188D9
100
AcDbEntity
  8
0
100
AcDbLine
 10
-71.63180720279402
 20
-47.88861581849437
 30
0.0
 11
-71.63180720279402
 21
-46.25562265663891
 31
0.0
  0
ELLIPSE
  5
188F7
330
188D9
100
AcDbEntity
  8
0
100
AcDbEllipse
 10
-71.63180720279402
 20
-44.62262949478345
 30
0.0
 11
1.000000000000104
 21
-1.732050807568819
 31
0.0
210
0.0
220
0.0
230
1.0
 40
0.5773502691896258
 41
3.926990816986997
 42
5.497787143781896
  0
LINE
  5
188F8
330
188D9
100
AcDbEntity
  8
0
100
AcDbLine
 10
-74.46023432754021
 20
-42.989636332928
 30
0.0
 11
-73.04602076516713
 21
-43.80613291385573
 31
0.0
  0
LINE
  5
188F9
330
188D9
100
AcDbEntity
  8
0
100
AcDbLine
 10
-73.04602076516713
 20
-43.80613291385573
 30
0.0
 11
-13.64905114549716
 21
-9.513276514891252
 31
0.0
  0
LINE
  5
188FA
330
188D9
100
AcDbEntity
  8
0
100
AcDbLine
 10
72.61797615926169
 20
-59.31956795148247
 30
0.0
 11
13.22100653959167
 21
-93.61242435044701
 31
0.0
  0
ELLIPSE
  5
188FB
330
188D9
100
AcDbEntity
  8
0
100
AcDbEllipse
 10
10.39257941484548
 20
-91.97943118859155
 30
0.0
 11
2.000000000000002
 21
-3.464101615137759
 31
0.0
210
0.0
220
0.0
230
1.0
 40
0.5773502691896258
 41
5.497787143782137
 42
7.068583470577033
  0
ELLIPSE
  5
188FC
330
188D9
100
AcDbEntity
  8
0
100
AcDbEllipse
 10
88.17432534536571
 20
21.51359356036236
 30
0.0
 11
-3.25
 21
5.62916512459885
 31
0.0
210
0.0
220
0.0
230
0.9999999999999998
 40
0.577350269189626
 41
0.2193254863005984
 42
2.922267167289199
  0
ELLIPSE
  5
188FD
330
188D9
100
AcDbEntity
  8
0
100
AcDbEllipse
 10
95.95249993841775
 20
21.1053452698985
 30
0.0
 11
1.250000000000129
 21
-2.165063509461022
 31
0.0
210
0.0
220
0.0
230
1.0
 40
0.5773502691896259
 41
3.742856870268578
 42
5.681921090500111
  0
LINE
  5
188FE
330
188D9
100
AcDbEntity
  8
0
100
AcDbLine
 10
75.44640328400787
 20
45.19199440726641
 30
0.0
 11
101.9629075785034
 21
29.88268351487155
 31
0.0
  0
LINE
  5
188FF
330
188D9
100
AcDbEntity
  8
0
100
AcDbLine
 10
101.9629075785034
 20
-48.82758688656126
 30
0.0
 11
101.9629075785034
 21
29.88268351487155
 31
0.0
  0
ELLIPSE
  5
18900
330
188D9
100
AcDbEntity
  8
0
100
AcDbEllipse
 10
72.61797615926169
 20
43.55900124541094
 30
0.0
 11
4.000000000000003
 21
-0.0000000000002381
 31
0.0
210
0.0
220
0.0
230
1.0
 40
0.5773502691896259
 41
0.7853981633976881
 42
2.356194490192585
  0
LINE
  5
18901
330
188D9
100
AcDbEntity
  8
0
100
AcDbLine
 10
11.80679297721858
 20
-92.79592776951929
 30
0.0
 11
10.39257941484547
 21
-93.61242435044701
 31
0.0
  0
ELLIPSE
  5
18902
330
188D9
100
AcDbEntity
  8
0
100
AcDbEllipse
 10
45.39436508357957
 20
18.85997967234722
 30
0.0
 11
1.249999999999871
 21
2.16506350946117
 31
0.0
210
0.0
220
0.0
230
1.0
 40
0.577350269189626
 41
3.742856870268584
 42
5.681921090500121
  0
ELLIPSE
  5
18903
330
188D9
100
AcDbEntity
  8
0
100
AcDbEllipse
 10
46.80857864595266
 20
18.04348309141949
 30
0.0
 11
-1.25
 21
-2.165063509461096
 31
0.0
210
0.0
220
0.0
230
1.0
 40
0.577350269189626
 41
0.0
 42
6.283185307179586
  0
LINE
  5
18904
330
188D9
100
AcDbEntity
  8
0
100
AcDbLine
 10
74.12535748297651
 20
-45.12131347759647
 30
0.0
 11
93.55430852746795
 21
-52.38279474449386
 31
0.0
  0
LINE
  5
18905
330
188D9
100
AcDbEntity
  8
0
100
AcDbLine
 10
100.5486940161303
 20
-49.644083467489
 30
0.0
 11
101.9629075785034
 21
-48.82758688656126
 31
0.0
  0
LINE
  5
18906
330
188D9
100
AcDbEntity
  8
0
100
AcDbLine
 10
93.55430852746795
 20
-52.38279474449386
 30
0.0
 11
100.5486940161303
 21
-49.644083467489
 31
0.0
  0
LINE
  5
18907
330
188D9
100
AcDbEntity
  8
0
100
AcDbLine
 10
33.09667873601807
 20
-61.47983616004402
 30
0.0
 11
40.09106422468047
 21
-50.66470419364865
 31
0.0
  0
LINE
  5
18908
330
188D9
100
AcDbEntity
  8
0
100
AcDbLine
 10
34.51089229839117
 20
-62.29633274097174
 30
0.0
 11
33.09667873601807
 21
-61.47983616004402
 31
0.0
  0
LINE
  5
18909
330
188D9
100
AcDbEntity
  8
0
100
AcDbLine
 10
41.50527778705356
 20
-51.48120077457637
 30
0.0
 11
34.51089229839117
 21
-62.29633274097174
 31
0.0
  0
LINE
  5
1890A
330
188D9
100
AcDbEntity
  8
0
100
AcDbLine
 10
41.50527778705356
 20
-51.48120077457637
 30
0.0
 11
40.09106422468047
 21
-50.66470419364865
 31
0.0
  0
LINE
  5
1890B
330
188D9
100
AcDbEntity
  8
0
100
AcDbLine
 10
14.72838786330643
 20
-75.82464712335857
 30
0.0
 11
33.09667873601807
 21
-61.47983616004402
 31
0.0
  0
LINE
  5
1890C
330
188D9
100
AcDbEntity
  8
0
100
AcDbLine
 10
16.14260142567953
 20
-76.64114370428629
 30
0.0
 11
14.72838786330643
 21
-75.82464712335857
 31
0.0
  0
LINE
  5
1890D
330
188D9
100
AcDbEntity
  8
0
100
AcDbLine
 10
34.51089229839117
 20
-62.29633274097174
 30
0.0
 11
16.14260142567953
 21
-76.64114370428629
 31
0.0
  0
ELLIPSE
  5
1890E
330
188D9
100
AcDbEntity
  8
0
100
AcDbEllipse
 10
15.3423268831513
 20
-79.49065008101303
 30
0.0
 11
2.500000000000258
 21
4.330127018922044
 31
0.0
210
0.0
220
0.0
230
1.0
 40
0.5773502691896259
 41
0.9599310885970764
 42
2.356194490192585
  0
LINE
  5
1890F
330
188D9
100
AcDbEntity
  8
0
100
AcDbLine
 10
13.22100653959165
 20
-82.34838811426007
 30
0.0
 11
11.80679297721855
 21
-81.53189153333235
 31
0.0
  0
ELLIPSE
  5
18910
330
188D9
100
AcDbEntity
  8
0
100
AcDbEllipse
 10
16.75654044552439
 20
-80.30714666194075
 30
0.0
 11
-2.499999999999743
 21
-4.330127018922341
 31
0.0
210
0.0
220
0.0
230
1.0
 40
0.577350269189626
 41
4.101523742186525
 42
5.497787143781945
  0
LINE
  5
18911
330
188D9
100
AcDbEntity
  8
0
100
AcDbLine
 10
40.09106422468047
 20
-50.66470419364865
 30
0.0
 11
40.09106422468049
 21
28.04556620778415
 31
0.0
  0
LINE
  5
18912
330
188D9
100
AcDbEntity
  8
0
100
AcDbLine
 10
41.50527778705359
 20
27.22906962685643
 30
0.0
 11
41.50527778705356
 21
-51.48120077457637
 31
0.0
  0
LINE
  5
18913
330
188D9
100
AcDbEntity
  8
0
100
AcDbLine
 10
40.09106422468049
 20
28.04556620778415
 30
0.0
 11
41.50527778705359
 21
27.22906962685643
 31
0.0
  0
LINE
  5
18914
330
188D9
100
AcDbEntity
  8
0
100
AcDbLine
 10
101.9629075785034
 20
29.88268351487155
 30
0.0
 11
100.5486940161303
 21
29.06618693394382
 31
0.0
  0
LINE
  5
18915
330
188D9
100
AcDbEntity
  8
0
100
AcDbLine
 10
100.5486940161303
 20
-49.644083467489
 30
0.0
 11
100.5486940161303
 21
29.06618693394382
 31
0.0
  0
LINE
  5
18916
330
188D9
100
AcDbEntity
  8
0
100
AcDbLine
 10
13.22100653959165
 20
-82.34838811426007
 30
0.0
 11
13.22100653959167
 21
-93.61242435044701
 31
0.0
  0
LINE
  5
18917
330
188D9
100
AcDbEntity
  8
0
100
AcDbLine
 10
71.20376259688858
 20
-45.06752304550603
 30
0.0
 11
71.20376259688858
 21
44.37549782633868
 31
0.0
  0
LINE
  5
18918
330
188D9
100
AcDbEntity
  8
0
100
AcDbLine
 10
71.20376259688858
 20
44.37549782633867
 30
0.0
 11
41.50527778705359
 21
27.22906962685643
 31
0.0
  0
LINE
  5
18919
330
188D9
100
AcDbEntity
  8
0
100
AcDbLine
 10
40.09106422468049
 20
28.04556620778415
 30
0.0
 11
69.78954903451549
 21
45.19199440726641
 31
0.0
  0
LINE
  5
1891A
330
188D9
100
AcDbEntity
  8
0
100
AcDbLine
 10
11.80679297721856
 20
-92.79592776951927
 30
0.0
 11
11.80679297721855
 21
-81.53189153333235
 31
0.0
  0
LINE
  5
1891B
330
188D9
100
AcDbEntity
  8
0
100
AcDbLine
 10
10.39257941484547
 20
-93.61242435044701
 30
0.0
 11
10.39257941484547
 21
-95.24541751230247
 31
0.0
  0
LINE
  5
1891C
330
188D9
100
AcDbEntity
  8
0
100
AcDbLine
 10
11.80679297721856
 20
-92.79592776951927
 30
0.0
 11
13.22100653959167
 21
-93.61242435044701
 31
0.0
  0
ELLIPSE
  5
1891D
330
188D9
100
AcDbEntity
  8
0
100
AcDbEllipse
 10
10.39257941484548
 20
-91.97943118859155
 30
0.0
 11
1.000000000000001
 21
-1.732050807568879
 31
0.0
210
0.0
220
0.0
230
1.0
 40
0.5773502691896258
 41
5.49778714378214
 42
7.068583470577038
  0
LINE
  5
1891E
330
188D9
100
AcDbEntity
  8
0
100
AcDbLine
 10
74.03218972163478
 20
-45.06752304550603
 30
0.0
 11
74.03218972163478
 21
44.37549782633867
 31
0.0
  0
ELLIPSE
  5
1891F
330
188D9
100
AcDbEntity
  8
0
100
AcDbEllipse
 10
72.61797615926169
 20
43.55900124541094
 30
0.0
 11
-2.000000000000002
 21
-0.0000000000001193
 31
0.0
210
0.0
220
0.0
230
1.0
 40
0.5773502691896257
 41
3.926990816987
 42
5.497787143781896
  0
LINE
  5
18920
330
188D9
100
AcDbEntity
  8
0
100
AcDbLine
 10
71.20376259688858
 20
44.37549782633867
 30
0.0
 11
69.78954903451549
 21
45.19199440726641
 31
0.0
  0
LINE
  5
18921
330
188D9
100
AcDbEntity
  8
0
100
AcDbLine
 10
74.03218972163478
 20
44.37549782633867
 30
0.0
 11
75.44640328400787
 21
45.19199440726641
 31
0.0
  0
LINE
  5
18922
330
188D9
100
AcDbEntity
  8
0
100
AcDbLine
 10
100.5486940161303
 20
29.06618693394382
 30
0.0
 11
74.03218972163478
 21
44.37549782633867
 31
0.0
  0
ELLIPSE
  5
18923
330
188D9
100
AcDbEntity
  8
0
100
AcDbEllipse
 10
86.76011178299262
 20
20.69709697943463
 30
0.0
 11
-3.25
 21
5.62916512459885
 31
0.0
210
0.0
220
0.0
230
1.0
 40
0.5773502691896258
 41
0.0
 42
6.283185307179586
  0
ELLIPSE
  5
18924
330
188D9
100
AcDbEntity
  8
0
100
AcDbEllipse
 10
94.53828637604466
 20
20.28884868897077
 30
0.0
 11
-1.25
 21
2.165063509461097
 31
0.0
210
0.0
220
0.0
230
1.0
 40
0.5773502691896259
 41
0.0
 42
6.283185307179586
  0
LINE
  5
18925
330
188D9
100
AcDbEntity
  8
0
100
AcDbLine
 10
12.39257941484548
 20
-95.44353280372931
 30
0.0
 11
71.78954903451553
 21
-61.15067640476481
 31
0.0
  0
ELLIPSE
  5
18926
330
188D9
100
AcDbEntity
  8
0
100
AcDbEllipse
 10
88.17432534536571
 20
-35.64116710457847
 30
0.0
 11
-3.249999999999998
 21
5.629165124598853
 31
0.0
210
0.0
220
0.0
230
1.0
 40
0.5773502691896258
 41
0.2193254863005931
 42
2.922267167289199
  0
ELLIPSE
  5
18927
330
188D9
100
AcDbEntity
  8
0
100
AcDbEllipse
 10
86.76011178299262
 20
-36.45766368550619
 30
0.0
 11
-3.25
 21
5.62916512459885
 31
0.0
210
0.0
220
0.0
230
1.0
 40
0.5773502691896258
 41
0.0
 42
6.283185307179586
  0
ELLIPSE
  5
18928
330
188D9
100
AcDbEntity
  8
0
100
AcDbEllipse
 10
80.3961507523137
 20
-27.06795300483734
 30
0.0
 11
1.250000000000129
 21
-2.165063509461022
 31
0.0
210
0.0
220
0.0
230
1.0
 40
0.5773502691896259
 41
3.742856870268584
 42
5.681921090500111
  0
ELLIPSE
  5
18929
330
188D9
100
AcDbEntity
  8
0
100
AcDbEllipse
 10
80.3961507523137
 20
-10.73802138628282
 30
0.0
 11
1.250000000000129
 21
-2.165063509461022
 31
0.0
210
0.0
220
0.0
230
1.0
 40
0.5773502691896259
 41
3.742856870268585
 42
5.68192109050011
  0
ELLIPSE
  5
1892A
330
188D9
100
AcDbEntity
  8
0
100
AcDbEllipse
 10
80.3961507523137
 20
5.591910232271697
 30
0.0
 11
1.250000000000129
 21
-2.165063509461022
 31
0.0
210
0.0
220
0.0
230
1.0
 40
0.5773502691896259
 41
3.742856870268585
 42
5.68192109050011
  0
ELLIPSE
  5
1892B
330
188D9
100
AcDbEntity
  8
0
100
AcDbEllipse
 10
80.3961507523137
 20
21.92184185082622
 30
0.0
 11
1.250000000000129
 21
-2.165063509461022
 31
0.0
210
0.0
220
0.0
230
1.0
 40
0.5773502691896259
 41
3.742856870268584
 42
5.681921090500111
  0
ELLIPSE
  5
1892C
330
188D9
100
AcDbEntity
  8
0
100
AcDbEllipse
 10
78.98193718994059
 20
-27.88444958576507
 30
0.0
 11
-1.25
 21
2.165063509461097
 31
0.0
210
0.0
220
0.0
230
1.0
 40
0.5773502691896259
 41
0.0
 42
6.283185307179586
  0
ELLIPSE
  5
1892D
330
188D9
100
AcDbEntity
  8
0
100
AcDbEllipse
 10
78.98193718994059
 20
-11.55451796721055
 30
0.0
 11
-1.25
 21
2.165063509461097
 31
0.0
210
0.0
220
0.0
230
1.0
 40
0.5773502691896259
 41
0.0
 42
6.283185307179586
  0
ELLIPSE
  5
1892E
330
188D9
100
AcDbEntity
  8
0
100
AcDbEllipse
 10
78.98193718994059
 20
4.775413651343969
 30
0.0
 11
-1.25
 21
2.165063509461097
 31
0.0
210
0.0
220
0.0
230
1.0
 40
0.5773502691896259
 41
0.0
 42
6.283185307179586
  0
ELLIPSE
  5
1892F
330
188D9
100
AcDbEntity
  8
0
100
AcDbEllipse
 10
78.98193718994059
 20
21.10534526989849
 30
0.0
 11
-1.25
 21
2.165063509461097
 31
0.0
210
0.0
220
0.0
230
1.0
 40
0.5773502691896259
 41
0.0
 42
6.283185307179586
  0
ELLIPSE
  5
18930
330
188D9
100
AcDbEntity
  8
0
100
AcDbEllipse
 10
80.3961507523137
 20
38.25177346938073
 30
0.0
 11
1.250000000000129
 21
-2.165063509461022
 31
0.0
210
0.0
220
0.0
230
1.0
 40
0.5773502691896259
 41
3.742856870268584
 42
5.681921090500111
  0
ELLIPSE
  5
18931
330
188D9
100
AcDbEntity
  8
0
100
AcDbEllipse
 10
-21.42722573854915
 20
95.40653413432155
 30
0.0
 11
1.25
 21
-2.165063509461096
 31
0.0
210
0.0
220
0.0
230
1.0
 40
0.5773502691896259
 41
0.0
 42
6.283185307179586
  0
ELLIPSE
  5
18932
330
188D9
100
AcDbEntity
  8
0
100
AcDbEllipse
 10
-20.01301217617605
 20
96.22303071524928
 30
0.0
 11
1.25000000000013
 21
-2.165063509461022
 31
0.0
210
0.0
220
0.0
230
1.0
 40
0.5773502691896259
 41
3.742856870268576
 42
5.681921090500109
  0
ELLIPSE
  5
18933
330
188D9
100
AcDbEntity
  8
0
100
AcDbEllipse
 10
78.98193718994059
 20
37.43527688845301
 30
0.0
 11
-1.25
 21
2.165063509461097
 31
0.0
210
0.0
220
0.0
230
1.0
 40
0.5773502691896259
 41
0.0
 42
6.283185307179586
  0
ELLIPSE
  5
18934
330
188D9
100
AcDbEntity
  8
0
100
AcDbEllipse
 10
95.95249993841775
 20
-44.21438120431959
 30
0.0
 11
1.250000000000129
 21
-2.165063509461022
 31
0.0
210
0.0
220
0.0
230
1.0
 40
0.5773502691896258
 41
3.742856870268582
 42
5.681921090500111
  0
ELLIPSE
  5
18935
330
188D9
100
AcDbEntity
  8
0
100
AcDbEllipse
 10
95.95249993841775
 20
-27.88444958576507
 30
0.0
 11
1.250000000000129
 21
-2.165063509461022
 31
0.0
210
0.0
220
0.0
230
1.0
 40
0.5773502691896259
 41
3.742856870268578
 42
5.681921090500111
  0
ELLIPSE
  5
18936
330
188D9
100
AcDbEntity
  8
0
100
AcDbEllipse
 10
95.95249993841775
 20
-11.55451796721055
 30
0.0
 11
1.250000000000129
 21
-2.165063509461022
 31
0.0
210
0.0
220
0.0
230
1.0
 40
0.5773502691896259
 41
3.74285687026858
 42
5.681921090500111
  0
ELLIPSE
  5
18937
330
188D9
100
AcDbEntity
  8
0
100
AcDbEllipse
 10
95.95249993841775
 20
4.775413651343973
 30
0.0
 11
1.250000000000129
 21
-2.165063509461022
 31
0.0
210
0.0
220
0.0
230
1.0
 40
0.5773502691896259
 41
3.74285687026858
 42
5.681921090500111
  0
ELLIPSE
  5
18938
330
188D9
100
AcDbEntity
  8
0
100
AcDbEllipse
 10
94.53828637604466
 20
-45.03087778524732
 30
0.0
 11
-1.25
 21
2.165063509461097
 31
0.0
210
0.0
220
0.0
230
1.0
 40
0.5773502691896259
 41
0.0
 42
6.283185307179586
  0
ELLIPSE
  5
18939
330
188D9
100
AcDbEntity
  8
0
100
AcDbEllipse
 10
94.53828637604466
 20
-28.7009461666928
 30
0.0
 11
-1.25
 21
2.165063509461097
 31
0.0
210
0.0
220
0.0
230
1.0
 40
0.5773502691896259
 41
0.0
 42
6.283185307179586
  0
ELLIPSE
  5
1893A
330
188D9
100
AcDbEntity
  8
0
100
AcDbEllipse
 10
94.53828637604466
 20
-12.37101454813828
 30
0.0
 11
-1.25
 21
2.165063509461097
 31
0.0
210
0.0
220
0.0
230
1.0
 40
0.5773502691896259
 41
0.0
 42
6.283185307179586
  0
ELLIPSE
  5
1893B
330
188D9
100
AcDbEntity
  8
0
100
AcDbEllipse
 10
94.53828637604466
 20
3.958917070416241
 30
0.0
 11
-1.25
 21
2.165063509461097
 31
0.0
210
0.0
220
0.0
230
1.0
 40
0.5773502691896259
 41
0.0
 42
6.283185307179586
  0
ELLIPSE
  5
1893C
330
188D9
100
AcDbEntity
  8
0
100
AcDbEllipse
 10
-29.20540033160117
 20
87.64981661550818
 30
0.0
 11
-3.250000000000003
 21
5.629165124598854
 31
0.0
210
0.0
220
0.0
230
1.0
 40
0.577350269189626
 41
4.712388980384693
 42
7.853981633974483
  0
ELLIPSE
  5
1893D
330
188D9
100
AcDbEntity
  8
0
100
AcDbEllipse
 10
-27.79118676922807
 20
88.4663131964359
 30
0.0
 11
-3.250000000000002
 21
5.62916512459885
 31
0.0
210
0.0
220
0.0
230
1.0
 40
0.5773502691896259
 41
0.2193254863005922
 42
1.570796326794897
  0
ELLIPSE
  5
1893E
330
188D9
100
AcDbEntity
  8
0
100
AcDbEllipse
 10
-36.98357492465321
 20
96.22303071524928
 30
0.0
 11
1.25
 21
-2.165063509461096
 31
0.0
210
0.0
220
0.0
230
1.0
 40
0.5773502691896259
 41
0.0
 42
6.283185307179586
  0
ELLIPSE
  5
1893F
330
188D9
100
AcDbEntity
  8
0
100
AcDbEllipse
 10
-35.5693613622801
 20
97.03952729617704
 30
0.0
 11
1.25000000000013
 21
-2.165063509461022
 31
0.0
210
0.0
220
0.0
230
1.0
 40
0.5773502691896259
 41
3.742856870268576
 42
5.681921090500115
  0
LINE
  5
18940
330
188D9
100
AcDbEntity
  8
0
100
AcDbLine
 10
-16.47747827024332
 20
94.99828584385767
 30
0.0
 11
-16.47747827024331
 21
96.63127900571314
 31
0.0
  0
ELLIPSE
  5
18941
330
188D9
100
AcDbEntity
  8
0
100
AcDbEllipse
 10
-17.89169183261641
 20
95.81478242478542
 30
0.0
 11
2.000000000000002
 21
0.0
 31
0.0
210
0.0
220
0.0
230
1.0
 40
0.5773502691896257
 41
5.497787143782129
 42
7.068583470577027
  0
LINE
  5
18942
330
188D9
100
AcDbEntity
  8
0
100
AcDbLine
 10
-16.47747827024331
 20
94.99828584385769
 30
0.0
 11
-15.06326470787022
 21
94.18178926292997
 31
0.0
  0
ELLIPSE
  5
18943
330
188D9
100
AcDbEntity
  8
0
100
AcDbEllipse
 10
-17.89169183261641
 20
95.81478242478542
 30
0.0
 11
4.000000000000003
 21
0.0000000000000001
 31
0.0
210
0.0
220
0.0
230
1.0
 40
0.5773502691896258
 41
5.497787143782137
 42
7.068583470577034
  0
LINE
  5
18944
330
188D9
100
AcDbEntity
  8
0
100
AcDbLine
 10
-15.06326470787022
 20
94.18178926292997
 30
0.0
 11
-15.06326470787022
 21
4.738768391085255
 31
0.0
  0
LINE
  5
18945
330
188D9
100
AcDbEntity
  8
0
100
AcDbLine
 10
-16.47747827024331
 20
96.63127900571314
 30
0.0
 11
-15.06326470787022
 21
97.44777558664086
 31
0.0
  0
LINE
  5
18946
330
188D9
100
AcDbEntity
  8
0
100
AcDbLine
 10
-13.89169183261642
 20
6.37176155294072
 30
0.0
 11
-13.89169183261642
 21
95.81478242478542
 31
0.0
  0
LINE
  5
18947
330
188D9
100
AcDbEntity
  8
0
100
AcDbLine
 10
-42.99398256473885
 20
111.940589898108
 30
0.0
 11
-16.47747827024331
 21
96.63127900571314
 31
0.0
  0
LINE
  5
18948
330
188D9
100
AcDbEntity
  8
0
100
AcDbLine
 10
-42.99398256473887
 20
79.68897495146281
 30
0.0
 11
-42.99398256473885
 21
111.940589898108
 31
0.0
  0
LINE
  5
18949
330
188D9
100
AcDbEntity
  8
0
100
AcDbLine
 10
-41.57976900236576
 20
112.7570864790357
 30
0.0
 11
-42.99398256473885
 21
111.940589898108
 31
0.0
  0
LINE
  5
1894A
330
188D9
100
AcDbEntity
  8
0
100
AcDbLine
 10
-16.47747827024331
 20
94.99828584385769
 30
0.0
 11
-46.17596308007832
 21
77.85185764437542
 31
0.0
  0
LINE
  5
1894B
330
188D9
100
AcDbEntity
  8
0
100
AcDbLine
 10
-74.46023432754024
 20
-31.72560009674107
 30
0.0
 11
-74.46023432754021
 21
-42.989636332928
 31
0.0
  0
LINE
  5
1894C
330
188D9
100
AcDbEntity
  8
0
100
AcDbLine
 10
-44.76174951770523
 20
77.0353610634477
 30
0.0
 11
-15.06326470787022
 21
94.18178926292997
 31
0.0
  0
LINE
  5
1894D
330
188D9
100
AcDbEntity
  8
0
100
AcDbLine
 10
-15.06326470787022
 20
97.44777558664086
 30
0.0
 11
-41.57976900236576
 21
112.7570864790357
 31
0.0
  0
LINE
  5
1894E
330
188D9
100
AcDbEntity
  8
0
100
AcDbLine
 10
-73.04602076516713
 20
-43.80613291385573
 30
0.0
 11
-73.04602076516714
 21
-32.54209667766879
 31
0.0
  0
LINE
  5
1894F
330
188D9
100
AcDbEntity
  8
0
100
AcDbLine
 10
-40.0217822280718
 20
28.63452778291794
 30
0.0
 11
-39.37178821693557
 21
27.62946865096129
 31
0.0
  0
LINE
  5
18950
330
188D9
100
AcDbEntity
  8
0
100
AcDbLine
 10
-44.76174951770524
 20
-1.674909337985095
 30
0.0
 11
-51.75613500636763
 21
-12.49004130438046
 31
0.0
  0
LINE
  5
18951
330
188D9
100
AcDbEntity
  8
0
100
AcDbLine
 10
-46.17596308007833
 20
-0.8584127570573674
 30
0.0
 11
-44.76174951770524
 21
-1.674909337985095
 31
0.0
  0
LINE
  5
18952
330
188D9
100
AcDbEntity
  8
0
100
AcDbLine
 10
-53.17034856874073
 20
-11.67354472345273
 30
0.0
 11
-46.17596308007833
 21
-0.8584127570573674
 31
0.0
  0
LINE
  5
18953
330
188D9
100
AcDbEntity
  8
0
100
AcDbLine
 10
-53.17034856874073
 20
-11.67354472345273
 30
0.0
 11
-51.75613500636763
 21
-12.49004130438046
 31
0.0
  0
LINE
  5
18954
330
188D9
100
AcDbEntity
  8
0
100
AcDbLine
 10
-51.75613500636763
 20
-12.49004130438046
 30
0.0
 11
-70.12442587907926
 21
-26.83485226769501
 31
0.0
  0
LINE
  5
18955
330
188D9
100
AcDbEntity
  8
0
100
AcDbLine
 10
-71.53863944145236
 20
-26.0183556867673
 30
0.0
 11
-53.17034856874073
 21
-11.67354472345273
 31
0.0
  0
LINE
  5
18956
330
188D9
100
AcDbEntity
  8
0
100
AcDbLine
 10
-71.53863944145236
 20
-26.0183556867673
 30
0.0
 11
-70.12442587907926
 21
-26.83485226769501
 31
0.0
  0
ELLIPSE
  5
18957
330
188D9
100
AcDbEntity
  8
0
100
AcDbEllipse
 10
-69.5104868592344
 20
-30.50085522534948
 30
0.0
 11
-2.499999999999741
 21
-4.330127018922342
 31
0.0
210
0.0
220
0.0
230
1.0
 40
0.5773502691896259
 41
4.101523742186527
 42
5.497787143781942
  0
ELLIPSE
  5
18958
330
188D9
100
AcDbEntity
  8
0
100
AcDbEllipse
 10
-70.9247004216075
 20
-29.68435864442175
 30
0.0
 11
2.500000000000258
 21
4.330127018922044
 31
0.0
210
0.0
220
0.0
230
1.0
 40
0.5773502691896259
 41
0.9599310885970746
 42
2.356194490192587
  0
LINE
  5
18959
330
188D9
100
AcDbEntity
  8
0
100
AcDbLine
 10
-73.04602076516714
 20
-32.54209667766879
 30
0.0
 11
-74.46023432754024
 21
-31.72560009674107
 31
0.0
  0
LINE
  5
1895A
330
188D9
100
AcDbEntity
  8
0
100
AcDbLine
 10
-44.76174951770523
 20
77.0353610634477
 30
0.0
 11
-44.76174951770524
 21
-1.674909337985095
 31
0.0
  0
LINE
  5
1895B
330
188D9
100
AcDbEntity
  8
0
100
AcDbLine
 10
-46.17596308007832
 20
77.85185764437542
 30
0.0
 11
-44.76174951770523
 21
77.0353610634477
 31
0.0
  0
LINE
  5
1895C
330
188D9
100
AcDbEntity
  8
0
100
AcDbLine
 10
-46.17596308007833
 20
-0.8584127570573674
 30
0.0
 11
-46.17596308007832
 21
77.85185764437542
 31
0.0
  0
ELLIPSE
  5
1895D
330
188D9
100
AcDbEntity
  8
0
100
AcDbEllipse
 10
45.39436508357957
 20
-46.45974680187086
 30
0.0
 11
1.249999999999871
 21
2.16506350946117
 31
0.0
210
0.0
220
0.0
230
1.0
 40
0.577350269189626
 41
3.742856870268584
 42
5.681921090500118
  0
ELLIPSE
  5
1895E
330
188D9
100
AcDbEntity
  8
0
100
AcDbEllipse
 10
46.80857864595266
 20
-47.27624338279859
 30
0.0
 11
-1.25
 21
-2.165063509461096
 31
0.0
210
0.0
220
0.0
230
1.0
 40
0.577350269189626
 41
0.0
 42
6.283185307179586
  0
ELLIPSE
  5
1895F
330
188D9
100
AcDbEntity
  8
0
100
AcDbEllipse
 10
45.39436508357957
 20
-30.12981518331635
 30
0.0
 11
1.249999999999871
 21
2.16506350946117
 31
0.0
210
0.0
220
0.0
230
1.0
 40
0.577350269189626
 41
3.742856870268584
 42
5.681921090500121
  0
ELLIPSE
  5
18960
330
188D9
100
AcDbEntity
  8
0
100
AcDbEllipse
 10
46.80857864595266
 20
-30.94631176424407
 30
0.0
 11
-1.25
 21
-2.165063509461096
 31
0.0
210
0.0
220
0.0
230
1.0
 40
0.577350269189626
 41
0.0
 42
6.283185307179586
  0
ELLIPSE
  5
18961
330
188D9
100
AcDbEntity
  8
0
100
AcDbEllipse
 10
45.39436508357957
 20
-13.79988356476183
 30
0.0
 11
1.249999999999871
 21
2.16506350946117
 31
0.0
210
0.0
220
0.0
230
1.0
 40
0.577350269189626
 41
3.742856870268584
 42
5.681921090500122
  0
ELLIPSE
  5
18962
330
188D9
100
AcDbEntity
  8
0
100
AcDbEllipse
 10
46.80857864595266
 20
-14.61638014568955
 30
0.0
 11
-1.25
 21
-2.165063509461096
 31
0.0
210
0.0
220
0.0
230
1.0
 40
0.577350269189626
 41
0.0
 42
6.283185307179586
  0
ELLIPSE
  5
18963
330
188D9
100
AcDbEntity
  8
0
100
AcDbEllipse
 10
45.39436508357957
 20
2.530048053792697
 30
0.0
 11
1.249999999999871
 21
2.16506350946117
 31
0.0
210
0.0
220
0.0
230
1.0
 40
0.577350269189626
 41
3.742856870268584
 42
5.68192109050012
  0
ELLIPSE
  5
18964
330
188D9
100
AcDbEntity
  8
0
100
AcDbEllipse
 10
46.80857864595266
 20
1.713551472864969
 30
0.0
 11
-1.25
 21
-2.165063509461096
 31
0.0
210
0.0
220
0.0
230
1.0
 40
0.577350269189626
 41
0.0
 42
6.283185307179586
  0
ELLIPSE
  5
18965
330
188D9
100
AcDbEntity
  8
0
100
AcDbEllipse
 10
-40.8726622211792
 20
11.51151044399771
 30
0.0
 11
1.249999999999871
 21
2.165063509461171
 31
0.0
210
0.0
220
0.0
230
1.0
 40
0.5773502691896259
 41
3.742856870268584
 42
5.681921090500115
  0
ELLIPSE
  5
18966
330
188D9
100
AcDbEntity
  8
0
100
AcDbEllipse
 10
-39.45844865880611
 20
10.69501386306998
 30
0.0
 11
1.249999999999999
 21
2.165063509461097
 31
0.0
210
0.0
220
0.0
230
0.9999999999999998
 40
0.5773502691896258
 41
0.0
 42
6.283185307179586
  0
ELLIPSE
  5
18967
330
188D9
100
AcDbEntity
  8
0
100
AcDbEllipse
 10
-40.8726622211792
 20
27.84144206255223
 30
0.0
 11
1.249999999999871
 21
2.165063509461171
 31
0.0
210
0.0
220
0.0
230
1.0
 40
0.5773502691896259
 41
3.742856870268584
 42
5.681921090500114
  0
ELLIPSE
  5
18968
330
188D9
100
AcDbEntity
  8
0
100
AcDbEllipse
 10
-39.45844865880611
 20
27.0249454816245
 30
0.0
 11
1.249999999999999
 21
2.165063509461097
 31
0.0
210
0.0
220
0.0
230
0.9999999999999998
 40
0.5773502691896258
 41
0.0
 42
6.283185307179586
  0
ELLIPSE
  5
18969
330
188D9
100
AcDbEntity
  8
0
100
AcDbEllipse
 10
-40.8726622211792
 20
44.17137368110675
 30
0.0
 11
1.249999999999871
 21
2.165063509461171
 31
0.0
210
0.0
220
0.0
230
1.0
 40
0.5773502691896259
 41
3.742856870268584
 42
5.681921090500122
  0
ELLIPSE
  5
1896A
330
188D9
100
AcDbEntity
  8
0
100
AcDbEllipse
 10
-39.45844865880611
 20
43.35487710017902
 30
0.0
 11
1.249999999999999
 21
2.165063509461097
 31
0.0
210
0.0
220
0.0
230
0.9999999999999998
 40
0.5773502691896258
 41
0.0
 42
6.283185307179586
  0
ELLIPSE
  5
1896B
330
188D9
100
AcDbEntity
  8
0
100
AcDbEllipse
 10
-40.8726622211792
 20
60.50130529966127
 30
0.0
 11
1.249999999999871
 21
2.165063509461171
 31
0.0
210
0.0
220
0.0
230
1.0
 40
0.5773502691896259
 41
3.742856870268584
 42
5.681921090500122
  0
ELLIPSE
  5
1896C
330
188D9
100
AcDbEntity
  8
0
100
AcDbEllipse
 10
-39.45844865880611
 20
59.68480871873355
 30
0.0
 11
1.249999999999999
 21
2.165063509461097
 31
0.0
210
0.0
220
0.0
230
0.9999999999999998
 40
0.5773502691896258
 41
0.0
 42
6.283185307179586
  0
ELLIPSE
  5
1896D
330
188D9
100
AcDbEntity
  8
0
100
AcDbEllipse
 10
-40.8726622211792
 20
76.83123691821577
 30
0.0
 11
1.249999999999871
 21
2.165063509461171
 31
0.0
210
0.0
220
0.0
230
1.0
 40
0.5773502691896259
 41
3.742856870268584
 42
5.681921090500122
  0
ELLIPSE
  5
1896E
330
188D9
100
AcDbEntity
  8
0
100
AcDbEllipse
 10
-39.45844865880611
 20
76.01474033728806
 30
0.0
 11
1.249999999999999
 21
2.165063509461097
 31
0.0
210
0.0
220
0.0
230
0.9999999999999998
 40
0.5773502691896258
 41
0.0
 42
6.283185307179586
  0
ENDBLK
  5
188DB
330
188D9
100
AcDbEntity
  8
0
100
AcDbBlockEnd
  0
ENDSEC
  0
SECTION
  2
ENTITIES
  0
INSERT
  5
1896F
330
1F
100
AcDbEntity
  8
0
100
AcDbBlockReference
  2
SAEL380_120_2-Front
 10
0.0
 20
0.0
 30
0.0
  0
INSERT
  5
18970
330
1F
100
AcDbEntity
  8
0
100
AcDbBlockReference
  2
SAEL380_120_2-Left
 10
141.1
 20
0.0
 30
0.0
  0
INSERT
  5
18971
330
1F
100
AcDbEntity
  8
0
100
AcDbBlockReference
  2
SAEL380_120_2-Right
 10
-141.1
 20
0.0
 30
0.0
  0
INSERT
  5
18972
330
1F
100
AcDbEntity
  8
0
100
AcDbBlockReference
  2
SAEL380_120_2-Top
 10
0.0
 20
-41.6
 30
0.0
  0
INSERT
  5
18973
330
1F
100
AcDbEntity
  8
0
100
AcDbBlockReference
  2
SAEL380_120_2-Bottom
 10
0.0
 20
169.6
 30
0.0
  0
INSERT
  5
18974
330
1F
100
AcDbEntity
  8
0
100
AcDbBlockReference
  2
SAEL380_120_2-ISO
 10
215.5602343275404
 20
-154.3570864790357
 30
0.0
  0
MTEXT
  5
18975
330
1F
100
AcDbEntity
  8
0
100
AcDbMText
 10
0.0
 20
-167.2
 30
0.0
 40
13.2
 41
0.0
 71
     5
 72
     5
  1
SAEL380/120/2
 73
     1
 44
1.0
1001
ACAD
1000
MTEXTBEGIN
1070
    73
1070
     1
1070
    44
1040
1.0
1070
    74
1070
     0
1000
MTEXTEND
  0
ENDSEC
  0
SECTION
  2
OBJECTS
  0
DICTIONARY
  5
C
330
0
100
AcDbDictionary
281
     1
  3
ACAD_CIP_PREVIOUS_PRODUCT_INFO
350
216
  3
ACAD_COLOR
350
6B
  3
ACAD_DETAILVIEWSTYLE
350
21B
  3
ACAD_GROUP
350
D
  3
ACAD_LAYOUT
350
1A
  3
ACAD_MATERIAL
350
6A
  3
ACAD_MLEADERSTYLE
350
12D
  3
ACAD_MLINESTYLE
350
17
  3
ACAD_PLOTSETTINGS
350
19
  3
ACAD_PLOTSTYLENAME
350
E
  3
ACAD_SCALELIST
350
10C
  3
ACAD_SECTIONVIEWSTYLE
350
219
  3
ACAD_TABLESTYLE
350
7E
  3
ACAD_VISUALSTYLE
350
EF
  3
ACDB_RECOMPOSE_DATA
350
18A76
  3
AcDbVariableDictionary
350
5E
  3
DWGPROPS
350
18A77
  0
DICTIONARY
  5
189C6
330
8
100
AcDbDictionary
280
     1
281
     1
  0
DICTIONARY
  5
1FF
330
2
100
AcDbDictionary
280
     1
281
     1
  3
ACAD_LAYERSTATES
360
200
  0
DICTIONARY
  5
13C
330
10
100
AcDbDictionary
280
     1
281
     1
  0
DICTIONARY
  5
1CE
330
1F
100
AcDbDictionary
280
     1
281
     1
  3
ACAD_LAYOUTSELFREF
360
189CE
  0
DICTIONARY
  5
18979
330
D2
100
AcDbDictionary
280
     1
281
     1
  3
ACAD_LAYOUTSELFREF
360
189D7
  0
DICTIONARY
  5
1897B
330
D6
100
AcDbDictionary
280
     1
281
     1
  3
ACAD_LAYOUTSELFREF
360
189DA
  0
XRECORD
  5
216
102
{ACAD_REACTORS
330
C
102
}
330
C
100
AcDbXrecord
280
     1
300
ACD
300
2021
300
87393ACD_2021_0F
  0
DICTIONARY
  5
6B
102
{ACAD_REACTORS
330
C
102
}
330
C
100
AcDbDictionary
281
     1
  0
DICTIONARY
  5
21B
102
{ACAD_REACTORS
330
C
102
}
330
C
100
AcDbDictionary
281
     1
  3
Metric50
350
21C
  0
DICTIONARY
  5
D
102
{ACAD_REACTORS
330
C
102
}
330
C
100
AcDbDictionary
281
     1
  0
DICTIONARY
  5
1A
102
{ACAD_REACTORS
330
C
102
}
330
C
100
AcDbDictionary
281
     1
  3
Layout1
350
D3
  3
Layout2
350
D7
  3
Model
350
22
  0
DICTIONARY
  5
6A
102
{ACAD_REACTORS
330
C
102
}
330
C
100
AcDbDictionary
281
     1
  3
ByBlock
350
ED
  3
ByLayer
350
EC
  3
Global
350
EE
  0
DICTIONARY
  5
12D
102
{ACAD_REACTORS
330
C
102
}
330
C
100
AcDbDictionary
281
     1
  3
Standard
350
12E
  0
DICTIONARY
  5
17
102
{ACAD_REACTORS
330
C
102
}
330
C
100
AcDbDictionary
281
     1
  3
Standard
350
18
  0
DICTIONARY
  5
19
102
{ACAD_REACTORS
330
C
102
}
330
C
100
AcDbDictionary
281
     1
  0
ACDBDICTIONARYWDFLT
  5
E
102
{ACAD_REACTORS
330
C
102
}
330
C
100
AcDbDictionary
281
     1
  3
Normal
350
F
100
AcDbDictionaryWithDefault
340
F
  0
DICTIONARY
  5
10C
102
{ACAD_REACTORS
330
C
102
}
330
C
100
AcDbDictionary
281
     1
  3
A0
350
10D
  3
A1
350
1BE
  3
A2
350
1BF
  3
A3
350
1C0
  3
A4
350
1C1
  3
A5
350
1C2
  3
A6
350
1C3
  3
A7
350
1C4
  3
A8
350
1C5
  3
A9
350
1C6
  3
B0
350
1C7
  3
B1
350
1C8
  3
B2
350
1C9
  3
B3
350
1CA
  3
B4
350
1CB
  3
B5
350
1CC
  3
B6
350
1CD
  0
DICTIONARY
  5
219
102
{ACAD_REACTORS
330
C
102
}
330
C
100
AcDbDictionary
281
     1
  3
Metric50
350
21A
  0
DICTIONARY
  5
7E
102
{ACAD_REACTORS
330
C
102
}
330
C
100
AcDbDictionary
281
     1
  3
Standard
350
7F
  0
DICTIONARY
  5
EF
102
{ACAD_REACTORS
330
C
102
}
330
C
100
AcDbDictionary
281
     1
  3
2dWireframe
350
F5
  3
Basic
350
F4
  3
Brighten
350
FB
  3
ColorChange
350
FF
  3
Conceptual
350
F8
  3
Dim
350
FA
  3
EdgeColorOff
350
1E6
  3
Facepattern
350
FE
  3
Flat
350
F0
  3
FlatWithEdges
350
F1
  3
Gouraud
350
F2
  3
GouraudWithEdges
350
F3
  3
Hidden
350
F7
  3
JitterOff
350
1E4
  3
Linepattern
350
FD
  3
OverhangOff
350
1E5
  3
Realistic
350
F9
  3
Shaded
350
1F3
  3
Shaded with edges
350
1F2
  3
Shades of Gray
350
1EF
  3
Sketchy
350
1F0
  3
Thicken
350
FC
  3
Wireframe
350
F6
  3
X-Ray
350
1F1
  0
XRECORD
  5
18A76
102
{ACAD_REACTORS
330
C
102
}
330
C
100
AcDbXrecord
280
     1
 90
        1
330
7F
  0
DICTIONARY
  5
5E
102
{ACAD_REACTORS
330
C
102
}
330
C
100
AcDbDictionary
281
     1
  3
CANNOSCALE
350
146
  3
CENTEREXE
350
259
  3
CENTERLTYPEFILE
350
25A
  3
CMLEADERSTYLE
350
145
  3
CTABLESTYLE
350
84
  3
CVIEWDETAILSTYLE
350
227
  3
CVIEWSECTIONSTYLE
350
228
  3
DIMASSOC
350
5F
  3
HIDETEXT
350
63
  3
INDEXCTL
350
18A23
  3
LAYEREVAL
350
1AE
  3
LAYERNOTIFY
350
1AF
  3
LIGHTINGUNITS
350
18A21
  3
MSLTSCALE
350
18A20
  3
PSOLHEIGHT
350
18A73
  3
PSOLWIDTH
350
18A72
  3
SORTENTS
350
18A22
  3
XCLIPFRAME
350
18A74
  0
XRECORD
  5
18A77
102
{ACAD_REACTORS
330
C
102
}
330
C
100
AcDbXrecord
280
     1
  1
DWGPROPS COOKIE
  2

  3

  4

  6

  7

  8
truole
  9

300
=
301
=
302
=
303
=
304
=
305
=
306
=
307
=
308
=
309
=
 40
0.0089930555555556
 41
2460398.356956019
 42
2460398.382997685
  1

 90
        0
  0
DICTIONARY
  5
200
102
{ACAD_REACTORS
330
1FF
102
}
330
1FF
100
AcDbDictionary
281
     1
  0
XRECORD
  5
189CE
102
{ACAD_REACTORS
330
1CE
102
}
330
1CE
100
AcDbXrecord
280
     1
340
1F
  0
XRECORD
  5
189D7
102
{ACAD_REACTORS
330
18979
102
}
330
18979
100
AcDbXrecord
280
     1
340
D2
  0
XRECORD
  5
189DA
102
{ACAD_REACTORS
330
1897B
102
}
330
1897B
100
AcDbXrecord
280
     1
340
D6
  0
ACDBDETAILVIEWSTYLE
  5
21C
102
{ACAD_XDICTIONARY
360
18AB6
102
}
102
{ACAD_REACTORS
330
21B
102
}
330
21B
100
AcDbModelDocViewStyle
 70
     0
  3
Metric50
290
     0
100
AcDbDetailViewStyle
 70
     0
 71
     0
 90
        3
 71
     1
340
11
 40
5.0
340
0
 40
5.0
300

 40
0.0
280
     1
 71
     2
340
16
 90
       25
 71
     3
340
11
 40
5.0
 90
        0
 40
15.0
 90
        1
300
%<\AcVar ViewDetailId>% (%<\AcVar ViewScale \f "%sn">%)
 71
     4
340
16
 90
       25
340
16
 90
       25
280
     0
  0
LAYOUT
  5
D3
102
{ACAD_XDICTIONARY
360
18A7B
102
}
102
{ACAD_REACTORS
330
1A
102
}
330
1A
100
AcDbPlotSettings
  1

  2
C:\Documents and Settings\basas\Application Data\Autodesk\AutoCAD 2005\R16.1\enu\plotters\Default Windows System Printer.pc3
  4

  6

 40
0.0
 41
0.0
 42
0.0
 43
0.0
 44
0.0
 45
0.0
 46
0.0
 47
0.0
 48
0.0
 49
0.0
140
0.0
141
0.0
142
1.0
143
1.0
 70
   688
 72
     0
 73
     0
 74
     5
  7

 75
    16
147
1.0
148
0.0
149
0.0
100
AcDbLayout
  1
Layout1
 70
     1
 71
     1
 10
0.0
 20
0.0
 11
12.0
 21
9.0
 12
0.0
 22
0.0
 32
0.0
 14
0.0
 24
0.0
 34
0.0
 15
0.0
 25
0.0
 35
0.0
146
0.0
 13
0.0
 23
0.0
 33
0.0
 16
1.0
 26
0.0
 36
0.0
 17
0.0
 27
1.0
 37
0.0
 76
     0
330
D2
  0
LAYOUT
  5
D7
102
{ACAD_XDICTIONARY
360
18A7D
102
}
102
{ACAD_REACTORS
330
1A
102
}
330
1A
100
AcDbPlotSettings
  1

  2
C:\Documents and Settings\basas\Application Data\Autodesk\AutoCAD 2005\R16.1\enu\plotters\Default Windows System Printer.pc3
  4

  6

 40
0.0
 41
0.0
 42
0.0
 43
0.0
 44
0.0
 45
0.0
 46
0.0
 47
0.0
 48
0.0
 49
0.0
140
0.0
141
0.0
142
1.0
143
1.0
 70
   688
 72
     0
 73
     0
 74
     5
  7

 75
    16
147
1.0
148
0.0
149
0.0
100
AcDbLayout
  1
Layout2
 70
     1
 71
     2
 10
0.0
 20
0.0
 11
12.0
 21
9.0
 12
0.0
 22
0.0
 32
0.0
 14
0.0
 24
0.0
 34
0.0
 15
0.0
 25
0.0
 35
0.0
146
0.0
 13
0.0
 23
0.0
 33
0.0
 16
1.0
 26
0.0
 36
0.0
 17
0.0
 27
1.0
 37
0.0
 76
     0
330
D6
  0
LAYOUT
  5
22
102
{ACAD_XDICTIONARY
360
18A78
102
}
102
{ACAD_REACTORS
330
1A
102
}
330
1A
100
AcDbPlotSettings
  1

  2
none_device
  4
ISO_A4_(210.00_x_297.00_MM)
  6

 40
7.5
 41
20.0
 42
7.5
 43
20.0
 44
210.0
 45
297.0
 46
11.54999923706054
 47
-13.65000009536743
 48
0.0
 49
0.0
140
0.0
141
0.0
142
1.0
143
8.704084754739808
 70
 11952
 72
     1
 73
     0
 74
     0
  7

 75
     0
147
0.1148885871608098
148
0.0
149
0.0
100
AcDbLayout
  1
Model
 70
     1
 71
     0
 10
0.0
 20
0.0
 11
12.0
 21
9.0
 12
0.0
 22
0.0
 32
0.0
 14
0.0
 24
0.0
 34
0.0
 15
0.0
 25
0.0
 35
0.0
146
0.0
 13
0.0
 23
0.0
 33
0.0
 16
1.0
 26
0.0
 36
0.0
 17
0.0
 27
1.0
 37
0.0
 76
     0
330
1F
331
EA
1001
ACAD_PSEXT
1000
None
1000
None
1000
Not applicable
1000
The layout will not be plotted unless a new plotter configuration name is selected.
1070
     0
  0
MATERIAL
  5
ED
102
{ACAD_XDICTIONARY
360
1F9
102
}
102
{ACAD_REACTORS
330
6A
102
}
330
6A
100
AcDbMaterial
  1
ByBlock
  0
MATERIAL
  5
EC
102
{ACAD_XDICTIONARY
360
1F7
102
}
102
{ACAD_REACTORS
330
6A
102
}
330
6A
100
AcDbMaterial
  1
ByLayer
  0
MATERIAL
  5
EE
102
{ACAD_XDICTIONARY
360
173
102
}
102
{ACAD_REACTORS
330
6A
102
}
330
6A
100
AcDbMaterial
  1
Global
 43
0.0007999999797903
 43
0.0
 43
0.0
 43
0.0
 43
0.0
 43
0.0007999999797903
 43
0.0
 43
0.0
 43
0.0
 43
0.0
 43
1.0
 43
0.0
 43
0.0
 43
0.0
 43
0.0
 43
1.0
 49
0.0007999999797903
 49
0.0
 49
0.0
 49
0.0
 49
0.0
 49
0.0007999999797903
 49
0.0
 49
0.0
 49
0.0
 49
0.0
 49
1.0
 49
0.0
 49
0.0
 49
0.0
 49
0.0
 49
1.0
142
0.0007999999797903
142
0.0
142
0.0
142
0.0
142
0.0
142
0.0007999999797903
142
0.0
142
0.0
142
0.0
142
0.0
142
1.0
142
0.0
142
0.0
142
0.0
142
0.0
142
1.0
144
0.0007999999797903
144
0.0
144
0.0
144
0.0
144
0.0
144
0.0007999999797903
144
0.0
144
0.0
144
0.0
144
0.0
144
1.0
144
0.0
144
0.0
144
0.0
144
0.0
144
1.0
1001
ACAD
1070
    -1
1070
     3
1070
     0
1000

1071
        0
1070
     0
  0
MLEADERSTYLE
  5
12E
102
{ACAD_XDICTIONARY
360
18AA2
102
}
102
{ACAD_REACTORS
330
12D
102
}
330
12D
100
AcDbMLeaderStyle
170
     2
171
     1
172
     0
 90
        2
 40
0.0
 41
0.0
173
     1
 91
-1056964608
340
14
 92
       -2
290
     1
 42
2.0
291
     1
 43
8.0
  3
Standard
 44
4.0
300

342
11
174
     1
178
     1
175
     1
176
     0
 93
-1056964608
 45
4.0
292
     0
297
     0
 46
4.0
 94
-1056964608
 47
1.0
 49
1.0
140
1.0
293
     1
141
0.0
294
     1
177
     0
142
1.0
295
     0
296
     0
143
3.75
1001
ACAD_MLEADERVER
1070
     2
  0
MLINESTYLE
  5
18
102
{ACAD_REACTORS
330
17
102
}
330
17
100
AcDbMlineStyle
  2
STANDARD
 70
     0
  3

 62
   256
 51
90.0
 52
90.0
 71
     2
 49
0.5
 62
   256
  6
BYLAYER
 49
-0.5
 62
   256
  6
BYLAYER
  0
ACDBPLACEHOLDER
  5
F
102
{ACAD_REACTORS
330
E
102
}
330
E
  0
SCALE
  5
10D
102
{ACAD_REACTORS
330
10C
102
}
330
10C
100
AcDbScale
 70
     0
300
1:1
140
1.0
141
1.0
290
     1
  0
SCALE
  5
1BE
102
{ACAD_REACTORS
330
10C
102
}
330
10C
100
AcDbScale
 70
     0
300
1:2
140
1.0
141
2.0
290
     0
  0
SCALE
  5
1BF
102
{ACAD_REACTORS
330
10C
102
}
330
10C
100
AcDbScale
 70
     0
300
1:4
140
1.0
141
4.0
290
     0
  0
SCALE
  5
1C0
102
{ACAD_REACTORS
330
10C
102
}
330
10C
100
AcDbScale
 70
     0
300
1:5
140
1.0
141
5.0
290
     0
  0
SCALE
  5
1C1
102
{ACAD_REACTORS
330
10C
102
}
330
10C
100
AcDbScale
 70
     0
300
1:8
140
1.0
141
8.0
290
     0
  0
SCALE
  5
1C2
102
{ACAD_REACTORS
330
10C
102
}
330
10C
100
AcDbScale
 70
     0
300
1:10
140
1.0
141
10.0
290
     0
  0
SCALE
  5
1C3
102
{ACAD_REACTORS
330
10C
102
}
330
10C
100
AcDbScale
 70
     0
300
1:16
140
1.0
141
16.0
290
     0
  0
SCALE
  5
1C4
102
{ACAD_REACTORS
330
10C
102
}
330
10C
100
AcDbScale
 70
     0
300
1:20
140
1.0
141
20.0
290
     0
  0
SCALE
  5
1C5
102
{ACAD_REACTORS
330
10C
102
}
330
10C
100
AcDbScale
 70
     0
300
1:30
140
1.0
141
30.0
290
     0
  0
SCALE
  5
1C6
102
{ACAD_REACTORS
330
10C
102
}
330
10C
100
AcDbScale
 70
     0
300
1:40
140
1.0
141
40.0
290
     0
  0
SCALE
  5
1C7
102
{ACAD_REACTORS
330
10C
102
}
330
10C
100
AcDbScale
 70
     0
300
1:50
140
1.0
141
50.0
290
     0
  0
SCALE
  5
1C8
102
{ACAD_REACTORS
330
10C
102
}
330
10C
100
AcDbScale
 70
     0
300
1:100
140
1.0
141
100.0
290
     0
  0
SCALE
  5
1C9
102
{ACAD_REACTORS
330
10C
102
}
330
10C
100
AcDbScale
 70
     0
300
2:1
140
2.0
141
1.0
290
     0
  0
SCALE
  5
1CA
102
{ACAD_REACTORS
330
10C
102
}
330
10C
100
AcDbScale
 70
     0
300
4:1
140
4.0
141
1.0
290
     0
  0
SCALE
  5
1CB
102
{ACAD_REACTORS
330
10C
102
}
330
10C
100
AcDbScale
 70
     0
300
8:1
140
8.0
141
1.0
290
     0
  0
SCALE
  5
1CC
102
{ACAD_REACTORS
330
10C
102
}
330
10C
100
AcDbScale
 70
     0
300
10:1
140
10.0
141
1.0
290
     0
  0
SCALE
  5
1CD
102
{ACAD_REACTORS
330
10C
102
}
330
10C
100
AcDbScale
 70
     0
300
100:1
140
100.0
141
1.0
290
     0
  0
ACDBSECTIONVIEWSTYLE
  5
21A
102
{ACAD_XDICTIONARY
360
18AB4
102
}
102
{ACAD_REACTORS
330
219
102
}
330
219
100
AcDbModelDocViewStyle
 70
     0
  3
Metric50
290
     0
100
AcDbSectionViewStyle
 70
     0
 71
     0
 90
      102
 71
     1
340
11
 40
5.0
340
0
340
0
 40
5.0
300
I, O, Q, S, X, Z
 40
10.0
 90
        0
 40
2.5
 90
        0
 71
     2
340
16
 90
       25
340
16
 90
       50
 40
5.0
 40
2.5
 40
5.0
 71
     3
340
11
 40
5.0
 90
        0
 40
15.0
 90
        1
300
%<\AcVar ViewSectionStartId>%-%<\AcVar ViewSectionEndId>% (%<\AcVar ViewScale \f "%sn">%)
 71
     4
300
ANSI31
 40
1.0
 90
        0
290
     0
290
     0
 90
        6
 40
0.0
 40
1.570796326794896
 40
0.2617993877991494
 40
1.308996938995747
 40
-0.2617993877991494
 40
1.832595714594046
  0
TABLESTYLE
  5
7F
102
{ACAD_XDICTIONARY
360
162
102
}
102
{ACAD_REACTORS
330
7E
102
}
330
7E
100
AcDbTableStyle
  3
Standard
 70
     0
 71
     0
 40
1.5
 41
1.5
280
     0
281
     0
  7
Standard
140
4.5
170
     2
 62
     0
 63
     7
283
     0
274
    -2
284
     1
 64
     0
275
    -2
285
     1
 65
     0
276
    -2
286
     1
 66
     0
277
    -2
287
     1
 67
     0
278
    -2
288
     1
 68
     0
279
    -2
289
     1
 69
     0
  7
Standard
140
6.0
170
     5
 62
     0
 63
     7
283
     0
274
    -2
284
     1
 64
     0
275
    -2
285
     1
 65
     0
276
    -2
286
     1
 66
     0
277
    -2
287
     1
 67
     0
278
    -2
288
     1
 68
     0
279
    -2
289
     1
 69
     0
  7
Standard
140
4.5
170
     5
 62
     0
 63
     7
283
     0
274
    -2
284
     1
 64
     0
275
    -2
285
     1
 65
     0
276
    -2
286
     1
 66
     0
277
    -2
287
     1
 67
     0
278
    -2
288
     1
 68
     0
279
    -2
289
     1
 69
     0
  0
VISUALSTYLE
  5
F5
102
{ACAD_XDICTIONARY
360
18A8C
102
}
102
{ACAD_REACTORS
330
EF
102
}
330
EF
100
AcDbVisualStyle
  2
2dWireframe
 70
     4
 71
     0
 72
     2
 73
     1
 90
        0
 40
-0.6
 41
-30.0
 62
     5
 63
     7
 74
     1
 91
        4
 64
     7
 65
   257
 75
     1
175
     1
 42
1.0
 92
        0
 66
   257
 43
1.0
 76
     1
 77
     6
 78
     2
 67
     7
 79
     5
170
     0
171
     0
290
     0
174
     0
 93
        1
 44
0.0
173
     0
291
     0
 45
0.0
1001
ACAD
1000
AcDbSavedByObjectVersion
1070
     0
  0
VISUALSTYLE
  5
F4
102
{ACAD_XDICTIONARY
360
18A8A
102
}
102
{ACAD_REACTORS
330
EF
102
}
330
EF
100
AcDbVisualStyle
  2
Basic
 70
     7
 71
     1
 72
     0
 73
     1
 90
        0
 40
-0.6
 41
-30.0
 62
     5
 63
     7
 74
     0
 91
        4
 64
     7
 65
   257
 75
     1
175
     1
 42
1.0
 92
        8
 66
     7
 43
1.0
 76
     1
 77
     6
 78
     2
 67
     7
 79
     5
170
     0
171
     0
290
     0
174
     0
 93
        1
 44
0.0
173
     0
291
     1
 45
0.0
1001
ACAD
1000
AcDbSavedByObjectVersion
1070
     0
  0
VISUALSTYLE
  5
FB
102
{ACAD_XDICTIONARY
360
18A98
102
}
102
{ACAD_REACTORS
330
EF
102
}
330
EF
100
AcDbVisualStyle
  2
Brighten
 70
    12
 71
     2
 72
     2
 73
     1
 90
        0
 40
-0.6
 41
-30.0
 62
     5
 63
     7
 74
     1
 91
        4
 64
     7
 65
   257
 75
     1
175
     1
 42
1.0
 92
        8
 66
     7
 43
1.0
 76
     1
 77
     6
 78
     2
 67
     7
 79
     5
170
     0
171
     0
290
     0
174
     0
 93
        1
 44
50.0
173
     0
291
     1
 45
0.0
1001
ACAD
1000
AcDbSavedByObjectVersion
1070
     0
  0
VISUALSTYLE
  5
FF
102
{ACAD_XDICTIONARY
360
18AA0
102
}
102
{ACAD_REACTORS
330
EF
102
}
330
EF
100
AcDbVisualStyle
  2
ColorChange
 70
    16
 71
     2
 72
     2
 73
     3
 90
        0
 40
-0.6
 41
-30.0
 62
     5
 63
     8
 74
     1
 91
        4
 64
     7
 65
   257
 75
     1
175
     1
 42
1.0
 92
        8
 66
     8
 43
1.0
 76
     1
 77
     6
 78
     2
 67
     7
 79
     5
170
     0
171
     0
290
     0
174
     0
 93
        1
 44
0.0
173
     0
291
     1
 45
0.0
1001
ACAD
1000
AcDbSavedByObjectVersion
1070
     0
  0
VISUALSTYLE
  5
F8
102
{ACAD_XDICTIONARY
360
18A92
102
}
102
{ACAD_REACTORS
330
EF
102
}
330
EF
100
AcDbVisualStyle
  2
Conceptual
 70
     9
 71
     3
 72
     2
 73
     1
 90
        0
 40
-0.6
 41
-30.0
 62
     5
 63
     7
 74
     2
 91
        2
 64
     7
 65
   257
 75
     1
175
     1
 42
40.0
 92
        8
 66
     7
 43
1.0
 76
     1
 77
     6
 78
     2
 67
     7
 79
     3
170
     0
171
     0
290
     0
174
     0
 93
        1
 44
0.0
173
     0
291
     0
 45
0.0
1001
ACAD
1000
AcDbSavedByObjectVersion
1070
     0
  0
VISUALSTYLE
  5
FA
102
{ACAD_XDICTIONARY
360
18A96
102
}
102
{ACAD_REACTORS
330
EF
102
}
330
EF
100
AcDbVisualStyle
  2
Dim
 70
    11
 71
     2
 72
     2
 73
     1
 90
        0
 40
-0.6
 41
-30.0
 62
     5
 63
     7
 74
     1
 91
        4
 64
     7
 65
   257
 75
     1
175
     1
 42
1.0
 92
        8
 66
     7
 43
1.0
 76
     1
 77
     6
 78
     2
 67
     7
 79
     5
170
     0
171
     0
290
     0
174
     0
 93
        1
 44
-50.0
173
     0
291
     1
 45
0.0
1001
ACAD
1000
AcDbSavedByObjectVersion
1070
     0
  0
VISUALSTYLE
  5
1E6
102
{ACAD_XDICTIONARY
360
18AA8
102
}
102
{ACAD_REACTORS
330
EF
102
}
330
EF
100
AcDbVisualStyle
  2
EdgeColorOff
 70
    22
 71
     2
 72
     2
 73
     0
 90
        0
 40
-0.6
 41
-30.0
 62
     5
 63
     7
 74
     1
 91
        4
 64
     7
 65
   257
 75
     1
175
     1
 42
1.0
 92
        8
 66
     7
 43
1.0
 76
     1
 77
     6
 78
     2
 67
     7
 79
     5
170
     0
171
     0
290
     0
174
     0
 93
        1
 44
0.0
173
     0
291
     1
 45
0.0
1001
ACAD
1000
AcDbSavedByObjectVersion
1070
     0
  0
VISUALSTYLE
  5
FE
102
{ACAD_XDICTIONARY
360
18A9E
102
}
102
{ACAD_REACTORS
330
EF
102
}
330
EF
100
AcDbVisualStyle
  2
Facepattern
 70
    15
 71
     2
 72
     2
 73
     1
 90
        0
 40
-0.6
 41
-30.0
 62
     5
 63
     7
 74
     1
 91
        4
 64
     7
 65
   257
 75
     1
175
     1
 42
1.0
 92
        8
 66
     7
 43
1.0
 76
     1
 77
     6
 78
     2
 67
     7
 79
     5
170
     0
171
     0
290
     0
174
     0
 93
        1
 44
0.0
173
     0
291
     1
 45
0.0
1001
ACAD
1000
AcDbSavedByObjectVersion
1070
     0
  0
VISUALSTYLE
  5
F0
102
{ACAD_XDICTIONARY
360
18A82
102
}
102
{ACAD_REACTORS
330
EF
102
}
330
EF
100
AcDbVisualStyle
  2
Flat
 70
     0
 71
     2
 72
     1
 73
     1
 90
        2
 40
-0.6
 41
30.0
 62
     5
 63
     7
 74
     0
 91
        0
 64
     7
 65
   257
 75
     1
175
     1
 42
1.0
 92
        8
 66
     7
 43
1.0
 76
     1
 77
     6
 78
     2
 67
     7
 79
     5
170
     0
171
     0
290
     0
174
     0
 93
       13
 44
0.0
173
     0
291
     1
 45
0.0
1001
ACAD
1000
AcDbSavedByObjectVersion
1070
     0
  0
VISUALSTYLE
  5
F1
102
{ACAD_XDICTIONARY
360
18A84
102
}
102
{ACAD_REACTORS
330
EF
102
}
330
EF
100
AcDbVisualStyle
  2
FlatWithEdges
 70
     1
 71
     2
 72
     1
 73
     1
 90
        2
 40
-0.6
 41
30.0
 62
     5
 63
     7
 74
     1
 91
        0
 64
     7
 65
   257
 75
     1
175
     1
 42
1.0
 92
        0
 66
   257
 43
1.0
 76
     1
 77
     6
 78
     2
 67
     7
 79
     5
170
     0
171
     0
290
     0
174
     0
 93
       13
 44
0.0
173
     0
291
     1
 45
0.0
1001
ACAD
1000
AcDbSavedByObjectVersion
1070
     0
  0
VISUALSTYLE
  5
F2
102
{ACAD_XDICTIONARY
360
18A86
102
}
102
{ACAD_REACTORS
330
EF
102
}
330
EF
100
AcDbVisualStyle
  2
Gouraud
 70
     2
 71
     2
 72
     2
 73
     1
 90
        2
 40
-0.6
 41
30.0
 62
     5
 63
     7
 74
     0
 91
        0
 64
     7
 65
   257
 75
     1
175
     1
 42
1.0
 92
        0
 66
     7
 43
1.0
 76
     1
 77
     6
 78
     2
 67
     7
 79
     5
170
     0
171
     0
290
     0
174
     0
 93
       13
 44
0.0
173
     0
291
     1
 45
0.0
1001
ACAD
1000
AcDbSavedByObjectVersion
1070
     0
  0
VISUALSTYLE
  5
F3
102
{ACAD_XDICTIONARY
360
18A88
102
}
102
{ACAD_REACTORS
330
EF
102
}
330
EF
100
AcDbVisualStyle
  2
GouraudWithEdges
 70
     3
 71
     2
 72
     2
 73
     1
 90
        2
 40
-0.6
 41
30.0
 62
     5
 63
     7
 74
     1
 91
        0
 64
     7
 65
   257
 75
     1
175
     1
 42
1.0
 92
        0
 66
   257
 43
1.0
 76
     1
 77
     6
 78
     2
 67
     7
 79
     5
170
     0
171
     0
290
     0
174
     0
 93
       13
 44
0.0
173
     0
291
     1
 45
0.0
1001
ACAD
1000
AcDbSavedByObjectVersion
1070
     0
  0
VISUALSTYLE
  5
F7
102
{ACAD_XDICTIONARY
360
18A90
102
}
102
{ACAD_REACTORS
330
EF
102
}
330
EF
100
AcDbVisualStyle
  2
Hidden
 70
     6
 71
     1
 72
     2
 73
     2
 90
        0
 40
-0.6
 41
-30.0
 62
     5
 63
     7
 74
     2
 91
        2
 64
     7
 65
   257
 75
     2
175
     1
 42
40.0
 92
        0
 66
   257
 43
1.0
 76
     1
 77
     6
 78
     2
 67
     7
 79
     3
170
     0
171
     0
290
     0
174
     0
 93
        1
 44
0.0
173
     0
291
     0
 45
0.0
1001
ACAD
1000
AcDbSavedByObjectVersion
1070
     0
  0
VISUALSTYLE
  5
1E4
102
{ACAD_XDICTIONARY
360
18AA4
102
}
102
{ACAD_REACTORS
330
EF
102
}
330
EF
100
AcDbVisualStyle
  2
JitterOff
 70
    20
 71
     2
 72
     2
 73
     0
 90
        0
 40
-0.6
 41
-30.0
 62
     5
 63
     7
 74
     1
 91
        4
 64
     7
 65
   257
 75
     1
175
     1
 42
1.0
 92
       10
 66
     7
 43
1.0
 76
     1
 77
     6
 78
     2
 67
     7
 79
     5
170
     0
171
     0
290
     0
174
     0
 93
        1
 44
0.0
173
     0
291
     1
 45
0.0
1001
ACAD
1000
AcDbSavedByObjectVersion
1070
     0
  0
VISUALSTYLE
  5
FD
102
{ACAD_XDICTIONARY
360
18A9C
102
}
102
{ACAD_REACTORS
330
EF
102
}
330
EF
100
AcDbVisualStyle
  2
Linepattern
 70
    14
 71
     2
 72
     2
 73
     1
 90
        0
 40
-0.6
 41
-30.0
 62
     5
 63
     7
 74
     1
 91
        4
 64
     7
 65
   257
 75
     7
175
     7
 42
1.0
 92
        8
 66
     7
 43
1.0
 76
     1
 77
     6
 78
     2
 67
     7
 79
     5
170
     0
171
     0
290
     0
174
     0
 93
        1
 44
0.0
173
     0
291
     1
 45
0.0
1001
ACAD
1000
AcDbSavedByObjectVersion
1070
     0
  0
VISUALSTYLE
  5
1E5
102
{ACAD_XDICTIONARY
360
18AA6
102
}
102
{ACAD_REACTORS
330
EF
102
}
330
EF
100
AcDbVisualStyle
  2
OverhangOff
 70
    21
 71
     2
 72
     2
 73
     0
 90
        0
 40
-0.6
 41
-30.0
 62
     5
 63
     7
 74
     1
 91
        4
 64
     7
 65
   257
 75
     1
175
     1
 42
1.0
 92
        9
 66
     7
 43
1.0
 76
     1
 77
     6
 78
     2
 67
     7
 79
     5
170
     0
171
     0
290
     0
174
     0
 93
        1
 44
0.0
173
     0
291
     1
 45
0.0
1001
ACAD
1000
AcDbSavedByObjectVersion
1070
     0
  0
VISUALSTYLE
  5
F9
102
{ACAD_XDICTIONARY
360
18A94
102
}
102
{ACAD_REACTORS
330
EF
102
}
330
EF
100
AcDbVisualStyle
  2
Realistic
 70
     8
 71
     2
 72
     2
 73
     0
 90
        2
 40
-0.6
 41
30.0
 62
     5
 63
     7
 74
     0
 91
        0
 64
     7
 65
   257
 75
     1
175
     1
 42
1.0
 92
        8
 66
   257
 43
1.0
 76
     1
 77
     6
 78
     2
 67
     7
 79
     3
170
     0
171
     0
290
     0
174
     0
 93
       13
 44
0.0
173
     0
291
     0
 45
0.0
1001
ACAD
1000
AcDbSavedByObjectVersion
1070
     0
  0
VISUALSTYLE
  5
1F3
102
{ACAD_XDICTIONARY
360
18AB2
102
}
102
{ACAD_REACTORS
330
EF
102
}
330
EF
100
AcDbVisualStyle
  2
Shaded
 70
    27
 71
     2
 72
     2
 73
     1
 90
        2
 40
-0.6
 41
30.0
 62
     5
 63
     7
 74
     0
 91
        4
 64
     7
 65
   257
 75
     1
175
     1
 42
1.0
 92
        8
 66
   257
 43
1.0
 76
     1
 77
     6
 78
     2
 67
     8
 79
     3
170
     0
171
     0
290
     0
174
     0
 93
        5
 44
0.0
173
     0
291
     0
 45
0.0
1001
ACAD
1000
AcDbSavedByObjectVersion
1070
     0
  0
VISUALSTYLE
  5
1F2
102
{ACAD_XDICTIONARY
360
18AB0
102
}
102
{ACAD_REACTORS
330
EF
102
}
330
EF
100
AcDbVisualStyle
  2
Shaded with edges
 70
    26
 71
     2
 72
     2
 73
     1
 90
        2
 40
-0.6
 41
30.0
 62
     5
 63
     7
 74
     1
 91
        2
 64
     7
 65
   257
 75
     2
175
     1
 42
1.0
 92
        8
 66
   257
 43
1.0
 76
     1
 77
     6
 78
     2
 67
     7
 79
     3
170
     0
171
     0
290
     0
174
     0
 93
        5
 44
0.0
173
     0
291
     0
 45
0.0
1001
ACAD
1000
AcDbSavedByObjectVersion
1070
     0
  0
VISUALSTYLE
  5
1EF
102
{ACAD_XDICTIONARY
360
18AAA
102
}
102
{ACAD_REACTORS
330
EF
102
}
330
EF
100
AcDbVisualStyle
  2
Shades of Gray
 70
    23
 71
     2
 72
     2
 73
     3
 90
        0
 40
-0.6
 41
-30.0
 62
     5
 63
     7
 74
     2
 91
        2
 64
     7
 65
     7
 75
     1
175
     1
 42
40.0
 92
        8
 66
     7
 43
1.0
 76
     1
 77
     6
 78
     2
 67
     7
 79
     3
170
     0
171
     0
290
     0
174
     0
 93
        1
 44
0.0
173
     0
291
     0
 45
0.0
1001
ACAD
1000
AcDbSavedByObjectVersion
1070
     0
  0
VISUALSTYLE
  5
1F0
102
{ACAD_XDICTIONARY
360
18AAC
102
}
102
{ACAD_REACTORS
330
EF
102
}
330
EF
100
AcDbVisualStyle
  2
Sketchy
 70
    24
 71
     1
 72
     2
 73
     2
 90
        0
 40
-0.6
 41
-30.0
 62
     5
 63
     7
 74
     2
 91
        2
 64
     7
 65
     7
 75
     1
175
     1
 42
40.0
 92
       11
 66
     7
 43
1.0
 76
     1
 77
     6
 78
     2
 67
     7
 79
     6
170
     0
171
     0
290
     0
174
     0
 93
        1
 44
0.0
173
     0
291
     0
 45
0.0
1001
ACAD
1000
AcDbSavedByObjectVersion
1070
     0
  0
VISUALSTYLE
  5
FC
102
{ACAD_XDICTIONARY
360
18A9A
102
}
102
{ACAD_REACTORS
330
EF
102
}
330
EF
100
AcDbVisualStyle
  2
Thicken
 70
    13
 71
     2
 72
     2
 73
     1
 90
        0
 40
-0.6
 41
-30.0
 62
     5
 63
     7
 74
     1
 91
        4
 64
     7
 65
   257
 75
     1
175
     1
 42
1.0
 92
       12
 66
     7
 43
1.0
 76
     1
 77
     6
 78
     2
 67
     7
 79
     5
170
     0
171
     0
290
     0
174
     0
 93
        1
 44
0.0
173
     0
291
     1
 45
0.0
1001
ACAD
1000
AcDbSavedByObjectVersion
1070
     0
  0
VISUALSTYLE
  5
F6
102
{ACAD_XDICTIONARY
360
18A8E
102
}
102
{ACAD_REACTORS
330
EF
102
}
330
EF
100
AcDbVisualStyle
  2
Wireframe
 70
     5
 71
     0
 72
     2
 73
     0
 90
        0
 40
-0.6
 41
-30.0
 62
     5
 63
     7
 74
     1
 91
        4
 64
     7
 65
   257
 75
     1
175
     1
 42
1.0
 92
        0
 66
   257
 43
1.0
 76
     1
 77
     6
 78
     2
 67
     7
 79
     3
170
     0
171
     0
290
     0
174
     0
 93
        1
 44
0.0
173
     0
291
     0
 45
0.0
1001
ACAD
1000
AcDbSavedByObjectVersion
1070
     0
  0
VISUALSTYLE
  5
1F1
102
{ACAD_XDICTIONARY
360
18AAE
102
}
102
{ACAD_REACTORS
330
EF
102
}
330
EF
100
AcDbVisualStyle
  2
X-Ray
 70
    25
 71
     2
 72
     2
 73
     1
 90
        1
 40
0.5
 41
-30.0
 62
     5
 63
     7
 74
     1
 91
        0
 64
     7
 65
   257
 75
     1
175
     1
 42
1.0
 92
        8
 66
     7
 43
1.0
 76
     1
 77
     6
 78
     2
 67
     7
 79
     3
170
     0
171
     0
290
     0
174
     0
 93
       13
 44
0.0
173
     0
291
     0
 45
0.0
1001
ACAD
1000
AcDbSavedByObjectVersion
1070
     0
  0
DICTIONARYVAR
  5
146
102
{ACAD_REACTORS
330
5E
102
}
330
5E
100
DictionaryVariables
280
     0
  1
1:1
  0
DICTIONARYVAR
  5
259
102
{ACAD_REACTORS
330
5E
102
}
330
5E
100
DictionaryVariables
280
     0
  1
3.500000
  0
DICTIONARYVAR
  5
25A
102
{ACAD_REACTORS
330
5E
102
}
330
5E
100
DictionaryVariables
280
     0
  1
acadiso.lin
  0
DICTIONARYVAR
  5
145
102
{ACAD_REACTORS
330
5E
102
}
330
5E
100
DictionaryVariables
280
     0
  1
STANDARD
  0
DICTIONARYVAR
  5
84
102
{ACAD_REACTORS
330
5E
102
}
330
5E
100
DictionaryVariables
280
     0
  1
STANDARD
  0
DICTIONARYVAR
  5
227
102
{ACAD_REACTORS
330
5E
102
}
330
5E
100
DictionaryVariables
280
     0
  1
Metric50
  0
DICTIONARYVAR
  5
228
102
{ACAD_REACTORS
330
5E
102
}
330
5E
100
DictionaryVariables
280
     0
  1
Metric50
  0
DICTIONARYVAR
  5
5F
102
{ACAD_REACTORS
330
5E
102
}
330
5E
100
DictionaryVariables
280
     0
  1
2
  0
DICTIONARYVAR
  5
63
102
{ACAD_REACTORS
330
5E
102
}
330
5E
100
DictionaryVariables
280
     0
  1
1
  0
DICTIONARYVAR
  5
18A23
102
{ACAD_REACTORS
330
5E
102
}
330
5E
100
DictionaryVariables
280
     0
  1
0
  0
DICTIONARYVAR
  5
1AE
102
{ACAD_REACTORS
330
5E
102
}
330
5E
100
DictionaryVariables
280
     0
  1
0
  0
DICTIONARYVAR
  5
1AF
102
{ACAD_REACTORS
330
5E
102
}
330
5E
100
DictionaryVariables
280
     0
  1
0
  0
DICTIONARYVAR
  5
18A21
102
{ACAD_REACTORS
330
5E
102
}
330
5E
100
DictionaryVariables
280
     0
  1
2
  0
DICTIONARYVAR
  5
18A20
102
{ACAD_REACTORS
330
5E
102
}
330
5E
100
DictionaryVariables
280
     0
  1
1
  0
DICTIONARYVAR
  5
18A73
102
{ACAD_REACTORS
330
5E
102
}
330
5E
100
DictionaryVariables
280
     0
  1
80.000000
  0
DICTIONARYVAR
  5
18A72
102
{ACAD_REACTORS
330
5E
102
}
330
5E
100
DictionaryVariables
280
     0
  1
5.000000
  0
DICTIONARYVAR
  5
18A22
102
{ACAD_REACTORS
330
5E
102
}
330
5E
100
DictionaryVariables
280
     0
  1
127
  0
DICTIONARYVAR
  5
18A74
102
{ACAD_REACTORS
330
5E
102
}
330
5E
100
DictionaryVariables
280
     0
  1
2
  0
DICTIONARY
  5
18AB6
330
21C
100
AcDbDictionary
280
     1
281
     1
  3
ACAD_XREC_ROUNDTRIP
360
18AB7
  0
DICTIONARY
  5
18A7B
330
D3
100
AcDbDictionary
280
     1
281
     1
  3
ACAD_XREC_ROUNDTRIP
360
18A7C
  0
DICTIONARY
  5
18A7D
330
D7
100
AcDbDictionary
280
     1
281
     1
  3
ACAD_XREC_ROUNDTRIP
360
18A7E
  0
DICTIONARY
  5
18A78
330
22
100
AcDbDictionary
280
     1
281
     1
  3
ACAD_XREC_ROUNDTRIP
360
18A79
  0
DICTIONARY
  5
1F9
330
ED
100
AcDbDictionary
280
     1
281
     1
  3
ACAD_XREC_ROUNDTRIP
360
18A80
  3
FBXASSET
360
1FA
  0
DICTIONARY
  5
1F7
330
EC
100
AcDbDictionary
280
     1
281
     1
  3
ACAD_XREC_ROUNDTRIP
360
18A7F
  3
FBXASSET
360
1F8
  0
DICTIONARY
  5
173
330
EE
100
AcDbDictionary
280
     1
281
     1
  3
ACAD_XREC_ROUNDTRIP
360
18A81
  3
BUMPTILE
360
175
  3
DIFFUSETILE
360
174
  3
FBXASSET
360
1FB
  3
OPACITYTILE
360
176
  3
REFLECTIONTILE
360
177
  0
DICTIONARY
  5
18AA2
330
12E
100
AcDbDictionary
280
     1
281
     1
  3
ACAD_XREC_ROUNDTRIP
360
18AA3
  0
DICTIONARY
  5
18AB4
330
21A
100
AcDbDictionary
280
     1
281
     1
  3
ACAD_XREC_ROUNDTRIP
360
18AB5
  0
DICTIONARY
  5
162
330
7F
100
AcDbDictionary
280
     1
281
     1
  3
ACAD_ROUNDTRIP_2008_TABLESTYLE_CELLSTYLEMAP
360
18A75
  3
ACAD_XREC_ROUNDTRIP
360
18A7A
  0
DICTIONARY
  5
18A8C
330
F5
100
AcDbDictionary
280
     1
281
     1
  3
ACAD_XREC_ROUNDTRIP
360
18A8D
  0
DICTIONARY
  5
18A8A
330
F4
100
AcDbDictionary
280
     1
281
     1
  3
ACAD_XREC_ROUNDTRIP
360
18A8B
  0
DICTIONARY
  5
18A98
330
FB
100
AcDbDictionary
280
     1
281
     1
  3
ACAD_XREC_ROUNDTRIP
360
18A99
  0
DICTIONARY
  5
18AA0
330
FF
100
AcDbDictionary
280
     1
281
     1
  3
ACAD_XREC_ROUNDTRIP
360
18AA1
  0
DICTIONARY
  5
18A92
330
F8
100
AcDbDictionary
280
     1
281
     1
  3
ACAD_XREC_ROUNDTRIP
360
18A93
  0
DICTIONARY
  5
18A96
330
FA
100
AcDbDictionary
280
     1
281
     1
  3
ACAD_XREC_ROUNDTRIP
360
18A97
  0
DICTIONARY
  5
18AA8
330
1E6
100
AcDbDictionary
280
     1
281
     1
  3
ACAD_XREC_ROUNDTRIP
360
18AA9
  0
DICTIONARY
  5
18A9E
330
FE
100
AcDbDictionary
280
     1
281
     1
  3
ACAD_XREC_ROUNDTRIP
360
18A9F
  0
DICTIONARY
  5
18A82
330
F0
100
AcDbDictionary
280
     1
281
     1
  3
ACAD_XREC_ROUNDTRIP
360
18A83
  0
DICTIONARY
  5
18A84
330
F1
100
AcDbDictionary
280
     1
281
     1
  3
ACAD_XREC_ROUNDTRIP
360
18A85
  0
DICTIONARY
  5
18A86
330
F2
100
AcDbDictionary
280
     1
281
     1
  3
ACAD_XREC_ROUNDTRIP
360
18A87
  0
DICTIONARY
  5
18A88
330
F3
100
AcDbDictionary
280
     1
281
     1
  3
ACAD_XREC_ROUNDTRIP
360
18A89
  0
DICTIONARY
  5
18A90
330
F7
100
AcDbDictionary
280
     1
281
     1
  3
ACAD_XREC_ROUNDTRIP
360
18A91
  0
DICTIONARY
  5
18AA4
330
1E4
100
AcDbDictionary
280
     1
281
     1
  3
ACAD_XREC_ROUNDTRIP
360
18AA5
  0
DICTIONARY
  5
18A9C
330
FD
100
AcDbDictionary
280
     1
281
     1
  3
ACAD_XREC_ROUNDTRIP
360
18A9D
  0
DICTIONARY
  5
18AA6
330
1E5
100
AcDbDictionary
280
     1
281
     1
  3
ACAD_XREC_ROUNDTRIP
360
18AA7
  0
DICTIONARY
  5
18A94
330
F9
100
AcDbDictionary
280
     1
281
     1
  3
ACAD_XREC_ROUNDTRIP
360
18A95
  0
DICTIONARY
  5
18AB2
330
1F3
100
AcDbDictionary
280
     1
281
     1
  3
ACAD_XREC_ROUNDTRIP
360
18AB3
  0
DICTIONARY
  5
18AB0
330
1F2
100
AcDbDictionary
280
     1
281
     1
  3
ACAD_XREC_ROUNDTRIP
360
18AB1
  0
DICTIONARY
  5
18AAA
330
1EF
100
AcDbDictionary
280
     1
281
     1
  3
ACAD_XREC_ROUNDTRIP
360
18AAB
  0
DICTIONARY
  5
18AAC
330
1F0
100
AcDbDictionary
280
     1
281
     1
  3
ACAD_XREC_ROUNDTRIP
360
18AAD
  0
DICTIONARY
  5
18A9A
330
FC
100
AcDbDictionary
280
     1
281
     1
  3
ACAD_XREC_ROUNDTRIP
360
18A9B
  0
DICTIONARY
  5
18A8E
330
F6
100
AcDbDictionary
280
     1
281
     1
  3
ACAD_XREC_ROUNDTRIP
360
18A8F
  0
DICTIONARY
  5
18AAE
330
1F1
100
AcDbDictionary
280
     1
281
     1
  3
ACAD_XREC_ROUNDTRIP
360
18AAF
  0
XRECORD
  5
18AB7
102
{ACAD_REACTORS
330
18AB6
102
}
330
18AB6
100
AcDbXrecord
280
     1
102
DISPLAYNAME
  1
Metric50
102
FLAGS
 90
        0
  0
XRECORD
  5
18A7C
102
{ACAD_REACTORS
330
18A7B
102
}
330
18A7B
100
AcDbXrecord
280
     1
102
SHADEPLOT
 70
     0
102
SHADEPLOTRESLEVEL
 70
     2
102
SHADEPLOTCUSTOMDPI
 70
   300
  0
XRECORD
  5
18A7E
102
{ACAD_REACTORS
330
18A7D
102
}
330
18A7D
100
AcDbXrecord
280
     1
102
SHADEPLOT
 70
     0
102
SHADEPLOTRESLEVEL
 70
     2
102
SHADEPLOTCUSTOMDPI
 70
   300
  0
XRECORD
  5
18A79
102
{ACAD_REACTORS
330
18A78
102
}
330
18A78
100
AcDbXrecord
280
     1
102
SHADEPLOT
 70
     0
102
SHADEPLOTRESLEVEL
 70
     2
102
SHADEPLOTCUSTOMDPI
 70
   300
  0
XRECORD
  5
18A80
102
{ACAD_REACTORS
330
1F9
102
}
330
1F9
100
AcDbXrecord
280
     1
102
MATERIAL
148
0.0
149
0.0
149
0.0
 93
        0
 94
       63
282
     0
 72
     1
 77
     1
171
     1
175
     1
179
     1
273
     0
  0
XRECORD
  5
1FA
102
{ACAD_REACTORS
330
1F9
102
}
330
1F9
100
AcDbXrecord
280
     1
 70
     1
 90
429727718
  1
D62C5603-E3A1-4AEA-B7FB-FE5D8D0755AF
310
504B03040A0000080000CC70623B3DEE336E79000000790000001B0000006175746F6465736B2D64657369676E2D7061636B6167652E786D6C3C3F786D6C2076657273696F6E3D22312E302220656E636F64696E673D227574662D3822203F3E3C666F726D6174733E3C666F726D61743E687474703A2F2F736368656D612E
310
6175746F6465736B2E636F6D2F64657369676E2D7061636B6167652F323030393C2F666F726D61743E3C2F666F726D6174733E504B0304140006080800CC70623BD486FD9CA0000000F4000000130000005B436F6E74656E745F54797065735D2E786D6C7D8EC10E82300C865F65E91D8A1E8C310C0EEA1BF002731658846E
310
D98AC1B77784ABF1D8FE5FBFBF75BBCE937A534CCEB38643598122B6FEE978D0B0485F9C41B54DDD7D022595594E1A469170414C76A4D9A4D207E29CF43ECE46F218070CC6BECC4078ACAA135ACF422C856C0E68EA1BF5669944DDD7BCDE7B1F8E415D77AECB980613C2E4AC91FC167A2B244592486606FC29C8FD7F045B9A
310
EF7053A7E60B504B0304140006080800CC70623B853B8169EB0000007C01000008000000636F72652E786D6C8D90416EC3201045AF62CDB6C206821CC7C244919D9CA01740401C94182C03558F5F9C3852BBEB6A467FFE9B197D7EFC9E1EC5975982F5AE035262288C535E5B377690E21535501C055FBC8FBF6C503839990E
310
5619041F179FE64D52DE45E362569DD7661365082642A11EB9E920A89B99642953CC8E702F67A9EE7234257977194EC9EAE275C4EABCCF5EAD5940D4AC6F0E35A568B8F43562CD7046CD199FD07E60174276A7BE677B5EADB0E0D14EEFFB6A31321A0D82627C4084204C3F096B71DD52F6819B16635EADF63F509AF53FA164
310
5DDCD1EDDD17164090FCC8732078B56691CB33A85CD7DCC40F504B0304140006080800CC70623B55019EA25F0000007C00000007000000636E782E786D6C4DCB3B0E80201045D1AD90E915ED2CF8AC45050C11660C8261F98AB1B07AC9C97D42D718D865D3E909258CFD00CCE24AC6E326A164D74DC0B4128928FF32603847
310
2BA13128B1252AC747C6BAB984FC68F0B87FE8960A5C09FE86CFB69FBA01504B0304140006080800CC70623BDBABAAF470010000D40300000C0000006662782F636F72652E786D6CC553D16E823014FD95A6AF4B694182CC941A83FA05FB810A9511A125A5257EFE2E82712ECEB8A7F100CD39F7F69E734AF9FADC366850B6
310
AF8DCE7018308C942E4C59EB2AC3DE1D498AD15A706B8CFB56869196ADCAF00863C12B6B7C374385D14E6907A836A59A41D9F7CA615434B0C8705F7CAA5606D23BA8E84F41278B93AC54100640439DE0BDB320004D43C63716C7C399D30917DCFBBA9CD9BA8469F5B156168B24CED3F7248AC8769F27244EB73B92EED8862C
310
B7F13E0C179B3C8F979C8ECD82BBBABDAA2BAC924E9558448CBD9330242CFA08E3154B5651FCC6D215639C8EE5774DBE2B5F6CF2B5768B68963BB5F5588420E442FC700B1139D4CB01F450C1E918227C2E09DF070D8140C84E1E9AAB8F1340832A9CB13130A5F1376A908D57309505ECF2A0DF179C4E9D30F5B239B87E3823
310
7A79C6F31DE1A8A5AEC08474B03C7837EAE4938639B44E5932B833D2C6B6B279CDC613877FA26EE21F4A2A4C63EC7F29A2F301D1F9F7A0E37D145F504B0304140006080800CC70623B9C113CC27E0000009D0000000B0000006662782F636E782E786D6C4DCCDF0A83201C86E15B91DFB94BFB330DD428C8FB886521330DA7
310
6397BF1A1DECE883878F57749FCDA1B7892F1BBC047A23808C7F84D9FA55424E0BE6803A256208E9EF06C84F9B91703228B1C690F78B66B34CD9A5439DF5CF0BFBF65E35BCA1B8D6A5C6F540381E886698B5741C695F9503EBA150A2F8958E3DC3EA0B504B0304140006080800CC70623B7DF2F77C2A010000120200003100
310
00006662782F41393633353835312D344632462D344230382D423046372D3739314545314133324237412F636F72652E786D6C8D51DB8EC22014FC15C2939B0D2DB4B45643319AE817EC0F6041255A68B86CFCFC856D4D76DF7CE190393373060EDB3DC707F856CE6B6B7A480A0C81328395DA5C7B18C3057510EC3873D686
310
3F34088C18550F330C39BB3A1BA7051AAC09CA84841A2BD5020AEF55806078A44B0FFD7053A328440C89E1EFC52486BBB8AA8214A99D789CF9E05200300FC927E4FB4D5B375D43103D5527440FB843077C5AA3F5861C8F645F5787F59E95B390B318B55CE45AA638FAA2957BD7248B390B7A7CC51F9C124149C82B8C378810
310
84AB2F42B7B8DD56F413775B8C5999E9FF4471926F8AA236A1AE96B8B3CC434E5839373893369E1FAF30EA395917409EB7F26AF8801C171837A4A6AC9C89E9F9C9B1A58BA30FD6A5EF5DDDCF894B9AD9B6A59C957943A9FCAE2FD5BC4DFE03504B0304140006080800CC70623BAD7543B64E01000033030000300000006662
310
782F41393633353835312D344632462D344230382D423046372D3739314545314133324237412F636E782E786D6CD593CD6EC32010845F0571AD6CE3D48AD20813A9873E410FBD12D82434182C7EAAE6EDBB2424CD25871E7B41D6EC30B3FA84F9E67BB2E40B4234DE8DB46F1925E094D7C6ED479AD3AE5951B2113C789FEE
310
6C943839C1488B4C05DF079FE72A69D8C96C13AAD6B8631503449F83828872B949AC57D26200B826A308D316B4064D6E46FCDA41C05550DC9E483A00797BFD207EFB092A45DE9514C1BBD22178396BD39D891265658C238DEA00936C654E5E433CB65A26D9F6EDB5EBC14EBF49A45CB856E66048291F6939A9A81BB5C89177
310
38143CA680F4AA299D66A042CEB3354A2684DC9D8D178FE0D9B8B41CAAD720F880EE7EF93C0C18769E099ECC04D5A102C8049A8A05632F4DDF376CF1DE0F6BB65C2F8627B65A33C6BB62177CEBBDAD973006829F89F22E814B54F4BC2BE347F8AA8F681390B50FA73F804400B5F542E796F19FF974E7F78DB802FE05E20750
310
4B0304140006080800CC70623BE75B7789680500003C100000340000006662782F41393633353835312D344632462D344230382D423046372D3739314545314133324237412F6F626A656374732E786D6CAD575B8F9B3818FD2B887D06C22499CB8AA1CA655245D5B455A356FB305264C061D8018C6C3393D95FBFC7600890
310
A4CD5EF210B0B1BFEBF98E3F7B1FF6596ABC522E1296DF9BAE3D320D9A872C4AF2F8DE2CE5CEBA358D0FBEC719939D65A691938CDE9B6ADAF4BD98B3B2D05311DD91329583D9D5FC0F438434A7A611A644887B5384CF34233629258BA878B12322891DEFF6B66BD70BFB62634E8AE781D082709A4B588AF91C528CDA28B73F
310
1C998EEF39EABBEFA97FBD6A7C7E9553F9D3D79FE442923C3C523610337627CB87ABE99D359D4CC6D6E4FACAB5E6ABF9D2726FC6A3C5F56271377BB88362213924694B38DD99FE47C48627A1E7D49F5A8BB5E1A74C0A599ED3B0F21F1E56366B89112D681E218F0915D0D6F17AD41FBA2A369DCF6335D62ABBD39779D5DDD1
310
11D4D8DE3CBB96B2E04FB8202E41051754A1AA8E8F76B4C6DFE810B580B1547F4B84911149794252234D024EF8BBE963A95AE27B3D310A9D5C215C7960FAEE415ED75694C6AFB17BCACA5D99A60A9AA65F217B0BFC53292ACB92BF283FAD0D3621576592CB5BED907C2FA8E9DF794E35E97BEA31BED21FEB401ABB94C44839
310
DCACBF0E1C5DA8DA5B2F4DFFD32AD86F543D9E565E7056502E157C00AD2671CD534549AB752FCA9CDA00677A313F04E51B22FF19E57B300579E3C97EB29F682D92935CEC18CF901B7B54FD8C51F362B56FC72FE0B3C1EAE335EDCCBF5AEC39ADB17DC238973F804BA5E6F6BFE7AF1FB32E523BE9F3BD571418E3631DCA4D48
310
5250CF639223210A9446CA30052EDF057BD35F8329C1ECD84552BF0DC8D18BE7BCE23BFE6BD960AB4A7DE79923A103BEBD80F911CBAA2C60DB19B01CF164A5583B772EE6D3FFA56666CBCDA74DC97724A48F9A58967497E489C4D979006FD7A05E227A1EBDD0F737C623387A9C844D3709995625106D157315F8B8392CD4E0
310
A0B9A720C4BE9829CEF37EA1E13111214D53925356365ADA634861B52519DD27A00AEB808EAF0628E6F435519D446F45CF2C9CF5214F0A15B2F6D06B79DA3EE3CBF7F56780D2F4E7EF73A0F5E5B02A38D07DC852C6B7C1FBB6664213E0C39E3EBA7FF4E1AD23EA2829407C85E586727488B751B2DB9502BC7B228A3FD68B6E
310
A65A22397E690AA8D158D7E404EC8CDA235CC3B7D1898680131CEC2CDF2638C65196279577750F15884AEE19F94199155B92B13297978469D4F8D358DF0AEF7631E28DC8F0D9F437D5D39A83B2231A1D52D543813A824EF8D44BCFF2FA6A31BD1E8DAD87F1CCB526B3879935BF59CDADD5C37479BB1CDD4CA7B3556B516589
310
EF352754B706114D9C885EC9131DE6EFEB43D99AFE2391C2F958179413D7CFEF6B1B6DB1E7600F00DE6E5C67454A339A4BA2E0FBA85ED26F045D454F463DBFCE484C2F90F2E5E3666003662ED8F755951A7D1BECD5B30B550B2785C8E7320B7292A4838DDA71BBC863ED7613CAF659337A3354231D4FF4A182A54904C2898C
310
98B28C4AD0CE056CCF332A80986E571EE9DBC305BB5FEB7E509220A58D25CF042D712A806AC0AD0C657FDEF80D2D9CEAA2EE4D1C76F60BFE74219A06527D6F82DF6412526107381E55E353090704D085B52408A8913C4ED159D79BDA71BB4BC506F4831350EB6F975CD22D69BF7AC49B91A2C0A9DDA3D5CA36AD20FC478E37
310
E61844E2352865EBCB61A275A65283CAAA9DD27703B4102F5AF51EF5F573B75CBB5AD38BC845F7A49F82A0966A49C2E3EA5EA0ECD326CD965F1DB402C6FA8B51A4658C5C5E2EC9E214602E55810345408596591009A82E7E7FFACA19EEA299B14A0081A705CB3296EBC14CDF658DCD336EA6D1136881AAEB87B81AB9EE53D5
310
F5EB8BC8362082DA24122F98680A4E7930C01A0079749CEA14382A0783E5EBA5A10F8C098456A03D6A4AEB6BB881E2513747552A5DB22C7EDAF83BD5528081A365F7FF06504B0304140006080000CC70623B000000000000000000000000350000006662782F41393633353835312D344632462D344230382D423046372D37
310
39314545314133324237412F76657274696365732E62696E504B0304140006080800CC70623BF270F1330600000004000000360000006662782F41393633353835312D344632462D344230382D423046372D3739314545314133324237412F747269616E676C65732E62696E636660600000504B0304140006080000CC7062
310
3B000000000000000000000000370000006662782F41393633353835312D344632462D344230382D423046372D3739314545314133324237412F617474726962757465732E62696E504B0304140006080800CC70623B08DA0BD19000000041010000360000006662782F41393633353835312D344632462D344230382D4230
310
46372D3739314545314133324237412F6469726563746F72792E786D6C858F410AC3201045AF22B36F53E9A60B35CBEEBAE80D244E44489C6234F4F835464A48035D0DF398FF9F8AF63D0E6CC63039F212F8F9020C7D47C6792B21C5FE7403D62A1188E2E60C98D7234A5830286103A55745067B9D86B8A3CF9C7F90C11DE6
310
07FB144396D7B6A82D282E9A152AD114D5EF2CB866EEE831B8EEA07A7BB5A8D7D61A2BAAEB7FD5F70921FF497D00504B0304140006080800CC70623BEDD1DC58FD000000A00100003B0000006662782F41393633353835312D344632462D344230382D423046372D3739314545314133324237412F7265736F75726365732F
310
636F72652E786D6C8D504B6E833010BD0A9A6D65B00922041947112427E8052C33A156828DFCA97AFC9A40A576D7CDCCE87D344F8F9FBFE667F689CE6B6B3A6039850C8DB2A336530731DC4903D95970676DF82583CCC8193B5861107C72362E3BA4AC096842428D1D7107A5F7182053CF7474E0D507CE32973124857FE48B
310
540F3961CEF244279DE03EB81420DB9EAC1384436FA353E879B1B182C7A8C75DA3C7F453DF353A1075D537A7BA6464B8F535A99AE14A9A2BBD90E350DD183B5CFABE3AF262350B1EF4FC9351399401471025A527C218A1E53BAB5A5AB765F5469B96525EACF23FA6B88CFF34456DC2A1DCE36E360F82A5202F42F062ED2BAD
310
579969AFDD8A6F504B010214000A0000080000CC70623B3DEE336E79000000790000001B00000000000000000000000000000000006175746F6465736B2D64657369676E2D7061636B6167652E786D6C504B01021400140006080800CC70623BD486FD9CA0000000F40000001300000000000000000000000000B20000005B
310
436F6E74656E745F54797065735D2E786D6C504B01021400140006080800CC70623B853B8169EB0000007C010000080000000000000000000000000083010000636F72652E786D6C504B01021400140006080800CC70623B55019EA25F0000007C000000070000000000000000000000000094020000636E782E786D6C504B
310
01021400140006080800CC70623BDBABAAF470010000D40300000C00000000000000000000000000180300006662782F636F72652E786D6C504B01021400140006080800CC70623B9C113CC27E0000009D0000000B00000000000000000000000000B20400006662782F636E782E786D6C504B01021400140006080800CC70
310
623B7DF2F77C2A010000120200003100000000000000000000000000590500006662782F41393633353835312D344632462D344230382D423046372D3739314545314133324237412F636F72652E786D6C504B01021400140006080800CC70623BAD7543B64E010000330300003000000000000000000000000000D2060000
310
6662782F41393633353835312D344632462D344230382D423046372D3739314545314133324237412F636E782E786D6C504B01021400140006080800CC70623BE75B7789680500003C10000034000000000000000000000000006E0800006662782F41393633353835312D344632462D344230382D423046372D3739314545
310
314133324237412F6F626A656374732E786D6C504B01021400140006080000CC70623B0000000000000000000000003500000000000000000000000000280E00006662782F41393633353835312D344632462D344230382D423046372D3739314545314133324237412F76657274696365732E62696E504B01021400140006
310
080800CC70623BF270F133060000000400000036000000000000000000000000007B0E00006662782F41393633353835312D344632462D344230382D423046372D3739314545314133324237412F747269616E676C65732E62696E504B01021400140006080000CC70623B0000000000000000000000003700000000000000
310
000000000000D50E00006662782F41393633353835312D344632462D344230382D423046372D3739314545314133324237412F617474726962757465732E62696E504B01021400140006080800CC70623B08DA0BD1900000004101000036000000000000000000000000002A0F00006662782F41393633353835312D344632
310
462D344230382D423046372D3739314545314133324237412F6469726563746F72792E786D6C504B01021400140006080800CC70623BEDD1DC58FD000000A00100003B000000000000000000000000000E1000006662782F41393633353835312D344632462D344230382D423046372D3739314545314133324237412F7265
310
736F75726365732F636F72652E786D6C504B0506000000000E000E0080040000641100000000
  0
XRECORD
  5
18A7F
102
{ACAD_REACTORS
330
1F7
102
}
330
1F7
100
AcDbXrecord
280
     1
102
MATERIAL
148
0.0
149
0.0
149
0.0
 93
        0
 94
       63
282
     0
 72
     1
 77
     1
171
     1
175
     1
179
     1
273
     0
  0
XRECORD
  5
1F8
102
{ACAD_REACTORS
330
1F7
102
}
330
1F7
100
AcDbXrecord
280
     1
 70
     1
 90
429727718
  1
30362254-06B7-45E0-A893-8CFA70E3D6BC
310
504B03040A0000080000CC70623B3DEE336E79000000790000001B0000006175746F6465736B2D64657369676E2D7061636B6167652E786D6C3C3F786D6C2076657273696F6E3D22312E302220656E636F64696E673D227574662D3822203F3E3C666F726D6174733E3C666F726D61743E687474703A2F2F736368656D612E
310
6175746F6465736B2E636F6D2F64657369676E2D7061636B6167652F323030393C2F666F726D61743E3C2F666F726D6174733E504B0304140006080800CC70623BD486FD9CA0000000F4000000130000005B436F6E74656E745F54797065735D2E786D6C7D8EC10E82300C865F65E91D8A1E8C310C0EEA1BF002731658846E
310
D98AC1B77784ABF1D8FE5FBFBF75BBCE937A534CCEB38643598122B6FEE978D0B0485F9C41B54DDD7D022595594E1A469170414C76A4D9A4D207E29CF43ECE46F218070CC6BECC4078ACAA135ACF422C856C0E68EA1BF5669944DDD7BCDE7B1F8E415D77AECB980613C2E4AC91FC167A2B244592486606FC29C8FD7F045B9A
310
EF7053A7E60B504B0304140006080800CC70623B1EC5D7A3EB0000007C01000008000000636F72652E786D6C8D90416EC3201045AF82665B6103C6756C6122AB4D4ED00B204C5C94182C03558F5F9C3852BBEB6A467FFE9B197D71FC9E6FE8CBACC17AD7032D0820E3B41FAD9B7A48F1820F808E52ACDEC75F36404ECDA687
310
4D0629A6D5A76597B477D1B89855E747B38B2A041301E95B6E7A08FAD3CCAA50296647B8168BD2573599823EBB0CA76447F43862C7BCCF5EAC59410E4DDD9C7973C2755553CCCFA4C603E3040F1565ED3B1FDE4E432BCA0D9622DAF9795FAF464533826484B498524CD807E51D79ED187F21878E10516EF63F505AC67F42C9
310
BA58B1FDDD071640D2FCC87D2045B96591CB3DA85CB7DCE40F504B0304140006080800CC70623B55019EA25F0000007C00000007000000636E782E786D6C4DCB3B0E80201045D1AD90E915ED2CF8AC45050C11660C8261F98AB1B07AC9C97D42D718D865D3E909258CFD00CCE24AC6E326A164D74DC0B4128928FF32603847
310
2BA13128B1252AC747C6BAB984FC68F0B87FE8960A5C09FE86CFB69FBA01504B0304140006080800CC70623B8C9102E971010000D40300000C0000006662782F636F72652E786D6CC5535B6E833010BC8AE5DF0A6C08340F1947A84D4ED00B38C6A128602363A31CBFCB234A53A551FA553EC09AD9F5CE8C31DB9E9B1AF5CA
310
7695D1198E428A91D2D214952E33ECDD315861B4E5CC1AE3BE9561A445A3323CC098B3D21ADFCE9034DA29ED00D5A6503328BA4E398C640D8B0C77F253352214DE4145770A5B214FA2546114020D759C75CE8200340D19DE981F0F6746269C33EFAB6266AB02A655C74A59CCF365BADC27CB5D902ED22848F6340DF238A141
310
BE88E2F57B92BFEDF23523433367AE6A2EEAA455C2A902F398D2751045018D3FA264435F3771F242571B4A1919CA6F9A7C5B3CD9E42BED16F12C776AEB308F40C848FC700B1139D4891EF410CEC810227CC6846F8386402064270EF5C5C709A05E49676C024C61FC95EA45ED154CA5211D1FF4FB8291A913A68E9B83EBBB33
310
E2A7673CDE118E5AE8124C0807CB8377834E366998436B950D7A7746DAD846D4CFD978E0F04FD455FC5D49D2D4C6FE9722321F10997F0F32DC47FE05504B0304140006080800CC70623BFFEA85907E0000009D0000000B0000006662782F636E782E786D6C4DCCD10A83201886E15B91FFDC95D95A811AB6F23E625948A6C3
310
E9D8E5AF46073BFAE0E1E365ED67B3E8ADC3CB78C7815C7240DA3DFC64DCC221C519D7805AC182F7F1EF06C88D9BE6703008B6049F9E274D7A1E938DBB5AE3D6131B2589BA0D3D965551E0B2EA732C9B9A624AAEB41E3A557677029960D9AFB4EF11165F504B0304140006080800CC70623B4FEEA4082C0100001202000031
310
0000006662782F39464131463745442D413632322D343644302D413938332D3331353338454246344243312F636F72652E786D6C8D515B6EC32010BC0AE2AB55850DD871ED0813254D72825EC00192A2C460F1A872FC42ED48ED5F7E00CDCECCCEB26C731F6FE05B39AFADE921293004CA082BB5B9F43086336A21D870E6AC
310
0D7F68109861543DCC30E4ECE26C9C164858139409093556AA051CBC570102714B8F1E7AF1A5C6A11862480C7F2DA6415C878B2A4891CA89C7990F2E050073937C42DE1DB7E4F87ED8A36D4329AA9B3D46DBAEAD504556557BD81DEBDD0761E52CE42C462D17B996298E3E6BE59E35C962CE821E1FF18553435012728A7187
310
0841987E927A8D9B35ADDF70BBC6989599FE4F1427F9A4286A132ABAC49D651EF234CD5CE04CDA78BA3DC2A8FB645D00B9DF8B57E215725C60BCA2A463E54C4CE327C7A65E1C7DB02E7DEFCBF594B864C5CA6CDBD49C957943E9FA5D5FBAF336F90F504B0304140006080800CC70623BAD7543B64E01000033030000300000
310
006662782F39464131463745442D413632322D343644302D413938332D3331353338454246344243312F636E782E786D6CD593CD6EC32010845F0571AD6CE3D48AD20813A9873E410FBD12D82434182C7EAAE6EDBB2424CD25871E7B41D6EC30B3FA84F9E67BB2E40B4234DE8DB46F1925E094D7C6ED479AD3AE5951B2113C
310
789FEE6C943839C1488B4C05DF079FE72A69D8C96C13AAD6B8631503449F83828872B949AC57D26200B826A308D316B4064D6E46FCDA41C05550DC9E483A00797BFD207EFB092A45DE9514C1BBD22178396BD39D891265658C238DEA00936C654E5E433CB65A26D9F6EDB5EBC14EBF49A45CB856E66048291F6939A9A81BB5
310
C8917738143CA680F4AA299D66A042CEB3354A2684DC9D8D178FE0D9B8B41CAAD720F880EE7EF93C0C18769E099ECC04D5A102C8049A8A05632F4DDF376CF1DE0F6BB65C2F8627B65A33C6BB62177CEBBDAD973006829F89F22E814B54F4BC2BE347F8AA8F681390B50FA73F804400B5F542E796F19FF974E7F78DB802FE05
310
E207504B0304140006080800CC70623B16AB87BA640500003C100000340000006662782F39464131463745442D413632322D343644302D413938332D3331353338454246344243312F6F626A656374732E786D6CAD575B6FA33818FD2B887DE6924B3BED8A326A92B68A663B534DD4D13E548A0C38942D60649B369D5FBFC7
310
600890A493BDE42160637FD7F31D7FF63E6FB3D478A55C242CBF3247B66B1A340F5994E4F19559CA8D75611A9F7D8F33263BCB4C232719BD32D5B4E97B316765A1A722BA21652A07B3B7B33F0D11D29C9A46981221AE4C113ED38CD8A4942CA2E2C58E882476BCD9DA23BB5ED8171B73523C0F841684D35CC252CCE79062D4
310
468DFA43D7747CCF51DF7D4FFDEB5593E3AB9CCA9FBEFE241792E4E19EB28198C968BAB8199F5D5A67D3E9C49A9E8F47D6EC76B6B0469F26EEFC7C3EBFBCBEB98462213924694B38DD98FE1D62C393D073EA4FADC5DAF04326852CCF6958F90F0F2B9BB5C48816348F90C7840A68EB78EDF68723159BCEE7891A6B95DDE9D3
310
BCEAEEE8086A6C6F9E5D4B59F0175C10A7A0820BAA5055C7473B5AE3CFDD452D602CD5DF12616444529E90D448938013FE6EFA58AA96F85E4F8C42275708571E98FE6827AF6B2B4AE3D7D83D64E5A64C53054DD3AF90BD06FEA9149565C94FCA0F6B834DC85599E4F2423B24DF0B6AFA979E534DFA9E7A4CC6FA631D486393
310
921829879BF5D781A373557BCB85E97FB90DB62B558F8795179C15944B051F40AB495CF35451D26A4727654E6D8033BD98EF82F21D91FF8AF2DD9982BCF1643BDD4EB516C9492E368C67C88DED563FC36D5EACF66DFF057C3658BDBFA69DF9578B3DA735B64F18C7F20770A9D45CFCF7FCF563D6456A277DBEF78A02637CA2
310
43B90A490AEAB94F72244481D24819A6C0E59B606BFA4B3025981DBB48EAB701D97BF19C577CC77F2D1B6C55A9EF3C732474C0B727303F625995056C3B02963D9EAC146BE78EC5FCEC7FA999EBC5EACBAAE41B12D27B4D2C0BBA49F244E2ECDC81B76B502F113D8F5EE8FB1BE3111CDD4FC2AA9B844CAB1288B68AB90A7CDC
310
1C166AB0D3DC5310625FCC14E779BFD0709F8890A629C9292B1B2DED31A4B0DA928CEE135085754027E3018A397D4D5427D15BD1330B677DC8934285AC3DF45A9EB68FF8F2B8FC0A509AFEECFD0FF2DE25CC6047F7214B195F07EFEB9A094D800F7BFAE8FED187B78EA8A3A400F115961BCAD1215E47C966530AF0EE8128FE
310
58CEBB996A8964FFA529A046635D9353B0336A8F700DDF46271A024E70B0B37C9DE01847591E54DED53D54202AB947E4076556AC49C6CA5C9E1226B7F1A7B1BE15DEED62C41B91E1B3E9AFAAA735036547343A925075041DF0A9979E893B391F8FCFA6967B3EFB644DCF6E5CEBFAE272625DCC6FAF3FB93793C5F90CE1EF57
310
407342756B10D1C489E8953CD1617E5CEECAD6F4EF8914CE5D5D504E5C3F1F9736DA62CFC11E00BCDDB8CC8A9466349744C1F75EBDA4DF09BA8A9E8C7A7E9991989E20E5DBDD6A6003664ED8F7A04A8DBE0DF6EAD9B9AA858342E47399053949D2C146EDB85DE4B176BB0965FBAC19BD19AA918E27FA50C1D22402E144464C
310
59462568E704B6E71915404CB72B8FF4EDE184DDAF753F284990D2C6926782963815403548A70C657FDEF80D2D9CEAA2AE4C1C76F60BFE74219A06527D6582DF6412526107381E55E353090704D085B52408D0933C4ED159D79BDA71BB4BC506F4831350EB6F979CD22D69BF7AC49B91A2C0A9DDA3D5CA36AD20FC478E37E6
310
1844E2352865EBCB6EA275A652E3836BE04EFB400BF1A2556F515F1FBB35B2AB35BD889C744FFA1004B5544B121E57F70215746DD2F5E2C1412B602CBF19455AC6C8E5E9922C4E01E65215385004546899059180EAFCF7A707CE7017CD8CDB0410789AB32C63B91E5CEBBBACB17AC6CD347A022D5075FD106377347AAABA7E
310
7D11590744509B44E205134DC1290F06580320F78E537D3D73540E06CB970B431F185308AD40BBD794D6D77003C5A36E8EAA54BA64597CD8F83BD552A080A365F7FF06504B0304140006080000CC70623B000000000000000000000000350000006662782F39464131463745442D413632322D343644302D413938332D3331
310
353338454246344243312F76657274696365732E62696E504B0304140006080800CC70623BF270F1330600000004000000360000006662782F39464131463745442D413632322D343644302D413938332D3331353338454246344243312F747269616E676C65732E62696E636660600000504B0304140006080000CC70623B
310
000000000000000000000000370000006662782F39464131463745442D413632322D343644302D413938332D3331353338454246344243312F617474726962757465732E62696E504B0304140006080800CC70623B08DA0BD19000000041010000360000006662782F39464131463745442D413632322D343644302D413938
310
332D3331353338454246344243312F6469726563746F72792E786D6C858F410AC3201045AF22B36F53E9A60B35CBEEBAE80D244E44489C6234F4F835464A48035D0DF398FF9F8AF63D0E6CC63039F212F8F9020C7D47C6792B21C5FE7403D62A1188E2E60C98D7234A5830286103A55745067B9D86B8A3CF9C7F90C11DE607
310
FB144396D7B6A82D282E9A152AD114D5EF2CB866EEE831B8EEA07A7BB5A8D7D61A2BAAEB7FD5F70921FF497D00504B0304140006080800CC70623B0D6EF93BFE000000A00100003B0000006662782F39464131463745442D413632322D343644302D413938332D3331353338454246344243312F7265736F75726365732F63
310
6F72652E786D6C8D50596E833010BD0A9ADFCA60B334011947A8694ED00B586642AC041B79A97AFC9A40A5F6AF3F33A3B7689E1E3F7DCD8FEC139DD7D6F4C0720A191A65476DA61E62B892236427C19DB5E1970C322367EC618541F0C9D9B8EC90B226A009093576C41D94DE63804C3DD2D18357379C652E63480A7FCF17A9
310
EE72C29CE5894E3AC17D702940B63D59270887DE46A7D0F36263058F518FBB468FE9A7BE6A7420864373B8D4873369AA8691FA421B3294352543C5CAF65C0F6FEF43CB8BD52C78D0F34F46E550061C419494B6843142CB0F5677F4B52BEB177AEC28E5C52AFF638ACBF84F53D42654E51E77B379102C05791282176B5F693D
310
CB4C7BED567C03504B010214000A0000080000CC70623B3DEE336E79000000790000001B00000000000000000000000000000000006175746F6465736B2D64657369676E2D7061636B6167652E786D6C504B01021400140006080800CC70623BD486FD9CA0000000F40000001300000000000000000000000000B20000005B
310
436F6E74656E745F54797065735D2E786D6C504B01021400140006080800CC70623B1EC5D7A3EB0000007C010000080000000000000000000000000083010000636F72652E786D6C504B01021400140006080800CC70623B55019EA25F0000007C000000070000000000000000000000000094020000636E782E786D6C504B
310
01021400140006080800CC70623B8C9102E971010000D40300000C00000000000000000000000000180300006662782F636F72652E786D6C504B01021400140006080800CC70623BFFEA85907E0000009D0000000B00000000000000000000000000B30400006662782F636E782E786D6C504B01021400140006080800CC70
310
623B4FEEA4082C0100001202000031000000000000000000000000005A0500006662782F39464131463745442D413632322D343644302D413938332D3331353338454246344243312F636F72652E786D6C504B01021400140006080800CC70623BAD7543B64E010000330300003000000000000000000000000000D5060000
310
6662782F39464131463745442D413632322D343644302D413938332D3331353338454246344243312F636E782E786D6C504B01021400140006080800CC70623B16AB87BA640500003C1000003400000000000000000000000000710800006662782F39464131463745442D413632322D343644302D413938332D3331353338
310
454246344243312F6F626A656374732E786D6C504B01021400140006080000CC70623B0000000000000000000000003500000000000000000000000000270E00006662782F39464131463745442D413632322D343644302D413938332D3331353338454246344243312F76657274696365732E62696E504B01021400140006
310
080800CC70623BF270F133060000000400000036000000000000000000000000007A0E00006662782F39464131463745442D413632322D343644302D413938332D3331353338454246344243312F747269616E676C65732E62696E504B01021400140006080000CC70623B0000000000000000000000003700000000000000
310
000000000000D40E00006662782F39464131463745442D413632322D343644302D413938332D3331353338454246344243312F617474726962757465732E62696E504B01021400140006080800CC70623B08DA0BD190000000410100003600000000000000000000000000290F00006662782F39464131463745442D413632
310
322D343644302D413938332D3331353338454246344243312F6469726563746F72792E786D6C504B01021400140006080800CC70623B0D6EF93BFE000000A00100003B000000000000000000000000000D1000006662782F39464131463745442D413632322D343644302D413938332D3331353338454246344243312F7265
310
736F75726365732F636F72652E786D6C504B0506000000000E000E0080040000641100000000
  0
XRECORD
  5
18A81
102
{ACAD_REACTORS
330
173
102
}
330
173
100
AcDbXrecord
280
     1
102
MATERIAL
148
0.0
149
0.0
149
0.0
 93
        0
 94
       63
282
     0
 72
     1
 77
     1
171
     1
175
     1
179
     1
273
     0
  0
XRECORD
  5
175
102
{ACAD_REACTORS
330
173
102
}
330
173
100
AcDbXrecord
280
     1
270
     1
271
     1
  0
XRECORD
  5
174
102
{ACAD_REACTORS
330
173
102
}
330
173
100
AcDbXrecord
280
     1
270
     1
271
     1
  0
XRECORD
  5
1FB
102
{ACAD_REACTORS
330
173
102
}
330
173
100
AcDbXrecord
280
     1
 70
     0
 90
1673772943
  1
ECE7A1D2-D628-4531-984C-D00F80459256
310
504B03040A0000080000CC70623B3DEE336E79000000790000001B0000006175746F6465736B2D64657369676E2D7061636B6167652E786D6C3C3F786D6C2076657273696F6E3D22312E302220656E636F64696E673D227574662D3822203F3E3C666F726D6174733E3C666F726D61743E687474703A2F2F736368656D612E
310
6175746F6465736B2E636F6D2F64657369676E2D7061636B6167652F323030393C2F666F726D61743E3C2F666F726D6174733E504B0304140006080800CC70623BD486FD9CA0000000F4000000130000005B436F6E74656E745F54797065735D2E786D6C7D8EC10E82300C865F65E91D8A1E8C310C0EEA1BF002731658846E
310
D98AC1B77784ABF1D8FE5FBFBF75BBCE937A534CCEB38643598122B6FEE978D0B0485F9C41B54DDD7D022595594E1A469170414C76A4D9A4D207E29CF43ECE46F218070CC6BECC4078ACAA135ACF422C856C0E68EA1BF5669944DDD7BCDE7B1F8E415D77AECB980613C2E4AC91FC167A2B244592486606FC29C8FD7F045B9A
310
EF7053A7E60B504B0304140006080800CC70623BD9DDAED0EC0000007C01000008000000636F72652E786D6C8D90416EC3201045AF82665B61836D9CD8C2444DD39CA01740405C94182C03558F5F9C3852BBEB6A467FFE9B197D7EF89E6EE8CB2CC17A37002D0820E394D7D68D03A478C17B4007C117EFE32F1B20272733C0
310
2A83E0E3E2D3BC49CABB685CCCAAF3DA6CA20CC14440EA969B0182FA34932C648AD911AEC52CD5558EA6A0CF2EC329598D1E47ACCEFBECC59A050463A7EA5833865FEBDD0E37353BE3EE8DBDE3F6786A48D375FBF6CC78B9C282473B3DEFABC5C86834888A900E538A49F5419B9EB47DD5BC907D4F082F57FB1F28CDFA9F50
310
B22ED6D5F6EE030B20687EE43E10BC5CB3C8E51E54AE6B6EE207504B0304140006080800CC70623B55019EA25F0000007C00000007000000636E782E786D6C4DCB3B0E80201045D1AD90E915ED2CF8AC45050C11660C8261F98AB1B07AC9C97D42D718D865D3E909258CFD00CCE24AC6E326A164D74DC0B4128928FF326038
310
472BA13128B1252AC747C6BAB984FC68F0B87FE8960A5C09FE86CFB69FBA01504B0304140006080800CC70623BA24EB22D72010000D40300000C0000006662782F636F72652E786D6CC5535B6E833010BC8AE5DF0A6C5E49888CA3A6694ED00B38E05014B091B1518EDFE511A5A9D228FD2A1F60CDEC7A67C6986DCE4D8D7A
310
69BA4AAB0C073EC548AA5C17952A33ECECD15B61B4E1CC686DBF9561A44423333CC098B3D268D7CE50AE9595CA02AA74216750749DB418E5352C32DCE59FB211BE70162ABA93DF8AFC244AE9073ED050C759670D0840D390E18DF9F1706664C23973AE2A66B62A605A75ACA4C13C4976E1364A12EF355A2EBD384AF65EFA96
310
BC7B8BED2EA6719AAE16FB8491A199335B351775B991C2CA02F390D2D40B028F861F41BCA68B7518BFD0D59A524686F29B26D7164F36B94AD9289CE54E6D1DE6010819891F6E21228B3AD1831EC219194284CF98F06DD01008846CC5A1BEF83801D4CBDC6A1303536877A57A513B0953A94FC707FDBE6064EA84A9E3E6E0FA
310
EE8CF0E9198F7784A316AA0413C2C2F2E0ECA0934D1AE6D05A69BCDE9E91D2A611F573361E38FC1375157F5752AE6B6DFE4B11990F88CCBF0719EE23FF02504B0304140006080800CC70623B408A7D3B7C0000009D0000000B0000006662782F636E782E786D6C4DCCD10A83201886E15B91FFDC552A92A0064DBC8F581632
310
D3703A76F9ABD1C18E3E78F878E5F0D9027ABBFCF2292AE86E2D20171F69F6715550CB827B40839639A5F2770314A7CD293819B45C73AAFB45B35BA61ACAA1C1C7E7855C58C15BC331339661262CC762340413D68D77DA5B42298546CBE6573AF60CEB2F504B0304140006080800CC70623B449FB9BD290100001202000031
310
0000006662782F36394639363044362D344446342D343946362D394244322D3234314243333846323333332F636F72652E786D6C8D515B6EC32010BC0AE22B55850D98B871848994463E412FE002495162B07854397EA176A4F62F3F2C9A9D991D587EB84F37F0AD7D30CEF6905418026DA553C65E7A98E219ED203808EE9D
310
8B7F6810D871D23D2C3014FCE25D9A57483A1BB58D19B54EE9151C43D0110279CB971E06F9A5A7B11A53CC8C70ADE6515EC78BAE4895DB992778883E0700CB907242D17643D7E2538BD869608875438BBAE38922CAC8F1BDD90DB4691A5E2F42C153326A951B95E398B3D1FE599322163C9AE9115F7A3D46ADA0A018778810
310
84E907617BDCEE297BC5BB3DC6BC2EF47FA234AB2745C9D8D8D035EE220B50105E2F0DC1954B9FB747187D9F9D8FA0CCDB042D5FA0C015C65B42DF78BD10F3F3B363CB56C7109DCFDFBBB97E662ED92EB62D13BC2E1BCAE5777DB9966D8A1F504B0304140006080800CC70623BAD7543B64E01000033030000300000006662
310
782F36394639363044362D344446342D343946362D394244322D3234314243333846323333332F636E782E786D6CD593CD6EC32010845F0571AD6CE3D48AD20813A9873E410FBD12D82434182C7EAAE6EDBB2424CD25871E7B41D6EC30B3FA84F9E67BB2E40B4234DE8DB46F1925E094D7C6ED479AD3AE5951B2113C789FEE
310
6C943839C1488B4C05DF079FE72A69D8C96C13AAD6B8631503449F83828872B949AC57D26200B826A308D316B4064D6E46FCDA41C05550DC9E483A00797BFD207EFB092A45DE9514C1BBD22178396BD39D891265658C238DEA00936C654E5E433CB65A26D9F6EDB5EBC14EBF49A45CB856E66048291F6939A9A81BB5C89177
310
38143CA680F4AA299D66A042CEB3354A2684DC9D8D178FE0D9B8B41CAAD720F880EE7EF93C0C18769E099ECC04D5A102C8049A8A05632F4DDF376CF1DE0F6BB65C2F8627B65A33C6BB62177CEBBDAD973006829F89F22E814B54F4BC2BE347F8AA8F681390B50FA73F804400B5F542E796F19FF974E7F78DB802FE05E20750
310
4B0304140006080800CC70623B8D05915C650500003B100000340000006662782F36394639363044362D344446342D343946362D394244322D3234314243333846323333332F6F626A656374732E786D6CAD575B6FA33814FE2B887D06429276DA1565D4266D158D3A339A6846FB502932E050B66023DB74D2FDF5FB190C01
310
9276B2973C046C8ECFF53B17071F77456EBD502133CEAE6CDF9DD81665314F32965ED995DA3A17B6F5310C04E7AA47665B8C14F4CAD6DB7618A48257A5D94AE89654B91AEDDEDDFC61C998326A5B714EA4BCB265FC440BE2924AF184CA6737218AB8E976E7FA6E4338649B0A523E8D98964450A6A029F619B8588D52FE7039
310
B1BD30F0F4F730D0FF866AF6369557DB33949F31A9088B0F848DD8CCFCF9F2767A76E99CCDE733677E3EF59D9BBB9BA5E37F984D16E78BC5E5F5ED25044B25C0C96822E8D60EEFE11B91C581D77CEA34368A1F5329E68CD1B8B61F16D63A1B8E092D294B10C78C4A48EB593D192E7DED9BDEE7995E1B91FDEDD3ACEA9FE831
310
6A756F9F7D4D79F4274C90A7A04248AA51D5F8C718DAE06FB2F75AC4796EBE65D22A88A22223B995679120E2D50E41AA49C260C046A35368846B0BECD0DFF3EBEB8AD4F835768F69B9ADF25C43D30E6B646F807FAA64AD59F61715C7A54127C4AACA98BA3006A9D792DAE165E0D59B61A01FB3A9F9D838D2DAE62445C86166
310
F37564E842E7DE6A69879FEEA2DD5AE7E371E1A5E025154AC307D06A03D73EB5978C58FFA4C8E9033066E0F3BD53BEC1F39F91BE7B55103791EDE6BBB991A2046172CB4581D8B893FA674DDA17A77B3B7C413D1B511FD2743BFF8A38F03A658705E3ADF8015C3A3417FF3D7E439FF591DA0B5F18BC20C1B8981957AE6392A3
310
F43C640C01D1A0B4728E2DD4F26DB4B3C3152A252A3B4E913CEC1C72F012782FF88EFF8637AA552DBEF76408E8A8DE9E50F9E1CB3A2DA0DB1B6039A893B56063DC5B3E3FFB5F72E67AB9FEB4AEC496C4F4C1149625DD662C53E89D7BF0F6151A046260D1337DFDC94502430F83B0EE07A130A224BCAD7DAE1D9FB6CD422FF6
310
920702629C4BB9AE79C12F243C6432A6794E18E5552BA56B431AAB5D91317302B2B071E86C3A42B1A02F999E24061403B5D0EB639195DA655DD3EBEAB4FB862DDF579F014AD0E73C22F99E28DA57FB98E75C6CA2D74D53086D600F4786E0FE3144B771A8A7B900F03594DB8A633CBC49B2EDB69228BB479CF863B5E807AAAB
310
23872F6DFEB4129B949CA33823F58830E86D65621E10047D9DB34D862E8EAC3C2ABC2F7B2C40D67CDFE01F5545B92105AF983AC54D93D69E56FB8E797F88913F898A9FEC705D3F9D1B54EC8426FB500D40A03BD0119B06E1B95DDC7EB8F6975367793EBD70E66733DFB9BC982F9CE564727731999F5D4ECFCE3B8D6A4DC2A0
310
6D50FD148437D110834A64C6CDDF57FBACB5C307A2A477DFE4939736CFEF2B175371E0E10CF0DD1D5C15654E0BCA14D1E87DD02FF93782A162C0A3D95F1524A52770F972BF1EE9809D13CE7DD599467F8ECE9ADD85CE85A34CD45355448C64F9E8A031DC2D596ACC6E5DD93D9B82DE2EF5CAF81363A8E47996A0DE24564A79
310
4115AACE09C55E14540231FDA13C319787134EBF34E3A022514E5B4D9E0826E25C02D5805B15ABE1BEF51B26383D445DD9E875EE33FE4C22DA16427D65A3BCA92CA6D28DD01DF5DC53330704308475351050232CCD31583787BA75774AFB06E5070DD0C8EF484E19968C5D83BA5B90B244D31E54D55A372320FE4786B7EA58
310
44E135AA5467CB7EA333A61683CC6A8C3257034C10CF46F40EF9F5BE59BE5BD30C3C72D235E95D10345C1D45445A5F0BB47E46A5EBE5570F9380B5FA629579952296A773720405982B9DE04011506178964401AA8BDF1FBF0A8EAB6861DD6580C0E38217056766716DAEB2D6FA0917D3E4116581EADB879C4E7CFFB11EFACD
310
3D641311495D92C8676CB409A72D18610D803CE8A626049E8EC1887CB5B44CC39883690DDA8399B4B9855B481E7D71D4A9D22F96E5BB73BF5793020C02137BF837504B0304140006080000CC70623B000000000000000000000000350000006662782F36394639363044362D344446342D343946362D394244322D32343142
310
43333846323333332F76657274696365732E62696E504B0304140006080800CC70623BF270F1330600000004000000360000006662782F36394639363044362D344446342D343946362D394244322D3234314243333846323333332F747269616E676C65732E62696E636660600000504B0304140006080000CC70623B0000
310
00000000000000000000370000006662782F36394639363044362D344446342D343946362D394244322D3234314243333846323333332F617474726962757465732E62696E504B0304140006080800CC70623B08DA0BD19000000041010000360000006662782F36394639363044362D344446342D343946362D394244322D
310
3234314243333846323333332F6469726563746F72792E786D6C858F410AC3201045AF22B36F53E9A60B35CBEEBAE80D244E44489C6234F4F835464A48035D0DF398FF9F8AF63D0E6CC63039F212F8F9020C7D47C6792B21C5FE7403D62A1188E2E60C98D7234A5830286103A55745067B9D86B8A3CF9C7F90C11DE607FB14
310
4396D7B6A82D282E9A152AD114D5EF2CB866EEE831B8EEA07A7BB5A8D7D61A2BAAEB7FD5F70921FF497D00504B0304140006080800CC70623BCA768048FE000000A00100003B0000006662782F36394639363044362D344446342D343946362D394244322D3234314243333846323333332F7265736F75726365732F636F72
310
652E786D6C8D50596E833010BD0A9ADFCA60D600328E9AA639412F609909B1126CE4A5EAF16B0295DABFFECC8CDEA2797AECF8353F924FB44E193D409E5248504B332A3D0D10FC95B4901C39B3C6F85F3248B49871801506CE266BC2B243D2688FDA47549B11775038871E12F988C7004EDE7016A9083E2ADC3D5D84BC8B09
310
D33C8D74D471E6BC8D0192EDC93A815B742658898E651BCB59086ADC356A8C3FD555A1055ED7E7E254D615792D0F075295F585746FF53B694EE78A565DD736979A65AB9933AFE69F8CD2A2F038022F28ED489E135A7CE4554F9BBEA85E68DB53CAB255FEC71496F19FA6A0B42F8B3DEE6673C0F318E4497096AD7DC5F52C33
310
EEB55BFE0D504B010214000A0000080000CC70623B3DEE336E79000000790000001B00000000000000000000000000000000006175746F6465736B2D64657369676E2D7061636B6167652E786D6C504B01021400140006080800CC70623BD486FD9CA0000000F40000001300000000000000000000000000B20000005B436F
310
6E74656E745F54797065735D2E786D6C504B01021400140006080800CC70623BD9DDAED0EC0000007C010000080000000000000000000000000083010000636F72652E786D6C504B01021400140006080800CC70623B55019EA25F0000007C000000070000000000000000000000000095020000636E782E786D6C504B0102
310
1400140006080800CC70623BA24EB22D72010000D40300000C00000000000000000000000000190300006662782F636F72652E786D6C504B01021400140006080800CC70623B408A7D3B7C0000009D0000000B00000000000000000000000000B50400006662782F636E782E786D6C504B01021400140006080800CC70623B
310
449FB9BD290100001202000031000000000000000000000000005A0500006662782F36394639363044362D344446342D343946362D394244322D3234314243333846323333332F636F72652E786D6C504B01021400140006080800CC70623BAD7543B64E010000330300003000000000000000000000000000D20600006662
310
782F36394639363044362D344446342D343946362D394244322D3234314243333846323333332F636E782E786D6C504B01021400140006080800CC70623B8D05915C650500003B10000034000000000000000000000000006E0800006662782F36394639363044362D344446342D343946362D394244322D32343142433338
310
46323333332F6F626A656374732E786D6C504B01021400140006080000CC70623B0000000000000000000000003500000000000000000000000000250E00006662782F36394639363044362D344446342D343946362D394244322D3234314243333846323333332F76657274696365732E62696E504B010214001400060808
310
00CC70623BF270F13306000000040000003600000000000000000000000000780E00006662782F36394639363044362D344446342D343946362D394244322D3234314243333846323333332F747269616E676C65732E62696E504B01021400140006080000CC70623B00000000000000000000000037000000000000000000
310
00000000D20E00006662782F36394639363044362D344446342D343946362D394244322D3234314243333846323333332F617474726962757465732E62696E504B01021400140006080800CC70623B08DA0BD190000000410100003600000000000000000000000000270F00006662782F36394639363044362D344446342D
310
343946362D394244322D3234314243333846323333332F6469726563746F72792E786D6C504B01021400140006080800CC70623BCA768048FE000000A00100003B000000000000000000000000000B1000006662782F36394639363044362D344446342D343946362D394244322D3234314243333846323333332F7265736F
310
75726365732F636F72652E786D6C504B0506000000000E000E0080040000621100000000
  0
XRECORD
  5
176
102
{ACAD_REACTORS
330
173
102
}
330
173
100
AcDbXrecord
280
     1
270
     1
271
     1
  0
XRECORD
  5
177
102
{ACAD_REACTORS
330
173
102
}
330
173
100
AcDbXrecord
280
     1
270
     1
271
     1
  0
XRECORD
  5
18AA3
102
{ACAD_REACTORS
330
18AA2
102
}
330
18AA2
100
AcDbXrecord
280
     1
102
ACAD_ROUNDTRIP_2012_MLEADER_STYLE
298
     1
  0
XRECORD
  5
18AB5
102
{ACAD_REACTORS
330
18AB4
102
}
330
18AB4
100
AcDbXrecord
280
     1
102
DISPLAYNAME
  1
Metric50
102
FLAGS
 90
        0
  0
CELLSTYLEMAP
  5
18A75
102
{ACAD_REACTORS
330
162
102
}
330
162
100
AcDbCellStyleMap
 90
        3
300
CELLSTYLE
  1
TABLEFORMAT_BEGIN
 90
        5
170
     1
 91
        0
 92
    32768
 62
   257
 93
        1
300
CONTENTFORMAT
  1
CONTENTFORMAT_BEGIN
 90
        0
 91
        0
 92
      512
 93
        0
300

 40
0.0
140
1.0
 94
        5
 62
     0
340
11
144
6.0
309
CONTENTFORMAT_END
171
     1
301
MARGIN
  1
CELLMARGIN_BEGIN
 40
1.5
 40
1.5
 40
1.5
 40
1.5
 40
4.5
 40
4.5
309
CELLMARGIN_END
 94
        6
 95
        1
302
GRIDFORMAT
  1
GRIDFORMAT_BEGIN
 90
        0
 91
        1
 62
     0
 92
       -2
340
14
 93
        0
 40
1.125
309
GRIDFORMAT_END
 95
        2
302
GRIDFORMAT
  1
GRIDFORMAT_BEGIN
 90
        0
 91
        1
 62
     0
 92
       -2
340
14
 93
        0
 40
1.125
309
GRIDFORMAT_END
 95
        4
302
GRIDFORMAT
  1
GRIDFORMAT_BEGIN
 90
        0
 91
        1
 62
     0
 92
       -2
340
14
 93
        0
 40
1.125
309
GRIDFORMAT_END
 95
        8
302
GRIDFORMAT
  1
GRIDFORMAT_BEGIN
 90
        0
 91
        1
 62
     0
 92
       -2
340
14
 93
        0
 40
1.125
309
GRIDFORMAT_END
 95
       16
302
GRIDFORMAT
  1
GRIDFORMAT_BEGIN
 90
        0
 91
        1
 62
     0
 92
       -2
340
14
 93
        0
 40
1.125
309
GRIDFORMAT_END
 95
       32
302
GRIDFORMAT
  1
GRIDFORMAT_BEGIN
 90
        0
 91
        1
 62
     0
 92
       -2
340
14
 93
        0
 40
1.125
309
GRIDFORMAT_END
309
TABLEFORMAT_END
  1
CELLSTYLE_BEGIN
 90
        1
 91
        1
300
_TITLE
309
CELLSTYLE_END
300
CELLSTYLE
  1
TABLEFORMAT_BEGIN
 90
        5
170
     1
 91
        0
 92
        0
 62
   257
 93
        1
300
CONTENTFORMAT
  1
CONTENTFORMAT_BEGIN
 90
        0
 91
        0
 92
      512
 93
        0
300

 40
0.0
140
1.0
 94
        5
 62
     0
340
11
144
4.5
309
CONTENTFORMAT_END
171
     1
301
MARGIN
  1
CELLMARGIN_BEGIN
 40
1.5
 40
1.5
 40
1.5
 40
1.5
 40
4.5
 40
4.5
309
CELLMARGIN_END
 94
        6
 95
        1
302
GRIDFORMAT
  1
GRIDFORMAT_BEGIN
 90
        0
 91
        1
 62
     0
 92
       -2
340
14
 93
        0
 40
1.125
309
GRIDFORMAT_END
 95
        2
302
GRIDFORMAT
  1
GRIDFORMAT_BEGIN
 90
        0
 91
        1
 62
     0
 92
       -2
340
14
 93
        0
 40
1.125
309
GRIDFORMAT_END
 95
        4
302
GRIDFORMAT
  1
GRIDFORMAT_BEGIN
 90
        0
 91
        1
 62
     0
 92
       -2
340
14
 93
        0
 40
1.125
309
GRIDFORMAT_END
 95
        8
302
GRIDFORMAT
  1
GRIDFORMAT_BEGIN
 90
        0
 91
        1
 62
     0
 92
       -2
340
14
 93
        0
 40
1.125
309
GRIDFORMAT_END
 95
       16
302
GRIDFORMAT
  1
GRIDFORMAT_BEGIN
 90
        0
 91
        1
 62
     0
 92
       -2
340
14
 93
        0
 40
1.125
309
GRIDFORMAT_END
 95
       32
302
GRIDFORMAT
  1
GRIDFORMAT_BEGIN
 90
        0
 91
        1
 62
     0
 92
       -2
340
14
 93
        0
 40
1.125
309
GRIDFORMAT_END
309
TABLEFORMAT_END
  1
CELLSTYLE_BEGIN
 90
        2
 91
        1
300
_HEADER
309
CELLSTYLE_END
300
CELLSTYLE
  1
TABLEFORMAT_BEGIN
 90
        5
170
     1
 91
        0
 92
        0
 62
   257
 93
        1
300
CONTENTFORMAT
  1
CONTENTFORMAT_BEGIN
 90
        0
 91
        0
 92
      512
 93
        0
300

 40
0.0
140
1.0
 94
        2
 62
     0
340
11
144
4.5
309
CONTENTFORMAT_END
171
     1
301
MARGIN
  1
CELLMARGIN_BEGIN
 40
1.5
 40
1.5
 40
1.5
 40
1.5
 40
4.5
 40
4.5
309
CELLMARGIN_END
 94
        6
 95
        1
302
GRIDFORMAT
  1
GRIDFORMAT_BEGIN
 90
        0
 91
        1
 62
     0
 92
       -2
340
14
 93
        0
 40
1.125
309
GRIDFORMAT_END
 95
        2
302
GRIDFORMAT
  1
GRIDFORMAT_BEGIN
 90
        0
 91
        1
 62
     0
 92
       -2
340
14
 93
        0
 40
1.125
309
GRIDFORMAT_END
 95
        4
302
GRIDFORMAT
  1
GRIDFORMAT_BEGIN
 90
        0
 91
        1
 62
     0
 92
       -2
340
14
 93
        0
 40
1.125
309
GRIDFORMAT_END
 95
        8
302
GRIDFORMAT
  1
GRIDFORMAT_BEGIN
 90
        0
 91
        1
 62
     0
 92
       -2
340
14
 93
        0
 40
1.125
309
GRIDFORMAT_END
 95
       16
302
GRIDFORMAT
  1
GRIDFORMAT_BEGIN
 90
        0
 91
        1
 62
     0
 92
       -2
340
14
 93
        0
 40
1.125
309
GRIDFORMAT_END
 95
       32
302
GRIDFORMAT
  1
GRIDFORMAT_BEGIN
 90
        0
 91
        1
 62
     0
 92
       -2
340
14
 93
        0
 40
1.125
309
GRIDFORMAT_END
309
TABLEFORMAT_END
  1
CELLSTYLE_BEGIN
 90
        3
 91
        2
300
_DATA
309
CELLSTYLE_END
  0
XRECORD
  5
18A7A
102
{ACAD_REACTORS
330
162
102
}
330
162
100
AcDbXrecord
280
     1
102
ACAD_ROUNDTRIP_PRE2007_TABLESTYLE
 90
      512
 91
        0
  1

 92
      512
 93
        0
  2

 94
      512
 95
        0
  3

  0
XRECORD
  5
18A8D
102
{ACAD_REACTORS
330
18A8C
102
}
330
18A8C
100
AcDbXrecord
280
     1
102
RTVSPost2010Prop28
280
     1
102
RTVSPost2010PropOp28
 70
     1
102
RTVSPost2010Prop29
280
     1
102
RTVSPost2010PropOp29
 70
     1
102
RTVSPost2010Prop30
280
     0
102
RTVSPost2010PropOp30
 70
     1
102
RTVSPost2010Prop31
280
     0
102
RTVSPost2010PropOp31
 70
     1
102
RTVSPost2010Prop32
280
     0
102
RTVSPost2010PropOp32
 70
     1
102
RTVSPost2010Prop33
280
     0
102
RTVSPost2010PropOp33
 70
     1
102
RTVSPost2010Prop34
280
     0
102
RTVSPost2010PropOp34
 70
     1
102
RTVSPost2010Prop35
280
     0
102
RTVSPost2010PropOp35
 70
     1
102
RTVSPost2010Prop36
280
     0
102
RTVSPost2010PropOp36
 70
     1
102
RTVSPost2010Prop37
 90
       50
102
RTVSPost2010PropOp37
 70
     1
102
RTVSPost2010Prop38
140
0.0
102
RTVSPost2010PropOp38
 70
     1
102
RTVSPost2010Prop39
140
1.0
102
RTVSPost2010PropOp39
 70
     1
102
RTVSPost2010Prop40
 90
        0
102
RTVSPost2010PropOp40
 70
     1
102
RTVSPost2010Prop41ColorIndex
 90
       18
102
RTVSPost2010Prop41ColorRGB
 90
        0
102
RTVSPost2010PropOp41
 70
     1
102
RTVSPost2010Prop42
 90
       50
102
RTVSPost2010PropOp42
 70
     1
102
RTVSPost2010Prop43
 90
        3
102
RTVSPost2010PropOp43
 70
     1
102
RTVSPost2010Prop44ColorIndex
 90
        5
102
RTVSPost2010Prop44ColorRGB
 90
      255
102
RTVSPost2010PropOp44
 70
     1
102
RTVSPost2010Prop45
280
     0
102
RTVSPost2010PropOp45
 70
     1
102
RTVSPost2010Prop46
 90
       50
102
RTVSPost2010PropOp46
 70
     1
102
RTVSPost2010Prop47
 90
       50
102
RTVSPost2010PropOp47
 70
     1
102
RTVSPost2010Prop48
 90
       50
102
RTVSPost2010PropOp48
 70
     1
102
RTVSPost2010Prop49
280
     0
102
RTVSPost2010PropOp49
 70
     1
102
RTVSPost2010Prop50
 90
       50
102
RTVSPost2010PropOp50
 70
     1
102
RTVSPost2010Prop51ColorIndex
 90
      256
102
RTVSPost2010Prop51ColorRGB
 90
-16777216
102
RTVSPost2010PropOp51
 70
     0
102
RTVSPost2010Prop52
140
1.0
102
RTVSPost2010PropOp52
 70
     0
102
RTVSPost2010Prop53
 90
        2
102
RTVSPost2010PropOp53
 70
     1
102
RTVSPost2010Prop54
  1
strokes_ogs.tif
102
RTVSPost2010PropOp54
 70
     1
102
RTVSPost2010Prop55
280
     0
102
RTVSPost2010PropOp55
 70
     1
102
RTVSPost2010Prop56
140
1.0
102
RTVSPost2010PropOp56
 70
     1
102
RTVSPost2010Prop57
140
1.0
102
RTVSPost2010PropOp57
 70
     1
102
RTVSPropertyOp0
 70
     1
102
RTVSPropertyOp1
 70
     1
102
RTVSPropertyOp2
 70
     1
102
RTVSPropertyOp3
 70
     1
102
RTVSPropertyOp4
 70
     1
102
RTVSPropertyOp5
 70
     1
102
RTVSPropertyOp6
 70
     1
102
RTVSPropertyOp7
 70
     1
102
RTVSPropertyOp8
 70
     1
102
RTVSPropertyOp9
 70
     1
102
RTVSPropertyOp10
 70
     1
102
RTVSPropertyOp11
 70
     1
102
RTVSPropertyOp12
 70
     1
102
RTVSPropertyOp13
 70
     1
102
RTVSPropertyOp14
 70
     1
102
RTVSPropertyOp15
 70
     1
102
RTVSPropertyOp16
 70
     1
102
RTVSPropertyOp17
 70
     1
102
RTVSPropertyOp18
 70
     1
102
RTVSPropertyOp19
 70
     1
102
RTVSPropertyOp20
 70
     1
102
RTVSPropertyOp21
 70
     1
102
RTVSPropertyOp22
 70
     1
102
RTVSPropertyOp23
 70
     1
102
RTVSPropertyOp24
 70
     1
102
RTVSPropertyOp25
 70
     1
102
RTVSPropertyOp26
 70
     1
102
RTVSPropertyOp27
 70
     1
102
RTVSPropertyOp28
 70
     1
102
RTVSPropertyOp29
 70
     1
102
RTVSPropertyOp30
 70
     1
102
RTVSPropertyOp31
 70
     1
102
RTVSPropertyOp32
 70
     1
102
RTVSPropertyOp33
 70
     1
102
RTVSPropertyOp34
 70
     1
102
RTVSPropertyOp35
 70
     1
102
RTVSPropertyOp36
 70
     1
102
RTVSPropertyOp37
 70
     1
102
RTVSPropertyOp38
 70
     1
102
RTVSPropertyOp39
 70
     1
102
RTVSPropertyOp40
 70
     1
102
RTVSPropertyOp41
 70
     1
102
RTVSPropertyOp42
 70
     1
102
RTVSPropertyOp43
 70
     1
102
RTVSPropertyOp44
 70
     1
102
RTVSPropertyOp45
 70
     1
102
RTVSPropertyOp46
 70
     1
102
RTVSPropertyOp47
 70
     1
102
RTVSPropertyOp48
 70
     1
102
RTVSPropertyOp49
 70
     1
102
RTVSPropertyOp50
 70
     1
102
RTVSPropertyOp51
 70
     0
102
RTVSPropertyOp52
 70
     0
102
RTVSPropertyOp53
 70
     1
102
RTVSPropertyOp54
 70
     1
102
RTVSPropertyOp55
 70
     1
102
RTVSPropertyOp56
 70
     1
102
RTVSPropertyOp57
 70
     1
102
RTVSPropertyOp58
 70
     1
102
RTVSPropertyOp59
 70
     1
102
RTVSPropertyOp60
 70
     1
102
RTVSPropertyOp61
 70
     1
102
RTVSPropertyOp62
 70
     1
  0
XRECORD
  5
18A8B
102
{ACAD_REACTORS
330
18A8A
102
}
330
18A8A
100
AcDbXrecord
280
     1
102
RTVSPost2010Prop28
280
     0
102
RTVSPost2010PropOp28
 70
     1
102
RTVSPost2010Prop29
280
     1
102
RTVSPost2010PropOp29
 70
     1
102
RTVSPost2010Prop30
280
     1
102
RTVSPost2010PropOp30
 70
     1
102
RTVSPost2010Prop31
280
     0
102
RTVSPost2010PropOp31
 70
     1
102
RTVSPost2010Prop32
280
     0
102
RTVSPost2010PropOp32
 70
     1
102
RTVSPost2010Prop33
280
     0
102
RTVSPost2010PropOp33
 70
     1
102
RTVSPost2010Prop34
280
     0
102
RTVSPost2010PropOp34
 70
     1
102
RTVSPost2010Prop35
280
     0
102
RTVSPost2010PropOp35
 70
     1
102
RTVSPost2010Prop36
280
     0
102
RTVSPost2010PropOp36
 70
     1
102
RTVSPost2010Prop37
 90
       50
102
RTVSPost2010PropOp37
 70
     1
102
RTVSPost2010Prop38
140
0.0
102
RTVSPost2010PropOp38
 70
     1
102
RTVSPost2010Prop39
140
1.0
102
RTVSPost2010PropOp39
 70
     1
102
RTVSPost2010Prop40
 90
        0
102
RTVSPost2010PropOp40
 70
     1
102
RTVSPost2010Prop41ColorIndex
 90
       18
102
RTVSPost2010Prop41ColorRGB
 90
        0
102
RTVSPost2010PropOp41
 70
     1
102
RTVSPost2010Prop42
 90
       50
102
RTVSPost2010PropOp42
 70
     1
102
RTVSPost2010Prop43
 90
        3
102
RTVSPost2010PropOp43
 70
     1
102
RTVSPost2010Prop44ColorIndex
 90
        5
102
RTVSPost2010Prop44ColorRGB
 90
      255
102
RTVSPost2010PropOp44
 70
     1
102
RTVSPost2010Prop45
280
     0
102
RTVSPost2010PropOp45
 70
     1
102
RTVSPost2010Prop46
 90
       50
102
RTVSPost2010PropOp46
 70
     1
102
RTVSPost2010Prop47
 90
       50
102
RTVSPost2010PropOp47
 70
     1
102
RTVSPost2010Prop48
 90
       50
102
RTVSPost2010PropOp48
 70
     1
102
RTVSPost2010Prop49
280
     0
102
RTVSPost2010PropOp49
 70
     1
102
RTVSPost2010Prop50
 90
       50
102
RTVSPost2010PropOp50
 70
     1
102
RTVSPost2010Prop51ColorIndex
 90
      256
102
RTVSPost2010Prop51ColorRGB
 90
-16777216
102
RTVSPost2010PropOp51
 70
     0
102
RTVSPost2010Prop52
140
1.0
102
RTVSPost2010PropOp52
 70
     0
102
RTVSPost2010Prop53
 90
        2
102
RTVSPost2010PropOp53
 70
     1
102
RTVSPost2010Prop54
  1
strokes_ogs.tif
102
RTVSPost2010PropOp54
 70
     1
102
RTVSPost2010Prop55
280
     0
102
RTVSPost2010PropOp55
 70
     1
102
RTVSPost2010Prop56
140
1.0
102
RTVSPost2010PropOp56
 70
     1
102
RTVSPost2010Prop57
140
1.0
102
RTVSPost2010PropOp57
 70
     1
102
RTVSPropertyOp0
 70
     1
102
RTVSPropertyOp1
 70
     1
102
RTVSPropertyOp2
 70
     1
102
RTVSPropertyOp3
 70
     1
102
RTVSPropertyOp4
 70
     1
102
RTVSPropertyOp5
 70
     1
102
RTVSPropertyOp6
 70
     1
102
RTVSPropertyOp7
 70
     1
102
RTVSPropertyOp8
 70
     1
102
RTVSPropertyOp9
 70
     1
102
RTVSPropertyOp10
 70
     1
102
RTVSPropertyOp11
 70
     1
102
RTVSPropertyOp12
 70
     1
102
RTVSPropertyOp13
 70
     1
102
RTVSPropertyOp14
 70
     1
102
RTVSPropertyOp15
 70
     1
102
RTVSPropertyOp16
 70
     1
102
RTVSPropertyOp17
 70
     1
102
RTVSPropertyOp18
 70
     1
102
RTVSPropertyOp19
 70
     1
102
RTVSPropertyOp20
 70
     1
102
RTVSPropertyOp21
 70
     1
102
RTVSPropertyOp22
 70
     1
102
RTVSPropertyOp23
 70
     1
102
RTVSPropertyOp24
 70
     1
102
RTVSPropertyOp25
 70
     1
102
RTVSPropertyOp26
 70
     1
102
RTVSPropertyOp27
 70
     1
102
RTVSPropertyOp28
 70
     1
102
RTVSPropertyOp29
 70
     1
102
RTVSPropertyOp30
 70
     1
102
RTVSPropertyOp31
 70
     1
102
RTVSPropertyOp32
 70
     1
102
RTVSPropertyOp33
 70
     1
102
RTVSPropertyOp34
 70
     1
102
RTVSPropertyOp35
 70
     1
102
RTVSPropertyOp36
 70
     1
102
RTVSPropertyOp37
 70
     1
102
RTVSPropertyOp38
 70
     1
102
RTVSPropertyOp39
 70
     1
102
RTVSPropertyOp40
 70
     1
102
RTVSPropertyOp41
 70
     1
102
RTVSPropertyOp42
 70
     1
102
RTVSPropertyOp43
 70
     1
102
RTVSPropertyOp44
 70
     1
102
RTVSPropertyOp45
 70
     1
102
RTVSPropertyOp46
 70
     1
102
RTVSPropertyOp47
 70
     1
102
RTVSPropertyOp48
 70
     1
102
RTVSPropertyOp49
 70
     1
102
RTVSPropertyOp50
 70
     1
102
RTVSPropertyOp51
 70
     0
102
RTVSPropertyOp52
 70
     0
102
RTVSPropertyOp53
 70
     1
102
RTVSPropertyOp54
 70
     1
102
RTVSPropertyOp55
 70
     1
102
RTVSPropertyOp56
 70
     1
102
RTVSPropertyOp57
 70
     1
102
RTVSPropertyOp58
 70
     1
102
RTVSPropertyOp59
 70
     1
102
RTVSPropertyOp60
 70
     1
102
RTVSPropertyOp61
 70
     1
102
RTVSPropertyOp62
 70
     1
  0
XRECORD
  5
18A99
102
{ACAD_REACTORS
330
18A98
102
}
330
18A98
100
AcDbXrecord
280
     1
102
RTVSPost2010Prop28
280
     0
102
RTVSPost2010PropOp28
 70
     1
102
RTVSPost2010Prop29
280
     1
102
RTVSPost2010PropOp29
 70
     1
102
RTVSPost2010Prop30
280
     1
102
RTVSPost2010PropOp30
 70
     1
102
RTVSPost2010Prop31
280
     0
102
RTVSPost2010PropOp31
 70
     1
102
RTVSPost2010Prop32
280
     0
102
RTVSPost2010PropOp32
 70
     1
102
RTVSPost2010Prop33
280
     0
102
RTVSPost2010PropOp33
 70
     1
102
RTVSPost2010Prop34
280
     0
102
RTVSPost2010PropOp34
 70
     1
102
RTVSPost2010Prop35
280
     0
102
RTVSPost2010PropOp35
 70
     1
102
RTVSPost2010Prop36
280
     0
102
RTVSPost2010PropOp36
 70
     1
102
RTVSPost2010Prop37
 90
       50
102
RTVSPost2010PropOp37
 70
     1
102
RTVSPost2010Prop38
140
0.0
102
RTVSPost2010PropOp38
 70
     1
102
RTVSPost2010Prop39
140
1.0
102
RTVSPost2010PropOp39
 70
     1
102
RTVSPost2010Prop40
 90
        0
102
RTVSPost2010PropOp40
 70
     1
102
RTVSPost2010Prop41ColorIndex
 90
       18
102
RTVSPost2010Prop41ColorRGB
 90
        0
102
RTVSPost2010PropOp41
 70
     1
102
RTVSPost2010Prop42
 90
       50
102
RTVSPost2010PropOp42
 70
     1
102
RTVSPost2010Prop43
 90
        3
102
RTVSPost2010PropOp43
 70
     1
102
RTVSPost2010Prop44ColorIndex
 90
        5
102
RTVSPost2010Prop44ColorRGB
 90
      255
102
RTVSPost2010PropOp44
 70
     1
102
RTVSPost2010Prop45
280
     0
102
RTVSPost2010PropOp45
 70
     1
102
RTVSPost2010Prop46
 90
       50
102
RTVSPost2010PropOp46
 70
     1
102
RTVSPost2010Prop47
 90
       50
102
RTVSPost2010PropOp47
 70
     1
102
RTVSPost2010Prop48
 90
       50
102
RTVSPost2010PropOp48
 70
     1
102
RTVSPost2010Prop49
280
     0
102
RTVSPost2010PropOp49
 70
     1
102
RTVSPost2010Prop50
 90
       50
102
RTVSPost2010PropOp50
 70
     1
102
RTVSPost2010Prop51ColorIndex
 90
      256
102
RTVSPost2010Prop51ColorRGB
 90
-16777216
102
RTVSPost2010PropOp51
 70
     0
102
RTVSPost2010Prop52
140
1.0
102
RTVSPost2010PropOp52
 70
     0
102
RTVSPost2010Prop53
 90
        2
102
RTVSPost2010PropOp53
 70
     1
102
RTVSPost2010Prop54
  1
strokes_ogs.tif
102
RTVSPost2010PropOp54
 70
     1
102
RTVSPost2010Prop55
280
     0
102
RTVSPost2010PropOp55
 70
     1
102
RTVSPost2010Prop56
140
1.0
102
RTVSPost2010PropOp56
 70
     1
102
RTVSPost2010Prop57
140
1.0
102
RTVSPost2010PropOp57
 70
     1
102
RTVSPropertyOp0
 70
     1
102
RTVSPropertyOp1
 70
     1
102
RTVSPropertyOp2
 70
     1
102
RTVSPropertyOp3
 70
     1
102
RTVSPropertyOp4
 70
     1
102
RTVSPropertyOp5
 70
     1
102
RTVSPropertyOp6
 70
     1
102
RTVSPropertyOp7
 70
     1
102
RTVSPropertyOp8
 70
     1
102
RTVSPropertyOp9
 70
     1
102
RTVSPropertyOp10
 70
     1
102
RTVSPropertyOp11
 70
     1
102
RTVSPropertyOp12
 70
     1
102
RTVSPropertyOp13
 70
     1
102
RTVSPropertyOp14
 70
     1
102
RTVSPropertyOp15
 70
     1
102
RTVSPropertyOp16
 70
     1
102
RTVSPropertyOp17
 70
     1
102
RTVSPropertyOp18
 70
     1
102
RTVSPropertyOp19
 70
     1
102
RTVSPropertyOp20
 70
     1
102
RTVSPropertyOp21
 70
     1
102
RTVSPropertyOp22
 70
     1
102
RTVSPropertyOp23
 70
     1
102
RTVSPropertyOp24
 70
     1
102
RTVSPropertyOp25
 70
     1
102
RTVSPropertyOp26
 70
     1
102
RTVSPropertyOp27
 70
     1
102
RTVSPropertyOp28
 70
     1
102
RTVSPropertyOp29
 70
     1
102
RTVSPropertyOp30
 70
     1
102
RTVSPropertyOp31
 70
     1
102
RTVSPropertyOp32
 70
     1
102
RTVSPropertyOp33
 70
     1
102
RTVSPropertyOp34
 70
     1
102
RTVSPropertyOp35
 70
     1
102
RTVSPropertyOp36
 70
     1
102
RTVSPropertyOp37
 70
     1
102
RTVSPropertyOp38
 70
     1
102
RTVSPropertyOp39
 70
     1
102
RTVSPropertyOp40
 70
     1
102
RTVSPropertyOp41
 70
     1
102
RTVSPropertyOp42
 70
     1
102
RTVSPropertyOp43
 70
     1
102
RTVSPropertyOp44
 70
     1
102
RTVSPropertyOp45
 70
     1
102
RTVSPropertyOp46
 70
     1
102
RTVSPropertyOp47
 70
     1
102
RTVSPropertyOp48
 70
     1
102
RTVSPropertyOp49
 70
     1
102
RTVSPropertyOp50
 70
     1
102
RTVSPropertyOp51
 70
     0
102
RTVSPropertyOp52
 70
     0
102
RTVSPropertyOp53
 70
     1
102
RTVSPropertyOp54
 70
     1
102
RTVSPropertyOp55
 70
     1
102
RTVSPropertyOp56
 70
     1
102
RTVSPropertyOp57
 70
     1
102
RTVSPropertyOp58
 70
     1
102
RTVSPropertyOp59
 70
     1
102
RTVSPropertyOp60
 70
     1
102
RTVSPropertyOp61
 70
     1
102
RTVSPropertyOp62
 70
     1
  0
XRECORD
  5
18AA1
102
{ACAD_REACTORS
330
18AA0
102
}
330
18AA0
100
AcDbXrecord
280
     1
102
RTVSPost2010Prop28
280
     0
102
RTVSPost2010PropOp28
 70
     1
102
RTVSPost2010Prop29
280
     1
102
RTVSPost2010PropOp29
 70
     1
102
RTVSPost2010Prop30
280
     1
102
RTVSPost2010PropOp30
 70
     1
102
RTVSPost2010Prop31
280
     0
102
RTVSPost2010PropOp31
 70
     1
102
RTVSPost2010Prop32
280
     0
102
RTVSPost2010PropOp32
 70
     1
102
RTVSPost2010Prop33
280
     0
102
RTVSPost2010PropOp33
 70
     1
102
RTVSPost2010Prop34
280
     0
102
RTVSPost2010PropOp34
 70
     1
102
RTVSPost2010Prop35
280
     0
102
RTVSPost2010PropOp35
 70
     1
102
RTVSPost2010Prop36
280
     0
102
RTVSPost2010PropOp36
 70
     1
102
RTVSPost2010Prop37
 90
       50
102
RTVSPost2010PropOp37
 70
     1
102
RTVSPost2010Prop38
140
0.0
102
RTVSPost2010PropOp38
 70
     1
102
RTVSPost2010Prop39
140
1.0
102
RTVSPost2010PropOp39
 70
     1
102
RTVSPost2010Prop40
 90
        0
102
RTVSPost2010PropOp40
 70
     1
102
RTVSPost2010Prop41ColorIndex
 90
       18
102
RTVSPost2010Prop41ColorRGB
 90
        0
102
RTVSPost2010PropOp41
 70
     1
102
RTVSPost2010Prop42
 90
       50
102
RTVSPost2010PropOp42
 70
     1
102
RTVSPost2010Prop43
 90
        3
102
RTVSPost2010PropOp43
 70
     1
102
RTVSPost2010Prop44ColorIndex
 90
        5
102
RTVSPost2010Prop44ColorRGB
 90
      255
102
RTVSPost2010PropOp44
 70
     1
102
RTVSPost2010Prop45
280
     0
102
RTVSPost2010PropOp45
 70
     1
102
RTVSPost2010Prop46
 90
       50
102
RTVSPost2010PropOp46
 70
     1
102
RTVSPost2010Prop47
 90
       50
102
RTVSPost2010PropOp47
 70
     1
102
RTVSPost2010Prop48
 90
       50
102
RTVSPost2010PropOp48
 70
     1
102
RTVSPost2010Prop49
280
     0
102
RTVSPost2010PropOp49
 70
     1
102
RTVSPost2010Prop50
 90
       50
102
RTVSPost2010PropOp50
 70
     1
102
RTVSPost2010Prop51ColorIndex
 90
      256
102
RTVSPost2010Prop51ColorRGB
 90
-16777216
102
RTVSPost2010PropOp51
 70
     0
102
RTVSPost2010Prop52
140
1.0
102
RTVSPost2010PropOp52
 70
     0
102
RTVSPost2010Prop53
 90
        2
102
RTVSPost2010PropOp53
 70
     1
102
RTVSPost2010Prop54
  1
strokes_ogs.tif
102
RTVSPost2010PropOp54
 70
     1
102
RTVSPost2010Prop55
280
     0
102
RTVSPost2010PropOp55
 70
     1
102
RTVSPost2010Prop56
140
1.0
102
RTVSPost2010PropOp56
 70
     1
102
RTVSPost2010Prop57
140
1.0
102
RTVSPost2010PropOp57
 70
     1
102
RTVSPropertyOp0
 70
     1
102
RTVSPropertyOp1
 70
     1
102
RTVSPropertyOp2
 70
     1
102
RTVSPropertyOp3
 70
     1
102
RTVSPropertyOp4
 70
     1
102
RTVSPropertyOp5
 70
     1
102
RTVSPropertyOp6
 70
     1
102
RTVSPropertyOp7
 70
     1
102
RTVSPropertyOp8
 70
     1
102
RTVSPropertyOp9
 70
     1
102
RTVSPropertyOp10
 70
     1
102
RTVSPropertyOp11
 70
     1
102
RTVSPropertyOp12
 70
     1
102
RTVSPropertyOp13
 70
     1
102
RTVSPropertyOp14
 70
     1
102
RTVSPropertyOp15
 70
     1
102
RTVSPropertyOp16
 70
     1
102
RTVSPropertyOp17
 70
     1
102
RTVSPropertyOp18
 70
     1
102
RTVSPropertyOp19
 70
     1
102
RTVSPropertyOp20
 70
     1
102
RTVSPropertyOp21
 70
     1
102
RTVSPropertyOp22
 70
     1
102
RTVSPropertyOp23
 70
     1
102
RTVSPropertyOp24
 70
     1
102
RTVSPropertyOp25
 70
     1
102
RTVSPropertyOp26
 70
     1
102
RTVSPropertyOp27
 70
     1
102
RTVSPropertyOp28
 70
     1
102
RTVSPropertyOp29
 70
     1
102
RTVSPropertyOp30
 70
     1
102
RTVSPropertyOp31
 70
     1
102
RTVSPropertyOp32
 70
     1
102
RTVSPropertyOp33
 70
     1
102
RTVSPropertyOp34
 70
     1
102
RTVSPropertyOp35
 70
     1
102
RTVSPropertyOp36
 70
     1
102
RTVSPropertyOp37
 70
     1
102
RTVSPropertyOp38
 70
     1
102
RTVSPropertyOp39
 70
     1
102
RTVSPropertyOp40
 70
     1
102
RTVSPropertyOp41
 70
     1
102
RTVSPropertyOp42
 70
     1
102
RTVSPropertyOp43
 70
     1
102
RTVSPropertyOp44
 70
     1
102
RTVSPropertyOp45
 70
     1
102
RTVSPropertyOp46
 70
     1
102
RTVSPropertyOp47
 70
     1
102
RTVSPropertyOp48
 70
     1
102
RTVSPropertyOp49
 70
     1
102
RTVSPropertyOp50
 70
     1
102
RTVSPropertyOp51
 70
     0
102
RTVSPropertyOp52
 70
     0
102
RTVSPropertyOp53
 70
     1
102
RTVSPropertyOp54
 70
     1
102
RTVSPropertyOp55
 70
     1
102
RTVSPropertyOp56
 70
     1
102
RTVSPropertyOp57
 70
     1
102
RTVSPropertyOp58
 70
     1
102
RTVSPropertyOp59
 70
     1
102
RTVSPropertyOp60
 70
     1
102
RTVSPropertyOp61
 70
     1
102
RTVSPropertyOp62
 70
     1
  0
XRECORD
  5
18A93
102
{ACAD_REACTORS
330
18A92
102
}
330
18A92
100
AcDbXrecord
280
     1
102
RTVSPost2010Prop28
280
     0
102
RTVSPost2010PropOp28
 70
     1
102
RTVSPost2010Prop29
280
     1
102
RTVSPost2010PropOp29
 70
     1
102
RTVSPost2010Prop30
280
     1
102
RTVSPost2010PropOp30
 70
     1
102
RTVSPost2010Prop31
280
     0
102
RTVSPost2010PropOp31
 70
     1
102
RTVSPost2010Prop32
280
     0
102
RTVSPost2010PropOp32
 70
     1
102
RTVSPost2010Prop33
280
     0
102
RTVSPost2010PropOp33
 70
     1
102
RTVSPost2010Prop34
280
     0
102
RTVSPost2010PropOp34
 70
     1
102
RTVSPost2010Prop35
280
     0
102
RTVSPost2010PropOp35
 70
     1
102
RTVSPost2010Prop36
280
     0
102
RTVSPost2010PropOp36
 70
     1
102
RTVSPost2010Prop37
 90
       50
102
RTVSPost2010PropOp37
 70
     1
102
RTVSPost2010Prop38
140
0.0
102
RTVSPost2010PropOp38
 70
     1
102
RTVSPost2010Prop39
140
1.0
102
RTVSPost2010PropOp39
 70
     1
102
RTVSPost2010Prop40
 90
        0
102
RTVSPost2010PropOp40
 70
     1
102
RTVSPost2010Prop41ColorIndex
 90
       18
102
RTVSPost2010Prop41ColorRGB
 90
        0
102
RTVSPost2010PropOp41
 70
     1
102
RTVSPost2010Prop42
 90
       50
102
RTVSPost2010PropOp42
 70
     1
102
RTVSPost2010Prop43
 90
        3
102
RTVSPost2010PropOp43
 70
     1
102
RTVSPost2010Prop44ColorIndex
 90
        5
102
RTVSPost2010Prop44ColorRGB
 90
      255
102
RTVSPost2010PropOp44
 70
     1
102
RTVSPost2010Prop45
280
     0
102
RTVSPost2010PropOp45
 70
     1
102
RTVSPost2010Prop46
 90
       50
102
RTVSPost2010PropOp46
 70
     1
102
RTVSPost2010Prop47
 90
       50
102
RTVSPost2010PropOp47
 70
     1
102
RTVSPost2010Prop48
 90
       50
102
RTVSPost2010PropOp48
 70
     1
102
RTVSPost2010Prop49
280
     0
102
RTVSPost2010PropOp49
 70
     1
102
RTVSPost2010Prop50
 90
       50
102
RTVSPost2010PropOp50
 70
     1
102
RTVSPost2010Prop51ColorIndex
 90
      256
102
RTVSPost2010Prop51ColorRGB
 90
-16777216
102
RTVSPost2010PropOp51
 70
     0
102
RTVSPost2010Prop52
140
1.0
102
RTVSPost2010PropOp52
 70
     0
102
RTVSPost2010Prop53
 90
        2
102
RTVSPost2010PropOp53
 70
     1
102
RTVSPost2010Prop54
  1
strokes_ogs.tif
102
RTVSPost2010PropOp54
 70
     1
102
RTVSPost2010Prop55
280
     0
102
RTVSPost2010PropOp55
 70
     1
102
RTVSPost2010Prop56
140
1.0
102
RTVSPost2010PropOp56
 70
     1
102
RTVSPost2010Prop57
140
1.0
102
RTVSPost2010PropOp57
 70
     1
102
RTVSPropertyOp0
 70
     1
102
RTVSPropertyOp1
 70
     1
102
RTVSPropertyOp2
 70
     1
102
RTVSPropertyOp3
 70
     1
102
RTVSPropertyOp4
 70
     1
102
RTVSPropertyOp5
 70
     1
102
RTVSPropertyOp6
 70
     1
102
RTVSPropertyOp7
 70
     1
102
RTVSPropertyOp8
 70
     1
102
RTVSPropertyOp9
 70
     1
102
RTVSPropertyOp10
 70
     1
102
RTVSPropertyOp11
 70
     1
102
RTVSPropertyOp12
 70
     1
102
RTVSPropertyOp13
 70
     1
102
RTVSPropertyOp14
 70
     1
102
RTVSPropertyOp15
 70
     1
102
RTVSPropertyOp16
 70
     1
102
RTVSPropertyOp17
 70
     1
102
RTVSPropertyOp18
 70
     1
102
RTVSPropertyOp19
 70
     1
102
RTVSPropertyOp20
 70
     1
102
RTVSPropertyOp21
 70
     1
102
RTVSPropertyOp22
 70
     1
102
RTVSPropertyOp23
 70
     1
102
RTVSPropertyOp24
 70
     1
102
RTVSPropertyOp25
 70
     1
102
RTVSPropertyOp26
 70
     1
102
RTVSPropertyOp27
 70
     1
102
RTVSPropertyOp28
 70
     1
102
RTVSPropertyOp29
 70
     1
102
RTVSPropertyOp30
 70
     1
102
RTVSPropertyOp31
 70
     1
102
RTVSPropertyOp32
 70
     1
102
RTVSPropertyOp33
 70
     1
102
RTVSPropertyOp34
 70
     1
102
RTVSPropertyOp35
 70
     1
102
RTVSPropertyOp36
 70
     1
102
RTVSPropertyOp37
 70
     1
102
RTVSPropertyOp38
 70
     1
102
RTVSPropertyOp39
 70
     1
102
RTVSPropertyOp40
 70
     1
102
RTVSPropertyOp41
 70
     1
102
RTVSPropertyOp42
 70
     1
102
RTVSPropertyOp43
 70
     1
102
RTVSPropertyOp44
 70
     1
102
RTVSPropertyOp45
 70
     1
102
RTVSPropertyOp46
 70
     1
102
RTVSPropertyOp47
 70
     1
102
RTVSPropertyOp48
 70
     1
102
RTVSPropertyOp49
 70
     1
102
RTVSPropertyOp50
 70
     1
102
RTVSPropertyOp51
 70
     0
102
RTVSPropertyOp52
 70
     0
102
RTVSPropertyOp53
 70
     1
102
RTVSPropertyOp54
 70
     1
102
RTVSPropertyOp55
 70
     1
102
RTVSPropertyOp56
 70
     1
102
RTVSPropertyOp57
 70
     1
102
RTVSPropertyOp58
 70
     1
102
RTVSPropertyOp59
 70
     1
102
RTVSPropertyOp60
 70
     1
102
RTVSPropertyOp61
 70
     1
102
RTVSPropertyOp62
 70
     1
  0
XRECORD
  5
18A97
102
{ACAD_REACTORS
330
18A96
102
}
330
18A96
100
AcDbXrecord
280
     1
102
RTVSPost2010Prop28
280
     0
102
RTVSPost2010PropOp28
 70
     1
102
RTVSPost2010Prop29
280
     1
102
RTVSPost2010PropOp29
 70
     1
102
RTVSPost2010Prop30
280
     1
102
RTVSPost2010PropOp30
 70
     1
102
RTVSPost2010Prop31
280
     0
102
RTVSPost2010PropOp31
 70
     1
102
RTVSPost2010Prop32
280
     0
102
RTVSPost2010PropOp32
 70
     1
102
RTVSPost2010Prop33
280
     0
102
RTVSPost2010PropOp33
 70
     1
102
RTVSPost2010Prop34
280
     0
102
RTVSPost2010PropOp34
 70
     1
102
RTVSPost2010Prop35
280
     0
102
RTVSPost2010PropOp35
 70
     1
102
RTVSPost2010Prop36
280
     0
102
RTVSPost2010PropOp36
 70
     1
102
RTVSPost2010Prop37
 90
       50
102
RTVSPost2010PropOp37
 70
     1
102
RTVSPost2010Prop38
140
0.0
102
RTVSPost2010PropOp38
 70
     1
102
RTVSPost2010Prop39
140
1.0
102
RTVSPost2010PropOp39
 70
     1
102
RTVSPost2010Prop40
 90
        0
102
RTVSPost2010PropOp40
 70
     1
102
RTVSPost2010Prop41ColorIndex
 90
       18
102
RTVSPost2010Prop41ColorRGB
 90
        0
102
RTVSPost2010PropOp41
 70
     1
102
RTVSPost2010Prop42
 90
       50
102
RTVSPost2010PropOp42
 70
     1
102
RTVSPost2010Prop43
 90
        3
102
RTVSPost2010PropOp43
 70
     1
102
RTVSPost2010Prop44ColorIndex
 90
        5
102
RTVSPost2010Prop44ColorRGB
 90
      255
102
RTVSPost2010PropOp44
 70
     1
102
RTVSPost2010Prop45
280
     0
102
RTVSPost2010PropOp45
 70
     1
102
RTVSPost2010Prop46
 90
       50
102
RTVSPost2010PropOp46
 70
     1
102
RTVSPost2010Prop47
 90
       50
102
RTVSPost2010PropOp47
 70
     1
102
RTVSPost2010Prop48
 90
       50
102
RTVSPost2010PropOp48
 70
     1
102
RTVSPost2010Prop49
280
     0
102
RTVSPost2010PropOp49
 70
     1
102
RTVSPost2010Prop50
 90
       50
102
RTVSPost2010PropOp50
 70
     1
102
RTVSPost2010Prop51ColorIndex
 90
      256
102
RTVSPost2010Prop51ColorRGB
 90
-16777216
102
RTVSPost2010PropOp51
 70
     0
102
RTVSPost2010Prop52
140
1.0
102
RTVSPost2010PropOp52
 70
     0
102
RTVSPost2010Prop53
 90
        2
102
RTVSPost2010PropOp53
 70
     1
102
RTVSPost2010Prop54
  1
strokes_ogs.tif
102
RTVSPost2010PropOp54
 70
     1
102
RTVSPost2010Prop55
280
     0
102
RTVSPost2010PropOp55
 70
     1
102
RTVSPost2010Prop56
140
1.0
102
RTVSPost2010PropOp56
 70
     1
102
RTVSPost2010Prop57
140
1.0
102
RTVSPost2010PropOp57
 70
     1
102
RTVSPropertyOp0
 70
     1
102
RTVSPropertyOp1
 70
     1
102
RTVSPropertyOp2
 70
     1
102
RTVSPropertyOp3
 70
     1
102
RTVSPropertyOp4
 70
     1
102
RTVSPropertyOp5
 70
     1
102
RTVSPropertyOp6
 70
     1
102
RTVSPropertyOp7
 70
     1
102
RTVSPropertyOp8
 70
     1
102
RTVSPropertyOp9
 70
     1
102
RTVSPropertyOp10
 70
     1
102
RTVSPropertyOp11
 70
     1
102
RTVSPropertyOp12
 70
     1
102
RTVSPropertyOp13
 70
     1
102
RTVSPropertyOp14
 70
     1
102
RTVSPropertyOp15
 70
     1
102
RTVSPropertyOp16
 70
     1
102
RTVSPropertyOp17
 70
     1
102
RTVSPropertyOp18
 70
     1
102
RTVSPropertyOp19
 70
     1
102
RTVSPropertyOp20
 70
     1
102
RTVSPropertyOp21
 70
     1
102
RTVSPropertyOp22
 70
     1
102
RTVSPropertyOp23
 70
     1
102
RTVSPropertyOp24
 70
     1
102
RTVSPropertyOp25
 70
     1
102
RTVSPropertyOp26
 70
     1
102
RTVSPropertyOp27
 70
     1
102
RTVSPropertyOp28
 70
     1
102
RTVSPropertyOp29
 70
     1
102
RTVSPropertyOp30
 70
     1
102
RTVSPropertyOp31
 70
     1
102
RTVSPropertyOp32
 70
     1
102
RTVSPropertyOp33
 70
     1
102
RTVSPropertyOp34
 70
     1
102
RTVSPropertyOp35
 70
     1
102
RTVSPropertyOp36
 70
     1
102
RTVSPropertyOp37
 70
     1
102
RTVSPropertyOp38
 70
     1
102
RTVSPropertyOp39
 70
     1
102
RTVSPropertyOp40
 70
     1
102
RTVSPropertyOp41
 70
     1
102
RTVSPropertyOp42
 70
     1
102
RTVSPropertyOp43
 70
     1
102
RTVSPropertyOp44
 70
     1
102
RTVSPropertyOp45
 70
     1
102
RTVSPropertyOp46
 70
     1
102
RTVSPropertyOp47
 70
     1
102
RTVSPropertyOp48
 70
     1
102
RTVSPropertyOp49
 70
     1
102
RTVSPropertyOp50
 70
     1
102
RTVSPropertyOp51
 70
     0
102
RTVSPropertyOp52
 70
     0
102
RTVSPropertyOp53
 70
     1
102
RTVSPropertyOp54
 70
     1
102
RTVSPropertyOp55
 70
     1
102
RTVSPropertyOp56
 70
     1
102
RTVSPropertyOp57
 70
     1
102
RTVSPropertyOp58
 70
     1
102
RTVSPropertyOp59
 70
     1
102
RTVSPropertyOp60
 70
     1
102
RTVSPropertyOp61
 70
     1
102
RTVSPropertyOp62
 70
     1
  0
XRECORD
  5
18AA9
102
{ACAD_REACTORS
330
18AA8
102
}
330
18AA8
100
AcDbXrecord
280
     1
102
RTVSPost2010Prop28
280
     0
102
RTVSPost2010PropOp28
 70
     1
102
RTVSPost2010Prop29
280
     1
102
RTVSPost2010PropOp29
 70
     1
102
RTVSPost2010Prop30
280
     1
102
RTVSPost2010PropOp30
 70
     1
102
RTVSPost2010Prop31
280
     0
102
RTVSPost2010PropOp31
 70
     1
102
RTVSPost2010Prop32
280
     0
102
RTVSPost2010PropOp32
 70
     1
102
RTVSPost2010Prop33
280
     0
102
RTVSPost2010PropOp33
 70
     1
102
RTVSPost2010Prop34
280
     0
102
RTVSPost2010PropOp34
 70
     1
102
RTVSPost2010Prop35
280
     0
102
RTVSPost2010PropOp35
 70
     1
102
RTVSPost2010Prop36
280
     0
102
RTVSPost2010PropOp36
 70
     1
102
RTVSPost2010Prop37
 90
       50
102
RTVSPost2010PropOp37
 70
     1
102
RTVSPost2010Prop38
140
0.0
102
RTVSPost2010PropOp38
 70
     1
102
RTVSPost2010Prop39
140
1.0
102
RTVSPost2010PropOp39
 70
     1
102
RTVSPost2010Prop40
 90
        0
102
RTVSPost2010PropOp40
 70
     1
102
RTVSPost2010Prop41ColorIndex
 90
       18
102
RTVSPost2010Prop41ColorRGB
 90
        0
102
RTVSPost2010PropOp41
 70
     1
102
RTVSPost2010Prop42
 90
       50
102
RTVSPost2010PropOp42
 70
     1
102
RTVSPost2010Prop43
 90
        3
102
RTVSPost2010PropOp43
 70
     1
102
RTVSPost2010Prop44ColorIndex
 90
        5
102
RTVSPost2010Prop44ColorRGB
 90
      255
102
RTVSPost2010PropOp44
 70
     1
102
RTVSPost2010Prop45
280
     0
102
RTVSPost2010PropOp45
 70
     1
102
RTVSPost2010Prop46
 90
       50
102
RTVSPost2010PropOp46
 70
     1
102
RTVSPost2010Prop47
 90
       50
102
RTVSPost2010PropOp47
 70
     1
102
RTVSPost2010Prop48
 90
       50
102
RTVSPost2010PropOp48
 70
     1
102
RTVSPost2010Prop49
280
     0
102
RTVSPost2010PropOp49
 70
     1
102
RTVSPost2010Prop50
 90
       50
102
RTVSPost2010PropOp50
 70
     1
102
RTVSPost2010Prop51ColorIndex
 90
      256
102
RTVSPost2010Prop51ColorRGB
 90
-16777216
102
RTVSPost2010PropOp51
 70
     0
102
RTVSPost2010Prop52
140
1.0
102
RTVSPost2010PropOp52
 70
     0
102
RTVSPost2010Prop53
 90
        2
102
RTVSPost2010PropOp53
 70
     1
102
RTVSPost2010Prop54
  1
strokes_ogs.tif
102
RTVSPost2010PropOp54
 70
     1
102
RTVSPost2010Prop55
280
     0
102
RTVSPost2010PropOp55
 70
     1
102
RTVSPost2010Prop56
140
1.0
102
RTVSPost2010PropOp56
 70
     1
102
RTVSPost2010Prop57
140
1.0
102
RTVSPost2010PropOp57
 70
     1
102
RTVSPropertyOp0
 70
     0
102
RTVSPropertyOp1
 70
     0
102
RTVSPropertyOp2
 70
     0
102
RTVSPropertyOp3
 70
     0
102
RTVSPropertyOp4
 70
     0
102
RTVSPropertyOp5
 70
     0
102
RTVSPropertyOp6
 70
     0
102
RTVSPropertyOp7
 70
     0
102
RTVSPropertyOp8
 70
     0
102
RTVSPropertyOp9
 70
     0
102
RTVSPropertyOp10
 70
     0
102
RTVSPropertyOp11
 70
     0
102
RTVSPropertyOp12
 70
     0
102
RTVSPropertyOp13
 70
     0
102
RTVSPropertyOp14
 70
     2
102
RTVSPropertyOp15
 70
     0
102
RTVSPropertyOp16
 70
     0
102
RTVSPropertyOp17
 70
     0
102
RTVSPropertyOp18
 70
     0
102
RTVSPropertyOp19
 70
     0
102
RTVSPropertyOp20
 70
     0
102
RTVSPropertyOp21
 70
     0
102
RTVSPropertyOp22
 70
     0
102
RTVSPropertyOp23
 70
     0
102
RTVSPropertyOp24
 70
     0
102
RTVSPropertyOp25
 70
     0
102
RTVSPropertyOp26
 70
     0
102
RTVSPropertyOp27
 70
     0
102
RTVSPropertyOp28
 70
     1
102
RTVSPropertyOp29
 70
     1
102
RTVSPropertyOp30
 70
     1
102
RTVSPropertyOp31
 70
     1
102
RTVSPropertyOp32
 70
     1
102
RTVSPropertyOp33
 70
     1
102
RTVSPropertyOp34
 70
     1
102
RTVSPropertyOp35
 70
     1
102
RTVSPropertyOp36
 70
     1
102
RTVSPropertyOp37
 70
     1
102
RTVSPropertyOp38
 70
     1
102
RTVSPropertyOp39
 70
     1
102
RTVSPropertyOp40
 70
     1
102
RTVSPropertyOp41
 70
     1
102
RTVSPropertyOp42
 70
     1
102
RTVSPropertyOp43
 70
     1
102
RTVSPropertyOp44
 70
     1
102
RTVSPropertyOp45
 70
     1
102
RTVSPropertyOp46
 70
     1
102
RTVSPropertyOp47
 70
     1
102
RTVSPropertyOp48
 70
     1
102
RTVSPropertyOp49
 70
     1
102
RTVSPropertyOp50
 70
     1
102
RTVSPropertyOp51
 70
     0
102
RTVSPropertyOp52
 70
     0
102
RTVSPropertyOp53
 70
     1
102
RTVSPropertyOp54
 70
     1
102
RTVSPropertyOp55
 70
     1
102
RTVSPropertyOp56
 70
     1
102
RTVSPropertyOp57
 70
     1
102
RTVSPropertyOp58
 70
     1
102
RTVSPropertyOp59
 70
     1
102
RTVSPropertyOp60
 70
     1
102
RTVSPropertyOp61
 70
     1
102
RTVSPropertyOp62
 70
     1
  0
XRECORD
  5
18A9F
102
{ACAD_REACTORS
330
18A9E
102
}
330
18A9E
100
AcDbXrecord
280
     1
102
RTVSPost2010Prop28
280
     0
102
RTVSPost2010PropOp28
 70
     1
102
RTVSPost2010Prop29
280
     1
102
RTVSPost2010PropOp29
 70
     1
102
RTVSPost2010Prop30
280
     1
102
RTVSPost2010PropOp30
 70
     1
102
RTVSPost2010Prop31
280
     0
102
RTVSPost2010PropOp31
 70
     1
102
RTVSPost2010Prop32
280
     0
102
RTVSPost2010PropOp32
 70
     1
102
RTVSPost2010Prop33
280
     0
102
RTVSPost2010PropOp33
 70
     1
102
RTVSPost2010Prop34
280
     0
102
RTVSPost2010PropOp34
 70
     1
102
RTVSPost2010Prop35
280
     0
102
RTVSPost2010PropOp35
 70
     1
102
RTVSPost2010Prop36
280
     0
102
RTVSPost2010PropOp36
 70
     1
102
RTVSPost2010Prop37
 90
       50
102
RTVSPost2010PropOp37
 70
     1
102
RTVSPost2010Prop38
140
0.0
102
RTVSPost2010PropOp38
 70
     1
102
RTVSPost2010Prop39
140
1.0
102
RTVSPost2010PropOp39
 70
     1
102
RTVSPost2010Prop40
 90
        0
102
RTVSPost2010PropOp40
 70
     1
102
RTVSPost2010Prop41ColorIndex
 90
       18
102
RTVSPost2010Prop41ColorRGB
 90
        0
102
RTVSPost2010PropOp41
 70
     1
102
RTVSPost2010Prop42
 90
       50
102
RTVSPost2010PropOp42
 70
     1
102
RTVSPost2010Prop43
 90
        3
102
RTVSPost2010PropOp43
 70
     1
102
RTVSPost2010Prop44ColorIndex
 90
        5
102
RTVSPost2010Prop44ColorRGB
 90
      255
102
RTVSPost2010PropOp44
 70
     1
102
RTVSPost2010Prop45
280
     0
102
RTVSPost2010PropOp45
 70
     1
102
RTVSPost2010Prop46
 90
       50
102
RTVSPost2010PropOp46
 70
     1
102
RTVSPost2010Prop47
 90
       50
102
RTVSPost2010PropOp47
 70
     1
102
RTVSPost2010Prop48
 90
       50
102
RTVSPost2010PropOp48
 70
     1
102
RTVSPost2010Prop49
280
     0
102
RTVSPost2010PropOp49
 70
     1
102
RTVSPost2010Prop50
 90
       50
102
RTVSPost2010PropOp50
 70
     1
102
RTVSPost2010Prop51ColorIndex
 90
      256
102
RTVSPost2010Prop51ColorRGB
 90
-16777216
102
RTVSPost2010PropOp51
 70
     0
102
RTVSPost2010Prop52
140
1.0
102
RTVSPost2010PropOp52
 70
     0
102
RTVSPost2010Prop53
 90
        2
102
RTVSPost2010PropOp53
 70
     1
102
RTVSPost2010Prop54
  1
strokes_ogs.tif
102
RTVSPost2010PropOp54
 70
     1
102
RTVSPost2010Prop55
280
     0
102
RTVSPost2010PropOp55
 70
     1
102
RTVSPost2010Prop56
140
1.0
102
RTVSPost2010PropOp56
 70
     1
102
RTVSPost2010Prop57
140
1.0
102
RTVSPost2010PropOp57
 70
     1
102
RTVSPropertyOp0
 70
     1
102
RTVSPropertyOp1
 70
     1
102
RTVSPropertyOp2
 70
     1
102
RTVSPropertyOp3
 70
     1
102
RTVSPropertyOp4
 70
     1
102
RTVSPropertyOp5
 70
     1
102
RTVSPropertyOp6
 70
     1
102
RTVSPropertyOp7
 70
     1
102
RTVSPropertyOp8
 70
     1
102
RTVSPropertyOp9
 70
     1
102
RTVSPropertyOp10
 70
     1
102
RTVSPropertyOp11
 70
     1
102
RTVSPropertyOp12
 70
     1
102
RTVSPropertyOp13
 70
     1
102
RTVSPropertyOp14
 70
     1
102
RTVSPropertyOp15
 70
     1
102
RTVSPropertyOp16
 70
     1
102
RTVSPropertyOp17
 70
     1
102
RTVSPropertyOp18
 70
     1
102
RTVSPropertyOp19
 70
     1
102
RTVSPropertyOp20
 70
     1
102
RTVSPropertyOp21
 70
     1
102
RTVSPropertyOp22
 70
     1
102
RTVSPropertyOp23
 70
     1
102
RTVSPropertyOp24
 70
     1
102
RTVSPropertyOp25
 70
     1
102
RTVSPropertyOp26
 70
     1
102
RTVSPropertyOp27
 70
     1
102
RTVSPropertyOp28
 70
     1
102
RTVSPropertyOp29
 70
     1
102
RTVSPropertyOp30
 70
     1
102
RTVSPropertyOp31
 70
     1
102
RTVSPropertyOp32
 70
     1
102
RTVSPropertyOp33
 70
     1
102
RTVSPropertyOp34
 70
     1
102
RTVSPropertyOp35
 70
     1
102
RTVSPropertyOp36
 70
     1
102
RTVSPropertyOp37
 70
     1
102
RTVSPropertyOp38
 70
     1
102
RTVSPropertyOp39
 70
     1
102
RTVSPropertyOp40
 70
     1
102
RTVSPropertyOp41
 70
     1
102
RTVSPropertyOp42
 70
     1
102
RTVSPropertyOp43
 70
     1
102
RTVSPropertyOp44
 70
     1
102
RTVSPropertyOp45
 70
     1
102
RTVSPropertyOp46
 70
     1
102
RTVSPropertyOp47
 70
     1
102
RTVSPropertyOp48
 70
     1
102
RTVSPropertyOp49
 70
     1
102
RTVSPropertyOp50
 70
     1
102
RTVSPropertyOp51
 70
     0
102
RTVSPropertyOp52
 70
     0
102
RTVSPropertyOp53
 70
     1
102
RTVSPropertyOp54
 70
     1
102
RTVSPropertyOp55
 70
     1
102
RTVSPropertyOp56
 70
     1
102
RTVSPropertyOp57
 70
     1
102
RTVSPropertyOp58
 70
     1
102
RTVSPropertyOp59
 70
     1
102
RTVSPropertyOp60
 70
     1
102
RTVSPropertyOp61
 70
     1
102
RTVSPropertyOp62
 70
     1
  0
XRECORD
  5
18A83
102
{ACAD_REACTORS
330
18A82
102
}
330
18A82
100
AcDbXrecord
280
     1
102
RTVSPost2010Prop28
280
     0
102
RTVSPost2010PropOp28
 70
     1
102
RTVSPost2010Prop29
280
     1
102
RTVSPost2010PropOp29
 70
     1
102
RTVSPost2010Prop30
280
     1
102
RTVSPost2010PropOp30
 70
     1
102
RTVSPost2010Prop31
280
     0
102
RTVSPost2010PropOp31
 70
     1
102
RTVSPost2010Prop32
280
     0
102
RTVSPost2010PropOp32
 70
     1
102
RTVSPost2010Prop33
280
     0
102
RTVSPost2010PropOp33
 70
     1
102
RTVSPost2010Prop34
280
     0
102
RTVSPost2010PropOp34
 70
     1
102
RTVSPost2010Prop35
280
     0
102
RTVSPost2010PropOp35
 70
     1
102
RTVSPost2010Prop36
280
     0
102
RTVSPost2010PropOp36
 70
     1
102
RTVSPost2010Prop37
 90
       50
102
RTVSPost2010PropOp37
 70
     1
102
RTVSPost2010Prop38
140
0.0
102
RTVSPost2010PropOp38
 70
     1
102
RTVSPost2010Prop39
140
1.0
102
RTVSPost2010PropOp39
 70
     1
102
RTVSPost2010Prop40
 90
        0
102
RTVSPost2010PropOp40
 70
     1
102
RTVSPost2010Prop41ColorIndex
 90
       18
102
RTVSPost2010Prop41ColorRGB
 90
        0
102
RTVSPost2010PropOp41
 70
     1
102
RTVSPost2010Prop42
 90
       50
102
RTVSPost2010PropOp42
 70
     1
102
RTVSPost2010Prop43
 90
        3
102
RTVSPost2010PropOp43
 70
     1
102
RTVSPost2010Prop44ColorIndex
 90
        5
102
RTVSPost2010Prop44ColorRGB
 90
      255
102
RTVSPost2010PropOp44
 70
     1
102
RTVSPost2010Prop45
280
     0
102
RTVSPost2010PropOp45
 70
     1
102
RTVSPost2010Prop46
 90
       50
102
RTVSPost2010PropOp46
 70
     1
102
RTVSPost2010Prop47
 90
       50
102
RTVSPost2010PropOp47
 70
     1
102
RTVSPost2010Prop48
 90
       50
102
RTVSPost2010PropOp48
 70
     1
102
RTVSPost2010Prop49
280
     0
102
RTVSPost2010PropOp49
 70
     1
102
RTVSPost2010Prop50
 90
       50
102
RTVSPost2010PropOp50
 70
     1
102
RTVSPost2010Prop51ColorIndex
 90
      256
102
RTVSPost2010Prop51ColorRGB
 90
-16777216
102
RTVSPost2010PropOp51
 70
     0
102
RTVSPost2010Prop52
140
1.0
102
RTVSPost2010PropOp52
 70
     0
102
RTVSPost2010Prop53
 90
        2
102
RTVSPost2010PropOp53
 70
     1
102
RTVSPost2010Prop54
  1
strokes_ogs.tif
102
RTVSPost2010PropOp54
 70
     1
102
RTVSPost2010Prop55
280
     0
102
RTVSPost2010PropOp55
 70
     1
102
RTVSPost2010Prop56
140
1.0
102
RTVSPost2010PropOp56
 70
     1
102
RTVSPost2010Prop57
140
1.0
102
RTVSPost2010PropOp57
 70
     1
102
RTVSPropertyOp0
 70
     1
102
RTVSPropertyOp1
 70
     1
102
RTVSPropertyOp2
 70
     1
102
RTVSPropertyOp3
 70
     1
102
RTVSPropertyOp4
 70
     1
102
RTVSPropertyOp5
 70
     1
102
RTVSPropertyOp6
 70
     1
102
RTVSPropertyOp7
 70
     1
102
RTVSPropertyOp8
 70
     1
102
RTVSPropertyOp9
 70
     1
102
RTVSPropertyOp10
 70
     1
102
RTVSPropertyOp11
 70
     1
102
RTVSPropertyOp12
 70
     1
102
RTVSPropertyOp13
 70
     1
102
RTVSPropertyOp14
 70
     1
102
RTVSPropertyOp15
 70
     1
102
RTVSPropertyOp16
 70
     1
102
RTVSPropertyOp17
 70
     1
102
RTVSPropertyOp18
 70
     1
102
RTVSPropertyOp19
 70
     1
102
RTVSPropertyOp20
 70
     1
102
RTVSPropertyOp21
 70
     1
102
RTVSPropertyOp22
 70
     1
102
RTVSPropertyOp23
 70
     1
102
RTVSPropertyOp24
 70
     1
102
RTVSPropertyOp25
 70
     1
102
RTVSPropertyOp26
 70
     1
102
RTVSPropertyOp27
 70
     1
102
RTVSPropertyOp28
 70
     1
102
RTVSPropertyOp29
 70
     1
102
RTVSPropertyOp30
 70
     1
102
RTVSPropertyOp31
 70
     1
102
RTVSPropertyOp32
 70
     1
102
RTVSPropertyOp33
 70
     1
102
RTVSPropertyOp34
 70
     1
102
RTVSPropertyOp35
 70
     1
102
RTVSPropertyOp36
 70
     1
102
RTVSPropertyOp37
 70
     1
102
RTVSPropertyOp38
 70
     1
102
RTVSPropertyOp39
 70
     1
102
RTVSPropertyOp40
 70
     1
102
RTVSPropertyOp41
 70
     1
102
RTVSPropertyOp42
 70
     1
102
RTVSPropertyOp43
 70
     1
102
RTVSPropertyOp44
 70
     1
102
RTVSPropertyOp45
 70
     1
102
RTVSPropertyOp46
 70
     1
102
RTVSPropertyOp47
 70
     1
102
RTVSPropertyOp48
 70
     1
102
RTVSPropertyOp49
 70
     1
102
RTVSPropertyOp50
 70
     1
102
RTVSPropertyOp51
 70
     0
102
RTVSPropertyOp52
 70
     0
102
RTVSPropertyOp53
 70
     1
102
RTVSPropertyOp54
 70
     1
102
RTVSPropertyOp55
 70
     1
102
RTVSPropertyOp56
 70
     1
102
RTVSPropertyOp57
 70
     1
102
RTVSPropertyOp58
 70
     1
102
RTVSPropertyOp59
 70
     1
102
RTVSPropertyOp60
 70
     1
102
RTVSPropertyOp61
 70
     1
102
RTVSPropertyOp62
 70
     1
  0
XRECORD
  5
18A85
102
{ACAD_REACTORS
330
18A84
102
}
330
18A84
100
AcDbXrecord
280
     1
102
RTVSPost2010Prop28
280
     0
102
RTVSPost2010PropOp28
 70
     1
102
RTVSPost2010Prop29
280
     1
102
RTVSPost2010PropOp29
 70
     1
102
RTVSPost2010Prop30
280
     1
102
RTVSPost2010PropOp30
 70
     1
102
RTVSPost2010Prop31
280
     0
102
RTVSPost2010PropOp31
 70
     1
102
RTVSPost2010Prop32
280
     0
102
RTVSPost2010PropOp32
 70
     1
102
RTVSPost2010Prop33
280
     0
102
RTVSPost2010PropOp33
 70
     1
102
RTVSPost2010Prop34
280
     0
102
RTVSPost2010PropOp34
 70
     1
102
RTVSPost2010Prop35
280
     0
102
RTVSPost2010PropOp35
 70
     1
102
RTVSPost2010Prop36
280
     0
102
RTVSPost2010PropOp36
 70
     1
102
RTVSPost2010Prop37
 90
       50
102
RTVSPost2010PropOp37
 70
     1
102
RTVSPost2010Prop38
140
0.0
102
RTVSPost2010PropOp38
 70
     1
102
RTVSPost2010Prop39
140
1.0
102
RTVSPost2010PropOp39
 70
     1
102
RTVSPost2010Prop40
 90
        0
102
RTVSPost2010PropOp40
 70
     1
102
RTVSPost2010Prop41ColorIndex
 90
       18
102
RTVSPost2010Prop41ColorRGB
 90
        0
102
RTVSPost2010PropOp41
 70
     1
102
RTVSPost2010Prop42
 90
       50
102
RTVSPost2010PropOp42
 70
     1
102
RTVSPost2010Prop43
 90
        3
102
RTVSPost2010PropOp43
 70
     1
102
RTVSPost2010Prop44ColorIndex
 90
        5
102
RTVSPost2010Prop44ColorRGB
 90
      255
102
RTVSPost2010PropOp44
 70
     1
102
RTVSPost2010Prop45
280
     0
102
RTVSPost2010PropOp45
 70
     1
102
RTVSPost2010Prop46
 90
       50
102
RTVSPost2010PropOp46
 70
     1
102
RTVSPost2010Prop47
 90
       50
102
RTVSPost2010PropOp47
 70
     1
102
RTVSPost2010Prop48
 90
       50
102
RTVSPost2010PropOp48
 70
     1
102
RTVSPost2010Prop49
280
     0
102
RTVSPost2010PropOp49
 70
     1
102
RTVSPost2010Prop50
 90
       50
102
RTVSPost2010PropOp50
 70
     1
102
RTVSPost2010Prop51ColorIndex
 90
      256
102
RTVSPost2010Prop51ColorRGB
 90
-16777216
102
RTVSPost2010PropOp51
 70
     0
102
RTVSPost2010Prop52
140
1.0
102
RTVSPost2010PropOp52
 70
     0
102
RTVSPost2010Prop53
 90
        2
102
RTVSPost2010PropOp53
 70
     1
102
RTVSPost2010Prop54
  1
strokes_ogs.tif
102
RTVSPost2010PropOp54
 70
     1
102
RTVSPost2010Prop55
280
     0
102
RTVSPost2010PropOp55
 70
     1
102
RTVSPost2010Prop56
140
1.0
102
RTVSPost2010PropOp56
 70
     1
102
RTVSPost2010Prop57
140
1.0
102
RTVSPost2010PropOp57
 70
     1
102
RTVSPropertyOp0
 70
     1
102
RTVSPropertyOp1
 70
     1
102
RTVSPropertyOp2
 70
     1
102
RTVSPropertyOp3
 70
     1
102
RTVSPropertyOp4
 70
     1
102
RTVSPropertyOp5
 70
     1
102
RTVSPropertyOp6
 70
     1
102
RTVSPropertyOp7
 70
     1
102
RTVSPropertyOp8
 70
     1
102
RTVSPropertyOp9
 70
     1
102
RTVSPropertyOp10
 70
     1
102
RTVSPropertyOp11
 70
     1
102
RTVSPropertyOp12
 70
     1
102
RTVSPropertyOp13
 70
     1
102
RTVSPropertyOp14
 70
     1
102
RTVSPropertyOp15
 70
     1
102
RTVSPropertyOp16
 70
     1
102
RTVSPropertyOp17
 70
     1
102
RTVSPropertyOp18
 70
     1
102
RTVSPropertyOp19
 70
     1
102
RTVSPropertyOp20
 70
     1
102
RTVSPropertyOp21
 70
     1
102
RTVSPropertyOp22
 70
     1
102
RTVSPropertyOp23
 70
     1
102
RTVSPropertyOp24
 70
     1
102
RTVSPropertyOp25
 70
     1
102
RTVSPropertyOp26
 70
     1
102
RTVSPropertyOp27
 70
     1
102
RTVSPropertyOp28
 70
     1
102
RTVSPropertyOp29
 70
     1
102
RTVSPropertyOp30
 70
     1
102
RTVSPropertyOp31
 70
     1
102
RTVSPropertyOp32
 70
     1
102
RTVSPropertyOp33
 70
     1
102
RTVSPropertyOp34
 70
     1
102
RTVSPropertyOp35
 70
     1
102
RTVSPropertyOp36
 70
     1
102
RTVSPropertyOp37
 70
     1
102
RTVSPropertyOp38
 70
     1
102
RTVSPropertyOp39
 70
     1
102
RTVSPropertyOp40
 70
     1
102
RTVSPropertyOp41
 70
     1
102
RTVSPropertyOp42
 70
     1
102
RTVSPropertyOp43
 70
     1
102
RTVSPropertyOp44
 70
     1
102
RTVSPropertyOp45
 70
     1
102
RTVSPropertyOp46
 70
     1
102
RTVSPropertyOp47
 70
     1
102
RTVSPropertyOp48
 70
     1
102
RTVSPropertyOp49
 70
     1
102
RTVSPropertyOp50
 70
     1
102
RTVSPropertyOp51
 70
     0
102
RTVSPropertyOp52
 70
     0
102
RTVSPropertyOp53
 70
     1
102
RTVSPropertyOp54
 70
     1
102
RTVSPropertyOp55
 70
     1
102
RTVSPropertyOp56
 70
     1
102
RTVSPropertyOp57
 70
     1
102
RTVSPropertyOp58
 70
     1
102
RTVSPropertyOp59
 70
     1
102
RTVSPropertyOp60
 70
     1
102
RTVSPropertyOp61
 70
     1
102
RTVSPropertyOp62
 70
     1
  0
XRECORD
  5
18A87
102
{ACAD_REACTORS
330
18A86
102
}
330
18A86
100
AcDbXrecord
280
     1
102
RTVSPost2010Prop28
280
     0
102
RTVSPost2010PropOp28
 70
     1
102
RTVSPost2010Prop29
280
     1
102
RTVSPost2010PropOp29
 70
     1
102
RTVSPost2010Prop30
280
     1
102
RTVSPost2010PropOp30
 70
     1
102
RTVSPost2010Prop31
280
     0
102
RTVSPost2010PropOp31
 70
     1
102
RTVSPost2010Prop32
280
     0
102
RTVSPost2010PropOp32
 70
     1
102
RTVSPost2010Prop33
280
     0
102
RTVSPost2010PropOp33
 70
     1
102
RTVSPost2010Prop34
280
     0
102
RTVSPost2010PropOp34
 70
     1
102
RTVSPost2010Prop35
280
     0
102
RTVSPost2010PropOp35
 70
     1
102
RTVSPost2010Prop36
280
     0
102
RTVSPost2010PropOp36
 70
     1
102
RTVSPost2010Prop37
 90
       50
102
RTVSPost2010PropOp37
 70
     1
102
RTVSPost2010Prop38
140
0.0
102
RTVSPost2010PropOp38
 70
     1
102
RTVSPost2010Prop39
140
1.0
102
RTVSPost2010PropOp39
 70
     1
102
RTVSPost2010Prop40
 90
        0
102
RTVSPost2010PropOp40
 70
     1
102
RTVSPost2010Prop41ColorIndex
 90
       18
102
RTVSPost2010Prop41ColorRGB
 90
        0
102
RTVSPost2010PropOp41
 70
     1
102
RTVSPost2010Prop42
 90
       50
102
RTVSPost2010PropOp42
 70
     1
102
RTVSPost2010Prop43
 90
        3
102
RTVSPost2010PropOp43
 70
     1
102
RTVSPost2010Prop44ColorIndex
 90
        5
102
RTVSPost2010Prop44ColorRGB
 90
      255
102
RTVSPost2010PropOp44
 70
     1
102
RTVSPost2010Prop45
280
     0
102
RTVSPost2010PropOp45
 70
     1
102
RTVSPost2010Prop46
 90
       50
102
RTVSPost2010PropOp46
 70
     1
102
RTVSPost2010Prop47
 90
       50
102
RTVSPost2010PropOp47
 70
     1
102
RTVSPost2010Prop48
 90
       50
102
RTVSPost2010PropOp48
 70
     1
102
RTVSPost2010Prop49
280
     0
102
RTVSPost2010PropOp49
 70
     1
102
RTVSPost2010Prop50
 90
       50
102
RTVSPost2010PropOp50
 70
     1
102
RTVSPost2010Prop51ColorIndex
 90
      256
102
RTVSPost2010Prop51ColorRGB
 90
-16777216
102
RTVSPost2010PropOp51
 70
     0
102
RTVSPost2010Prop52
140
1.0
102
RTVSPost2010PropOp52
 70
     0
102
RTVSPost2010Prop53
 90
        2
102
RTVSPost2010PropOp53
 70
     1
102
RTVSPost2010Prop54
  1
strokes_ogs.tif
102
RTVSPost2010PropOp54
 70
     1
102
RTVSPost2010Prop55
280
     0
102
RTVSPost2010PropOp55
 70
     1
102
RTVSPost2010Prop56
140
1.0
102
RTVSPost2010PropOp56
 70
     1
102
RTVSPost2010Prop57
140
1.0
102
RTVSPost2010PropOp57
 70
     1
102
RTVSPropertyOp0
 70
     1
102
RTVSPropertyOp1
 70
     1
102
RTVSPropertyOp2
 70
     1
102
RTVSPropertyOp3
 70
     1
102
RTVSPropertyOp4
 70
     1
102
RTVSPropertyOp5
 70
     1
102
RTVSPropertyOp6
 70
     1
102
RTVSPropertyOp7
 70
     1
102
RTVSPropertyOp8
 70
     1
102
RTVSPropertyOp9
 70
     1
102
RTVSPropertyOp10
 70
     1
102
RTVSPropertyOp11
 70
     1
102
RTVSPropertyOp12
 70
     1
102
RTVSPropertyOp13
 70
     1
102
RTVSPropertyOp14
 70
     1
102
RTVSPropertyOp15
 70
     1
102
RTVSPropertyOp16
 70
     1
102
RTVSPropertyOp17
 70
     1
102
RTVSPropertyOp18
 70
     1
102
RTVSPropertyOp19
 70
     1
102
RTVSPropertyOp20
 70
     1
102
RTVSPropertyOp21
 70
     1
102
RTVSPropertyOp22
 70
     1
102
RTVSPropertyOp23
 70
     1
102
RTVSPropertyOp24
 70
     1
102
RTVSPropertyOp25
 70
     1
102
RTVSPropertyOp26
 70
     1
102
RTVSPropertyOp27
 70
     1
102
RTVSPropertyOp28
 70
     1
102
RTVSPropertyOp29
 70
     1
102
RTVSPropertyOp30
 70
     1
102
RTVSPropertyOp31
 70
     1
102
RTVSPropertyOp32
 70
     1
102
RTVSPropertyOp33
 70
     1
102
RTVSPropertyOp34
 70
     1
102
RTVSPropertyOp35
 70
     1
102
RTVSPropertyOp36
 70
     1
102
RTVSPropertyOp37
 70
     1
102
RTVSPropertyOp38
 70
     1
102
RTVSPropertyOp39
 70
     1
102
RTVSPropertyOp40
 70
     1
102
RTVSPropertyOp41
 70
     1
102
RTVSPropertyOp42
 70
     1
102
RTVSPropertyOp43
 70
     1
102
RTVSPropertyOp44
 70
     1
102
RTVSPropertyOp45
 70
     1
102
RTVSPropertyOp46
 70
     1
102
RTVSPropertyOp47
 70
     1
102
RTVSPropertyOp48
 70
     1
102
RTVSPropertyOp49
 70
     1
102
RTVSPropertyOp50
 70
     1
102
RTVSPropertyOp51
 70
     0
102
RTVSPropertyOp52
 70
     0
102
RTVSPropertyOp53
 70
     1
102
RTVSPropertyOp54
 70
     1
102
RTVSPropertyOp55
 70
     1
102
RTVSPropertyOp56
 70
     1
102
RTVSPropertyOp57
 70
     1
102
RTVSPropertyOp58
 70
     1
102
RTVSPropertyOp59
 70
     1
102
RTVSPropertyOp60
 70
     1
102
RTVSPropertyOp61
 70
     1
102
RTVSPropertyOp62
 70
     1
  0
XRECORD
  5
18A89
102
{ACAD_REACTORS
330
18A88
102
}
330
18A88
100
AcDbXrecord
280
     1
102
RTVSPost2010Prop28
280
     0
102
RTVSPost2010PropOp28
 70
     1
102
RTVSPost2010Prop29
280
     1
102
RTVSPost2010PropOp29
 70
     1
102
RTVSPost2010Prop30
280
     1
102
RTVSPost2010PropOp30
 70
     1
102
RTVSPost2010Prop31
280
     0
102
RTVSPost2010PropOp31
 70
     1
102
RTVSPost2010Prop32
280
     0
102
RTVSPost2010PropOp32
 70
     1
102
RTVSPost2010Prop33
280
     0
102
RTVSPost2010PropOp33
 70
     1
102
RTVSPost2010Prop34
280
     0
102
RTVSPost2010PropOp34
 70
     1
102
RTVSPost2010Prop35
280
     0
102
RTVSPost2010PropOp35
 70
     1
102
RTVSPost2010Prop36
280
     0
102
RTVSPost2010PropOp36
 70
     1
102
RTVSPost2010Prop37
 90
       50
102
RTVSPost2010PropOp37
 70
     1
102
RTVSPost2010Prop38
140
0.0
102
RTVSPost2010PropOp38
 70
     1
102
RTVSPost2010Prop39
140
1.0
102
RTVSPost2010PropOp39
 70
     1
102
RTVSPost2010Prop40
 90
        0
102
RTVSPost2010PropOp40
 70
     1
102
RTVSPost2010Prop41ColorIndex
 90
       18
102
RTVSPost2010Prop41ColorRGB
 90
        0
102
RTVSPost2010PropOp41
 70
     1
102
RTVSPost2010Prop42
 90
       50
102
RTVSPost2010PropOp42
 70
     1
102
RTVSPost2010Prop43
 90
        3
102
RTVSPost2010PropOp43
 70
     1
102
RTVSPost2010Prop44ColorIndex
 90
        5
102
RTVSPost2010Prop44ColorRGB
 90
      255
102
RTVSPost2010PropOp44
 70
     1
102
RTVSPost2010Prop45
280
     0
102
RTVSPost2010PropOp45
 70
     1
102
RTVSPost2010Prop46
 90
       50
102
RTVSPost2010PropOp46
 70
     1
102
RTVSPost2010Prop47
 90
       50
102
RTVSPost2010PropOp47
 70
     1
102
RTVSPost2010Prop48
 90
       50
102
RTVSPost2010PropOp48
 70
     1
102
RTVSPost2010Prop49
280
     0
102
RTVSPost2010PropOp49
 70
     1
102
RTVSPost2010Prop50
 90
       50
102
RTVSPost2010PropOp50
 70
     1
102
RTVSPost2010Prop51ColorIndex
 90
      256
102
RTVSPost2010Prop51ColorRGB
 90
-16777216
102
RTVSPost2010PropOp51
 70
     0
102
RTVSPost2010Prop52
140
1.0
102
RTVSPost2010PropOp52
 70
     0
102
RTVSPost2010Prop53
 90
        2
102
RTVSPost2010PropOp53
 70
     1
102
RTVSPost2010Prop54
  1
strokes_ogs.tif
102
RTVSPost2010PropOp54
 70
     1
102
RTVSPost2010Prop55
280
     0
102
RTVSPost2010PropOp55
 70
     1
102
RTVSPost2010Prop56
140
1.0
102
RTVSPost2010PropOp56
 70
     1
102
RTVSPost2010Prop57
140
1.0
102
RTVSPost2010PropOp57
 70
     1
102
RTVSPropertyOp0
 70
     1
102
RTVSPropertyOp1
 70
     1
102
RTVSPropertyOp2
 70
     1
102
RTVSPropertyOp3
 70
     1
102
RTVSPropertyOp4
 70
     1
102
RTVSPropertyOp5
 70
     1
102
RTVSPropertyOp6
 70
     1
102
RTVSPropertyOp7
 70
     1
102
RTVSPropertyOp8
 70
     1
102
RTVSPropertyOp9
 70
     1
102
RTVSPropertyOp10
 70
     1
102
RTVSPropertyOp11
 70
     1
102
RTVSPropertyOp12
 70
     1
102
RTVSPropertyOp13
 70
     1
102
RTVSPropertyOp14
 70
     1
102
RTVSPropertyOp15
 70
     1
102
RTVSPropertyOp16
 70
     1
102
RTVSPropertyOp17
 70
     1
102
RTVSPropertyOp18
 70
     1
102
RTVSPropertyOp19
 70
     1
102
RTVSPropertyOp20
 70
     1
102
RTVSPropertyOp21
 70
     1
102
RTVSPropertyOp22
 70
     1
102
RTVSPropertyOp23
 70
     1
102
RTVSPropertyOp24
 70
     1
102
RTVSPropertyOp25
 70
     1
102
RTVSPropertyOp26
 70
     1
102
RTVSPropertyOp27
 70
     1
102
RTVSPropertyOp28
 70
     1
102
RTVSPropertyOp29
 70
     1
102
RTVSPropertyOp30
 70
     1
102
RTVSPropertyOp31
 70
     1
102
RTVSPropertyOp32
 70
     1
102
RTVSPropertyOp33
 70
     1
102
RTVSPropertyOp34
 70
     1
102
RTVSPropertyOp35
 70
     1
102
RTVSPropertyOp36
 70
     1
102
RTVSPropertyOp37
 70
     1
102
RTVSPropertyOp38
 70
     1
102
RTVSPropertyOp39
 70
     1
102
RTVSPropertyOp40
 70
     1
102
RTVSPropertyOp41
 70
     1
102
RTVSPropertyOp42
 70
     1
102
RTVSPropertyOp43
 70
     1
102
RTVSPropertyOp44
 70
     1
102
RTVSPropertyOp45
 70
     1
102
RTVSPropertyOp46
 70
     1
102
RTVSPropertyOp47
 70
     1
102
RTVSPropertyOp48
 70
     1
102
RTVSPropertyOp49
 70
     1
102
RTVSPropertyOp50
 70
     1
102
RTVSPropertyOp51
 70
     0
102
RTVSPropertyOp52
 70
     0
102
RTVSPropertyOp53
 70
     1
102
RTVSPropertyOp54
 70
     1
102
RTVSPropertyOp55
 70
     1
102
RTVSPropertyOp56
 70
     1
102
RTVSPropertyOp57
 70
     1
102
RTVSPropertyOp58
 70
     1
102
RTVSPropertyOp59
 70
     1
102
RTVSPropertyOp60
 70
     1
102
RTVSPropertyOp61
 70
     1
102
RTVSPropertyOp62
 70
     1
  0
XRECORD
  5
18A91
102
{ACAD_REACTORS
330
18A90
102
}
330
18A90
100
AcDbXrecord
280
     1
102
RTVSPost2010Prop28
280
     0
102
RTVSPost2010PropOp28
 70
     1
102
RTVSPost2010Prop29
280
     1
102
RTVSPost2010PropOp29
 70
     1
102
RTVSPost2010Prop30
280
     1
102
RTVSPost2010PropOp30
 70
     1
102
RTVSPost2010Prop31
280
     0
102
RTVSPost2010PropOp31
 70
     1
102
RTVSPost2010Prop32
280
     0
102
RTVSPost2010PropOp32
 70
     1
102
RTVSPost2010Prop33
280
     0
102
RTVSPost2010PropOp33
 70
     1
102
RTVSPost2010Prop34
280
     0
102
RTVSPost2010PropOp34
 70
     1
102
RTVSPost2010Prop35
280
     0
102
RTVSPost2010PropOp35
 70
     1
102
RTVSPost2010Prop36
280
     0
102
RTVSPost2010PropOp36
 70
     1
102
RTVSPost2010Prop37
 90
       50
102
RTVSPost2010PropOp37
 70
     1
102
RTVSPost2010Prop38
140
0.0
102
RTVSPost2010PropOp38
 70
     1
102
RTVSPost2010Prop39
140
1.0
102
RTVSPost2010PropOp39
 70
     1
102
RTVSPost2010Prop40
 90
        0
102
RTVSPost2010PropOp40
 70
     1
102
RTVSPost2010Prop41ColorIndex
 90
       18
102
RTVSPost2010Prop41ColorRGB
 90
        0
102
RTVSPost2010PropOp41
 70
     1
102
RTVSPost2010Prop42
 90
       50
102
RTVSPost2010PropOp42
 70
     1
102
RTVSPost2010Prop43
 90
        3
102
RTVSPost2010PropOp43
 70
     1
102
RTVSPost2010Prop44ColorIndex
 90
        5
102
RTVSPost2010Prop44ColorRGB
 90
      255
102
RTVSPost2010PropOp44
 70
     1
102
RTVSPost2010Prop45
280
     0
102
RTVSPost2010PropOp45
 70
     1
102
RTVSPost2010Prop46
 90
       50
102
RTVSPost2010PropOp46
 70
     1
102
RTVSPost2010Prop47
 90
       50
102
RTVSPost2010PropOp47
 70
     1
102
RTVSPost2010Prop48
 90
       50
102
RTVSPost2010PropOp48
 70
     1
102
RTVSPost2010Prop49
280
     0
102
RTVSPost2010PropOp49
 70
     1
102
RTVSPost2010Prop50
 90
       50
102
RTVSPost2010PropOp50
 70
     1
102
RTVSPost2010Prop51ColorIndex
 90
      256
102
RTVSPost2010Prop51ColorRGB
 90
-16777216
102
RTVSPost2010PropOp51
 70
     0
102
RTVSPost2010Prop52
140
1.0
102
RTVSPost2010PropOp52
 70
     0
102
RTVSPost2010Prop53
 90
        2
102
RTVSPost2010PropOp53
 70
     1
102
RTVSPost2010Prop54
  1
strokes_ogs.tif
102
RTVSPost2010PropOp54
 70
     1
102
RTVSPost2010Prop55
280
     0
102
RTVSPost2010PropOp55
 70
     1
102
RTVSPost2010Prop56
140
1.0
102
RTVSPost2010PropOp56
 70
     1
102
RTVSPost2010Prop57
140
1.0
102
RTVSPost2010PropOp57
 70
     1
102
RTVSPropertyOp0
 70
     1
102
RTVSPropertyOp1
 70
     1
102
RTVSPropertyOp2
 70
     1
102
RTVSPropertyOp3
 70
     1
102
RTVSPropertyOp4
 70
     1
102
RTVSPropertyOp5
 70
     1
102
RTVSPropertyOp6
 70
     1
102
RTVSPropertyOp7
 70
     1
102
RTVSPropertyOp8
 70
     1
102
RTVSPropertyOp9
 70
     1
102
RTVSPropertyOp10
 70
     1
102
RTVSPropertyOp11
 70
     1
102
RTVSPropertyOp12
 70
     1
102
RTVSPropertyOp13
 70
     1
102
RTVSPropertyOp14
 70
     1
102
RTVSPropertyOp15
 70
     1
102
RTVSPropertyOp16
 70
     1
102
RTVSPropertyOp17
 70
     1
102
RTVSPropertyOp18
 70
     1
102
RTVSPropertyOp19
 70
     1
102
RTVSPropertyOp20
 70
     1
102
RTVSPropertyOp21
 70
     1
102
RTVSPropertyOp22
 70
     1
102
RTVSPropertyOp23
 70
     1
102
RTVSPropertyOp24
 70
     1
102
RTVSPropertyOp25
 70
     1
102
RTVSPropertyOp26
 70
     1
102
RTVSPropertyOp27
 70
     1
102
RTVSPropertyOp28
 70
     1
102
RTVSPropertyOp29
 70
     1
102
RTVSPropertyOp30
 70
     1
102
RTVSPropertyOp31
 70
     1
102
RTVSPropertyOp32
 70
     1
102
RTVSPropertyOp33
 70
     1
102
RTVSPropertyOp34
 70
     1
102
RTVSPropertyOp35
 70
     1
102
RTVSPropertyOp36
 70
     1
102
RTVSPropertyOp37
 70
     1
102
RTVSPropertyOp38
 70
     1
102
RTVSPropertyOp39
 70
     1
102
RTVSPropertyOp40
 70
     1
102
RTVSPropertyOp41
 70
     1
102
RTVSPropertyOp42
 70
     1
102
RTVSPropertyOp43
 70
     1
102
RTVSPropertyOp44
 70
     1
102
RTVSPropertyOp45
 70
     1
102
RTVSPropertyOp46
 70
     1
102
RTVSPropertyOp47
 70
     1
102
RTVSPropertyOp48
 70
     1
102
RTVSPropertyOp49
 70
     1
102
RTVSPropertyOp50
 70
     1
102
RTVSPropertyOp51
 70
     0
102
RTVSPropertyOp52
 70
     0
102
RTVSPropertyOp53
 70
     1
102
RTVSPropertyOp54
 70
     1
102
RTVSPropertyOp55
 70
     1
102
RTVSPropertyOp56
 70
     1
102
RTVSPropertyOp57
 70
     1
102
RTVSPropertyOp58
 70
     1
102
RTVSPropertyOp59
 70
     1
102
RTVSPropertyOp60
 70
     1
102
RTVSPropertyOp61
 70
     1
102
RTVSPropertyOp62
 70
     1
  0
XRECORD
  5
18AA5
102
{ACAD_REACTORS
330
18AA4
102
}
330
18AA4
100
AcDbXrecord
280
     1
102
RTVSPost2010Prop28
280
     0
102
RTVSPost2010PropOp28
 70
     1
102
RTVSPost2010Prop29
280
     1
102
RTVSPost2010PropOp29
 70
     1
102
RTVSPost2010Prop30
280
     1
102
RTVSPost2010PropOp30
 70
     1
102
RTVSPost2010Prop31
280
     0
102
RTVSPost2010PropOp31
 70
     1
102
RTVSPost2010Prop32
280
     0
102
RTVSPost2010PropOp32
 70
     1
102
RTVSPost2010Prop33
280
     0
102
RTVSPost2010PropOp33
 70
     1
102
RTVSPost2010Prop34
280
     0
102
RTVSPost2010PropOp34
 70
     1
102
RTVSPost2010Prop35
280
     0
102
RTVSPost2010PropOp35
 70
     1
102
RTVSPost2010Prop36
280
     0
102
RTVSPost2010PropOp36
 70
     1
102
RTVSPost2010Prop37
 90
       50
102
RTVSPost2010PropOp37
 70
     1
102
RTVSPost2010Prop38
140
0.0
102
RTVSPost2010PropOp38
 70
     1
102
RTVSPost2010Prop39
140
1.0
102
RTVSPost2010PropOp39
 70
     1
102
RTVSPost2010Prop40
 90
        0
102
RTVSPost2010PropOp40
 70
     1
102
RTVSPost2010Prop41ColorIndex
 90
       18
102
RTVSPost2010Prop41ColorRGB
 90
        0
102
RTVSPost2010PropOp41
 70
     1
102
RTVSPost2010Prop42
 90
       50
102
RTVSPost2010PropOp42
 70
     1
102
RTVSPost2010Prop43
 90
        3
102
RTVSPost2010PropOp43
 70
     1
102
RTVSPost2010Prop44ColorIndex
 90
        5
102
RTVSPost2010Prop44ColorRGB
 90
      255
102
RTVSPost2010PropOp44
 70
     1
102
RTVSPost2010Prop45
280
     0
102
RTVSPost2010PropOp45
 70
     1
102
RTVSPost2010Prop46
 90
       50
102
RTVSPost2010PropOp46
 70
     1
102
RTVSPost2010Prop47
 90
       50
102
RTVSPost2010PropOp47
 70
     1
102
RTVSPost2010Prop48
 90
       50
102
RTVSPost2010PropOp48
 70
     1
102
RTVSPost2010Prop49
280
     0
102
RTVSPost2010PropOp49
 70
     1
102
RTVSPost2010Prop50
 90
       50
102
RTVSPost2010PropOp50
 70
     1
102
RTVSPost2010Prop51ColorIndex
 90
      256
102
RTVSPost2010Prop51ColorRGB
 90
-16777216
102
RTVSPost2010PropOp51
 70
     0
102
RTVSPost2010Prop52
140
1.0
102
RTVSPost2010PropOp52
 70
     0
102
RTVSPost2010Prop53
 90
        2
102
RTVSPost2010PropOp53
 70
     1
102
RTVSPost2010Prop54
  1
strokes_ogs.tif
102
RTVSPost2010PropOp54
 70
     1
102
RTVSPost2010Prop55
280
     0
102
RTVSPost2010PropOp55
 70
     1
102
RTVSPost2010Prop56
140
1.0
102
RTVSPost2010PropOp56
 70
     1
102
RTVSPost2010Prop57
140
1.0
102
RTVSPost2010PropOp57
 70
     1
102
RTVSPropertyOp0
 70
     0
102
RTVSPropertyOp1
 70
     0
102
RTVSPropertyOp2
 70
     0
102
RTVSPropertyOp3
 70
     0
102
RTVSPropertyOp4
 70
     0
102
RTVSPropertyOp5
 70
     0
102
RTVSPropertyOp6
 70
     0
102
RTVSPropertyOp7
 70
     0
102
RTVSPropertyOp8
 70
     0
102
RTVSPropertyOp9
 70
     0
102
RTVSPropertyOp10
 70
     0
102
RTVSPropertyOp11
 70
     0
102
RTVSPropertyOp12
 70
     0
102
RTVSPropertyOp13
 70
     0
102
RTVSPropertyOp14
 70
     2
102
RTVSPropertyOp15
 70
     0
102
RTVSPropertyOp16
 70
     0
102
RTVSPropertyOp17
 70
     0
102
RTVSPropertyOp18
 70
     0
102
RTVSPropertyOp19
 70
     0
102
RTVSPropertyOp20
 70
     0
102
RTVSPropertyOp21
 70
     0
102
RTVSPropertyOp22
 70
     0
102
RTVSPropertyOp23
 70
     0
102
RTVSPropertyOp24
 70
     0
102
RTVSPropertyOp25
 70
     0
102
RTVSPropertyOp26
 70
     0
102
RTVSPropertyOp27
 70
     0
102
RTVSPropertyOp28
 70
     1
102
RTVSPropertyOp29
 70
     1
102
RTVSPropertyOp30
 70
     1
102
RTVSPropertyOp31
 70
     1
102
RTVSPropertyOp32
 70
     1
102
RTVSPropertyOp33
 70
     1
102
RTVSPropertyOp34
 70
     1
102
RTVSPropertyOp35
 70
     1
102
RTVSPropertyOp36
 70
     1
102
RTVSPropertyOp37
 70
     1
102
RTVSPropertyOp38
 70
     1
102
RTVSPropertyOp39
 70
     1
102
RTVSPropertyOp40
 70
     1
102
RTVSPropertyOp41
 70
     1
102
RTVSPropertyOp42
 70
     1
102
RTVSPropertyOp43
 70
     1
102
RTVSPropertyOp44
 70
     1
102
RTVSPropertyOp45
 70
     1
102
RTVSPropertyOp46
 70
     1
102
RTVSPropertyOp47
 70
     1
102
RTVSPropertyOp48
 70
     1
102
RTVSPropertyOp49
 70
     1
102
RTVSPropertyOp50
 70
     1
102
RTVSPropertyOp51
 70
     0
102
RTVSPropertyOp52
 70
     0
102
RTVSPropertyOp53
 70
     1
102
RTVSPropertyOp54
 70
     1
102
RTVSPropertyOp55
 70
     1
102
RTVSPropertyOp56
 70
     1
102
RTVSPropertyOp57
 70
     1
102
RTVSPropertyOp58
 70
     1
102
RTVSPropertyOp59
 70
     1
102
RTVSPropertyOp60
 70
     1
102
RTVSPropertyOp61
 70
     1
102
RTVSPropertyOp62
 70
     1
  0
XRECORD
  5
18A9D
102
{ACAD_REACTORS
330
18A9C
102
}
330
18A9C
100
AcDbXrecord
280
     1
102
RTVSPost2010Prop28
280
     0
102
RTVSPost2010PropOp28
 70
     1
102
RTVSPost2010Prop29
280
     1
102
RTVSPost2010PropOp29
 70
     1
102
RTVSPost2010Prop30
280
     1
102
RTVSPost2010PropOp30
 70
     1
102
RTVSPost2010Prop31
280
     0
102
RTVSPost2010PropOp31
 70
     1
102
RTVSPost2010Prop32
280
     0
102
RTVSPost2010PropOp32
 70
     1
102
RTVSPost2010Prop33
280
     0
102
RTVSPost2010PropOp33
 70
     1
102
RTVSPost2010Prop34
280
     0
102
RTVSPost2010PropOp34
 70
     1
102
RTVSPost2010Prop35
280
     0
102
RTVSPost2010PropOp35
 70
     1
102
RTVSPost2010Prop36
280
     0
102
RTVSPost2010PropOp36
 70
     1
102
RTVSPost2010Prop37
 90
       50
102
RTVSPost2010PropOp37
 70
     1
102
RTVSPost2010Prop38
140
0.0
102
RTVSPost2010PropOp38
 70
     1
102
RTVSPost2010Prop39
140
1.0
102
RTVSPost2010PropOp39
 70
     1
102
RTVSPost2010Prop40
 90
        0
102
RTVSPost2010PropOp40
 70
     1
102
RTVSPost2010Prop41ColorIndex
 90
       18
102
RTVSPost2010Prop41ColorRGB
 90
        0
102
RTVSPost2010PropOp41
 70
     1
102
RTVSPost2010Prop42
 90
       50
102
RTVSPost2010PropOp42
 70
     1
102
RTVSPost2010Prop43
 90
        3
102
RTVSPost2010PropOp43
 70
     1
102
RTVSPost2010Prop44ColorIndex
 90
        5
102
RTVSPost2010Prop44ColorRGB
 90
      255
102
RTVSPost2010PropOp44
 70
     1
102
RTVSPost2010Prop45
280
     0
102
RTVSPost2010PropOp45
 70
     1
102
RTVSPost2010Prop46
 90
       50
102
RTVSPost2010PropOp46
 70
     1
102
RTVSPost2010Prop47
 90
       50
102
RTVSPost2010PropOp47
 70
     1
102
RTVSPost2010Prop48
 90
       50
102
RTVSPost2010PropOp48
 70
     1
102
RTVSPost2010Prop49
280
     0
102
RTVSPost2010PropOp49
 70
     1
102
RTVSPost2010Prop50
 90
       50
102
RTVSPost2010PropOp50
 70
     1
102
RTVSPost2010Prop51ColorIndex
 90
      256
102
RTVSPost2010Prop51ColorRGB
 90
-16777216
102
RTVSPost2010PropOp51
 70
     0
102
RTVSPost2010Prop52
140
1.0
102
RTVSPost2010PropOp52
 70
     0
102
RTVSPost2010Prop53
 90
        2
102
RTVSPost2010PropOp53
 70
     1
102
RTVSPost2010Prop54
  1
strokes_ogs.tif
102
RTVSPost2010PropOp54
 70
     1
102
RTVSPost2010Prop55
280
     0
102
RTVSPost2010PropOp55
 70
     1
102
RTVSPost2010Prop56
140
1.0
102
RTVSPost2010PropOp56
 70
     1
102
RTVSPost2010Prop57
140
1.0
102
RTVSPost2010PropOp57
 70
     1
102
RTVSPropertyOp0
 70
     1
102
RTVSPropertyOp1
 70
     1
102
RTVSPropertyOp2
 70
     1
102
RTVSPropertyOp3
 70
     1
102
RTVSPropertyOp4
 70
     1
102
RTVSPropertyOp5
 70
     1
102
RTVSPropertyOp6
 70
     1
102
RTVSPropertyOp7
 70
     1
102
RTVSPropertyOp8
 70
     1
102
RTVSPropertyOp9
 70
     1
102
RTVSPropertyOp10
 70
     1
102
RTVSPropertyOp11
 70
     1
102
RTVSPropertyOp12
 70
     1
102
RTVSPropertyOp13
 70
     1
102
RTVSPropertyOp14
 70
     1
102
RTVSPropertyOp15
 70
     1
102
RTVSPropertyOp16
 70
     1
102
RTVSPropertyOp17
 70
     1
102
RTVSPropertyOp18
 70
     1
102
RTVSPropertyOp19
 70
     1
102
RTVSPropertyOp20
 70
     1
102
RTVSPropertyOp21
 70
     1
102
RTVSPropertyOp22
 70
     1
102
RTVSPropertyOp23
 70
     1
102
RTVSPropertyOp24
 70
     1
102
RTVSPropertyOp25
 70
     1
102
RTVSPropertyOp26
 70
     1
102
RTVSPropertyOp27
 70
     1
102
RTVSPropertyOp28
 70
     1
102
RTVSPropertyOp29
 70
     1
102
RTVSPropertyOp30
 70
     1
102
RTVSPropertyOp31
 70
     1
102
RTVSPropertyOp32
 70
     1
102
RTVSPropertyOp33
 70
     1
102
RTVSPropertyOp34
 70
     1
102
RTVSPropertyOp35
 70
     1
102
RTVSPropertyOp36
 70
     1
102
RTVSPropertyOp37
 70
     1
102
RTVSPropertyOp38
 70
     1
102
RTVSPropertyOp39
 70
     1
102
RTVSPropertyOp40
 70
     1
102
RTVSPropertyOp41
 70
     1
102
RTVSPropertyOp42
 70
     1
102
RTVSPropertyOp43
 70
     1
102
RTVSPropertyOp44
 70
     1
102
RTVSPropertyOp45
 70
     1
102
RTVSPropertyOp46
 70
     1
102
RTVSPropertyOp47
 70
     1
102
RTVSPropertyOp48
 70
     1
102
RTVSPropertyOp49
 70
     1
102
RTVSPropertyOp50
 70
     1
102
RTVSPropertyOp51
 70
     0
102
RTVSPropertyOp52
 70
     0
102
RTVSPropertyOp53
 70
     1
102
RTVSPropertyOp54
 70
     1
102
RTVSPropertyOp55
 70
     1
102
RTVSPropertyOp56
 70
     1
102
RTVSPropertyOp57
 70
     1
102
RTVSPropertyOp58
 70
     1
102
RTVSPropertyOp59
 70
     1
102
RTVSPropertyOp60
 70
     1
102
RTVSPropertyOp61
 70
     1
102
RTVSPropertyOp62
 70
     1
  0
XRECORD
  5
18AA7
102
{ACAD_REACTORS
330
18AA6
102
}
330
18AA6
100
AcDbXrecord
280
     1
102
RTVSPost2010Prop28
280
     0
102
RTVSPost2010PropOp28
 70
     1
102
RTVSPost2010Prop29
280
     1
102
RTVSPost2010PropOp29
 70
     1
102
RTVSPost2010Prop30
280
     1
102
RTVSPost2010PropOp30
 70
     1
102
RTVSPost2010Prop31
280
     0
102
RTVSPost2010PropOp31
 70
     1
102
RTVSPost2010Prop32
280
     0
102
RTVSPost2010PropOp32
 70
     1
102
RTVSPost2010Prop33
280
     0
102
RTVSPost2010PropOp33
 70
     1
102
RTVSPost2010Prop34
280
     0
102
RTVSPost2010PropOp34
 70
     1
102
RTVSPost2010Prop35
280
     0
102
RTVSPost2010PropOp35
 70
     1
102
RTVSPost2010Prop36
280
     0
102
RTVSPost2010PropOp36
 70
     1
102
RTVSPost2010Prop37
 90
       50
102
RTVSPost2010PropOp37
 70
     1
102
RTVSPost2010Prop38
140
0.0
102
RTVSPost2010PropOp38
 70
     1
102
RTVSPost2010Prop39
140
1.0
102
RTVSPost2010PropOp39
 70
     1
102
RTVSPost2010Prop40
 90
        0
102
RTVSPost2010PropOp40
 70
     1
102
RTVSPost2010Prop41ColorIndex
 90
       18
102
RTVSPost2010Prop41ColorRGB
 90
        0
102
RTVSPost2010PropOp41
 70
     1
102
RTVSPost2010Prop42
 90
       50
102
RTVSPost2010PropOp42
 70
     1
102
RTVSPost2010Prop43
 90
        3
102
RTVSPost2010PropOp43
 70
     1
102
RTVSPost2010Prop44ColorIndex
 90
        5
102
RTVSPost2010Prop44ColorRGB
 90
      255
102
RTVSPost2010PropOp44
 70
     1
102
RTVSPost2010Prop45
280
     0
102
RTVSPost2010PropOp45
 70
     1
102
RTVSPost2010Prop46
 90
       50
102
RTVSPost2010PropOp46
 70
     1
102
RTVSPost2010Prop47
 90
       50
102
RTVSPost2010PropOp47
 70
     1
102
RTVSPost2010Prop48
 90
       50
102
RTVSPost2010PropOp48
 70
     1
102
RTVSPost2010Prop49
280
     0
102
RTVSPost2010PropOp49
 70
     1
102
RTVSPost2010Prop50
 90
       50
102
RTVSPost2010PropOp50
 70
     1
102
RTVSPost2010Prop51ColorIndex
 90
      256
102
RTVSPost2010Prop51ColorRGB
 90
-16777216
102
RTVSPost2010PropOp51
 70
     0
102
RTVSPost2010Prop52
140
1.0
102
RTVSPost2010PropOp52
 70
     0
102
RTVSPost2010Prop53
 90
        2
102
RTVSPost2010PropOp53
 70
     1
102
RTVSPost2010Prop54
  1
strokes_ogs.tif
102
RTVSPost2010PropOp54
 70
     1
102
RTVSPost2010Prop55
280
     0
102
RTVSPost2010PropOp55
 70
     1
102
RTVSPost2010Prop56
140
1.0
102
RTVSPost2010PropOp56
 70
     1
102
RTVSPost2010Prop57
140
1.0
102
RTVSPost2010PropOp57
 70
     1
102
RTVSPropertyOp0
 70
     0
102
RTVSPropertyOp1
 70
     0
102
RTVSPropertyOp2
 70
     0
102
RTVSPropertyOp3
 70
     0
102
RTVSPropertyOp4
 70
     0
102
RTVSPropertyOp5
 70
     0
102
RTVSPropertyOp6
 70
     0
102
RTVSPropertyOp7
 70
     0
102
RTVSPropertyOp8
 70
     0
102
RTVSPropertyOp9
 70
     0
102
RTVSPropertyOp10
 70
     0
102
RTVSPropertyOp11
 70
     0
102
RTVSPropertyOp12
 70
     0
102
RTVSPropertyOp13
 70
     0
102
RTVSPropertyOp14
 70
     2
102
RTVSPropertyOp15
 70
     0
102
RTVSPropertyOp16
 70
     0
102
RTVSPropertyOp17
 70
     0
102
RTVSPropertyOp18
 70
     0
102
RTVSPropertyOp19
 70
     0
102
RTVSPropertyOp20
 70
     0
102
RTVSPropertyOp21
 70
     0
102
RTVSPropertyOp22
 70
     0
102
RTVSPropertyOp23
 70
     0
102
RTVSPropertyOp24
 70
     0
102
RTVSPropertyOp25
 70
     0
102
RTVSPropertyOp26
 70
     0
102
RTVSPropertyOp27
 70
     0
102
RTVSPropertyOp28
 70
     1
102
RTVSPropertyOp29
 70
     1
102
RTVSPropertyOp30
 70
     1
102
RTVSPropertyOp31
 70
     1
102
RTVSPropertyOp32
 70
     1
102
RTVSPropertyOp33
 70
     1
102
RTVSPropertyOp34
 70
     1
102
RTVSPropertyOp35
 70
     1
102
RTVSPropertyOp36
 70
     1
102
RTVSPropertyOp37
 70
     1
102
RTVSPropertyOp38
 70
     1
102
RTVSPropertyOp39
 70
     1
102
RTVSPropertyOp40
 70
     1
102
RTVSPropertyOp41
 70
     1
102
RTVSPropertyOp42
 70
     1
102
RTVSPropertyOp43
 70
     1
102
RTVSPropertyOp44
 70
     1
102
RTVSPropertyOp45
 70
     1
102
RTVSPropertyOp46
 70
     1
102
RTVSPropertyOp47
 70
     1
102
RTVSPropertyOp48
 70
     1
102
RTVSPropertyOp49
 70
     1
102
RTVSPropertyOp50
 70
     1
102
RTVSPropertyOp51
 70
     0
102
RTVSPropertyOp52
 70
     0
102
RTVSPropertyOp53
 70
     1
102
RTVSPropertyOp54
 70
     1
102
RTVSPropertyOp55
 70
     1
102
RTVSPropertyOp56
 70
     1
102
RTVSPropertyOp57
 70
     1
102
RTVSPropertyOp58
 70
     1
102
RTVSPropertyOp59
 70
     1
102
RTVSPropertyOp60
 70
     1
102
RTVSPropertyOp61
 70
     1
102
RTVSPropertyOp62
 70
     1
  0
XRECORD
  5
18A95
102
{ACAD_REACTORS
330
18A94
102
}
330
18A94
100
AcDbXrecord
280
     1
102
RTVSPost2010Prop28
280
     0
102
RTVSPost2010PropOp28
 70
     1
102
RTVSPost2010Prop29
280
     1
102
RTVSPost2010PropOp29
 70
     1
102
RTVSPost2010Prop30
280
     1
102
RTVSPost2010PropOp30
 70
     1
102
RTVSPost2010Prop31
280
     0
102
RTVSPost2010PropOp31
 70
     1
102
RTVSPost2010Prop32
280
     0
102
RTVSPost2010PropOp32
 70
     1
102
RTVSPost2010Prop33
280
     0
102
RTVSPost2010PropOp33
 70
     1
102
RTVSPost2010Prop34
280
     0
102
RTVSPost2010PropOp34
 70
     1
102
RTVSPost2010Prop35
280
     0
102
RTVSPost2010PropOp35
 70
     1
102
RTVSPost2010Prop36
280
     0
102
RTVSPost2010PropOp36
 70
     1
102
RTVSPost2010Prop37
 90
       50
102
RTVSPost2010PropOp37
 70
     1
102
RTVSPost2010Prop38
140
0.0
102
RTVSPost2010PropOp38
 70
     1
102
RTVSPost2010Prop39
140
1.0
102
RTVSPost2010PropOp39
 70
     1
102
RTVSPost2010Prop40
 90
        0
102
RTVSPost2010PropOp40
 70
     1
102
RTVSPost2010Prop41ColorIndex
 90
       18
102
RTVSPost2010Prop41ColorRGB
 90
        0
102
RTVSPost2010PropOp41
 70
     1
102
RTVSPost2010Prop42
 90
       50
102
RTVSPost2010PropOp42
 70
     1
102
RTVSPost2010Prop43
 90
        3
102
RTVSPost2010PropOp43
 70
     1
102
RTVSPost2010Prop44ColorIndex
 90
        5
102
RTVSPost2010Prop44ColorRGB
 90
      255
102
RTVSPost2010PropOp44
 70
     1
102
RTVSPost2010Prop45
280
     0
102
RTVSPost2010PropOp45
 70
     1
102
RTVSPost2010Prop46
 90
       50
102
RTVSPost2010PropOp46
 70
     1
102
RTVSPost2010Prop47
 90
       50
102
RTVSPost2010PropOp47
 70
     1
102
RTVSPost2010Prop48
 90
       50
102
RTVSPost2010PropOp48
 70
     1
102
RTVSPost2010Prop49
280
     0
102
RTVSPost2010PropOp49
 70
     1
102
RTVSPost2010Prop50
 90
       50
102
RTVSPost2010PropOp50
 70
     1
102
RTVSPost2010Prop51ColorIndex
 90
      256
102
RTVSPost2010Prop51ColorRGB
 90
-16777216
102
RTVSPost2010PropOp51
 70
     0
102
RTVSPost2010Prop52
140
1.0
102
RTVSPost2010PropOp52
 70
     0
102
RTVSPost2010Prop53
 90
        2
102
RTVSPost2010PropOp53
 70
     1
102
RTVSPost2010Prop54
  1
strokes_ogs.tif
102
RTVSPost2010PropOp54
 70
     1
102
RTVSPost2010Prop55
280
     0
102
RTVSPost2010PropOp55
 70
     1
102
RTVSPost2010Prop56
140
1.0
102
RTVSPost2010PropOp56
 70
     1
102
RTVSPost2010Prop57
140
1.0
102
RTVSPost2010PropOp57
 70
     1
102
RTVSPropertyOp0
 70
     1
102
RTVSPropertyOp1
 70
     1
102
RTVSPropertyOp2
 70
     1
102
RTVSPropertyOp3
 70
     1
102
RTVSPropertyOp4
 70
     1
102
RTVSPropertyOp5
 70
     1
102
RTVSPropertyOp6
 70
     1
102
RTVSPropertyOp7
 70
     1
102
RTVSPropertyOp8
 70
     1
102
RTVSPropertyOp9
 70
     1
102
RTVSPropertyOp10
 70
     1
102
RTVSPropertyOp11
 70
     1
102
RTVSPropertyOp12
 70
     1
102
RTVSPropertyOp13
 70
     1
102
RTVSPropertyOp14
 70
     1
102
RTVSPropertyOp15
 70
     1
102
RTVSPropertyOp16
 70
     1
102
RTVSPropertyOp17
 70
     1
102
RTVSPropertyOp18
 70
     1
102
RTVSPropertyOp19
 70
     1
102
RTVSPropertyOp20
 70
     1
102
RTVSPropertyOp21
 70
     1
102
RTVSPropertyOp22
 70
     1
102
RTVSPropertyOp23
 70
     1
102
RTVSPropertyOp24
 70
     1
102
RTVSPropertyOp25
 70
     1
102
RTVSPropertyOp26
 70
     1
102
RTVSPropertyOp27
 70
     1
102
RTVSPropertyOp28
 70
     1
102
RTVSPropertyOp29
 70
     1
102
RTVSPropertyOp30
 70
     1
102
RTVSPropertyOp31
 70
     1
102
RTVSPropertyOp32
 70
     1
102
RTVSPropertyOp33
 70
     1
102
RTVSPropertyOp34
 70
     1
102
RTVSPropertyOp35
 70
     1
102
RTVSPropertyOp36
 70
     1
102
RTVSPropertyOp37
 70
     1
102
RTVSPropertyOp38
 70
     1
102
RTVSPropertyOp39
 70
     1
102
RTVSPropertyOp40
 70
     1
102
RTVSPropertyOp41
 70
     1
102
RTVSPropertyOp42
 70
     1
102
RTVSPropertyOp43
 70
     1
102
RTVSPropertyOp44
 70
     1
102
RTVSPropertyOp45
 70
     1
102
RTVSPropertyOp46
 70
     1
102
RTVSPropertyOp47
 70
     1
102
RTVSPropertyOp48
 70
     1
102
RTVSPropertyOp49
 70
     1
102
RTVSPropertyOp50
 70
     1
102
RTVSPropertyOp51
 70
     0
102
RTVSPropertyOp52
 70
     0
102
RTVSPropertyOp53
 70
     1
102
RTVSPropertyOp54
 70
     1
102
RTVSPropertyOp55
 70
     1
102
RTVSPropertyOp56
 70
     1
102
RTVSPropertyOp57
 70
     1
102
RTVSPropertyOp58
 70
     1
102
RTVSPropertyOp59
 70
     1
102
RTVSPropertyOp60
 70
     1
102
RTVSPropertyOp61
 70
     1
102
RTVSPropertyOp62
 70
     1
  0
XRECORD
  5
18AB3
102
{ACAD_REACTORS
330
18AB2
102
}
330
18AB2
100
AcDbXrecord
280
     1
102
RTVSPost2010Prop28
280
     0
102
RTVSPost2010PropOp28
 70
     1
102
RTVSPost2010Prop29
280
     1
102
RTVSPost2010PropOp29
 70
     1
102
RTVSPost2010Prop30
280
     1
102
RTVSPost2010PropOp30
 70
     1
102
RTVSPost2010Prop31
280
     0
102
RTVSPost2010PropOp31
 70
     1
102
RTVSPost2010Prop32
280
     0
102
RTVSPost2010PropOp32
 70
     1
102
RTVSPost2010Prop33
280
     0
102
RTVSPost2010PropOp33
 70
     1
102
RTVSPost2010Prop34
280
     0
102
RTVSPost2010PropOp34
 70
     1
102
RTVSPost2010Prop35
280
     0
102
RTVSPost2010PropOp35
 70
     1
102
RTVSPost2010Prop36
280
     0
102
RTVSPost2010PropOp36
 70
     1
102
RTVSPost2010Prop37
 90
       50
102
RTVSPost2010PropOp37
 70
     1
102
RTVSPost2010Prop38
140
0.0
102
RTVSPost2010PropOp38
 70
     1
102
RTVSPost2010Prop39
140
1.0
102
RTVSPost2010PropOp39
 70
     1
102
RTVSPost2010Prop40
 90
        0
102
RTVSPost2010PropOp40
 70
     1
102
RTVSPost2010Prop41ColorIndex
 90
       18
102
RTVSPost2010Prop41ColorRGB
 90
        0
102
RTVSPost2010PropOp41
 70
     1
102
RTVSPost2010Prop42
 90
       50
102
RTVSPost2010PropOp42
 70
     1
102
RTVSPost2010Prop43
 90
        3
102
RTVSPost2010PropOp43
 70
     1
102
RTVSPost2010Prop44ColorIndex
 90
        5
102
RTVSPost2010Prop44ColorRGB
 90
      255
102
RTVSPost2010PropOp44
 70
     1
102
RTVSPost2010Prop45
280
     0
102
RTVSPost2010PropOp45
 70
     1
102
RTVSPost2010Prop46
 90
       50
102
RTVSPost2010PropOp46
 70
     1
102
RTVSPost2010Prop47
 90
       50
102
RTVSPost2010PropOp47
 70
     1
102
RTVSPost2010Prop48
 90
       50
102
RTVSPost2010PropOp48
 70
     1
102
RTVSPost2010Prop49
280
     0
102
RTVSPost2010PropOp49
 70
     1
102
RTVSPost2010Prop50
 90
       50
102
RTVSPost2010PropOp50
 70
     1
102
RTVSPost2010Prop51ColorIndex
 90
      256
102
RTVSPost2010Prop51ColorRGB
 90
-16777216
102
RTVSPost2010PropOp51
 70
     0
102
RTVSPost2010Prop52
140
1.0
102
RTVSPost2010PropOp52
 70
     0
102
RTVSPost2010Prop53
 90
        2
102
RTVSPost2010PropOp53
 70
     1
102
RTVSPost2010Prop54
  1
strokes_ogs.tif
102
RTVSPost2010PropOp54
 70
     1
102
RTVSPost2010Prop55
280
     0
102
RTVSPost2010PropOp55
 70
     1
102
RTVSPost2010Prop56
140
1.0
102
RTVSPost2010PropOp56
 70
     1
102
RTVSPost2010Prop57
140
1.0
102
RTVSPost2010PropOp57
 70
     1
102
RTVSPropertyOp0
 70
     1
102
RTVSPropertyOp1
 70
     1
102
RTVSPropertyOp2
 70
     1
102
RTVSPropertyOp3
 70
     1
102
RTVSPropertyOp4
 70
     1
102
RTVSPropertyOp5
 70
     1
102
RTVSPropertyOp6
 70
     1
102
RTVSPropertyOp7
 70
     1
102
RTVSPropertyOp8
 70
     1
102
RTVSPropertyOp9
 70
     1
102
RTVSPropertyOp10
 70
     1
102
RTVSPropertyOp11
 70
     1
102
RTVSPropertyOp12
 70
     1
102
RTVSPropertyOp13
 70
     1
102
RTVSPropertyOp14
 70
     1
102
RTVSPropertyOp15
 70
     1
102
RTVSPropertyOp16
 70
     1
102
RTVSPropertyOp17
 70
     1
102
RTVSPropertyOp18
 70
     1
102
RTVSPropertyOp19
 70
     1
102
RTVSPropertyOp20
 70
     1
102
RTVSPropertyOp21
 70
     1
102
RTVSPropertyOp22
 70
     1
102
RTVSPropertyOp23
 70
     1
102
RTVSPropertyOp24
 70
     1
102
RTVSPropertyOp25
 70
     1
102
RTVSPropertyOp26
 70
     1
102
RTVSPropertyOp27
 70
     1
102
RTVSPropertyOp28
 70
     1
102
RTVSPropertyOp29
 70
     1
102
RTVSPropertyOp30
 70
     1
102
RTVSPropertyOp31
 70
     1
102
RTVSPropertyOp32
 70
     1
102
RTVSPropertyOp33
 70
     1
102
RTVSPropertyOp34
 70
     1
102
RTVSPropertyOp35
 70
     1
102
RTVSPropertyOp36
 70
     1
102
RTVSPropertyOp37
 70
     1
102
RTVSPropertyOp38
 70
     1
102
RTVSPropertyOp39
 70
     1
102
RTVSPropertyOp40
 70
     1
102
RTVSPropertyOp41
 70
     1
102
RTVSPropertyOp42
 70
     1
102
RTVSPropertyOp43
 70
     1
102
RTVSPropertyOp44
 70
     1
102
RTVSPropertyOp45
 70
     1
102
RTVSPropertyOp46
 70
     1
102
RTVSPropertyOp47
 70
     1
102
RTVSPropertyOp48
 70
     1
102
RTVSPropertyOp49
 70
     1
102
RTVSPropertyOp50
 70
     1
102
RTVSPropertyOp51
 70
     0
102
RTVSPropertyOp52
 70
     0
102
RTVSPropertyOp53
 70
     1
102
RTVSPropertyOp54
 70
     1
102
RTVSPropertyOp55
 70
     1
102
RTVSPropertyOp56
 70
     1
102
RTVSPropertyOp57
 70
     1
102
RTVSPropertyOp58
 70
     1
102
RTVSPropertyOp59
 70
     1
102
RTVSPropertyOp60
 70
     1
102
RTVSPropertyOp61
 70
     1
102
RTVSPropertyOp62
 70
     1
  0
XRECORD
  5
18AB1
102
{ACAD_REACTORS
330
18AB0
102
}
330
18AB0
100
AcDbXrecord
280
     1
102
RTVSPost2010Prop28
280
     0
102
RTVSPost2010PropOp28
 70
     1
102
RTVSPost2010Prop29
280
     1
102
RTVSPost2010PropOp29
 70
     1
102
RTVSPost2010Prop30
280
     1
102
RTVSPost2010PropOp30
 70
     1
102
RTVSPost2010Prop31
280
     0
102
RTVSPost2010PropOp31
 70
     1
102
RTVSPost2010Prop32
280
     0
102
RTVSPost2010PropOp32
 70
     1
102
RTVSPost2010Prop33
280
     0
102
RTVSPost2010PropOp33
 70
     1
102
RTVSPost2010Prop34
280
     0
102
RTVSPost2010PropOp34
 70
     1
102
RTVSPost2010Prop35
280
     0
102
RTVSPost2010PropOp35
 70
     1
102
RTVSPost2010Prop36
280
     0
102
RTVSPost2010PropOp36
 70
     1
102
RTVSPost2010Prop37
 90
       50
102
RTVSPost2010PropOp37
 70
     1
102
RTVSPost2010Prop38
140
0.0
102
RTVSPost2010PropOp38
 70
     1
102
RTVSPost2010Prop39
140
1.0
102
RTVSPost2010PropOp39
 70
     1
102
RTVSPost2010Prop40
 90
        0
102
RTVSPost2010PropOp40
 70
     1
102
RTVSPost2010Prop41ColorIndex
 90
       18
102
RTVSPost2010Prop41ColorRGB
 90
        0
102
RTVSPost2010PropOp41
 70
     1
102
RTVSPost2010Prop42
 90
       50
102
RTVSPost2010PropOp42
 70
     1
102
RTVSPost2010Prop43
 90
        3
102
RTVSPost2010PropOp43
 70
     1
102
RTVSPost2010Prop44ColorIndex
 90
        5
102
RTVSPost2010Prop44ColorRGB
 90
      255
102
RTVSPost2010PropOp44
 70
     1
102
RTVSPost2010Prop45
280
     0
102
RTVSPost2010PropOp45
 70
     1
102
RTVSPost2010Prop46
 90
       50
102
RTVSPost2010PropOp46
 70
     1
102
RTVSPost2010Prop47
 90
       50
102
RTVSPost2010PropOp47
 70
     1
102
RTVSPost2010Prop48
 90
       50
102
RTVSPost2010PropOp48
 70
     1
102
RTVSPost2010Prop49
280
     0
102
RTVSPost2010PropOp49
 70
     1
102
RTVSPost2010Prop50
 90
       50
102
RTVSPost2010PropOp50
 70
     1
102
RTVSPost2010Prop51ColorIndex
 90
      256
102
RTVSPost2010Prop51ColorRGB
 90
-16777216
102
RTVSPost2010PropOp51
 70
     0
102
RTVSPost2010Prop52
140
1.0
102
RTVSPost2010PropOp52
 70
     0
102
RTVSPost2010Prop53
 90
        2
102
RTVSPost2010PropOp53
 70
     1
102
RTVSPost2010Prop54
  1
strokes_ogs.tif
102
RTVSPost2010PropOp54
 70
     1
102
RTVSPost2010Prop55
280
     0
102
RTVSPost2010PropOp55
 70
     1
102
RTVSPost2010Prop56
140
1.0
102
RTVSPost2010PropOp56
 70
     1
102
RTVSPost2010Prop57
140
1.0
102
RTVSPost2010PropOp57
 70
     1
102
RTVSPropertyOp0
 70
     1
102
RTVSPropertyOp1
 70
     1
102
RTVSPropertyOp2
 70
     1
102
RTVSPropertyOp3
 70
     1
102
RTVSPropertyOp4
 70
     1
102
RTVSPropertyOp5
 70
     1
102
RTVSPropertyOp6
 70
     1
102
RTVSPropertyOp7
 70
     1
102
RTVSPropertyOp8
 70
     1
102
RTVSPropertyOp9
 70
     1
102
RTVSPropertyOp10
 70
     1
102
RTVSPropertyOp11
 70
     1
102
RTVSPropertyOp12
 70
     1
102
RTVSPropertyOp13
 70
     1
102
RTVSPropertyOp14
 70
     1
102
RTVSPropertyOp15
 70
     1
102
RTVSPropertyOp16
 70
     1
102
RTVSPropertyOp17
 70
     1
102
RTVSPropertyOp18
 70
     1
102
RTVSPropertyOp19
 70
     1
102
RTVSPropertyOp20
 70
     1
102
RTVSPropertyOp21
 70
     1
102
RTVSPropertyOp22
 70
     1
102
RTVSPropertyOp23
 70
     1
102
RTVSPropertyOp24
 70
     1
102
RTVSPropertyOp25
 70
     1
102
RTVSPropertyOp26
 70
     1
102
RTVSPropertyOp27
 70
     1
102
RTVSPropertyOp28
 70
     1
102
RTVSPropertyOp29
 70
     1
102
RTVSPropertyOp30
 70
     1
102
RTVSPropertyOp31
 70
     1
102
RTVSPropertyOp32
 70
     1
102
RTVSPropertyOp33
 70
     1
102
RTVSPropertyOp34
 70
     1
102
RTVSPropertyOp35
 70
     1
102
RTVSPropertyOp36
 70
     1
102
RTVSPropertyOp37
 70
     1
102
RTVSPropertyOp38
 70
     1
102
RTVSPropertyOp39
 70
     1
102
RTVSPropertyOp40
 70
     1
102
RTVSPropertyOp41
 70
     1
102
RTVSPropertyOp42
 70
     1
102
RTVSPropertyOp43
 70
     1
102
RTVSPropertyOp44
 70
     1
102
RTVSPropertyOp45
 70
     1
102
RTVSPropertyOp46
 70
     1
102
RTVSPropertyOp47
 70
     1
102
RTVSPropertyOp48
 70
     1
102
RTVSPropertyOp49
 70
     1
102
RTVSPropertyOp50
 70
     1
102
RTVSPropertyOp51
 70
     0
102
RTVSPropertyOp52
 70
     0
102
RTVSPropertyOp53
 70
     1
102
RTVSPropertyOp54
 70
     1
102
RTVSPropertyOp55
 70
     1
102
RTVSPropertyOp56
 70
     1
102
RTVSPropertyOp57
 70
     1
102
RTVSPropertyOp58
 70
     1
102
RTVSPropertyOp59
 70
     1
102
RTVSPropertyOp60
 70
     1
102
RTVSPropertyOp61
 70
     1
102
RTVSPropertyOp62
 70
     1
  0
XRECORD
  5
18AAB
102
{ACAD_REACTORS
330
18AAA
102
}
330
18AAA
100
AcDbXrecord
280
     1
102
RTVSPost2010Prop28
280
     0
102
RTVSPost2010PropOp28
 70
     1
102
RTVSPost2010Prop29
280
     1
102
RTVSPost2010PropOp29
 70
     1
102
RTVSPost2010Prop30
280
     1
102
RTVSPost2010PropOp30
 70
     1
102
RTVSPost2010Prop31
280
     0
102
RTVSPost2010PropOp31
 70
     1
102
RTVSPost2010Prop32
280
     0
102
RTVSPost2010PropOp32
 70
     1
102
RTVSPost2010Prop33
280
     0
102
RTVSPost2010PropOp33
 70
     1
102
RTVSPost2010Prop34
280
     0
102
RTVSPost2010PropOp34
 70
     1
102
RTVSPost2010Prop35
280
     0
102
RTVSPost2010PropOp35
 70
     1
102
RTVSPost2010Prop36
280
     0
102
RTVSPost2010PropOp36
 70
     1
102
RTVSPost2010Prop37
 90
       50
102
RTVSPost2010PropOp37
 70
     1
102
RTVSPost2010Prop38
140
0.0
102
RTVSPost2010PropOp38
 70
     1
102
RTVSPost2010Prop39
140
1.0
102
RTVSPost2010PropOp39
 70
     1
102
RTVSPost2010Prop40
 90
        0
102
RTVSPost2010PropOp40
 70
     1
102
RTVSPost2010Prop41ColorIndex
 90
       18
102
RTVSPost2010Prop41ColorRGB
 90
        0
102
RTVSPost2010PropOp41
 70
     1
102
RTVSPost2010Prop42
 90
       50
102
RTVSPost2010PropOp42
 70
     1
102
RTVSPost2010Prop43
 90
        3
102
RTVSPost2010PropOp43
 70
     1
102
RTVSPost2010Prop44ColorIndex
 90
        5
102
RTVSPost2010Prop44ColorRGB
 90
      255
102
RTVSPost2010PropOp44
 70
     1
102
RTVSPost2010Prop45
280
     0
102
RTVSPost2010PropOp45
 70
     1
102
RTVSPost2010Prop46
 90
       50
102
RTVSPost2010PropOp46
 70
     1
102
RTVSPost2010Prop47
 90
       50
102
RTVSPost2010PropOp47
 70
     1
102
RTVSPost2010Prop48
 90
       50
102
RTVSPost2010PropOp48
 70
     1
102
RTVSPost2010Prop49
280
     0
102
RTVSPost2010PropOp49
 70
     1
102
RTVSPost2010Prop50
 90
       50
102
RTVSPost2010PropOp50
 70
     1
102
RTVSPost2010Prop51ColorIndex
 90
      256
102
RTVSPost2010Prop51ColorRGB
 90
-16777216
102
RTVSPost2010PropOp51
 70
     0
102
RTVSPost2010Prop52
140
1.0
102
RTVSPost2010PropOp52
 70
     0
102
RTVSPost2010Prop53
 90
        2
102
RTVSPost2010PropOp53
 70
     1
102
RTVSPost2010Prop54
  1
strokes_ogs.tif
102
RTVSPost2010PropOp54
 70
     1
102
RTVSPost2010Prop55
280
     0
102
RTVSPost2010PropOp55
 70
     1
102
RTVSPost2010Prop56
140
1.0
102
RTVSPost2010PropOp56
 70
     1
102
RTVSPost2010Prop57
140
1.0
102
RTVSPost2010PropOp57
 70
     1
102
RTVSPropertyOp0
 70
     1
102
RTVSPropertyOp1
 70
     1
102
RTVSPropertyOp2
 70
     1
102
RTVSPropertyOp3
 70
     1
102
RTVSPropertyOp4
 70
     1
102
RTVSPropertyOp5
 70
     1
102
RTVSPropertyOp6
 70
     1
102
RTVSPropertyOp7
 70
     1
102
RTVSPropertyOp8
 70
     1
102
RTVSPropertyOp9
 70
     1
102
RTVSPropertyOp10
 70
     1
102
RTVSPropertyOp11
 70
     1
102
RTVSPropertyOp12
 70
     1
102
RTVSPropertyOp13
 70
     1
102
RTVSPropertyOp14
 70
     1
102
RTVSPropertyOp15
 70
     1
102
RTVSPropertyOp16
 70
     1
102
RTVSPropertyOp17
 70
     1
102
RTVSPropertyOp18
 70
     1
102
RTVSPropertyOp19
 70
     1
102
RTVSPropertyOp20
 70
     1
102
RTVSPropertyOp21
 70
     1
102
RTVSPropertyOp22
 70
     1
102
RTVSPropertyOp23
 70
     1
102
RTVSPropertyOp24
 70
     1
102
RTVSPropertyOp25
 70
     1
102
RTVSPropertyOp26
 70
     1
102
RTVSPropertyOp27
 70
     1
102
RTVSPropertyOp28
 70
     1
102
RTVSPropertyOp29
 70
     1
102
RTVSPropertyOp30
 70
     1
102
RTVSPropertyOp31
 70
     1
102
RTVSPropertyOp32
 70
     1
102
RTVSPropertyOp33
 70
     1
102
RTVSPropertyOp34
 70
     1
102
RTVSPropertyOp35
 70
     1
102
RTVSPropertyOp36
 70
     1
102
RTVSPropertyOp37
 70
     1
102
RTVSPropertyOp38
 70
     1
102
RTVSPropertyOp39
 70
     1
102
RTVSPropertyOp40
 70
     1
102
RTVSPropertyOp41
 70
     1
102
RTVSPropertyOp42
 70
     1
102
RTVSPropertyOp43
 70
     1
102
RTVSPropertyOp44
 70
     1
102
RTVSPropertyOp45
 70
     1
102
RTVSPropertyOp46
 70
     1
102
RTVSPropertyOp47
 70
     1
102
RTVSPropertyOp48
 70
     1
102
RTVSPropertyOp49
 70
     1
102
RTVSPropertyOp50
 70
     1
102
RTVSPropertyOp51
 70
     0
102
RTVSPropertyOp52
 70
     0
102
RTVSPropertyOp53
 70
     1
102
RTVSPropertyOp54
 70
     1
102
RTVSPropertyOp55
 70
     1
102
RTVSPropertyOp56
 70
     1
102
RTVSPropertyOp57
 70
     1
102
RTVSPropertyOp58
 70
     1
102
RTVSPropertyOp59
 70
     1
102
RTVSPropertyOp60
 70
     1
102
RTVSPropertyOp61
 70
     1
102
RTVSPropertyOp62
 70
     1
  0
XRECORD
  5
18AAD
102
{ACAD_REACTORS
330
18AAC
102
}
330
18AAC
100
AcDbXrecord
280
     1
102
RTVSPost2010Prop28
280
     0
102
RTVSPost2010PropOp28
 70
     1
102
RTVSPost2010Prop29
280
     1
102
RTVSPost2010PropOp29
 70
     1
102
RTVSPost2010Prop30
280
     1
102
RTVSPost2010PropOp30
 70
     1
102
RTVSPost2010Prop31
280
     0
102
RTVSPost2010PropOp31
 70
     1
102
RTVSPost2010Prop32
280
     0
102
RTVSPost2010PropOp32
 70
     1
102
RTVSPost2010Prop33
280
     0
102
RTVSPost2010PropOp33
 70
     1
102
RTVSPost2010Prop34
280
     0
102
RTVSPost2010PropOp34
 70
     1
102
RTVSPost2010Prop35
280
     0
102
RTVSPost2010PropOp35
 70
     1
102
RTVSPost2010Prop36
280
     0
102
RTVSPost2010PropOp36
 70
     1
102
RTVSPost2010Prop37
 90
       50
102
RTVSPost2010PropOp37
 70
     1
102
RTVSPost2010Prop38
140
0.0
102
RTVSPost2010PropOp38
 70
     1
102
RTVSPost2010Prop39
140
1.0
102
RTVSPost2010PropOp39
 70
     1
102
RTVSPost2010Prop40
 90
        0
102
RTVSPost2010PropOp40
 70
     1
102
RTVSPost2010Prop41ColorIndex
 90
       18
102
RTVSPost2010Prop41ColorRGB
 90
        0
102
RTVSPost2010PropOp41
 70
     1
102
RTVSPost2010Prop42
 90
       50
102
RTVSPost2010PropOp42
 70
     1
102
RTVSPost2010Prop43
 90
        3
102
RTVSPost2010PropOp43
 70
     1
102
RTVSPost2010Prop44ColorIndex
 90
        5
102
RTVSPost2010Prop44ColorRGB
 90
      255
102
RTVSPost2010PropOp44
 70
     1
102
RTVSPost2010Prop45
280
     0
102
RTVSPost2010PropOp45
 70
     1
102
RTVSPost2010Prop46
 90
       50
102
RTVSPost2010PropOp46
 70
     1
102
RTVSPost2010Prop47
 90
       50
102
RTVSPost2010PropOp47
 70
     1
102
RTVSPost2010Prop48
 90
       50
102
RTVSPost2010PropOp48
 70
     1
102
RTVSPost2010Prop49
280
     0
102
RTVSPost2010PropOp49
 70
     1
102
RTVSPost2010Prop50
 90
       50
102
RTVSPost2010PropOp50
 70
     1
102
RTVSPost2010Prop51ColorIndex
 90
      256
102
RTVSPost2010Prop51ColorRGB
 90
-16777216
102
RTVSPost2010PropOp51
 70
     0
102
RTVSPost2010Prop52
140
1.0
102
RTVSPost2010PropOp52
 70
     0
102
RTVSPost2010Prop53
 90
        2
102
RTVSPost2010PropOp53
 70
     1
102
RTVSPost2010Prop54
  1
strokes_ogs.tif
102
RTVSPost2010PropOp54
 70
     1
102
RTVSPost2010Prop55
280
     0
102
RTVSPost2010PropOp55
 70
     1
102
RTVSPost2010Prop56
140
1.0
102
RTVSPost2010PropOp56
 70
     1
102
RTVSPost2010Prop57
140
1.0
102
RTVSPost2010PropOp57
 70
     1
102
RTVSPropertyOp0
 70
     1
102
RTVSPropertyOp1
 70
     1
102
RTVSPropertyOp2
 70
     1
102
RTVSPropertyOp3
 70
     1
102
RTVSPropertyOp4
 70
     1
102
RTVSPropertyOp5
 70
     1
102
RTVSPropertyOp6
 70
     1
102
RTVSPropertyOp7
 70
     1
102
RTVSPropertyOp8
 70
     1
102
RTVSPropertyOp9
 70
     1
102
RTVSPropertyOp10
 70
     1
102
RTVSPropertyOp11
 70
     1
102
RTVSPropertyOp12
 70
     1
102
RTVSPropertyOp13
 70
     1
102
RTVSPropertyOp14
 70
     1
102
RTVSPropertyOp15
 70
     1
102
RTVSPropertyOp16
 70
     1
102
RTVSPropertyOp17
 70
     1
102
RTVSPropertyOp18
 70
     1
102
RTVSPropertyOp19
 70
     1
102
RTVSPropertyOp20
 70
     1
102
RTVSPropertyOp21
 70
     1
102
RTVSPropertyOp22
 70
     1
102
RTVSPropertyOp23
 70
     1
102
RTVSPropertyOp24
 70
     1
102
RTVSPropertyOp25
 70
     1
102
RTVSPropertyOp26
 70
     1
102
RTVSPropertyOp27
 70
     1
102
RTVSPropertyOp28
 70
     1
102
RTVSPropertyOp29
 70
     1
102
RTVSPropertyOp30
 70
     1
102
RTVSPropertyOp31
 70
     1
102
RTVSPropertyOp32
 70
     1
102
RTVSPropertyOp33
 70
     1
102
RTVSPropertyOp34
 70
     1
102
RTVSPropertyOp35
 70
     1
102
RTVSPropertyOp36
 70
     1
102
RTVSPropertyOp37
 70
     1
102
RTVSPropertyOp38
 70
     1
102
RTVSPropertyOp39
 70
     1
102
RTVSPropertyOp40
 70
     1
102
RTVSPropertyOp41
 70
     1
102
RTVSPropertyOp42
 70
     1
102
RTVSPropertyOp43
 70
     1
102
RTVSPropertyOp44
 70
     1
102
RTVSPropertyOp45
 70
     1
102
RTVSPropertyOp46
 70
     1
102
RTVSPropertyOp47
 70
     1
102
RTVSPropertyOp48
 70
     1
102
RTVSPropertyOp49
 70
     1
102
RTVSPropertyOp50
 70
     1
102
RTVSPropertyOp51
 70
     0
102
RTVSPropertyOp52
 70
     0
102
RTVSPropertyOp53
 70
     1
102
RTVSPropertyOp54
 70
     1
102
RTVSPropertyOp55
 70
     1
102
RTVSPropertyOp56
 70
     1
102
RTVSPropertyOp57
 70
     1
102
RTVSPropertyOp58
 70
     1
102
RTVSPropertyOp59
 70
     1
102
RTVSPropertyOp60
 70
     1
102
RTVSPropertyOp61
 70
     1
102
RTVSPropertyOp62
 70
     1
  0
XRECORD
  5
18A9B
102
{ACAD_REACTORS
330
18A9A
102
}
330
18A9A
100
AcDbXrecord
280
     1
102
RTVSPost2010Prop28
280
     0
102
RTVSPost2010PropOp28
 70
     1
102
RTVSPost2010Prop29
280
     1
102
RTVSPost2010PropOp29
 70
     1
102
RTVSPost2010Prop30
280
     1
102
RTVSPost2010PropOp30
 70
     1
102
RTVSPost2010Prop31
280
     0
102
RTVSPost2010PropOp31
 70
     1
102
RTVSPost2010Prop32
280
     0
102
RTVSPost2010PropOp32
 70
     1
102
RTVSPost2010Prop33
280
     0
102
RTVSPost2010PropOp33
 70
     1
102
RTVSPost2010Prop34
280
     0
102
RTVSPost2010PropOp34
 70
     1
102
RTVSPost2010Prop35
280
     0
102
RTVSPost2010PropOp35
 70
     1
102
RTVSPost2010Prop36
280
     0
102
RTVSPost2010PropOp36
 70
     1
102
RTVSPost2010Prop37
 90
       50
102
RTVSPost2010PropOp37
 70
     1
102
RTVSPost2010Prop38
140
0.0
102
RTVSPost2010PropOp38
 70
     1
102
RTVSPost2010Prop39
140
1.0
102
RTVSPost2010PropOp39
 70
     1
102
RTVSPost2010Prop40
 90
        0
102
RTVSPost2010PropOp40
 70
     1
102
RTVSPost2010Prop41ColorIndex
 90
       18
102
RTVSPost2010Prop41ColorRGB
 90
        0
102
RTVSPost2010PropOp41
 70
     1
102
RTVSPost2010Prop42
 90
       50
102
RTVSPost2010PropOp42
 70
     1
102
RTVSPost2010Prop43
 90
        3
102
RTVSPost2010PropOp43
 70
     1
102
RTVSPost2010Prop44ColorIndex
 90
        5
102
RTVSPost2010Prop44ColorRGB
 90
      255
102
RTVSPost2010PropOp44
 70
     1
102
RTVSPost2010Prop45
280
     0
102
RTVSPost2010PropOp45
 70
     1
102
RTVSPost2010Prop46
 90
       50
102
RTVSPost2010PropOp46
 70
     1
102
RTVSPost2010Prop47
 90
       50
102
RTVSPost2010PropOp47
 70
     1
102
RTVSPost2010Prop48
 90
       50
102
RTVSPost2010PropOp48
 70
     1
102
RTVSPost2010Prop49
280
     0
102
RTVSPost2010PropOp49
 70
     1
102
RTVSPost2010Prop50
 90
       50
102
RTVSPost2010PropOp50
 70
     1
102
RTVSPost2010Prop51ColorIndex
 90
      256
102
RTVSPost2010Prop51ColorRGB
 90
-16777216
102
RTVSPost2010PropOp51
 70
     0
102
RTVSPost2010Prop52
140
1.0
102
RTVSPost2010PropOp52
 70
     0
102
RTVSPost2010Prop53
 90
        2
102
RTVSPost2010PropOp53
 70
     1
102
RTVSPost2010Prop54
  1
strokes_ogs.tif
102
RTVSPost2010PropOp54
 70
     1
102
RTVSPost2010Prop55
280
     0
102
RTVSPost2010PropOp55
 70
     1
102
RTVSPost2010Prop56
140
1.0
102
RTVSPost2010PropOp56
 70
     1
102
RTVSPost2010Prop57
140
1.0
102
RTVSPost2010PropOp57
 70
     1
102
RTVSPropertyOp0
 70
     1
102
RTVSPropertyOp1
 70
     1
102
RTVSPropertyOp2
 70
     1
102
RTVSPropertyOp3
 70
     1
102
RTVSPropertyOp4
 70
     1
102
RTVSPropertyOp5
 70
     1
102
RTVSPropertyOp6
 70
     1
102
RTVSPropertyOp7
 70
     1
102
RTVSPropertyOp8
 70
     1
102
RTVSPropertyOp9
 70
     1
102
RTVSPropertyOp10
 70
     1
102
RTVSPropertyOp11
 70
     1
102
RTVSPropertyOp12
 70
     1
102
RTVSPropertyOp13
 70
     1
102
RTVSPropertyOp14
 70
     1
102
RTVSPropertyOp15
 70
     1
102
RTVSPropertyOp16
 70
     1
102
RTVSPropertyOp17
 70
     1
102
RTVSPropertyOp18
 70
     1
102
RTVSPropertyOp19
 70
     1
102
RTVSPropertyOp20
 70
     1
102
RTVSPropertyOp21
 70
     1
102
RTVSPropertyOp22
 70
     1
102
RTVSPropertyOp23
 70
     1
102
RTVSPropertyOp24
 70
     1
102
RTVSPropertyOp25
 70
     1
102
RTVSPropertyOp26
 70
     1
102
RTVSPropertyOp27
 70
     1
102
RTVSPropertyOp28
 70
     1
102
RTVSPropertyOp29
 70
     1
102
RTVSPropertyOp30
 70
     1
102
RTVSPropertyOp31
 70
     1
102
RTVSPropertyOp32
 70
     1
102
RTVSPropertyOp33
 70
     1
102
RTVSPropertyOp34
 70
     1
102
RTVSPropertyOp35
 70
     1
102
RTVSPropertyOp36
 70
     1
102
RTVSPropertyOp37
 70
     1
102
RTVSPropertyOp38
 70
     1
102
RTVSPropertyOp39
 70
     1
102
RTVSPropertyOp40
 70
     1
102
RTVSPropertyOp41
 70
     1
102
RTVSPropertyOp42
 70
     1
102
RTVSPropertyOp43
 70
     1
102
RTVSPropertyOp44
 70
     1
102
RTVSPropertyOp45
 70
     1
102
RTVSPropertyOp46
 70
     1
102
RTVSPropertyOp47
 70
     1
102
RTVSPropertyOp48
 70
     1
102
RTVSPropertyOp49
 70
     1
102
RTVSPropertyOp50
 70
     1
102
RTVSPropertyOp51
 70
     0
102
RTVSPropertyOp52
 70
     0
102
RTVSPropertyOp53
 70
     1
102
RTVSPropertyOp54
 70
     1
102
RTVSPropertyOp55
 70
     1
102
RTVSPropertyOp56
 70
     1
102
RTVSPropertyOp57
 70
     1
102
RTVSPropertyOp58
 70
     1
102
RTVSPropertyOp59
 70
     1
102
RTVSPropertyOp60
 70
     1
102
RTVSPropertyOp61
 70
     1
102
RTVSPropertyOp62
 70
     1
  0
XRECORD
  5
18A8F
102
{ACAD_REACTORS
330
18A8E
102
}
330
18A8E
100
AcDbXrecord
280
     1
102
RTVSPost2010Prop28
280
     0
102
RTVSPost2010PropOp28
 70
     1
102
RTVSPost2010Prop29
280
     1
102
RTVSPost2010PropOp29
 70
     1
102
RTVSPost2010Prop30
280
     1
102
RTVSPost2010PropOp30
 70
     1
102
RTVSPost2010Prop31
280
     0
102
RTVSPost2010PropOp31
 70
     1
102
RTVSPost2010Prop32
280
     0
102
RTVSPost2010PropOp32
 70
     1
102
RTVSPost2010Prop33
280
     0
102
RTVSPost2010PropOp33
 70
     1
102
RTVSPost2010Prop34
280
     0
102
RTVSPost2010PropOp34
 70
     1
102
RTVSPost2010Prop35
280
     0
102
RTVSPost2010PropOp35
 70
     1
102
RTVSPost2010Prop36
280
     0
102
RTVSPost2010PropOp36
 70
     1
102
RTVSPost2010Prop37
 90
       50
102
RTVSPost2010PropOp37
 70
     1
102
RTVSPost2010Prop38
140
0.0
102
RTVSPost2010PropOp38
 70
     1
102
RTVSPost2010Prop39
140
1.0
102
RTVSPost2010PropOp39
 70
     1
102
RTVSPost2010Prop40
 90
        0
102
RTVSPost2010PropOp40
 70
     1
102
RTVSPost2010Prop41ColorIndex
 90
       18
102
RTVSPost2010Prop41ColorRGB
 90
        0
102
RTVSPost2010PropOp41
 70
     1
102
RTVSPost2010Prop42
 90
       50
102
RTVSPost2010PropOp42
 70
     1
102
RTVSPost2010Prop43
 90
        3
102
RTVSPost2010PropOp43
 70
     1
102
RTVSPost2010Prop44ColorIndex
 90
        5
102
RTVSPost2010Prop44ColorRGB
 90
      255
102
RTVSPost2010PropOp44
 70
     1
102
RTVSPost2010Prop45
280
     0
102
RTVSPost2010PropOp45
 70
     1
102
RTVSPost2010Prop46
 90
       50
102
RTVSPost2010PropOp46
 70
     1
102
RTVSPost2010Prop47
 90
       50
102
RTVSPost2010PropOp47
 70
     1
102
RTVSPost2010Prop48
 90
       50
102
RTVSPost2010PropOp48
 70
     1
102
RTVSPost2010Prop49
280
     0
102
RTVSPost2010PropOp49
 70
     1
102
RTVSPost2010Prop50
 90
       50
102
RTVSPost2010PropOp50
 70
     1
102
RTVSPost2010Prop51ColorIndex
 90
      256
102
RTVSPost2010Prop51ColorRGB
 90
-16777216
102
RTVSPost2010PropOp51
 70
     0
102
RTVSPost2010Prop52
140
1.0
102
RTVSPost2010PropOp52
 70
     0
102
RTVSPost2010Prop53
 90
        2
102
RTVSPost2010PropOp53
 70
     1
102
RTVSPost2010Prop54
  1
strokes_ogs.tif
102
RTVSPost2010PropOp54
 70
     1
102
RTVSPost2010Prop55
280
     0
102
RTVSPost2010PropOp55
 70
     1
102
RTVSPost2010Prop56
140
1.0
102
RTVSPost2010PropOp56
 70
     1
102
RTVSPost2010Prop57
140
1.0
102
RTVSPost2010PropOp57
 70
     1
102
RTVSPropertyOp0
 70
     1
102
RTVSPropertyOp1
 70
     1
102
RTVSPropertyOp2
 70
     1
102
RTVSPropertyOp3
 70
     1
102
RTVSPropertyOp4
 70
     1
102
RTVSPropertyOp5
 70
     1
102
RTVSPropertyOp6
 70
     1
102
RTVSPropertyOp7
 70
     1
102
RTVSPropertyOp8
 70
     1
102
RTVSPropertyOp9
 70
     1
102
RTVSPropertyOp10
 70
     1
102
RTVSPropertyOp11
 70
     1
102
RTVSPropertyOp12
 70
     1
102
RTVSPropertyOp13
 70
     1
102
RTVSPropertyOp14
 70
     1
102
RTVSPropertyOp15
 70
     1
102
RTVSPropertyOp16
 70
     1
102
RTVSPropertyOp17
 70
     1
102
RTVSPropertyOp18
 70
     1
102
RTVSPropertyOp19
 70
     1
102
RTVSPropertyOp20
 70
     1
102
RTVSPropertyOp21
 70
     1
102
RTVSPropertyOp22
 70
     1
102
RTVSPropertyOp23
 70
     1
102
RTVSPropertyOp24
 70
     1
102
RTVSPropertyOp25
 70
     1
102
RTVSPropertyOp26
 70
     1
102
RTVSPropertyOp27
 70
     1
102
RTVSPropertyOp28
 70
     1
102
RTVSPropertyOp29
 70
     1
102
RTVSPropertyOp30
 70
     1
102
RTVSPropertyOp31
 70
     1
102
RTVSPropertyOp32
 70
     1
102
RTVSPropertyOp33
 70
     1
102
RTVSPropertyOp34
 70
     1
102
RTVSPropertyOp35
 70
     1
102
RTVSPropertyOp36
 70
     1
102
RTVSPropertyOp37
 70
     1
102
RTVSPropertyOp38
 70
     1
102
RTVSPropertyOp39
 70
     1
102
RTVSPropertyOp40
 70
     1
102
RTVSPropertyOp41
 70
     1
102
RTVSPropertyOp42
 70
     1
102
RTVSPropertyOp43
 70
     1
102
RTVSPropertyOp44
 70
     1
102
RTVSPropertyOp45
 70
     1
102
RTVSPropertyOp46
 70
     1
102
RTVSPropertyOp47
 70
     1
102
RTVSPropertyOp48
 70
     1
102
RTVSPropertyOp49
 70
     1
102
RTVSPropertyOp50
 70
     1
102
RTVSPropertyOp51
 70
     0
102
RTVSPropertyOp52
 70
     0
102
RTVSPropertyOp53
 70
     1
102
RTVSPropertyOp54
 70
     1
102
RTVSPropertyOp55
 70
     1
102
RTVSPropertyOp56
 70
     1
102
RTVSPropertyOp57
 70
     1
102
RTVSPropertyOp58
 70
     1
102
RTVSPropertyOp59
 70
     1
102
RTVSPropertyOp60
 70
     1
102
RTVSPropertyOp61
 70
     1
102
RTVSPropertyOp62
 70
     1
  0
XRECORD
  5
18AAF
102
{ACAD_REACTORS
330
18AAE
102
}
330
18AAE
100
AcDbXrecord
280
     1
102
RTVSPost2010Prop28
280
     0
102
RTVSPost2010PropOp28
 70
     1
102
RTVSPost2010Prop29
280
     1
102
RTVSPost2010PropOp29
 70
     1
102
RTVSPost2010Prop30
280
     1
102
RTVSPost2010PropOp30
 70
     1
102
RTVSPost2010Prop31
280
     0
102
RTVSPost2010PropOp31
 70
     1
102
RTVSPost2010Prop32
280
     0
102
RTVSPost2010PropOp32
 70
     1
102
RTVSPost2010Prop33
280
     0
102
RTVSPost2010PropOp33
 70
     1
102
RTVSPost2010Prop34
280
     0
102
RTVSPost2010PropOp34
 70
     1
102
RTVSPost2010Prop35
280
     0
102
RTVSPost2010PropOp35
 70
     1
102
RTVSPost2010Prop36
280
     0
102
RTVSPost2010PropOp36
 70
     1
102
RTVSPost2010Prop37
 90
       50
102
RTVSPost2010PropOp37
 70
     1
102
RTVSPost2010Prop38
140
0.0
102
RTVSPost2010PropOp38
 70
     1
102
RTVSPost2010Prop39
140
1.0
102
RTVSPost2010PropOp39
 70
     1
102
RTVSPost2010Prop40
 90
        0
102
RTVSPost2010PropOp40
 70
     1
102
RTVSPost2010Prop41ColorIndex
 90
       18
102
RTVSPost2010Prop41ColorRGB
 90
        0
102
RTVSPost2010PropOp41
 70
     1
102
RTVSPost2010Prop42
 90
       50
102
RTVSPost2010PropOp42
 70
     1
102
RTVSPost2010Prop43
 90
        3
102
RTVSPost2010PropOp43
 70
     1
102
RTVSPost2010Prop44ColorIndex
 90
        5
102
RTVSPost2010Prop44ColorRGB
 90
      255
102
RTVSPost2010PropOp44
 70
     1
102
RTVSPost2010Prop45
280
     0
102
RTVSPost2010PropOp45
 70
     1
102
RTVSPost2010Prop46
 90
       50
102
RTVSPost2010PropOp46
 70
     1
102
RTVSPost2010Prop47
 90
       50
102
RTVSPost2010PropOp47
 70
     1
102
RTVSPost2010Prop48
 90
       50
102
RTVSPost2010PropOp48
 70
     1
102
RTVSPost2010Prop49
280
     0
102
RTVSPost2010PropOp49
 70
     1
102
RTVSPost2010Prop50
 90
       50
102
RTVSPost2010PropOp50
 70
     1
102
RTVSPost2010Prop51ColorIndex
 90
      256
102
RTVSPost2010Prop51ColorRGB
 90
-16777216
102
RTVSPost2010PropOp51
 70
     0
102
RTVSPost2010Prop52
140
1.0
102
RTVSPost2010PropOp52
 70
     0
102
RTVSPost2010Prop53
 90
        2
102
RTVSPost2010PropOp53
 70
     1
102
RTVSPost2010Prop54
  1
strokes_ogs.tif
102
RTVSPost2010PropOp54
 70
     1
102
RTVSPost2010Prop55
280
     0
102
RTVSPost2010PropOp55
 70
     1
102
RTVSPost2010Prop56
140
1.0
102
RTVSPost2010PropOp56
 70
     1
102
RTVSPost2010Prop57
140
1.0
102
RTVSPost2010PropOp57
 70
     1
102
RTVSPropertyOp0
 70
     1
102
RTVSPropertyOp1
 70
     1
102
RTVSPropertyOp2
 70
     1
102
RTVSPropertyOp3
 70
     1
102
RTVSPropertyOp4
 70
     1
102
RTVSPropertyOp5
 70
     1
102
RTVSPropertyOp6
 70
     1
102
RTVSPropertyOp7
 70
     1
102
RTVSPropertyOp8
 70
     1
102
RTVSPropertyOp9
 70
     1
102
RTVSPropertyOp10
 70
     1
102
RTVSPropertyOp11
 70
     1
102
RTVSPropertyOp12
 70
     1
102
RTVSPropertyOp13
 70
     1
102
RTVSPropertyOp14
 70
     1
102
RTVSPropertyOp15
 70
     1
102
RTVSPropertyOp16
 70
     1
102
RTVSPropertyOp17
 70
     1
102
RTVSPropertyOp18
 70
     1
102
RTVSPropertyOp19
 70
     1
102
RTVSPropertyOp20
 70
     1
102
RTVSPropertyOp21
 70
     1
102
RTVSPropertyOp22
 70
     1
102
RTVSPropertyOp23
 70
     1
102
RTVSPropertyOp24
 70
     1
102
RTVSPropertyOp25
 70
     1
102
RTVSPropertyOp26
 70
     1
102
RTVSPropertyOp27
 70
     1
102
RTVSPropertyOp28
 70
     1
102
RTVSPropertyOp29
 70
     1
102
RTVSPropertyOp30
 70
     1
102
RTVSPropertyOp31
 70
     1
102
RTVSPropertyOp32
 70
     1
102
RTVSPropertyOp33
 70
     1
102
RTVSPropertyOp34
 70
     1
102
RTVSPropertyOp35
 70
     1
102
RTVSPropertyOp36
 70
     1
102
RTVSPropertyOp37
 70
     1
102
RTVSPropertyOp38
 70
     1
102
RTVSPropertyOp39
 70
     1
102
RTVSPropertyOp40
 70
     1
102
RTVSPropertyOp41
 70
     1
102
RTVSPropertyOp42
 70
     1
102
RTVSPropertyOp43
 70
     1
102
RTVSPropertyOp44
 70
     1
102
RTVSPropertyOp45
 70
     1
102
RTVSPropertyOp46
 70
     1
102
RTVSPropertyOp47
 70
     1
102
RTVSPropertyOp48
 70
     1
102
RTVSPropertyOp49
 70
     1
102
RTVSPropertyOp50
 70
     1
102
RTVSPropertyOp51
 70
     0
102
RTVSPropertyOp52
 70
     0
102
RTVSPropertyOp53
 70
     1
102
RTVSPropertyOp54
 70
     1
102
RTVSPropertyOp55
 70
     1
102
RTVSPropertyOp56
 70
     1
102
RTVSPropertyOp57
 70
     1
102
RTVSPropertyOp58
 70
     1
102
RTVSPropertyOp59
 70
     1
102
RTVSPropertyOp60
 70
     1
102
RTVSPropertyOp61
 70
     1
102
RTVSPropertyOp62
 70
     1
  0
ENDSEC
  0
EOF
