  0
SECTION
  2
HEADER
  9
$ACADVER
  1
AC1015
  9
$ACADMAINTVER
 70
    18
  9
$DWGCODEPAGE
  3
ANSI_1252
  9
$INSBASE
 10
0.0
 20
0.0
 30
0.0
  9
$EXTMIN
 10
-236.1090080860408
 20
-283.4995876512253
 30
-0.0015258207003583
  9
$EXTMAX
 10
326.5420540917457
 20
294.6071784230964
 30
0.0000000349246037
  9
$LIMMIN
 10
0.0
 20
0.0
  9
$LIMMAX
 10
420.0
 20
297.0
  9
$ORTHOMODE
 70
     0
  9
$REGENMODE
 70
     1
  9
$FILLMODE
 70
     1
  9
$QTEXTMODE
 70
     0
  9
$MIRRTEXT
 70
     0
  9
$LTSCALE
 40
1.0
  9
$ATTMODE
 70
     1
  9
$TEXTSIZE
 40
2.5
  9
$TRACEWID
 40
1.0
  9
$TEXTSTYLE
  7
Standard
  9
$CLAYER
  8
0
  9
$CELTYPE
  6
ByLayer
  9
$CECOLOR
 62
   256
  9
$CELTSCALE
 40
1.0
  9
$DISPSILH
 70
     0
  9
$DIMSCALE
 40
1.0
  9
$DIMASZ
 40
2.5
  9
$DIMEXO
 40
0.625
  9
$DIMDLI
 40
3.75
  9
$DIMRND
 40
0.0
  9
$DIMDLE
 40
0.0
  9
$DIMEXE
 40
1.25
  9
$DIMTP
 40
0.0
  9
$DIMTM
 40
0.0
  9
$DIMTXT
 40
2.5
  9
$DIMCEN
 40
2.5
  9
$DIMTSZ
 40
0.0
  9
$DIMTOL
 70
     0
  9
$DIMLIM
 70
     0
  9
$DIMTIH
 70
     0
  9
$DIMTOH
 70
     0
  9
$DIMSE1
 70
     0
  9
$DIMSE2
 70
     0
  9
$DIMTAD
 70
     1
  9
$DIMZIN
 70
     8
  9
$DIMBLK
  1

  9
$DIMASO
 70
     1
  9
$DIMSHO
 70
     1
  9
$DIMPOST
  1

  9
$DIMAPOST
  1

  9
$DIMALT
 70
     0
  9
$DIMALTD
 70
     3
  9
$DIMALTF
 40
0.03937007874016
  9
$DIMLFAC
 40
1.0
  9
$DIMTOFL
 70
     1
  9
$DIMTVP
 40
0.0
  9
$DIMTIX
 70
     0
  9
$DIMSOXD
 70
     0
  9
$DIMSAH
 70
     0
  9
$DIMBLK1
  1

  9
$DIMBLK2
  1

  9
$DIMSTYLE
  2
ISO-25
  9
$DIMCLRD
 70
     0
  9
$DIMCLRE
 70
     0
  9
$DIMCLRT
 70
     0
  9
$DIMTFAC
 40
1.0
  9
$DIMGAP
 40
0.625
  9
$DIMJUST
 70
     0
  9
$DIMSD1
 70
     0
  9
$DIMSD2
 70
     0
  9
$DIMTOLJ
 70
     0
  9
$DIMTZIN
 70
     8
  9
$DIMALTZ
 70
     0
  9
$DIMALTTZ
 70
     0
  9
$DIMUPT
 70
     0
  9
$DIMDEC
 70
     2
  9
$DIMTDEC
 70
     2
  9
$DIMALTU
 70
     2
  9
$DIMALTTD
 70
     3
  9
$DIMTXSTY
  7
Standard
  9
$DIMAUNIT
 70
     0
  9
$DIMADEC
 70
     0
  9
$DIMALTRND
 40
0.0
  9
$DIMAZIN
 70
     0
  9
$DIMDSEP
 70
    44
  9
$DIMATFIT
 70
     3
  9
$DIMFRAC
 70
     0
  9
$DIMLDRBLK
  1

  9
$DIMLUNIT
 70
     2
  9
$DIMLWD
 70
    -2
  9
$DIMLWE
 70
    -2
  9
$DIMTMOVE
 70
     0
  9
$LUNITS
 70
     2
  9
$LUPREC
 70
     4
  9
$SKETCHINC
 40
1.0
  9
$FILLETRAD
 40
0.0
  9
$AUNITS
 70
     0
  9
$AUPREC
 70
     0
  9
$MENU
  1
.
  9
$ELEVATION
 40
0.0
  9
$PELEVATION
 40
0.0
  9
$THICKNESS
 40
0.0
  9
$LIMCHECK
 70
     0
  9
$CHAMFERA
 40
0.0
  9
$CHAMFERB
 40
0.0
  9
$CHAMFERC
 40
0.0
  9
$CHAMFERD
 40
0.0
  9
$SKPOLY
 70
     0
  9
$TDCREATE
 40
2460398.356956019
  9
$TDUCREATE
 40
2460398.065289352
  9
$TDUPDATE
 40
2460398.387210648
  9
$TDUUPDATE
 40
2460398.095543982
  9
$TDINDWG
 40
0.0096296296
  9
$TDUSRTIMER
 40
0.0096296296
  9
$USRTIMER
 70
     1
  9
$ANGBASE
 50
0.0
  9
$ANGDIR
 70
     0
  9
$PDMODE
 70
     0
  9
$PDSIZE
 40
0.0
  9
$PLINEWID
 40
0.0
  9
$SPLFRAME
 70
     0
  9
$SPLINETYPE
 70
     6
  9
$SPLINESEGS
 70
     8
  9
$HANDSEED
  5
211D8
  9
$SURFTAB1
 70
     6
  9
$SURFTAB2
 70
     6
  9
$SURFTYPE
 70
     6
  9
$SURFU
 70
     6
  9
$SURFV
 70
     6
  9
$UCSBASE
  2

  9
$UCSNAME
  2

  9
$UCSORG
 10
0.0
 20
0.0
 30
0.0
  9
$UCSXDIR
 10
1.0
 20
0.0
 30
0.0
  9
$UCSYDIR
 10
0.0
 20
1.0
 30
0.0
  9
$UCSORTHOREF
  2

  9
$UCSORTHOVIEW
 70
     0
  9
$UCSORGTOP
 10
0.0
 20
0.0
 30
0.0
  9
$UCSORGBOTTOM
 10
0.0
 20
0.0
 30
0.0
  9
$UCSORGLEFT
 10
0.0
 20
0.0
 30
0.0
  9
$UCSORGRIGHT
 10
0.0
 20
0.0
 30
0.0
  9
$UCSORGFRONT
 10
0.0
 20
0.0
 30
0.0
  9
$UCSORGBACK
 10
0.0
 20
0.0
 30
0.0
  9
$PUCSBASE
  2

  9
$PUCSNAME
  2

  9
$PUCSORG
 10
0.0
 20
0.0
 30
0.0
  9
$PUCSXDIR
 10
1.0
 20
0.0
 30
0.0
  9
$PUCSYDIR
 10
0.0
 20
1.0
 30
0.0
  9
$PUCSORTHOREF
  2

  9
$PUCSORTHOVIEW
 70
     0
  9
$PUCSORGTOP
 10
0.0
 20
0.0
 30
0.0
  9
$PUCSORGBOTTOM
 10
0.0
 20
0.0
 30
0.0
  9
$PUCSORGLEFT
 10
0.0
 20
0.0
 30
0.0
  9
$PUCSORGRIGHT
 10
0.0
 20
0.0
 30
0.0
  9
$PUCSORGFRONT
 10
0.0
 20
0.0
 30
0.0
  9
$PUCSORGBACK
 10
0.0
 20
0.0
 30
0.0
  9
$USERI1
 70
     0
  9
$USERI2
 70
     0
  9
$USERI3
 70
     0
  9
$USERI4
 70
     0
  9
$USERI5
 70
     0
  9
$USERR1
 40
0.0
  9
$USERR2
 40
0.0
  9
$USERR3
 40
0.0
  9
$USERR4
 40
0.0
  9
$USERR5
 40
0.0
  9
$WORLDVIEW
 70
     1
  9
$SHADEDGE
 70
     3
  9
$SHADEDIF
 70
    70
  9
$TILEMODE
 70
     1
  9
$MAXACTVP
 70
    48
  9
$PINSBASE
 10
0.0
 20
0.0
 30
0.0
  9
$PLIMCHECK
 70
     0
  9
$PEXTMIN
 10
0.0
 20
0.0
 30
0.0
  9
$PEXTMAX
 10
0.0
 20
0.0
 30
0.0
  9
$PLIMMIN
 10
0.0
 20
0.0
  9
$PLIMMAX
 10
12.0
 20
9.0
  9
$UNITMODE
 70
     0
  9
$VISRETAIN
 70
     1
  9
$PLINEGEN
 70
     0
  9
$PSLTSCALE
 70
     1
  9
$TREEDEPTH
 70
  3020
  9
$CMLSTYLE
  2
Standard
  9
$CMLJUST
 70
     0
  9
$CMLSCALE
 40
20.0
  9
$PROXYGRAPHICS
 70
     1
  9
$MEASUREMENT
 70
     1
  9
$CELWEIGHT
370
    -1
  9
$ENDCAPS
280
     0
  9
$JOINSTYLE
280
     0
  9
$LWDISPLAY
290
     0
  9
$INSUNITS
 70
     4
  9
$HYPERLINKBASE
  1

  9
$STYLESHEET
  1

  9
$XEDIT
290
     1
  9
$CEPSNTYPE
380
     0
  9
$PSTYLEMODE
290
     1
  9
$FINGERPRINTGUID
  2
{6C1266EE-7BC1-BF4A-B059-A6E7702B10CE}
  9
$VERSIONGUID
  2
{B0367C51-B5D4-304E-9A83-7290BE9A9FA7}
  9
$EXTNAMES
290
     1
  9
$PSVPSCALE
 40
0.0
  9
$OLESTARTUP
290
     0
  0
ENDSEC
  0
SECTION
  2
CLASSES
  0
CLASS
  1
ACDBDICTIONARYWDFLT
  2
AcDbDictionaryWithDefault
  3
ObjectDBX Classes
 90
        0
280
     0
281
     0
  0
CLASS
  1
ACDBPLACEHOLDER
  2
AcDbPlaceHolder
  3
ObjectDBX Classes
 90
        0
280
     0
281
     0
  0
CLASS
  1
LAYOUT
  2
AcDbLayout
  3
ObjectDBX Classes
 90
        0
280
     0
281
     0
  0
CLASS
  1
DICTIONARYVAR
  2
AcDbDictionaryVar
  3
ObjectDBX Classes
 90
        0
280
     0
281
     0
  0
CLASS
  1
TABLESTYLE
  2
AcDbTableStyle
  3
ObjectDBX Classes
 90
     4095
280
     0
281
     0
  0
CLASS
  1
MATERIAL
  2
AcDbMaterial
  3
ObjectDBX Classes
 90
     1153
280
     0
281
     0
  0
CLASS
  1
VISUALSTYLE
  2
AcDbVisualStyle
  3
ObjectDBX Classes
 90
     4095
280
     0
281
     0
  0
CLASS
  1
SCALE
  2
AcDbScale
  3
ObjectDBX Classes
 90
     1153
280
     0
281
     0
  0
CLASS
  1
MLEADERSTYLE
  2
AcDbMLeaderStyle
  3
ACDB_MLEADERSTYLE_CLASS
 90
     4095
280
     0
281
     0
  0
CLASS
  1
CELLSTYLEMAP
  2
AcDbCellStyleMap
  3
ObjectDBX Classes
 90
     1152
280
     0
281
     0
  0
CLASS
  1
EXACXREFPANELOBJECT
  2
ExAcXREFPanelObject
  3
EXAC_ESW
 90
    33793
280
     0
281
     0
  0
CLASS
  1
NPOCOLLECTION
  2
AcDbImpNonPersistentObjectsCollection
  3
ObjectDBX Classes
 90
    33921
280
     0
281
     0
  0
CLASS
  1
LAYER_INDEX
  2
AcDbLayerIndex
  3
ObjectDBX Classes
 90
    32768
280
     0
281
     0
  0
CLASS
  1
SPATIAL_INDEX
  2
AcDbSpatialIndex
  3
ObjectDBX Classes
 90
    32768
280
     0
281
     0
  0
CLASS
  1
IDBUFFER
  2
AcDbIdBuffer
  3
ObjectDBX Classes
 90
    32768
280
     0
281
     0
  0
CLASS
  1
ACDBSECTIONVIEWSTYLE
  2
AcDbSectionViewStyle
  3
ObjectDBX Classes
 90
     1025
280
     0
281
     0
  0
CLASS
  1
ACDBDETAILVIEWSTYLE
  2
AcDbDetailViewStyle
  3
ObjectDBX Classes
 90
     1025
280
     0
281
     0
  0
CLASS
  1
XRECORD
  2
AcDbXrecord
  3
ObjectDBX Classes
 90
        0
280
     0
281
     0
  0
ENDSEC
  0
SECTION
  2
TABLES
  0
TABLE
  2
VPORT
  5
8
102
{ACAD_XDICTIONARY
360
210E6
102
}
330
0
100
AcDbSymbolTable
 70
     1
  0
VPORT
  5
EA
102
{ACAD_XDICTIONARY
360
210B9
102
}
330
8
100
AcDbSymbolTableRecord
100
AcDbViewportTableRecord
  2
*Active
 70
     0
 10
0.0
 20
0.0
 11
1.0
 21
1.0
 12
45.21652300285248
 22
5.553795385935586
 13
0.0
 23
0.0
 14
10.0
 24
10.0
 15
10.0
 25
10.0
 16
0.0
 26
0.0
 36
1.0
 17
0.0
 27
0.0
 37
0.0
 40
614.7641557679154
 41
0.9846153846153846
 42
50.0
 43
0.0
 44
0.0
 50
0.0
 51
0.0
 71
     0
 72
  1000
 73
     1
 74
     3
 75
     0
 76
     1
 77
     0
 78
     0
281
     0
 65
     1
110
0.0
120
0.0
130
0.0
111
1.0
121
0.0
131
0.0
112
0.0
122
1.0
132
0.0
 79
     0
146
0.0
1001
ACAD_NAV_VCDISPLAY
1070
     3
  0
ENDTAB
  0
TABLE
  2
LTYPE
  5
5
330
0
100
AcDbSymbolTable
 70
     2
  0
LTYPE
  5
14
330
5
100
AcDbSymbolTableRecord
100
AcDbLinetypeTableRecord
  2
ByBlock
 70
     0
  3

 72
    65
 73
     0
 40
0.0
  0
LTYPE
  5
15
330
5
100
AcDbSymbolTableRecord
100
AcDbLinetypeTableRecord
  2
ByLayer
 70
     0
  3

 72
    65
 73
     0
 40
0.0
  0
LTYPE
  5
16
330
5
100
AcDbSymbolTableRecord
100
AcDbLinetypeTableRecord
  2
Continuous
 70
     0
  3
Solid line
 72
    65
 73
     0
 40
0.0
  0
LTYPE
  5
2114A
330
5
100
AcDbSymbolTableRecord
100
AcDbLinetypeTableRecord
  2
$AUDIT_BAD_LTYPE2
 70
     0
  3

 72
    65
 73
     0
 40
0.0
  0
ENDTAB
  0
TABLE
  2
LAYER
  5
2
102
{ACAD_XDICTIONARY
360
1FF
102
}
330
0
100
AcDbSymbolTable
 70
     2
  0
LAYER
  5
10
102
{ACAD_XDICTIONARY
360
13C
102
}
330
2
100
AcDbSymbolTableRecord
100
AcDbLayerTableRecord
  2
0
 70
     0
 62
     7
  6
Continuous
370
    -3
390
F
  0
LAYER
  5
21149
330
2
100
AcDbSymbolTableRecord
100
AcDbLayerTableRecord
  2
$AUDIT_BAD_LAYER1
 70
     0
 62
     7
  6
Continuous
370
    -3
390
F
  0
ENDTAB
  0
TABLE
  2
STYLE
  5
3
330
0
100
AcDbSymbolTable
 70
     1
  0
STYLE
  5
11
330
3
100
AcDbSymbolTableRecord
100
AcDbTextStyleTableRecord
  2
Standard
 70
     0
 40
0.0
 41
1.0
 50
0.0
 71
     0
 42
2.5
  3
arial.ttf
  4

1001
ACAD
1000
Arial
1071
       34
  0
ENDTAB
  0
TABLE
  2
VIEW
  5
6
330
0
100
AcDbSymbolTable
 70
     0
  0
ENDTAB
  0
TABLE
  2
UCS
  5
7
330
0
100
AcDbSymbolTable
 70
     0
  0
ENDTAB
  0
TABLE
  2
APPID
  5
9
330
0
100
AcDbSymbolTable
 70
     8
  0
APPID
  5
12
330
9
100
AcDbSymbolTableRecord
100
AcDbRegAppTableRecord
  2
ACAD
 70
     0
  0
APPID
  5
9E
330
9
100
AcDbSymbolTableRecord
100
AcDbRegAppTableRecord
  2
ACAD_PSEXT
 70
     0
  0
APPID
  5
133
330
9
100
AcDbSymbolTableRecord
100
AcDbRegAppTableRecord
  2
AcadAnnoPO
 70
     0
  0
APPID
  5
134
330
9
100
AcDbSymbolTableRecord
100
AcDbRegAppTableRecord
  2
AcadAnnotative
 70
     0
  0
APPID
  5
135
330
9
100
AcDbSymbolTableRecord
100
AcDbRegAppTableRecord
  2
ACAD_DSTYLE_DIMJAG
 70
     0
  0
APPID
  5
136
330
9
100
AcDbSymbolTableRecord
100
AcDbRegAppTableRecord
  2
ACAD_DSTYLE_DIMTALN
 70
     0
  0
APPID
  5
165
330
9
100
AcDbSymbolTableRecord
100
AcDbRegAppTableRecord
  2
ACAD_MLEADERVER
 70
     0
  0
APPID
  5
217
330
9
100
AcDbSymbolTableRecord
100
AcDbRegAppTableRecord
  2
ACAD_NAV_VCDISPLAY
 70
     0
  0
ENDTAB
  0
TABLE
  2
DIMSTYLE
  5
A
330
0
100
AcDbSymbolTable
 70
     1
100
AcDbDimStyleTable
 71
     0
  0
DIMSTYLE
105
27
330
A
100
AcDbSymbolTableRecord
100
AcDbDimStyleTableRecord
  2
ISO-25
 70
     0
 41
2.5
 42
0.625
 43
3.75
 44
1.25
 73
     0
 74
     0
 77
     1
 78
     8
140
2.5
141
2.5
143
0.03937007874016
147
0.625
171
     3
172
     1
271
     2
272
     2
274
     3
278
    44
283
     0
284
     8
340
11
  0
ENDTAB
  0
TABLE
  2
BLOCK_RECORD
  5
1
330
0
100
AcDbSymbolTable
 70
     7
  0
BLOCK_RECORD
  5
1F
102
{ACAD_XDICTIONARY
360
1CE
102
}
330
1
100
AcDbSymbolTableRecord
100
AcDbBlockTableRecord
  2
*Model_Space
340
22
  0
BLOCK_RECORD
  5
D2
102
{ACAD_XDICTIONARY
360
21099
102
}
330
1
100
AcDbSymbolTableRecord
100
AcDbBlockTableRecord
  2
*Paper_Space
340
D3
  0
BLOCK_RECORD
  5
D6
102
{ACAD_XDICTIONARY
360
2109B
102
}
330
1
100
AcDbSymbolTableRecord
100
AcDbBlockTableRecord
  2
*Paper_Space0
340
D7
  0
BLOCK_RECORD
  5
20EE1
330
1
100
AcDbSymbolTableRecord
100
AcDbBlockTableRecord
  2
SAEL440_120_2-Front
340
0
102
{BLKREFS
331
2108F
102
}
  0
BLOCK_RECORD
  5
20F41
330
1
100
AcDbSymbolTableRecord
100
AcDbBlockTableRecord
  2
SAEL440_120_2-Left
340
0
102
{BLKREFS
331
21090
102
}
  0
BLOCK_RECORD
  5
20F69
330
1
100
AcDbSymbolTableRecord
100
AcDbBlockTableRecord
  2
SAEL440_120_2-Right
340
0
102
{BLKREFS
331
21091
102
}
  0
BLOCK_RECORD
  5
20F8E
330
1
100
AcDbSymbolTableRecord
100
AcDbBlockTableRecord
  2
SAEL440_120_2-Top
340
0
102
{BLKREFS
331
21092
102
}
  0
BLOCK_RECORD
  5
20FC7
330
1
100
AcDbSymbolTableRecord
100
AcDbBlockTableRecord
  2
SAEL440_120_2-Bottom
340
0
102
{BLKREFS
331
21093
102
}
  0
BLOCK_RECORD
  5
20FEF
330
1
100
AcDbSymbolTableRecord
100
AcDbBlockTableRecord
  2
SAEL440_120_2-ISO
340
0
102
{BLKREFS
331
21094
102
}
  0
ENDTAB
  0
ENDSEC
  0
SECTION
  2
BLOCKS
  0
BLOCK
  5
20
330
1F
100
AcDbEntity
  8
0
100
AcDbBlockBegin
  2
*Model_Space
 70
     0
 10
0.0
 20
0.0
 30
0.0
  3
*Model_Space
  1

  0
ENDBLK
  5
21
330
1F
100
AcDbEntity
  8
0
100
AcDbBlockEnd
  0
BLOCK
  5
D4
330
D2
100
AcDbEntity
 67
     1
  8
0
100
AcDbBlockBegin
  2
*Paper_Space
 70
     0
 10
0.0
 20
0.0
 30
0.0
  3
*Paper_Space
  1

  0
ENDBLK
  5
D5
330
D2
100
AcDbEntity
 67
     1
  8
0
100
AcDbBlockEnd
  0
BLOCK
  5
D8
330
D6
100
AcDbEntity
 67
     1
  8
0
100
AcDbBlockBegin
  2
*Paper_Space0
 70
     0
 10
0.0
 20
0.0
 30
0.0
  3
*Paper_Space0
  1

  0
ENDBLK
  5
D9
330
D6
100
AcDbEntity
 67
     1
  8
0
100
AcDbBlockEnd
  0
BLOCK
  5
20EE2
330
20EE1
100
AcDbEntity
  8
0
100
AcDbBlockBegin
  2
SAEL440_120_2-Front
 70
     0
 10
0.0
 20
0.0
 30
0.0
  3
SAEL440_120_2-Front
  1

  0
SPLINE
  5
20EE4
330
20EE1
100
AcDbEntity
  8
$AUDIT_BAD_LAYER1
  6
$AUDIT_BAD_LTYPE2
100
AcDbSpline
210
0.0
220
0.0
230
1.0
 70
     8
 71
     3
 72
    14
 73
    10
 74
     0
 42
0.000000001
 43
0.0000000001
 40
0.0
 40
0.0
 40
0.0
 40
0.0
 40
0.2870001856655311
 40
0.2870001856655311
 40
0.2870001856655311
 40
0.8282911262687633
 40
0.8282911262687633
 40
0.8282911262687633
 40
0.9976758091496419
 40
0.9976758091496419
 40
0.9976758091496419
 40
0.9976758091496419
 10
64.1317591116654
 20
20.46251060667355
 30
0.0
 10
63.772223924228
 20
20.3991148918471
 30
0.0
 10
63.46620915173054
 20
20.27267956156299
 30
0.0
 10
63.18206703772123
 20
20.0895668245275
 30
0.0
 10
62.64616650580894
 20
19.74421072158098
 30
0.0
 10
62.24264309969214
 20
19.21065167214058
 30
0.0
 10
62.07927432859019
 20
18.59085729583434
 30
0.0
 10
62.02815178910171
 20
18.39690674908219
 30
0.0
 10
62.0019255293581
 20
18.19430902354724
 30
0.0
 10
62.00006291307004
 20
17.98847480014412
 30
0.0
  0
LINE
  5
20EE5
330
20EE1
100
AcDbEntity
  8
$AUDIT_BAD_LAYER1
  6
$AUDIT_BAD_LTYPE2
100
AcDbLine
 10
64.0
 20
20.46251060667354
 30
0.0
 11
64.1317591116654
 21
20.46251060667354
 31
0.0
  0
LINE
  5
20EE6
330
20EE1
100
AcDbEntity
  8
$AUDIT_BAD_LAYER1
  6
$AUDIT_BAD_LTYPE2
100
AcDbLine
 10
62.00000000000001
 20
20.46251060667354
 30
0.0
 11
64.0
 21
20.46251060667354
 31
0.0
  0
SPLINE
  5
20EE7
330
20EE1
100
AcDbEntity
  8
$AUDIT_BAD_LAYER1
  6
$AUDIT_BAD_LTYPE2
100
AcDbSpline
210
0.0
220
0.0
230
1.0
 70
     8
 71
     3
 72
     8
 73
     4
 74
     0
 42
0.000000001
 43
0.0000000001
 40
0.0
 40
0.0
 40
0.0
 40
0.0
 40
0.0034227324431367
 40
0.0034227324431367
 40
0.0034227324431367
 40
0.0034227324431367
 10
59.9995924045768
 20
17.98000237296917
 30
0.0
 10
59.99959864683953
 20
17.98984982516738
 30
0.0
 10
59.99960619809124
 20
17.99924827501151
 30
0.0
 10
59.99961240446669
 20
18.00762728101274
 30
0.0
  0
SPLINE
  5
20EE8
330
20EE1
100
AcDbEntity
  8
$AUDIT_BAD_LAYER1
  6
$AUDIT_BAD_LTYPE2
100
AcDbSpline
210
0.0
220
0.0
230
1.0
 70
     8
 71
     3
 72
    10
 73
     6
 74
     0
 42
0.000000001
 43
0.0000000001
 40
0.0
 40
0.0
 40
0.0
 40
0.0
 40
0.005150630812608
 40
0.005150630812608
 40
0.0088587239181369
 40
0.0088587239181369
 40
0.0088587239181369
 40
0.0088587239181369
 10
59.99992826212416
 20
17.97999920666442
 30
0.0
 10
59.99977708727609
 20
17.99348439391719
 30
0.0
 10
59.99962816472753
 20
18.00631697780465
 30
0.0
 10
59.99942725326469
 20
18.02347577062738
 30
0.0
 10
59.99935779555414
 20
18.02933547292288
 30
0.0
 10
59.99930015107742
 20
18.03414827881978
 30
0.0
  0
SPLINE
  5
20EE9
330
20EE1
100
AcDbEntity
  8
$AUDIT_BAD_LAYER1
  6
$AUDIT_BAD_LTYPE2
100
AcDbSpline
210
0.0
220
0.0
230
1.0
 70
     8
 71
     3
 72
     8
 73
     4
 74
     0
 42
0.000000001
 43
0.0000000001
 40
0.0071154487885821
 40
0.0071154487885821
 40
0.0071154487885821
 40
0.0071154487885821
 40
0.0262283647870791
 40
0.0262283647870791
 40
0.0262283647870791
 40
0.0262283647870791
 10
59.99994257931479
 20
17.98486627214971
 30
0.0
 10
59.99991630234543
 20
17.9880016904828
 30
0.0
 10
59.99992081329796
 20
17.9872218195978
 30
0.0
 10
59.99994209118219
 20
17.98523539811056
 30
0.0
  0
SPLINE
  5
20EEA
330
20EE1
100
AcDbEntity
  8
$AUDIT_BAD_LAYER1
  6
$AUDIT_BAD_LTYPE2
100
AcDbSpline
210
0.0
220
0.0
230
1.0
 70
     8
 71
     3
 72
    34
 73
    30
 74
     0
 42
0.000000001
 43
0.0000000001
 40
0.0414735980034649
 40
0.0414735980034649
 40
0.0414735980034649
 40
0.0414735980034649
 40
0.0484813398889208
 40
0.0484813398889208
 40
0.0587222463564099
 40
0.0587222463564099
 40
0.0628023526658742
 40
0.0628023526658742
 40
0.063967380547187
 40
0.063967380547187
 40
0.0649006504942568
 40
0.0649006504942568
 40
0.0658354510788721
 40
0.0658354510788721
 40
0.0677308773283846
 40
0.0677308773283846
 40
0.0715074950673593
 40
0.0715074950673593
 40
0.0754912361010369
 40
0.0754912361010369
 40
0.08744311932842
 40
0.08744311932842
 40
0.1232519333597917
 40
0.1232519333597917
 40
0.1995330071617339
 40
0.1995330071617339
 40
0.2867350403792338
 40
0.2867350403792338
 40
0.3081841678411449
 40
0.3081841678411449
 40
0.3081841678411449
 40
0.3081841678411449
 10
59.99994248270772
 20
17.9849393863102
 30
0.0
 10
59.99989458542429
 20
17.98887699496607
 30
0.0
 10
59.99981066629822
 20
17.99562652996066
 30
0.0
 10
59.99955154041729
 20
18.01564212833686
 30
0.0
 10
59.99935821222191
 20
18.03002559893755
 30
0.0
 10
59.99901003613334
 20
18.05524826540566
 30
0.0
 10
59.99890005142417
 20
18.0631589486505
 30
0.0
 10
59.99872001544312
 20
18.07613381871882
 30
0.0
 10
59.99867709626951
 20
18.07922913017923
 30
0.0
 10
59.9985944974173
 20
18.08520018793741
 30
0.0
 10
59.9985555354433
 20
18.08802157432673
 30
0.0
 10
59.99847483913615
 20
18.09388294658358
 30
0.0
 10
59.9984326613678
 20
18.09695537949065
 30
0.0
 10
59.99830457642167
 20
18.10632453836985
 30
0.0
 10
59.99821658434472
 20
18.11281677737236
 30
0.0
 10
59.99797119567121
 20
18.13112891955806
 30
0.0
 10
59.99782256665604
 20
18.14250048927978
 30
0.0
 10
59.99754208340115
 20
18.16455107746649
 30
0.0
 10
59.99740896001644
 20
18.17535914009867
 30
0.0
 10
59.99690632554194
 20
18.21761650966613
 30
0.0
 10
59.99659373790135
 20
18.24740220094174
 30
0.0
 10
59.99554400475084
 20
18.36393654010969
 30
0.0
 10
59.99519966905824
 20
18.44468778947683
 30
0.0
 10
59.99498608856775
 20
18.71606989215695
 30
0.0
 10
59.99651861067633
 20
18.93173370717919
 30
0.0
 10
59.99928961769129
 20
19.41585150399279
 30
0.0
 10
59.99991219479399
 20
19.70164641912633
 30
0.0
 10
59.99999348588525
 20
20.06061772901809
 30
0.0
 10
59.99999671001174
 20
20.1318357926477
 30
0.0
 10
60.0
 20
20.20310721916455
 30
0.0
  0
SPLINE
  5
20EEB
330
20EE1
100
AcDbEntity
  8
$AUDIT_BAD_LAYER1
  6
$AUDIT_BAD_LTYPE2
100
AcDbSpline
210
0.0
220
0.0
230
1.0
 70
     8
 71
     3
 72
    12
 73
     8
 74
     0
 42
0.000000001
 43
0.0000000001
 40
0.0
 40
0.0
 40
0.0
 40
0.0
 40
0.0034395474323045
 40
0.0034395474323045
 40
0.0064014215029439
 40
0.0064014215029439
 40
0.008241553705969
 40
0.008241553705969
 40
0.008241553705969
 40
0.008241553705969
 10
59.999948926663
 20
17.97999995942633
 30
0.0
 10
59.99993669775613
 20
17.98949028363721
 30
0.0
 10
59.99992476293538
 20
17.99810874654925
 30
0.0
 10
59.99990554958767
 20
18.01020798652358
 30
0.0
 10
59.9998976822853
 20
18.01437144018322
 30
0.0
 10
59.99989024515983
 20
18.0179704996078
 30
0.0
 10
59.99988862119366
 20
18.01864703129459
 30
0.0
 10
59.99988862119568
 20
18.01864703045031
 30
0.0
  0
SPLINE
  5
20EEC
330
20EE1
100
AcDbEntity
  8
$AUDIT_BAD_LAYER1
  6
$AUDIT_BAD_LTYPE2
100
AcDbSpline
210
0.0
220
0.0
230
1.0
 70
     8
 71
     3
 72
    10
 73
     6
 74
     0
 42
0.000000001
 43
0.0000000001
 40
0.0156910365998873
 40
0.0156910365998873
 40
0.0156910365998873
 40
0.0156910365998873
 40
0.0169445934620827
 40
0.0169445934620827
 40
0.017511399554701
 40
0.017511399554701
 40
0.017511399554701
 40
0.017511399554701
 10
62.00000000000001
 20
17.9967498424718
 30
0.0
 10
62.00002403353292
 20
17.99290876823263
 30
0.0
 10
62.00005145648052
 20
17.98905309370473
 30
0.0
 10
62.00009524177493
 20
17.9834713946939
 30
0.0
 10
62.00010943729452
 20
17.98173522609197
 30
0.0
 10
62.0001241330499
 20
17.9800032276084
 30
0.0
  0
SPLINE
  5
20EED
330
20EE1
100
AcDbEntity
  8
$AUDIT_BAD_LAYER1
  6
$AUDIT_BAD_LTYPE2
100
AcDbSpline
210
0.0
220
0.0
230
1.0
 70
     8
 71
     3
 72
    14
 73
    10
 74
     0
 42
0.000000001
 43
0.0000000001
 40
0.0126427122944591
 40
0.0126427122944591
 40
0.0126427122944591
 40
0.0126427122944591
 40
0.0127966412845493
 40
0.0127966412845493
 40
0.0130268138281958
 40
0.0130268138281958
 40
0.0131131281483323
 40
0.0131131281483323
 40
0.0131778638647704
 40
0.0131778638647704
 40
0.0131778638647704
 40
0.0131778638647704
 10
62.00000000000003
 20
17.98232313939981
 30
0.0
 10
62.00000401115956
 20
17.98210089564108
 30
0.0
 10
62.00000801918584
 20
17.98187951410001
 30
0.0
 10
62.00001800717749
 20
17.98132951038809
 30
0.0
 10
62.00002398061936
 20
17.98100208040011
 30
0.0
 10
62.00003216736392
 20
17.98055532317367
 30
0.0
 10
62.00003439737671
 20
17.98043383402465
 30
0.0
 10
62.00003829441037
 20
17.98022187936993
 30
0.0
 10
62.00003996280546
 20
17.98013125091068
 30
0.0
 10
62.00004162926511
 20
17.98004083966089
 30
0.0
  0
SPLINE
  5
20EEE
330
20EE1
100
AcDbEntity
  8
$AUDIT_BAD_LAYER1
  6
$AUDIT_BAD_LTYPE2
100
AcDbSpline
210
0.0
220
0.0
230
1.0
 70
     8
 71
     3
 72
     8
 73
     4
 74
     0
 42
0.000000001
 43
0.0000000001
 40
0.0055426499133916
 40
0.0055426499133916
 40
0.0055426499133916
 40
0.0055426499133916
 40
0.0057998794445389
 40
0.0057998794445389
 40
0.0057998794445389
 40
0.0057998794445389
 10
61.99999999960718
 20
17.98018389354317
 30
0.0
 10
62.0000016219717
 20
17.98012009070726
 30
0.0
 10
62.00000318269697
 20
17.98005886051322
 30
0.0
 10
62.00000468268314
 20
17.9800001230554
 30
0.0
  0
SPLINE
  5
20EEF
330
20EE1
100
AcDbEntity
  8
$AUDIT_BAD_LAYER1
  6
$AUDIT_BAD_LTYPE2
100
AcDbSpline
210
0.0
220
0.0
230
1.0
 70
     8
 71
     3
 72
    11
 73
     7
 74
     0
 42
0.000000001
 43
0.0000000001
 40
-0.9986962150660525
 40
-0.9986962150660525
 40
-0.9986962150660525
 40
-0.9986962150660525
 40
-0.3390351070006217
 40
-0.3390351070006217
 40
-0.3390351070006217
 40
0.0
 40
0.0
 40
0.0
 40
0.0
 10
-62.00000469914211
 20
17.98477084958971
 30
0.0
 10
-62.00160260451895
 20
18.78924511247507
 30
0.0
 10
-62.41056142025918
 20
19.52119533101917
 30
0.0
 10
-63.0313298277155
 20
19.98476209981335
 30
0.0
 10
-63.35037589678236
 20
20.22301384322897
 30
0.0
 10
-63.72934079938673
 20
20.38726839694996
 30
0.0
 10
-64.13175911206862
 20
20.4625106067675
 30
0.0
  0
LINE
  5
20EF0
330
20EE1
100
AcDbEntity
  8
$AUDIT_BAD_LAYER1
  6
$AUDIT_BAD_LTYPE2
100
AcDbLine
 10
-64.0
 20
20.46251060667354
 30
0.0
 11
-62.00000000000001
 21
20.46251060667354
 31
0.0
  0
SPLINE
  5
20EF1
330
20EE1
100
AcDbEntity
  8
$AUDIT_BAD_LAYER1
  6
$AUDIT_BAD_LTYPE2
100
AcDbSpline
210
0.0
220
0.0
230
1.0
 70
     8
 71
     3
 72
    36
 73
    32
 74
     0
 42
0.000000001
 43
0.0000000001
 40
0.0038131203454645
 40
0.0038131203454645
 40
0.0038131203454645
 40
0.0038131203454645
 40
0.0383813888956396
 40
0.0383813888956396
 40
0.0963711697459437
 40
0.0963711697459437
 40
0.1739469345379759
 40
0.1739469345379759
 40
0.1833098057808182
 40
0.1833098057808182
 40
0.2114144010735153
 40
0.2114144010735153
 40
0.2300854357490994
 40
0.2300854357490994
 40
0.2369059047451243
 40
0.2369059047451243
 40
0.2417208615937419
 40
0.2417208615937419
 40
0.2462303753048651
 40
0.2462303753048651
 40
0.248450986746259
 40
0.248450986746259
 40
0.251352721241379
 40
0.251352721241379
 40
0.2539147608831551
 40
0.2539147608831551
 40
0.2571660245874122
 40
0.2571660245874122
 40
0.2623925004588774
 40
0.2623925004588774
 40
0.2691737900676478
 40
0.2691737900676478
 40
0.2691737900676478
 40
0.2691737900676478
 10
-60.0000095994395
 20
20.23185432853573
 30
0.0
 10
-60.00000959943992
 20
20.11712737292909
 30
0.0
 10
-59.99998219075585
 20
20.00269097034423
 30
0.0
 10
-59.99974281207904
 20
19.69942474586951
 30
0.0
 10
-59.99935081065273
 20
19.51262090281212
 30
0.0
 10
-59.99739147479484
 20
19.1008102177477
 30
0.0
 10
-59.99540616711758
 20
18.87761421457637
 30
0.0
 10
-59.99470891087058
 20
18.65156037019898
 30
0.0
 10
-59.99465343852344
 20
18.62751553159511
 30
0.0
 10
-59.99451944461427
 20
18.53263106773511
 30
0.0
 10
-59.99461382535333
 20
18.46475214821213
 30
0.0
 10
-59.99518729039206
 20
18.35236116603567
 30
0.0
 10
-59.99552326065348
 20
18.30773239427145
 30
0.0
 10
-59.99621172984316
 20
18.24223578153518
 30
0.0
 10
-59.99641950215241
 20
18.22419014293324
 30
0.0
 10
-59.99682865543594
 20
18.19168968380993
 30
0.0
 10
-59.99701510912254
 20
18.1776569566364
 30
0.0
 10
-59.99741449789226
 20
18.14909278354124
 30
0.0
 10
-59.99762987632442
 20
18.13432909417566
 30
0.0
 10
-59.99796673181392
 20
18.11197170728344
 30
0.0
 10
-59.99808155709664
 20
18.10446026376409
 30
0.0
 10
-59.99834142730854
 20
18.08762268998624
 30
0.0
 10
-59.99848795717717
 20
18.07824814171873
 30
0.0
 10
-59.99873496610695
 20
18.06249700355132
 30
0.0
 10
-59.99884158433824
 20
18.0557199690086
 30
0.0
 10
-59.99905854819623
 20
18.0419068568518
 30
0.0
 10
-59.99916467861005
 20
18.035133633202
 30
0.0
 10
-59.99941135342118
 20
18.01930120993602
 30
0.0
 10
-59.99953654027127
 20
18.01116780948168
 30
0.0
 10
-59.99977858881944
 20
17.99523073785872
 30
0.0
 10
-59.99988336335565
 20
17.98812173503079
 30
0.0
 10
-59.99994667398339
 20
17.98376919992303
 30
0.0
  0
SPLINE
  5
20EF2
330
20EE1
100
AcDbEntity
  8
$AUDIT_BAD_LAYER1
  6
$AUDIT_BAD_LTYPE2
100
AcDbSpline
210
0.0
220
0.0
230
1.0
 70
     8
 71
     3
 72
     8
 73
     4
 74
     0
 42
0.000000001
 43
0.0000000001
 40
0.0200144737975172
 40
0.0200144737975172
 40
0.0200144737975172
 40
0.0200144737975172
 40
0.0210655283367781
 40
0.0210655283367781
 40
0.0210655283367781
 40
0.0210655283367781
 10
-59.99965720240838
 20
17.98878661784892
 30
0.0
 10
-59.99965440488097
 20
17.98591214461076
 30
0.0
 10
-59.99965151448851
 20
17.98297857760754
 30
0.0
 10
-59.99964857936074
 20
17.98000074770815
 30
0.0
  0
SPLINE
  5
20EF3
330
20EE1
100
AcDbEntity
  8
$AUDIT_BAD_LAYER1
  6
$AUDIT_BAD_LTYPE2
100
AcDbSpline
210
0.0
220
0.0
230
1.0
 70
     8
 71
     3
 72
    16
 73
    12
 74
     0
 42
0.000000001
 43
0.0000000001
 40
0.0331352269728457
 40
0.0331352269728457
 40
0.0331352269728457
 40
0.0331352269728457
 40
0.034678884513287
 40
0.034678884513287
 40
0.0377805264659563
 40
0.0377805264659563
 40
0.0397725993755764
 40
0.0397725993755764
 40
0.0428643095547459
 40
0.0428643095547459
 40
0.0441692738348838
 40
0.0441692738348838
 40
0.0441692738348838
 40
0.0441692738348838
 10
-59.99884610324322
 20
18.05543016920243
 30
0.0
 10
-59.99886773137581
 20
18.05373646494855
 30
0.0
 10
-59.99889185336647
 20
18.05183487009182
 30
0.0
 10
-59.99897267182991
 20
18.04541536538876
 30
0.0
 10
-59.99903867323435
 20
18.04011397178367
 30
0.0
 10
-59.99916916379704
 20
18.02948847005388
 30
0.0
 10
-59.99922628717932
 20
18.02480689783272
 30
0.0
 10
-59.99938501136714
 20
18.01169666297328
 30
0.0
 10
-59.9994962364302
 20
18.00241761950013
 30
0.0
 10
-59.99966039163649
 20
17.98852318254995
 30
0.0
 10
-59.99971031159294
 20
17.98427526074772
 30
0.0
 10
-59.99976031303041
 20
17.97999718512068
 30
0.0
  0
SPLINE
  5
20EF4
330
20EE1
100
AcDbEntity
  8
$AUDIT_BAD_LAYER1
  6
$AUDIT_BAD_LTYPE2
100
AcDbSpline
210
0.0
220
0.0
230
1.0
 70
     8
 71
     3
 72
    14
 73
    10
 74
     0
 42
0.000000001
 43
0.0000000001
 40
0.0155647706653574
 40
0.0155647706653574
 40
0.0155647706653574
 40
0.0155647706653574
 40
0.0156837189487418
 40
0.0156837189487418
 40
0.0197622413270738
 40
0.0197622413270738
 40
0.0217708569566841
 40
0.0217708569566841
 40
0.0248717586633753
 40
0.0248717586633753
 40
0.0248717586633753
 40
0.0248717586633753
 10
-59.99988726187741
 20
18.01436016849583
 30
0.0
 10
-59.99988726187741
 20
18.01436016849489
 30
0.0
 10
-59.99988726626416
 20
18.01435866472671
 30
0.0
 10
-59.99988757556656
 20
18.01425180822769
 30
0.0
 10
-59.99989326869854
 20
18.01228482719017
 30
0.0
 10
-59.99990741780791
 20
18.00570490490338
 30
0.0
 10
-59.99991301256558
 20
18.00292931128306
 30
0.0
 10
-59.99992891299179
 20
17.99439524708696
 30
0.0
 10
-59.99994026628506
 20
17.98769969095214
 30
0.0
 10
-59.99995288466346
 20
17.98000001324563
 30
0.0
  0
SPLINE
  5
20EF5
330
20EE1
100
AcDbEntity
  8
$AUDIT_BAD_LAYER1
  6
$AUDIT_BAD_LTYPE2
100
AcDbSpline
210
0.0
220
0.0
230
1.0
 70
     8
 71
     3
 72
    38
 73
    34
 74
     0
 42
0.000000001
 43
0.0000000001
 40
0.0
 40
0.0
 40
0.0
 40
0.0
 40
0.0000171416915553
 40
0.0000171416915553
 40
0.000085708467454
 40
0.000085708467454
 40
0.0002228420815572
 40
0.0002228420815572
 40
0.0004971098139393
 40
0.0004971098139393
 40
0.0010456494110453
 40
0.0010456494110453
 40
0.0021427635431807
 40
0.0021427635431807
 40
0.0049955563361404
 40
0.0049955563361404
 40
0.0106524122990559
 40
0.0106524122990559
 40
0.0210563850364833
 40
0.0210563850364833
 40
0.0299813420073463
 40
0.0299813420073463
 40
0.0322345777257141
 40
0.0322345777257141
 40
0.0327893955498878
 40
0.0327893955498878
 40
0.0333410188279406
 40
0.0333410188279406
 40
0.0344400767538884
 40
0.0344400767538884
 40
0.0366346498693374
 40
0.0366346498693374
 40
0.0391806140363603
 40
0.0391806140363603
 40
0.0391806140363603
 40
0.0391806140363603
 10
-62.00378170420538
 20
17.66274541157554
 30
0.0
 10
-62.00378136806754
 20
17.66279670669148
 30
0.0
 10
-62.00378103174195
 20
17.6628480052535
 30
0.0
 10
-62.00377934917447
 20
17.66310451532283
 30
0.0
 10
-62.00377800011472
 20
17.66330977854555
 30
0.0
 10
-62.00377394390653
 20
17.66392573355843
 30
0.0
 10
-62.00377122772784
 20
17.66433659087529
 30
0.0
 10
-62.00376304297806
 20
17.66556982346681
 30
0.0
 10
-62.003757538183
 20
17.66639286086239
 30
0.0
 10
-62.00374087817528
 20
17.66886461024182
 30
0.0
 10
-62.0037295772483
 20
17.67051597136259
 30
0.0
 10
-62.00369508598599
 20
17.67548056992577
 30
0.0
 10
-62.00367130630866
 20
17.67880441952102
 30
0.0
 10
-62.00358282209359
 20
17.69082036118381
 30
0.0
 10
-62.00351348788395
 20
17.69959484449318
 30
0.0
 10
-62.00329003704613
 20
17.72603276580233
 30
0.0
 10
-62.00311899985566
 20
17.74400377290526
 30
0.0
 10
-62.00257107160453
 20
17.79587682905193
 30
0.0
 10
-62.00212862717609
 20
17.83134241566064
 30
0.0
 10
-62.00124926785058
 20
17.89548432603232
 30
0.0
 10
-62.00081350208173
 20
17.92510517063807
 30
0.0
 10
-62.0003155991119
 20
17.9585827528548
 30
0.0
 10
-62.00021058462714
 20
17.96562067980583
 30
0.0
 10
-62.00011243174845
 20
17.97219703572694
 30
0.0
 10
-62.00009534414032
 20
17.97334180835572
 30
0.0
 10
-62.00006946379424
 20
17.97507568144291
 30
0.0
 10
-62.00006027245895
 20
17.9756914773914
 30
0.0
 10
-62.00003964355048
 20
17.9770736367131
 30
0.0
 10
-62.00003344992598
 20
17.9774887185392
 30
0.0
 10
-62.00001826878473
 20
17.9785062552916
 30
0.0
 10
-62.00001400187868
 20
17.97879252889074
 30
0.0
 10
-62.00000552212366
 20
17.97936173549185
 30
0.0
 10
-62.00000202239127
 20
17.97959710727986
 30
0.0
 10
-61.9999995771535
 20
17.97976173397674
 30
0.0
  0
SPLINE
  5
20EF6
330
20EE1
100
AcDbEntity
  8
$AUDIT_BAD_LAYER1
  6
$AUDIT_BAD_LTYPE2
100
AcDbSpline
210
0.0
220
0.0
230
1.0
 70
     8
 71
     3
 72
    10
 73
     6
 74
     0
 42
0.000000001
 43
0.0000000001
 40
0.0
 40
0.0
 40
0.0
 40
0.0
 40
0.0019466740895273
 40
0.0019466740895273
 40
0.0023991238129982
 40
0.0023991238129982
 40
0.0023991238129982
 40
0.0023991238129982
 10
-62.00005163213397
 20
17.97999968278088
 30
0.0
 10
-62.00003469693562
 20
17.98499307472829
 30
0.0
 10
-62.00001897380751
 20
17.99025611759103
 30
0.0
 10
-62.00000472049879
 20
17.99652675572672
 30
0.0
 10
-62.00000238084676
 20
17.99771183426689
 30
0.0
 10
-62.00000014506341
 20
17.99888127651343
 30
0.0
  0
SPLINE
  5
20EF7
330
20EE1
100
AcDbEntity
  8
$AUDIT_BAD_LAYER1
  6
$AUDIT_BAD_LTYPE2
100
AcDbSpline
210
0.0
220
0.0
230
1.0
 70
     8
 71
     3
 72
     8
 73
     4
 74
     0
 42
0.000000001
 43
0.0000000001
 40
0.0
 40
0.0
 40
0.0
 40
0.0
 40
0.0008022221882565
 40
0.0008022221882565
 40
0.0008022221882565
 40
0.0008022221882565
 10
-62.00001109133634
 20
17.98000011091745
 30
0.0
 10
-62.00000754539155
 20
17.98109121530498
 30
0.0
 10
-62.0000036173371
 20
17.98235225180287
 30
0.0
 10
-61.99999977258478
 20
17.9835993197861
 30
0.0
  0
SPLINE
  5
20EF8
330
20EE1
100
AcDbEntity
  8
$AUDIT_BAD_LAYER1
  6
$AUDIT_BAD_LTYPE2
100
AcDbSpline
210
0.0
220
0.0
230
1.0
 70
     8
 71
     3
 72
    10
 73
     6
 74
     0
 42
0.000000001
 43
0.0000000001
 40
0.0232532771165106
 40
0.0232532771165106
 40
0.0232532771165106
 40
0.0232532771165106
 40
0.0252496248042466
 40
0.0252496248042466
 40
0.0256532772353184
 40
0.0256532772353184
 40
0.0256532772353184
 40
0.0256532772353184
 10
-64.10911031373561
 20
20.45839589120015
 30
0.0
 10
-64.11537013538704
 20
20.45949715729002
 30
0.0
 10
-64.12167850361486
 20
20.46060329685463
 30
0.0
 10
-64.12924067486201
 20
20.46192671507722
 30
0.0
 10
-64.13051241003357
 20
20.4621491879473
 30
0.0
 10
-64.13178372212446
 20
20.46237151110315
 30
0.0
  0
ARC
  5
20EF9
330
20EE1
100
AcDbEntity
  8
$AUDIT_BAD_LAYER1
  6
$AUDIT_BAD_LTYPE2
100
AcDbCircle
 10
-57.99999999999998
 20
2.0
 30
0.0
 40
4.000000000000003
100
AcDbArc
 50
180.0
 51
270.0
  0
ARC
  5
20EFA
330
20EE1
100
AcDbEntity
  8
$AUDIT_BAD_LAYER1
  6
$AUDIT_BAD_LTYPE2
100
AcDbCircle
 10
-57.99999999999998
 20
2.0
 30
0.0
 40
2.000000000000001
100
AcDbArc
 50
180.0
 51
270.0
  0
ARC
  5
20EFB
330
20EE1
100
AcDbEntity
  8
$AUDIT_BAD_LAYER1
  6
$AUDIT_BAD_LTYPE2
100
AcDbCircle
 10
57.99999999999998
 20
2.0
 30
0.0
 40
4.000000000000003
100
AcDbArc
 50
270.0
 51
0.0
  0
LINE
  5
20EFC
330
20EE1
100
AcDbEntity
  8
$AUDIT_BAD_LAYER1
  6
$AUDIT_BAD_LTYPE2
100
AcDbLine
 10
64.1317591116654
 20
20.46251060667354
 30
0.0
 11
91.67995039702375
 21
25.32
 31
0.0
  0
LINE
  5
20EFD
330
20EE1
100
AcDbEntity
  8
$AUDIT_BAD_LAYER1
  6
$AUDIT_BAD_LTYPE2
100
AcDbLine
 10
91.67995039702375
 20
25.32
 30
0.0
 11
101.5
 21
33.55999999999998
 31
0.0
  0
LINE
  5
20EFE
330
20EE1
100
AcDbEntity
  8
$AUDIT_BAD_LAYER1
  6
$AUDIT_BAD_LTYPE2
100
AcDbLine
 10
60.0
 20
25.31999999999998
 30
0.0
 11
60.0
 21
33.55999999999998
 31
0.0
  0
LINE
  5
20EFF
330
20EE1
100
AcDbEntity
  8
$AUDIT_BAD_LAYER1
  6
$AUDIT_BAD_LTYPE2
100
AcDbLine
 10
61.99999999999999
 20
25.31999999999998
 30
0.0
 11
60.0
 21
25.31999999999998
 31
0.0
  0
LINE
  5
20F00
330
20EE1
100
AcDbEntity
  8
$AUDIT_BAD_LAYER1
  6
$AUDIT_BAD_LTYPE2
100
AcDbLine
 10
61.99999999999999
 20
33.55999999999998
 30
0.0
 11
61.99999999999999
 21
25.31999999999998
 31
0.0
  0
LINE
  5
20F01
330
20EE1
100
AcDbEntity
  8
$AUDIT_BAD_LAYER1
  6
$AUDIT_BAD_LTYPE2
100
AcDbLine
 10
61.99999999999999
 20
33.55999999999998
 30
0.0
 11
60.0
 21
33.55999999999998
 31
0.0
  0
LINE
  5
20F02
330
20EE1
100
AcDbEntity
  8
$AUDIT_BAD_LAYER1
  6
$AUDIT_BAD_LTYPE2
100
AcDbLine
 10
60.0
 20
20.7270010777362
 30
0.0
 11
60.0
 21
25.31999999999998
 31
0.0
  0
LINE
  5
20F03
330
20EE1
100
AcDbEntity
  8
$AUDIT_BAD_LAYER1
  6
$AUDIT_BAD_LTYPE2
100
AcDbLine
 10
61.99999999999999
 20
25.31999999999998
 30
0.0
 11
61.99999999999999
 21
20.7270010777362
 31
0.0
  0
LINE
  5
20F04
330
20EE1
100
AcDbEntity
  8
$AUDIT_BAD_LAYER1
  6
$AUDIT_BAD_LTYPE2
100
AcDbLine
 10
60.0
 20
20.72700107773618
 30
0.0
 11
60.0
 21
15.80296231267514
 31
0.0
  0
LINE
  5
20F05
330
20EE1
100
AcDbEntity
  8
$AUDIT_BAD_LAYER1
  6
$AUDIT_BAD_LTYPE2
100
AcDbLine
 10
62.0
 20
15.80296231267514
 30
0.0
 11
62.0
 21
20.72700107773618
 31
0.0
  0
LINE
  5
20F06
330
20EE1
100
AcDbEntity
  8
$AUDIT_BAD_LAYER1
  6
$AUDIT_BAD_LTYPE2
100
AcDbLine
 10
60.0
 20
33.55999999999998
 30
0.0
 11
60.0
 21
159.9999999999999
 31
0.0
  0
LINE
  5
20F07
330
20EE1
100
AcDbEntity
  8
$AUDIT_BAD_LAYER1
  6
$AUDIT_BAD_LTYPE2
100
AcDbLine
 10
61.99999999999999
 20
159.9999999999999
 30
0.0
 11
61.99999999999999
 21
33.55999999999998
 31
0.0
  0
LINE
  5
20F08
330
20EE1
100
AcDbEntity
  8
$AUDIT_BAD_LAYER1
  6
$AUDIT_BAD_LTYPE2
100
AcDbLine
 10
60.0
 20
159.9999999999999
 30
0.0
 11
61.99999999999999
 21
159.9999999999999
 31
0.0
  0
LINE
  5
20F09
330
20EE1
100
AcDbEntity
  8
$AUDIT_BAD_LAYER1
  6
$AUDIT_BAD_LTYPE2
100
AcDbLine
 10
101.5
 20
33.55999999999998
 30
0.0
 11
101.5
 21
160.0
 31
0.0
  0
LINE
  5
20F0A
330
20EE1
100
AcDbEntity
  8
$AUDIT_BAD_LAYER1
  6
$AUDIT_BAD_LTYPE2
100
AcDbLine
 10
61.99999999999999
 20
15.80296231267514
 30
0.0
 11
61.99999999999999
 21
1.999999999999999
 31
0.0
  0
LINE
  5
20F0B
330
20EE1
100
AcDbEntity
  8
$AUDIT_BAD_LAYER1
  6
$AUDIT_BAD_LTYPE2
100
AcDbLine
 10
59.99999999999999
 20
2.0
 30
0.0
 11
60.0
 21
15.80296231267514
 31
0.0
  0
ARC
  5
20F0C
330
20EE1
100
AcDbEntity
  8
$AUDIT_BAD_LAYER1
  6
$AUDIT_BAD_LTYPE2
100
AcDbCircle
 10
57.99999999999998
 20
2.0
 30
0.0
 40
2.000000000000001
100
AcDbArc
 50
270.0
 51
0.0
  0
LINE
  5
20F0D
330
20EE1
100
AcDbEntity
  8
$AUDIT_BAD_LAYER1
  6
$AUDIT_BAD_LTYPE2
100
AcDbLine
 10
64.0
 20
160.0
 30
0.0
 11
62.0
 21
160.0
 31
0.0
  0
LINE
  5
20F0E
330
20EE1
100
AcDbEntity
  8
$AUDIT_BAD_LAYER1
  6
$AUDIT_BAD_LTYPE2
100
AcDbLine
 10
101.5
 20
160.0
 30
0.0
 11
64.0
 21
160.0
 31
0.0
  0
CIRCLE
  5
20F0F
330
20EE1
100
AcDbEntity
  8
$AUDIT_BAD_LAYER1
  6
$AUDIT_BAD_LTYPE2
100
AcDbCircle
 10
82.0
 20
140.0
 30
0.0
 40
6.5
  0
CIRCLE
  5
20F10
330
20EE1
100
AcDbEntity
  8
$AUDIT_BAD_LAYER1
  6
$AUDIT_BAD_LTYPE2
100
AcDbCircle
 10
93.0
 20
155.0
 30
0.0
 40
2.5
  0
CIRCLE
  5
20F11
330
20EE1
100
AcDbEntity
  8
$AUDIT_BAD_LAYER1
  6
$AUDIT_BAD_LTYPE2
100
AcDbCircle
 10
-82.0
 20
40.0
 30
0.0
 40
6.5
  0
CIRCLE
  5
20F12
330
20EE1
100
AcDbEntity
  8
$AUDIT_BAD_LAYER1
  6
$AUDIT_BAD_LTYPE2
100
AcDbCircle
 10
82.0
 20
40.0
 30
0.0
 40
6.5
  0
CIRCLE
  5
20F13
330
20EE1
100
AcDbEntity
  8
$AUDIT_BAD_LAYER1
  6
$AUDIT_BAD_LTYPE2
100
AcDbCircle
 10
-82.0
 20
140.0
 30
0.0
 40
6.5
  0
CIRCLE
  5
20F14
330
20EE1
100
AcDbEntity
  8
$AUDIT_BAD_LAYER1
  6
$AUDIT_BAD_LTYPE2
100
AcDbCircle
 10
-71.0
 20
45.0
 30
0.0
 40
2.5
  0
CIRCLE
  5
20F15
330
20EE1
100
AcDbEntity
  8
$AUDIT_BAD_LAYER1
  6
$AUDIT_BAD_LTYPE2
100
AcDbCircle
 10
-71.0
 20
65.0
 30
0.0
 40
2.5
  0
CIRCLE
  5
20F16
330
20EE1
100
AcDbEntity
  8
$AUDIT_BAD_LAYER1
  6
$AUDIT_BAD_LTYPE2
100
AcDbCircle
 10
-71.0
 20
85.0
 30
0.0
 40
2.5
  0
CIRCLE
  5
20F17
330
20EE1
100
AcDbEntity
  8
$AUDIT_BAD_LAYER1
  6
$AUDIT_BAD_LTYPE2
100
AcDbCircle
 10
-71.0
 20
105.0
 30
0.0
 40
2.5
  0
CIRCLE
  5
20F18
330
20EE1
100
AcDbEntity
  8
$AUDIT_BAD_LAYER1
  6
$AUDIT_BAD_LTYPE2
100
AcDbCircle
 10
-71.0
 20
125.0
 30
0.0
 40
2.5
  0
CIRCLE
  5
20F19
330
20EE1
100
AcDbEntity
  8
$AUDIT_BAD_LAYER1
  6
$AUDIT_BAD_LTYPE2
100
AcDbCircle
 10
71.0
 20
45.0
 30
0.0
 40
2.5
  0
CIRCLE
  5
20F1A
330
20EE1
100
AcDbEntity
  8
$AUDIT_BAD_LAYER1
  6
$AUDIT_BAD_LTYPE2
100
AcDbCircle
 10
71.0
 20
65.0
 30
0.0
 40
2.5
  0
CIRCLE
  5
20F1B
330
20EE1
100
AcDbEntity
  8
$AUDIT_BAD_LAYER1
  6
$AUDIT_BAD_LTYPE2
100
AcDbCircle
 10
71.0
 20
85.0
 30
0.0
 40
2.5
  0
CIRCLE
  5
20F1C
330
20EE1
100
AcDbEntity
  8
$AUDIT_BAD_LAYER1
  6
$AUDIT_BAD_LTYPE2
100
AcDbCircle
 10
71.0
 20
105.0
 30
0.0
 40
2.5
  0
CIRCLE
  5
20F1D
330
20EE1
100
AcDbEntity
  8
$AUDIT_BAD_LAYER1
  6
$AUDIT_BAD_LTYPE2
100
AcDbCircle
 10
71.0
 20
125.0
 30
0.0
 40
2.5
  0
CIRCLE
  5
20F1E
330
20EE1
100
AcDbEntity
  8
$AUDIT_BAD_LAYER1
  6
$AUDIT_BAD_LTYPE2
100
AcDbCircle
 10
-71.0
 20
145.0
 30
0.0
 40
2.5
  0
CIRCLE
  5
20F1F
330
20EE1
100
AcDbEntity
  8
$AUDIT_BAD_LAYER1
  6
$AUDIT_BAD_LTYPE2
100
AcDbCircle
 10
71.0
 20
145.0
 30
0.0
 40
2.5
  0
CIRCLE
  5
20F20
330
20EE1
100
AcDbEntity
  8
$AUDIT_BAD_LAYER1
  6
$AUDIT_BAD_LTYPE2
100
AcDbCircle
 10
-93.0
 20
35.0
 30
0.0
 40
2.5
  0
CIRCLE
  5
20F21
330
20EE1
100
AcDbEntity
  8
$AUDIT_BAD_LAYER1
  6
$AUDIT_BAD_LTYPE2
100
AcDbCircle
 10
-93.0
 20
55.0
 30
0.0
 40
2.5
  0
CIRCLE
  5
20F22
330
20EE1
100
AcDbEntity
  8
$AUDIT_BAD_LAYER1
  6
$AUDIT_BAD_LTYPE2
100
AcDbCircle
 10
-93.0
 20
75.0
 30
0.0
 40
2.5
  0
CIRCLE
  5
20F23
330
20EE1
100
AcDbEntity
  8
$AUDIT_BAD_LAYER1
  6
$AUDIT_BAD_LTYPE2
100
AcDbCircle
 10
-93.0
 20
95.0
 30
0.0
 40
2.5
  0
CIRCLE
  5
20F24
330
20EE1
100
AcDbEntity
  8
$AUDIT_BAD_LAYER1
  6
$AUDIT_BAD_LTYPE2
100
AcDbCircle
 10
-93.0
 20
115.0
 30
0.0
 40
2.5
  0
CIRCLE
  5
20F25
330
20EE1
100
AcDbEntity
  8
$AUDIT_BAD_LAYER1
  6
$AUDIT_BAD_LTYPE2
100
AcDbCircle
 10
-93.0
 20
135.0
 30
0.0
 40
2.5
  0
CIRCLE
  5
20F26
330
20EE1
100
AcDbEntity
  8
$AUDIT_BAD_LAYER1
  6
$AUDIT_BAD_LTYPE2
100
AcDbCircle
 10
93.0
 20
35.0
 30
0.0
 40
2.5
  0
CIRCLE
  5
20F27
330
20EE1
100
AcDbEntity
  8
$AUDIT_BAD_LAYER1
  6
$AUDIT_BAD_LTYPE2
100
AcDbCircle
 10
93.0
 20
55.0
 30
0.0
 40
2.5
  0
CIRCLE
  5
20F28
330
20EE1
100
AcDbEntity
  8
$AUDIT_BAD_LAYER1
  6
$AUDIT_BAD_LTYPE2
100
AcDbCircle
 10
93.0
 20
75.0
 30
0.0
 40
2.5
  0
CIRCLE
  5
20F29
330
20EE1
100
AcDbEntity
  8
$AUDIT_BAD_LAYER1
  6
$AUDIT_BAD_LTYPE2
100
AcDbCircle
 10
93.0
 20
95.0
 30
0.0
 40
2.5
  0
CIRCLE
  5
20F2A
330
20EE1
100
AcDbEntity
  8
$AUDIT_BAD_LAYER1
  6
$AUDIT_BAD_LTYPE2
100
AcDbCircle
 10
93.0
 20
115.0
 30
0.0
 40
2.5
  0
CIRCLE
  5
20F2B
330
20EE1
100
AcDbEntity
  8
$AUDIT_BAD_LAYER1
  6
$AUDIT_BAD_LTYPE2
100
AcDbCircle
 10
93.0
 20
135.0
 30
0.0
 40
2.5
  0
CIRCLE
  5
20F2C
330
20EE1
100
AcDbEntity
  8
$AUDIT_BAD_LAYER1
  6
$AUDIT_BAD_LTYPE2
100
AcDbCircle
 10
-93.0
 20
155.0
 30
0.0
 40
2.5
  0
LINE
  5
20F2D
330
20EE1
100
AcDbEntity
  8
$AUDIT_BAD_LAYER1
  6
$AUDIT_BAD_LTYPE2
100
AcDbLine
 10
-101.5
 20
160.0
 30
0.0
 11
-64.0
 21
160.0
 31
0.0
  0
LINE
  5
20F2E
330
20EE1
100
AcDbEntity
  8
$AUDIT_BAD_LAYER1
  6
$AUDIT_BAD_LTYPE2
100
AcDbLine
 10
-101.5
 20
33.55999999999998
 30
0.0
 11
-101.5
 21
160.0
 31
0.0
  0
LINE
  5
20F2F
330
20EE1
100
AcDbEntity
  8
$AUDIT_BAD_LAYER1
  6
$AUDIT_BAD_LTYPE2
100
AcDbLine
 10
-61.99999999999999
 20
15.80296231267514
 30
0.0
 11
-61.99999999999999
 21
1.999999999999999
 31
0.0
  0
LINE
  5
20F30
330
20EE1
100
AcDbEntity
  8
$AUDIT_BAD_LAYER1
  6
$AUDIT_BAD_LTYPE2
100
AcDbLine
 10
-59.99999999999999
 20
2.0
 30
0.0
 11
-60.0
 21
15.80296231267514
 31
0.0
  0
LINE
  5
20F31
330
20EE1
100
AcDbEntity
  8
$AUDIT_BAD_LAYER1
  6
$AUDIT_BAD_LTYPE2
100
AcDbLine
 10
-101.5
 20
33.55999999999998
 30
0.0
 11
-91.67995039702375
 21
25.32
 31
0.0
  0
LINE
  5
20F32
330
20EE1
100
AcDbEntity
  8
$AUDIT_BAD_LAYER1
  6
$AUDIT_BAD_LTYPE2
100
AcDbLine
 10
-91.67995039702375
 20
25.32
 30
0.0
 11
-64.1317591116654
 21
20.46251060667354
 31
0.0
  0
LINE
  5
20F33
330
20EE1
100
AcDbEntity
  8
$AUDIT_BAD_LAYER1
  6
$AUDIT_BAD_LTYPE2
100
AcDbLine
 10
-60.0
 20
33.55999999999998
 30
0.0
 11
-60.0
 21
25.31999999999998
 31
0.0
  0
LINE
  5
20F34
330
20EE1
100
AcDbEntity
  8
$AUDIT_BAD_LAYER1
  6
$AUDIT_BAD_LTYPE2
100
AcDbLine
 10
-61.99999999999999
 20
33.55999999999998
 30
0.0
 11
-60.0
 21
33.55999999999998
 31
0.0
  0
LINE
  5
20F35
330
20EE1
100
AcDbEntity
  8
$AUDIT_BAD_LAYER1
  6
$AUDIT_BAD_LTYPE2
100
AcDbLine
 10
-61.99999999999999
 20
25.31999999999998
 30
0.0
 11
-61.99999999999999
 21
33.55999999999998
 31
0.0
  0
LINE
  5
20F36
330
20EE1
100
AcDbEntity
  8
$AUDIT_BAD_LAYER1
  6
$AUDIT_BAD_LTYPE2
100
AcDbLine
 10
-61.99999999999999
 20
25.31999999999998
 30
0.0
 11
-60.0
 21
25.31999999999998
 31
0.0
  0
LINE
  5
20F37
330
20EE1
100
AcDbEntity
  8
$AUDIT_BAD_LAYER1
  6
$AUDIT_BAD_LTYPE2
100
AcDbLine
 10
-60.0
 20
25.31999999999998
 30
0.0
 11
-60.0
 21
20.7270010777362
 31
0.0
  0
LINE
  5
20F38
330
20EE1
100
AcDbEntity
  8
$AUDIT_BAD_LAYER1
  6
$AUDIT_BAD_LTYPE2
100
AcDbLine
 10
-61.99999999999999
 20
20.7270010777362
 30
0.0
 11
-61.99999999999999
 21
25.31999999999998
 31
0.0
  0
LINE
  5
20F39
330
20EE1
100
AcDbEntity
  8
$AUDIT_BAD_LAYER1
  6
$AUDIT_BAD_LTYPE2
100
AcDbLine
 10
-60.0
 20
15.80296231267514
 30
0.0
 11
-60.0
 21
20.72700107773618
 31
0.0
  0
LINE
  5
20F3A
330
20EE1
100
AcDbEntity
  8
$AUDIT_BAD_LAYER1
  6
$AUDIT_BAD_LTYPE2
100
AcDbLine
 10
-62.0
 20
20.72700107773618
 30
0.0
 11
-62.0
 21
15.80296231267514
 31
0.0
  0
LINE
  5
20F3B
330
20EE1
100
AcDbEntity
  8
$AUDIT_BAD_LAYER1
  6
$AUDIT_BAD_LTYPE2
100
AcDbLine
 10
-60.0
 20
159.9999999999999
 30
0.0
 11
-60.0
 21
33.55999999999998
 31
0.0
  0
LINE
  5
20F3C
330
20EE1
100
AcDbEntity
  8
$AUDIT_BAD_LAYER1
  6
$AUDIT_BAD_LTYPE2
100
AcDbLine
 10
-61.99999999999999
 20
159.9999999999999
 30
0.0
 11
-60.0
 21
159.9999999999999
 31
0.0
  0
LINE
  5
20F3D
330
20EE1
100
AcDbEntity
  8
$AUDIT_BAD_LAYER1
  6
$AUDIT_BAD_LTYPE2
100
AcDbLine
 10
-61.99999999999999
 20
33.55999999999998
 30
0.0
 11
-61.99999999999999
 21
159.9999999999999
 31
0.0
  0
LINE
  5
20F3E
330
20EE1
100
AcDbEntity
  8
$AUDIT_BAD_LAYER1
  6
$AUDIT_BAD_LTYPE2
100
AcDbLine
 10
-64.0
 20
160.0
 30
0.0
 11
-62.0
 21
160.0
 31
0.0
  0
LINE
  5
20F3F
330
20EE1
100
AcDbEntity
  8
$AUDIT_BAD_LAYER1
  6
$AUDIT_BAD_LTYPE2
100
AcDbLine
 10
-57.99999999999998
 20
0.0
 30
0.0
 11
57.99999999999998
 21
0.0
 31
0.0
  0
LINE
  5
20F40
330
20EE1
100
AcDbEntity
  8
$AUDIT_BAD_LAYER1
  6
$AUDIT_BAD_LTYPE2
100
AcDbLine
 10
57.99999999999998
 20
-2.0
 30
0.0
 11
-58.0
 21
-2.000000000000003
 31
0.0
  0
ENDBLK
  5
20EE3
330
20EE1
100
AcDbEntity
  8
0
100
AcDbBlockEnd
  0
BLOCK
  5
20F42
330
20F41
100
AcDbEntity
  8
0
100
AcDbBlockBegin
  2
SAEL440_120_2-Left
 70
     0
 10
0.0
 20
0.0
 30
0.0
  3
SAEL440_120_2-Left
  1

  0
SPLINE
  5
20F44
330
20F41
100
AcDbEntity
  8
$AUDIT_BAD_LAYER1
  6
$AUDIT_BAD_LTYPE2
100
AcDbSpline
210
0.0
220
0.0
230
1.0
 70
     8
 71
     3
 72
    11
 73
     7
 74
     0
 42
0.000000001
 43
0.0000000001
 40
0.0
 40
0.0
 40
0.0
 40
0.0
 40
0.2630945547161085
 40
0.2630945547161085
 40
0.2630945547161085
 40
0.3972400822821814
 40
0.3972400822821814
 40
0.3972400822821814
 40
0.3972400822821814
 10
0.0000000000000112
 20
20.46251060667354
 30
0.0
 10
0.0000028677165569
 20
20.38069514173349
 30
0.0
 10
0.1353978454043217
 20
20.31746038278805
 30
0.0
 10
0.3412741588127315
 20
20.23491903390194
 30
0.0
 10
0.4462454939486099
 20
20.19283320356505
 30
0.0
 10
0.5677281833488141
 20
20.14503122422266
 30
0.0
 10
0.6963018294326431
 20
20.08521696157153
 30
0.0
  0
SPLINE
  5
20F45
330
20F41
100
AcDbEntity
  8
$AUDIT_BAD_LAYER1
  6
$AUDIT_BAD_LTYPE2
100
AcDbSpline
210
0.0
220
0.0
230
1.0
 70
     8
 71
     3
 72
    11
 73
     7
 74
     0
 42
0.000000001
 43
0.0000000001
 40
0.6188797066548505
 40
0.6188797066548505
 40
0.6188797066548505
 40
0.6188797066548505
 40
0.6652191719141123
 40
0.6652191719141123
 40
0.6652191719141123
 40
0.7872173741273745
 40
0.7872173741273745
 40
0.7872173741273745
 40
0.7872173741273745
 10
1.349185177613343
 20
19.66196171570948
 30
0.0
 10
1.39281066317054
 20
19.62165001716814
 30
0.0
 10
1.435424978283595
 20
19.57866354119566
 30
0.0
 10
1.476639799435389
 20
19.532742751292
 30
0.0
 10
1.585146318812089
 20
19.4118467983259
 30
0.0
 10
1.684106522888634
 20
19.27059179165541
 30
0.0
 10
1.766114387250122
 20
19.10417322232575
 30
0.0
  0
LINE
  5
20F46
330
20F41
100
AcDbEntity
  8
$AUDIT_BAD_LAYER1
  6
$AUDIT_BAD_LTYPE2
100
AcDbLine
 10
1.538368177321159
 20
20.46251060667354
 30
0.0
 11
1.383941423759853
 21
20.46251060667354
 31
0.0
  0
LINE
  5
20F47
330
20F41
100
AcDbEntity
  8
$AUDIT_BAD_LAYER1
  6
$AUDIT_BAD_LTYPE2
100
AcDbLine
 10
1.844810131988584
 20
20.46251060667354
 30
0.0
 11
1.690952694398899
 21
20.46251060667354
 31
0.0
  0
LINE
  5
20F48
330
20F41
100
AcDbEntity
  8
$AUDIT_BAD_LAYER1
  6
$AUDIT_BAD_LTYPE2
100
AcDbLine
 10
0.1517362809568679
 20
20.46251060667354
 30
0.0
 11
0.0
 21
20.46251060667354
 31
0.0
  0
SPLINE
  5
20F49
330
20F41
100
AcDbEntity
  8
$AUDIT_BAD_LAYER1
  6
$AUDIT_BAD_LTYPE2
100
AcDbSpline
210
0.0
220
0.0
230
1.0
 70
     8
 71
     3
 72
    14
 73
    10
 74
     0
 42
0.000000001
 43
0.0000000001
 40
0.0
 40
0.0
 40
0.0
 40
0.0
 40
0.3894396598380812
 40
0.3894396598380812
 40
0.3894396598380812
 40
0.7616502545815789
 40
0.7616502545815789
 40
0.7616502545815789
 40
0.7796363604937766
 40
0.7796363604937766
 40
0.7796363604937766
 40
0.7796363604937766
 10
0.0000000000000201
 20
20.46251060667353
 30
0.0
 10
0.0000033433566216
 20
20.33776639077812
 30
0.0
 10
0.304972940833605
 20
20.26547024796273
 30
0.0
 10
0.6743917851221668
 20
20.09548616920226
 30
0.0
 10
1.027467298281947
 20
19.93302229719017
 30
0.0
 10
1.439329893842722
 20
19.68674518552487
 30
0.0
 10
1.712905503790862
 20
19.20538682861201
 30
0.0
 10
1.726125331396554
 20
19.18212644185402
 30
0.0
 10
1.738972926477472
 20
19.15845076921064
 30
0.0
 10
1.751430085838606
 20
19.13432463220597
 30
0.0
  0
SPLINE
  5
20F4A
330
20F41
100
AcDbEntity
  8
$AUDIT_BAD_LAYER1
  6
$AUDIT_BAD_LTYPE2
100
AcDbSpline
210
0.0
220
0.0
230
1.0
 70
     8
 71
     3
 72
    11
 73
     7
 74
     0
 42
0.000000001
 43
0.0000000001
 40
-1.0
 40
-1.0
 40
-1.0
 40
-1.0
 40
-0.3390351070006217
 40
-0.3390351070006217
 40
-0.3390351070006217
 40
0.0
 40
0.0
 40
0.0
 40
0.0
 10
2.000000000000049
 20
17.97999999999997
 30
0.0
 10
2.000833819687422
 20
18.78635074308109
 30
0.0
 10
2.000388046962358
 20
19.52027911606933
 30
0.0
 10
2.000035420164184
 20
19.98476209981335
 30
0.0
 10
1.999854543894482
 20
20.22301384322897
 30
0.0
 10
1.999932245804235
 20
20.38726839694996
 30
0.0
 10
1.999999998863066
 20
20.4625106067675
 30
0.0
  0
SPLINE
  5
20F4B
330
20F41
100
AcDbEntity
  8
$AUDIT_BAD_LAYER1
  6
$AUDIT_BAD_LTYPE2
100
AcDbSpline
210
0.0
220
0.0
230
1.0
 70
     8
 71
     3
 72
    16
 73
    12
 74
     0
 42
0.000000001
 43
0.0000000001
 40
0.0
 40
0.0
 40
0.0
 40
0.0
 40
0.0049219080264324
 40
0.0049219080264324
 40
0.0069182795935559
 40
0.0069182795935559
 40
0.0084527771680141
 40
0.0084527771680141
 40
0.0110611483554546
 40
0.0110611483554546
 40
0.0118237643895477
 40
0.0118237643895477
 40
0.0118237643895477
 40
0.0118237643895477
 10
1.999592629569374
 20
17.97999883586679
 30
0.0
 10
1.99955742465498
 20
17.99579395043556
 30
0.0
 10
1.999474683935753
 20
18.01126002412294
 30
0.0
 10
1.999316282970852
 20
18.02942511418969
 30
0.0
 10
1.999265630885009
 20
18.03430634275318
 30
0.0
 10
1.999176054615631
 20
18.04188020926125
 30
0.0
 10
1.999136845183843
 20
18.04484538816552
 30
0.0
 10
1.999040911371185
 20
18.05156636849488
 30
0.0
 10
1.998989908995847
 20
18.05450395888376
 30
0.0
 10
1.998965309018836
 20
18.05587119441628
 30
0.0
 10
1.998962341019016
 20
18.05602864704547
 30
0.0
 10
1.998962340999316
 20
18.05602864809216
 30
0.0
  0
SPLINE
  5
20F4C
330
20F41
100
AcDbEntity
  8
$AUDIT_BAD_LAYER1
  6
$AUDIT_BAD_LTYPE2
100
AcDbSpline
210
0.0
220
0.0
230
1.0
 70
     8
 71
     3
 72
    10
 73
     6
 74
     0
 42
0.000000001
 43
0.0000000001
 40
0.0107640585185159
 40
0.0107640585185159
 40
0.0107640585185159
 40
0.0107640585185159
 40
0.0125679541301892
 40
0.0125679541301892
 40
0.0137556701159231
 40
0.0137556701159231
 40
0.0137556701159231
 40
0.0137556701159231
 10
1.999514033054175
 20
18.00192068849249
 30
0.0
 10
1.999495164759113
 20
18.00269364877363
 30
0.0
 10
1.999481028625702
 20
18.00325886487605
 30
0.0
 10
1.999468047946909
 20
18.00377959643357
 30
0.0
 10
1.999465381557056
 20
18.00388574474375
 30
0.0
 10
1.999465381509734
 20
18.00388574663024
 30
0.0
  0
SPLINE
  5
20F4D
330
20F41
100
AcDbEntity
  8
$AUDIT_BAD_LAYER1
  6
$AUDIT_BAD_LTYPE2
100
AcDbSpline
210
0.0
220
0.0
230
1.0
 70
     8
 71
     3
 72
    34
 73
    30
 74
     0
 42
0.000000001
 43
0.0000000001
 40
0.0085780242076509
 40
0.0085780242076509
 40
0.0085780242076509
 40
0.0085780242076509
 40
0.0104272733649255
 40
0.0104272733649255
 40
0.012859275008829
 40
0.012859275008829
 40
0.014836260775749
 40
0.014836260775749
 40
0.0169851862714424
 40
0.0169851862714424
 40
0.0209646191677497
 40
0.0209646191677497
 40
0.029584143823084
 40
0.029584143823084
 40
0.0478975297088463
 40
0.0478975297088463
 40
0.0879500222233824
 40
0.0879500222233824
 40
0.1313692203803181
 40
0.1313692203803181
 40
0.1471376724033852
 40
0.1471376724033852
 40
0.1510005201704823
 40
0.1510005201704823
 40
0.153290559739871
 40
0.153290559739871
 40
0.1546200820507141
 40
0.1546200820507141
 40
0.1552388244671538
 40
0.1552388244671538
 40
0.1552388244671538
 40
0.1552388244671538
 10
1.999517233989648
 20
18.00165054250269
 30
0.0
 10
1.999449934252148
 20
18.0043562707736
 30
0.0
 10
1.999369882884099
 20
18.00745144601884
 30
0.0
 10
1.999146119702808
 20
18.01570913109451
 30
0.0
 10
1.998978576772942
 20
18.02160579906263
 30
0.0
 10
1.998589690539544
 20
18.03403925462006
 30
0.0
 10
1.998382444509998
 20
18.0402835079943
 30
0.0
 10
1.997909809312496
 20
18.05353168144365
 30
0.0
 10
1.997637738738693
 20
18.06065914917689
 30
0.0
 10
1.996807344896269
 20
18.08097405997808
 30
0.0
 10
1.996197104716088
 20
18.09430077778572
 30
0.0
 10
1.99406517726965
 20
18.13618987201634
 30
0.0
 10
1.992295927185319
 20
18.1647106818481
 30
0.0
 10
1.98584621888018
 20
18.2524771077379
 30
0.0
 10
1.980110788379843
 20
18.31072632226435
 30
0.0
 10
1.957228513057713
 20
18.49320195024282
 30
0.0
 10
1.934422884347761
 20
18.61558063373591
 30
0.0
 10
1.867228094309553
 20
18.86572321644065
 30
0.0
 10
1.819949535701796
 20
18.99480640955373
 30
0.0
 10
1.741322496624073
 20
19.15509215480158
 30
0.0
 10
1.718035909933874
 20
19.19785081283889
 30
0.0
 10
1.693534736597824
 20
19.23965914054334
 30
0.0
 10
1.688953468597332
 20
19.24731261704708
 30
0.0
 10
1.683274689866711
 20
19.25668896491315
 30
0.0
 10
1.681508843824438
 20
19.25957583015385
 30
0.0
 10
1.679708594173193
 20
19.26251009664015
 30
0.0
 10
1.679252633671263
 20
19.26325062225766
 30
0.0
 10
1.678933312392148
 20
19.26376912001956
 30
0.0
 10
1.678882176560732
 20
19.2638520814492
 30
0.0
 10
1.678882176292904
 20
19.26385208188379
 30
0.0
  0
LINE
  5
20F4E
330
20F41
100
AcDbEntity
  8
$AUDIT_BAD_LAYER1
  6
$AUDIT_BAD_LTYPE2
100
AcDbLine
 10
2.000000000000063
 20
1.999999999999996
 30
0.0
 11
2.000000000000059
 21
-2.0
 31
0.0
  0
LINE
  5
20F4F
330
20F41
100
AcDbEntity
  8
$AUDIT_BAD_LAYER1
  6
$AUDIT_BAD_LTYPE2
100
AcDbLine
 10
2.000000000000063
 20
1.999999999999996
 30
0.0
 11
2.000000000000063
 21
17.97999999999997
 31
0.0
  0
LINE
  5
20F50
330
20F41
100
AcDbEntity
  8
$AUDIT_BAD_LAYER1
  6
$AUDIT_BAD_LTYPE2
100
AcDbLine
 10
2.000000000000006
 20
-2.0
 30
0.0
 11
86.00000000000001
 21
-2.000000000000003
 31
0.0
  0
LINE
  5
20F51
330
20F41
100
AcDbEntity
  8
$AUDIT_BAD_LAYER1
  6
$AUDIT_BAD_LTYPE2
100
AcDbLine
 10
86.00000000000001
 20
-2.000000000000003
 30
0.0
 11
86.00000000000001
 21
2.0
 31
0.0
  0
LINE
  5
20F52
330
20F41
100
AcDbEntity
  8
$AUDIT_BAD_LAYER1
  6
$AUDIT_BAD_LTYPE2
100
AcDbLine
 10
1.999999999999984
 20
33.55999999999998
 30
0.0
 11
2.00000000000001
 21
160.0
 31
0.0
  0
LINE
  5
20F53
330
20F41
100
AcDbEntity
  8
$AUDIT_BAD_LAYER1
  6
$AUDIT_BAD_LTYPE2
100
AcDbLine
 10
0.0
 20
160.0
 30
0.0
 11
2.00000000000001
 21
160.0
 31
0.0
  0
LINE
  5
20F54
330
20F41
100
AcDbEntity
  8
$AUDIT_BAD_LAYER1
  6
$AUDIT_BAD_LTYPE2
100
AcDbLine
 10
0.0
 20
33.55999999999998
 30
0.0
 11
0.0
 21
160.0
 31
0.0
  0
LINE
  5
20F55
330
20F41
100
AcDbEntity
  8
$AUDIT_BAD_LAYER1
  6
$AUDIT_BAD_LTYPE2
100
AcDbLine
 10
4.000000000000003
 20
160.0
 30
0.0
 11
46.00000000000001
 21
159.9999999999999
 31
0.0
  0
LINE
  5
20F56
330
20F41
100
AcDbEntity
  8
$AUDIT_BAD_LAYER1
  6
$AUDIT_BAD_LTYPE2
100
AcDbLine
 10
86.00000000000003
 20
15.80296231267514
 30
0.0
 11
86.00000000000001
 21
1.999999999999999
 31
0.0
  0
LINE
  5
20F57
330
20F41
100
AcDbEntity
  8
$AUDIT_BAD_LAYER1
  6
$AUDIT_BAD_LTYPE2
100
AcDbLine
 10
1.999999999999984
 20
33.55999999999998
 30
0.0
 11
1.999999999999984
 21
25.32
 31
0.0
  0
LINE
  5
20F58
330
20F41
100
AcDbEntity
  8
$AUDIT_BAD_LAYER1
  6
$AUDIT_BAD_LTYPE2
100
AcDbLine
 10
1.999999999999984
 20
25.32
 30
0.0
 11
2.000000000000005
 21
20.46251060667354
 31
0.0
  0
LINE
  5
20F59
330
20F41
100
AcDbEntity
  8
$AUDIT_BAD_LAYER1
  6
$AUDIT_BAD_LTYPE2
100
AcDbLine
 10
0.0
 20
20.46251060667354
 30
0.0
 11
0.0
 21
25.32
 31
0.0
  0
LINE
  5
20F5A
330
20F41
100
AcDbEntity
  8
$AUDIT_BAD_LAYER1
  6
$AUDIT_BAD_LTYPE2
100
AcDbLine
 10
1.999999999999984
 20
25.32
 30
0.0
 11
0.0
 21
25.32
 31
0.0
  0
LINE
  5
20F5B
330
20F41
100
AcDbEntity
  8
$AUDIT_BAD_LAYER1
  6
$AUDIT_BAD_LTYPE2
100
AcDbLine
 10
0.0
 20
25.32
 30
0.0
 11
0.0
 21
33.55999999999998
 31
0.0
  0
LINE
  5
20F5C
330
20F41
100
AcDbEntity
  8
$AUDIT_BAD_LAYER1
  6
$AUDIT_BAD_LTYPE2
100
AcDbLine
 10
0.0
 20
33.55999999999998
 30
0.0
 11
1.999999999999984
 21
33.55999999999998
 31
0.0
  0
LINE
  5
20F5D
330
20F41
100
AcDbEntity
  8
$AUDIT_BAD_LAYER1
  6
$AUDIT_BAD_LTYPE2
100
AcDbLine
 10
55.82004960297632
 20
25.31999999999998
 30
0.0
 11
46.00000000000003
 21
33.55999999999998
 31
0.0
  0
LINE
  5
20F5E
330
20F41
100
AcDbEntity
  8
$AUDIT_BAD_LAYER1
  6
$AUDIT_BAD_LTYPE2
100
AcDbLine
 10
81.8682408883347
 20
20.7270010777362
 30
0.0
 11
55.82004960297632
 21
25.31999999999998
 31
0.0
  0
ARC
  5
20F5F
330
20F41
100
AcDbEntity
  8
$AUDIT_BAD_LAYER1
  6
$AUDIT_BAD_LTYPE2
100
AcDbCircle
 10
81.00000000000003
 20
15.80296231267514
 30
0.0
 40
5.0
100
AcDbArc
 50
0.0
 51
79.9999999999998
  0
LINE
  5
20F60
330
20F41
100
AcDbEntity
  8
$AUDIT_BAD_LAYER1
  6
$AUDIT_BAD_LTYPE2
100
AcDbLine
 10
46.00000000000003
 20
33.55999999999998
 30
0.0
 11
46.00000000000001
 21
159.9999999999999
 31
0.0
  0
LINE
  5
20F61
330
20F41
100
AcDbEntity
  8
$AUDIT_BAD_LAYER1
  6
$AUDIT_BAD_LTYPE2
100
AcDbLine
 10
2.000000000000002
 20
160.0
 30
0.0
 11
4.000000000000003
 21
160.0
 31
0.0
  0
CIRCLE
  5
20F62
330
20F41
100
AcDbEntity
  8
$AUDIT_BAD_LAYER1
  6
$AUDIT_BAD_LTYPE2
100
AcDbCircle
 10
38.50000000000001
 20
35.0
 30
0.0
 40
2.5
  0
CIRCLE
  5
20F63
330
20F41
100
AcDbEntity
  8
$AUDIT_BAD_LAYER1
  6
$AUDIT_BAD_LTYPE2
100
AcDbCircle
 10
38.50000000000001
 20
55.0
 30
0.0
 40
2.5
  0
CIRCLE
  5
20F64
330
20F41
100
AcDbEntity
  8
$AUDIT_BAD_LAYER1
  6
$AUDIT_BAD_LTYPE2
100
AcDbCircle
 10
38.50000000000001
 20
75.0
 30
0.0
 40
2.5
  0
CIRCLE
  5
20F65
330
20F41
100
AcDbEntity
  8
$AUDIT_BAD_LAYER1
  6
$AUDIT_BAD_LTYPE2
100
AcDbCircle
 10
38.50000000000001
 20
95.0
 30
0.0
 40
2.5
  0
CIRCLE
  5
20F66
330
20F41
100
AcDbEntity
  8
$AUDIT_BAD_LAYER1
  6
$AUDIT_BAD_LTYPE2
100
AcDbCircle
 10
38.50000000000001
 20
115.0
 30
0.0
 40
2.5
  0
CIRCLE
  5
20F67
330
20F41
100
AcDbEntity
  8
$AUDIT_BAD_LAYER1
  6
$AUDIT_BAD_LTYPE2
100
AcDbCircle
 10
38.50000000000001
 20
135.0
 30
0.0
 40
2.5
  0
CIRCLE
  5
20F68
330
20F41
100
AcDbEntity
  8
$AUDIT_BAD_LAYER1
  6
$AUDIT_BAD_LTYPE2
100
AcDbCircle
 10
38.50000000000001
 20
155.0
 30
0.0
 40
2.5
  0
ENDBLK
  5
20F43
330
20F41
100
AcDbEntity
  8
0
100
AcDbBlockEnd
  0
BLOCK
  5
20F6A
330
20F69
100
AcDbEntity
  8
0
100
AcDbBlockBegin
  2
SAEL440_120_2-Right
 70
     0
 10
0.0
 20
0.0
 30
0.0
  3
SAEL440_120_2-Right
  1

  0
SPLINE
  5
20F6C
330
20F69
100
AcDbEntity
  8
$AUDIT_BAD_LAYER1
  6
$AUDIT_BAD_LTYPE2
100
AcDbSpline
210
0.0
220
0.0
230
1.0
 70
     8
 71
     3
 72
    17
 73
    13
 74
     0
 42
0.000000001
 43
0.0000000001
 40
0.0
 40
0.0
 40
0.0
 40
0.0
 40
0.2630945547161085
 40
0.2630945547161085
 40
0.2630945547161085
 40
0.6652191719141123
 40
0.6652191719141123
 40
0.6652191719141123
 40
0.9355086585230559
 40
0.9355086585230559
 40
0.9355086585230559
 40
1.0
 40
1.0
 40
1.0
 40
1.0
 10
-0.0000000000000112
 20
20.46251060667354
 30
0.0
 10
-0.0000028677165569
 20
20.38069514173349
 30
0.0
 10
-0.1353978454043217
 20
20.31746038278805
 30
0.0
 10
-0.3412741588127315
 20
20.23491903390194
 30
0.0
 10
-0.6559440454959629
 20
20.10875941665085
 30
0.0
 10
-1.11898581948928
 20
19.93123418743875
 30
0.0
 10
-1.476639799435389
 20
19.532742751292
 30
0.0
 10
-1.717038189608253
 20
19.26489532020292
 30
0.0
 10
-1.910578205246872
 20
18.8971148643135
 30
0.0
 10
-1.97671971994605
 20
18.37715260116541
 30
0.0
 10
-1.992501151417109
 20
18.25308908582668
 30
0.0
 10
-1.999065688200625
 20
18.1196428648332
 30
0.0
 10
-1.999999999999948
 20
17.97999999999995
 30
0.0
  0
SPLINE
  5
20F6D
330
20F69
100
AcDbEntity
  8
$AUDIT_BAD_LAYER1
  6
$AUDIT_BAD_LTYPE2
100
AcDbSpline
210
0.0
220
0.0
230
1.0
 70
     8
 71
     3
 72
    14
 73
    10
 74
     0
 42
0.000000001
 43
0.0000000001
 40
0.0
 40
0.0
 40
0.0
 40
0.0
 40
0.2870001856655311
 40
0.2870001856655311
 40
0.2870001856655311
 40
0.8282911262687633
 40
0.8282911262687633
 40
0.8282911262687633
 40
1.0
 40
1.0
 40
1.0
 40
1.0
 10
-1.999999999999976
 20
20.46251060667355
 30
0.0
 10
-2.000346318721107
 20
20.3991148918471
 30
0.0
 10
-2.000215842365227
 20
20.27267956156299
 30
0.0
 10
-2.000098106197917
 20
20.0895668245275
 30
0.0
 10
-1.999876052262313
 20
19.74421072158098
 30
0.0
 10
-2.000046339026493
 20
19.21065167214058
 30
0.0
 10
-2.000163544094715
 20
18.59085729583434
 30
0.0
 10
-2.000200724008049
 20
18.39424548078735
 30
0.0
 10
-2.000026720759574
 20
18.18874755652457
 30
0.0
 10
-2.000000000000085
 20
17.97999999999993
 30
0.0
  0
SPLINE
  5
20F6E
330
20F69
100
AcDbEntity
  8
$AUDIT_BAD_LAYER1
  6
$AUDIT_BAD_LTYPE2
100
AcDbSpline
210
0.0
220
0.0
230
1.0
 70
     8
 71
     3
 72
     8
 73
     4
 74
     0
 42
0.000000001
 43
0.0000000001
 40
0.3972932997733642
 40
0.3972932997733642
 40
0.3972932997733642
 40
0.3972932997733642
 40
0.6189293334752991
 40
0.6189293334752991
 40
0.6189293334752991
 40
0.6189293334752991
 10
-0.6968181212420831
 20
20.0850888464625
 30
0.0
 10
-0.9084849812957173
 20
19.98620213205987
 30
0.0
 10
-1.139521640119742
 20
19.8564659656138
 30
0.0
 10
-1.348319373719147
 20
19.6639427677284
 30
0.0
  0
SPLINE
  5
20F6F
330
20F69
100
AcDbEntity
  8
$AUDIT_BAD_LAYER1
  6
$AUDIT_BAD_LTYPE2
100
AcDbSpline
210
0.0
220
0.0
230
1.0
 70
     8
 71
     3
 72
     8
 73
     4
 74
     0
 42
0.000000001
 43
0.0000000001
 40
0.8191480548193309
 40
0.8191480548193309
 40
0.8191480548193309
 40
0.8191480548193309
 40
0.9812142249016002
 40
0.9812142249016002
 40
0.9812142249016002
 40
0.9812142249016002
 10
-1.827681793746871
 20
18.96842986451764
 30
0.0
 10
-1.923680180872005
 20
18.73167502667889
 30
0.0
 10
-1.984731782006523
 20
18.4520718672652
 30
0.0
 10
-1.997519385884104
 20
18.10388428908908
 30
0.0
  0
SPLINE
  5
20F70
330
20F69
100
AcDbEntity
  8
$AUDIT_BAD_LAYER1
  6
$AUDIT_BAD_LTYPE2
100
AcDbSpline
210
0.0
220
0.0
230
1.0
 70
     8
 71
     3
 72
    10
 73
     6
 74
     0
 42
0.000000001
 43
0.0000000001
 40
0.0224113132932352
 40
0.0224113132932352
 40
0.0224113132932352
 40
0.0224113132932352
 40
0.0241472640510325
 40
0.0241472640510325
 40
0.024725240891209
 40
0.024725240891209
 40
0.024725240891209
 40
0.024725240891209
 10
-1.999514409894164
 20
18.00173110008355
 30
0.0
 10
-1.999540946324052
 20
17.99646998953707
 30
0.0
 10
-1.999562490359622
 20
17.99103968182426
 30
0.0
 10
-1.999583769159281
 20
17.98369907267592
 30
0.0
 10
-1.999588495476444
 20
17.98185364712284
 30
0.0
 10
-1.999592629569375
 20
17.97999883586679
 30
0.0
  0
SPLINE
  5
20F71
330
20F69
100
AcDbEntity
  8
$AUDIT_BAD_LAYER1
  6
$AUDIT_BAD_LTYPE2
100
AcDbSpline
210
0.0
220
0.0
230
1.0
 70
     8
 71
     3
 72
    12
 73
     8
 74
     0
 42
0.000000001
 43
0.0000000001
 40
0.0085430897939042
 40
0.0085430897939042
 40
0.0085430897939042
 40
0.0085430897939042
 40
0.0108850349283809
 40
0.0108850349283809
 40
0.01782501447829
 40
0.01782501447829
 40
0.0205934069653229
 40
0.0205934069653229
 40
0.0205934069653229
 40
0.0205934069653229
 10
-1.999465381509805
 20
18.00388574662738
 30
0.0
 10
-1.999465381509387
 20
18.00388574664404
 30
0.0
 10
-1.999475770998785
 20
18.00347370252341
 30
0.0
 10
-1.999552945815673
 20
18.00034082394964
 30
0.0
 10
-1.999715717341184
 20
17.9934177674346
 30
0.0
 10
-1.999878566063624
 20
17.98552558777293
 30
0.0
 10
-1.999916774306796
 20
17.98357408219006
 30
0.0
 10
-1.999944488249987
 20
17.98212124716893
 30
0.0
  0
SPLINE
  5
20F72
330
20F69
100
AcDbEntity
  8
$AUDIT_BAD_LAYER1
  6
$AUDIT_BAD_LTYPE2
100
AcDbSpline
210
0.0
220
0.0
230
1.0
 70
     8
 71
     3
 72
     8
 73
     4
 74
     0
 42
0.000000001
 43
0.0000000001
 40
0.0315135600503014
 40
0.0315135600503014
 40
0.0315135600503014
 40
0.0315135600503014
 40
0.0522786968878206
 40
0.0522786968878206
 40
0.0522786968878206
 40
0.0522786968878206
 10
-1.999919449692413
 20
17.98475932441559
 30
0.0
 10
-1.999919449694902
 20
17.98475932421792
 30
0.0
 10
-1.999932383625464
 20
17.9841403195978
 30
0.0
 10
-1.99996061977178
 20
17.97999974342193
 30
0.0
  0
SPLINE
  5
20F73
330
20F69
100
AcDbEntity
  8
$AUDIT_BAD_LAYER1
  6
$AUDIT_BAD_LTYPE2
100
AcDbSpline
210
0.0
220
0.0
230
1.0
 70
     8
 71
     3
 72
    28
 73
    24
 74
     0
 42
0.000000001
 43
0.0000000001
 40
0.1836284379934377
 40
0.1836284379934377
 40
0.1836284379934377
 40
0.1836284379934377
 40
0.2176281549658971
 40
0.2176281549658971
 40
0.2546915838357913
 40
0.2546915838357913
 40
0.2790630623481416
 40
0.2790630623481416
 40
0.2840385776262126
 40
0.2840385776262126
 40
0.2876483071666325
 40
0.2876483071666325
 40
0.2894164183187366
 40
0.2894164183187366
 40
0.2911162025473802
 40
0.2911162025473802
 40
0.2932011256423962
 40
0.2932011256423962
 40
0.2951178058282695
 40
0.2951178058282695
 40
0.2984015966027002
 40
0.2984015966027002
 40
0.3016647837637158
 40
0.3016647837637158
 40
0.3016647837637158
 40
0.3016647837637158
 10
-1.804574783904796
 20
19.01998272387577
 30
0.0
 10
-1.845631817985337
 20
18.92370219737195
 30
0.0
 10
-1.879406635553687
 20
18.82282740526798
 30
0.0
 10
-1.935236612117494
 20
18.60948951167411
 30
0.0
 10
-1.956353247846065
 20
18.49622302250217
 30
0.0
 10
-1.98116973045012
 20
18.30454641144565
 30
0.0
 10
-1.988467763498092
 20
18.22652962017561
 30
0.0
 10
-1.994366978838133
 20
18.12971094928301
 30
0.0
 10
-1.995267849798683
 20
18.11316637268376
 30
0.0
 10
-1.996642712936186
 20
18.08458787972299
 30
0.0
 10
-1.99716907351692
 20
18.07248600364227
 30
0.0
 10
-1.997862263558839
 20
18.05475565721741
 30
0.0
 10
-1.998076615464737
 20
18.0489451196034
 30
0.0
 10
-1.998460301317442
 20
18.03794276820863
 30
0.0
 10
-1.998632898599696
 20
18.03267663767984
 30
0.0
 10
-1.998962897159981
 20
18.02208145948501
 30
0.0
 10
-1.99911044760791
 20
18.01694906869245
 30
0.0
 10
-1.999333423601603
 20
18.00884256678067
 30
0.0
 10
-1.999417967051593
 20
18.00558314714684
 30
0.0
 10
-1.999613860910946
 20
17.9977808724064
 30
0.0
 10
-1.999706269300965
 20
17.99376839451254
 30
0.0
 10
-1.999849487750606
 20
17.98730570262142
 30
0.0
 10
-1.999899963304702
 20
17.98488447196746
 30
0.0
 10
-1.999937280656253
 20
17.9830435773631
 30
0.0
  0
LINE
  5
20F74
330
20F69
100
AcDbEntity
  8
$AUDIT_BAD_LAYER1
  6
$AUDIT_BAD_LTYPE2
100
AcDbLine
 10
-1.999999999999937
 20
17.97999999999996
 30
0.0
 11
-1.999999999999937
 21
1.999999999999995
 31
0.0
  0
LINE
  5
20F75
330
20F69
100
AcDbEntity
  8
$AUDIT_BAD_LAYER1
  6
$AUDIT_BAD_LTYPE2
100
AcDbLine
 10
-1.999999999999941
 20
-2.000000000000003
 30
0.0
 11
-1.999999999999937
 21
1.999999999999996
 31
0.0
  0
LINE
  5
20F76
330
20F69
100
AcDbEntity
  8
$AUDIT_BAD_LAYER1
  6
$AUDIT_BAD_LTYPE2
100
AcDbLine
 10
-86.00000000000001
 20
-2.000000000000003
 30
0.0
 11
-86.00000000000001
 21
2.0
 31
0.0
  0
LINE
  5
20F77
330
20F69
100
AcDbEntity
  8
$AUDIT_BAD_LAYER1
  6
$AUDIT_BAD_LTYPE2
100
AcDbLine
 10
-2.000000000000006
 20
-2.0
 30
0.0
 11
-86.00000000000001
 21
-2.0
 31
0.0
  0
LINE
  5
20F78
330
20F69
100
AcDbEntity
  8
$AUDIT_BAD_LAYER1
  6
$AUDIT_BAD_LTYPE2
100
AcDbLine
 10
0.0
 20
33.55999999999998
 30
0.0
 11
0.0
 21
160.0
 31
0.0
  0
LINE
  5
20F79
330
20F69
100
AcDbEntity
  8
$AUDIT_BAD_LAYER1
  6
$AUDIT_BAD_LTYPE2
100
AcDbLine
 10
0.0
 20
33.55999999999998
 30
0.0
 11
0.0
 21
25.32
 31
0.0
  0
LINE
  5
20F7A
330
20F69
100
AcDbEntity
  8
$AUDIT_BAD_LAYER1
  6
$AUDIT_BAD_LTYPE2
100
AcDbLine
 10
0.0
 20
25.32
 30
0.0
 11
0.0
 21
20.46251060667354
 31
0.0
  0
CIRCLE
  5
20F7B
330
20F69
100
AcDbEntity
  8
$AUDIT_BAD_LAYER1
  6
$AUDIT_BAD_LTYPE2
100
AcDbCircle
 10
-38.50000000000004
 20
145.0
 30
0.0
 40
2.5
  0
LINE
  5
20F7C
330
20F69
100
AcDbEntity
  8
$AUDIT_BAD_LAYER1
  6
$AUDIT_BAD_LTYPE2
100
AcDbLine
 10
-1.999999999999984
 20
25.32
 30
0.0
 11
0.0
 21
25.32
 31
0.0
  0
LINE
  5
20F7D
330
20F69
100
AcDbEntity
  8
$AUDIT_BAD_LAYER1
  6
$AUDIT_BAD_LTYPE2
100
AcDbLine
 10
-2.000000000000005
 20
20.46251060667354
 30
0.0
 11
-1.999999999999984
 21
25.32
 31
0.0
  0
LINE
  5
20F7E
330
20F69
100
AcDbEntity
  8
$AUDIT_BAD_LAYER1
  6
$AUDIT_BAD_LTYPE2
100
AcDbLine
 10
-1.999999999999984
 20
33.55999999999998
 30
0.0
 11
0.0
 21
33.55999999999998
 31
0.0
  0
LINE
  5
20F7F
330
20F69
100
AcDbEntity
  8
$AUDIT_BAD_LAYER1
  6
$AUDIT_BAD_LTYPE2
100
AcDbLine
 10
-1.999999999999984
 20
25.32
 30
0.0
 11
-1.999999999999984
 21
33.55999999999998
 31
0.0
  0
LINE
  5
20F80
330
20F69
100
AcDbEntity
  8
$AUDIT_BAD_LAYER1
  6
$AUDIT_BAD_LTYPE2
100
AcDbLine
 10
-46.00000000000003
 20
33.55999999999998
 30
0.0
 11
-55.82004960297632
 21
25.31999999999998
 31
0.0
  0
LINE
  5
20F81
330
20F69
100
AcDbEntity
  8
$AUDIT_BAD_LAYER1
  6
$AUDIT_BAD_LTYPE2
100
AcDbLine
 10
-55.82004960297632
 20
25.31999999999998
 30
0.0
 11
-81.8682408883347
 21
20.7270010777362
 31
0.0
  0
ARC
  5
20F82
330
20F69
100
AcDbEntity
  8
$AUDIT_BAD_LAYER1
  6
$AUDIT_BAD_LTYPE2
100
AcDbCircle
 10
-81.00000000000003
 20
15.80296231267514
 30
0.0
 40
5.0
100
AcDbArc
 50
100.0000000000001
 51
180.0
  0
LINE
  5
20F83
330
20F69
100
AcDbEntity
  8
$AUDIT_BAD_LAYER1
  6
$AUDIT_BAD_LTYPE2
100
AcDbLine
 10
-46.00000000000001
 20
159.9999999999999
 30
0.0
 11
-46.00000000000003
 21
33.55999999999998
 31
0.0
  0
LINE
  5
20F84
330
20F69
100
AcDbEntity
  8
$AUDIT_BAD_LAYER1
  6
$AUDIT_BAD_LTYPE2
100
AcDbLine
 10
0.0
 20
160.0
 30
0.0
 11
-2.00000000000001
 21
160.0
 31
0.0
  0
LINE
  5
20F85
330
20F69
100
AcDbEntity
  8
$AUDIT_BAD_LAYER1
  6
$AUDIT_BAD_LTYPE2
100
AcDbLine
 10
-1.999999999999984
 20
33.55999999999998
 30
0.0
 11
-2.00000000000001
 21
160.0
 31
0.0
  0
LINE
  5
20F86
330
20F69
100
AcDbEntity
  8
$AUDIT_BAD_LAYER1
  6
$AUDIT_BAD_LTYPE2
100
AcDbLine
 10
-86.00000000000003
 20
15.80296231267514
 30
0.0
 11
-86.00000000000001
 21
1.999999999999999
 31
0.0
  0
LINE
  5
20F87
330
20F69
100
AcDbEntity
  8
$AUDIT_BAD_LAYER1
  6
$AUDIT_BAD_LTYPE2
100
AcDbLine
 10
-4.000000000000003
 20
160.0
 30
0.0
 11
-46.00000000000001
 21
159.9999999999999
 31
0.0
  0
LINE
  5
20F88
330
20F69
100
AcDbEntity
  8
$AUDIT_BAD_LAYER1
  6
$AUDIT_BAD_LTYPE2
100
AcDbLine
 10
-2.000000000000002
 20
160.0
 30
0.0
 11
-4.000000000000003
 21
160.0
 31
0.0
  0
CIRCLE
  5
20F89
330
20F69
100
AcDbEntity
  8
$AUDIT_BAD_LAYER1
  6
$AUDIT_BAD_LTYPE2
100
AcDbCircle
 10
-38.50000000000004
 20
44.99999999999999
 30
0.0
 40
2.5
  0
CIRCLE
  5
20F8A
330
20F69
100
AcDbEntity
  8
$AUDIT_BAD_LAYER1
  6
$AUDIT_BAD_LTYPE2
100
AcDbCircle
 10
-38.50000000000004
 20
64.99999999999999
 30
0.0
 40
2.5
  0
CIRCLE
  5
20F8B
330
20F69
100
AcDbEntity
  8
$AUDIT_BAD_LAYER1
  6
$AUDIT_BAD_LTYPE2
100
AcDbCircle
 10
-38.50000000000004
 20
84.99999999999998
 30
0.0
 40
2.5
  0
CIRCLE
  5
20F8C
330
20F69
100
AcDbEntity
  8
$AUDIT_BAD_LAYER1
  6
$AUDIT_BAD_LTYPE2
100
AcDbCircle
 10
-38.50000000000004
 20
105.0
 30
0.0
 40
2.5
  0
CIRCLE
  5
20F8D
330
20F69
100
AcDbEntity
  8
$AUDIT_BAD_LAYER1
  6
$AUDIT_BAD_LTYPE2
100
AcDbCircle
 10
-38.50000000000004
 20
125.0
 30
0.0
 40
2.5
  0
ENDBLK
  5
20F6B
330
20F69
100
AcDbEntity
  8
0
100
AcDbBlockEnd
  0
BLOCK
  5
20F8F
330
20F8E
100
AcDbEntity
  8
0
100
AcDbBlockBegin
  2
SAEL440_120_2-Top
 70
     0
 10
0.0
 20
0.0
 30
0.0
  3
SAEL440_120_2-Top
  1

  0
SPLINE
  5
20F91
330
20F8E
100
AcDbEntity
  8
$AUDIT_BAD_LAYER1
  6
$AUDIT_BAD_LTYPE2
100
AcDbSpline
210
0.0
220
0.0
230
1.0
 70
     8
 71
     3
 72
    14
 73
    10
 74
     0
 42
0.000000001
 43
0.0000000001
 40
0.5188985697048141
 40
0.5188985697048141
 40
0.5188985697048141
 40
0.5188985697048141
 40
0.6652191719141123
 40
0.6652191719141123
 40
0.6652191719141123
 40
0.9355086585230559
 40
0.9355086585230559
 40
0.9355086585230559
 40
1.0
 40
1.0
 40
1.0
 40
1.0
 10
61.28994262301865
 20
-1.056587465078876
 30
0.0
 10
61.06011017592128
 20
-1.202408152843503
 30
0.0
 10
60.85050242187691
 20
-1.34650067467124
 30
0.0
 10
60.66915930661611
 20
-1.476639799435389
 30
0.0
 10
60.33417478096609
 20
-1.717038189608253
 30
0.0
 10
60.10858645395323
 20
-1.910578205246872
 30
0.0
 10
60.02755061002438
 20
-1.97671971994605
 30
0.0
 10
60.00821537672227
 20
-1.992501151417109
 30
0.0
 10
60.00000613706447
 20
-1.999065688200625
 30
0.0
 10
59.99999999999992
 20
-1.999999999999948
 30
0.0
  0
LINE
  5
20F92
330
20F8E
100
AcDbEntity
  8
$AUDIT_BAD_LAYER1
  6
$AUDIT_BAD_LTYPE2
100
AcDbLine
 10
59.99999999999992
 20
-1.999999999999939
 30
0.0
 11
59.99999999999992
 21
-2.071110112491385
 31
0.0
  0
LINE
  5
20F93
330
20F8E
100
AcDbEntity
  8
$AUDIT_BAD_LAYER1
  6
$AUDIT_BAD_LTYPE2
100
AcDbLine
 10
64.1317591116654
 20
-1.999999999999976
 30
0.0
 11
64.13050953112814
 21
-2.000001201933995
 31
0.0
  0
SPLINE
  5
20F94
330
20F8E
100
AcDbEntity
  8
$AUDIT_BAD_LAYER1
  6
$AUDIT_BAD_LTYPE2
100
AcDbSpline
210
0.0
220
0.0
230
1.0
 70
     8
 71
     3
 72
    12
 73
     8
 74
     0
 42
0.000000001
 43
0.0000000001
 40
0.0
 40
0.0
 40
0.0
 40
0.0
 40
0.0081091830917232
 40
0.0081091830917232
 40
0.0105804424815338
 40
0.0105804424815338
 40
0.0106499985675639
 40
0.0106499985675639
 40
0.0106499985675639
 40
0.0106499985675639
 10
59.99994632570929
 20
-3.999998158186299
 30
0.0
 10
59.99998260553013
 20
-3.987607235588444
 30
0.0
 10
60.00002888859459
 20
-3.975890565758697
 30
0.0
 10
60.00006245451953
 20
-3.96840825046327
 30
0.0
 10
60.00006754915641
 20
-3.967305420282658
 30
0.0
 10
60.00006781890539
 20
-3.967245380486308
 30
0.0
 10
60.0000678226084
 20
-3.967244554654369
 30
0.0
 10
60.00006782260665
 20
-3.96724455504144
 30
0.0
  0
SPLINE
  5
20F95
330
20F8E
100
AcDbEntity
  8
$AUDIT_BAD_LAYER1
  6
$AUDIT_BAD_LTYPE2
100
AcDbSpline
210
0.0
220
0.0
230
1.0
 70
     8
 71
     3
 72
    28
 73
    24
 74
     0
 42
0.000000001
 43
0.0000000001
 40
0.0042907746304316
 40
0.0042907746304316
 40
0.0042907746304316
 40
0.0042907746304316
 40
0.0051876093636981
 40
0.0051876093636981
 40
0.0061263172995245
 40
0.0061263172995245
 40
0.0079768761447684
 40
0.0079768761447684
 40
0.0112147101250271
 40
0.0112147101250271
 40
0.020925152109977
 40
0.020925152109977
 40
0.0500626265440458
 40
0.0500626265440458
 40
0.1375020958195364
 40
0.1375020958195364
 40
0.177945209074274
 40
0.177945209074274
 40
0.1982096987180109
 40
0.1982096987180109
 40
0.2084411946127913
 40
0.2084411946127913
 40
0.2194255528590681
 40
0.2194255528590681
 40
0.2194255528590681
 40
0.2194255528590681
 10
59.99995503002622
 20
-3.997074847020419
 30
0.0
 10
59.99994485158965
 20
-3.996408609575798
 30
0.0
 10
59.99993011431463
 20
-3.995442901871954
 30
0.0
 10
59.99988166731192
 20
-3.992255353103942
 30
0.0
 10
59.99984656082625
 20
-3.98993844404841
 30
0.0
 10
59.99973523327722
 20
-3.982540772919489
 30
0.0
 10
59.99965254923019
 20
-3.976984770492344
 30
0.0
 10
59.99943057407897
 20
-3.961856114638471
 30
0.0
 10
59.99928994933603
 20
-3.9520441981077
 30
0.0
 10
59.99874222992492
 20
-3.912844935294907
 30
0.0
 10
59.99836131203217
 20
-3.883328773199484
 30
0.0
 10
59.99697551063661
 20
-3.765728651985538
 30
0.0
 10
59.99625326420517
 20
-3.678418624876118
 30
0.0
 10
59.9944417894678
 20
-3.332148520313311
 30
0.0
 10
59.99528354583127
 20
-3.071110941558469
 30
0.0
 10
59.99701851742025
 20
-2.675217701910002
 30
0.0
 10
59.99760379693057
 20
-2.549494985682061
 30
0.0
 10
59.99858527622115
 20
-2.362700667000023
 30
0.0
 10
59.99899452675652
 20
-2.298830873532239
 30
0.0
 10
59.99945061240831
 20
-2.205820988557887
 30
0.0
 10
59.99955931763153
 20
-2.175342756469035
 30
0.0
 10
59.99964494454566
 20
-2.118067422689396
 30
0.0
 10
59.99961660612361
 20
-2.090608441443625
 30
0.0
 10
59.99959654476729
 20
-2.071110112491386
 30
0.0
  0
SPLINE
  5
20F96
330
20F8E
100
AcDbEntity
  8
$AUDIT_BAD_LAYER1
  6
$AUDIT_BAD_LTYPE2
100
AcDbSpline
210
0.0
220
0.0
230
1.0
 70
     8
 71
     3
 72
    10
 73
     6
 74
     0
 42
0.000000001
 43
0.0000000001
 40
0.0
 40
0.0
 40
0.0
 40
0.0
 40
0.0142578775560593
 40
0.0142578775560593
 40
0.0186060998823974
 40
0.0186060998823974
 40
0.0186060998823974
 40
0.0186060998823974
 10
64.13050983550981
 20
-2.000001198236915
 30
0.0
 10
64.08339548127294
 20
-2.000046197985485
 30
0.0
 10
64.03611102325188
 20
-2.000140794716351
 30
0.0
 10
63.97489132275624
 20
-2.000502706379393
 30
0.0
 10
63.96060447391654
 20
-2.000601719222089
 30
0.0
 10
63.94630515696036
 20
-2.000720913971503
 30
0.0
  0
SPLINE
  5
20F97
330
20F8E
100
AcDbEntity
  8
$AUDIT_BAD_LAYER1
  6
$AUDIT_BAD_LTYPE2
100
AcDbSpline
210
0.0
220
0.0
230
1.0
 70
     8
 71
     3
 72
     8
 73
     4
 74
     0
 42
0.000000001
 43
0.0000000001
 40
0.037107042886856
 40
0.037107042886856
 40
0.037107042886856
 40
0.037107042886856
 40
0.0386949747275282
 40
0.0386949747275282
 40
0.0386949747275282
 40
0.0386949747275282
 10
63.9729467104471
 20
-2.000182978489192
 30
0.0
 10
63.97817092694314
 20
-2.000133848648353
 30
0.0
 10
63.98339928573874
 20
-2.000091228252273
 30
0.0
 10
63.98863138565439
 20
-2.000055018194045
 30
0.0
  0
SPLINE
  5
20F98
330
20F8E
100
AcDbEntity
  8
$AUDIT_BAD_LAYER1
  6
$AUDIT_BAD_LTYPE2
100
AcDbSpline
210
0.0
220
0.0
230
1.0
 70
     8
 71
     3
 72
     8
 73
     4
 74
     0
 42
0.000000001
 43
0.0000000001
 40
0.0171163501910585
 40
0.0171163501910585
 40
0.0171163501910585
 40
0.0171163501910585
 40
0.0175573141823203
 40
0.0175573141823203
 40
0.0175573141823203
 40
0.0175573141823203
 10
62.00000281104447
 20
-3.996646767226714
 30
0.0
 10
62.00001167119503
 20
-3.997774957316538
 30
0.0
 10
62.00002078703235
 20
-3.998894106877324
 30
0.0
 10
62.00003012162361
 20
-4.000000899730469
 30
0.0
  0
LINE
  5
20F99
330
20F8E
100
AcDbEntity
  8
$AUDIT_BAD_LAYER1
  6
$AUDIT_BAD_LTYPE2
100
AcDbLine
 10
-60.0
 20
-2.00000000000006
 30
0.0
 11
-60.0
 21
-2.069796039162984
 31
0.0
  0
SPLINE
  5
20F9A
330
20F8E
100
AcDbEntity
  8
$AUDIT_BAD_LAYER1
  6
$AUDIT_BAD_LTYPE2
100
AcDbSpline
210
0.0
220
0.0
230
1.0
 70
     8
 71
     3
 72
    11
 73
     7
 74
     0
 42
0.000000001
 43
0.0000000001
 40
0.5165110364572094
 40
0.5165110364572094
 40
0.5165110364572094
 40
0.5165110364572094
 40
0.7616502545815789
 40
0.7616502545815789
 40
0.7616502545815789
 40
1.0
 40
1.0
 40
1.0
 40
1.0
 10
-61.30103524111468
 20
-1.048721509984198
 30
0.0
 10
-60.91453133236067
 20
-1.292566595519613
 30
0.0
 10
-60.58653163745967
 20
-1.532727636562766
 30
0.0
 10
-60.35494570851229
 20
-1.712905503790862
 30
0.0
 10
-60.12977387501525
 20
-1.888093093571223
 30
0.0
 10
-60.0000006235853
 20
-1.99791204931136
 30
0.0
 10
-59.99999999999385
 20
-1.999999999999912
 30
0.0
  0
SPLINE
  5
20F9B
330
20F8E
100
AcDbEntity
  8
$AUDIT_BAD_LAYER1
  6
$AUDIT_BAD_LTYPE2
100
AcDbSpline
210
0.0
220
0.0
230
1.0
 70
     8
 71
     3
 72
    10
 73
     6
 74
     0
 42
0.000000001
 43
0.0000000001
 40
0.0
 40
0.0
 40
0.0
 40
0.0
 40
0.0072944892606195
 40
0.0072944892606195
 40
0.0085765880398265
 40
0.0085765880398265
 40
0.0085765880398265
 40
0.0085765880398265
 10
-61.18000841691465
 20
-1.163161269083331
 30
0.0
 10
-61.17269480860852
 20
-1.170431529691413
 30
0.0
 10
-61.16785857993705
 20
-1.175173652841056
 30
0.0
 10
-61.16643387238621
 20
-1.176559070816332
 30
0.0
 10
-61.16632639077351
 20
-1.176663007333824
 30
0.0
 10
-61.16632639077124
 20
-1.176663007336002
 30
0.0
  0
SPLINE
  5
20F9C
330
20F8E
100
AcDbEntity
  8
$AUDIT_BAD_LAYER1
  6
$AUDIT_BAD_LTYPE2
100
AcDbSpline
210
0.0
220
0.0
230
1.0
 70
     8
 71
     3
 72
    14
 73
    10
 74
     0
 42
0.000000001
 43
0.0000000001
 40
0.0094375097063867
 40
0.0094375097063867
 40
0.0094375097063867
 40
0.0094375097063867
 40
0.0111326030160934
 40
0.0111326030160934
 40
0.0134302909058856
 40
0.0134302909058856
 40
0.0168843634322678
 40
0.0168843634322678
 40
0.0210563278357873
 40
0.0210563278357873
 40
0.0210563278357873
 40
0.0210563278357873
 10
-60.00014631260849
 20
-3.945150273119133
 30
0.0
 10
-60.00014631259081
 20
-3.945150275956319
 30
0.0
 10
-60.00014139922751
 20
-3.945923555021073
 30
0.0
 10
-60.00012193601002
 20
-3.949007846934862
 30
0.0
 10
-60.000104650893
 20
-3.951773993424513
 30
0.0
 10
-60.00005685462875
 20
-3.960051765886825
 30
0.0
 10
-60.00002414932996
 20
-3.966283487945594
 30
0.0
 10
-59.99995869322248
 20
-3.981300587307549
 30
0.0
 10
-59.99992664642441
 20
-3.990462170557616
 30
0.0
 10
-59.99990096457836
 20
-3.999981642567446
 30
0.0
  0
LINE
  5
20F9D
330
20F8E
100
AcDbEntity
  8
$AUDIT_BAD_LAYER1
  6
$AUDIT_BAD_LTYPE2
100
AcDbLine
 10
-59.99997710527509
 20
-3.998811133039554
 30
0.0
 11
-59.9999800013157
 21
-4.000000006394731
 31
0.0
  0
SPLINE
  5
20F9E
330
20F8E
100
AcDbEntity
  8
$AUDIT_BAD_LAYER1
  6
$AUDIT_BAD_LTYPE2
100
AcDbSpline
210
0.0
220
0.0
230
1.0
 70
     8
 71
     3
 72
    30
 73
    26
 74
     0
 42
0.000000001
 43
0.0000000001
 40
0.0
 40
0.0
 40
0.0
 40
0.0
 40
0.0047534164137762
 40
0.0047534164137762
 40
0.0107387637828196
 40
0.0107387637828196
 40
0.0203950570777552
 40
0.0203950570777552
 40
0.0344622987537158
 40
0.0344622987537158
 40
0.0688230784418581
 40
0.0688230784418581
 40
0.1720269011334441
 40
0.1720269011334441
 40
0.1970318455177147
 40
0.1970318455177147
 40
0.2092864183920863
 40
0.2092864183920863
 40
0.2124618675867262
 40
0.2124618675867262
 40
0.2146768660964858
 40
0.2146768660964858
 40
0.215665116430879
 40
0.215665116430879
 40
0.2163286441927317
 40
0.2163286441927317
 40
0.2163286441927317
 40
0.2163286441927317
 10
-59.99965701828208
 20
-2.069796039162984
 30
0.0
 10
-59.99966799712679
 20
-2.077187544195102
 30
0.0
 10
-59.99967906217328
 20
-2.086869371313469
 30
0.0
 10
-59.99968983277473
 20
-2.110965225786083
 30
0.0
 10
-59.99968518668937
 20
-2.126176442302341
 30
0.0
 10
-59.9996086711522
 20
-2.16819339108681
 30
0.0
 10
-59.99948918137758
 20
-2.196940518721885
 30
0.0
 10
-59.99907159260786
 20
-2.269289234331882
 30
0.0
 10
-59.99874782882919
 20
-2.313578963406436
 30
0.0
 10
-59.99779297324952
 20
-2.462671378071267
 30
0.0
 10
-59.99720203635941
 20
-2.567217286999664
 30
0.0
 10
-59.99481821297827
 20
-2.991639094739376
 30
0.0
 10
-59.99361445589787
 20
-3.302006014317078
 30
0.0
 10
-59.99619338651797
 20
-3.68241219861854
 30
0.0
 10
-59.99689008361977
 20
-3.757324221501151
 30
0.0
 10
-59.99820829557757
 20
-3.869986584968689
 30
0.0
 10
-59.99868906056599
 20
-3.907389288013046
 30
0.0
 10
-59.9993228902601
 20
-3.953283537813264
 30
0.0
 10
-59.99945563469322
 20
-3.962719176216435
 30
0.0
 10
-59.99966972965218
 20
-3.977707642259438
 30
0.0
 10
-59.99975632296909
 20
-3.983695172394727
 30
0.0
 10
-59.99984770204517
 20
-3.989974250571779
 30
0.0
 10
-59.99987065847148
 20
-3.991545774346754
 30
0.0
 10
-59.99989922210875
 20
-3.99349889112814
 30
0.0
 10
-59.9999084507969
 20
-3.994129186540089
 30
0.0
 10
-59.99991611369772
 20
-3.994652186752909
 30
0.0
  0
LINE
  5
20F9F
330
20F8E
100
AcDbEntity
  8
$AUDIT_BAD_LAYER1
  6
$AUDIT_BAD_LTYPE2
100
AcDbLine
 10
-60.0
 20
-2.00000000000006
 30
0.0
 11
-58.0
 21
-2.000000000000059
 31
0.0
  0
LINE
  5
20FA0
330
20F8E
100
AcDbEntity
  8
$AUDIT_BAD_LAYER1
  6
$AUDIT_BAD_LTYPE2
100
AcDbLine
 10
-58.0
 20
-2.000000000000006
 30
0.0
 11
58.0
 21
-2.000000000000006
 31
0.0
  0
LINE
  5
20FA1
330
20F8E
100
AcDbEntity
  8
$AUDIT_BAD_LAYER1
  6
$AUDIT_BAD_LTYPE2
100
AcDbLine
 10
57.99999999999994
 20
-1.999999999999941
 30
0.0
 11
59.99999999999994
 21
-1.999999999999939
 31
0.0
  0
LINE
  5
20FA2
330
20F8E
100
AcDbEntity
  8
$AUDIT_BAD_LAYER1
  6
$AUDIT_BAD_LTYPE2
100
AcDbLine
 10
64.0
 20
0.0
 30
0.0
 11
101.5
 21
0.0
 31
0.0
  0
ARC
  5
20FA3
330
20F8E
100
AcDbEntity
  8
$AUDIT_BAD_LAYER1
  6
$AUDIT_BAD_LTYPE2
100
AcDbCircle
 10
64.0
 20
-4.000000000000004
 30
0.0
 40
4.000000000000003
100
AcDbArc
 50
90.0
 51
180.0
  0
LINE
  5
20FA4
330
20F8E
100
AcDbEntity
  8
$AUDIT_BAD_LAYER1
  6
$AUDIT_BAD_LTYPE2
100
AcDbLine
 10
60.0
 20
-55.82004960297632
 30
0.0
 11
60.0
 21
-46.00000000000003
 31
0.0
  0
LINE
  5
20FA5
330
20F8E
100
AcDbEntity
  8
$AUDIT_BAD_LAYER1
  6
$AUDIT_BAD_LTYPE2
100
AcDbLine
 10
61.99999999999999
 20
-55.82004960297632
 30
0.0
 11
60.0
 21
-55.82004960297632
 31
0.0
  0
LINE
  5
20FA6
330
20F8E
100
AcDbEntity
  8
$AUDIT_BAD_LAYER1
  6
$AUDIT_BAD_LTYPE2
100
AcDbLine
 10
61.99999999999999
 20
-46.00000000000003
 30
0.0
 11
61.99999999999999
 21
-55.82004960297632
 31
0.0
  0
LINE
  5
20FA7
330
20F8E
100
AcDbEntity
  8
$AUDIT_BAD_LAYER1
  6
$AUDIT_BAD_LTYPE2
100
AcDbLine
 10
60.0
 20
-81.8682408883347
 30
0.0
 11
60.0
 21
-55.82004960297632
 31
0.0
  0
LINE
  5
20FA8
330
20F8E
100
AcDbEntity
  8
$AUDIT_BAD_LAYER1
  6
$AUDIT_BAD_LTYPE2
100
AcDbLine
 10
61.99999999999999
 20
-55.82004960297632
 30
0.0
 11
61.99999999999999
 21
-81.8682408883347
 31
0.0
  0
LINE
  5
20FA9
330
20F8E
100
AcDbEntity
  8
$AUDIT_BAD_LAYER1
  6
$AUDIT_BAD_LTYPE2
100
AcDbLine
 10
60.0
 20
-81.8682408883347
 30
0.0
 11
60.0
 21
-86.00000000000003
 31
0.0
  0
LINE
  5
20FAA
330
20F8E
100
AcDbEntity
  8
$AUDIT_BAD_LAYER1
  6
$AUDIT_BAD_LTYPE2
100
AcDbLine
 10
61.99999999999999
 20
-86.00000000000003
 30
0.0
 11
60.0
 21
-86.00000000000003
 31
0.0
  0
LINE
  5
20FAB
330
20F8E
100
AcDbEntity
  8
$AUDIT_BAD_LAYER1
  6
$AUDIT_BAD_LTYPE2
100
AcDbLine
 10
62.0
 20
-86.00000000000003
 30
0.0
 11
62.0
 21
-81.8682408883347
 31
0.0
  0
LINE
  5
20FAC
330
20F8E
100
AcDbEntity
  8
$AUDIT_BAD_LAYER1
  6
$AUDIT_BAD_LTYPE2
100
AcDbLine
 10
60.0
 20
-46.00000000000001
 30
0.0
 11
61.99999999999999
 21
-46.00000000000001
 31
0.0
  0
LINE
  5
20FAD
330
20F8E
100
AcDbEntity
  8
$AUDIT_BAD_LAYER1
  6
$AUDIT_BAD_LTYPE2
100
AcDbLine
 10
101.5
 20
0.0
 30
0.0
 11
101.5
 21
-2.00000000000001
 31
0.0
  0
LINE
  5
20FAE
330
20F8E
100
AcDbEntity
  8
$AUDIT_BAD_LAYER1
  6
$AUDIT_BAD_LTYPE2
100
AcDbLine
 10
62.0
 20
-4.000000000000003
 30
0.0
 11
61.99999999999999
 21
-46.00000000000001
 31
0.0
  0
LINE
  5
20FAF
330
20F8E
100
AcDbEntity
  8
$AUDIT_BAD_LAYER1
  6
$AUDIT_BAD_LTYPE2
100
AcDbLine
 10
60.0
 20
-46.00000000000001
 30
0.0
 11
60.0
 21
-4.000000000000003
 31
0.0
  0
LINE
  5
20FB0
330
20F8E
100
AcDbEntity
  8
$AUDIT_BAD_LAYER1
  6
$AUDIT_BAD_LTYPE2
100
AcDbLine
 10
60.0
 20
-86.00000000000001
 30
0.0
 11
57.99999999999998
 21
-86.00000000000001
 31
0.0
  0
ARC
  5
20FB1
330
20F8E
100
AcDbEntity
  8
$AUDIT_BAD_LAYER1
  6
$AUDIT_BAD_LTYPE2
100
AcDbCircle
 10
64.0
 20
-4.000000000000004
 30
0.0
 40
2.000000000000001
100
AcDbArc
 50
90.0
 51
180.0
  0
LINE
  5
20FB2
330
20F8E
100
AcDbEntity
  8
$AUDIT_BAD_LAYER1
  6
$AUDIT_BAD_LTYPE2
100
AcDbLine
 10
101.5
 20
-2.00000000000001
 30
0.0
 11
64.0
 21
-2.000000000000001
 31
0.0
  0
LINE
  5
20FB3
330
20F8E
100
AcDbEntity
  8
$AUDIT_BAD_LAYER1
  6
$AUDIT_BAD_LTYPE2
100
AcDbLine
 10
-101.5
 20
-2.00000000000001
 30
0.0
 11
-64.0
 21
-2.000000000000001
 31
0.0
  0
LINE
  5
20FB4
330
20F8E
100
AcDbEntity
  8
$AUDIT_BAD_LAYER1
  6
$AUDIT_BAD_LTYPE2
100
AcDbLine
 10
-101.5
 20
0.0
 30
0.0
 11
-101.5
 21
-2.00000000000001
 31
0.0
  0
LINE
  5
20FB5
330
20F8E
100
AcDbEntity
  8
$AUDIT_BAD_LAYER1
  6
$AUDIT_BAD_LTYPE2
100
AcDbLine
 10
-62.0
 20
-4.000000000000003
 30
0.0
 11
-61.99999999999999
 21
-46.00000000000001
 31
0.0
  0
LINE
  5
20FB6
330
20F8E
100
AcDbEntity
  8
$AUDIT_BAD_LAYER1
  6
$AUDIT_BAD_LTYPE2
100
AcDbLine
 10
-60.0
 20
-46.00000000000001
 30
0.0
 11
-60.0
 21
-4.000000000000003
 31
0.0
  0
LINE
  5
20FB7
330
20F8E
100
AcDbEntity
  8
$AUDIT_BAD_LAYER1
  6
$AUDIT_BAD_LTYPE2
100
AcDbLine
 10
-64.0
 20
0.0
 30
0.0
 11
-101.5
 21
0.0
 31
0.0
  0
ARC
  5
20FB8
330
20F8E
100
AcDbEntity
  8
$AUDIT_BAD_LAYER1
  6
$AUDIT_BAD_LTYPE2
100
AcDbCircle
 10
-64.0
 20
-4.000000000000004
 30
0.0
 40
2.000000000000001
100
AcDbArc
 50
0.0
 51
90.0
  0
ARC
  5
20FB9
330
20F8E
100
AcDbEntity
  8
$AUDIT_BAD_LAYER1
  6
$AUDIT_BAD_LTYPE2
100
AcDbCircle
 10
-64.0
 20
-4.000000000000004
 30
0.0
 40
4.000000000000003
100
AcDbArc
 50
0.0
 51
90.0
  0
LINE
  5
20FBA
330
20F8E
100
AcDbEntity
  8
$AUDIT_BAD_LAYER1
  6
$AUDIT_BAD_LTYPE2
100
AcDbLine
 10
-57.99999999999998
 20
-86.00000000000001
 30
0.0
 11
57.99999999999998
 21
-86.00000000000001
 31
0.0
  0
CIRCLE
  5
20FBB
330
20F8E
100
AcDbEntity
  8
$AUDIT_BAD_LAYER1
  6
$AUDIT_BAD_LTYPE2
100
AcDbCircle
 10
0.0
 20
-67.99999999999998
 30
0.0
 40
2.5
  0
CIRCLE
  5
20FBC
330
20F8E
100
AcDbEntity
  8
$AUDIT_BAD_LAYER1
  6
$AUDIT_BAD_LTYPE2
100
AcDbCircle
 10
0.0
 20
-47.99999999999998
 30
0.0
 40
2.5
  0
LINE
  5
20FBD
330
20F8E
100
AcDbEntity
  8
$AUDIT_BAD_LAYER1
  6
$AUDIT_BAD_LTYPE2
100
AcDbLine
 10
-60.0
 20
-46.00000000000003
 30
0.0
 11
-60.0
 21
-55.82004960297632
 31
0.0
  0
LINE
  5
20FBE
330
20F8E
100
AcDbEntity
  8
$AUDIT_BAD_LAYER1
  6
$AUDIT_BAD_LTYPE2
100
AcDbLine
 10
-61.99999999999999
 20
-55.82004960297632
 30
0.0
 11
-61.99999999999999
 21
-46.00000000000003
 31
0.0
  0
LINE
  5
20FBF
330
20F8E
100
AcDbEntity
  8
$AUDIT_BAD_LAYER1
  6
$AUDIT_BAD_LTYPE2
100
AcDbLine
 10
-61.99999999999999
 20
-55.82004960297632
 30
0.0
 11
-60.0
 21
-55.82004960297632
 31
0.0
  0
LINE
  5
20FC0
330
20F8E
100
AcDbEntity
  8
$AUDIT_BAD_LAYER1
  6
$AUDIT_BAD_LTYPE2
100
AcDbLine
 10
-60.0
 20
-55.82004960297632
 30
0.0
 11
-60.0
 21
-81.8682408883347
 31
0.0
  0
LINE
  5
20FC1
330
20F8E
100
AcDbEntity
  8
$AUDIT_BAD_LAYER1
  6
$AUDIT_BAD_LTYPE2
100
AcDbLine
 10
-61.99999999999999
 20
-81.8682408883347
 30
0.0
 11
-61.99999999999999
 21
-55.82004960297632
 31
0.0
  0
LINE
  5
20FC2
330
20F8E
100
AcDbEntity
  8
$AUDIT_BAD_LAYER1
  6
$AUDIT_BAD_LTYPE2
100
AcDbLine
 10
-60.0
 20
-86.00000000000003
 30
0.0
 11
-60.0
 21
-81.8682408883347
 31
0.0
  0
LINE
  5
20FC3
330
20F8E
100
AcDbEntity
  8
$AUDIT_BAD_LAYER1
  6
$AUDIT_BAD_LTYPE2
100
AcDbLine
 10
-62.0
 20
-81.8682408883347
 30
0.0
 11
-62.0
 21
-86.00000000000003
 31
0.0
  0
LINE
  5
20FC4
330
20F8E
100
AcDbEntity
  8
$AUDIT_BAD_LAYER1
  6
$AUDIT_BAD_LTYPE2
100
AcDbLine
 10
-60.0
 20
-86.00000000000003
 30
0.0
 11
-61.99999999999999
 21
-86.00000000000003
 31
0.0
  0
LINE
  5
20FC5
330
20F8E
100
AcDbEntity
  8
$AUDIT_BAD_LAYER1
  6
$AUDIT_BAD_LTYPE2
100
AcDbLine
 10
-61.99999999999999
 20
-46.00000000000001
 30
0.0
 11
-60.0
 21
-46.00000000000001
 31
0.0
  0
LINE
  5
20FC6
330
20F8E
100
AcDbEntity
  8
$AUDIT_BAD_LAYER1
  6
$AUDIT_BAD_LTYPE2
100
AcDbLine
 10
-60.0
 20
-86.00000000000001
 30
0.0
 11
-57.99999999999998
 21
-86.00000000000001
 31
0.0
  0
ENDBLK
  5
20F90
330
20F8E
100
AcDbEntity
  8
0
100
AcDbBlockEnd
  0
BLOCK
  5
20FC8
330
20FC7
100
AcDbEntity
  8
0
100
AcDbBlockBegin
  2
SAEL440_120_2-Bottom
 70
     0
 10
0.0
 20
0.0
 30
0.0
  3
SAEL440_120_2-Bottom
  1

  0
LINE
  5
20FCA
330
20FC7
100
AcDbEntity
  8
$AUDIT_BAD_LAYER1
  6
$AUDIT_BAD_LTYPE2
100
AcDbLine
 10
64.1317591116654
 20
0.0
 30
0.0
 11
64.0
 21
0.0
 31
0.0
  0
SPLINE
  5
20FCB
330
20FC7
100
AcDbEntity
  8
$AUDIT_BAD_LAYER1
  6
$AUDIT_BAD_LTYPE2
100
AcDbSpline
210
0.0
220
0.0
230
1.0
 70
     8
 71
     3
 72
    17
 73
    13
 74
     0
 42
0.000000001
 43
0.0000000001
 40
0.0
 40
0.0
 40
0.0
 40
0.0
 40
0.2630945547161085
 40
0.2630945547161085
 40
0.2630945547161085
 40
0.6652191719141123
 40
0.6652191719141123
 40
0.6652191719141123
 40
0.9355086585230559
 40
0.9355086585230559
 40
0.9355086585230559
 40
1.0
 40
1.0
 40
1.0
 40
1.0
 10
64.13175911166539
 20
0.0000000000000112
 30
0.0
 10
63.65968744604253
 20
0.0000028677165569
 30
0.0
 10
63.13405572010561
 20
0.1353978454043217
 30
0.0
 10
62.63783379550211
 20
0.3412741588127315
 30
0.0
 10
61.87938764791174
 20
0.6559440454959629
 30
0.0
 10
61.16753431126127
 20
1.11898581948928
 30
0.0
 10
60.66915930661611
 20
1.476639799435389
 30
0.0
 10
60.33417478096609
 20
1.717038189608253
 30
0.0
 10
60.10858645395323
 20
1.910578205246872
 30
0.0
 10
60.02755061002438
 20
1.97671971994605
 30
0.0
 10
60.00821537672227
 20
1.992501151417109
 30
0.0
 10
60.00000613706447
 20
1.999065688200625
 30
0.0
 10
59.99999999999992
 20
1.999999999999948
 30
0.0
  0
ARC
  5
20FCC
330
20FC7
100
AcDbEntity
  8
$AUDIT_BAD_LAYER1
  6
$AUDIT_BAD_LTYPE2
100
AcDbCircle
 10
64.0
 20
4.000000000000004
 30
0.0
 40
3.999999999999994
100
AcDbArc
 50
227.3580443702396
 51
270.0
  0
SPLINE
  5
20FCD
330
20FC7
100
AcDbEntity
  8
$AUDIT_BAD_LAYER1
  6
$AUDIT_BAD_LTYPE2
100
AcDbSpline
210
0.0
220
0.0
230
1.0
 70
     8
 71
     3
 72
    14
 73
    10
 74
     0
 42
0.000000001
 43
0.0000000001
 40
0.0
 40
0.0
 40
0.0
 40
0.0
 40
0.2870001856655311
 40
0.2870001856655311
 40
0.2870001856655311
 40
0.8282911262687633
 40
0.8282911262687633
 40
0.8282911262687633
 40
1.0
 40
1.0
 40
1.0
 40
1.0
 10
64.1317591116654
 20
1.999999999999976
 30
0.0
 10
63.772223924228
 20
2.000346318721107
 30
0.0
 10
63.46620915173054
 20
2.000215842365227
 30
0.0
 10
63.18206703772123
 20
2.000098106197917
 30
0.0
 10
62.64616650580894
 20
1.999876052262313
 30
0.0
 10
62.24264309969214
 20
2.000046339026493
 30
0.0
 10
62.07927432859019
 20
2.000163544094715
 30
0.0
 10
62.02745031753707
 20
2.000200724008049
 30
0.0
 10
62.00121049601405
 20
2.000026720759574
 30
0.0
 10
61.99999999999989
 20
2.000000000000085
 30
0.0
  0
ARC
  5
20FCE
330
20FC7
100
AcDbEntity
  8
$AUDIT_BAD_LAYER1
  6
$AUDIT_BAD_LTYPE2
100
AcDbCircle
 10
64.0
 20
4.000000000000004
 30
0.0
 40
1.999999999999992
100
AcDbArc
 50
180.0541372145108
 51
268.5006047386793
  0
ARC
  5
20FCF
330
20FC7
100
AcDbEntity
  8
$AUDIT_BAD_LAYER1
  6
$AUDIT_BAD_LTYPE2
100
AcDbCircle
 10
64.0
 20
4.000000000000004
 30
0.0
 40
1.999999999999992
100
AcDbArc
 50
269.5183340401647
 51
269.6743077379606
  0
SPLINE
  5
20FD0
330
20FC7
100
AcDbEntity
  8
$AUDIT_BAD_LAYER1
  6
$AUDIT_BAD_LTYPE2
100
AcDbSpline
210
0.0
220
0.0
230
1.0
 70
     8
 71
     3
 72
    14
 73
    10
 74
     0
 42
0.000000001
 43
0.0000000001
 40
0.0118649783372874
 40
0.0118649783372874
 40
0.0118649783372874
 40
0.0118649783372874
 40
0.011871660058676
 40
0.011871660058676
 40
0.0130350275704071
 40
0.0130350275704071
 40
0.0155595047763048
 40
0.0155595047763048
 40
0.0169778308710686
 40
0.0169778308710686
 40
0.0169778308710686
 40
0.0169778308710686
 10
63.87281974299458
 20
2.001908314497869
 30
0.0
 10
63.8728197469395
 20
2.001908314404087
 30
0.0
 10
63.87282363422404
 20
2.001908221992404
 30
0.0
 10
63.87412916547984
 20
2.001877218059812
 30
0.0
 10
63.88060237567981
 20
2.001729193834314
 30
0.0
 10
63.89283487949798
 20
2.001466161132956
 30
0.0
 10
63.901173378145
 20
2.001303563847746
 30
0.0
 10
63.91422703670574
 20
2.001075642020312
 30
0.0
 10
63.91893778360714
 20
2.000998888986957
 30
0.0
 10
63.92365492797288
 20
2.000928691293772
 30
0.0
  0
SPLINE
  5
20FD1
330
20FC7
100
AcDbEntity
  8
$AUDIT_BAD_LAYER1
  6
$AUDIT_BAD_LTYPE2
100
AcDbSpline
210
0.0
220
0.0
230
1.0
 70
     8
 71
     3
 72
     8
 73
     4
 74
     0
 42
0.000000001
 43
0.0000000001
 40
0.0
 40
0.0
 40
0.0
 40
0.0
 40
0.0004577657649767
 40
0.0004577657649767
 40
0.0004577657649767
 40
0.0004577657649767
 10
62.00001567016395
 20
3.999999878025666
 30
0.0
 10
62.00001056904508
 20
3.999567572129203
 30
0.0
 10
62.00000531490235
 20
3.999115250779849
 30
0.0
 10
61.99999999999992
 20
3.998649690005687
 30
0.0
  0
SPLINE
  5
20FD2
330
20FC7
100
AcDbEntity
  8
$AUDIT_BAD_LAYER1
  6
$AUDIT_BAD_LTYPE2
100
AcDbSpline
210
0.0
220
0.0
230
1.0
 70
     8
 71
     3
 72
     8
 73
     4
 74
     0
 42
0.000000001
 43
0.0000000001
 40
0.0
 40
0.0
 40
0.0
 40
0.0
 40
0.0004828733941105
 40
0.0004828733941105
 40
0.0004828733941105
 40
0.0004828733941105
 10
62.00001979668468
 20
3.999999484541876
 30
0.0
 10
62.00001348640909
 20
3.999551841852054
 30
0.0
 10
62.00000687973187
 20
3.999077910574105
 30
0.0
 10
61.99999999999994
 20
3.998577730426926
 30
0.0
  0
SPLINE
  5
20FD3
330
20FC7
100
AcDbEntity
  8
$AUDIT_BAD_LAYER1
  6
$AUDIT_BAD_LTYPE2
100
AcDbSpline
210
0.0
220
0.0
230
1.0
 70
     8
 71
     3
 72
     8
 73
     4
 74
     0
 42
0.000000001
 43
0.0000000001
 40
0.0
 40
0.0
 40
0.0
 40
0.0
 40
0.0004862067193564
 40
0.0004862067193564
 40
0.0004862067193564
 40
0.0004862067193564
 10
62.00003012162362
 20
4.00000089973047
 30
0.0
 10
62.00001982930706
 20
3.998780550375868
 30
0.0
 10
62.00000976143612
 20
3.997544074366625
 30
0.0
 10
61.99999999999992
 20
3.996296821562817
 30
0.0
  0
LINE
  5
20FD4
330
20FC7
100
AcDbEntity
  8
$AUDIT_BAD_LAYER1
  6
$AUDIT_BAD_LTYPE2
100
AcDbLine
 10
-64.0
 20
0.0
 30
0.0
 11
-64.1317591116654
 21
0.0
 31
0.0
  0
ARC
  5
20FD5
330
20FC7
100
AcDbEntity
  8
$AUDIT_BAD_LAYER1
  6
$AUDIT_BAD_LTYPE2
100
AcDbCircle
 10
-64.0
 20
4.000000000000004
 30
0.0
 40
3.999999999999994
100
AcDbArc
 50
270.0000000000001
 51
312.4822782988483
  0
SPLINE
  5
20FD6
330
20FC7
100
AcDbEntity
  8
$AUDIT_BAD_LAYER1
  6
$AUDIT_BAD_LTYPE2
100
AcDbSpline
210
0.0
220
0.0
230
1.0
 70
     8
 71
     3
 72
    14
 73
    10
 74
     0
 42
0.000000001
 43
0.0000000001
 40
0.0
 40
0.0
 40
0.0
 40
0.0
 40
0.3894396598380812
 40
0.3894396598380812
 40
0.3894396598380812
 40
0.7616502545815789
 40
0.7616502545815789
 40
0.7616502545815789
 40
1.0
 40
1.0
 40
1.0
 40
1.0
 10
-64.13175911166537
 20
0.0000000000000201
 30
0.0
 10
-63.41149638405702
 20
0.0000033433566216
 30
0.0
 10
-62.63815665527015
 20
0.304972940833605
 30
0.0
 10
-61.94396477315693
 20
0.6743917851221668
 30
0.0
 10
-61.28048439364218
 20
1.027467298281947
 30
0.0
 10
-60.7065774751764
 20
1.439329893842722
 30
0.0
 10
-60.35494570851229
 20
1.712905503790862
 30
0.0
 10
-60.12977387501525
 20
1.888093093571223
 30
0.0
 10
-60.0000006235853
 20
1.99791204931136
 30
0.0
 10
-59.99999999999385
 20
1.999999999999912
 30
0.0
  0
SPLINE
  5
20FD7
330
20FC7
100
AcDbEntity
  8
$AUDIT_BAD_LAYER1
  6
$AUDIT_BAD_LTYPE2
100
AcDbSpline
210
0.0
220
0.0
230
1.0
 70
     8
 71
     3
 72
    11
 73
     7
 74
     0
 42
0.000000001
 43
0.0000000001
 40
-1.0
 40
-1.0
 40
-1.0
 40
-1.0
 40
-0.3390351070006217
 40
-0.3390351070006217
 40
-0.3390351070006217
 40
0.0
 40
0.0
 40
0.0
 40
0.0
 10
-62.00000000000004
 20
2.000000000000049
 30
0.0
 10
-61.99998686142274
 20
2.000833819687422
 30
0.0
 10
-62.40933450466993
 20
2.000388046962358
 30
0.0
 10
-63.0313298277155
 20
2.000035420164184
 30
0.0
 10
-63.35037589678236
 20
1.999854543894482
 30
0.0
 10
-63.72934079938673
 20
1.999932245804235
 30
0.0
 10
-64.13175911206862
 20
1.999999998863066
 30
0.0
  0
ARC
  5
20FD8
330
20FC7
100
AcDbEntity
  8
$AUDIT_BAD_LAYER1
  6
$AUDIT_BAD_LTYPE2
100
AcDbCircle
 10
-64.0
 20
4.000000000000004
 30
0.0
 40
1.999999999999992
100
AcDbArc
 50
270.7311032813028
 51
0.0
  0
LINE
  5
20FD9
330
20FC7
100
AcDbEntity
  8
$AUDIT_BAD_LAYER1
  6
$AUDIT_BAD_LTYPE2
100
AcDbLine
 10
58.0
 20
2.000000000000006
 30
0.0
 11
-58.0
 21
2.000000000000006
 31
0.0
  0
LINE
  5
20FDA
330
20FC7
100
AcDbEntity
  8
$AUDIT_BAD_LAYER1
  6
$AUDIT_BAD_LTYPE2
100
AcDbLine
 10
-62.0
 20
2.000000000000063
 30
0.0
 11
-58.0
 21
2.000000000000059
 31
0.0
  0
LINE
  5
20FDB
330
20FC7
100
AcDbEntity
  8
$AUDIT_BAD_LAYER1
  6
$AUDIT_BAD_LTYPE2
100
AcDbLine
 10
57.99999999999994
 20
1.999999999999941
 30
0.0
 11
61.99999999999995
 21
1.999999999999937
 31
0.0
  0
LINE
  5
20FDC
330
20FC7
100
AcDbEntity
  8
$AUDIT_BAD_LAYER1
  6
$AUDIT_BAD_LTYPE2
100
AcDbLine
 10
-57.99999999999998
 20
86.00000000000001
 30
0.0
 11
-61.99999999999999
 21
86.00000000000001
 31
0.0
  0
LINE
  5
20FDD
330
20FC7
100
AcDbEntity
  8
$AUDIT_BAD_LAYER1
  6
$AUDIT_BAD_LTYPE2
100
AcDbLine
 10
-62.00000000000001
 20
2.000000000000063
 30
0.0
 11
-61.99999999999999
 21
86.00000000000001
 31
0.0
  0
LINE
  5
20FDE
330
20FC7
100
AcDbEntity
  8
$AUDIT_BAD_LAYER1
  6
$AUDIT_BAD_LTYPE2
100
AcDbLine
 10
61.99999999999995
 20
1.999999999999937
 30
0.0
 11
61.99999999999999
 21
86.00000000000001
 31
0.0
  0
LINE
  5
20FDF
330
20FC7
100
AcDbEntity
  8
$AUDIT_BAD_LAYER1
  6
$AUDIT_BAD_LTYPE2
100
AcDbLine
 10
57.99999999999998
 20
86.00000000000001
 30
0.0
 11
61.99999999999999
 21
86.00000000000001
 31
0.0
  0
LINE
  5
20FE0
330
20FC7
100
AcDbEntity
  8
$AUDIT_BAD_LAYER1
  6
$AUDIT_BAD_LTYPE2
100
AcDbLine
 10
101.5
 20
0.0
 30
0.0
 11
91.67995039702375
 21
0.0
 31
0.0
  0
LINE
  5
20FE1
330
20FC7
100
AcDbEntity
  8
$AUDIT_BAD_LAYER1
  6
$AUDIT_BAD_LTYPE2
100
AcDbLine
 10
91.67995039702375
 20
0.0
 30
0.0
 11
64.1317591116654
 21
0.0
 31
0.0
  0
LINE
  5
20FE2
330
20FC7
100
AcDbEntity
  8
$AUDIT_BAD_LAYER1
  6
$AUDIT_BAD_LTYPE2
100
AcDbLine
 10
91.67995039702375
 20
1.999999999999984
 30
0.0
 11
91.67995039702375
 21
0.0
 31
0.0
  0
LINE
  5
20FE3
330
20FC7
100
AcDbEntity
  8
$AUDIT_BAD_LAYER1
  6
$AUDIT_BAD_LTYPE2
100
AcDbLine
 10
64.1317591116654
 20
2.000000000000005
 30
0.0
 11
91.67995039702375
 21
1.999999999999984
 31
0.0
  0
LINE
  5
20FE4
330
20FC7
100
AcDbEntity
  8
$AUDIT_BAD_LAYER1
  6
$AUDIT_BAD_LTYPE2
100
AcDbLine
 10
101.5
 20
1.999999999999984
 30
0.0
 11
101.5
 21
0.0
 31
0.0
  0
LINE
  5
20FE5
330
20FC7
100
AcDbEntity
  8
$AUDIT_BAD_LAYER1
  6
$AUDIT_BAD_LTYPE2
100
AcDbLine
 10
91.67995039702375
 20
1.999999999999984
 30
0.0
 11
101.5
 21
1.999999999999984
 31
0.0
  0
LINE
  5
20FE6
330
20FC7
100
AcDbEntity
  8
$AUDIT_BAD_LAYER1
  6
$AUDIT_BAD_LTYPE2
100
AcDbLine
 10
-101.5
 20
1.999999999999984
 30
0.0
 11
-91.67995039702375
 21
1.999999999999984
 31
0.0
  0
LINE
  5
20FE7
330
20FC7
100
AcDbEntity
  8
$AUDIT_BAD_LAYER1
  6
$AUDIT_BAD_LTYPE2
100
AcDbLine
 10
-91.67995039702375
 20
1.999999999999984
 30
0.0
 11
-64.1317591116654
 21
2.000000000000005
 31
0.0
  0
LINE
  5
20FE8
330
20FC7
100
AcDbEntity
  8
$AUDIT_BAD_LAYER1
  6
$AUDIT_BAD_LTYPE2
100
AcDbLine
 10
-64.1317591116654
 20
0.0
 30
0.0
 11
-91.67995039702375
 21
0.0
 31
0.0
  0
LINE
  5
20FE9
330
20FC7
100
AcDbEntity
  8
$AUDIT_BAD_LAYER1
  6
$AUDIT_BAD_LTYPE2
100
AcDbLine
 10
-91.67995039702375
 20
1.999999999999984
 30
0.0
 11
-91.67995039702375
 21
0.0
 31
0.0
  0
LINE
  5
20FEA
330
20FC7
100
AcDbEntity
  8
$AUDIT_BAD_LAYER1
  6
$AUDIT_BAD_LTYPE2
100
AcDbLine
 10
-91.67995039702375
 20
0.0
 30
0.0
 11
-101.5
 21
0.0
 31
0.0
  0
LINE
  5
20FEB
330
20FC7
100
AcDbEntity
  8
$AUDIT_BAD_LAYER1
  6
$AUDIT_BAD_LTYPE2
100
AcDbLine
 10
-101.5
 20
0.0
 30
0.0
 11
-101.5
 21
1.999999999999984
 31
0.0
  0
CIRCLE
  5
20FEC
330
20FC7
100
AcDbEntity
  8
$AUDIT_BAD_LAYER1
  6
$AUDIT_BAD_LTYPE2
100
AcDbCircle
 10
0.0
 20
47.99999999999998
 30
0.0
 40
2.5
  0
CIRCLE
  5
20FED
330
20FC7
100
AcDbEntity
  8
$AUDIT_BAD_LAYER1
  6
$AUDIT_BAD_LTYPE2
100
AcDbCircle
 10
0.0
 20
67.99999999999998
 30
0.0
 40
2.5
  0
LINE
  5
20FEE
330
20FC7
100
AcDbEntity
  8
$AUDIT_BAD_LAYER1
  6
$AUDIT_BAD_LTYPE2
100
AcDbLine
 10
57.99999999999998
 20
86.00000000000001
 30
0.0
 11
-58.0
 21
86.00000000000001
 31
0.0
  0
ENDBLK
  5
20FC9
330
20FC7
100
AcDbEntity
  8
0
100
AcDbBlockEnd
  0
BLOCK
  5
20FF0
330
20FEF
100
AcDbEntity
  8
0
100
AcDbBlockBegin
  2
SAEL440_120_2-ISO
 70
     0
 10
0.0
 20
0.0
 30
0.0
  3
SAEL440_120_2-ISO
  1

  0
SPLINE
  5
20FF2
330
20FEF
100
AcDbEntity
  8
$AUDIT_BAD_LAYER1
  6
$AUDIT_BAD_LTYPE2
100
AcDbSpline
210
0.0
220
0.0
230
1.0
 70
     8
 71
     3
 72
    14
 73
    10
 74
     0
 42
0.000000001
 43
0.0000000001
 40
0.0
 40
0.0
 40
0.0
 40
0.0
 40
0.2870001856655311
 40
0.2870001856655311
 40
0.2870001856655311
 40
0.8282911262687633
 40
0.8282911262687633
 40
0.8282911262687633
 40
1.0
 40
1.0
 40
1.0
 40
1.0
 10
74.12644971316888
 20
-57.36209629333011
 30
0.0
 10
73.87197505974056
 20
-57.26722043612429
 30
0.0
 10
73.65568219968037
 20
-57.24547117653173
 30
0.0
 10
73.454846636086
 20
-57.27893350236342
 30
0.0
 10
73.076064751773
 20
-57.3420444504703
 30
0.0
 10
72.79061020401461
 20
-57.61302536863246
 30
0.0
 10
72.67500816163579
 20
-58.0524381850159
 30
0.0
 10
72.638336761823
 20
-58.19182917449042
 30
0.0
 10
72.61990544496389
 20
-58.34883412823116
 30
0.0
 10
72.61906838945392
 20
-58.51877070277776
 30
0.0
  0
LINE
  5
20FF3
330
20FEF
100
AcDbEntity
  8
$AUDIT_BAD_LAYER1
  6
$AUDIT_BAD_LTYPE2
100
AcDbLine
 10
72.61906838945406
 20
-58.5187707027777
 30
0.0
 11
71.20485482708094
 21
-59.33526728370544
 31
0.0
  0
LINE
  5
20FF4
330
20FEF
100
AcDbEntity
  8
$AUDIT_BAD_LAYER1
  6
$AUDIT_BAD_LTYPE2
100
AcDbLine
 10
74.03328195182715
 20
-57.30830586123968
 30
0.0
 11
74.12644971316885
 21
-57.36209629333012
 31
0.0
  0
ELLIPSE
  5
20FF5
330
20FEF
100
AcDbEntity
  8
$AUDIT_BAD_LAYER1
  6
$AUDIT_BAD_LTYPE2
100
AcDbEllipse
 10
72.61906838945406
 20
-58.1248024421674
 30
0.0
 11
1.999999999999992
 21
-0.0000000000001191
 31
0.0
210
0.0
220
0.0
230
1.0
 40
0.5773502691896257
 41
0.7853981633976899
 42
2.356194490192596
  0
LINE
  5
20FF6
330
20FEF
100
AcDbEntity
  8
$AUDIT_BAD_LAYER1
  6
$AUDIT_BAD_LTYPE2
100
AcDbLine
 10
71.20485482708095
 20
-59.33526728370548
 30
0.0
 11
71.20485482708095
 21
-57.30830586123968
 31
0.0
  0
ELLIPSE
  5
20FF7
330
20FEF
100
AcDbEntity
  8
$AUDIT_BAD_LAYER1
  6
$AUDIT_BAD_LTYPE2
100
AcDbEllipse
 10
-17.89059960242404
 20
-5.869021262792948
 30
0.0
 11
3.999999999999993
 21
-0.0000000000000004
 31
0.0
210
0.0
220
0.0
230
1.0
 40
0.5773502691896257
 41
5.497787143782133
 42
6.283185307179588
  0
LINE
  5
20FF8
330
20FEF
100
AcDbEntity
  8
$AUDIT_BAD_LAYER1
  6
$AUDIT_BAD_LTYPE2
100
AcDbLine
 10
-15.06217247767785
 20
-7.502014424648395
 30
0.0
 11
-15.06217247767785
 21
-7.690344487381097
 31
0.0
  0
LINE
  5
20FF9
330
20FEF
100
AcDbEntity
  8
$AUDIT_BAD_LAYER1
  6
$AUDIT_BAD_LTYPE2
100
AcDbLine
 10
-15.06217247767785
 20
-7.690344487381097
 30
0.0
 11
-15.06217247767785
 21
-9.52897584711418
 31
0.0
  0
LINE
  5
20FFA
330
20FEF
100
AcDbEntity
  8
$AUDIT_BAD_LAYER1
  6
$AUDIT_BAD_LTYPE2
100
AcDbLine
 10
-13.7242007665813
 20
-8.756497519544485
 30
0.0
 11
-15.06217247767785
 21
-9.528975847114175
 31
0.0
  0
LINE
  5
20FFB
330
20FEF
100
AcDbEntity
  8
$AUDIT_BAD_LAYER1
  6
$AUDIT_BAD_LTYPE2
100
AcDbLine
 10
-13.64795891530479
 20
-8.712479266186473
 30
0.0
 11
-13.7242007665813
 21
-8.756497519544485
 31
0.0
  0
SPLINE
  5
20FFC
330
20FEF
100
AcDbEntity
  8
$AUDIT_BAD_LAYER1
  6
$AUDIT_BAD_LTYPE2
100
AcDbSpline
210
0.0
220
0.0
230
1.0
 70
     8
 71
     3
 72
    11
 73
     7
 74
     0
 42
0.000000001
 43
0.0000000001
 40
0.5566212501575614
 40
0.5566212501575614
 40
0.5566212501575614
 40
0.5566212501575614
 40
0.7616502545815789
 40
0.7616502545815789
 40
0.7616502545815789
 40
1.0
 40
1.0
 40
1.0
 40
1.0
 10
-13.84881452263172
 20
-6.421154249754135
 30
0.0
 10
-13.77476334997288
 20
-6.74923491916707
 30
0.0
 10
-13.72634012854862
 20
-7.092750830985918
 30
0.0
 10
-13.69593696763604
 20
-7.449843294324258
 30
0.0
 10
-13.66059276995149
 20
-7.864969427168899
 30
0.0
 10
-13.64648295215543
 20
-8.274009172794558
 30
0.0
 10
-13.64795891530033
 20
-8.712479266160064
 30
0.0
  0
SPLINE
  5
20FFD
330
20FEF
100
AcDbEntity
  8
$AUDIT_BAD_LAYER1
  6
$AUDIT_BAD_LTYPE2
100
AcDbSpline
210
0.0
220
0.0
230
1.0
 70
     8
 71
     3
 72
    16
 73
    12
 74
     0
 42
0.000000001
 43
0.0000000001
 40
0.0002612202438011
 40
0.0002612202438011
 40
0.0002612202438011
 40
0.0002612202438011
 40
0.0136518165545198
 40
0.0136518165545198
 40
0.0248504485935642
 40
0.0248504485935642
 40
0.0422523278288537
 40
0.0422523278288537
 40
0.0590852584915297
 40
0.0590852584915297
 40
0.0689003655564401
 40
0.0689003655564401
 40
0.0689003655564401
 40
0.0689003655564401
 10
-13.89059611461951
 20
-5.86902125549912
 30
0.0
 10
-13.89050274967195
 20
-5.913667065451981
 30
0.0
 10
-13.89024330904199
 20
-5.958571179734999
 30
0.0
 10
-13.88885631397446
 20
-6.038994360235285
 30
0.0
 10
-13.88786287415525
 20
-6.075150413615206
 30
0.0
 10
-13.88409525648499
 20
-6.162884736536167
 30
0.0
 10
-13.88054047251357
 20
-6.212655533193434
 30
0.0
 10
-13.87161821013373
 20
-6.297692401152934
 30
0.0
 10
-13.86633239254578
 20
-6.334339833689384
 30
0.0
 10
-13.85675176121287
 20
-6.387798758776446
 30
0.0
 10
-13.8529383275822
 20
-6.406659125987275
 30
0.0
 10
-13.84872658086478
 20
-6.425475060266192
 30
0.0
  0
LINE
  5
20FFE
330
20FEF
100
AcDbEntity
  8
$AUDIT_BAD_LAYER1
  6
$AUDIT_BAD_LTYPE2
100
AcDbLine
 10
-13.64795891530479
 20
-8.712479266186473
 30
0.0
 11
-13.64795891530479
 21
-21.76009462941152
 31
0.0
  0
ELLIPSE
  5
20FFF
330
20FEF
100
AcDbEntity
  8
$AUDIT_BAD_LAYER1
  6
$AUDIT_BAD_LTYPE2
100
AcDbEllipse
 10
-12.23374535293169
 20
-22.57659121033924
 30
0.0
 11
1.000000000000104
 21
-1.732050807568816
 31
0.0
210
0.0
220
0.0
230
1.0
 40
0.5773502691896263
 41
3.926990816987
 42
5.497787143781896
  0
LINE
  5
21000
330
20FEF
100
AcDbEntity
  8
$AUDIT_BAD_LAYER1
  6
$AUDIT_BAD_LTYPE2
100
AcDbLine
 10
-12.23374535293166
 20
-24.20958437219468
 30
0.0
 11
40.09215645487281
 21
-54.41995786652051
 31
0.0
  0
LINE
  5
21001
330
20FEF
100
AcDbEntity
  8
$AUDIT_BAD_LAYER1
  6
$AUDIT_BAD_LTYPE2
100
AcDbLine
 10
72.61906838945406
 20
-58.5187707027777
 30
0.0
 11
72.61906838945406
 21
-71.56638606600274
 31
0.0
  0
ELLIPSE
  5
21002
330
20FEF
100
AcDbEntity
  8
$AUDIT_BAD_LAYER1
  6
$AUDIT_BAD_LTYPE2
100
AcDbEllipse
 10
69.79064126470787
 20
-69.93339290414727
 30
0.0
 11
2.000000000000003
 21
-3.464101615137753
 31
0.0
210
0.0
220
0.0
230
1.0
 40
0.5773502691896266
 41
0.0
 42
0.7853981633974483
  0
ELLIPSE
  5
21003
330
20FEF
100
AcDbEntity
  8
$AUDIT_BAD_LAYER1
  6
$AUDIT_BAD_LTYPE2
100
AcDbEllipse
 10
-71.63071497260165
 20
-56.86944760930373
 30
0.0
 11
2.000000000000208
 21
-3.464101615137638
 31
0.0
210
0.0
220
0.0
230
1.0
 40
0.5773502691896259
 41
3.926990816986997
 42
5.497787143781893
  0
LINE
  5
21004
330
20FEF
100
AcDbEntity
  8
$AUDIT_BAD_LAYER1
  6
$AUDIT_BAD_LTYPE2
100
AcDbLine
 10
-71.63071497260165
 20
-58.50244077115918
 30
0.0
 11
-12.23374535293166
 21
-24.20958437219468
 31
0.0
  0
LINE
  5
21005
330
20FEF
100
AcDbEntity
  8
$AUDIT_BAD_LAYER1
  6
$AUDIT_BAD_LTYPE2
100
AcDbLine
 10
-71.63071497260165
 20
-60.13543393301462
 30
0.0
 11
-71.63071497260165
 21
-58.50244077115918
 31
0.0
  0
ELLIPSE
  5
21006
330
20FEF
100
AcDbEntity
  8
$AUDIT_BAD_LAYER1
  6
$AUDIT_BAD_LTYPE2
100
AcDbEllipse
 10
-71.63071497260165
 20
-56.86944760930373
 30
0.0
 11
1.000000000000104
 21
-1.732050807568819
 31
0.0
210
0.0
220
0.0
230
1.0
 40
0.5773502691896259
 41
3.926990816986995
 42
5.497787143781896
  0
LINE
  5
21007
330
20FEF
100
AcDbEntity
  8
$AUDIT_BAD_LAYER1
  6
$AUDIT_BAD_LTYPE2
100
AcDbLine
 10
-74.45914209734784
 20
-55.23645444744826
 30
0.0
 11
-73.04492853497473
 21
-56.052951028376
 31
0.0
  0
LINE
  5
21008
330
20FEF
100
AcDbEntity
  8
$AUDIT_BAD_LAYER1
  6
$AUDIT_BAD_LTYPE2
100
AcDbLine
 10
-73.04492853497473
 20
-56.052951028376
 30
0.0
 11
-13.64795891530479
 21
-21.76009462941152
 31
0.0
  0
LINE
  5
21009
330
20FEF
100
AcDbEntity
  8
$AUDIT_BAD_LAYER1
  6
$AUDIT_BAD_LTYPE2
100
AcDbLine
 10
72.61906838945406
 20
-71.56638606600274
 30
0.0
 11
13.22209876978405
 21
-105.8592424649672
 31
0.0
  0
ELLIPSE
  5
2100A
330
20FEF
100
AcDbEntity
  8
$AUDIT_BAD_LAYER1
  6
$AUDIT_BAD_LTYPE2
100
AcDbEllipse
 10
10.39367164503786
 20
-104.2262493031118
 30
0.0
 11
2.000000000000001
 21
-3.464101615137758
 31
0.0
210
0.0
220
0.0
230
1.0
 40
0.5773502691896258
 41
5.497787143782137
 42
7.068583470577033
  0
ELLIPSE
  5
2100B
330
20FEF
100
AcDbEntity
  8
$AUDIT_BAD_LAYER1
  6
$AUDIT_BAD_LTYPE2
100
AcDbEllipse
 10
88.17541757555808
 20
33.76167287367387
 30
0.0
 11
-3.25
 21
5.629165124598853
 31
0.0
210
0.0
220
0.0
230
1.0
 40
0.5773502691896258
 41
0.2193254863005917
 42
2.9222671672892
  0
ELLIPSE
  5
2100C
330
20FEF
100
AcDbEntity
  8
$AUDIT_BAD_LAYER1
  6
$AUDIT_BAD_LTYPE2
100
AcDbEllipse
 10
95.95359216861012
 20
41.51839039248727
 30
0.0
 11
1.250000000000128
 21
-2.165063509461021
 31
0.0
210
0.0
220
0.0
230
0.9999999999999998
 40
0.5773502691896259
 41
3.742856870268573
 42
5.681921090500111
  0
LINE
  5
2100D
330
20FEF
100
AcDbEntity
  8
$AUDIT_BAD_LAYER1
  6
$AUDIT_BAD_LTYPE2
100
AcDbLine
 10
75.44749551420024
 20
57.44007372057794
 30
0.0
 11
101.9639998086957
 21
42.13076282818306
 31
0.0
  0
LINE
  5
2100E
330
20FEF
100
AcDbEntity
  8
$AUDIT_BAD_LAYER1
  6
$AUDIT_BAD_LTYPE2
100
AcDbLine
 10
101.9639998086958
 20
-61.10706486431862
 30
0.0
 11
101.9639998086957
 21
42.13076282818306
 31
0.0
  0
ELLIPSE
  5
2100F
330
20FEF
100
AcDbEntity
  8
$AUDIT_BAD_LAYER1
  6
$AUDIT_BAD_LTYPE2
100
AcDbEllipse
 10
72.61906838945406
 20
55.80708055872249
 30
0.0
 11
4.000000000000003
 21
-0.000000000000239
 31
0.0
210
0.0
220
0.0
230
1.0
 40
0.5773502691896257
 41
0.785398163397689
 42
2.356194490192587
  0
LINE
  5
21010
330
20FEF
100
AcDbEntity
  8
$AUDIT_BAD_LAYER1
  6
$AUDIT_BAD_LTYPE2
100
AcDbLine
 10
11.8078852074111
 20
-105.0427458840397
 30
0.0
 11
10.39367164503785
 21
-105.8592424649672
 31
0.0
  0
ELLIPSE
  5
21011
330
20FEF
100
AcDbEntity
  8
$AUDIT_BAD_LAYER1
  6
$AUDIT_BAD_LTYPE2
100
AcDbEllipse
 10
45.39545731377194
 20
31.10805898565873
 30
0.0
 11
1.24999999999987
 21
2.165063509461171
 31
0.0
210
0.0
220
0.0
230
1.0
 40
0.577350269189626
 41
3.742856870268584
 42
5.68192109050012
  0
ELLIPSE
  5
21012
330
20FEF
100
AcDbEntity
  8
$AUDIT_BAD_LAYER1
  6
$AUDIT_BAD_LTYPE2
100
AcDbEllipse
 10
46.80967087614503
 20
30.29156240473101
 30
0.0
 11
-1.25
 21
-2.165063509461096
 31
0.0
210
0.0
220
0.0
230
1.0
 40
0.5773502691896259
 41
0.0
 42
6.283185307179586
  0
LINE
  5
21013
330
20FEF
100
AcDbEntity
  8
$AUDIT_BAD_LAYER1
  6
$AUDIT_BAD_LTYPE2
100
AcDbLine
 10
74.12644971316885
 20
-57.36209629333012
 30
0.0
 11
93.60596258046994
 21
-64.6424748094054
 31
0.0
  0
LINE
  5
21014
330
20FEF
100
AcDbEntity
  8
$AUDIT_BAD_LAYER1
  6
$AUDIT_BAD_LTYPE2
100
AcDbLine
 10
100.5497862463227
 20
-61.92356144524636
 30
0.0
 11
101.9639998086958
 21
-61.10706486431862
 31
0.0
  0
LINE
  5
21015
330
20FEF
100
AcDbEntity
  8
$AUDIT_BAD_LAYER1
  6
$AUDIT_BAD_LTYPE2
100
AcDbLine
 10
93.60596258046994
 20
-64.6424748094054
 30
0.0
 11
100.5497862463227
 21
-61.92356144524636
 31
0.0
  0
LINE
  5
21016
330
20FEF
100
AcDbEntity
  8
$AUDIT_BAD_LAYER1
  6
$AUDIT_BAD_LTYPE2
100
AcDbLine
 10
33.14833278902005
 20
-73.68113246093589
 30
0.0
 11
40.09215645487284
 21
-62.94418217140601
 31
0.0
  0
LINE
  5
21017
330
20FEF
100
AcDbEntity
  8
$AUDIT_BAD_LAYER1
  6
$AUDIT_BAD_LTYPE2
100
AcDbLine
 10
34.56254635139315
 20
-74.49762904186361
 30
0.0
 11
33.14833278902005
 21
-73.68113246093589
 31
0.0
  0
LINE
  5
21018
330
20FEF
100
AcDbEntity
  8
$AUDIT_BAD_LAYER1
  6
$AUDIT_BAD_LTYPE2
100
AcDbLine
 10
41.50637001724593
 20
-63.76067875233374
 30
0.0
 11
34.56254635139315
 21
-74.49762904186361
 31
0.0
  0
LINE
  5
21019
330
20FEF
100
AcDbEntity
  8
$AUDIT_BAD_LAYER1
  6
$AUDIT_BAD_LTYPE2
100
AcDbLine
 10
41.50637001724593
 20
-63.76067875233374
 30
0.0
 11
40.09215645487284
 21
-62.94418217140601
 31
0.0
  0
LINE
  5
2101A
330
20FEF
100
AcDbEntity
  8
$AUDIT_BAD_LAYER1
  6
$AUDIT_BAD_LTYPE2
100
AcDbLine
 10
14.7294800934988
 20
-88.06542993909223
 30
0.0
 11
33.14833278902005
 21
-73.68113246093589
 31
0.0
  0
LINE
  5
2101B
330
20FEF
100
AcDbEntity
  8
$AUDIT_BAD_LAYER1
  6
$AUDIT_BAD_LTYPE2
100
AcDbLine
 10
16.1436936558719
 20
-88.88192652001995
 30
0.0
 11
14.7294800934988
 21
-88.06542993909223
 31
0.0
  0
LINE
  5
2101C
330
20FEF
100
AcDbEntity
  8
$AUDIT_BAD_LAYER1
  6
$AUDIT_BAD_LTYPE2
100
AcDbLine
 10
34.56254635139315
 20
-74.49762904186361
 30
0.0
 11
16.1436936558719
 21
-88.88192652001995
 31
0.0
  0
ELLIPSE
  5
2101D
330
20FEF
100
AcDbEntity
  8
$AUDIT_BAD_LAYER1
  6
$AUDIT_BAD_LTYPE2
100
AcDbEllipse
 10
15.34341911334368
 20
-91.73143289674673
 30
0.0
 11
2.500000000000258
 21
4.330127018922044
 31
0.0
210
0.0
220
0.0
230
1.0
 40
0.5773502691896258
 41
0.9599310885970782
 42
2.356194490192587
  0
LINE
  5
2101E
330
20FEF
100
AcDbEntity
  8
$AUDIT_BAD_LAYER1
  6
$AUDIT_BAD_LTYPE2
100
AcDbLine
 10
13.22209876978403
 20
-94.58917092999376
 30
0.0
 11
11.80788520741094
 21
-93.77267434906604
 31
0.0
  0
ELLIPSE
  5
2101F
330
20FEF
100
AcDbEntity
  8
$AUDIT_BAD_LAYER1
  6
$AUDIT_BAD_LTYPE2
100
AcDbEllipse
 10
16.75763267571678
 20
-92.54792947767445
 30
0.0
 11
-2.499999999999741
 21
-4.330127018922341
 31
0.0
210
0.0
220
0.0
230
1.0
 40
0.5773502691896259
 41
4.101523742186531
 42
5.497787143781944
  0
LINE
  5
21020
330
20FEF
100
AcDbEntity
  8
$AUDIT_BAD_LAYER1
  6
$AUDIT_BAD_LTYPE2
100
AcDbLine
 10
40.09215645487284
 20
-62.94418217140601
 30
0.0
 11
40.09215645487286
 21
40.29364552109566
 31
0.0
  0
LINE
  5
21021
330
20FEF
100
AcDbEntity
  8
$AUDIT_BAD_LAYER1
  6
$AUDIT_BAD_LTYPE2
100
AcDbLine
 10
41.50637001724596
 20
39.47714894016794
 30
0.0
 11
41.50637001724593
 21
-63.76067875233374
 31
0.0
  0
LINE
  5
21022
330
20FEF
100
AcDbEntity
  8
$AUDIT_BAD_LAYER1
  6
$AUDIT_BAD_LTYPE2
100
AcDbLine
 10
40.09215645487286
 20
40.29364552109566
 30
0.0
 11
41.50637001724596
 21
39.47714894016794
 31
0.0
  0
LINE
  5
21023
330
20FEF
100
AcDbEntity
  8
$AUDIT_BAD_LAYER1
  6
$AUDIT_BAD_LTYPE2
100
AcDbLine
 10
101.9639998086957
 20
42.13076282818306
 30
0.0
 11
100.5497862463227
 21
41.31426624725534
 31
0.0
  0
LINE
  5
21024
330
20FEF
100
AcDbEntity
  8
$AUDIT_BAD_LAYER1
  6
$AUDIT_BAD_LTYPE2
100
AcDbLine
 10
100.5497862463227
 20
-61.92356144524636
 30
0.0
 11
100.5497862463227
 21
41.31426624725534
 31
0.0
  0
LINE
  5
21025
330
20FEF
100
AcDbEntity
  8
$AUDIT_BAD_LAYER1
  6
$AUDIT_BAD_LTYPE2
100
AcDbLine
 10
13.22209876978403
 20
-94.58917092999376
 30
0.0
 11
13.22209876978405
 21
-105.8592424649672
 31
0.0
  0
LINE
  5
21026
330
20FEF
100
AcDbEntity
  8
$AUDIT_BAD_LAYER1
  6
$AUDIT_BAD_LTYPE2
100
AcDbLine
 10
71.20485482708095
 20
-57.30830586123968
 30
0.0
 11
71.20485482708095
 21
56.62357713965022
 31
0.0
  0
LINE
  5
21027
330
20FEF
100
AcDbEntity
  8
$AUDIT_BAD_LAYER1
  6
$AUDIT_BAD_LTYPE2
100
AcDbLine
 10
71.20485482708095
 20
56.62357713965022
 30
0.0
 11
41.50637001724596
 21
39.47714894016794
 31
0.0
  0
LINE
  5
21028
330
20FEF
100
AcDbEntity
  8
$AUDIT_BAD_LAYER1
  6
$AUDIT_BAD_LTYPE2
100
AcDbLine
 10
40.09215645487286
 20
40.29364552109566
 30
0.0
 11
69.79064126470786
 21
57.44007372057794
 31
0.0
  0
LINE
  5
21029
330
20FEF
100
AcDbEntity
  8
$AUDIT_BAD_LAYER1
  6
$AUDIT_BAD_LTYPE2
100
AcDbLine
 10
11.80788520741094
 20
-105.0427458840395
 30
0.0
 11
11.80788520741094
 21
-93.77267434906604
 31
0.0
  0
LINE
  5
2102A
330
20FEF
100
AcDbEntity
  8
$AUDIT_BAD_LAYER1
  6
$AUDIT_BAD_LTYPE2
100
AcDbLine
 10
10.39367164503785
 20
-105.8592424649672
 30
0.0
 11
10.39367164503785
 21
-107.4922356268227
 31
0.0
  0
LINE
  5
2102B
330
20FEF
100
AcDbEntity
  8
$AUDIT_BAD_LAYER1
  6
$AUDIT_BAD_LTYPE2
100
AcDbLine
 10
11.80788520741094
 20
-105.0427458840395
 30
0.0
 11
13.22209876978405
 21
-105.8592424649672
 31
0.0
  0
ELLIPSE
  5
2102C
330
20FEF
100
AcDbEntity
  8
$AUDIT_BAD_LAYER1
  6
$AUDIT_BAD_LTYPE2
100
AcDbEllipse
 10
10.39367164503786
 20
-104.2262493031118
 30
0.0
 11
1.0
 21
-1.732050807568879
 31
0.0
210
0.0
220
0.0
230
1.0
 40
0.5773502691896258
 41
5.49778714378214
 42
7.068583470577038
  0
LINE
  5
2102D
330
20FEF
100
AcDbEntity
  8
$AUDIT_BAD_LAYER1
  6
$AUDIT_BAD_LTYPE2
100
AcDbLine
 10
74.03328195182715
 20
-57.30830586123969
 30
0.0
 11
74.03328195182715
 21
56.62357713965022
 31
0.0
  0
ELLIPSE
  5
2102E
330
20FEF
100
AcDbEntity
  8
$AUDIT_BAD_LAYER1
  6
$AUDIT_BAD_LTYPE2
100
AcDbEllipse
 10
72.61906838945406
 20
55.80708055872249
 30
0.0
 11
-2.000000000000001
 21
-0.0000000000001195
 31
0.0
210
0.0
220
0.0
230
1.0
 40
0.5773502691896257
 41
3.926990816987
 42
5.497787143781895
  0
LINE
  5
2102F
330
20FEF
100
AcDbEntity
  8
$AUDIT_BAD_LAYER1
  6
$AUDIT_BAD_LTYPE2
100
AcDbLine
 10
71.20485482708095
 20
56.62357713965022
 30
0.0
 11
69.79064126470786
 21
57.44007372057794
 31
0.0
  0
LINE
  5
21030
330
20FEF
100
AcDbEntity
  8
$AUDIT_BAD_LAYER1
  6
$AUDIT_BAD_LTYPE2
100
AcDbLine
 10
74.03328195182715
 20
56.62357713965021
 30
0.0
 11
75.44749551420024
 21
57.44007372057794
 31
0.0
  0
LINE
  5
21031
330
20FEF
100
AcDbEntity
  8
$AUDIT_BAD_LAYER1
  6
$AUDIT_BAD_LTYPE2
100
AcDbLine
 10
100.5497862463227
 20
41.31426624725534
 30
0.0
 11
74.03328195182715
 21
56.62357713965021
 31
0.0
  0
ELLIPSE
  5
21032
330
20FEF
100
AcDbEntity
  8
$AUDIT_BAD_LAYER1
  6
$AUDIT_BAD_LTYPE2
100
AcDbEllipse
 10
86.76120401318499
 20
32.94517629274615
 30
0.0
 11
-3.25
 21
5.629165124598853
 31
0.0
210
0.0
220
0.0
230
1.0
 40
0.5773502691896258
 41
0.0
 42
6.283185307179586
  0
ELLIPSE
  5
21033
330
20FEF
100
AcDbEntity
  8
$AUDIT_BAD_LAYER1
  6
$AUDIT_BAD_LTYPE2
100
AcDbEllipse
 10
94.53937860623703
 20
40.70189381155955
 30
0.0
 11
-1.249999999999999
 21
2.165063509461097
 31
0.0
210
0.0
220
0.0
230
0.9999999999999998
 40
0.5773502691896258
 41
0.0
 42
6.283185307179586
  0
LINE
  5
21034
330
20FEF
100
AcDbEntity
  8
$AUDIT_BAD_LAYER1
  6
$AUDIT_BAD_LTYPE2
100
AcDbLine
 10
12.39367164503786
 20
-107.6903509182496
 30
0.0
 11
71.79064126470791
 21
-73.39749451928506
 31
0.0
  0
ELLIPSE
  5
21035
330
20FEF
100
AcDbEntity
  8
$AUDIT_BAD_LAYER1
  6
$AUDIT_BAD_LTYPE2
100
AcDbEllipse
 10
88.17541757555808
 20
-47.88798521909871
 30
0.0
 11
-3.25
 21
5.629165124598853
 31
0.0
210
0.0
220
0.0
230
1.0
 40
0.5773502691896259
 41
0.2193254863005925
 42
2.922267167289199
  0
ELLIPSE
  5
21036
330
20FEF
100
AcDbEntity
  8
$AUDIT_BAD_LAYER1
  6
$AUDIT_BAD_LTYPE2
100
AcDbEllipse
 10
86.76120401318499
 20
-48.70448180002643
 30
0.0
 11
-3.25
 21
5.629165124598853
 31
0.0
210
0.0
220
0.0
230
1.0
 40
0.5773502691896258
 41
0.0
 42
6.283185307179586
  0
ELLIPSE
  5
21037
330
20FEF
100
AcDbEntity
  8
$AUDIT_BAD_LAYER1
  6
$AUDIT_BAD_LTYPE2
100
AcDbEllipse
 10
80.39724298250607
 20
-39.31477111935759
 30
0.0
 11
1.250000000000128
 21
-2.165063509461021
 31
0.0
210
0.0
220
0.0
230
0.9999999999999998
 40
0.5773502691896259
 41
3.742856870268578
 42
5.681921090500122
  0
ELLIPSE
  5
21038
330
20FEF
100
AcDbEntity
  8
$AUDIT_BAD_LAYER1
  6
$AUDIT_BAD_LTYPE2
100
AcDbEllipse
 10
80.39724298250607
 20
-22.98483950080308
 30
0.0
 11
1.250000000000128
 21
-2.165063509461021
 31
0.0
210
0.0
220
0.0
230
0.9999999999999998
 40
0.5773502691896259
 41
3.742856870268578
 42
5.681921090500122
  0
ELLIPSE
  5
21039
330
20FEF
100
AcDbEntity
  8
$AUDIT_BAD_LAYER1
  6
$AUDIT_BAD_LTYPE2
100
AcDbEllipse
 10
80.39724298250607
 20
-6.654907882248553
 30
0.0
 11
1.250000000000128
 21
-2.165063509461021
 31
0.0
210
0.0
220
0.0
230
0.9999999999999998
 40
0.5773502691896259
 41
3.742856870268578
 42
5.681921090500122
  0
ELLIPSE
  5
2103A
330
20FEF
100
AcDbEntity
  8
$AUDIT_BAD_LAYER1
  6
$AUDIT_BAD_LTYPE2
100
AcDbEllipse
 10
80.39724298250607
 20
9.675023736305972
 30
0.0
 11
1.250000000000128
 21
-2.165063509461021
 31
0.0
210
0.0
220
0.0
230
0.9999999999999998
 40
0.5773502691896259
 41
3.742856870268576
 42
5.681921090500122
  0
ELLIPSE
  5
2103B
330
20FEF
100
AcDbEntity
  8
$AUDIT_BAD_LAYER1
  6
$AUDIT_BAD_LTYPE2
100
AcDbEllipse
 10
80.39724298250607
 20
26.00495535486048
 30
0.0
 11
1.250000000000128
 21
-2.165063509461021
 31
0.0
210
0.0
220
0.0
230
0.9999999999999998
 40
0.5773502691896259
 41
3.742856870268578
 42
5.681921090500122
  0
ELLIPSE
  5
2103C
330
20FEF
100
AcDbEntity
  8
$AUDIT_BAD_LAYER1
  6
$AUDIT_BAD_LTYPE2
100
AcDbEllipse
 10
78.98302942013298
 20
-40.13126770028531
 30
0.0
 11
-1.249999999999999
 21
2.165063509461097
 31
0.0
210
0.0
220
0.0
230
0.9999999999999998
 40
0.5773502691896258
 41
0.0
 42
6.283185307179586
  0
ELLIPSE
  5
2103D
330
20FEF
100
AcDbEntity
  8
$AUDIT_BAD_LAYER1
  6
$AUDIT_BAD_LTYPE2
100
AcDbEllipse
 10
78.98302942013298
 20
-23.8013360817308
 30
0.0
 11
-1.249999999999999
 21
2.165063509461097
 31
0.0
210
0.0
220
0.0
230
0.9999999999999998
 40
0.5773502691896258
 41
0.0
 42
6.283185307179586
  0
ELLIPSE
  5
2103E
330
20FEF
100
AcDbEntity
  8
$AUDIT_BAD_LAYER1
  6
$AUDIT_BAD_LTYPE2
100
AcDbEllipse
 10
78.98302942013298
 20
-7.471404463176276
 30
0.0
 11
-1.249999999999999
 21
2.165063509461097
 31
0.0
210
0.0
220
0.0
230
0.9999999999999998
 40
0.5773502691896258
 41
0.0
 42
6.283185307179586
  0
ELLIPSE
  5
2103F
330
20FEF
100
AcDbEntity
  8
$AUDIT_BAD_LAYER1
  6
$AUDIT_BAD_LTYPE2
100
AcDbEllipse
 10
78.98302942013298
 20
8.858527155378244
 30
0.0
 11
-1.249999999999999
 21
2.165063509461097
 31
0.0
210
0.0
220
0.0
230
0.9999999999999998
 40
0.5773502691896258
 41
0.0
 42
6.283185307179586
  0
ELLIPSE
  5
21040
330
20FEF
100
AcDbEntity
  8
$AUDIT_BAD_LAYER1
  6
$AUDIT_BAD_LTYPE2
100
AcDbEllipse
 10
78.98302942013298
 20
25.18845877393275
 30
0.0
 11
-1.249999999999999
 21
2.165063509461097
 31
0.0
210
0.0
220
0.0
230
0.9999999999999998
 40
0.5773502691896258
 41
0.0
 42
6.283185307179586
  0
ELLIPSE
  5
21041
330
20FEF
100
AcDbEntity
  8
$AUDIT_BAD_LAYER1
  6
$AUDIT_BAD_LTYPE2
100
AcDbEllipse
 10
80.39724298250607
 20
42.33488697341499
 30
0.0
 11
1.250000000000128
 21
-2.165063509461021
 31
0.0
210
0.0
220
0.0
230
0.9999999999999998
 40
0.5773502691896259
 41
3.742856870268576
 42
5.681921090500122
  0
ELLIPSE
  5
21042
330
20FEF
100
AcDbEntity
  8
$AUDIT_BAD_LAYER1
  6
$AUDIT_BAD_LTYPE2
100
AcDbEllipse
 10
78.98302942013298
 20
41.51839039248727
 30
0.0
 11
-1.249999999999999
 21
2.165063509461097
 31
0.0
210
0.0
220
0.0
230
0.9999999999999998
 40
0.5773502691896258
 41
0.0
 42
6.283185307179586
  0
ELLIPSE
  5
21043
330
20FEF
100
AcDbEntity
  8
$AUDIT_BAD_LAYER1
  6
$AUDIT_BAD_LTYPE2
100
AcDbEllipse
 10
95.95359216861012
 20
-56.46119931883984
 30
0.0
 11
1.250000000000128
 21
-2.165063509461021
 31
0.0
210
0.0
220
0.0
230
0.9999999999999998
 40
0.5773502691896259
 41
3.742856870268573
 42
5.68192109050011
  0
ELLIPSE
  5
21044
330
20FEF
100
AcDbEntity
  8
$AUDIT_BAD_LAYER1
  6
$AUDIT_BAD_LTYPE2
100
AcDbEllipse
 10
95.95359216861012
 20
-40.13126770028532
 30
0.0
 11
1.250000000000128
 21
-2.165063509461021
 31
0.0
210
0.0
220
0.0
230
0.9999999999999998
 40
0.5773502691896259
 41
3.742856870268576
 42
5.681921090500111
  0
ELLIPSE
  5
21045
330
20FEF
100
AcDbEntity
  8
$AUDIT_BAD_LAYER1
  6
$AUDIT_BAD_LTYPE2
100
AcDbEllipse
 10
95.95359216861012
 20
-23.80133608173081
 30
0.0
 11
1.250000000000128
 21
-2.165063509461021
 31
0.0
210
0.0
220
0.0
230
0.9999999999999998
 40
0.5773502691896259
 41
3.742856870268576
 42
5.681921090500111
  0
ELLIPSE
  5
21046
330
20FEF
100
AcDbEntity
  8
$AUDIT_BAD_LAYER1
  6
$AUDIT_BAD_LTYPE2
100
AcDbEllipse
 10
95.95359216861012
 20
-7.471404463176281
 30
0.0
 11
1.250000000000128
 21
-2.165063509461021
 31
0.0
210
0.0
220
0.0
230
0.9999999999999998
 40
0.5773502691896259
 41
3.742856870268575
 42
5.681921090500111
  0
ELLIPSE
  5
21047
330
20FEF
100
AcDbEntity
  8
$AUDIT_BAD_LAYER1
  6
$AUDIT_BAD_LTYPE2
100
AcDbEllipse
 10
95.95359216861012
 20
8.858527155378244
 30
0.0
 11
1.250000000000128
 21
-2.165063509461021
 31
0.0
210
0.0
220
0.0
230
0.9999999999999998
 40
0.5773502691896259
 41
3.742856870268575
 42
5.681921090500111
  0
ELLIPSE
  5
21048
330
20FEF
100
AcDbEntity
  8
$AUDIT_BAD_LAYER1
  6
$AUDIT_BAD_LTYPE2
100
AcDbEllipse
 10
95.95359216861012
 20
25.18845877393275
 30
0.0
 11
1.250000000000128
 21
-2.165063509461021
 31
0.0
210
0.0
220
0.0
230
0.9999999999999998
 40
0.5773502691896259
 41
3.742856870268576
 42
5.681921090500111
  0
ELLIPSE
  5
21049
330
20FEF
100
AcDbEntity
  8
$AUDIT_BAD_LAYER1
  6
$AUDIT_BAD_LTYPE2
100
AcDbEllipse
 10
-36.98248269446083
 20
100.3061442192835
 30
0.0
 11
1.25
 21
-2.165063509461096
 31
0.0
210
0.0
220
0.0
230
1.0
 40
0.577350269189626
 41
0.0
 42
6.283185307179586
  0
ELLIPSE
  5
2104A
330
20FEF
100
AcDbEntity
  8
$AUDIT_BAD_LAYER1
  6
$AUDIT_BAD_LTYPE2
100
AcDbEllipse
 10
-35.56826913208773
 20
101.1226408002112
 30
0.0
 11
1.25000000000013
 21
-2.165063509461022
 31
0.0
210
0.0
220
0.0
230
1.0
 40
0.5773502691896259
 41
3.742856870268576
 42
5.681921090500115
  0
ELLIPSE
  5
2104B
330
20FEF
100
AcDbEntity
  8
$AUDIT_BAD_LAYER1
  6
$AUDIT_BAD_LTYPE2
100
AcDbEllipse
 10
94.53937860623703
 20
-57.27769589976758
 30
0.0
 11
-1.249999999999999
 21
2.165063509461097
 31
0.0
210
0.0
220
0.0
230
0.9999999999999998
 40
0.5773502691896258
 41
0.0
 42
6.283185307179586
  0
ELLIPSE
  5
2104C
330
20FEF
100
AcDbEntity
  8
$AUDIT_BAD_LAYER1
  6
$AUDIT_BAD_LTYPE2
100
AcDbEllipse
 10
94.53937860623703
 20
-40.94776428121305
 30
0.0
 11
-1.249999999999999
 21
2.165063509461097
 31
0.0
210
0.0
220
0.0
230
0.9999999999999998
 40
0.5773502691896258
 41
0.0
 42
6.283185307179586
  0
ELLIPSE
  5
2104D
330
20FEF
100
AcDbEntity
  8
$AUDIT_BAD_LAYER1
  6
$AUDIT_BAD_LTYPE2
100
AcDbEllipse
 10
94.53937860623703
 20
-24.61783266265853
 30
0.0
 11
-1.249999999999999
 21
2.165063509461097
 31
0.0
210
0.0
220
0.0
230
0.9999999999999998
 40
0.5773502691896258
 41
0.0
 42
6.283185307179586
  0
ELLIPSE
  5
2104E
330
20FEF
100
AcDbEntity
  8
$AUDIT_BAD_LAYER1
  6
$AUDIT_BAD_LTYPE2
100
AcDbEllipse
 10
94.53937860623703
 20
-8.287901044104003
 30
0.0
 11
-1.249999999999999
 21
2.165063509461097
 31
0.0
210
0.0
220
0.0
230
0.9999999999999998
 40
0.5773502691896258
 41
0.0
 42
6.283185307179586
  0
ELLIPSE
  5
2104F
330
20FEF
100
AcDbEntity
  8
$AUDIT_BAD_LAYER1
  6
$AUDIT_BAD_LTYPE2
100
AcDbEllipse
 10
94.53937860623703
 20
8.042030574450524
 30
0.0
 11
-1.249999999999999
 21
2.165063509461097
 31
0.0
210
0.0
220
0.0
230
0.9999999999999998
 40
0.5773502691896258
 41
0.0
 42
6.283185307179586
  0
ELLIPSE
  5
21050
330
20FEF
100
AcDbEntity
  8
$AUDIT_BAD_LAYER1
  6
$AUDIT_BAD_LTYPE2
100
AcDbEllipse
 10
94.53937860623703
 20
24.37196219300503
 30
0.0
 11
-1.249999999999999
 21
2.165063509461097
 31
0.0
210
0.0
220
0.0
230
0.9999999999999998
 40
0.5773502691896258
 41
0.0
 42
6.283185307179586
  0
ELLIPSE
  5
21051
330
20FEF
100
AcDbEntity
  8
$AUDIT_BAD_LAYER1
  6
$AUDIT_BAD_LTYPE2
100
AcDbEllipse
 10
-29.20430810140879
 20
99.89789592881969
 30
0.0
 11
-3.250000000000002
 21
5.629165124598852
 31
0.0
210
0.0
220
0.0
230
1.0
 40
0.5773502691896261
 41
4.712388980384693
 42
7.853981633974483
  0
ELLIPSE
  5
21052
330
20FEF
100
AcDbEntity
  8
$AUDIT_BAD_LAYER1
  6
$AUDIT_BAD_LTYPE2
100
AcDbEllipse
 10
-27.7900945390357
 20
100.7143925097474
 30
0.0
 11
-3.250000000000002
 21
5.629165124598852
 31
0.0
210
0.0
220
0.0
230
1.0
 40
0.5773502691896259
 41
0.2193254863005917
 42
1.570796326794897
  0
ELLIPSE
  5
21053
330
20FEF
100
AcDbEntity
  8
$AUDIT_BAD_LAYER1
  6
$AUDIT_BAD_LTYPE2
100
AcDbEllipse
 10
-36.98248269446083
 20
116.6360758378381
 30
0.0
 11
1.25
 21
-2.165063509461096
 31
0.0
210
0.0
220
0.0
230
1.0
 40
0.577350269189626
 41
0.0
 42
6.283185307179586
  0
ELLIPSE
  5
21054
330
20FEF
100
AcDbEntity
  8
$AUDIT_BAD_LAYER1
  6
$AUDIT_BAD_LTYPE2
100
AcDbEllipse
 10
-35.56826913208773
 20
117.4525724187658
 30
0.0
 11
1.25000000000013
 21
-2.165063509461022
 31
0.0
210
0.0
220
0.0
230
1.0
 40
0.5773502691896259
 41
3.742856870268576
 42
5.681921090500115
  0
LINE
  5
21055
330
20FEF
100
AcDbEntity
  8
$AUDIT_BAD_LAYER1
  6
$AUDIT_BAD_LTYPE2
100
AcDbLine
 10
-16.47638604005095
 20
107.2463651571692
 30
0.0
 11
-16.47638604005094
 21
108.8793583190247
 31
0.0
  0
ELLIPSE
  5
21056
330
20FEF
100
AcDbEntity
  8
$AUDIT_BAD_LAYER1
  6
$AUDIT_BAD_LTYPE2
100
AcDbEllipse
 10
-17.89059960242404
 20
108.0628617380969
 30
0.0
 11
2.000000000000001
 21
0.0
 31
0.0
210
0.0
220
0.0
230
1.0
 40
0.5773502691896257
 41
5.497787143782129
 42
7.068583470577027
  0
LINE
  5
21057
330
20FEF
100
AcDbEntity
  8
$AUDIT_BAD_LAYER1
  6
$AUDIT_BAD_LTYPE2
100
AcDbLine
 10
-16.47638604005094
 20
107.2463651571692
 30
0.0
 11
-15.06217247767785
 21
106.4298685762415
 31
0.0
  0
ELLIPSE
  5
21058
330
20FEF
100
AcDbEntity
  8
$AUDIT_BAD_LAYER1
  6
$AUDIT_BAD_LTYPE2
100
AcDbEllipse
 10
-17.89059960242404
 20
108.0628617380969
 30
0.0
 11
4.000000000000003
 21
0.0
 31
0.0
210
0.0
220
0.0
230
1.0
 40
0.5773502691896257
 41
5.497787143782137
 42
7.068583470577034
  0
LINE
  5
21059
330
20FEF
100
AcDbEntity
  8
$AUDIT_BAD_LAYER1
  6
$AUDIT_BAD_LTYPE2
100
AcDbLine
 10
-15.06217247767785
 20
106.4298685762415
 30
0.0
 11
-15.06217247767785
 21
-7.502014424648404
 31
0.0
  0
LINE
  5
2105A
330
20FEF
100
AcDbEntity
  8
$AUDIT_BAD_LAYER1
  6
$AUDIT_BAD_LTYPE2
100
AcDbLine
 10
-16.47638604005094
 20
108.8793583190247
 30
0.0
 11
-15.06217247767785
 21
109.6958548999524
 31
0.0
  0
LINE
  5
2105B
330
20FEF
100
AcDbEntity
  8
$AUDIT_BAD_LAYER1
  6
$AUDIT_BAD_LTYPE2
100
AcDbLine
 10
-13.89059960242404
 20
-5.869021262792948
 30
0.0
 11
-13.89059960242404
 21
108.0628617380969
 31
0.0
  0
LINE
  5
2105C
330
20FEF
100
AcDbEntity
  8
$AUDIT_BAD_LAYER1
  6
$AUDIT_BAD_LTYPE2
100
AcDbLine
 10
-42.99289033454648
 20
124.1886692114195
 30
0.0
 11
-16.47638604005094
 21
108.8793583190247
 31
0.0
  0
LINE
  5
2105D
330
20FEF
100
AcDbEntity
  8
$AUDIT_BAD_LAYER1
  6
$AUDIT_BAD_LTYPE2
100
AcDbLine
 10
-42.9928903345465
 20
91.93705426477434
 30
0.0
 11
-42.99289033454648
 21
124.1886692114195
 31
0.0
  0
LINE
  5
2105E
330
20FEF
100
AcDbEntity
  8
$AUDIT_BAD_LAYER1
  6
$AUDIT_BAD_LTYPE2
100
AcDbLine
 10
-41.57867677217339
 20
125.0051657923473
 30
0.0
 11
-42.99289033454648
 21
124.1886692114195
 31
0.0
  0
LINE
  5
2105F
330
20FEF
100
AcDbEntity
  8
$AUDIT_BAD_LAYER1
  6
$AUDIT_BAD_LTYPE2
100
AcDbLine
 10
-16.47638604005094
 20
107.2463651571692
 30
0.0
 11
-46.17487084988595
 21
90.09993695768697
 31
0.0
  0
LINE
  5
21060
330
20FEF
100
AcDbEntity
  8
$AUDIT_BAD_LAYER1
  6
$AUDIT_BAD_LTYPE2
100
AcDbLine
 10
-74.45914209734784
 20
-43.96638291247477
 30
0.0
 11
-74.45914209734784
 21
-55.23645444744826
 31
0.0
  0
LINE
  5
21061
330
20FEF
100
AcDbEntity
  8
$AUDIT_BAD_LAYER1
  6
$AUDIT_BAD_LTYPE2
100
AcDbLine
 10
-44.76065728751286
 20
89.28344037675921
 30
0.0
 11
-15.06217247767785
 21
106.4298685762415
 31
0.0
  0
LINE
  5
21062
330
20FEF
100
AcDbEntity
  8
$AUDIT_BAD_LAYER1
  6
$AUDIT_BAD_LTYPE2
100
AcDbLine
 10
-15.06217247767785
 20
109.6958548999524
 30
0.0
 11
-41.57867677217339
 21
125.0051657923473
 31
0.0
  0
LINE
  5
21063
330
20FEF
100
AcDbEntity
  8
$AUDIT_BAD_LAYER1
  6
$AUDIT_BAD_LTYPE2
100
AcDbLine
 10
-73.04492853497473
 20
-56.052951028376
 30
0.0
 11
-73.04492853497476
 21
-44.78287949340248
 31
0.0
  0
LINE
  5
21064
330
20FEF
100
AcDbEntity
  8
$AUDIT_BAD_LAYER1
  6
$AUDIT_BAD_LTYPE2
100
AcDbLine
 10
-71.63071497260165
 20
-58.50244077115918
 30
0.0
 11
10.39367164503787
 21
-105.8592424649672
 31
0.0
  0
ELLIPSE
  5
21065
330
20FEF
100
AcDbEntity
  8
$AUDIT_BAD_LAYER1
  6
$AUDIT_BAD_LTYPE2
100
AcDbEllipse
 10
-17.89059960242402
 20
-74.83237238971368
 30
0.0
 11
-2.5
 21
0.0000000000001499
 31
0.0
210
0.0
220
0.0
230
1.0
 40
0.5773502691896258
 41
0.0
 42
6.283185307179586
  0
ELLIPSE
  5
21066
330
20FEF
100
AcDbEntity
  8
$AUDIT_BAD_LAYER1
  6
$AUDIT_BAD_LTYPE2
100
AcDbEllipse
 10
-3.748463978693066
 20
-66.66740658043642
 30
0.0
 11
-2.5
 21
0.0000000000001499
 31
0.0
210
0.0
220
0.0
230
1.0
 40
0.5773502691896258
 41
0.0
 42
6.283185307179586
  0
ELLIPSE
  5
21067
330
20FEF
100
AcDbEntity
  8
$AUDIT_BAD_LAYER1
  6
$AUDIT_BAD_LTYPE2
100
AcDbEllipse
 10
-3.748463978693066
 20
-68.30039974229187
 30
0.0
 11
-2.5
 21
-0.0000000000001492
 31
0.0
210
0.0
220
0.0
230
1.0
 40
0.5773502691896258
 41
3.742856870268582
 42
5.681921090500122
  0
ELLIPSE
  5
21068
330
20FEF
100
AcDbEntity
  8
$AUDIT_BAD_LAYER1
  6
$AUDIT_BAD_LTYPE2
100
AcDbEllipse
 10
-17.89059960242402
 20
-76.46536555156912
 30
0.0
 11
-2.5
 21
-0.0000000000001492
 31
0.0
210
0.0
220
0.0
230
1.0
 40
0.5773502691896258
 41
3.742856870268582
 42
5.681921090500122
  0
LINE
  5
21069
330
20FEF
100
AcDbEntity
  8
$AUDIT_BAD_LAYER1
  6
$AUDIT_BAD_LTYPE2
100
AcDbLine
 10
10.39367164503785
 20
-107.4922356268227
 30
0.0
 11
-71.63071497260165
 21
-60.13543393301462
 31
0.0
  0
ELLIPSE
  5
2106A
330
20FEF
100
AcDbEntity
  8
$AUDIT_BAD_LAYER1
  6
$AUDIT_BAD_LTYPE2
100
AcDbEllipse
 10
45.39545731377194
 20
-50.54159910711387
 30
0.0
 11
1.24999999999987
 21
2.165063509461171
 31
0.0
210
0.0
220
0.0
230
1.0
 40
0.577350269189626
 41
3.742856870268582
 42
5.681921090500117
  0
ELLIPSE
  5
2106B
330
20FEF
100
AcDbEntity
  8
$AUDIT_BAD_LAYER1
  6
$AUDIT_BAD_LTYPE2
100
AcDbEllipse
 10
46.80967087614503
 20
-51.35809568804159
 30
0.0
 11
-1.25
 21
-2.165063509461096
 31
0.0
210
0.0
220
0.0
230
1.0
 40
0.5773502691896259
 41
0.0
 42
6.283185307179586
  0
ELLIPSE
  5
2106C
330
20FEF
100
AcDbEntity
  8
$AUDIT_BAD_LAYER1
  6
$AUDIT_BAD_LTYPE2
100
AcDbEllipse
 10
45.39545731377194
 20
-34.21166748855934
 30
0.0
 11
1.24999999999987
 21
2.165063509461171
 31
0.0
210
0.0
220
0.0
230
1.0
 40
0.577350269189626
 41
3.742856870268584
 42
5.68192109050012
  0
ELLIPSE
  5
2106D
330
20FEF
100
AcDbEntity
  8
$AUDIT_BAD_LAYER1
  6
$AUDIT_BAD_LTYPE2
100
AcDbEllipse
 10
46.80967087614503
 20
-35.02816406948706
 30
0.0
 11
-1.25
 21
-2.165063509461096
 31
0.0
210
0.0
220
0.0
230
1.0
 40
0.5773502691896259
 41
0.0
 42
6.283185307179586
  0
ELLIPSE
  5
2106E
330
20FEF
100
AcDbEntity
  8
$AUDIT_BAD_LAYER1
  6
$AUDIT_BAD_LTYPE2
100
AcDbEllipse
 10
45.39545731377194
 20
-17.88173587000482
 30
0.0
 11
1.24999999999987
 21
2.165063509461171
 31
0.0
210
0.0
220
0.0
230
1.0
 40
0.577350269189626
 41
3.742856870268582
 42
5.68192109050012
  0
ELLIPSE
  5
2106F
330
20FEF
100
AcDbEntity
  8
$AUDIT_BAD_LAYER1
  6
$AUDIT_BAD_LTYPE2
100
AcDbEllipse
 10
46.80967087614503
 20
-18.69823245093254
 30
0.0
 11
-1.25
 21
-2.165063509461096
 31
0.0
210
0.0
220
0.0
230
1.0
 40
0.5773502691896259
 41
0.0
 42
6.283185307179586
  0
ELLIPSE
  5
21070
330
20FEF
100
AcDbEntity
  8
$AUDIT_BAD_LAYER1
  6
$AUDIT_BAD_LTYPE2
100
AcDbEllipse
 10
45.39545731377194
 20
-1.551804251450299
 30
0.0
 11
1.24999999999987
 21
2.165063509461171
 31
0.0
210
0.0
220
0.0
230
1.0
 40
0.577350269189626
 41
3.742856870268584
 42
5.68192109050012
  0
ELLIPSE
  5
21071
330
20FEF
100
AcDbEntity
  8
$AUDIT_BAD_LAYER1
  6
$AUDIT_BAD_LTYPE2
100
AcDbEllipse
 10
46.80967087614503
 20
-2.368300832378018
 30
0.0
 11
-1.25
 21
-2.165063509461096
 31
0.0
210
0.0
220
0.0
230
1.0
 40
0.5773502691896259
 41
0.0
 42
6.283185307179586
  0
ELLIPSE
  5
21072
330
20FEF
100
AcDbEntity
  8
$AUDIT_BAD_LAYER1
  6
$AUDIT_BAD_LTYPE2
100
AcDbEllipse
 10
45.39545731377194
 20
14.77812736710422
 30
0.0
 11
1.24999999999987
 21
2.165063509461171
 31
0.0
210
0.0
220
0.0
230
1.0
 40
0.577350269189626
 41
3.742856870268582
 42
5.68192109050012
  0
ELLIPSE
  5
21073
330
20FEF
100
AcDbEntity
  8
$AUDIT_BAD_LAYER1
  6
$AUDIT_BAD_LTYPE2
100
AcDbEllipse
 10
46.80967087614503
 20
13.9616307861765
 30
0.0
 11
-1.25
 21
-2.165063509461096
 31
0.0
210
0.0
220
0.0
230
1.0
 40
0.5773502691896259
 41
0.0
 42
6.283185307179586
  0
ELLIPSE
  5
21074
330
20FEF
100
AcDbEntity
  8
$AUDIT_BAD_LAYER1
  6
$AUDIT_BAD_LTYPE2
100
AcDbEllipse
 10
-40.87156999098683
 20
-8.900273479799816
 30
0.0
 11
1.24999999999987
 21
2.165063509461172
 31
0.0
210
0.0
220
0.0
230
1.0
 40
0.5773502691896255
 41
3.742856870268584
 42
5.681921090500117
  0
ELLIPSE
  5
21075
330
20FEF
100
AcDbEntity
  8
$AUDIT_BAD_LAYER1
  6
$AUDIT_BAD_LTYPE2
100
AcDbEllipse
 10
-39.45735642861374
 20
-9.716770060727535
 30
0.0
 11
1.249999999999999
 21
2.165063509461097
 31
0.0
210
0.0
220
0.0
230
0.9999999999999998
 40
0.5773502691896258
 41
0.0
 42
6.283185307179586
  0
ELLIPSE
  5
21076
330
20FEF
100
AcDbEntity
  8
$AUDIT_BAD_LAYER1
  6
$AUDIT_BAD_LTYPE2
100
AcDbEllipse
 10
-40.87156999098683
 20
7.429658138754708
 30
0.0
 11
1.24999999999987
 21
2.165063509461172
 31
0.0
210
0.0
220
0.0
230
1.0
 40
0.5773502691896255
 41
3.742856870268584
 42
5.681921090500117
  0
ELLIPSE
  5
21077
330
20FEF
100
AcDbEntity
  8
$AUDIT_BAD_LAYER1
  6
$AUDIT_BAD_LTYPE2
100
AcDbEllipse
 10
-39.45735642861374
 20
6.613161557826989
 30
0.0
 11
1.249999999999999
 21
2.165063509461097
 31
0.0
210
0.0
220
0.0
230
0.9999999999999998
 40
0.5773502691896258
 41
0.0
 42
6.283185307179586
  0
ELLIPSE
  5
21078
330
20FEF
100
AcDbEntity
  8
$AUDIT_BAD_LAYER1
  6
$AUDIT_BAD_LTYPE2
100
AcDbEllipse
 10
-40.87156999098683
 20
23.75958975730922
 30
0.0
 11
1.24999999999987
 21
2.165063509461172
 31
0.0
210
0.0
220
0.0
230
1.0
 40
0.5773502691896255
 41
3.742856870268584
 42
5.681921090500117
  0
ELLIPSE
  5
21079
330
20FEF
100
AcDbEntity
  8
$AUDIT_BAD_LAYER1
  6
$AUDIT_BAD_LTYPE2
100
AcDbEllipse
 10
-39.45735642861374
 20
22.94309317638151
 30
0.0
 11
1.249999999999999
 21
2.165063509461097
 31
0.0
210
0.0
220
0.0
230
0.9999999999999998
 40
0.5773502691896258
 41
0.0
 42
6.283185307179586
  0
ELLIPSE
  5
2107A
330
20FEF
100
AcDbEntity
  8
$AUDIT_BAD_LAYER1
  6
$AUDIT_BAD_LTYPE2
100
AcDbEllipse
 10
-40.87156999098683
 20
40.08952137586375
 30
0.0
 11
1.24999999999987
 21
2.165063509461172
 31
0.0
210
0.0
220
0.0
230
1.0
 40
0.5773502691896255
 41
3.742856870268584
 42
5.681921090500117
  0
ELLIPSE
  5
2107B
330
20FEF
100
AcDbEntity
  8
$AUDIT_BAD_LAYER1
  6
$AUDIT_BAD_LTYPE2
100
AcDbEllipse
 10
-39.45735642861374
 20
39.27302479493604
 30
0.0
 11
1.249999999999999
 21
2.165063509461097
 31
0.0
210
0.0
220
0.0
230
0.9999999999999998
 40
0.5773502691896258
 41
0.0
 42
6.283185307179586
  0
ELLIPSE
  5
2107C
330
20FEF
100
AcDbEntity
  8
$AUDIT_BAD_LAYER1
  6
$AUDIT_BAD_LTYPE2
100
AcDbEllipse
 10
-40.87156999098683
 20
56.41945299441828
 30
0.0
 11
1.24999999999987
 21
2.165063509461172
 31
0.0
210
0.0
220
0.0
230
1.0
 40
0.5773502691896255
 41
3.742856870268584
 42
5.681921090500117
  0
ELLIPSE
  5
2107D
330
20FEF
100
AcDbEntity
  8
$AUDIT_BAD_LAYER1
  6
$AUDIT_BAD_LTYPE2
100
AcDbEllipse
 10
-39.45735642861374
 20
55.60295641349056
 30
0.0
 11
1.249999999999999
 21
2.165063509461097
 31
0.0
210
0.0
220
0.0
230
0.9999999999999998
 40
0.5773502691896258
 41
0.0
 42
6.283185307179586
  0
ELLIPSE
  5
2107E
330
20FEF
100
AcDbEntity
  8
$AUDIT_BAD_LAYER1
  6
$AUDIT_BAD_LTYPE2
100
AcDbEllipse
 10
-40.87156999098683
 20
72.74938461297279
 30
0.0
 11
1.24999999999987
 21
2.165063509461172
 31
0.0
210
0.0
220
0.0
230
1.0
 40
0.5773502691896255
 41
3.742856870268584
 42
5.681921090500117
  0
ELLIPSE
  5
2107F
330
20FEF
100
AcDbEntity
  8
$AUDIT_BAD_LAYER1
  6
$AUDIT_BAD_LTYPE2
100
AcDbEllipse
 10
-39.45735642861374
 20
71.93288803204507
 30
0.0
 11
1.249999999999999
 21
2.165063509461097
 31
0.0
210
0.0
220
0.0
230
0.9999999999999998
 40
0.5773502691896258
 41
0.0
 42
6.283185307179586
  0
ELLIPSE
  5
21080
330
20FEF
100
AcDbEntity
  8
$AUDIT_BAD_LAYER1
  6
$AUDIT_BAD_LTYPE2
100
AcDbEllipse
 10
-40.87156999098683
 20
89.07931623152732
 30
0.0
 11
1.24999999999987
 21
2.165063509461172
 31
0.0
210
0.0
220
0.0
230
1.0
 40
0.5773502691896255
 41
3.742856870268584
 42
5.681921090500122
  0
ELLIPSE
  5
21081
330
20FEF
100
AcDbEntity
  8
$AUDIT_BAD_LAYER1
  6
$AUDIT_BAD_LTYPE2
100
AcDbEllipse
 10
-39.45735642861374
 20
88.2628196505996
 30
0.0
 11
1.249999999999999
 21
2.165063509461097
 31
0.0
210
0.0
220
0.0
230
0.9999999999999998
 40
0.5773502691896258
 41
0.0
 42
6.283185307179586
  0
LINE
  5
21082
330
20FEF
100
AcDbEntity
  8
$AUDIT_BAD_LAYER1
  6
$AUDIT_BAD_LTYPE2
100
AcDbLine
 10
-44.76065728751287
 20
-13.95438731574246
 30
0.0
 11
-51.70448095336566
 21
-24.69133760527233
 31
0.0
  0
LINE
  5
21083
330
20FEF
100
AcDbEntity
  8
$AUDIT_BAD_LAYER1
  6
$AUDIT_BAD_LTYPE2
100
AcDbLine
 10
-46.17487084988596
 20
-13.13789073481473
 30
0.0
 11
-44.76065728751287
 21
-13.95438731574246
 31
0.0
  0
LINE
  5
21084
330
20FEF
100
AcDbEntity
  8
$AUDIT_BAD_LAYER1
  6
$AUDIT_BAD_LTYPE2
100
AcDbLine
 10
-53.11869451573875
 20
-23.8748410243446
 30
0.0
 11
-46.17487084988596
 21
-13.13789073481473
 31
0.0
  0
LINE
  5
21085
330
20FEF
100
AcDbEntity
  8
$AUDIT_BAD_LAYER1
  6
$AUDIT_BAD_LTYPE2
100
AcDbLine
 10
-53.11869451573875
 20
-23.8748410243446
 30
0.0
 11
-51.70448095336566
 21
-24.69133760527233
 31
0.0
  0
LINE
  5
21086
330
20FEF
100
AcDbEntity
  8
$AUDIT_BAD_LAYER1
  6
$AUDIT_BAD_LTYPE2
100
AcDbLine
 10
-51.70448095336566
 20
-24.69133760527233
 30
0.0
 11
-70.12333364888689
 21
-39.07563508342869
 31
0.0
  0
LINE
  5
21087
330
20FEF
100
AcDbEntity
  8
$AUDIT_BAD_LAYER1
  6
$AUDIT_BAD_LTYPE2
100
AcDbLine
 10
-71.53754721125999
 20
-38.25913850250097
 30
0.0
 11
-53.11869451573875
 21
-23.8748410243446
 31
0.0
  0
LINE
  5
21088
330
20FEF
100
AcDbEntity
  8
$AUDIT_BAD_LAYER1
  6
$AUDIT_BAD_LTYPE2
100
AcDbLine
 10
-71.53754721125999
 20
-38.25913850250097
 30
0.0
 11
-70.12333364888689
 21
-39.07563508342869
 31
0.0
  0
ELLIPSE
  5
21089
330
20FEF
100
AcDbEntity
  8
$AUDIT_BAD_LAYER1
  6
$AUDIT_BAD_LTYPE2
100
AcDbEllipse
 10
-69.50939462904202
 20
-42.74163804108318
 30
0.0
 11
-2.49999999999974
 21
-4.330127018922341
 31
0.0
210
0.0
220
0.0
230
1.0
 40
0.5773502691896257
 41
4.101523742186529
 42
5.497787143781946
  0
ELLIPSE
  5
2108A
330
20FEF
100
AcDbEntity
  8
$AUDIT_BAD_LAYER1
  6
$AUDIT_BAD_LTYPE2
100
AcDbEllipse
 10
-70.92360819141511
 20
-41.92514146015546
 30
0.0
 11
2.500000000000258
 21
4.330127018922044
 31
0.0
210
0.0
220
0.0
230
1.0
 40
0.5773502691896258
 41
0.959931088597079
 42
2.356194490192589
  0
LINE
  5
2108B
330
20FEF
100
AcDbEntity
  8
$AUDIT_BAD_LAYER1
  6
$AUDIT_BAD_LTYPE2
100
AcDbLine
 10
-73.04492853497476
 20
-44.78287949340248
 30
0.0
 11
-74.45914209734784
 21
-43.96638291247477
 31
0.0
  0
LINE
  5
2108C
330
20FEF
100
AcDbEntity
  8
$AUDIT_BAD_LAYER1
  6
$AUDIT_BAD_LTYPE2
100
AcDbLine
 10
-44.76065728751286
 20
89.28344037675921
 30
0.0
 11
-44.76065728751287
 21
-13.95438731574247
 31
0.0
  0
LINE
  5
2108D
330
20FEF
100
AcDbEntity
  8
$AUDIT_BAD_LAYER1
  6
$AUDIT_BAD_LTYPE2
100
AcDbLine
 10
-46.17487084988595
 20
90.09993695768697
 30
0.0
 11
-44.76065728751286
 21
89.28344037675921
 31
0.0
  0
LINE
  5
2108E
330
20FEF
100
AcDbEntity
  8
$AUDIT_BAD_LAYER1
  6
$AUDIT_BAD_LTYPE2
100
AcDbLine
 10
-46.17487084988596
 20
-13.13789073481473
 30
0.0
 11
-46.17487084988595
 21
90.09993695768697
 31
0.0
  0
ENDBLK
  5
20FF1
330
20FEF
100
AcDbEntity
  8
0
100
AcDbBlockEnd
  0
ENDSEC
  0
SECTION
  2
ENTITIES
  0
INSERT
  5
2108F
330
1F
100
AcDbEntity
  8
0
100
AcDbBlockReference
  2
SAEL440_120_2-Front
 10
0.0
 20
0.0
 30
0.0
  0
INSERT
  5
21090
330
1F
100
AcDbEntity
  8
0
100
AcDbBlockReference
  2
SAEL440_120_2-Left
 10
150.1
 20
0.0
 30
0.0
  0
INSERT
  5
21091
330
1F
100
AcDbEntity
  8
0
100
AcDbBlockReference
  2
SAEL440_120_2-Right
 10
-150.1
 20
0.0
 30
0.0
  0
INSERT
  5
21092
330
1F
100
AcDbEntity
  8
0
100
AcDbBlockReference
  2
SAEL440_120_2-Top
 10
0.0
 20
-50.6
 30
0.0
  0
INSERT
  5
21093
330
1F
100
AcDbEntity
  8
0
100
AcDbBlockReference
  2
SAEL440_120_2-Bottom
 10
0.0
 20
208.6
 30
0.0
  0
INSERT
  5
21094
330
1F
100
AcDbEntity
  8
0
100
AcDbBlockReference
  2
SAEL440_120_2-ISO
 10
224.559142097348
 20
-175.6051657923472
 30
0.0
  0
MTEXT
  5
21095
330
1F
100
AcDbEntity
  8
0
100
AcDbMText
 10
0.0
 20
-185.2
 30
0.0
 40
15.8
 41
0.0
 71
     5
 72
     5
  1
SAEL440/120/2
 73
     1
 44
1.0
1001
ACAD
1000
MTEXTBEGIN
1070
    73
1070
     1
1070
    44
1040
1.0
1070
    74
1070
     0
1000
MTEXTEND
  0
ENDSEC
  0
SECTION
  2
OBJECTS
  0
DICTIONARY
  5
C
330
0
100
AcDbDictionary
281
     1
  3
ACAD_CIP_PREVIOUS_PRODUCT_INFO
350
216
  3
ACAD_COLOR
350
6B
  3
ACAD_DETAILVIEWSTYLE
350
21B
  3
ACAD_GROUP
350
D
  3
ACAD_LAYOUT
350
1A
  3
ACAD_MATERIAL
350
6A
  3
ACAD_MLEADERSTYLE
350
12D
  3
ACAD_MLINESTYLE
350
17
  3
ACAD_PLOTSETTINGS
350
19
  3
ACAD_PLOTSTYLENAME
350
E
  3
ACAD_SCALELIST
350
10C
  3
ACAD_SECTIONVIEWSTYLE
350
219
  3
ACAD_TABLESTYLE
350
7E
  3
ACAD_VISUALSTYLE
350
EF
  3
ACDB_RECOMPOSE_DATA
350
21196
  3
AcDbVariableDictionary
350
5E
  3
DWGPROPS
350
21197
  0
DICTIONARY
  5
210E6
330
8
100
AcDbDictionary
280
     1
281
     1
  0
DICTIONARY
  5
210B9
330
EA
100
AcDbDictionary
280
     1
281
     1
  3
ACAD_XREC_ROUNDTRIP
360
210BA
  0
DICTIONARY
  5
1FF
330
2
100
AcDbDictionary
280
     1
281
     1
  3
ACAD_LAYERSTATES
360
200
  0
DICTIONARY
  5
13C
330
10
100
AcDbDictionary
280
     1
281
     1
  0
DICTIONARY
  5
1CE
330
1F
100
AcDbDictionary
280
     1
281
     1
  3
ACAD_LAYOUTSELFREF
360
210EE
  0
DICTIONARY
  5
21099
330
D2
100
AcDbDictionary
280
     1
281
     1
  3
ACAD_LAYOUTSELFREF
360
210F7
  0
DICTIONARY
  5
2109B
330
D6
100
AcDbDictionary
280
     1
281
     1
  3
ACAD_LAYOUTSELFREF
360
210FA
  0
XRECORD
  5
216
102
{ACAD_REACTORS
330
C
102
}
330
C
100
AcDbXrecord
280
     1
300
ACD
300
2021
300
87393ACD_2021_0F
  0
DICTIONARY
  5
6B
102
{ACAD_REACTORS
330
C
102
}
330
C
100
AcDbDictionary
281
     1
  0
DICTIONARY
  5
21B
102
{ACAD_REACTORS
330
C
102
}
330
C
100
AcDbDictionary
281
     1
  3
Metric50
350
21C
  0
DICTIONARY
  5
D
102
{ACAD_REACTORS
330
C
102
}
330
C
100
AcDbDictionary
281
     1
  0
DICTIONARY
  5
1A
102
{ACAD_REACTORS
330
C
102
}
330
C
100
AcDbDictionary
281
     1
  3
Layout1
350
D3
  3
Layout2
350
D7
  3
Model
350
22
  0
DICTIONARY
  5
6A
102
{ACAD_REACTORS
330
C
102
}
330
C
100
AcDbDictionary
281
     1
  3
ByBlock
350
ED
  3
ByLayer
350
EC
  3
Global
350
EE
  0
DICTIONARY
  5
12D
102
{ACAD_REACTORS
330
C
102
}
330
C
100
AcDbDictionary
281
     1
  3
Standard
350
12E
  0
DICTIONARY
  5
17
102
{ACAD_REACTORS
330
C
102
}
330
C
100
AcDbDictionary
281
     1
  3
Standard
350
18
  0
DICTIONARY
  5
19
102
{ACAD_REACTORS
330
C
102
}
330
C
100
AcDbDictionary
281
     1
  0
ACDBDICTIONARYWDFLT
  5
E
102
{ACAD_REACTORS
330
C
102
}
330
C
100
AcDbDictionary
281
     1
  3
Normal
350
F
100
AcDbDictionaryWithDefault
340
F
  0
DICTIONARY
  5
10C
102
{ACAD_REACTORS
330
C
102
}
330
C
100
AcDbDictionary
281
     1
  3
A0
350
10D
  3
A1
350
1BE
  3
A2
350
1BF
  3
A3
350
1C0
  3
A4
350
1C1
  3
A5
350
1C2
  3
A6
350
1C3
  3
A7
350
1C4
  3
A8
350
1C5
  3
A9
350
1C6
  3
B0
350
1C7
  3
B1
350
1C8
  3
B2
350
1C9
  3
B3
350
1CA
  3
B4
350
1CB
  3
B5
350
1CC
  3
B6
350
1CD
  0
DICTIONARY
  5
219
102
{ACAD_REACTORS
330
C
102
}
330
C
100
AcDbDictionary
281
     1
  3
Metric50
350
21A
  0
DICTIONARY
  5
7E
102
{ACAD_REACTORS
330
C
102
}
330
C
100
AcDbDictionary
281
     1
  3
Standard
350
7F
  0
DICTIONARY
  5
EF
102
{ACAD_REACTORS
330
C
102
}
330
C
100
AcDbDictionary
281
     1
  3
2dWireframe
350
F5
  3
Basic
350
F4
  3
Brighten
350
FB
  3
ColorChange
350
FF
  3
Conceptual
350
F8
  3
Dim
350
FA
  3
EdgeColorOff
350
21190
  3
Facepattern
350
FE
  3
Flat
350
F0
  3
FlatWithEdges
350
F1
  3
Gouraud
350
F2
  3
GouraudWithEdges
350
F3
  3
Hidden
350
F7
  3
JitterOff
350
1E4
  3
Linepattern
350
FD
  3
OverhangOff
350
1E5
  3
Realistic
350
F9
  3
Shaded
350
1F3
  3
Shaded with edges
350
1F2
  3
Shades of Gray
350
1EF
  3
Sketchy
350
1F0
  3
Thicken
350
FC
  3
Wireframe
350
F6
  3
X-Ray
350
1F1
  0
XRECORD
  5
21196
102
{ACAD_REACTORS
330
C
102
}
330
C
100
AcDbXrecord
280
     1
 90
        1
330
7F
  0
DICTIONARY
  5
5E
102
{ACAD_REACTORS
330
C
102
}
330
C
100
AcDbDictionary
281
     1
  3
CANNOSCALE
350
146
  3
CENTEREXE
350
259
  3
CENTERLTYPEFILE
350
25A
  3
CMLEADERSTYLE
350
145
  3
CTABLESTYLE
350
84
  3
CVIEWDETAILSTYLE
350
227
  3
CVIEWSECTIONSTYLE
350
228
  3
DIMASSOC
350
5F
  3
HIDETEXT
350
63
  3
INDEXCTL
350
21143
  3
LAYEREVAL
350
1AE
  3
LAYERNOTIFY
350
1AF
  3
LIGHTINGUNITS
350
21141
  3
MSLTSCALE
350
21140
  3
PSOLHEIGHT
350
21193
  3
PSOLWIDTH
350
21192
  3
SORTENTS
350
21142
  3
XCLIPFRAME
350
21194
  0
XRECORD
  5
21197
102
{ACAD_REACTORS
330
C
102
}
330
C
100
AcDbXrecord
280
     1
  1
DWGPROPS COOKIE
  2

  3

  4

  6

  7

  8
truole
  9

300
=
301
=
302
=
303
=
304
=
305
=
306
=
307
=
308
=
309
=
 40
0.0096180555555556
 41
2460398.356956019
 42
2460398.387210648
  1

 90
        0
  0
XRECORD
  5
210BA
102
{ACAD_REACTORS
330
210B9
102
}
330
210B9
100
AcDbXrecord
280
     1
102
UCS
 74
     0
 71
     1
 10
0.0
 20
0.0
 30
0.0
 10
1.0
 20
0.0
 30
0.0
 10
0.0
 20
1.0
 30
0.0
146
0.0
 79
     0
102
VIEW
281
     0
  0
DICTIONARY
  5
200
102
{ACAD_REACTORS
330
1FF
102
}
330
1FF
100
AcDbDictionary
281
     1
  0
XRECORD
  5
210EE
102
{ACAD_REACTORS
330
1CE
102
}
330
1CE
100
AcDbXrecord
280
     1
340
1F
  0
XRECORD
  5
210F7
102
{ACAD_REACTORS
330
21099
102
}
330
21099
100
AcDbXrecord
280
     1
340
D2
  0
XRECORD
  5
210FA
102
{ACAD_REACTORS
330
2109B
102
}
330
2109B
100
AcDbXrecord
280
     1
340
D6
  0
ACDBDETAILVIEWSTYLE
  5
21C
102
{ACAD_XDICTIONARY
360
211D4
102
}
102
{ACAD_REACTORS
330
21B
102
}
330
21B
100
AcDbModelDocViewStyle
 70
     0
  3
Metric50
290
     0
100
AcDbDetailViewStyle
 70
     0
 71
     0
 90
        3
 71
     1
340
11
 40
5.0
340
0
 40
5.0
300

 40
0.0
280
     1
 71
     2
340
16
 90
       25
 71
     3
340
11
 40
5.0
 90
        0
 40
15.0
 90
        1
300
%<\AcVar ViewDetailId>% (%<\AcVar ViewScale \f "%sn">%)
 71
     4
340
16
 90
       25
340
16
 90
       25
280
     0
  0
LAYOUT
  5
D3
102
{ACAD_XDICTIONARY
360
2119B
102
}
102
{ACAD_REACTORS
330
1A
102
}
330
1A
100
AcDbPlotSettings
  1

  2
C:\Documents and Settings\basas\Application Data\Autodesk\AutoCAD 2005\R16.1\enu\plotters\Default Windows System Printer.pc3
  4

  6

 40
0.0
 41
0.0
 42
0.0
 43
0.0
 44
0.0
 45
0.0
 46
0.0
 47
0.0
 48
0.0
 49
0.0
140
0.0
141
0.0
142
1.0
143
1.0
 70
   688
 72
     0
 73
     0
 74
     5
  7

 75
    16
147
1.0
148
0.0
149
0.0
100
AcDbLayout
  1
Layout1
 70
     1
 71
     1
 10
0.0
 20
0.0
 11
12.0
 21
9.0
 12
0.0
 22
0.0
 32
0.0
 14
0.0
 24
0.0
 34
0.0
 15
0.0
 25
0.0
 35
0.0
146
0.0
 13
0.0
 23
0.0
 33
0.0
 16
1.0
 26
0.0
 36
0.0
 17
0.0
 27
1.0
 37
0.0
 76
     0
330
D2
  0
LAYOUT
  5
D7
102
{ACAD_XDICTIONARY
360
2119D
102
}
102
{ACAD_REACTORS
330
1A
102
}
330
1A
100
AcDbPlotSettings
  1

  2
C:\Documents and Settings\basas\Application Data\Autodesk\AutoCAD 2005\R16.1\enu\plotters\Default Windows System Printer.pc3
  4

  6

 40
0.0
 41
0.0
 42
0.0
 43
0.0
 44
0.0
 45
0.0
 46
0.0
 47
0.0
 48
0.0
 49
0.0
140
0.0
141
0.0
142
1.0
143
1.0
 70
   688
 72
     0
 73
     0
 74
     5
  7

 75
    16
147
1.0
148
0.0
149
0.0
100
AcDbLayout
  1
Layout2
 70
     1
 71
     2
 10
0.0
 20
0.0
 11
12.0
 21
9.0
 12
0.0
 22
0.0
 32
0.0
 14
0.0
 24
0.0
 34
0.0
 15
0.0
 25
0.0
 35
0.0
146
0.0
 13
0.0
 23
0.0
 33
0.0
 16
1.0
 26
0.0
 36
0.0
 17
0.0
 27
1.0
 37
0.0
 76
     0
330
D6
  0
LAYOUT
  5
22
102
{ACAD_XDICTIONARY
360
21198
102
}
102
{ACAD_REACTORS
330
1A
102
}
330
1A
100
AcDbPlotSettings
  1

  2
none_device
  4
ISO_A4_(210.00_x_297.00_MM)
  6

 40
7.5
 41
20.0
 42
7.5
 43
20.0
 44
210.0
 45
297.0
 46
11.54999923706054
 47
-13.65000009536743
 48
0.0
 49
0.0
140
0.0
141
0.0
142
1.0
143
8.704084754739808
 70
 11952
 72
     1
 73
     0
 74
     0
  7

 75
     0
147
0.1148885871608098
148
0.0
149
0.0
100
AcDbLayout
  1
Model
 70
     1
 71
     0
 10
0.0
 20
0.0
 11
12.0
 21
9.0
 12
0.0
 22
0.0
 32
0.0
 14
0.0
 24
0.0
 34
0.0
 15
0.0
 25
0.0
 35
0.0
146
0.0
 13
0.0
 23
0.0
 33
0.0
 16
1.0
 26
0.0
 36
0.0
 17
0.0
 27
1.0
 37
0.0
 76
     0
330
1F
331
EA
1001
ACAD_PSEXT
1000
None
1000
None
1000
Not applicable
1000
The layout will not be plotted unless a new plotter configuration name is selected.
1070
     0
  0
MATERIAL
  5
ED
102
{ACAD_XDICTIONARY
360
1F9
102
}
102
{ACAD_REACTORS
330
6A
102
}
330
6A
100
AcDbMaterial
  1
ByBlock
  0
MATERIAL
  5
EC
102
{ACAD_XDICTIONARY
360
1F7
102
}
102
{ACAD_REACTORS
330
6A
102
}
330
6A
100
AcDbMaterial
  1
ByLayer
  0
MATERIAL
  5
EE
102
{ACAD_XDICTIONARY
360
173
102
}
102
{ACAD_REACTORS
330
6A
102
}
330
6A
100
AcDbMaterial
  1
Global
 43
0.0007999999797903
 43
0.0
 43
0.0
 43
0.0
 43
0.0
 43
0.0007999999797903
 43
0.0
 43
0.0
 43
0.0
 43
0.0
 43
1.0
 43
0.0
 43
0.0
 43
0.0
 43
0.0
 43
1.0
 49
0.0007999999797903
 49
0.0
 49
0.0
 49
0.0
 49
0.0
 49
0.0007999999797903
 49
0.0
 49
0.0
 49
0.0
 49
0.0
 49
1.0
 49
0.0
 49
0.0
 49
0.0
 49
0.0
 49
1.0
142
0.0007999999797903
142
0.0
142
0.0
142
0.0
142
0.0
142
0.0007999999797903
142
0.0
142
0.0
142
0.0
142
0.0
142
1.0
142
0.0
142
0.0
142
0.0
142
0.0
142
1.0
144
0.0007999999797903
144
0.0
144
0.0
144
0.0
144
0.0
144
0.0007999999797903
144
0.0
144
0.0
144
0.0
144
0.0
144
1.0
144
0.0
144
0.0
144
0.0
144
0.0
144
1.0
1001
ACAD
1070
    -1
1070
     3
1070
     0
1000

1071
        0
1070
     0
  0
MLEADERSTYLE
  5
12E
102
{ACAD_XDICTIONARY
360
211C2
102
}
102
{ACAD_REACTORS
330
12D
102
}
330
12D
100
AcDbMLeaderStyle
170
     2
171
     1
172
     0
 90
        2
 40
0.0
 41
0.0
173
     1
 91
-1056964608
340
14
 92
       -2
290
     1
 42
2.0
291
     1
 43
8.0
  3
Standard
 44
4.0
300

342
11
174
     1
178
     1
175
     1
176
     0
 93
-1056964608
 45
4.0
292
     0
297
     0
 46
4.0
 94
-1056964608
 47
1.0
 49
1.0
140
1.0
293
     1
141
0.0
294
     1
177
     0
142
1.0
295
     0
296
     0
143
3.75
1001
ACAD_MLEADERVER
1070
     2
  0
MLINESTYLE
  5
18
102
{ACAD_REACTORS
330
17
102
}
330
17
100
AcDbMlineStyle
  2
STANDARD
 70
     0
  3

 62
   256
 51
90.0
 52
90.0
 71
     2
 49
0.5
 62
   256
  6
BYLAYER
 49
-0.5
 62
   256
  6
BYLAYER
  0
ACDBPLACEHOLDER
  5
F
102
{ACAD_REACTORS
330
E
102
}
330
E
  0
SCALE
  5
10D
102
{ACAD_REACTORS
330
10C
102
}
330
10C
100
AcDbScale
 70
     0
300
1:1
140
1.0
141
1.0
290
     1
  0
SCALE
  5
1BE
102
{ACAD_REACTORS
330
10C
102
}
330
10C
100
AcDbScale
 70
     0
300
1:2
140
1.0
141
2.0
290
     0
  0
SCALE
  5
1BF
102
{ACAD_REACTORS
330
10C
102
}
330
10C
100
AcDbScale
 70
     0
300
1:4
140
1.0
141
4.0
290
     0
  0
SCALE
  5
1C0
102
{ACAD_REACTORS
330
10C
102
}
330
10C
100
AcDbScale
 70
     0
300
1:5
140
1.0
141
5.0
290
     0
  0
SCALE
  5
1C1
102
{ACAD_REACTORS
330
10C
102
}
330
10C
100
AcDbScale
 70
     0
300
1:8
140
1.0
141
8.0
290
     0
  0
SCALE
  5
1C2
102
{ACAD_REACTORS
330
10C
102
}
330
10C
100
AcDbScale
 70
     0
300
1:10
140
1.0
141
10.0
290
     0
  0
SCALE
  5
1C3
102
{ACAD_REACTORS
330
10C
102
}
330
10C
100
AcDbScale
 70
     0
300
1:16
140
1.0
141
16.0
290
     0
  0
SCALE
  5
1C4
102
{ACAD_REACTORS
330
10C
102
}
330
10C
100
AcDbScale
 70
     0
300
1:20
140
1.0
141
20.0
290
     0
  0
SCALE
  5
1C5
102
{ACAD_REACTORS
330
10C
102
}
330
10C
100
AcDbScale
 70
     0
300
1:30
140
1.0
141
30.0
290
     0
  0
SCALE
  5
1C6
102
{ACAD_REACTORS
330
10C
102
}
330
10C
100
AcDbScale
 70
     0
300
1:40
140
1.0
141
40.0
290
     0
  0
SCALE
  5
1C7
102
{ACAD_REACTORS
330
10C
102
}
330
10C
100
AcDbScale
 70
     0
300
1:50
140
1.0
141
50.0
290
     0
  0
SCALE
  5
1C8
102
{ACAD_REACTORS
330
10C
102
}
330
10C
100
AcDbScale
 70
     0
300
1:100
140
1.0
141
100.0
290
     0
  0
SCALE
  5
1C9
102
{ACAD_REACTORS
330
10C
102
}
330
10C
100
AcDbScale
 70
     0
300
2:1
140
2.0
141
1.0
290
     0
  0
SCALE
  5
1CA
102
{ACAD_REACTORS
330
10C
102
}
330
10C
100
AcDbScale
 70
     0
300
4:1
140
4.0
141
1.0
290
     0
  0
SCALE
  5
1CB
102
{ACAD_REACTORS
330
10C
102
}
330
10C
100
AcDbScale
 70
     0
300
8:1
140
8.0
141
1.0
290
     0
  0
SCALE
  5
1CC
102
{ACAD_REACTORS
330
10C
102
}
330
10C
100
AcDbScale
 70
     0
300
10:1
140
10.0
141
1.0
290
     0
  0
SCALE
  5
1CD
102
{ACAD_REACTORS
330
10C
102
}
330
10C
100
AcDbScale
 70
     0
300
100:1
140
100.0
141
1.0
290
     0
  0
ACDBSECTIONVIEWSTYLE
  5
21A
102
{ACAD_XDICTIONARY
360
211D2
102
}
102
{ACAD_REACTORS
330
219
102
}
330
219
100
AcDbModelDocViewStyle
 70
     0
  3
Metric50
290
     0
100
AcDbSectionViewStyle
 70
     0
 71
     0
 90
      102
 71
     1
340
11
 40
5.0
340
0
340
0
 40
5.0
300
I, O, Q, S, X, Z
 40
10.0
 90
        0
 40
2.5
 90
        0
 71
     2
340
16
 90
       25
340
16
 90
       50
 40
5.0
 40
2.5
 40
5.0
 71
     3
340
11
 40
5.0
 90
        0
 40
15.0
 90
        1
300
%<\AcVar ViewSectionStartId>%-%<\AcVar ViewSectionEndId>% (%<\AcVar ViewScale \f "%sn">%)
 71
     4
300
ANSI31
 40
1.0
 90
        0
290
     0
290
     0
 90
        6
 40
0.0
 40
1.570796326794896
 40
0.2617993877991494
 40
1.308996938995747
 40
-0.2617993877991494
 40
1.832595714594046
  0
TABLESTYLE
  5
7F
102
{ACAD_XDICTIONARY
360
162
102
}
102
{ACAD_REACTORS
330
7E
102
}
330
7E
100
AcDbTableStyle
  3
Standard
 70
     0
 71
     0
 40
1.5
 41
1.5
280
     0
281
     0
  7
Standard
140
4.5
170
     2
 62
     0
 63
     7
283
     0
274
    -2
284
     1
 64
     0
275
    -2
285
     1
 65
     0
276
    -2
286
     1
 66
     0
277
    -2
287
     1
 67
     0
278
    -2
288
     1
 68
     0
279
    -2
289
     1
 69
     0
  7
Standard
140
6.0
170
     5
 62
     0
 63
     7
283
     0
274
    -2
284
     1
 64
     0
275
    -2
285
     1
 65
     0
276
    -2
286
     1
 66
     0
277
    -2
287
     1
 67
     0
278
    -2
288
     1
 68
     0
279
    -2
289
     1
 69
     0
  7
Standard
140
4.5
170
     5
 62
     0
 63
     7
283
     0
274
    -2
284
     1
 64
     0
275
    -2
285
     1
 65
     0
276
    -2
286
     1
 66
     0
277
    -2
287
     1
 67
     0
278
    -2
288
     1
 68
     0
279
    -2
289
     1
 69
     0
  0
VISUALSTYLE
  5
F5
102
{ACAD_XDICTIONARY
360
211AC
102
}
102
{ACAD_REACTORS
330
EF
102
}
330
EF
100
AcDbVisualStyle
  2
2dWireframe
 70
     4
 71
     0
 72
     2
 73
     1
 90
        0
 40
-0.6
 41
-30.0
 62
     5
 63
     7
 74
     1
 91
        4
 64
     7
 65
   257
 75
     1
175
     1
 42
1.0
 92
        0
 66
   257
 43
1.0
 76
     1
 77
     6
 78
     2
 67
     7
 79
     5
170
     0
171
     0
290
     0
174
     0
 93
        1
 44
0.0
173
     0
291
     0
 45
0.0
1001
ACAD
1000
AcDbSavedByObjectVersion
1070
     0
  0
VISUALSTYLE
  5
F4
102
{ACAD_XDICTIONARY
360
211AA
102
}
102
{ACAD_REACTORS
330
EF
102
}
330
EF
100
AcDbVisualStyle
  2
Basic
 70
     7
 71
     1
 72
     0
 73
     1
 90
        0
 40
-0.6
 41
-30.0
 62
     5
 63
     7
 74
     0
 91
        4
 64
     7
 65
   257
 75
     1
175
     1
 42
1.0
 92
        8
 66
     7
 43
1.0
 76
     1
 77
     6
 78
     2
 67
     7
 79
     5
170
     0
171
     0
290
     0
174
     0
 93
        1
 44
0.0
173
     0
291
     1
 45
0.0
1001
ACAD
1000
AcDbSavedByObjectVersion
1070
     0
  0
VISUALSTYLE
  5
FB
102
{ACAD_XDICTIONARY
360
211B8
102
}
102
{ACAD_REACTORS
330
EF
102
}
330
EF
100
AcDbVisualStyle
  2
Brighten
 70
    12
 71
     2
 72
     2
 73
     1
 90
        0
 40
-0.6
 41
-30.0
 62
     5
 63
     7
 74
     1
 91
        4
 64
     7
 65
   257
 75
     1
175
     1
 42
1.0
 92
        8
 66
     7
 43
1.0
 76
     1
 77
     6
 78
     2
 67
     7
 79
     5
170
     0
171
     0
290
     0
174
     0
 93
        1
 44
50.0
173
     0
291
     1
 45
0.0
1001
ACAD
1000
AcDbSavedByObjectVersion
1070
     0
  0
VISUALSTYLE
  5
FF
102
{ACAD_XDICTIONARY
360
211C0
102
}
102
{ACAD_REACTORS
330
EF
102
}
330
EF
100
AcDbVisualStyle
  2
ColorChange
 70
    16
 71
     2
 72
     2
 73
     3
 90
        0
 40
-0.6
 41
-30.0
 62
     5
 63
     8
 74
     1
 91
        4
 64
     7
 65
   257
 75
     1
175
     1
 42
1.0
 92
        8
 66
     8
 43
1.0
 76
     1
 77
     6
 78
     2
 67
     7
 79
     5
170
     0
171
     0
290
     0
174
     0
 93
        1
 44
0.0
173
     0
291
     1
 45
0.0
1001
ACAD
1000
AcDbSavedByObjectVersion
1070
     0
  0
VISUALSTYLE
  5
F8
102
{ACAD_XDICTIONARY
360
211B2
102
}
102
{ACAD_REACTORS
330
EF
102
}
330
EF
100
AcDbVisualStyle
  2
Conceptual
 70
     9
 71
     3
 72
     2
 73
     1
 90
        0
 40
-0.6
 41
-30.0
 62
     5
 63
     7
 74
     2
 91
        2
 64
     7
 65
   257
 75
     1
175
     1
 42
40.0
 92
        8
 66
     7
 43
1.0
 76
     1
 77
     6
 78
     2
 67
     7
 79
     3
170
     0
171
     0
290
     0
174
     0
 93
        1
 44
0.0
173
     0
291
     0
 45
0.0
1001
ACAD
1000
AcDbSavedByObjectVersion
1070
     0
  0
VISUALSTYLE
  5
FA
102
{ACAD_XDICTIONARY
360
211B6
102
}
102
{ACAD_REACTORS
330
EF
102
}
330
EF
100
AcDbVisualStyle
  2
Dim
 70
    11
 71
     2
 72
     2
 73
     1
 90
        0
 40
-0.6
 41
-30.0
 62
     5
 63
     7
 74
     1
 91
        4
 64
     7
 65
   257
 75
     1
175
     1
 42
1.0
 92
        8
 66
     7
 43
1.0
 76
     1
 77
     6
 78
     2
 67
     7
 79
     5
170
     0
171
     0
290
     0
174
     0
 93
        1
 44
-50.0
173
     0
291
     1
 45
0.0
1001
ACAD
1000
AcDbSavedByObjectVersion
1070
     0
  0
VISUALSTYLE
  5
21190
102
{ACAD_XDICTIONARY
360
211D6
102
}
102
{ACAD_REACTORS
330
EF
102
}
330
EF
100
AcDbVisualStyle
  2
EdgeColorOff
 70
    22
 71
     2
 72
     2
 73
     0
 90
        0
 40
-0.6
 41
-30.0
 62
     5
 63
     7
 74
     1
 91
        4
 64
     7
 65
   257
 75
     1
175
     1
 42
1.0
 92
        8
 66
     7
 43
1.0
 76
     1
 77
     6
 78
     2
 67
     7
 79
     5
170
     0
171
     0
290
     0
174
     0
 93
        1
 44
0.0
173
     0
291
     1
 45
0.0
1001
ACAD
1000
AcDbSavedByObjectVersion
1070
     0
  0
VISUALSTYLE
  5
FE
102
{ACAD_XDICTIONARY
360
211BE
102
}
102
{ACAD_REACTORS
330
EF
102
}
330
EF
100
AcDbVisualStyle
  2
Facepattern
 70
    15
 71
     2
 72
     2
 73
     1
 90
        0
 40
-0.6
 41
-30.0
 62
     5
 63
     7
 74
     1
 91
        4
 64
     7
 65
   257
 75
     1
175
     1
 42
1.0
 92
        8
 66
     7
 43
1.0
 76
     1
 77
     6
 78
     2
 67
     7
 79
     5
170
     0
171
     0
290
     0
174
     0
 93
        1
 44
0.0
173
     0
291
     1
 45
0.0
1001
ACAD
1000
AcDbSavedByObjectVersion
1070
     0
  0
VISUALSTYLE
  5
F0
102
{ACAD_XDICTIONARY
360
211A2
102
}
102
{ACAD_REACTORS
330
EF
102
}
330
EF
100
AcDbVisualStyle
  2
Flat
 70
     0
 71
     2
 72
     1
 73
     1
 90
        2
 40
-0.6
 41
30.0
 62
     5
 63
     7
 74
     0
 91
        0
 64
     7
 65
   257
 75
     1
175
     1
 42
1.0
 92
        8
 66
     7
 43
1.0
 76
     1
 77
     6
 78
     2
 67
     7
 79
     5
170
     0
171
     0
290
     0
174
     0
 93
       13
 44
0.0
173
     0
291
     1
 45
0.0
1001
ACAD
1000
AcDbSavedByObjectVersion
1070
     0
  0
VISUALSTYLE
  5
F1
102
{ACAD_XDICTIONARY
360
211A4
102
}
102
{ACAD_REACTORS
330
EF
102
}
330
EF
100
AcDbVisualStyle
  2
FlatWithEdges
 70
     1
 71
     2
 72
     1
 73
     1
 90
        2
 40
-0.6
 41
30.0
 62
     5
 63
     7
 74
     1
 91
        0
 64
     7
 65
   257
 75
     1
175
     1
 42
1.0
 92
        0
 66
   257
 43
1.0
 76
     1
 77
     6
 78
     2
 67
     7
 79
     5
170
     0
171
     0
290
     0
174
     0
 93
       13
 44
0.0
173
     0
291
     1
 45
0.0
1001
ACAD
1000
AcDbSavedByObjectVersion
1070
     0
  0
VISUALSTYLE
  5
F2
102
{ACAD_XDICTIONARY
360
211A6
102
}
102
{ACAD_REACTORS
330
EF
102
}
330
EF
100
AcDbVisualStyle
  2
Gouraud
 70
     2
 71
     2
 72
     2
 73
     1
 90
        2
 40
-0.6
 41
30.0
 62
     5
 63
     7
 74
     0
 91
        0
 64
     7
 65
   257
 75
     1
175
     1
 42
1.0
 92
        0
 66
     7
 43
1.0
 76
     1
 77
     6
 78
     2
 67
     7
 79
     5
170
     0
171
     0
290
     0
174
     0
 93
       13
 44
0.0
173
     0
291
     1
 45
0.0
1001
ACAD
1000
AcDbSavedByObjectVersion
1070
     0
  0
VISUALSTYLE
  5
F3
102
{ACAD_XDICTIONARY
360
211A8
102
}
102
{ACAD_REACTORS
330
EF
102
}
330
EF
100
AcDbVisualStyle
  2
GouraudWithEdges
 70
     3
 71
     2
 72
     2
 73
     1
 90
        2
 40
-0.6
 41
30.0
 62
     5
 63
     7
 74
     1
 91
        0
 64
     7
 65
   257
 75
     1
175
     1
 42
1.0
 92
        0
 66
   257
 43
1.0
 76
     1
 77
     6
 78
     2
 67
     7
 79
     5
170
     0
171
     0
290
     0
174
     0
 93
       13
 44
0.0
173
     0
291
     1
 45
0.0
1001
ACAD
1000
AcDbSavedByObjectVersion
1070
     0
  0
VISUALSTYLE
  5
F7
102
{ACAD_XDICTIONARY
360
211B0
102
}
102
{ACAD_REACTORS
330
EF
102
}
330
EF
100
AcDbVisualStyle
  2
Hidden
 70
     6
 71
     1
 72
     2
 73
     2
 90
        0
 40
-0.6
 41
-30.0
 62
     5
 63
     7
 74
     2
 91
        2
 64
     7
 65
   257
 75
     2
175
     1
 42
40.0
 92
        0
 66
   257
 43
1.0
 76
     1
 77
     6
 78
     2
 67
     7
 79
     3
170
     0
171
     0
290
     0
174
     0
 93
        1
 44
0.0
173
     0
291
     0
 45
0.0
1001
ACAD
1000
AcDbSavedByObjectVersion
1070
     0
  0
VISUALSTYLE
  5
1E4
102
{ACAD_XDICTIONARY
360
211C4
102
}
102
{ACAD_REACTORS
330
EF
102
}
330
EF
100
AcDbVisualStyle
  2
JitterOff
 70
    20
 71
     2
 72
     2
 73
     0
 90
        0
 40
-0.6
 41
-30.0
 62
     5
 63
     7
 74
     1
 91
        4
 64
     7
 65
   257
 75
     1
175
     1
 42
1.0
 92
       10
 66
     7
 43
1.0
 76
     1
 77
     6
 78
     2
 67
     7
 79
     5
170
     0
171
     0
290
     0
174
     0
 93
        1
 44
0.0
173
     0
291
     1
 45
0.0
1001
ACAD
1000
AcDbSavedByObjectVersion
1070
     0
  0
VISUALSTYLE
  5
FD
102
{ACAD_XDICTIONARY
360
211BC
102
}
102
{ACAD_REACTORS
330
EF
102
}
330
EF
100
AcDbVisualStyle
  2
Linepattern
 70
    14
 71
     2
 72
     2
 73
     1
 90
        0
 40
-0.6
 41
-30.0
 62
     5
 63
     7
 74
     1
 91
        4
 64
     7
 65
   257
 75
     7
175
     7
 42
1.0
 92
        8
 66
     7
 43
1.0
 76
     1
 77
     6
 78
     2
 67
     7
 79
     5
170
     0
171
     0
290
     0
174
     0
 93
        1
 44
0.0
173
     0
291
     1
 45
0.0
1001
ACAD
1000
AcDbSavedByObjectVersion
1070
     0
  0
VISUALSTYLE
  5
1E5
102
{ACAD_XDICTIONARY
360
211C6
102
}
102
{ACAD_REACTORS
330
EF
102
}
330
EF
100
AcDbVisualStyle
  2
OverhangOff
 70
    21
 71
     2
 72
     2
 73
     0
 90
        0
 40
-0.6
 41
-30.0
 62
     5
 63
     7
 74
     1
 91
        4
 64
     7
 65
   257
 75
     1
175
     1
 42
1.0
 92
        9
 66
     7
 43
1.0
 76
     1
 77
     6
 78
     2
 67
     7
 79
     5
170
     0
171
     0
290
     0
174
     0
 93
        1
 44
0.0
173
     0
291
     1
 45
0.0
1001
ACAD
1000
AcDbSavedByObjectVersion
1070
     0
  0
VISUALSTYLE
  5
F9
102
{ACAD_XDICTIONARY
360
211B4
102
}
102
{ACAD_REACTORS
330
EF
102
}
330
EF
100
AcDbVisualStyle
  2
Realistic
 70
     8
 71
     2
 72
     2
 73
     0
 90
        2
 40
-0.6
 41
30.0
 62
     5
 63
     7
 74
     0
 91
        0
 64
     7
 65
   257
 75
     1
175
     1
 42
1.0
 92
        8
 66
   257
 43
1.0
 76
     1
 77
     6
 78
     2
 67
     7
 79
     3
170
     0
171
     0
290
     0
174
     0
 93
       13
 44
0.0
173
     0
291
     0
 45
0.0
1001
ACAD
1000
AcDbSavedByObjectVersion
1070
     0
  0
VISUALSTYLE
  5
1F3
102
{ACAD_XDICTIONARY
360
211D0
102
}
102
{ACAD_REACTORS
330
EF
102
}
330
EF
100
AcDbVisualStyle
  2
Shaded
 70
    27
 71
     2
 72
     2
 73
     1
 90
        2
 40
-0.6
 41
30.0
 62
     5
 63
     7
 74
     0
 91
        4
 64
     7
 65
   257
 75
     1
175
     1
 42
1.0
 92
        8
 66
   257
 43
1.0
 76
     1
 77
     6
 78
     2
 67
     8
 79
     3
170
     0
171
     0
290
     0
174
     0
 93
        5
 44
0.0
173
     0
291
     0
 45
0.0
1001
ACAD
1000
AcDbSavedByObjectVersion
1070
     0
  0
VISUALSTYLE
  5
1F2
102
{ACAD_XDICTIONARY
360
211CE
102
}
102
{ACAD_REACTORS
330
EF
102
}
330
EF
100
AcDbVisualStyle
  2
Shaded with edges
 70
    26
 71
     2
 72
     2
 73
     1
 90
        2
 40
-0.6
 41
30.0
 62
     5
 63
     7
 74
     1
 91
        2
 64
     7
 65
   257
 75
     2
175
     1
 42
1.0
 92
        8
 66
   257
 43
1.0
 76
     1
 77
     6
 78
     2
 67
     7
 79
     3
170
     0
171
     0
290
     0
174
     0
 93
        5
 44
0.0
173
     0
291
     0
 45
0.0
1001
ACAD
1000
AcDbSavedByObjectVersion
1070
     0
  0
VISUALSTYLE
  5
1EF
102
{ACAD_XDICTIONARY
360
211C8
102
}
102
{ACAD_REACTORS
330
EF
102
}
330
EF
100
AcDbVisualStyle
  2
Shades of Gray
 70
    23
 71
     2
 72
     2
 73
     3
 90
        0
 40
-0.6
 41
-30.0
 62
     5
 63
     7
 74
     2
 91
        2
 64
     7
 65
     7
 75
     1
175
     1
 42
40.0
 92
        8
 66
     7
 43
1.0
 76
     1
 77
     6
 78
     2
 67
     7
 79
     3
170
     0
171
     0
290
     0
174
     0
 93
        1
 44
0.0
173
     0
291
     0
 45
0.0
1001
ACAD
1000
AcDbSavedByObjectVersion
1070
     0
  0
VISUALSTYLE
  5
1F0
102
{ACAD_XDICTIONARY
360
211CA
102
}
102
{ACAD_REACTORS
330
EF
102
}
330
EF
100
AcDbVisualStyle
  2
Sketchy
 70
    24
 71
     1
 72
     2
 73
     2
 90
        0
 40
-0.6
 41
-30.0
 62
     5
 63
     7
 74
     2
 91
        2
 64
     7
 65
     7
 75
     1
175
     1
 42
40.0
 92
       11
 66
     7
 43
1.0
 76
     1
 77
     6
 78
     2
 67
     7
 79
     6
170
     0
171
     0
290
     0
174
     0
 93
        1
 44
0.0
173
     0
291
     0
 45
0.0
1001
ACAD
1000
AcDbSavedByObjectVersion
1070
     0
  0
VISUALSTYLE
  5
FC
102
{ACAD_XDICTIONARY
360
211BA
102
}
102
{ACAD_REACTORS
330
EF
102
}
330
EF
100
AcDbVisualStyle
  2
Thicken
 70
    13
 71
     2
 72
     2
 73
     1
 90
        0
 40
-0.6
 41
-30.0
 62
     5
 63
     7
 74
     1
 91
        4
 64
     7
 65
   257
 75
     1
175
     1
 42
1.0
 92
       12
 66
     7
 43
1.0
 76
     1
 77
     6
 78
     2
 67
     7
 79
     5
170
     0
171
     0
290
     0
174
     0
 93
        1
 44
0.0
173
     0
291
     1
 45
0.0
1001
ACAD
1000
AcDbSavedByObjectVersion
1070
     0
  0
VISUALSTYLE
  5
F6
102
{ACAD_XDICTIONARY
360
211AE
102
}
102
{ACAD_REACTORS
330
EF
102
}
330
EF
100
AcDbVisualStyle
  2
Wireframe
 70
     5
 71
     0
 72
     2
 73
     0
 90
        0
 40
-0.6
 41
-30.0
 62
     5
 63
     7
 74
     1
 91
        4
 64
     7
 65
   257
 75
     1
175
     1
 42
1.0
 92
        0
 66
   257
 43
1.0
 76
     1
 77
     6
 78
     2
 67
     7
 79
     3
170
     0
171
     0
290
     0
174
     0
 93
        1
 44
0.0
173
     0
291
     0
 45
0.0
1001
ACAD
1000
AcDbSavedByObjectVersion
1070
     0
  0
VISUALSTYLE
  5
1F1
102
{ACAD_XDICTIONARY
360
211CC
102
}
102
{ACAD_REACTORS
330
EF
102
}
330
EF
100
AcDbVisualStyle
  2
X-Ray
 70
    25
 71
     2
 72
     2
 73
     1
 90
        1
 40
0.5
 41
-30.0
 62
     5
 63
     7
 74
     1
 91
        0
 64
     7
 65
   257
 75
     1
175
     1
 42
1.0
 92
        8
 66
     7
 43
1.0
 76
     1
 77
     6
 78
     2
 67
     7
 79
     3
170
     0
171
     0
290
     0
174
     0
 93
       13
 44
0.0
173
     0
291
     0
 45
0.0
1001
ACAD
1000
AcDbSavedByObjectVersion
1070
     0
  0
DICTIONARYVAR
  5
146
102
{ACAD_REACTORS
330
5E
102
}
330
5E
100
DictionaryVariables
280
     0
  1
1:1
  0
DICTIONARYVAR
  5
259
102
{ACAD_REACTORS
330
5E
102
}
330
5E
100
DictionaryVariables
280
     0
  1
3.500000
  0
DICTIONARYVAR
  5
25A
102
{ACAD_REACTORS
330
5E
102
}
330
5E
100
DictionaryVariables
280
     0
  1
acadiso.lin
  0
DICTIONARYVAR
  5
145
102
{ACAD_REACTORS
330
5E
102
}
330
5E
100
DictionaryVariables
280
     0
  1
STANDARD
  0
DICTIONARYVAR
  5
84
102
{ACAD_REACTORS
330
5E
102
}
330
5E
100
DictionaryVariables
280
     0
  1
STANDARD
  0
DICTIONARYVAR
  5
227
102
{ACAD_REACTORS
330
5E
102
}
330
5E
100
DictionaryVariables
280
     0
  1
Metric50
  0
DICTIONARYVAR
  5
228
102
{ACAD_REACTORS
330
5E
102
}
330
5E
100
DictionaryVariables
280
     0
  1
Metric50
  0
DICTIONARYVAR
  5
5F
102
{ACAD_REACTORS
330
5E
102
}
330
5E
100
DictionaryVariables
280
     0
  1
2
  0
DICTIONARYVAR
  5
63
102
{ACAD_REACTORS
330
5E
102
}
330
5E
100
DictionaryVariables
280
     0
  1
1
  0
DICTIONARYVAR
  5
21143
102
{ACAD_REACTORS
330
5E
102
}
330
5E
100
DictionaryVariables
280
     0
  1
0
  0
DICTIONARYVAR
  5
1AE
102
{ACAD_REACTORS
330
5E
102
}
330
5E
100
DictionaryVariables
280
     0
  1
0
  0
DICTIONARYVAR
  5
1AF
102
{ACAD_REACTORS
330
5E
102
}
330
5E
100
DictionaryVariables
280
     0
  1
0
  0
DICTIONARYVAR
  5
21141
102
{ACAD_REACTORS
330
5E
102
}
330
5E
100
DictionaryVariables
280
     0
  1
2
  0
DICTIONARYVAR
  5
21140
102
{ACAD_REACTORS
330
5E
102
}
330
5E
100
DictionaryVariables
280
     0
  1
1
  0
DICTIONARYVAR
  5
21193
102
{ACAD_REACTORS
330
5E
102
}
330
5E
100
DictionaryVariables
280
     0
  1
80.000000
  0
DICTIONARYVAR
  5
21192
102
{ACAD_REACTORS
330
5E
102
}
330
5E
100
DictionaryVariables
280
     0
  1
5.000000
  0
DICTIONARYVAR
  5
21142
102
{ACAD_REACTORS
330
5E
102
}
330
5E
100
DictionaryVariables
280
     0
  1
127
  0
DICTIONARYVAR
  5
21194
102
{ACAD_REACTORS
330
5E
102
}
330
5E
100
DictionaryVariables
280
     0
  1
2
  0
DICTIONARY
  5
211D4
330
21C
100
AcDbDictionary
280
     1
281
     1
  3
ACAD_XREC_ROUNDTRIP
360
211D5
  0
DICTIONARY
  5
2119B
330
D3
100
AcDbDictionary
280
     1
281
     1
  3
ACAD_XREC_ROUNDTRIP
360
2119C
  0
DICTIONARY
  5
2119D
330
D7
100
AcDbDictionary
280
     1
281
     1
  3
ACAD_XREC_ROUNDTRIP
360
2119E
  0
DICTIONARY
  5
21198
330
22
100
AcDbDictionary
280
     1
281
     1
  3
ACAD_XREC_ROUNDTRIP
360
21199
  0
DICTIONARY
  5
1F9
330
ED
100
AcDbDictionary
280
     1
281
     1
  3
ACAD_XREC_ROUNDTRIP
360
211A0
  3
FBXASSET
360
1FA
  0
DICTIONARY
  5
1F7
330
EC
100
AcDbDictionary
280
     1
281
     1
  3
ACAD_XREC_ROUNDTRIP
360
2119F
  3
FBXASSET
360
1F8
  0
DICTIONARY
  5
173
330
EE
100
AcDbDictionary
280
     1
281
     1
  3
ACAD_XREC_ROUNDTRIP
360
211A1
  3
BUMPTILE
360
175
  3
DIFFUSETILE
360
174
  3
FBXASSET
360
1FB
  3
OPACITYTILE
360
176
  3
REFLECTIONTILE
360
177
  0
DICTIONARY
  5
211C2
330
12E
100
AcDbDictionary
280
     1
281
     1
  3
ACAD_XREC_ROUNDTRIP
360
211C3
  0
DICTIONARY
  5
211D2
330
21A
100
AcDbDictionary
280
     1
281
     1
  3
ACAD_XREC_ROUNDTRIP
360
211D3
  0
DICTIONARY
  5
162
330
7F
100
AcDbDictionary
280
     1
281
     1
  3
ACAD_ROUNDTRIP_2008_TABLESTYLE_CELLSTYLEMAP
360
21195
  3
ACAD_XREC_ROUNDTRIP
360
2119A
  0
DICTIONARY
  5
211AC
330
F5
100
AcDbDictionary
280
     1
281
     1
  3
ACAD_XREC_ROUNDTRIP
360
211AD
  0
DICTIONARY
  5
211AA
330
F4
100
AcDbDictionary
280
     1
281
     1
  3
ACAD_XREC_ROUNDTRIP
360
211AB
  0
DICTIONARY
  5
211B8
330
FB
100
AcDbDictionary
280
     1
281
     1
  3
ACAD_XREC_ROUNDTRIP
360
211B9
  0
DICTIONARY
  5
211C0
330
FF
100
AcDbDictionary
280
     1
281
     1
  3
ACAD_XREC_ROUNDTRIP
360
211C1
  0
DICTIONARY
  5
211B2
330
F8
100
AcDbDictionary
280
     1
281
     1
  3
ACAD_XREC_ROUNDTRIP
360
211B3
  0
DICTIONARY
  5
211B6
330
FA
100
AcDbDictionary
280
     1
281
     1
  3
ACAD_XREC_ROUNDTRIP
360
211B7
  0
DICTIONARY
  5
211D6
330
21190
100
AcDbDictionary
280
     1
281
     1
  3
ACAD_XREC_ROUNDTRIP
360
211D7
  0
DICTIONARY
  5
211BE
330
FE
100
AcDbDictionary
280
     1
281
     1
  3
ACAD_XREC_ROUNDTRIP
360
211BF
  0
DICTIONARY
  5
211A2
330
F0
100
AcDbDictionary
280
     1
281
     1
  3
ACAD_XREC_ROUNDTRIP
360
211A3
  0
DICTIONARY
  5
211A4
330
F1
100
AcDbDictionary
280
     1
281
     1
  3
ACAD_XREC_ROUNDTRIP
360
211A5
  0
DICTIONARY
  5
211A6
330
F2
100
AcDbDictionary
280
     1
281
     1
  3
ACAD_XREC_ROUNDTRIP
360
211A7
  0
DICTIONARY
  5
211A8
330
F3
100
AcDbDictionary
280
     1
281
     1
  3
ACAD_XREC_ROUNDTRIP
360
211A9
  0
DICTIONARY
  5
211B0
330
F7
100
AcDbDictionary
280
     1
281
     1
  3
ACAD_XREC_ROUNDTRIP
360
211B1
  0
DICTIONARY
  5
211C4
330
1E4
100
AcDbDictionary
280
     1
281
     1
  3
ACAD_XREC_ROUNDTRIP
360
211C5
  0
DICTIONARY
  5
211BC
330
FD
100
AcDbDictionary
280
     1
281
     1
  3
ACAD_XREC_ROUNDTRIP
360
211BD
  0
DICTIONARY
  5
211C6
330
1E5
100
AcDbDictionary
280
     1
281
     1
  3
ACAD_XREC_ROUNDTRIP
360
211C7
  0
DICTIONARY
  5
211B4
330
F9
100
AcDbDictionary
280
     1
281
     1
  3
ACAD_XREC_ROUNDTRIP
360
211B5
  0
DICTIONARY
  5
211D0
330
1F3
100
AcDbDictionary
280
     1
281
     1
  3
ACAD_XREC_ROUNDTRIP
360
211D1
  0
DICTIONARY
  5
211CE
330
1F2
100
AcDbDictionary
280
     1
281
     1
  3
ACAD_XREC_ROUNDTRIP
360
211CF
  0
DICTIONARY
  5
211C8
330
1EF
100
AcDbDictionary
280
     1
281
     1
  3
ACAD_XREC_ROUNDTRIP
360
211C9
  0
DICTIONARY
  5
211CA
330
1F0
100
AcDbDictionary
280
     1
281
     1
  3
ACAD_XREC_ROUNDTRIP
360
211CB
  0
DICTIONARY
  5
211BA
330
FC
100
AcDbDictionary
280
     1
281
     1
  3
ACAD_XREC_ROUNDTRIP
360
211BB
  0
DICTIONARY
  5
211AE
330
F6
100
AcDbDictionary
280
     1
281
     1
  3
ACAD_XREC_ROUNDTRIP
360
211AF
  0
DICTIONARY
  5
211CC
330
1F1
100
AcDbDictionary
280
     1
281
     1
  3
ACAD_XREC_ROUNDTRIP
360
211CD
  0
XRECORD
  5
211D5
102
{ACAD_REACTORS
330
211D4
102
}
330
211D4
100
AcDbXrecord
280
     1
102
DISPLAYNAME
  1
Metric50
102
FLAGS
 90
        0
  0
XRECORD
  5
2119C
102
{ACAD_REACTORS
330
2119B
102
}
330
2119B
100
AcDbXrecord
280
     1
102
SHADEPLOT
 70
     0
102
SHADEPLOTRESLEVEL
 70
     2
102
SHADEPLOTCUSTOMDPI
 70
   300
  0
XRECORD
  5
2119E
102
{ACAD_REACTORS
330
2119D
102
}
330
2119D
100
AcDbXrecord
280
     1
102
SHADEPLOT
 70
     0
102
SHADEPLOTRESLEVEL
 70
     2
102
SHADEPLOTCUSTOMDPI
 70
   300
  0
XRECORD
  5
21199
102
{ACAD_REACTORS
330
21198
102
}
330
21198
100
AcDbXrecord
280
     1
102
SHADEPLOT
 70
     0
102
SHADEPLOTRESLEVEL
 70
     2
102
SHADEPLOTCUSTOMDPI
 70
   300
  0
XRECORD
  5
211A0
102
{ACAD_REACTORS
330
1F9
102
}
330
1F9
100
AcDbXrecord
280
     1
102
MATERIAL
148
0.0
149
0.0
149
0.0
 93
        0
 94
       63
282
     0
 72
     1
 77
     1
171
     1
175
     1
179
     1
273
     0
  0
XRECORD
  5
1FA
102
{ACAD_REACTORS
330
1F9
102
}
330
1F9
100
AcDbXrecord
280
     1
 70
     1
 90
429727718
  1
D62C5603-E3A1-4AEA-B7FB-FE5D8D0755AF
310
504B03040A0000080000CC70623B3DEE336E79000000790000001B0000006175746F6465736B2D64657369676E2D7061636B6167652E786D6C3C3F786D6C2076657273696F6E3D22312E302220656E636F64696E673D227574662D3822203F3E3C666F726D6174733E3C666F726D61743E687474703A2F2F736368656D612E
310
6175746F6465736B2E636F6D2F64657369676E2D7061636B6167652F323030393C2F666F726D61743E3C2F666F726D6174733E504B0304140006080800CC70623BD486FD9CA0000000F4000000130000005B436F6E74656E745F54797065735D2E786D6C7D8EC10E82300C865F65E91D8A1E8C310C0EEA1BF002731658846E
310
D98AC1B77784ABF1D8FE5FBFBF75BBCE937A534CCEB38643598122B6FEE978D0B0485F9C41B54DDD7D022595594E1A469170414C76A4D9A4D207E29CF43ECE46F218070CC6BECC4078ACAA135ACF422C856C0E68EA1BF5669944DDD7BCDE7B1F8E415D77AECB980613C2E4AC91FC167A2B244592486606FC29C8FD7F045B9A
310
EF7053A7E60B504B0304140006080800CC70623B853B8169EB0000007C01000008000000636F72652E786D6C8D90416EC3201045AF62CDB6C206821CC7C244919D9CA01740401C94182C03558F5F9C3852BBEB6A467FFE9B197D7EFC9E1EC5975982F5AE035262288C535E5B377690E21535501C055FBC8FBF6C503839990E
310
5619041F179FE64D52DE45E362569DD7661365082642A11EB9E920A89B99642953CC8E702F67A9EE7234257977194EC9EAE275C4EABCCF5EAD5940D4AC6F0E35A568B8F43562CD7046CD199FD07E60174276A7BE677B5EADB0E0D14EEFFB6A31321A0D82627C4084204C3F096B71DD52F6819B16635EADF63F509AF53FA164
310
5DDCD1EDDD17164090FCC8732078B56691CB33A85CD7DCC40F504B0304140006080800CC70623B55019EA25F0000007C00000007000000636E782E786D6C4DCB3B0E80201045D1AD90E915ED2CF8AC45050C11660C8261F98AB1B07AC9C97D42D718D865D3E909258CFD00CCE24AC6E326A164D74DC0B4128928FF32603847
310
2BA13128B1252AC747C6BAB984FC68F0B87FE8960A5C09FE86CFB69FBA01504B0304140006080800CC70623BDBABAAF470010000D40300000C0000006662782F636F72652E786D6CC553D16E823014FD95A6AF4B694182CC941A83FA05FB810A9511A125A5257EFE2E82712ECEB8A7F100CD39F7F69E734AF9FADC366850B6
310
AF8DCE7018308C942E4C59EB2AC3DE1D498AD15A706B8CFB56869196ADCAF00863C12B6B7C374385D14E6907A836A59A41D9F7CA615434B0C8705F7CAA5606D23BA8E84F41278B93AC54100640439DE0BDB320004D43C63716C7C399D30917DCFBBA9CD9BA8469F5B156168B24CED3F7248AC8769F27244EB73B92EED8862C
310
B7F13E0C179B3C8F979C8ECD82BBBABDAA2BAC924E9558448CBD9330242CFA08E3154B5651FCC6D215639C8EE5774DBE2B5F6CF2B5768B68963BB5F5588420E442FC700B1139D4CB01F450C1E918227C2E09DF070D8140C84E1E9AAB8F1340832A9CB13130A5F1376A908D57309505ECF2A0DF179C4E9D30F5B239B87E3823
310
7A79C6F31DE1A8A5AEC08474B03C7837EAE4938639B44E5932B833D2C6B6B279CDC613877FA26EE21F4A2A4C63EC7F29A2F301D1F9F7A0E37D145F504B0304140006080800CC70623B9C113CC27E0000009D0000000B0000006662782F636E782E786D6C4DCCDF0A83201C86E15B91DFB94BFB330DD428C8FB886521330DA7
310
6397BF1A1DECE883878F57749FCDA1B7892F1BBC047A23808C7F84D9FA55424E0BE6803A256208E9EF06C84F9B91703228B1C690F78B66B34CD9A5439DF5CF0BFBF65E35BCA1B8D6A5C6F540381E886698B5741C695F9503EBA150A2F8958E3DC3EA0B504B0304140006080800CC70623B7DF2F77C2A010000120200003100
310
00006662782F41393633353835312D344632462D344230382D423046372D3739314545314133324237412F636F72652E786D6C8D51DB8EC22014FC15C2939B0D2DB4B45643319AE817EC0F6041255A68B86CFCFC856D4D76DF7CE190393373060EDB3DC707F856CE6B6B7A480A0C81328395DA5C7B18C3057510EC3873D686
310
3F34088C18550F330C39BB3A1BA7051AAC09CA84841A2BD5020AEF55806078A44B0FFD7053A328440C89E1EFC52486BBB8AA8214A99D789CF9E05200300FC927E4FB4D5B375D43103D5527440FB843077C5AA3F5861C8F645F5787F59E95B390B318B55CE45AA638FAA2957BD7248B390B7A7CC51F9C124149C82B8C378810
310
84AB2F42B7B8DD56F413775B8C5999E9FF4471926F8AA236A1AE96B8B3CC434E5839373893369E1FAF30EA395917409EB7F26AF8801C171837A4A6AC9C89E9F9C9B1A58BA30FD6A5EF5DDDCF894B9AD9B6A59C957943A9FCAE2FD5BC4DFE03504B0304140006080800CC70623BAD7543B64E01000033030000300000006662
310
782F41393633353835312D344632462D344230382D423046372D3739314545314133324237412F636E782E786D6CD593CD6EC32010845F0571AD6CE3D48AD20813A9873E410FBD12D82434182C7EAAE6EDBB2424CD25871E7B41D6EC30B3FA84F9E67BB2E40B4234DE8DB46F1925E094D7C6ED479AD3AE5951B2113C789FEE
310
6C943839C1488B4C05DF079FE72A69D8C96C13AAD6B8631503449F83828872B949AC57D26200B826A308D316B4064D6E46FCDA41C05550DC9E483A00797BFD207EFB092A45DE9514C1BBD22178396BD39D891265658C238DEA00936C654E5E433CB65A26D9F6EDB5EBC14EBF49A45CB856E66048291F6939A9A81BB5C89177
310
38143CA680F4AA299D66A042CEB3354A2684DC9D8D178FE0D9B8B41CAAD720F880EE7EF93C0C18769E099ECC04D5A102C8049A8A05632F4DDF376CF1DE0F6BB65C2F8627B65A33C6BB62177CEBBDAD973006829F89F22E814B54F4BC2BE347F8AA8F681390B50FA73F804400B5F542E796F19FF974E7F78DB802FE05E20750
310
4B0304140006080800CC70623BE75B7789680500003C100000340000006662782F41393633353835312D344632462D344230382D423046372D3739314545314133324237412F6F626A656374732E786D6CAD575B8F9B3818FD2B887D06C22499CB8AA1CA655245D5B455A356FB305264C061D8018C6C3393D95FBFC7600890
310
A4CD5EF210B0B1BFEBF98E3F7B1FF6596ABC522E1296DF9BAE3D320D9A872C4AF2F8DE2CE5CEBA358D0FBEC719939D65A691938CDE9B6ADAF4BD98B3B2D05311DD91329583D9D5FC0F438434A7A611A644887B5384CF34233629258BA878B12322891DEFF6B66BD70BFB62634E8AE781D082709A4B588AF91C528CDA28B73F
310
1C998EEF39EABBEFA97FBD6A7C7E9553F9D3D79FE442923C3C523610337627CB87ABE99D359D4CC6D6E4FACAB5E6ABF9D2726FC6A3C5F56271377BB88362213924694B38DD99FE47C48627A1E7D49F5A8BB5E1A74C0A599ED3B0F21F1E56366B89112D681E218F0915D0D6F17AD41FBA2A369DCF6335D62ABBD39779D5DDD1
310
11D4D8DE3CBB96B2E04FB8202E41051754A1AA8E8F76B4C6DFE810B580B1547F4B84911149794252234D024EF8BBE963A95AE27B3D310A9D5C215C7960FAEE415ED75694C6AFB17BCACA5D99A60A9AA65F217B0BFC53292ACB92BF283FAD0D3621576592CB5BED907C2FA8E9DF794E35E97BEA31BED21FEB401ABB94C44839
310
DCACBF0E1C5DA8DA5B2F4DFFD32AD86F543D9E565E7056502E157C00AD2671CD534549AB752FCA9CDA00677A313F04E51B22FF19E57B300579E3C97EB29F682D92935CEC18CF901B7B54FD8C51F362B56FC72FE0B3C1EAE335EDCCBF5AEC39ADB17DC238973F804BA5E6F6BFE7AF1FB32E523BE9F3BD571418E3631DCA4D48
310
5250CF639223210A9446CA30052EDF057BD35F8329C1ECD84552BF0DC8D18BE7BCE23BFE6BD960AB4A7DE79923A103BEBD80F911CBAA2C60DB19B01CF164A5583B772EE6D3FFA56666CBCDA74DC97724A48F9A58967497E489C4D979006FD7A05E227A1EBDD0F737C623387A9C844D3709995625106D157315F8B8392CD4E0
310
A0B9A720C4BE9829CEF37EA1E13111214D53925356365ADA634861B52519DD27A00AEB808EAF0628E6F435519D446F45CF2C9CF5214F0A15B2F6D06B79DA3EE3CBF7F56780D2F4E7EF73A0F5E5B02A38D07DC852C6B7C1FBB6664213E0C39E3EBA7FF4E1AD23EA2829407C85E586727488B751B2DB9502BC7B228A3FD68B6E
310
A65A22397E690AA8D158D7E404EC8CDA235CC3B7D1898680131CEC2CDF2638C65196279577750F15884AEE19F94199155B92B13297978469D4F8D358DF0AEF7631E28DC8F0D9F437D5D39A83B2231A1D52D543813A824EF8D44BCFF2FA6A31BD1E8DAD87F1CCB526B3879935BF59CDADD5C37479BB1CDD4CA7B3556B516589
310
EF352754B706114D9C885EC9131DE6EFEB43D99AFE2391C2F958179413D7CFEF6B1B6DB1E7600F00DE6E5C67454A339A4BA2E0FBA85ED26F045D454F463DBFCE484C2F90F2E5E3666003662ED8F755951A7D1BECD5B30B550B2785C8E7320B7292A4838DDA71BBC863ED7613CAF659337A3354231D4FF4A182A54904C2898C
310
98B28C4AD0CE056CCF332A80986E571EE9DBC305BB5FEB7E509220A58D25CF042D712A806AC0AD0C657FDEF80D2D9CEAA2EE4D1C76F60BFE74219A06527D6F82DF6412526107381E55E353090704D085B52408A8913C4ED159D79BDA71BB4BC506F4831350EB6F975CD22D69BF7AC49B91A2C0A9DDA3D5CA36AD20FC478E37
310
E61844E2352865EBCB61A275A65283CAAA9DD27703B4102F5AF51EF5F573B75CBB5AD38BC845F7A49F82A0966A49C2E3EA5EA0ECD326CD965F1DB402C6FA8B51A4658C5C5E2EC9E214602E55810345408596591009A82E7E7FFACA19EEA299B14A0081A705CB3296EBC14CDF658DCD336EA6D1136881AAEB87B81AB9EE53D5
310
F5EB8BC8362082DA24122F98680A4E7930C01A0079749CEA14382A0783E5EBA5A10F8C098456A03D6A4AEB6BB881E2513747552A5DB22C7EDAF83BD5528081A365F7FF06504B0304140006080000CC70623B000000000000000000000000350000006662782F41393633353835312D344632462D344230382D423046372D37
310
39314545314133324237412F76657274696365732E62696E504B0304140006080800CC70623BF270F1330600000004000000360000006662782F41393633353835312D344632462D344230382D423046372D3739314545314133324237412F747269616E676C65732E62696E636660600000504B0304140006080000CC7062
310
3B000000000000000000000000370000006662782F41393633353835312D344632462D344230382D423046372D3739314545314133324237412F617474726962757465732E62696E504B0304140006080800CC70623B08DA0BD19000000041010000360000006662782F41393633353835312D344632462D344230382D4230
310
46372D3739314545314133324237412F6469726563746F72792E786D6C858F410AC3201045AF22B36F53E9A60B35CBEEBAE80D244E44489C6234F4F835464A48035D0DF398FF9F8AF63D0E6CC63039F212F8F9020C7D47C6792B21C5FE7403D62A1188E2E60C98D7234A5830286103A55745067B9D86B8A3CF9C7F90C11DE6
310
07FB144396D7B6A82D282E9A152AD114D5EF2CB866EEE831B8EEA07A7BB5A8D7D61A2BAAEB7FD5F70921FF497D00504B0304140006080800CC70623BEDD1DC58FD000000A00100003B0000006662782F41393633353835312D344632462D344230382D423046372D3739314545314133324237412F7265736F75726365732F
310
636F72652E786D6C8D504B6E833010BD0A9A6D65B00922041947112427E8052C33A156828DFCA97AFC9A40A576D7CDCCE87D344F8F9FBFE667F689CE6B6B3A6039850C8DB2A336530731DC4903D95970676DF82583CCC8193B5861107C72362E3BA4AC096842428D1D7107A5F7182053CF7474E0D507CE32973124857FE48B
310
540F3961CEF244279DE03EB81420DB9EAC1384436FA353E879B1B182C7A8C75DA3C7F453DF353A1075D537A7BA6464B8F535A99AE14A9A2BBD90E350DD183B5CFABE3AF262350B1EF4FC9351399401471025A527C218A1E53BAB5A5AB765F5469B96525EACF23FA6B88CFF34456DC2A1DCE36E360F82A5202F42F062ED2BAD
310
579969AFDD8A6F504B010214000A0000080000CC70623B3DEE336E79000000790000001B00000000000000000000000000000000006175746F6465736B2D64657369676E2D7061636B6167652E786D6C504B01021400140006080800CC70623BD486FD9CA0000000F40000001300000000000000000000000000B20000005B
310
436F6E74656E745F54797065735D2E786D6C504B01021400140006080800CC70623B853B8169EB0000007C010000080000000000000000000000000083010000636F72652E786D6C504B01021400140006080800CC70623B55019EA25F0000007C000000070000000000000000000000000094020000636E782E786D6C504B
310
01021400140006080800CC70623BDBABAAF470010000D40300000C00000000000000000000000000180300006662782F636F72652E786D6C504B01021400140006080800CC70623B9C113CC27E0000009D0000000B00000000000000000000000000B20400006662782F636E782E786D6C504B01021400140006080800CC70
310
623B7DF2F77C2A010000120200003100000000000000000000000000590500006662782F41393633353835312D344632462D344230382D423046372D3739314545314133324237412F636F72652E786D6C504B01021400140006080800CC70623BAD7543B64E010000330300003000000000000000000000000000D2060000
310
6662782F41393633353835312D344632462D344230382D423046372D3739314545314133324237412F636E782E786D6C504B01021400140006080800CC70623BE75B7789680500003C10000034000000000000000000000000006E0800006662782F41393633353835312D344632462D344230382D423046372D3739314545
310
314133324237412F6F626A656374732E786D6C504B01021400140006080000CC70623B0000000000000000000000003500000000000000000000000000280E00006662782F41393633353835312D344632462D344230382D423046372D3739314545314133324237412F76657274696365732E62696E504B01021400140006
310
080800CC70623BF270F133060000000400000036000000000000000000000000007B0E00006662782F41393633353835312D344632462D344230382D423046372D3739314545314133324237412F747269616E676C65732E62696E504B01021400140006080000CC70623B0000000000000000000000003700000000000000
310
000000000000D50E00006662782F41393633353835312D344632462D344230382D423046372D3739314545314133324237412F617474726962757465732E62696E504B01021400140006080800CC70623B08DA0BD1900000004101000036000000000000000000000000002A0F00006662782F41393633353835312D344632
310
462D344230382D423046372D3739314545314133324237412F6469726563746F72792E786D6C504B01021400140006080800CC70623BEDD1DC58FD000000A00100003B000000000000000000000000000E1000006662782F41393633353835312D344632462D344230382D423046372D3739314545314133324237412F7265
310
736F75726365732F636F72652E786D6C504B0506000000000E000E0080040000641100000000
  0
XRECORD
  5
2119F
102
{ACAD_REACTORS
330
1F7
102
}
330
1F7
100
AcDbXrecord
280
     1
102
MATERIAL
148
0.0
149
0.0
149
0.0
 93
        0
 94
       63
282
     0
 72
     1
 77
     1
171
     1
175
     1
179
     1
273
     0
  0
XRECORD
  5
1F8
102
{ACAD_REACTORS
330
1F7
102
}
330
1F7
100
AcDbXrecord
280
     1
 70
     1
 90
429727718
  1
30362254-06B7-45E0-A893-8CFA70E3D6BC
310
504B03040A0000080000CC70623B3DEE336E79000000790000001B0000006175746F6465736B2D64657369676E2D7061636B6167652E786D6C3C3F786D6C2076657273696F6E3D22312E302220656E636F64696E673D227574662D3822203F3E3C666F726D6174733E3C666F726D61743E687474703A2F2F736368656D612E
310
6175746F6465736B2E636F6D2F64657369676E2D7061636B6167652F323030393C2F666F726D61743E3C2F666F726D6174733E504B0304140006080800CC70623BD486FD9CA0000000F4000000130000005B436F6E74656E745F54797065735D2E786D6C7D8EC10E82300C865F65E91D8A1E8C310C0EEA1BF002731658846E
310
D98AC1B77784ABF1D8FE5FBFBF75BBCE937A534CCEB38643598122B6FEE978D0B0485F9C41B54DDD7D022595594E1A469170414C76A4D9A4D207E29CF43ECE46F218070CC6BECC4078ACAA135ACF422C856C0E68EA1BF5669944DDD7BCDE7B1F8E415D77AECB980613C2E4AC91FC167A2B244592486606FC29C8FD7F045B9A
310
EF7053A7E60B504B0304140006080800CC70623B1EC5D7A3EB0000007C01000008000000636F72652E786D6C8D90416EC3201045AF82665B6103C6756C6122AB4D4ED00B204C5C94182C03558F5F9C3852BBEB6A467FFE9B197D71FC9E6FE8CBACC17AD7032D0820E3B41FAD9B7A48F1820F808E52ACDEC75F36404ECDA687
310
4D0629A6D5A76597B477D1B89855E747B38B2A041301E95B6E7A08FAD3CCAA50296647B8168BD2573599823EBB0CA76447F43862C7BCCF5EAC59410E4DDD9C7973C2755553CCCFA4C603E3040F1565ED3B1FDE4E432BCA0D9622DAF9795FAF464533826484B498524CD807E51D79ED187F21878E10516EF63F505AC67F42C9
310
BA58B1FDDD071640D2FCC87D2045B96591CB3DA85CB7DCE40F504B0304140006080800CC70623B55019EA25F0000007C00000007000000636E782E786D6C4DCB3B0E80201045D1AD90E915ED2CF8AC45050C11660C8261F98AB1B07AC9C97D42D718D865D3E909258CFD00CCE24AC6E326A164D74DC0B4128928FF32603847
310
2BA13128B1252AC747C6BAB984FC68F0B87FE8960A5C09FE86CFB69FBA01504B0304140006080800CC70623B8C9102E971010000D40300000C0000006662782F636F72652E786D6CC5535B6E833010BC8AE5DF0A6C08340F1947A84D4ED00B38C6A128602363A31CBFCB234A53A551FA553EC09AD9F5CE8C31DB9E9B1AF5CA
310
7695D1198E428A91D2D214952E33ECDD315861B4E5CC1AE3BE9561A445A3323CC098B3D21ADFCE9034DA29ED00D5A6503328BA4E398C640D8B0C77F253352214DE4145770A5B214FA2546114020D759C75CE8200340D19DE981F0F6746269C33EFAB6266AB02A655C74A59CCF365BADC27CB5D902ED22848F6340DF238A141
310
BE88E2F57B92BFEDF23523433367AE6A2EEAA455C2A902F398D2751045018D3FA264435F3771F242571B4A1919CA6F9A7C5B3CD9E42BED16F12C776AEB308F40C848FC700B1139D4891EF410CEC810227CC6846F8386402064270EF5C5C709A05E49676C024C61FC95EA45ED154CA5211D1FF4FB8291A913A68E9B83EBBB33
310
E2A7673CDE118E5AE8124C0807CB8377834E366998436B950D7A7746DAD846D4CFD978E0F04FD455FC5D49D2D4C6FE9722321F10997F0F32DC47FE05504B0304140006080800CC70623BFFEA85907E0000009D0000000B0000006662782F636E782E786D6C4DCCD10A83201886E15B91FFDC95D95A811AB6F23E625948A6C3
310
E9D8E5AF46073BFAE0E1E365ED67B3E8ADC3CB78C7815C7240DA3DFC64DCC221C519D7805AC182F7F1EF06C88D9BE6703008B6049F9E274D7A1E938DBB5AE3D6131B2589BA0D3D965551E0B2EA732C9B9A624AAEB41E3A557677029960D9AFB4EF11165F504B0304140006080800CC70623B4FEEA4082C0100001202000031
310
0000006662782F39464131463745442D413632322D343644302D413938332D3331353338454246344243312F636F72652E786D6C8D515B6EC32010BC0AE2AB55850DD871ED0813254D72825EC00192A2C460F1A872FC42ED48ED5F7E00CDCECCCEB26C731F6FE05B39AFADE921293004CA082BB5B9F43086336A21D870E6AC
310
0D7F68109861543DCC30E4ECE26C9C164858139409093556AA051CBC570102714B8F1E7AF1A5C6A11862480C7F2DA6415C878B2A4891CA89C7990F2E050073937C42DE1DB7E4F87ED8A36D4329AA9B3D46DBAEAD504556557BD81DEBDD0761E52CE42C462D17B996298E3E6BE59E35C962CE821E1FF18553435012728A7187
310
0841987E927A8D9B35ADDF70BBC6989599FE4F1427F9A4286A132ABAC49D651EF234CD5CE04CDA78BA3DC2A8FB645D00B9DF8B57E215725C60BCA2A463E54C4CE327C7A65E1C7DB02E7DEFCBF594B864C5CA6CDBD49C957943E9FA5D5FBAF336F90F504B0304140006080800CC70623BAD7543B64E01000033030000300000
310
006662782F39464131463745442D413632322D343644302D413938332D3331353338454246344243312F636E782E786D6CD593CD6EC32010845F0571AD6CE3D48AD20813A9873E410FBD12D82434182C7EAAE6EDBB2424CD25871E7B41D6EC30B3FA84F9E67BB2E40B4234DE8DB46F1925E094D7C6ED479AD3AE5951B2113C
310
789FEE6C943839C1488B4C05DF079FE72A69D8C96C13AAD6B8631503449F83828872B949AC57D26200B826A308D316B4064D6E46FCDA41C05550DC9E483A00797BFD207EFB092A45DE9514C1BBD22178396BD39D891265658C238DEA00936C654E5E433CB65A26D9F6EDB5EBC14EBF49A45CB856E66048291F6939A9A81BB5
310
C8917738143CA680F4AA299D66A042CEB3354A2684DC9D8D178FE0D9B8B41CAAD720F880EE7EF93C0C18769E099ECC04D5A102C8049A8A05632F4DDF376CF1DE0F6BB65C2F8627B65A33C6BB62177CEBBDAD973006829F89F22E814B54F4BC2BE347F8AA8F681390B50FA73F804400B5F542E796F19FF974E7F78DB802FE05
310
E207504B0304140006080800CC70623B16AB87BA640500003C100000340000006662782F39464131463745442D413632322D343644302D413938332D3331353338454246344243312F6F626A656374732E786D6CAD575B6FA33818FD2B887DE6924B3BED8A326A92B68A663B534DD4D13E548A0C38942D60649B369D5FBFC7
310
600890A493BDE42160637FD7F31D7FF63E6FB3D478A55C242CBF3247B66B1A340F5994E4F19559CA8D75611A9F7D8F33263BCB4C232719BD32D5B4E97B316765A1A722BA21652A07B3B7B33F0D11D29C9A46981221AE4C113ED38CD8A4942CA2E2C58E882476BCD9DA23BB5ED8171B73523C0F841684D35CC252CCE79062D4
310
468DFA43D7747CCF51DF7D4FFDEB5593E3AB9CCA9FBEFE241792E4E19EB28198C968BAB8199F5D5A67D3E9C49A9E8F47D6EC76B6B0469F26EEFC7C3EBFBCBEB98462213924694B38DD98FE1D62C393D073EA4FADC5DAF04326852CCF6958F90F0F2B9BB5C48816348F90C7840A68EB78EDF68723159BCEE7891A6B95DDE9D3
310
BCEAEEE8086A6C6F9E5D4B59F0175C10A7A0820BAA5055C7473B5AE3CFDD452D602CD5DF12616444529E90D448938013FE6EFA58AA96F85E4F8C42275708571E98FE6827AF6B2B4AE3D7D83D64E5A64C53054DD3AF90BD06FEA9149565C94FCA0F6B834DC85599E4F2423B24DF0B6AFA979E534DFA9E7A4CC6FA631D486393
310
921829879BF5D781A373557BCB85E97FB90DB62B558F8795179C15944B051F40AB495CF35451D26A4727654E6D8033BD98EF82F21D91FF8AF2DD9982BCF1643BDD4EB516C9492E368C67C88DED563FC36D5EACF66DFF057C3658BDBFA69DF9578B3DA735B64F18C7F20770A9D45CFCF7FCF563D6456A277DBEF78A02637CA2
310
43B90A490AEAB94F72244481D24819A6C0E59B606BFA4B3025981DBB48EAB701D97BF19C577CC77F2D1B6C55A9EF3C732474C0B727303F625995056C3B02963D9EAC146BE78EC5FCEC7FA999EBC5EACBAAE41B12D27B4D2C0BBA49F244E2ECDC81B76B502F113D8F5EE8FB1BE3111CDD4FC2AA9B844CAB1288B68AB90A7CDC
310
1C166AB0D3DC5310625FCC14E779BFD0709F8890A629C9292B1B2DED31A4B0DA928CEE135085754027E3018A397D4D5427D15BD1330B677DC8934285AC3DF45A9EB68FF8F2B8FC0A509AFEECFD0FF2DE25CC6047F7214B195F07EFEB9A094D800F7BFAE8FED187B78EA8A3A400F115961BCAD1215E47C966530AF0EE8128FE
310
58CEBB996A8964FFA529A046635D9353B0336A8F700DDF46271A024E70B0B37C9DE01847591E54DED53D54202AB947E4076556AC49C6CA5C9E1226B7F1A7B1BE15DEED62C41B91E1B3E9AFAAA735036547343A925075041DF0A9979E893B391F8FCFA6967B3EFB644DCF6E5CEBFAE272625DCC6FAF3FB93793C5F90CE1EF57
310
407342756B10D1C489E8953CD1617E5CEECAD6F4EF8914CE5D5D504E5C3F1F9736DA62CFC11E00BCDDB8CC8A9466349744C1F75EBDA4DF09BA8A9E8C7A7E9991989E20E5DBDD6A6003664ED8F7A04A8DBE0DF6EAD9B9AA858342E47399053949D2C146EDB85DE4B176BB0965FBAC19BD19AA918E27FA50C1D22402E144464C
310
59462568E704B6E71915404CB72B8FF4EDE184DDAF753F284990D2C6926782963815403548A70C657FDEF80D2D9CEAA2AE4C1C76F60BFE74219A06527D6582DF6412526107381E55E353090704D085B52408D0933C4ED159D79BDA71BB4BC506F4831350EB6F979CD22D69BF7AC49B91A2C0A9DDA3D5CA36AD20FC478E37E6
310
1844E2352865EBCB6EA275A652E3836BE04EFB400BF1A2556F515F1FBB35B2AB35BD889C744FFA1004B5544B121E57F70215746DD2F5E2C1412B602CBF19455AC6C8E5E9922C4E01E65215385004546899059180EAFCF7A707CE7017CD8CDB0410789AB32C63B91E5CEBBBACB17AC6CD347A022D5075FD106377347AAABA7E
310
7D11590744509B44E205134DC1290F06580320F78E537D3D73540E06CB970B431F185308AD40BBD794D6D77003C5A36E8EAA54BA64597CD8F83BD552A080A365F7FF06504B0304140006080000CC70623B000000000000000000000000350000006662782F39464131463745442D413632322D343644302D413938332D3331
310
353338454246344243312F76657274696365732E62696E504B0304140006080800CC70623BF270F1330600000004000000360000006662782F39464131463745442D413632322D343644302D413938332D3331353338454246344243312F747269616E676C65732E62696E636660600000504B0304140006080000CC70623B
310
000000000000000000000000370000006662782F39464131463745442D413632322D343644302D413938332D3331353338454246344243312F617474726962757465732E62696E504B0304140006080800CC70623B08DA0BD19000000041010000360000006662782F39464131463745442D413632322D343644302D413938
310
332D3331353338454246344243312F6469726563746F72792E786D6C858F410AC3201045AF22B36F53E9A60B35CBEEBAE80D244E44489C6234F4F835464A48035D0DF398FF9F8AF63D0E6CC63039F212F8F9020C7D47C6792B21C5FE7403D62A1188E2E60C98D7234A5830286103A55745067B9D86B8A3CF9C7F90C11DE607
310
FB144396D7B6A82D282E9A152AD114D5EF2CB866EEE831B8EEA07A7BB5A8D7D61A2BAAEB7FD5F70921FF497D00504B0304140006080800CC70623B0D6EF93BFE000000A00100003B0000006662782F39464131463745442D413632322D343644302D413938332D3331353338454246344243312F7265736F75726365732F63
310
6F72652E786D6C8D50596E833010BD0A9ADFCA60B334011947A8694ED00B586642AC041B79A97AFC9A40A5F6AF3F33A3B7689E1E3F7DCD8FEC139DD7D6F4C0720A191A65476DA61E62B892236427C19DB5E1970C322367EC618541F0C9D9B8EC90B226A009093576C41D94DE63804C3DD2D18357379C652E63480A7FCF17A9
310
EE72C29CE5894E3AC17D702940B63D59270887DE46A7D0F36263058F518FBB468FE9A7BE6A7420864373B8D4873369AA8691FA421B3294352543C5CAF65C0F6FEF43CB8BD52C78D0F34F46E550061C419494B6843142CB0F5677F4B52BEB177AEC28E5C52AFF638ACBF84F53D42654E51E77B379102C05791282176B5F693D
310
CB4C7BED567C03504B010214000A0000080000CC70623B3DEE336E79000000790000001B00000000000000000000000000000000006175746F6465736B2D64657369676E2D7061636B6167652E786D6C504B01021400140006080800CC70623BD486FD9CA0000000F40000001300000000000000000000000000B20000005B
310
436F6E74656E745F54797065735D2E786D6C504B01021400140006080800CC70623B1EC5D7A3EB0000007C010000080000000000000000000000000083010000636F72652E786D6C504B01021400140006080800CC70623B55019EA25F0000007C000000070000000000000000000000000094020000636E782E786D6C504B
310
01021400140006080800CC70623B8C9102E971010000D40300000C00000000000000000000000000180300006662782F636F72652E786D6C504B01021400140006080800CC70623BFFEA85907E0000009D0000000B00000000000000000000000000B30400006662782F636E782E786D6C504B01021400140006080800CC70
310
623B4FEEA4082C0100001202000031000000000000000000000000005A0500006662782F39464131463745442D413632322D343644302D413938332D3331353338454246344243312F636F72652E786D6C504B01021400140006080800CC70623BAD7543B64E010000330300003000000000000000000000000000D5060000
310
6662782F39464131463745442D413632322D343644302D413938332D3331353338454246344243312F636E782E786D6C504B01021400140006080800CC70623B16AB87BA640500003C1000003400000000000000000000000000710800006662782F39464131463745442D413632322D343644302D413938332D3331353338
310
454246344243312F6F626A656374732E786D6C504B01021400140006080000CC70623B0000000000000000000000003500000000000000000000000000270E00006662782F39464131463745442D413632322D343644302D413938332D3331353338454246344243312F76657274696365732E62696E504B01021400140006
310
080800CC70623BF270F133060000000400000036000000000000000000000000007A0E00006662782F39464131463745442D413632322D343644302D413938332D3331353338454246344243312F747269616E676C65732E62696E504B01021400140006080000CC70623B0000000000000000000000003700000000000000
310
000000000000D40E00006662782F39464131463745442D413632322D343644302D413938332D3331353338454246344243312F617474726962757465732E62696E504B01021400140006080800CC70623B08DA0BD190000000410100003600000000000000000000000000290F00006662782F39464131463745442D413632
310
322D343644302D413938332D3331353338454246344243312F6469726563746F72792E786D6C504B01021400140006080800CC70623B0D6EF93BFE000000A00100003B000000000000000000000000000D1000006662782F39464131463745442D413632322D343644302D413938332D3331353338454246344243312F7265
310
736F75726365732F636F72652E786D6C504B0506000000000E000E0080040000641100000000
  0
XRECORD
  5
211A1
102
{ACAD_REACTORS
330
173
102
}
330
173
100
AcDbXrecord
280
     1
102
MATERIAL
148
0.0
149
0.0
149
0.0
 93
        0
 94
       63
282
     0
 72
     1
 77
     1
171
     1
175
     1
179
     1
273
     0
  0
XRECORD
  5
175
102
{ACAD_REACTORS
330
173
102
}
330
173
100
AcDbXrecord
280
     1
270
     1
271
     1
  0
XRECORD
  5
174
102
{ACAD_REACTORS
330
173
102
}
330
173
100
AcDbXrecord
280
     1
270
     1
271
     1
  0
XRECORD
  5
1FB
102
{ACAD_REACTORS
330
173
102
}
330
173
100
AcDbXrecord
280
     1
 70
     0
 90
1673772943
  1
ECE7A1D2-D628-4531-984C-D00F80459256
310
504B03040A0000080000CC70623B3DEE336E79000000790000001B0000006175746F6465736B2D64657369676E2D7061636B6167652E786D6C3C3F786D6C2076657273696F6E3D22312E302220656E636F64696E673D227574662D3822203F3E3C666F726D6174733E3C666F726D61743E687474703A2F2F736368656D612E
310
6175746F6465736B2E636F6D2F64657369676E2D7061636B6167652F323030393C2F666F726D61743E3C2F666F726D6174733E504B0304140006080800CC70623BD486FD9CA0000000F4000000130000005B436F6E74656E745F54797065735D2E786D6C7D8EC10E82300C865F65E91D8A1E8C310C0EEA1BF002731658846E
310
D98AC1B77784ABF1D8FE5FBFBF75BBCE937A534CCEB38643598122B6FEE978D0B0485F9C41B54DDD7D022595594E1A469170414C76A4D9A4D207E29CF43ECE46F218070CC6BECC4078ACAA135ACF422C856C0E68EA1BF5669944DDD7BCDE7B1F8E415D77AECB980613C2E4AC91FC167A2B244592486606FC29C8FD7F045B9A
310
EF7053A7E60B504B0304140006080800CC70623BD9DDAED0EC0000007C01000008000000636F72652E786D6C8D90416EC3201045AF82665B61836D9CD8C2444DD39CA01740405C94182C03558F5F9C3852BBEB6A467FFE9B197D7EF89E6EE8CB2CC17A37002D0820E394D7D68D03A478C17B4007C117EFE32F1B20272733C0
310
2A83E0E3E2D3BC49CABB685CCCAAF3DA6CA20CC14440EA969B0182FA34932C648AD911AEC52CD5558EA6A0CF2EC329598D1E47ACCEFBECC59A050463A7EA5833865FEBDD0E37353BE3EE8DBDE3F6786A48D375FBF6CC78B9C282473B3DEFABC5C86834888A900E538A49F5419B9EB47DD5BC907D4F082F57FB1F28CDFA9F50
310
B22ED6D5F6EE030B20687EE43E10BC5CB3C8E51E54AE6B6EE207504B0304140006080800CC70623B55019EA25F0000007C00000007000000636E782E786D6C4DCB3B0E80201045D1AD90E915ED2CF8AC45050C11660C8261F98AB1B07AC9C97D42D718D865D3E909258CFD00CCE24AC6E326A164D74DC0B4128928FF326038
310
472BA13128B1252AC747C6BAB984FC68F0B87FE8960A5C09FE86CFB69FBA01504B0304140006080800CC70623BA24EB22D72010000D40300000C0000006662782F636F72652E786D6CC5535B6E833010BC8AE5DF0A6C5E49888CA3A6694ED00B38E05014B091B1518EDFE511A5A9D228FD2A1F60CDEC7A67C6986DCE4D8D7A
310
69BA4AAB0C073EC548AA5C17952A33ECECD15B61B4E1CC686DBF9561A44423333CC098B3D268D7CE50AE9595CA02AA74216750749DB418E5352C32DCE59FB211BE70162ABA93DF8AFC244AE9073ED050C759670D0840D390E18DF9F1706664C23973AE2A66B62A605A75ACA4C13C4976E1364A12EF355A2EBD384AF65EFA96
310
BC7B8BED2EA6719AAE16FB8491A199335B351775B991C2CA02F390D2D40B028F861F41BCA68B7518BFD0D59A524686F29B26D7164F36B94AD9289CE54E6D1DE6010819891F6E21228B3AD1831EC219194284CF98F06DD01008846CC5A1BEF83801D4CBDC6A1303536877A57A513B0953A94FC707FDBE6064EA84A9E3E6E0FA
310
EE8CF0E9198F7784A316AA0413C2C2F2E0ECA0934D1AE6D05A69BCDE9E91D2A611F573361E38FC1375157F5752AE6B6DFE4B11990F88CCBF0719EE23FF02504B0304140006080800CC70623B408A7D3B7C0000009D0000000B0000006662782F636E782E786D6C4DCCD10A83201886E15B91FFDC552A92A0064DBC8F581632
310
D3703A76F9ABD1C18E3E78F878E5F0D9027ABBFCF2292AE86E2D20171F69F6715550CB827B40839639A5F2770314A7CD293819B45C73AAFB45B35BA61ACAA1C1C7E7855C58C15BC331339661262CC762340413D68D77DA5B42298546CBE6573AF60CEB2F504B0304140006080800CC70623B449FB9BD290100001202000031
310
0000006662782F36394639363044362D344446342D343946362D394244322D3234314243333846323333332F636F72652E786D6C8D515B6EC32010BC0AE22B55850D98B871848994463E412FE002495162B07854397EA176A4F62F3F2C9A9D991D587EB84F37F0AD7D30CEF6905418026DA553C65E7A98E219ED203808EE9D
310
8B7F6810D871D23D2C3014FCE25D9A57483A1BB58D19B54EE9151C43D0110279CB971E06F9A5A7B11A53CC8C70ADE6515EC78BAE4895DB992778883E0700CB907242D17643D7E2538BD869608875438BBAE38922CAC8F1BDD90DB4691A5E2F42C153326A951B95E398B3D1FE599322163C9AE9115F7A3D46ADA0A018778810
310
84E907617BDCEE297BC5BB3DC6BC2EF47FA234AB2745C9D8D8D035EE220B50105E2F0DC1954B9FB747187D9F9D8FA0CCDB042D5FA0C015C65B42DF78BD10F3F3B363CB56C7109DCFDFBBB97E662ED92EB62D13BC2E1BCAE5777DB9966D8A1F504B0304140006080800CC70623BAD7543B64E01000033030000300000006662
310
782F36394639363044362D344446342D343946362D394244322D3234314243333846323333332F636E782E786D6CD593CD6EC32010845F0571AD6CE3D48AD20813A9873E410FBD12D82434182C7EAAE6EDBB2424CD25871E7B41D6EC30B3FA84F9E67BB2E40B4234DE8DB46F1925E094D7C6ED479AD3AE5951B2113C789FEE
310
6C943839C1488B4C05DF079FE72A69D8C96C13AAD6B8631503449F83828872B949AC57D26200B826A308D316B4064D6E46FCDA41C05550DC9E483A00797BFD207EFB092A45DE9514C1BBD22178396BD39D891265658C238DEA00936C654E5E433CB65A26D9F6EDB5EBC14EBF49A45CB856E66048291F6939A9A81BB5C89177
310
38143CA680F4AA299D66A042CEB3354A2684DC9D8D178FE0D9B8B41CAAD720F880EE7EF93C0C18769E099ECC04D5A102C8049A8A05632F4DDF376CF1DE0F6BB65C2F8627B65A33C6BB62177CEBBDAD973006829F89F22E814B54F4BC2BE347F8AA8F681390B50FA73F804400B5F542E796F19FF974E7F78DB802FE05E20750
310
4B0304140006080800CC70623B8D05915C650500003B100000340000006662782F36394639363044362D344446342D343946362D394244322D3234314243333846323333332F6F626A656374732E786D6CAD575B6FA33814FE2B887D06429276DA1565D4266D158D3A339A6846FB502932E050B66023DB74D2FDF5FB190C01
310
9276B2973C046C8ECFF53B17071F77456EBD502133CEAE6CDF9DD81665314F32965ED995DA3A17B6F5310C04E7AA47665B8C14F4CAD6DB7618A48257A5D94AE89654B91AEDDEDDFC61C998326A5B714EA4BCB265FC440BE2924AF184CA6737218AB8E976E7FA6E4338649B0A523E8D98964450A6A029F619B8588D52FE7039
310
B1BD30F0F4F730D0FF866AF6369557DB33949F31A9088B0F848DD8CCFCF9F2767A76E99CCDE733677E3EF59D9BBB9BA5E37F984D16E78BC5E5F5ED25044B25C0C96822E8D60EEFE11B91C581D77CEA34368A1F5329E68CD1B8B61F16D63A1B8E092D294B10C78C4A48EB593D192E7DED9BDEE7995E1B91FDEDD3ACEA9FE831
310
6A756F9F7D4D79F4274C90A7A04248AA51D5F8C718DAE06FB2F75AC4796EBE65D22A88A22223B995679120E2D50E41AA49C260C046A35368846B0BECD0DFF3EBEB8AD4F835768F69B9ADF25C43D30E6B646F807FAA64AD59F61715C7A54127C4AACA98BA3006A9D792DAE165E0D59B61A01FB3A9F9D838D2DAE62445C86166
310
F37564E842E7DE6A69879FEEA2DD5AE7E371E1A5E025154AC307D06A03D73EB5978C58FFA4C8E9033066E0F3BD53BEC1F39F91BE7B55103791EDE6BBB991A2046172CB4581D8B893FA674DDA17A77B3B7C413D1B511FD2743BFF8A38F03A658705E3ADF8015C3A3417FF3D7E439FF591DA0B5F18BC20C1B8981957AE6392A3
310
F43C640C01D1A0B4728E2DD4F26DB4B3C3152A252A3B4E913CEC1C72F012782FF88EFF8637AA552DBEF76408E8A8DE9E50F9E1CB3A2DA0DB1B6039A893B56063DC5B3E3FFB5F72E67AB9FEB4AEC496C4F4C1149625DD662C53E89D7BF0F6151A046260D1337DFDC94502430F83B0EE07A130A224BCAD7DAE1D9FB6CD422FF6
310
920702629C4BB9AE79C12F243C6432A6794E18E5552BA56B431AAB5D91317302B2B071E86C3A42B1A02F999E24061403B5D0EB639195DA655DD3EBEAB4FB862DDF579F014AD0E73C22F99E28DA57FB98E75C6CA2D74D53086D600F4786E0FE3144B771A8A7B900F03594DB8A633CBC49B2EDB69228BB479CF863B5E807AAAB
310
23872F6DFEB4129B949CA33823F58830E86D65621E10047D9DB34D862E8EAC3C2ABC2F7B2C40D67CDFE01F5545B92105AF983AC54D93D69E56FB8E797F88913F898A9FEC705D3F9D1B54EC8426FB500D40A03BD0119B06E1B95DDC7EB8F6975367793EBD70E66733DFB9BC982F9CE564727731999F5D4ECFCE3B8D6A4DC2A0
310
6D50FD148437D110834A64C6CDDF57FBACB5C307A2A477DFE4939736CFEF2B175371E0E10CF0DD1D5C15654E0BCA14D1E87DD02FF93782A162C0A3D95F1524A52770F972BF1EE9809D13CE7DD599467F8ECE9ADD85CE85A34CD45355448C64F9E8A031DC2D596ACC6E5DD93D9B82DE2EF5CAF81363A8E47996A0DE24564A79
310
4115AACE09C55E14540231FDA13C319787134EBF34E3A022514E5B4D9E0826E25C02D5805B15ABE1BEF51B26383D445DD9E875EE33FE4C22DA16427D65A3BCA92CA6D28DD01DF5DC53330704308475351050232CCD31583787BA75774AFB06E5070DD0C8EF484E19968C5D83BA5B90B244D31E54D55A372320FE4786B7EA58
310
44E135AA5467CB7EA333A61683CC6A8C3257034C10CF46F40EF9F5BE59BE5BD30C3C72D235E95D10345C1D45445A5F0BB47E46A5EBE5570F9380B5FA629579952296A773720405982B9DE04011506178964401AA8BDF1FBF0A8EAB6861DD6580C0E38217056766716DAEB2D6FA0917D3E4116581EADB879C4E7CFFB11EFACD
310
3D641311495D92C8676CB409A72D18610D803CE8A626049E8EC1887CB5B44CC39883690DDA8399B4B9855B481E7D71D4A9D22F96E5BB73BF5793020C02137BF837504B0304140006080000CC70623B000000000000000000000000350000006662782F36394639363044362D344446342D343946362D394244322D32343142
310
43333846323333332F76657274696365732E62696E504B0304140006080800CC70623BF270F1330600000004000000360000006662782F36394639363044362D344446342D343946362D394244322D3234314243333846323333332F747269616E676C65732E62696E636660600000504B0304140006080000CC70623B0000
310
00000000000000000000370000006662782F36394639363044362D344446342D343946362D394244322D3234314243333846323333332F617474726962757465732E62696E504B0304140006080800CC70623B08DA0BD19000000041010000360000006662782F36394639363044362D344446342D343946362D394244322D
310
3234314243333846323333332F6469726563746F72792E786D6C858F410AC3201045AF22B36F53E9A60B35CBEEBAE80D244E44489C6234F4F835464A48035D0DF398FF9F8AF63D0E6CC63039F212F8F9020C7D47C6792B21C5FE7403D62A1188E2E60C98D7234A5830286103A55745067B9D86B8A3CF9C7F90C11DE607FB14
310
4396D7B6A82D282E9A152AD114D5EF2CB866EEE831B8EEA07A7BB5A8D7D61A2BAAEB7FD5F70921FF497D00504B0304140006080800CC70623BCA768048FE000000A00100003B0000006662782F36394639363044362D344446342D343946362D394244322D3234314243333846323333332F7265736F75726365732F636F72
310
652E786D6C8D50596E833010BD0A9ADFCA60D600328E9AA639412F609909B1126CE4A5EAF16B0295DABFFECC8CDEA2797AECF8353F924FB44E193D409E5248504B332A3D0D10FC95B4901C39B3C6F85F3248B49871801506CE266BC2B243D2688FDA47549B11775038871E12F988C7004EDE7016A9083E2ADC3D5D84BC8B09
310
D33C8D74D471E6BC8D0192EDC93A815B742658898E651BCB59086ADC356A8C3FD555A1055ED7E7E254D615792D0F075295F585746FF53B694EE78A565DD736979A65AB9933AFE69F8CD2A2F038022F28ED489E135A7CE4554F9BBEA85E68DB53CAB255FEC71496F19FA6A0B42F8B3DEE6673C0F318E4497096AD7DC5F52C33
310
EEB55BFE0D504B010214000A0000080000CC70623B3DEE336E79000000790000001B00000000000000000000000000000000006175746F6465736B2D64657369676E2D7061636B6167652E786D6C504B01021400140006080800CC70623BD486FD9CA0000000F40000001300000000000000000000000000B20000005B436F
310
6E74656E745F54797065735D2E786D6C504B01021400140006080800CC70623BD9DDAED0EC0000007C010000080000000000000000000000000083010000636F72652E786D6C504B01021400140006080800CC70623B55019EA25F0000007C000000070000000000000000000000000095020000636E782E786D6C504B0102
310
1400140006080800CC70623BA24EB22D72010000D40300000C00000000000000000000000000190300006662782F636F72652E786D6C504B01021400140006080800CC70623B408A7D3B7C0000009D0000000B00000000000000000000000000B50400006662782F636E782E786D6C504B01021400140006080800CC70623B
310
449FB9BD290100001202000031000000000000000000000000005A0500006662782F36394639363044362D344446342D343946362D394244322D3234314243333846323333332F636F72652E786D6C504B01021400140006080800CC70623BAD7543B64E010000330300003000000000000000000000000000D20600006662
310
782F36394639363044362D344446342D343946362D394244322D3234314243333846323333332F636E782E786D6C504B01021400140006080800CC70623B8D05915C650500003B10000034000000000000000000000000006E0800006662782F36394639363044362D344446342D343946362D394244322D32343142433338
310
46323333332F6F626A656374732E786D6C504B01021400140006080000CC70623B0000000000000000000000003500000000000000000000000000250E00006662782F36394639363044362D344446342D343946362D394244322D3234314243333846323333332F76657274696365732E62696E504B010214001400060808
310
00CC70623BF270F13306000000040000003600000000000000000000000000780E00006662782F36394639363044362D344446342D343946362D394244322D3234314243333846323333332F747269616E676C65732E62696E504B01021400140006080000CC70623B00000000000000000000000037000000000000000000
310
00000000D20E00006662782F36394639363044362D344446342D343946362D394244322D3234314243333846323333332F617474726962757465732E62696E504B01021400140006080800CC70623B08DA0BD190000000410100003600000000000000000000000000270F00006662782F36394639363044362D344446342D
310
343946362D394244322D3234314243333846323333332F6469726563746F72792E786D6C504B01021400140006080800CC70623BCA768048FE000000A00100003B000000000000000000000000000B1000006662782F36394639363044362D344446342D343946362D394244322D3234314243333846323333332F7265736F
310
75726365732F636F72652E786D6C504B0506000000000E000E0080040000621100000000
  0
XRECORD
  5
176
102
{ACAD_REACTORS
330
173
102
}
330
173
100
AcDbXrecord
280
     1
270
     1
271
     1
  0
XRECORD
  5
177
102
{ACAD_REACTORS
330
173
102
}
330
173
100
AcDbXrecord
280
     1
270
     1
271
     1
  0
XRECORD
  5
211C3
102
{ACAD_REACTORS
330
211C2
102
}
330
211C2
100
AcDbXrecord
280
     1
102
ACAD_ROUNDTRIP_2012_MLEADER_STYLE
298
     1
  0
XRECORD
  5
211D3
102
{ACAD_REACTORS
330
211D2
102
}
330
211D2
100
AcDbXrecord
280
     1
102
DISPLAYNAME
  1
Metric50
102
FLAGS
 90
        0
  0
CELLSTYLEMAP
  5
21195
102
{ACAD_REACTORS
330
162
102
}
330
162
100
AcDbCellStyleMap
 90
        3
300
CELLSTYLE
  1
TABLEFORMAT_BEGIN
 90
        5
170
     1
 91
        0
 92
    32768
 62
   257
 93
        1
300
CONTENTFORMAT
  1
CONTENTFORMAT_BEGIN
 90
        0
 91
        0
 92
      512
 93
        0
300

 40
0.0
140
1.0
 94
        5
 62
     0
340
11
144
6.0
309
CONTENTFORMAT_END
171
     1
301
MARGIN
  1
CELLMARGIN_BEGIN
 40
1.5
 40
1.5
 40
1.5
 40
1.5
 40
4.5
 40
4.5
309
CELLMARGIN_END
 94
        6
 95
        1
302
GRIDFORMAT
  1
GRIDFORMAT_BEGIN
 90
        0
 91
        1
 62
     0
 92
       -2
340
14
 93
        0
 40
1.125
309
GRIDFORMAT_END
 95
        2
302
GRIDFORMAT
  1
GRIDFORMAT_BEGIN
 90
        0
 91
        1
 62
     0
 92
       -2
340
14
 93
        0
 40
1.125
309
GRIDFORMAT_END
 95
        4
302
GRIDFORMAT
  1
GRIDFORMAT_BEGIN
 90
        0
 91
        1
 62
     0
 92
       -2
340
14
 93
        0
 40
1.125
309
GRIDFORMAT_END
 95
        8
302
GRIDFORMAT
  1
GRIDFORMAT_BEGIN
 90
        0
 91
        1
 62
     0
 92
       -2
340
14
 93
        0
 40
1.125
309
GRIDFORMAT_END
 95
       16
302
GRIDFORMAT
  1
GRIDFORMAT_BEGIN
 90
        0
 91
        1
 62
     0
 92
       -2
340
14
 93
        0
 40
1.125
309
GRIDFORMAT_END
 95
       32
302
GRIDFORMAT
  1
GRIDFORMAT_BEGIN
 90
        0
 91
        1
 62
     0
 92
       -2
340
14
 93
        0
 40
1.125
309
GRIDFORMAT_END
309
TABLEFORMAT_END
  1
CELLSTYLE_BEGIN
 90
        1
 91
        1
300
_TITLE
309
CELLSTYLE_END
300
CELLSTYLE
  1
TABLEFORMAT_BEGIN
 90
        5
170
     1
 91
        0
 92
        0
 62
   257
 93
        1
300
CONTENTFORMAT
  1
CONTENTFORMAT_BEGIN
 90
        0
 91
        0
 92
      512
 93
        0
300

 40
0.0
140
1.0
 94
        5
 62
     0
340
11
144
4.5
309
CONTENTFORMAT_END
171
     1
301
MARGIN
  1
CELLMARGIN_BEGIN
 40
1.5
 40
1.5
 40
1.5
 40
1.5
 40
4.5
 40
4.5
309
CELLMARGIN_END
 94
        6
 95
        1
302
GRIDFORMAT
  1
GRIDFORMAT_BEGIN
 90
        0
 91
        1
 62
     0
 92
       -2
340
14
 93
        0
 40
1.125
309
GRIDFORMAT_END
 95
        2
302
GRIDFORMAT
  1
GRIDFORMAT_BEGIN
 90
        0
 91
        1
 62
     0
 92
       -2
340
14
 93
        0
 40
1.125
309
GRIDFORMAT_END
 95
        4
302
GRIDFORMAT
  1
GRIDFORMAT_BEGIN
 90
        0
 91
        1
 62
     0
 92
       -2
340
14
 93
        0
 40
1.125
309
GRIDFORMAT_END
 95
        8
302
GRIDFORMAT
  1
GRIDFORMAT_BEGIN
 90
        0
 91
        1
 62
     0
 92
       -2
340
14
 93
        0
 40
1.125
309
GRIDFORMAT_END
 95
       16
302
GRIDFORMAT
  1
GRIDFORMAT_BEGIN
 90
        0
 91
        1
 62
     0
 92
       -2
340
14
 93
        0
 40
1.125
309
GRIDFORMAT_END
 95
       32
302
GRIDFORMAT
  1
GRIDFORMAT_BEGIN
 90
        0
 91
        1
 62
     0
 92
       -2
340
14
 93
        0
 40
1.125
309
GRIDFORMAT_END
309
TABLEFORMAT_END
  1
CELLSTYLE_BEGIN
 90
        2
 91
        1
300
_HEADER
309
CELLSTYLE_END
300
CELLSTYLE
  1
TABLEFORMAT_BEGIN
 90
        5
170
     1
 91
        0
 92
        0
 62
   257
 93
        1
300
CONTENTFORMAT
  1
CONTENTFORMAT_BEGIN
 90
        0
 91
        0
 92
      512
 93
        0
300

 40
0.0
140
1.0
 94
        2
 62
     0
340
11
144
4.5
309
CONTENTFORMAT_END
171
     1
301
MARGIN
  1
CELLMARGIN_BEGIN
 40
1.5
 40
1.5
 40
1.5
 40
1.5
 40
4.5
 40
4.5
309
CELLMARGIN_END
 94
        6
 95
        1
302
GRIDFORMAT
  1
GRIDFORMAT_BEGIN
 90
        0
 91
        1
 62
     0
 92
       -2
340
14
 93
        0
 40
1.125
309
GRIDFORMAT_END
 95
        2
302
GRIDFORMAT
  1
GRIDFORMAT_BEGIN
 90
        0
 91
        1
 62
     0
 92
       -2
340
14
 93
        0
 40
1.125
309
GRIDFORMAT_END
 95
        4
302
GRIDFORMAT
  1
GRIDFORMAT_BEGIN
 90
        0
 91
        1
 62
     0
 92
       -2
340
14
 93
        0
 40
1.125
309
GRIDFORMAT_END
 95
        8
302
GRIDFORMAT
  1
GRIDFORMAT_BEGIN
 90
        0
 91
        1
 62
     0
 92
       -2
340
14
 93
        0
 40
1.125
309
GRIDFORMAT_END
 95
       16
302
GRIDFORMAT
  1
GRIDFORMAT_BEGIN
 90
        0
 91
        1
 62
     0
 92
       -2
340
14
 93
        0
 40
1.125
309
GRIDFORMAT_END
 95
       32
302
GRIDFORMAT
  1
GRIDFORMAT_BEGIN
 90
        0
 91
        1
 62
     0
 92
       -2
340
14
 93
        0
 40
1.125
309
GRIDFORMAT_END
309
TABLEFORMAT_END
  1
CELLSTYLE_BEGIN
 90
        3
 91
        2
300
_DATA
309
CELLSTYLE_END
  0
XRECORD
  5
2119A
102
{ACAD_REACTORS
330
162
102
}
330
162
100
AcDbXrecord
280
     1
102
ACAD_ROUNDTRIP_PRE2007_TABLESTYLE
 90
      512
 91
        0
  1

 92
      512
 93
        0
  2

 94
      512
 95
        0
  3

  0
XRECORD
  5
211AD
102
{ACAD_REACTORS
330
211AC
102
}
330
211AC
100
AcDbXrecord
280
     1
102
RTVSPost2010Prop28
280
     1
102
RTVSPost2010PropOp28
 70
     1
102
RTVSPost2010Prop29
280
     1
102
RTVSPost2010PropOp29
 70
     1
102
RTVSPost2010Prop30
280
     0
102
RTVSPost2010PropOp30
 70
     1
102
RTVSPost2010Prop31
280
     0
102
RTVSPost2010PropOp31
 70
     1
102
RTVSPost2010Prop32
280
     0
102
RTVSPost2010PropOp32
 70
     1
102
RTVSPost2010Prop33
280
     0
102
RTVSPost2010PropOp33
 70
     1
102
RTVSPost2010Prop34
280
     0
102
RTVSPost2010PropOp34
 70
     1
102
RTVSPost2010Prop35
280
     0
102
RTVSPost2010PropOp35
 70
     1
102
RTVSPost2010Prop36
280
     0
102
RTVSPost2010PropOp36
 70
     1
102
RTVSPost2010Prop37
 90
       50
102
RTVSPost2010PropOp37
 70
     1
102
RTVSPost2010Prop38
140
0.0
102
RTVSPost2010PropOp38
 70
     1
102
RTVSPost2010Prop39
140
1.0
102
RTVSPost2010PropOp39
 70
     1
102
RTVSPost2010Prop40
 90
        0
102
RTVSPost2010PropOp40
 70
     1
102
RTVSPost2010Prop41ColorIndex
 90
       18
102
RTVSPost2010Prop41ColorRGB
 90
        0
102
RTVSPost2010PropOp41
 70
     1
102
RTVSPost2010Prop42
 90
       50
102
RTVSPost2010PropOp42
 70
     1
102
RTVSPost2010Prop43
 90
        3
102
RTVSPost2010PropOp43
 70
     1
102
RTVSPost2010Prop44ColorIndex
 90
        5
102
RTVSPost2010Prop44ColorRGB
 90
      255
102
RTVSPost2010PropOp44
 70
     1
102
RTVSPost2010Prop45
280
     0
102
RTVSPost2010PropOp45
 70
     1
102
RTVSPost2010Prop46
 90
       50
102
RTVSPost2010PropOp46
 70
     1
102
RTVSPost2010Prop47
 90
       50
102
RTVSPost2010PropOp47
 70
     1
102
RTVSPost2010Prop48
 90
       50
102
RTVSPost2010PropOp48
 70
     1
102
RTVSPost2010Prop49
280
     0
102
RTVSPost2010PropOp49
 70
     1
102
RTVSPost2010Prop50
 90
       50
102
RTVSPost2010PropOp50
 70
     1
102
RTVSPost2010Prop51ColorIndex
 90
      256
102
RTVSPost2010Prop51ColorRGB
 90
-16777216
102
RTVSPost2010PropOp51
 70
     0
102
RTVSPost2010Prop52
140
1.0
102
RTVSPost2010PropOp52
 70
     0
102
RTVSPost2010Prop53
 90
        2
102
RTVSPost2010PropOp53
 70
     1
102
RTVSPost2010Prop54
  1
strokes_ogs.tif
102
RTVSPost2010PropOp54
 70
     1
102
RTVSPost2010Prop55
280
     0
102
RTVSPost2010PropOp55
 70
     1
102
RTVSPost2010Prop56
140
1.0
102
RTVSPost2010PropOp56
 70
     1
102
RTVSPost2010Prop57
140
1.0
102
RTVSPost2010PropOp57
 70
     1
102
RTVSPropertyOp0
 70
     1
102
RTVSPropertyOp1
 70
     1
102
RTVSPropertyOp2
 70
     1
102
RTVSPropertyOp3
 70
     1
102
RTVSPropertyOp4
 70
     1
102
RTVSPropertyOp5
 70
     1
102
RTVSPropertyOp6
 70
     1
102
RTVSPropertyOp7
 70
     1
102
RTVSPropertyOp8
 70
     1
102
RTVSPropertyOp9
 70
     1
102
RTVSPropertyOp10
 70
     1
102
RTVSPropertyOp11
 70
     1
102
RTVSPropertyOp12
 70
     1
102
RTVSPropertyOp13
 70
     1
102
RTVSPropertyOp14
 70
     1
102
RTVSPropertyOp15
 70
     1
102
RTVSPropertyOp16
 70
     1
102
RTVSPropertyOp17
 70
     1
102
RTVSPropertyOp18
 70
     1
102
RTVSPropertyOp19
 70
     1
102
RTVSPropertyOp20
 70
     1
102
RTVSPropertyOp21
 70
     1
102
RTVSPropertyOp22
 70
     1
102
RTVSPropertyOp23
 70
     1
102
RTVSPropertyOp24
 70
     1
102
RTVSPropertyOp25
 70
     1
102
RTVSPropertyOp26
 70
     1
102
RTVSPropertyOp27
 70
     1
102
RTVSPropertyOp28
 70
     1
102
RTVSPropertyOp29
 70
     1
102
RTVSPropertyOp30
 70
     1
102
RTVSPropertyOp31
 70
     1
102
RTVSPropertyOp32
 70
     1
102
RTVSPropertyOp33
 70
     1
102
RTVSPropertyOp34
 70
     1
102
RTVSPropertyOp35
 70
     1
102
RTVSPropertyOp36
 70
     1
102
RTVSPropertyOp37
 70
     1
102
RTVSPropertyOp38
 70
     1
102
RTVSPropertyOp39
 70
     1
102
RTVSPropertyOp40
 70
     1
102
RTVSPropertyOp41
 70
     1
102
RTVSPropertyOp42
 70
     1
102
RTVSPropertyOp43
 70
     1
102
RTVSPropertyOp44
 70
     1
102
RTVSPropertyOp45
 70
     1
102
RTVSPropertyOp46
 70
     1
102
RTVSPropertyOp47
 70
     1
102
RTVSPropertyOp48
 70
     1
102
RTVSPropertyOp49
 70
     1
102
RTVSPropertyOp50
 70
     1
102
RTVSPropertyOp51
 70
     0
102
RTVSPropertyOp52
 70
     0
102
RTVSPropertyOp53
 70
     1
102
RTVSPropertyOp54
 70
     1
102
RTVSPropertyOp55
 70
     1
102
RTVSPropertyOp56
 70
     1
102
RTVSPropertyOp57
 70
     1
102
RTVSPropertyOp58
 70
     1
102
RTVSPropertyOp59
 70
     1
102
RTVSPropertyOp60
 70
     1
102
RTVSPropertyOp61
 70
     1
102
RTVSPropertyOp62
 70
     1
  0
XRECORD
  5
211AB
102
{ACAD_REACTORS
330
211AA
102
}
330
211AA
100
AcDbXrecord
280
     1
102
RTVSPost2010Prop28
280
     0
102
RTVSPost2010PropOp28
 70
     1
102
RTVSPost2010Prop29
280
     1
102
RTVSPost2010PropOp29
 70
     1
102
RTVSPost2010Prop30
280
     1
102
RTVSPost2010PropOp30
 70
     1
102
RTVSPost2010Prop31
280
     0
102
RTVSPost2010PropOp31
 70
     1
102
RTVSPost2010Prop32
280
     0
102
RTVSPost2010PropOp32
 70
     1
102
RTVSPost2010Prop33
280
     0
102
RTVSPost2010PropOp33
 70
     1
102
RTVSPost2010Prop34
280
     0
102
RTVSPost2010PropOp34
 70
     1
102
RTVSPost2010Prop35
280
     0
102
RTVSPost2010PropOp35
 70
     1
102
RTVSPost2010Prop36
280
     0
102
RTVSPost2010PropOp36
 70
     1
102
RTVSPost2010Prop37
 90
       50
102
RTVSPost2010PropOp37
 70
     1
102
RTVSPost2010Prop38
140
0.0
102
RTVSPost2010PropOp38
 70
     1
102
RTVSPost2010Prop39
140
1.0
102
RTVSPost2010PropOp39
 70
     1
102
RTVSPost2010Prop40
 90
        0
102
RTVSPost2010PropOp40
 70
     1
102
RTVSPost2010Prop41ColorIndex
 90
       18
102
RTVSPost2010Prop41ColorRGB
 90
        0
102
RTVSPost2010PropOp41
 70
     1
102
RTVSPost2010Prop42
 90
       50
102
RTVSPost2010PropOp42
 70
     1
102
RTVSPost2010Prop43
 90
        3
102
RTVSPost2010PropOp43
 70
     1
102
RTVSPost2010Prop44ColorIndex
 90
        5
102
RTVSPost2010Prop44ColorRGB
 90
      255
102
RTVSPost2010PropOp44
 70
     1
102
RTVSPost2010Prop45
280
     0
102
RTVSPost2010PropOp45
 70
     1
102
RTVSPost2010Prop46
 90
       50
102
RTVSPost2010PropOp46
 70
     1
102
RTVSPost2010Prop47
 90
       50
102
RTVSPost2010PropOp47
 70
     1
102
RTVSPost2010Prop48
 90
       50
102
RTVSPost2010PropOp48
 70
     1
102
RTVSPost2010Prop49
280
     0
102
RTVSPost2010PropOp49
 70
     1
102
RTVSPost2010Prop50
 90
       50
102
RTVSPost2010PropOp50
 70
     1
102
RTVSPost2010Prop51ColorIndex
 90
      256
102
RTVSPost2010Prop51ColorRGB
 90
-16777216
102
RTVSPost2010PropOp51
 70
     0
102
RTVSPost2010Prop52
140
1.0
102
RTVSPost2010PropOp52
 70
     0
102
RTVSPost2010Prop53
 90
        2
102
RTVSPost2010PropOp53
 70
     1
102
RTVSPost2010Prop54
  1
strokes_ogs.tif
102
RTVSPost2010PropOp54
 70
     1
102
RTVSPost2010Prop55
280
     0
102
RTVSPost2010PropOp55
 70
     1
102
RTVSPost2010Prop56
140
1.0
102
RTVSPost2010PropOp56
 70
     1
102
RTVSPost2010Prop57
140
1.0
102
RTVSPost2010PropOp57
 70
     1
102
RTVSPropertyOp0
 70
     1
102
RTVSPropertyOp1
 70
     1
102
RTVSPropertyOp2
 70
     1
102
RTVSPropertyOp3
 70
     1
102
RTVSPropertyOp4
 70
     1
102
RTVSPropertyOp5
 70
     1
102
RTVSPropertyOp6
 70
     1
102
RTVSPropertyOp7
 70
     1
102
RTVSPropertyOp8
 70
     1
102
RTVSPropertyOp9
 70
     1
102
RTVSPropertyOp10
 70
     1
102
RTVSPropertyOp11
 70
     1
102
RTVSPropertyOp12
 70
     1
102
RTVSPropertyOp13
 70
     1
102
RTVSPropertyOp14
 70
     1
102
RTVSPropertyOp15
 70
     1
102
RTVSPropertyOp16
 70
     1
102
RTVSPropertyOp17
 70
     1
102
RTVSPropertyOp18
 70
     1
102
RTVSPropertyOp19
 70
     1
102
RTVSPropertyOp20
 70
     1
102
RTVSPropertyOp21
 70
     1
102
RTVSPropertyOp22
 70
     1
102
RTVSPropertyOp23
 70
     1
102
RTVSPropertyOp24
 70
     1
102
RTVSPropertyOp25
 70
     1
102
RTVSPropertyOp26
 70
     1
102
RTVSPropertyOp27
 70
     1
102
RTVSPropertyOp28
 70
     1
102
RTVSPropertyOp29
 70
     1
102
RTVSPropertyOp30
 70
     1
102
RTVSPropertyOp31
 70
     1
102
RTVSPropertyOp32
 70
     1
102
RTVSPropertyOp33
 70
     1
102
RTVSPropertyOp34
 70
     1
102
RTVSPropertyOp35
 70
     1
102
RTVSPropertyOp36
 70
     1
102
RTVSPropertyOp37
 70
     1
102
RTVSPropertyOp38
 70
     1
102
RTVSPropertyOp39
 70
     1
102
RTVSPropertyOp40
 70
     1
102
RTVSPropertyOp41
 70
     1
102
RTVSPropertyOp42
 70
     1
102
RTVSPropertyOp43
 70
     1
102
RTVSPropertyOp44
 70
     1
102
RTVSPropertyOp45
 70
     1
102
RTVSPropertyOp46
 70
     1
102
RTVSPropertyOp47
 70
     1
102
RTVSPropertyOp48
 70
     1
102
RTVSPropertyOp49
 70
     1
102
RTVSPropertyOp50
 70
     1
102
RTVSPropertyOp51
 70
     0
102
RTVSPropertyOp52
 70
     0
102
RTVSPropertyOp53
 70
     1
102
RTVSPropertyOp54
 70
     1
102
RTVSPropertyOp55
 70
     1
102
RTVSPropertyOp56
 70
     1
102
RTVSPropertyOp57
 70
     1
102
RTVSPropertyOp58
 70
     1
102
RTVSPropertyOp59
 70
     1
102
RTVSPropertyOp60
 70
     1
102
RTVSPropertyOp61
 70
     1
102
RTVSPropertyOp62
 70
     1
  0
XRECORD
  5
211B9
102
{ACAD_REACTORS
330
211B8
102
}
330
211B8
100
AcDbXrecord
280
     1
102
RTVSPost2010Prop28
280
     0
102
RTVSPost2010PropOp28
 70
     1
102
RTVSPost2010Prop29
280
     1
102
RTVSPost2010PropOp29
 70
     1
102
RTVSPost2010Prop30
280
     1
102
RTVSPost2010PropOp30
 70
     1
102
RTVSPost2010Prop31
280
     0
102
RTVSPost2010PropOp31
 70
     1
102
RTVSPost2010Prop32
280
     0
102
RTVSPost2010PropOp32
 70
     1
102
RTVSPost2010Prop33
280
     0
102
RTVSPost2010PropOp33
 70
     1
102
RTVSPost2010Prop34
280
     0
102
RTVSPost2010PropOp34
 70
     1
102
RTVSPost2010Prop35
280
     0
102
RTVSPost2010PropOp35
 70
     1
102
RTVSPost2010Prop36
280
     0
102
RTVSPost2010PropOp36
 70
     1
102
RTVSPost2010Prop37
 90
       50
102
RTVSPost2010PropOp37
 70
     1
102
RTVSPost2010Prop38
140
0.0
102
RTVSPost2010PropOp38
 70
     1
102
RTVSPost2010Prop39
140
1.0
102
RTVSPost2010PropOp39
 70
     1
102
RTVSPost2010Prop40
 90
        0
102
RTVSPost2010PropOp40
 70
     1
102
RTVSPost2010Prop41ColorIndex
 90
       18
102
RTVSPost2010Prop41ColorRGB
 90
        0
102
RTVSPost2010PropOp41
 70
     1
102
RTVSPost2010Prop42
 90
       50
102
RTVSPost2010PropOp42
 70
     1
102
RTVSPost2010Prop43
 90
        3
102
RTVSPost2010PropOp43
 70
     1
102
RTVSPost2010Prop44ColorIndex
 90
        5
102
RTVSPost2010Prop44ColorRGB
 90
      255
102
RTVSPost2010PropOp44
 70
     1
102
RTVSPost2010Prop45
280
     0
102
RTVSPost2010PropOp45
 70
     1
102
RTVSPost2010Prop46
 90
       50
102
RTVSPost2010PropOp46
 70
     1
102
RTVSPost2010Prop47
 90
       50
102
RTVSPost2010PropOp47
 70
     1
102
RTVSPost2010Prop48
 90
       50
102
RTVSPost2010PropOp48
 70
     1
102
RTVSPost2010Prop49
280
     0
102
RTVSPost2010PropOp49
 70
     1
102
RTVSPost2010Prop50
 90
       50
102
RTVSPost2010PropOp50
 70
     1
102
RTVSPost2010Prop51ColorIndex
 90
      256
102
RTVSPost2010Prop51ColorRGB
 90
-16777216
102
RTVSPost2010PropOp51
 70
     0
102
RTVSPost2010Prop52
140
1.0
102
RTVSPost2010PropOp52
 70
     0
102
RTVSPost2010Prop53
 90
        2
102
RTVSPost2010PropOp53
 70
     1
102
RTVSPost2010Prop54
  1
strokes_ogs.tif
102
RTVSPost2010PropOp54
 70
     1
102
RTVSPost2010Prop55
280
     0
102
RTVSPost2010PropOp55
 70
     1
102
RTVSPost2010Prop56
140
1.0
102
RTVSPost2010PropOp56
 70
     1
102
RTVSPost2010Prop57
140
1.0
102
RTVSPost2010PropOp57
 70
     1
102
RTVSPropertyOp0
 70
     1
102
RTVSPropertyOp1
 70
     1
102
RTVSPropertyOp2
 70
     1
102
RTVSPropertyOp3
 70
     1
102
RTVSPropertyOp4
 70
     1
102
RTVSPropertyOp5
 70
     1
102
RTVSPropertyOp6
 70
     1
102
RTVSPropertyOp7
 70
     1
102
RTVSPropertyOp8
 70
     1
102
RTVSPropertyOp9
 70
     1
102
RTVSPropertyOp10
 70
     1
102
RTVSPropertyOp11
 70
     1
102
RTVSPropertyOp12
 70
     1
102
RTVSPropertyOp13
 70
     1
102
RTVSPropertyOp14
 70
     1
102
RTVSPropertyOp15
 70
     1
102
RTVSPropertyOp16
 70
     1
102
RTVSPropertyOp17
 70
     1
102
RTVSPropertyOp18
 70
     1
102
RTVSPropertyOp19
 70
     1
102
RTVSPropertyOp20
 70
     1
102
RTVSPropertyOp21
 70
     1
102
RTVSPropertyOp22
 70
     1
102
RTVSPropertyOp23
 70
     1
102
RTVSPropertyOp24
 70
     1
102
RTVSPropertyOp25
 70
     1
102
RTVSPropertyOp26
 70
     1
102
RTVSPropertyOp27
 70
     1
102
RTVSPropertyOp28
 70
     1
102
RTVSPropertyOp29
 70
     1
102
RTVSPropertyOp30
 70
     1
102
RTVSPropertyOp31
 70
     1
102
RTVSPropertyOp32
 70
     1
102
RTVSPropertyOp33
 70
     1
102
RTVSPropertyOp34
 70
     1
102
RTVSPropertyOp35
 70
     1
102
RTVSPropertyOp36
 70
     1
102
RTVSPropertyOp37
 70
     1
102
RTVSPropertyOp38
 70
     1
102
RTVSPropertyOp39
 70
     1
102
RTVSPropertyOp40
 70
     1
102
RTVSPropertyOp41
 70
     1
102
RTVSPropertyOp42
 70
     1
102
RTVSPropertyOp43
 70
     1
102
RTVSPropertyOp44
 70
     1
102
RTVSPropertyOp45
 70
     1
102
RTVSPropertyOp46
 70
     1
102
RTVSPropertyOp47
 70
     1
102
RTVSPropertyOp48
 70
     1
102
RTVSPropertyOp49
 70
     1
102
RTVSPropertyOp50
 70
     1
102
RTVSPropertyOp51
 70
     0
102
RTVSPropertyOp52
 70
     0
102
RTVSPropertyOp53
 70
     1
102
RTVSPropertyOp54
 70
     1
102
RTVSPropertyOp55
 70
     1
102
RTVSPropertyOp56
 70
     1
102
RTVSPropertyOp57
 70
     1
102
RTVSPropertyOp58
 70
     1
102
RTVSPropertyOp59
 70
     1
102
RTVSPropertyOp60
 70
     1
102
RTVSPropertyOp61
 70
     1
102
RTVSPropertyOp62
 70
     1
  0
XRECORD
  5
211C1
102
{ACAD_REACTORS
330
211C0
102
}
330
211C0
100
AcDbXrecord
280
     1
102
RTVSPost2010Prop28
280
     0
102
RTVSPost2010PropOp28
 70
     1
102
RTVSPost2010Prop29
280
     1
102
RTVSPost2010PropOp29
 70
     1
102
RTVSPost2010Prop30
280
     1
102
RTVSPost2010PropOp30
 70
     1
102
RTVSPost2010Prop31
280
     0
102
RTVSPost2010PropOp31
 70
     1
102
RTVSPost2010Prop32
280
     0
102
RTVSPost2010PropOp32
 70
     1
102
RTVSPost2010Prop33
280
     0
102
RTVSPost2010PropOp33
 70
     1
102
RTVSPost2010Prop34
280
     0
102
RTVSPost2010PropOp34
 70
     1
102
RTVSPost2010Prop35
280
     0
102
RTVSPost2010PropOp35
 70
     1
102
RTVSPost2010Prop36
280
     0
102
RTVSPost2010PropOp36
 70
     1
102
RTVSPost2010Prop37
 90
       50
102
RTVSPost2010PropOp37
 70
     1
102
RTVSPost2010Prop38
140
0.0
102
RTVSPost2010PropOp38
 70
     1
102
RTVSPost2010Prop39
140
1.0
102
RTVSPost2010PropOp39
 70
     1
102
RTVSPost2010Prop40
 90
        0
102
RTVSPost2010PropOp40
 70
     1
102
RTVSPost2010Prop41ColorIndex
 90
       18
102
RTVSPost2010Prop41ColorRGB
 90
        0
102
RTVSPost2010PropOp41
 70
     1
102
RTVSPost2010Prop42
 90
       50
102
RTVSPost2010PropOp42
 70
     1
102
RTVSPost2010Prop43
 90
        3
102
RTVSPost2010PropOp43
 70
     1
102
RTVSPost2010Prop44ColorIndex
 90
        5
102
RTVSPost2010Prop44ColorRGB
 90
      255
102
RTVSPost2010PropOp44
 70
     1
102
RTVSPost2010Prop45
280
     0
102
RTVSPost2010PropOp45
 70
     1
102
RTVSPost2010Prop46
 90
       50
102
RTVSPost2010PropOp46
 70
     1
102
RTVSPost2010Prop47
 90
       50
102
RTVSPost2010PropOp47
 70
     1
102
RTVSPost2010Prop48
 90
       50
102
RTVSPost2010PropOp48
 70
     1
102
RTVSPost2010Prop49
280
     0
102
RTVSPost2010PropOp49
 70
     1
102
RTVSPost2010Prop50
 90
       50
102
RTVSPost2010PropOp50
 70
     1
102
RTVSPost2010Prop51ColorIndex
 90
      256
102
RTVSPost2010Prop51ColorRGB
 90
-16777216
102
RTVSPost2010PropOp51
 70
     0
102
RTVSPost2010Prop52
140
1.0
102
RTVSPost2010PropOp52
 70
     0
102
RTVSPost2010Prop53
 90
        2
102
RTVSPost2010PropOp53
 70
     1
102
RTVSPost2010Prop54
  1
strokes_ogs.tif
102
RTVSPost2010PropOp54
 70
     1
102
RTVSPost2010Prop55
280
     0
102
RTVSPost2010PropOp55
 70
     1
102
RTVSPost2010Prop56
140
1.0
102
RTVSPost2010PropOp56
 70
     1
102
RTVSPost2010Prop57
140
1.0
102
RTVSPost2010PropOp57
 70
     1
102
RTVSPropertyOp0
 70
     1
102
RTVSPropertyOp1
 70
     1
102
RTVSPropertyOp2
 70
     1
102
RTVSPropertyOp3
 70
     1
102
RTVSPropertyOp4
 70
     1
102
RTVSPropertyOp5
 70
     1
102
RTVSPropertyOp6
 70
     1
102
RTVSPropertyOp7
 70
     1
102
RTVSPropertyOp8
 70
     1
102
RTVSPropertyOp9
 70
     1
102
RTVSPropertyOp10
 70
     1
102
RTVSPropertyOp11
 70
     1
102
RTVSPropertyOp12
 70
     1
102
RTVSPropertyOp13
 70
     1
102
RTVSPropertyOp14
 70
     1
102
RTVSPropertyOp15
 70
     1
102
RTVSPropertyOp16
 70
     1
102
RTVSPropertyOp17
 70
     1
102
RTVSPropertyOp18
 70
     1
102
RTVSPropertyOp19
 70
     1
102
RTVSPropertyOp20
 70
     1
102
RTVSPropertyOp21
 70
     1
102
RTVSPropertyOp22
 70
     1
102
RTVSPropertyOp23
 70
     1
102
RTVSPropertyOp24
 70
     1
102
RTVSPropertyOp25
 70
     1
102
RTVSPropertyOp26
 70
     1
102
RTVSPropertyOp27
 70
     1
102
RTVSPropertyOp28
 70
     1
102
RTVSPropertyOp29
 70
     1
102
RTVSPropertyOp30
 70
     1
102
RTVSPropertyOp31
 70
     1
102
RTVSPropertyOp32
 70
     1
102
RTVSPropertyOp33
 70
     1
102
RTVSPropertyOp34
 70
     1
102
RTVSPropertyOp35
 70
     1
102
RTVSPropertyOp36
 70
     1
102
RTVSPropertyOp37
 70
     1
102
RTVSPropertyOp38
 70
     1
102
RTVSPropertyOp39
 70
     1
102
RTVSPropertyOp40
 70
     1
102
RTVSPropertyOp41
 70
     1
102
RTVSPropertyOp42
 70
     1
102
RTVSPropertyOp43
 70
     1
102
RTVSPropertyOp44
 70
     1
102
RTVSPropertyOp45
 70
     1
102
RTVSPropertyOp46
 70
     1
102
RTVSPropertyOp47
 70
     1
102
RTVSPropertyOp48
 70
     1
102
RTVSPropertyOp49
 70
     1
102
RTVSPropertyOp50
 70
     1
102
RTVSPropertyOp51
 70
     0
102
RTVSPropertyOp52
 70
     0
102
RTVSPropertyOp53
 70
     1
102
RTVSPropertyOp54
 70
     1
102
RTVSPropertyOp55
 70
     1
102
RTVSPropertyOp56
 70
     1
102
RTVSPropertyOp57
 70
     1
102
RTVSPropertyOp58
 70
     1
102
RTVSPropertyOp59
 70
     1
102
RTVSPropertyOp60
 70
     1
102
RTVSPropertyOp61
 70
     1
102
RTVSPropertyOp62
 70
     1
  0
XRECORD
  5
211B3
102
{ACAD_REACTORS
330
211B2
102
}
330
211B2
100
AcDbXrecord
280
     1
102
RTVSPost2010Prop28
280
     0
102
RTVSPost2010PropOp28
 70
     1
102
RTVSPost2010Prop29
280
     1
102
RTVSPost2010PropOp29
 70
     1
102
RTVSPost2010Prop30
280
     1
102
RTVSPost2010PropOp30
 70
     1
102
RTVSPost2010Prop31
280
     0
102
RTVSPost2010PropOp31
 70
     1
102
RTVSPost2010Prop32
280
     0
102
RTVSPost2010PropOp32
 70
     1
102
RTVSPost2010Prop33
280
     0
102
RTVSPost2010PropOp33
 70
     1
102
RTVSPost2010Prop34
280
     0
102
RTVSPost2010PropOp34
 70
     1
102
RTVSPost2010Prop35
280
     0
102
RTVSPost2010PropOp35
 70
     1
102
RTVSPost2010Prop36
280
     0
102
RTVSPost2010PropOp36
 70
     1
102
RTVSPost2010Prop37
 90
       50
102
RTVSPost2010PropOp37
 70
     1
102
RTVSPost2010Prop38
140
0.0
102
RTVSPost2010PropOp38
 70
     1
102
RTVSPost2010Prop39
140
1.0
102
RTVSPost2010PropOp39
 70
     1
102
RTVSPost2010Prop40
 90
        0
102
RTVSPost2010PropOp40
 70
     1
102
RTVSPost2010Prop41ColorIndex
 90
       18
102
RTVSPost2010Prop41ColorRGB
 90
        0
102
RTVSPost2010PropOp41
 70
     1
102
RTVSPost2010Prop42
 90
       50
102
RTVSPost2010PropOp42
 70
     1
102
RTVSPost2010Prop43
 90
        3
102
RTVSPost2010PropOp43
 70
     1
102
RTVSPost2010Prop44ColorIndex
 90
        5
102
RTVSPost2010Prop44ColorRGB
 90
      255
102
RTVSPost2010PropOp44
 70
     1
102
RTVSPost2010Prop45
280
     0
102
RTVSPost2010PropOp45
 70
     1
102
RTVSPost2010Prop46
 90
       50
102
RTVSPost2010PropOp46
 70
     1
102
RTVSPost2010Prop47
 90
       50
102
RTVSPost2010PropOp47
 70
     1
102
RTVSPost2010Prop48
 90
       50
102
RTVSPost2010PropOp48
 70
     1
102
RTVSPost2010Prop49
280
     0
102
RTVSPost2010PropOp49
 70
     1
102
RTVSPost2010Prop50
 90
       50
102
RTVSPost2010PropOp50
 70
     1
102
RTVSPost2010Prop51ColorIndex
 90
      256
102
RTVSPost2010Prop51ColorRGB
 90
-16777216
102
RTVSPost2010PropOp51
 70
     0
102
RTVSPost2010Prop52
140
1.0
102
RTVSPost2010PropOp52
 70
     0
102
RTVSPost2010Prop53
 90
        2
102
RTVSPost2010PropOp53
 70
     1
102
RTVSPost2010Prop54
  1
strokes_ogs.tif
102
RTVSPost2010PropOp54
 70
     1
102
RTVSPost2010Prop55
280
     0
102
RTVSPost2010PropOp55
 70
     1
102
RTVSPost2010Prop56
140
1.0
102
RTVSPost2010PropOp56
 70
     1
102
RTVSPost2010Prop57
140
1.0
102
RTVSPost2010PropOp57
 70
     1
102
RTVSPropertyOp0
 70
     1
102
RTVSPropertyOp1
 70
     1
102
RTVSPropertyOp2
 70
     1
102
RTVSPropertyOp3
 70
     1
102
RTVSPropertyOp4
 70
     1
102
RTVSPropertyOp5
 70
     1
102
RTVSPropertyOp6
 70
     1
102
RTVSPropertyOp7
 70
     1
102
RTVSPropertyOp8
 70
     1
102
RTVSPropertyOp9
 70
     1
102
RTVSPropertyOp10
 70
     1
102
RTVSPropertyOp11
 70
     1
102
RTVSPropertyOp12
 70
     1
102
RTVSPropertyOp13
 70
     1
102
RTVSPropertyOp14
 70
     1
102
RTVSPropertyOp15
 70
     1
102
RTVSPropertyOp16
 70
     1
102
RTVSPropertyOp17
 70
     1
102
RTVSPropertyOp18
 70
     1
102
RTVSPropertyOp19
 70
     1
102
RTVSPropertyOp20
 70
     1
102
RTVSPropertyOp21
 70
     1
102
RTVSPropertyOp22
 70
     1
102
RTVSPropertyOp23
 70
     1
102
RTVSPropertyOp24
 70
     1
102
RTVSPropertyOp25
 70
     1
102
RTVSPropertyOp26
 70
     1
102
RTVSPropertyOp27
 70
     1
102
RTVSPropertyOp28
 70
     1
102
RTVSPropertyOp29
 70
     1
102
RTVSPropertyOp30
 70
     1
102
RTVSPropertyOp31
 70
     1
102
RTVSPropertyOp32
 70
     1
102
RTVSPropertyOp33
 70
     1
102
RTVSPropertyOp34
 70
     1
102
RTVSPropertyOp35
 70
     1
102
RTVSPropertyOp36
 70
     1
102
RTVSPropertyOp37
 70
     1
102
RTVSPropertyOp38
 70
     1
102
RTVSPropertyOp39
 70
     1
102
RTVSPropertyOp40
 70
     1
102
RTVSPropertyOp41
 70
     1
102
RTVSPropertyOp42
 70
     1
102
RTVSPropertyOp43
 70
     1
102
RTVSPropertyOp44
 70
     1
102
RTVSPropertyOp45
 70
     1
102
RTVSPropertyOp46
 70
     1
102
RTVSPropertyOp47
 70
     1
102
RTVSPropertyOp48
 70
     1
102
RTVSPropertyOp49
 70
     1
102
RTVSPropertyOp50
 70
     1
102
RTVSPropertyOp51
 70
     0
102
RTVSPropertyOp52
 70
     0
102
RTVSPropertyOp53
 70
     1
102
RTVSPropertyOp54
 70
     1
102
RTVSPropertyOp55
 70
     1
102
RTVSPropertyOp56
 70
     1
102
RTVSPropertyOp57
 70
     1
102
RTVSPropertyOp58
 70
     1
102
RTVSPropertyOp59
 70
     1
102
RTVSPropertyOp60
 70
     1
102
RTVSPropertyOp61
 70
     1
102
RTVSPropertyOp62
 70
     1
  0
XRECORD
  5
211B7
102
{ACAD_REACTORS
330
211B6
102
}
330
211B6
100
AcDbXrecord
280
     1
102
RTVSPost2010Prop28
280
     0
102
RTVSPost2010PropOp28
 70
     1
102
RTVSPost2010Prop29
280
     1
102
RTVSPost2010PropOp29
 70
     1
102
RTVSPost2010Prop30
280
     1
102
RTVSPost2010PropOp30
 70
     1
102
RTVSPost2010Prop31
280
     0
102
RTVSPost2010PropOp31
 70
     1
102
RTVSPost2010Prop32
280
     0
102
RTVSPost2010PropOp32
 70
     1
102
RTVSPost2010Prop33
280
     0
102
RTVSPost2010PropOp33
 70
     1
102
RTVSPost2010Prop34
280
     0
102
RTVSPost2010PropOp34
 70
     1
102
RTVSPost2010Prop35
280
     0
102
RTVSPost2010PropOp35
 70
     1
102
RTVSPost2010Prop36
280
     0
102
RTVSPost2010PropOp36
 70
     1
102
RTVSPost2010Prop37
 90
       50
102
RTVSPost2010PropOp37
 70
     1
102
RTVSPost2010Prop38
140
0.0
102
RTVSPost2010PropOp38
 70
     1
102
RTVSPost2010Prop39
140
1.0
102
RTVSPost2010PropOp39
 70
     1
102
RTVSPost2010Prop40
 90
        0
102
RTVSPost2010PropOp40
 70
     1
102
RTVSPost2010Prop41ColorIndex
 90
       18
102
RTVSPost2010Prop41ColorRGB
 90
        0
102
RTVSPost2010PropOp41
 70
     1
102
RTVSPost2010Prop42
 90
       50
102
RTVSPost2010PropOp42
 70
     1
102
RTVSPost2010Prop43
 90
        3
102
RTVSPost2010PropOp43
 70
     1
102
RTVSPost2010Prop44ColorIndex
 90
        5
102
RTVSPost2010Prop44ColorRGB
 90
      255
102
RTVSPost2010PropOp44
 70
     1
102
RTVSPost2010Prop45
280
     0
102
RTVSPost2010PropOp45
 70
     1
102
RTVSPost2010Prop46
 90
       50
102
RTVSPost2010PropOp46
 70
     1
102
RTVSPost2010Prop47
 90
       50
102
RTVSPost2010PropOp47
 70
     1
102
RTVSPost2010Prop48
 90
       50
102
RTVSPost2010PropOp48
 70
     1
102
RTVSPost2010Prop49
280
     0
102
RTVSPost2010PropOp49
 70
     1
102
RTVSPost2010Prop50
 90
       50
102
RTVSPost2010PropOp50
 70
     1
102
RTVSPost2010Prop51ColorIndex
 90
      256
102
RTVSPost2010Prop51ColorRGB
 90
-16777216
102
RTVSPost2010PropOp51
 70
     0
102
RTVSPost2010Prop52
140
1.0
102
RTVSPost2010PropOp52
 70
     0
102
RTVSPost2010Prop53
 90
        2
102
RTVSPost2010PropOp53
 70
     1
102
RTVSPost2010Prop54
  1
strokes_ogs.tif
102
RTVSPost2010PropOp54
 70
     1
102
RTVSPost2010Prop55
280
     0
102
RTVSPost2010PropOp55
 70
     1
102
RTVSPost2010Prop56
140
1.0
102
RTVSPost2010PropOp56
 70
     1
102
RTVSPost2010Prop57
140
1.0
102
RTVSPost2010PropOp57
 70
     1
102
RTVSPropertyOp0
 70
     1
102
RTVSPropertyOp1
 70
     1
102
RTVSPropertyOp2
 70
     1
102
RTVSPropertyOp3
 70
     1
102
RTVSPropertyOp4
 70
     1
102
RTVSPropertyOp5
 70
     1
102
RTVSPropertyOp6
 70
     1
102
RTVSPropertyOp7
 70
     1
102
RTVSPropertyOp8
 70
     1
102
RTVSPropertyOp9
 70
     1
102
RTVSPropertyOp10
 70
     1
102
RTVSPropertyOp11
 70
     1
102
RTVSPropertyOp12
 70
     1
102
RTVSPropertyOp13
 70
     1
102
RTVSPropertyOp14
 70
     1
102
RTVSPropertyOp15
 70
     1
102
RTVSPropertyOp16
 70
     1
102
RTVSPropertyOp17
 70
     1
102
RTVSPropertyOp18
 70
     1
102
RTVSPropertyOp19
 70
     1
102
RTVSPropertyOp20
 70
     1
102
RTVSPropertyOp21
 70
     1
102
RTVSPropertyOp22
 70
     1
102
RTVSPropertyOp23
 70
     1
102
RTVSPropertyOp24
 70
     1
102
RTVSPropertyOp25
 70
     1
102
RTVSPropertyOp26
 70
     1
102
RTVSPropertyOp27
 70
     1
102
RTVSPropertyOp28
 70
     1
102
RTVSPropertyOp29
 70
     1
102
RTVSPropertyOp30
 70
     1
102
RTVSPropertyOp31
 70
     1
102
RTVSPropertyOp32
 70
     1
102
RTVSPropertyOp33
 70
     1
102
RTVSPropertyOp34
 70
     1
102
RTVSPropertyOp35
 70
     1
102
RTVSPropertyOp36
 70
     1
102
RTVSPropertyOp37
 70
     1
102
RTVSPropertyOp38
 70
     1
102
RTVSPropertyOp39
 70
     1
102
RTVSPropertyOp40
 70
     1
102
RTVSPropertyOp41
 70
     1
102
RTVSPropertyOp42
 70
     1
102
RTVSPropertyOp43
 70
     1
102
RTVSPropertyOp44
 70
     1
102
RTVSPropertyOp45
 70
     1
102
RTVSPropertyOp46
 70
     1
102
RTVSPropertyOp47
 70
     1
102
RTVSPropertyOp48
 70
     1
102
RTVSPropertyOp49
 70
     1
102
RTVSPropertyOp50
 70
     1
102
RTVSPropertyOp51
 70
     0
102
RTVSPropertyOp52
 70
     0
102
RTVSPropertyOp53
 70
     1
102
RTVSPropertyOp54
 70
     1
102
RTVSPropertyOp55
 70
     1
102
RTVSPropertyOp56
 70
     1
102
RTVSPropertyOp57
 70
     1
102
RTVSPropertyOp58
 70
     1
102
RTVSPropertyOp59
 70
     1
102
RTVSPropertyOp60
 70
     1
102
RTVSPropertyOp61
 70
     1
102
RTVSPropertyOp62
 70
     1
  0
XRECORD
  5
211D7
102
{ACAD_REACTORS
330
211D6
102
}
330
211D6
100
AcDbXrecord
280
     1
102
RTVSPost2010Prop28
280
     0
102
RTVSPost2010PropOp28
 70
     0
102
RTVSPost2010Prop29
280
     1
102
RTVSPost2010PropOp29
 70
     0
102
RTVSPost2010Prop30
280
     1
102
RTVSPost2010PropOp30
 70
     0
102
RTVSPost2010Prop31
280
     0
102
RTVSPost2010PropOp31
 70
     0
102
RTVSPost2010Prop32
280
     0
102
RTVSPost2010PropOp32
 70
     0
102
RTVSPost2010Prop33
280
     0
102
RTVSPost2010PropOp33
 70
     0
102
RTVSPost2010Prop34
280
     0
102
RTVSPost2010PropOp34
 70
     0
102
RTVSPost2010Prop35
280
     0
102
RTVSPost2010PropOp35
 70
     0
102
RTVSPost2010Prop36
280
     0
102
RTVSPost2010PropOp36
 70
     0
102
RTVSPost2010Prop37
 90
       50
102
RTVSPost2010PropOp37
 70
     0
102
RTVSPost2010Prop38
140
0.0
102
RTVSPost2010PropOp38
 70
     0
102
RTVSPost2010Prop39
140
1.0
102
RTVSPost2010PropOp39
 70
     0
102
RTVSPost2010Prop40
 90
        0
102
RTVSPost2010PropOp40
 70
     0
102
RTVSPost2010Prop41ColorIndex
 90
       18
102
RTVSPost2010Prop41ColorRGB
 90
        0
102
RTVSPost2010PropOp41
 70
     0
102
RTVSPost2010Prop42
 90
       50
102
RTVSPost2010PropOp42
 70
     0
102
RTVSPost2010Prop43
 90
        3
102
RTVSPost2010PropOp43
 70
     0
102
RTVSPost2010Prop44ColorIndex
 90
        5
102
RTVSPost2010Prop44ColorRGB
 90
      255
102
RTVSPost2010PropOp44
 70
     0
102
RTVSPost2010Prop45
280
     0
102
RTVSPost2010PropOp45
 70
     0
102
RTVSPost2010Prop46
 90
       50
102
RTVSPost2010PropOp46
 70
     0
102
RTVSPost2010Prop47
 90
       50
102
RTVSPost2010PropOp47
 70
     0
102
RTVSPost2010Prop48
 90
       50
102
RTVSPost2010PropOp48
 70
     0
102
RTVSPost2010Prop49
280
     0
102
RTVSPost2010PropOp49
 70
     0
102
RTVSPost2010Prop50
 90
       50
102
RTVSPost2010PropOp50
 70
     0
102
RTVSPost2010Prop51ColorIndex
 90
      256
102
RTVSPost2010Prop51ColorRGB
 90
-16777216
102
RTVSPost2010PropOp51
 70
     0
102
RTVSPost2010Prop52
140
1.0
102
RTVSPost2010PropOp52
 70
     0
102
RTVSPost2010Prop53
 90
        2
102
RTVSPost2010PropOp53
 70
     0
102
RTVSPost2010Prop54
  1
strokes_ogs.tif
102
RTVSPost2010PropOp54
 70
     0
102
RTVSPost2010Prop55
280
     0
102
RTVSPost2010PropOp55
 70
     0
102
RTVSPost2010Prop56
140
1.0
102
RTVSPost2010PropOp56
 70
     0
102
RTVSPost2010Prop57
140
1.0
102
RTVSPost2010PropOp57
 70
     0
102
RTVSPropertyOp0
 70
     0
102
RTVSPropertyOp1
 70
     0
102
RTVSPropertyOp2
 70
     0
102
RTVSPropertyOp3
 70
     0
102
RTVSPropertyOp4
 70
     0
102
RTVSPropertyOp5
 70
     0
102
RTVSPropertyOp6
 70
     0
102
RTVSPropertyOp7
 70
     0
102
RTVSPropertyOp8
 70
     0
102
RTVSPropertyOp9
 70
     0
102
RTVSPropertyOp10
 70
     0
102
RTVSPropertyOp11
 70
     0
102
RTVSPropertyOp12
 70
     0
102
RTVSPropertyOp13
 70
     0
102
RTVSPropertyOp14
 70
     2
102
RTVSPropertyOp15
 70
     0
102
RTVSPropertyOp16
 70
     0
102
RTVSPropertyOp17
 70
     0
102
RTVSPropertyOp18
 70
     0
102
RTVSPropertyOp19
 70
     0
102
RTVSPropertyOp20
 70
     0
102
RTVSPropertyOp21
 70
     0
102
RTVSPropertyOp22
 70
     0
102
RTVSPropertyOp23
 70
     0
102
RTVSPropertyOp24
 70
     0
102
RTVSPropertyOp25
 70
     0
102
RTVSPropertyOp26
 70
     0
102
RTVSPropertyOp27
 70
     0
102
RTVSPropertyOp28
 70
     0
102
RTVSPropertyOp29
 70
     0
102
RTVSPropertyOp30
 70
     0
102
RTVSPropertyOp31
 70
     0
102
RTVSPropertyOp32
 70
     0
102
RTVSPropertyOp33
 70
     0
102
RTVSPropertyOp34
 70
     0
102
RTVSPropertyOp35
 70
     0
102
RTVSPropertyOp36
 70
     0
102
RTVSPropertyOp37
 70
     0
102
RTVSPropertyOp38
 70
     0
102
RTVSPropertyOp39
 70
     0
102
RTVSPropertyOp40
 70
     0
102
RTVSPropertyOp41
 70
     0
102
RTVSPropertyOp42
 70
     0
102
RTVSPropertyOp43
 70
     0
102
RTVSPropertyOp44
 70
     0
102
RTVSPropertyOp45
 70
     0
102
RTVSPropertyOp46
 70
     0
102
RTVSPropertyOp47
 70
     0
102
RTVSPropertyOp48
 70
     0
102
RTVSPropertyOp49
 70
     0
102
RTVSPropertyOp50
 70
     0
102
RTVSPropertyOp51
 70
     0
102
RTVSPropertyOp52
 70
     0
102
RTVSPropertyOp53
 70
     0
102
RTVSPropertyOp54
 70
     0
102
RTVSPropertyOp55
 70
     0
102
RTVSPropertyOp56
 70
     0
102
RTVSPropertyOp57
 70
     0
102
RTVSPropertyOp58
 70
     0
102
RTVSPropertyOp59
 70
     0
102
RTVSPropertyOp60
 70
     0
102
RTVSPropertyOp61
 70
     0
102
RTVSPropertyOp62
 70
     0
  0
XRECORD
  5
211BF
102
{ACAD_REACTORS
330
211BE
102
}
330
211BE
100
AcDbXrecord
280
     1
102
RTVSPost2010Prop28
280
     0
102
RTVSPost2010PropOp28
 70
     1
102
RTVSPost2010Prop29
280
     1
102
RTVSPost2010PropOp29
 70
     1
102
RTVSPost2010Prop30
280
     1
102
RTVSPost2010PropOp30
 70
     1
102
RTVSPost2010Prop31
280
     0
102
RTVSPost2010PropOp31
 70
     1
102
RTVSPost2010Prop32
280
     0
102
RTVSPost2010PropOp32
 70
     1
102
RTVSPost2010Prop33
280
     0
102
RTVSPost2010PropOp33
 70
     1
102
RTVSPost2010Prop34
280
     0
102
RTVSPost2010PropOp34
 70
     1
102
RTVSPost2010Prop35
280
     0
102
RTVSPost2010PropOp35
 70
     1
102
RTVSPost2010Prop36
280
     0
102
RTVSPost2010PropOp36
 70
     1
102
RTVSPost2010Prop37
 90
       50
102
RTVSPost2010PropOp37
 70
     1
102
RTVSPost2010Prop38
140
0.0
102
RTVSPost2010PropOp38
 70
     1
102
RTVSPost2010Prop39
140
1.0
102
RTVSPost2010PropOp39
 70
     1
102
RTVSPost2010Prop40
 90
        0
102
RTVSPost2010PropOp40
 70
     1
102
RTVSPost2010Prop41ColorIndex
 90
       18
102
RTVSPost2010Prop41ColorRGB
 90
        0
102
RTVSPost2010PropOp41
 70
     1
102
RTVSPost2010Prop42
 90
       50
102
RTVSPost2010PropOp42
 70
     1
102
RTVSPost2010Prop43
 90
        3
102
RTVSPost2010PropOp43
 70
     1
102
RTVSPost2010Prop44ColorIndex
 90
        5
102
RTVSPost2010Prop44ColorRGB
 90
      255
102
RTVSPost2010PropOp44
 70
     1
102
RTVSPost2010Prop45
280
     0
102
RTVSPost2010PropOp45
 70
     1
102
RTVSPost2010Prop46
 90
       50
102
RTVSPost2010PropOp46
 70
     1
102
RTVSPost2010Prop47
 90
       50
102
RTVSPost2010PropOp47
 70
     1
102
RTVSPost2010Prop48
 90
       50
102
RTVSPost2010PropOp48
 70
     1
102
RTVSPost2010Prop49
280
     0
102
RTVSPost2010PropOp49
 70
     1
102
RTVSPost2010Prop50
 90
       50
102
RTVSPost2010PropOp50
 70
     1
102
RTVSPost2010Prop51ColorIndex
 90
      256
102
RTVSPost2010Prop51ColorRGB
 90
-16777216
102
RTVSPost2010PropOp51
 70
     0
102
RTVSPost2010Prop52
140
1.0
102
RTVSPost2010PropOp52
 70
     0
102
RTVSPost2010Prop53
 90
        2
102
RTVSPost2010PropOp53
 70
     1
102
RTVSPost2010Prop54
  1
strokes_ogs.tif
102
RTVSPost2010PropOp54
 70
     1
102
RTVSPost2010Prop55
280
     0
102
RTVSPost2010PropOp55
 70
     1
102
RTVSPost2010Prop56
140
1.0
102
RTVSPost2010PropOp56
 70
     1
102
RTVSPost2010Prop57
140
1.0
102
RTVSPost2010PropOp57
 70
     1
102
RTVSPropertyOp0
 70
     1
102
RTVSPropertyOp1
 70
     1
102
RTVSPropertyOp2
 70
     1
102
RTVSPropertyOp3
 70
     1
102
RTVSPropertyOp4
 70
     1
102
RTVSPropertyOp5
 70
     1
102
RTVSPropertyOp6
 70
     1
102
RTVSPropertyOp7
 70
     1
102
RTVSPropertyOp8
 70
     1
102
RTVSPropertyOp9
 70
     1
102
RTVSPropertyOp10
 70
     1
102
RTVSPropertyOp11
 70
     1
102
RTVSPropertyOp12
 70
     1
102
RTVSPropertyOp13
 70
     1
102
RTVSPropertyOp14
 70
     1
102
RTVSPropertyOp15
 70
     1
102
RTVSPropertyOp16
 70
     1
102
RTVSPropertyOp17
 70
     1
102
RTVSPropertyOp18
 70
     1
102
RTVSPropertyOp19
 70
     1
102
RTVSPropertyOp20
 70
     1
102
RTVSPropertyOp21
 70
     1
102
RTVSPropertyOp22
 70
     1
102
RTVSPropertyOp23
 70
     1
102
RTVSPropertyOp24
 70
     1
102
RTVSPropertyOp25
 70
     1
102
RTVSPropertyOp26
 70
     1
102
RTVSPropertyOp27
 70
     1
102
RTVSPropertyOp28
 70
     1
102
RTVSPropertyOp29
 70
     1
102
RTVSPropertyOp30
 70
     1
102
RTVSPropertyOp31
 70
     1
102
RTVSPropertyOp32
 70
     1
102
RTVSPropertyOp33
 70
     1
102
RTVSPropertyOp34
 70
     1
102
RTVSPropertyOp35
 70
     1
102
RTVSPropertyOp36
 70
     1
102
RTVSPropertyOp37
 70
     1
102
RTVSPropertyOp38
 70
     1
102
RTVSPropertyOp39
 70
     1
102
RTVSPropertyOp40
 70
     1
102
RTVSPropertyOp41
 70
     1
102
RTVSPropertyOp42
 70
     1
102
RTVSPropertyOp43
 70
     1
102
RTVSPropertyOp44
 70
     1
102
RTVSPropertyOp45
 70
     1
102
RTVSPropertyOp46
 70
     1
102
RTVSPropertyOp47
 70
     1
102
RTVSPropertyOp48
 70
     1
102
RTVSPropertyOp49
 70
     1
102
RTVSPropertyOp50
 70
     1
102
RTVSPropertyOp51
 70
     0
102
RTVSPropertyOp52
 70
     0
102
RTVSPropertyOp53
 70
     1
102
RTVSPropertyOp54
 70
     1
102
RTVSPropertyOp55
 70
     1
102
RTVSPropertyOp56
 70
     1
102
RTVSPropertyOp57
 70
     1
102
RTVSPropertyOp58
 70
     1
102
RTVSPropertyOp59
 70
     1
102
RTVSPropertyOp60
 70
     1
102
RTVSPropertyOp61
 70
     1
102
RTVSPropertyOp62
 70
     1
  0
XRECORD
  5
211A3
102
{ACAD_REACTORS
330
211A2
102
}
330
211A2
100
AcDbXrecord
280
     1
102
RTVSPost2010Prop28
280
     0
102
RTVSPost2010PropOp28
 70
     1
102
RTVSPost2010Prop29
280
     1
102
RTVSPost2010PropOp29
 70
     1
102
RTVSPost2010Prop30
280
     1
102
RTVSPost2010PropOp30
 70
     1
102
RTVSPost2010Prop31
280
     0
102
RTVSPost2010PropOp31
 70
     1
102
RTVSPost2010Prop32
280
     0
102
RTVSPost2010PropOp32
 70
     1
102
RTVSPost2010Prop33
280
     0
102
RTVSPost2010PropOp33
 70
     1
102
RTVSPost2010Prop34
280
     0
102
RTVSPost2010PropOp34
 70
     1
102
RTVSPost2010Prop35
280
     0
102
RTVSPost2010PropOp35
 70
     1
102
RTVSPost2010Prop36
280
     0
102
RTVSPost2010PropOp36
 70
     1
102
RTVSPost2010Prop37
 90
       50
102
RTVSPost2010PropOp37
 70
     1
102
RTVSPost2010Prop38
140
0.0
102
RTVSPost2010PropOp38
 70
     1
102
RTVSPost2010Prop39
140
1.0
102
RTVSPost2010PropOp39
 70
     1
102
RTVSPost2010Prop40
 90
        0
102
RTVSPost2010PropOp40
 70
     1
102
RTVSPost2010Prop41ColorIndex
 90
       18
102
RTVSPost2010Prop41ColorRGB
 90
        0
102
RTVSPost2010PropOp41
 70
     1
102
RTVSPost2010Prop42
 90
       50
102
RTVSPost2010PropOp42
 70
     1
102
RTVSPost2010Prop43
 90
        3
102
RTVSPost2010PropOp43
 70
     1
102
RTVSPost2010Prop44ColorIndex
 90
        5
102
RTVSPost2010Prop44ColorRGB
 90
      255
102
RTVSPost2010PropOp44
 70
     1
102
RTVSPost2010Prop45
280
     0
102
RTVSPost2010PropOp45
 70
     1
102
RTVSPost2010Prop46
 90
       50
102
RTVSPost2010PropOp46
 70
     1
102
RTVSPost2010Prop47
 90
       50
102
RTVSPost2010PropOp47
 70
     1
102
RTVSPost2010Prop48
 90
       50
102
RTVSPost2010PropOp48
 70
     1
102
RTVSPost2010Prop49
280
     0
102
RTVSPost2010PropOp49
 70
     1
102
RTVSPost2010Prop50
 90
       50
102
RTVSPost2010PropOp50
 70
     1
102
RTVSPost2010Prop51ColorIndex
 90
      256
102
RTVSPost2010Prop51ColorRGB
 90
-16777216
102
RTVSPost2010PropOp51
 70
     0
102
RTVSPost2010Prop52
140
1.0
102
RTVSPost2010PropOp52
 70
     0
102
RTVSPost2010Prop53
 90
        2
102
RTVSPost2010PropOp53
 70
     1
102
RTVSPost2010Prop54
  1
strokes_ogs.tif
102
RTVSPost2010PropOp54
 70
     1
102
RTVSPost2010Prop55
280
     0
102
RTVSPost2010PropOp55
 70
     1
102
RTVSPost2010Prop56
140
1.0
102
RTVSPost2010PropOp56
 70
     1
102
RTVSPost2010Prop57
140
1.0
102
RTVSPost2010PropOp57
 70
     1
102
RTVSPropertyOp0
 70
     1
102
RTVSPropertyOp1
 70
     1
102
RTVSPropertyOp2
 70
     1
102
RTVSPropertyOp3
 70
     1
102
RTVSPropertyOp4
 70
     1
102
RTVSPropertyOp5
 70
     1
102
RTVSPropertyOp6
 70
     1
102
RTVSPropertyOp7
 70
     1
102
RTVSPropertyOp8
 70
     1
102
RTVSPropertyOp9
 70
     1
102
RTVSPropertyOp10
 70
     1
102
RTVSPropertyOp11
 70
     1
102
RTVSPropertyOp12
 70
     1
102
RTVSPropertyOp13
 70
     1
102
RTVSPropertyOp14
 70
     1
102
RTVSPropertyOp15
 70
     1
102
RTVSPropertyOp16
 70
     1
102
RTVSPropertyOp17
 70
     1
102
RTVSPropertyOp18
 70
     1
102
RTVSPropertyOp19
 70
     1
102
RTVSPropertyOp20
 70
     1
102
RTVSPropertyOp21
 70
     1
102
RTVSPropertyOp22
 70
     1
102
RTVSPropertyOp23
 70
     1
102
RTVSPropertyOp24
 70
     1
102
RTVSPropertyOp25
 70
     1
102
RTVSPropertyOp26
 70
     1
102
RTVSPropertyOp27
 70
     1
102
RTVSPropertyOp28
 70
     1
102
RTVSPropertyOp29
 70
     1
102
RTVSPropertyOp30
 70
     1
102
RTVSPropertyOp31
 70
     1
102
RTVSPropertyOp32
 70
     1
102
RTVSPropertyOp33
 70
     1
102
RTVSPropertyOp34
 70
     1
102
RTVSPropertyOp35
 70
     1
102
RTVSPropertyOp36
 70
     1
102
RTVSPropertyOp37
 70
     1
102
RTVSPropertyOp38
 70
     1
102
RTVSPropertyOp39
 70
     1
102
RTVSPropertyOp40
 70
     1
102
RTVSPropertyOp41
 70
     1
102
RTVSPropertyOp42
 70
     1
102
RTVSPropertyOp43
 70
     1
102
RTVSPropertyOp44
 70
     1
102
RTVSPropertyOp45
 70
     1
102
RTVSPropertyOp46
 70
     1
102
RTVSPropertyOp47
 70
     1
102
RTVSPropertyOp48
 70
     1
102
RTVSPropertyOp49
 70
     1
102
RTVSPropertyOp50
 70
     1
102
RTVSPropertyOp51
 70
     0
102
RTVSPropertyOp52
 70
     0
102
RTVSPropertyOp53
 70
     1
102
RTVSPropertyOp54
 70
     1
102
RTVSPropertyOp55
 70
     1
102
RTVSPropertyOp56
 70
     1
102
RTVSPropertyOp57
 70
     1
102
RTVSPropertyOp58
 70
     1
102
RTVSPropertyOp59
 70
     1
102
RTVSPropertyOp60
 70
     1
102
RTVSPropertyOp61
 70
     1
102
RTVSPropertyOp62
 70
     1
  0
XRECORD
  5
211A5
102
{ACAD_REACTORS
330
211A4
102
}
330
211A4
100
AcDbXrecord
280
     1
102
RTVSPost2010Prop28
280
     0
102
RTVSPost2010PropOp28
 70
     1
102
RTVSPost2010Prop29
280
     1
102
RTVSPost2010PropOp29
 70
     1
102
RTVSPost2010Prop30
280
     1
102
RTVSPost2010PropOp30
 70
     1
102
RTVSPost2010Prop31
280
     0
102
RTVSPost2010PropOp31
 70
     1
102
RTVSPost2010Prop32
280
     0
102
RTVSPost2010PropOp32
 70
     1
102
RTVSPost2010Prop33
280
     0
102
RTVSPost2010PropOp33
 70
     1
102
RTVSPost2010Prop34
280
     0
102
RTVSPost2010PropOp34
 70
     1
102
RTVSPost2010Prop35
280
     0
102
RTVSPost2010PropOp35
 70
     1
102
RTVSPost2010Prop36
280
     0
102
RTVSPost2010PropOp36
 70
     1
102
RTVSPost2010Prop37
 90
       50
102
RTVSPost2010PropOp37
 70
     1
102
RTVSPost2010Prop38
140
0.0
102
RTVSPost2010PropOp38
 70
     1
102
RTVSPost2010Prop39
140
1.0
102
RTVSPost2010PropOp39
 70
     1
102
RTVSPost2010Prop40
 90
        0
102
RTVSPost2010PropOp40
 70
     1
102
RTVSPost2010Prop41ColorIndex
 90
       18
102
RTVSPost2010Prop41ColorRGB
 90
        0
102
RTVSPost2010PropOp41
 70
     1
102
RTVSPost2010Prop42
 90
       50
102
RTVSPost2010PropOp42
 70
     1
102
RTVSPost2010Prop43
 90
        3
102
RTVSPost2010PropOp43
 70
     1
102
RTVSPost2010Prop44ColorIndex
 90
        5
102
RTVSPost2010Prop44ColorRGB
 90
      255
102
RTVSPost2010PropOp44
 70
     1
102
RTVSPost2010Prop45
280
     0
102
RTVSPost2010PropOp45
 70
     1
102
RTVSPost2010Prop46
 90
       50
102
RTVSPost2010PropOp46
 70
     1
102
RTVSPost2010Prop47
 90
       50
102
RTVSPost2010PropOp47
 70
     1
102
RTVSPost2010Prop48
 90
       50
102
RTVSPost2010PropOp48
 70
     1
102
RTVSPost2010Prop49
280
     0
102
RTVSPost2010PropOp49
 70
     1
102
RTVSPost2010Prop50
 90
       50
102
RTVSPost2010PropOp50
 70
     1
102
RTVSPost2010Prop51ColorIndex
 90
      256
102
RTVSPost2010Prop51ColorRGB
 90
-16777216
102
RTVSPost2010PropOp51
 70
     0
102
RTVSPost2010Prop52
140
1.0
102
RTVSPost2010PropOp52
 70
     0
102
RTVSPost2010Prop53
 90
        2
102
RTVSPost2010PropOp53
 70
     1
102
RTVSPost2010Prop54
  1
strokes_ogs.tif
102
RTVSPost2010PropOp54
 70
     1
102
RTVSPost2010Prop55
280
     0
102
RTVSPost2010PropOp55
 70
     1
102
RTVSPost2010Prop56
140
1.0
102
RTVSPost2010PropOp56
 70
     1
102
RTVSPost2010Prop57
140
1.0
102
RTVSPost2010PropOp57
 70
     1
102
RTVSPropertyOp0
 70
     1
102
RTVSPropertyOp1
 70
     1
102
RTVSPropertyOp2
 70
     1
102
RTVSPropertyOp3
 70
     1
102
RTVSPropertyOp4
 70
     1
102
RTVSPropertyOp5
 70
     1
102
RTVSPropertyOp6
 70
     1
102
RTVSPropertyOp7
 70
     1
102
RTVSPropertyOp8
 70
     1
102
RTVSPropertyOp9
 70
     1
102
RTVSPropertyOp10
 70
     1
102
RTVSPropertyOp11
 70
     1
102
RTVSPropertyOp12
 70
     1
102
RTVSPropertyOp13
 70
     1
102
RTVSPropertyOp14
 70
     1
102
RTVSPropertyOp15
 70
     1
102
RTVSPropertyOp16
 70
     1
102
RTVSPropertyOp17
 70
     1
102
RTVSPropertyOp18
 70
     1
102
RTVSPropertyOp19
 70
     1
102
RTVSPropertyOp20
 70
     1
102
RTVSPropertyOp21
 70
     1
102
RTVSPropertyOp22
 70
     1
102
RTVSPropertyOp23
 70
     1
102
RTVSPropertyOp24
 70
     1
102
RTVSPropertyOp25
 70
     1
102
RTVSPropertyOp26
 70
     1
102
RTVSPropertyOp27
 70
     1
102
RTVSPropertyOp28
 70
     1
102
RTVSPropertyOp29
 70
     1
102
RTVSPropertyOp30
 70
     1
102
RTVSPropertyOp31
 70
     1
102
RTVSPropertyOp32
 70
     1
102
RTVSPropertyOp33
 70
     1
102
RTVSPropertyOp34
 70
     1
102
RTVSPropertyOp35
 70
     1
102
RTVSPropertyOp36
 70
     1
102
RTVSPropertyOp37
 70
     1
102
RTVSPropertyOp38
 70
     1
102
RTVSPropertyOp39
 70
     1
102
RTVSPropertyOp40
 70
     1
102
RTVSPropertyOp41
 70
     1
102
RTVSPropertyOp42
 70
     1
102
RTVSPropertyOp43
 70
     1
102
RTVSPropertyOp44
 70
     1
102
RTVSPropertyOp45
 70
     1
102
RTVSPropertyOp46
 70
     1
102
RTVSPropertyOp47
 70
     1
102
RTVSPropertyOp48
 70
     1
102
RTVSPropertyOp49
 70
     1
102
RTVSPropertyOp50
 70
     1
102
RTVSPropertyOp51
 70
     0
102
RTVSPropertyOp52
 70
     0
102
RTVSPropertyOp53
 70
     1
102
RTVSPropertyOp54
 70
     1
102
RTVSPropertyOp55
 70
     1
102
RTVSPropertyOp56
 70
     1
102
RTVSPropertyOp57
 70
     1
102
RTVSPropertyOp58
 70
     1
102
RTVSPropertyOp59
 70
     1
102
RTVSPropertyOp60
 70
     1
102
RTVSPropertyOp61
 70
     1
102
RTVSPropertyOp62
 70
     1
  0
XRECORD
  5
211A7
102
{ACAD_REACTORS
330
211A6
102
}
330
211A6
100
AcDbXrecord
280
     1
102
RTVSPost2010Prop28
280
     0
102
RTVSPost2010PropOp28
 70
     1
102
RTVSPost2010Prop29
280
     1
102
RTVSPost2010PropOp29
 70
     1
102
RTVSPost2010Prop30
280
     1
102
RTVSPost2010PropOp30
 70
     1
102
RTVSPost2010Prop31
280
     0
102
RTVSPost2010PropOp31
 70
     1
102
RTVSPost2010Prop32
280
     0
102
RTVSPost2010PropOp32
 70
     1
102
RTVSPost2010Prop33
280
     0
102
RTVSPost2010PropOp33
 70
     1
102
RTVSPost2010Prop34
280
     0
102
RTVSPost2010PropOp34
 70
     1
102
RTVSPost2010Prop35
280
     0
102
RTVSPost2010PropOp35
 70
     1
102
RTVSPost2010Prop36
280
     0
102
RTVSPost2010PropOp36
 70
     1
102
RTVSPost2010Prop37
 90
       50
102
RTVSPost2010PropOp37
 70
     1
102
RTVSPost2010Prop38
140
0.0
102
RTVSPost2010PropOp38
 70
     1
102
RTVSPost2010Prop39
140
1.0
102
RTVSPost2010PropOp39
 70
     1
102
RTVSPost2010Prop40
 90
        0
102
RTVSPost2010PropOp40
 70
     1
102
RTVSPost2010Prop41ColorIndex
 90
       18
102
RTVSPost2010Prop41ColorRGB
 90
        0
102
RTVSPost2010PropOp41
 70
     1
102
RTVSPost2010Prop42
 90
       50
102
RTVSPost2010PropOp42
 70
     1
102
RTVSPost2010Prop43
 90
        3
102
RTVSPost2010PropOp43
 70
     1
102
RTVSPost2010Prop44ColorIndex
 90
        5
102
RTVSPost2010Prop44ColorRGB
 90
      255
102
RTVSPost2010PropOp44
 70
     1
102
RTVSPost2010Prop45
280
     0
102
RTVSPost2010PropOp45
 70
     1
102
RTVSPost2010Prop46
 90
       50
102
RTVSPost2010PropOp46
 70
     1
102
RTVSPost2010Prop47
 90
       50
102
RTVSPost2010PropOp47
 70
     1
102
RTVSPost2010Prop48
 90
       50
102
RTVSPost2010PropOp48
 70
     1
102
RTVSPost2010Prop49
280
     0
102
RTVSPost2010PropOp49
 70
     1
102
RTVSPost2010Prop50
 90
       50
102
RTVSPost2010PropOp50
 70
     1
102
RTVSPost2010Prop51ColorIndex
 90
      256
102
RTVSPost2010Prop51ColorRGB
 90
-16777216
102
RTVSPost2010PropOp51
 70
     0
102
RTVSPost2010Prop52
140
1.0
102
RTVSPost2010PropOp52
 70
     0
102
RTVSPost2010Prop53
 90
        2
102
RTVSPost2010PropOp53
 70
     1
102
RTVSPost2010Prop54
  1
strokes_ogs.tif
102
RTVSPost2010PropOp54
 70
     1
102
RTVSPost2010Prop55
280
     0
102
RTVSPost2010PropOp55
 70
     1
102
RTVSPost2010Prop56
140
1.0
102
RTVSPost2010PropOp56
 70
     1
102
RTVSPost2010Prop57
140
1.0
102
RTVSPost2010PropOp57
 70
     1
102
RTVSPropertyOp0
 70
     1
102
RTVSPropertyOp1
 70
     1
102
RTVSPropertyOp2
 70
     1
102
RTVSPropertyOp3
 70
     1
102
RTVSPropertyOp4
 70
     1
102
RTVSPropertyOp5
 70
     1
102
RTVSPropertyOp6
 70
     1
102
RTVSPropertyOp7
 70
     1
102
RTVSPropertyOp8
 70
     1
102
RTVSPropertyOp9
 70
     1
102
RTVSPropertyOp10
 70
     1
102
RTVSPropertyOp11
 70
     1
102
RTVSPropertyOp12
 70
     1
102
RTVSPropertyOp13
 70
     1
102
RTVSPropertyOp14
 70
     1
102
RTVSPropertyOp15
 70
     1
102
RTVSPropertyOp16
 70
     1
102
RTVSPropertyOp17
 70
     1
102
RTVSPropertyOp18
 70
     1
102
RTVSPropertyOp19
 70
     1
102
RTVSPropertyOp20
 70
     1
102
RTVSPropertyOp21
 70
     1
102
RTVSPropertyOp22
 70
     1
102
RTVSPropertyOp23
 70
     1
102
RTVSPropertyOp24
 70
     1
102
RTVSPropertyOp25
 70
     1
102
RTVSPropertyOp26
 70
     1
102
RTVSPropertyOp27
 70
     1
102
RTVSPropertyOp28
 70
     1
102
RTVSPropertyOp29
 70
     1
102
RTVSPropertyOp30
 70
     1
102
RTVSPropertyOp31
 70
     1
102
RTVSPropertyOp32
 70
     1
102
RTVSPropertyOp33
 70
     1
102
RTVSPropertyOp34
 70
     1
102
RTVSPropertyOp35
 70
     1
102
RTVSPropertyOp36
 70
     1
102
RTVSPropertyOp37
 70
     1
102
RTVSPropertyOp38
 70
     1
102
RTVSPropertyOp39
 70
     1
102
RTVSPropertyOp40
 70
     1
102
RTVSPropertyOp41
 70
     1
102
RTVSPropertyOp42
 70
     1
102
RTVSPropertyOp43
 70
     1
102
RTVSPropertyOp44
 70
     1
102
RTVSPropertyOp45
 70
     1
102
RTVSPropertyOp46
 70
     1
102
RTVSPropertyOp47
 70
     1
102
RTVSPropertyOp48
 70
     1
102
RTVSPropertyOp49
 70
     1
102
RTVSPropertyOp50
 70
     1
102
RTVSPropertyOp51
 70
     0
102
RTVSPropertyOp52
 70
     0
102
RTVSPropertyOp53
 70
     1
102
RTVSPropertyOp54
 70
     1
102
RTVSPropertyOp55
 70
     1
102
RTVSPropertyOp56
 70
     1
102
RTVSPropertyOp57
 70
     1
102
RTVSPropertyOp58
 70
     1
102
RTVSPropertyOp59
 70
     1
102
RTVSPropertyOp60
 70
     1
102
RTVSPropertyOp61
 70
     1
102
RTVSPropertyOp62
 70
     1
  0
XRECORD
  5
211A9
102
{ACAD_REACTORS
330
211A8
102
}
330
211A8
100
AcDbXrecord
280
     1
102
RTVSPost2010Prop28
280
     0
102
RTVSPost2010PropOp28
 70
     1
102
RTVSPost2010Prop29
280
     1
102
RTVSPost2010PropOp29
 70
     1
102
RTVSPost2010Prop30
280
     1
102
RTVSPost2010PropOp30
 70
     1
102
RTVSPost2010Prop31
280
     0
102
RTVSPost2010PropOp31
 70
     1
102
RTVSPost2010Prop32
280
     0
102
RTVSPost2010PropOp32
 70
     1
102
RTVSPost2010Prop33
280
     0
102
RTVSPost2010PropOp33
 70
     1
102
RTVSPost2010Prop34
280
     0
102
RTVSPost2010PropOp34
 70
     1
102
RTVSPost2010Prop35
280
     0
102
RTVSPost2010PropOp35
 70
     1
102
RTVSPost2010Prop36
280
     0
102
RTVSPost2010PropOp36
 70
     1
102
RTVSPost2010Prop37
 90
       50
102
RTVSPost2010PropOp37
 70
     1
102
RTVSPost2010Prop38
140
0.0
102
RTVSPost2010PropOp38
 70
     1
102
RTVSPost2010Prop39
140
1.0
102
RTVSPost2010PropOp39
 70
     1
102
RTVSPost2010Prop40
 90
        0
102
RTVSPost2010PropOp40
 70
     1
102
RTVSPost2010Prop41ColorIndex
 90
       18
102
RTVSPost2010Prop41ColorRGB
 90
        0
102
RTVSPost2010PropOp41
 70
     1
102
RTVSPost2010Prop42
 90
       50
102
RTVSPost2010PropOp42
 70
     1
102
RTVSPost2010Prop43
 90
        3
102
RTVSPost2010PropOp43
 70
     1
102
RTVSPost2010Prop44ColorIndex
 90
        5
102
RTVSPost2010Prop44ColorRGB
 90
      255
102
RTVSPost2010PropOp44
 70
     1
102
RTVSPost2010Prop45
280
     0
102
RTVSPost2010PropOp45
 70
     1
102
RTVSPost2010Prop46
 90
       50
102
RTVSPost2010PropOp46
 70
     1
102
RTVSPost2010Prop47
 90
       50
102
RTVSPost2010PropOp47
 70
     1
102
RTVSPost2010Prop48
 90
       50
102
RTVSPost2010PropOp48
 70
     1
102
RTVSPost2010Prop49
280
     0
102
RTVSPost2010PropOp49
 70
     1
102
RTVSPost2010Prop50
 90
       50
102
RTVSPost2010PropOp50
 70
     1
102
RTVSPost2010Prop51ColorIndex
 90
      256
102
RTVSPost2010Prop51ColorRGB
 90
-16777216
102
RTVSPost2010PropOp51
 70
     0
102
RTVSPost2010Prop52
140
1.0
102
RTVSPost2010PropOp52
 70
     0
102
RTVSPost2010Prop53
 90
        2
102
RTVSPost2010PropOp53
 70
     1
102
RTVSPost2010Prop54
  1
strokes_ogs.tif
102
RTVSPost2010PropOp54
 70
     1
102
RTVSPost2010Prop55
280
     0
102
RTVSPost2010PropOp55
 70
     1
102
RTVSPost2010Prop56
140
1.0
102
RTVSPost2010PropOp56
 70
     1
102
RTVSPost2010Prop57
140
1.0
102
RTVSPost2010PropOp57
 70
     1
102
RTVSPropertyOp0
 70
     1
102
RTVSPropertyOp1
 70
     1
102
RTVSPropertyOp2
 70
     1
102
RTVSPropertyOp3
 70
     1
102
RTVSPropertyOp4
 70
     1
102
RTVSPropertyOp5
 70
     1
102
RTVSPropertyOp6
 70
     1
102
RTVSPropertyOp7
 70
     1
102
RTVSPropertyOp8
 70
     1
102
RTVSPropertyOp9
 70
     1
102
RTVSPropertyOp10
 70
     1
102
RTVSPropertyOp11
 70
     1
102
RTVSPropertyOp12
 70
     1
102
RTVSPropertyOp13
 70
     1
102
RTVSPropertyOp14
 70
     1
102
RTVSPropertyOp15
 70
     1
102
RTVSPropertyOp16
 70
     1
102
RTVSPropertyOp17
 70
     1
102
RTVSPropertyOp18
 70
     1
102
RTVSPropertyOp19
 70
     1
102
RTVSPropertyOp20
 70
     1
102
RTVSPropertyOp21
 70
     1
102
RTVSPropertyOp22
 70
     1
102
RTVSPropertyOp23
 70
     1
102
RTVSPropertyOp24
 70
     1
102
RTVSPropertyOp25
 70
     1
102
RTVSPropertyOp26
 70
     1
102
RTVSPropertyOp27
 70
     1
102
RTVSPropertyOp28
 70
     1
102
RTVSPropertyOp29
 70
     1
102
RTVSPropertyOp30
 70
     1
102
RTVSPropertyOp31
 70
     1
102
RTVSPropertyOp32
 70
     1
102
RTVSPropertyOp33
 70
     1
102
RTVSPropertyOp34
 70
     1
102
RTVSPropertyOp35
 70
     1
102
RTVSPropertyOp36
 70
     1
102
RTVSPropertyOp37
 70
     1
102
RTVSPropertyOp38
 70
     1
102
RTVSPropertyOp39
 70
     1
102
RTVSPropertyOp40
 70
     1
102
RTVSPropertyOp41
 70
     1
102
RTVSPropertyOp42
 70
     1
102
RTVSPropertyOp43
 70
     1
102
RTVSPropertyOp44
 70
     1
102
RTVSPropertyOp45
 70
     1
102
RTVSPropertyOp46
 70
     1
102
RTVSPropertyOp47
 70
     1
102
RTVSPropertyOp48
 70
     1
102
RTVSPropertyOp49
 70
     1
102
RTVSPropertyOp50
 70
     1
102
RTVSPropertyOp51
 70
     0
102
RTVSPropertyOp52
 70
     0
102
RTVSPropertyOp53
 70
     1
102
RTVSPropertyOp54
 70
     1
102
RTVSPropertyOp55
 70
     1
102
RTVSPropertyOp56
 70
     1
102
RTVSPropertyOp57
 70
     1
102
RTVSPropertyOp58
 70
     1
102
RTVSPropertyOp59
 70
     1
102
RTVSPropertyOp60
 70
     1
102
RTVSPropertyOp61
 70
     1
102
RTVSPropertyOp62
 70
     1
  0
XRECORD
  5
211B1
102
{ACAD_REACTORS
330
211B0
102
}
330
211B0
100
AcDbXrecord
280
     1
102
RTVSPost2010Prop28
280
     0
102
RTVSPost2010PropOp28
 70
     1
102
RTVSPost2010Prop29
280
     1
102
RTVSPost2010PropOp29
 70
     1
102
RTVSPost2010Prop30
280
     1
102
RTVSPost2010PropOp30
 70
     1
102
RTVSPost2010Prop31
280
     0
102
RTVSPost2010PropOp31
 70
     1
102
RTVSPost2010Prop32
280
     0
102
RTVSPost2010PropOp32
 70
     1
102
RTVSPost2010Prop33
280
     0
102
RTVSPost2010PropOp33
 70
     1
102
RTVSPost2010Prop34
280
     0
102
RTVSPost2010PropOp34
 70
     1
102
RTVSPost2010Prop35
280
     0
102
RTVSPost2010PropOp35
 70
     1
102
RTVSPost2010Prop36
280
     0
102
RTVSPost2010PropOp36
 70
     1
102
RTVSPost2010Prop37
 90
       50
102
RTVSPost2010PropOp37
 70
     1
102
RTVSPost2010Prop38
140
0.0
102
RTVSPost2010PropOp38
 70
     1
102
RTVSPost2010Prop39
140
1.0
102
RTVSPost2010PropOp39
 70
     1
102
RTVSPost2010Prop40
 90
        0
102
RTVSPost2010PropOp40
 70
     1
102
RTVSPost2010Prop41ColorIndex
 90
       18
102
RTVSPost2010Prop41ColorRGB
 90
        0
102
RTVSPost2010PropOp41
 70
     1
102
RTVSPost2010Prop42
 90
       50
102
RTVSPost2010PropOp42
 70
     1
102
RTVSPost2010Prop43
 90
        3
102
RTVSPost2010PropOp43
 70
     1
102
RTVSPost2010Prop44ColorIndex
 90
        5
102
RTVSPost2010Prop44ColorRGB
 90
      255
102
RTVSPost2010PropOp44
 70
     1
102
RTVSPost2010Prop45
280
     0
102
RTVSPost2010PropOp45
 70
     1
102
RTVSPost2010Prop46
 90
       50
102
RTVSPost2010PropOp46
 70
     1
102
RTVSPost2010Prop47
 90
       50
102
RTVSPost2010PropOp47
 70
     1
102
RTVSPost2010Prop48
 90
       50
102
RTVSPost2010PropOp48
 70
     1
102
RTVSPost2010Prop49
280
     0
102
RTVSPost2010PropOp49
 70
     1
102
RTVSPost2010Prop50
 90
       50
102
RTVSPost2010PropOp50
 70
     1
102
RTVSPost2010Prop51ColorIndex
 90
      256
102
RTVSPost2010Prop51ColorRGB
 90
-16777216
102
RTVSPost2010PropOp51
 70
     0
102
RTVSPost2010Prop52
140
1.0
102
RTVSPost2010PropOp52
 70
     0
102
RTVSPost2010Prop53
 90
        2
102
RTVSPost2010PropOp53
 70
     1
102
RTVSPost2010Prop54
  1
strokes_ogs.tif
102
RTVSPost2010PropOp54
 70
     1
102
RTVSPost2010Prop55
280
     0
102
RTVSPost2010PropOp55
 70
     1
102
RTVSPost2010Prop56
140
1.0
102
RTVSPost2010PropOp56
 70
     1
102
RTVSPost2010Prop57
140
1.0
102
RTVSPost2010PropOp57
 70
     1
102
RTVSPropertyOp0
 70
     1
102
RTVSPropertyOp1
 70
     1
102
RTVSPropertyOp2
 70
     1
102
RTVSPropertyOp3
 70
     1
102
RTVSPropertyOp4
 70
     1
102
RTVSPropertyOp5
 70
     1
102
RTVSPropertyOp6
 70
     1
102
RTVSPropertyOp7
 70
     1
102
RTVSPropertyOp8
 70
     1
102
RTVSPropertyOp9
 70
     1
102
RTVSPropertyOp10
 70
     1
102
RTVSPropertyOp11
 70
     1
102
RTVSPropertyOp12
 70
     1
102
RTVSPropertyOp13
 70
     1
102
RTVSPropertyOp14
 70
     1
102
RTVSPropertyOp15
 70
     1
102
RTVSPropertyOp16
 70
     1
102
RTVSPropertyOp17
 70
     1
102
RTVSPropertyOp18
 70
     1
102
RTVSPropertyOp19
 70
     1
102
RTVSPropertyOp20
 70
     1
102
RTVSPropertyOp21
 70
     1
102
RTVSPropertyOp22
 70
     1
102
RTVSPropertyOp23
 70
     1
102
RTVSPropertyOp24
 70
     1
102
RTVSPropertyOp25
 70
     1
102
RTVSPropertyOp26
 70
     1
102
RTVSPropertyOp27
 70
     1
102
RTVSPropertyOp28
 70
     1
102
RTVSPropertyOp29
 70
     1
102
RTVSPropertyOp30
 70
     1
102
RTVSPropertyOp31
 70
     1
102
RTVSPropertyOp32
 70
     1
102
RTVSPropertyOp33
 70
     1
102
RTVSPropertyOp34
 70
     1
102
RTVSPropertyOp35
 70
     1
102
RTVSPropertyOp36
 70
     1
102
RTVSPropertyOp37
 70
     1
102
RTVSPropertyOp38
 70
     1
102
RTVSPropertyOp39
 70
     1
102
RTVSPropertyOp40
 70
     1
102
RTVSPropertyOp41
 70
     1
102
RTVSPropertyOp42
 70
     1
102
RTVSPropertyOp43
 70
     1
102
RTVSPropertyOp44
 70
     1
102
RTVSPropertyOp45
 70
     1
102
RTVSPropertyOp46
 70
     1
102
RTVSPropertyOp47
 70
     1
102
RTVSPropertyOp48
 70
     1
102
RTVSPropertyOp49
 70
     1
102
RTVSPropertyOp50
 70
     1
102
RTVSPropertyOp51
 70
     0
102
RTVSPropertyOp52
 70
     0
102
RTVSPropertyOp53
 70
     1
102
RTVSPropertyOp54
 70
     1
102
RTVSPropertyOp55
 70
     1
102
RTVSPropertyOp56
 70
     1
102
RTVSPropertyOp57
 70
     1
102
RTVSPropertyOp58
 70
     1
102
RTVSPropertyOp59
 70
     1
102
RTVSPropertyOp60
 70
     1
102
RTVSPropertyOp61
 70
     1
102
RTVSPropertyOp62
 70
     1
  0
XRECORD
  5
211C5
102
{ACAD_REACTORS
330
211C4
102
}
330
211C4
100
AcDbXrecord
280
     1
102
RTVSPost2010Prop28
280
     0
102
RTVSPost2010PropOp28
 70
     1
102
RTVSPost2010Prop29
280
     1
102
RTVSPost2010PropOp29
 70
     1
102
RTVSPost2010Prop30
280
     1
102
RTVSPost2010PropOp30
 70
     1
102
RTVSPost2010Prop31
280
     0
102
RTVSPost2010PropOp31
 70
     1
102
RTVSPost2010Prop32
280
     0
102
RTVSPost2010PropOp32
 70
     1
102
RTVSPost2010Prop33
280
     0
102
RTVSPost2010PropOp33
 70
     1
102
RTVSPost2010Prop34
280
     0
102
RTVSPost2010PropOp34
 70
     1
102
RTVSPost2010Prop35
280
     0
102
RTVSPost2010PropOp35
 70
     1
102
RTVSPost2010Prop36
280
     0
102
RTVSPost2010PropOp36
 70
     1
102
RTVSPost2010Prop37
 90
       50
102
RTVSPost2010PropOp37
 70
     1
102
RTVSPost2010Prop38
140
0.0
102
RTVSPost2010PropOp38
 70
     1
102
RTVSPost2010Prop39
140
1.0
102
RTVSPost2010PropOp39
 70
     1
102
RTVSPost2010Prop40
 90
        0
102
RTVSPost2010PropOp40
 70
     1
102
RTVSPost2010Prop41ColorIndex
 90
       18
102
RTVSPost2010Prop41ColorRGB
 90
        0
102
RTVSPost2010PropOp41
 70
     1
102
RTVSPost2010Prop42
 90
       50
102
RTVSPost2010PropOp42
 70
     1
102
RTVSPost2010Prop43
 90
        3
102
RTVSPost2010PropOp43
 70
     1
102
RTVSPost2010Prop44ColorIndex
 90
        5
102
RTVSPost2010Prop44ColorRGB
 90
      255
102
RTVSPost2010PropOp44
 70
     1
102
RTVSPost2010Prop45
280
     0
102
RTVSPost2010PropOp45
 70
     1
102
RTVSPost2010Prop46
 90
       50
102
RTVSPost2010PropOp46
 70
     1
102
RTVSPost2010Prop47
 90
       50
102
RTVSPost2010PropOp47
 70
     1
102
RTVSPost2010Prop48
 90
       50
102
RTVSPost2010PropOp48
 70
     1
102
RTVSPost2010Prop49
280
     0
102
RTVSPost2010PropOp49
 70
     1
102
RTVSPost2010Prop50
 90
       50
102
RTVSPost2010PropOp50
 70
     1
102
RTVSPost2010Prop51ColorIndex
 90
      256
102
RTVSPost2010Prop51ColorRGB
 90
-16777216
102
RTVSPost2010PropOp51
 70
     0
102
RTVSPost2010Prop52
140
1.0
102
RTVSPost2010PropOp52
 70
     0
102
RTVSPost2010Prop53
 90
        2
102
RTVSPost2010PropOp53
 70
     1
102
RTVSPost2010Prop54
  1
strokes_ogs.tif
102
RTVSPost2010PropOp54
 70
     1
102
RTVSPost2010Prop55
280
     0
102
RTVSPost2010PropOp55
 70
     1
102
RTVSPost2010Prop56
140
1.0
102
RTVSPost2010PropOp56
 70
     1
102
RTVSPost2010Prop57
140
1.0
102
RTVSPost2010PropOp57
 70
     1
102
RTVSPropertyOp0
 70
     0
102
RTVSPropertyOp1
 70
     0
102
RTVSPropertyOp2
 70
     0
102
RTVSPropertyOp3
 70
     0
102
RTVSPropertyOp4
 70
     0
102
RTVSPropertyOp5
 70
     0
102
RTVSPropertyOp6
 70
     0
102
RTVSPropertyOp7
 70
     0
102
RTVSPropertyOp8
 70
     0
102
RTVSPropertyOp9
 70
     0
102
RTVSPropertyOp10
 70
     0
102
RTVSPropertyOp11
 70
     0
102
RTVSPropertyOp12
 70
     0
102
RTVSPropertyOp13
 70
     0
102
RTVSPropertyOp14
 70
     2
102
RTVSPropertyOp15
 70
     0
102
RTVSPropertyOp16
 70
     0
102
RTVSPropertyOp17
 70
     0
102
RTVSPropertyOp18
 70
     0
102
RTVSPropertyOp19
 70
     0
102
RTVSPropertyOp20
 70
     0
102
RTVSPropertyOp21
 70
     0
102
RTVSPropertyOp22
 70
     0
102
RTVSPropertyOp23
 70
     0
102
RTVSPropertyOp24
 70
     0
102
RTVSPropertyOp25
 70
     0
102
RTVSPropertyOp26
 70
     0
102
RTVSPropertyOp27
 70
     0
102
RTVSPropertyOp28
 70
     1
102
RTVSPropertyOp29
 70
     1
102
RTVSPropertyOp30
 70
     1
102
RTVSPropertyOp31
 70
     1
102
RTVSPropertyOp32
 70
     1
102
RTVSPropertyOp33
 70
     1
102
RTVSPropertyOp34
 70
     1
102
RTVSPropertyOp35
 70
     1
102
RTVSPropertyOp36
 70
     1
102
RTVSPropertyOp37
 70
     1
102
RTVSPropertyOp38
 70
     1
102
RTVSPropertyOp39
 70
     1
102
RTVSPropertyOp40
 70
     1
102
RTVSPropertyOp41
 70
     1
102
RTVSPropertyOp42
 70
     1
102
RTVSPropertyOp43
 70
     1
102
RTVSPropertyOp44
 70
     1
102
RTVSPropertyOp45
 70
     1
102
RTVSPropertyOp46
 70
     1
102
RTVSPropertyOp47
 70
     1
102
RTVSPropertyOp48
 70
     1
102
RTVSPropertyOp49
 70
     1
102
RTVSPropertyOp50
 70
     1
102
RTVSPropertyOp51
 70
     0
102
RTVSPropertyOp52
 70
     0
102
RTVSPropertyOp53
 70
     1
102
RTVSPropertyOp54
 70
     1
102
RTVSPropertyOp55
 70
     1
102
RTVSPropertyOp56
 70
     1
102
RTVSPropertyOp57
 70
     1
102
RTVSPropertyOp58
 70
     1
102
RTVSPropertyOp59
 70
     1
102
RTVSPropertyOp60
 70
     1
102
RTVSPropertyOp61
 70
     1
102
RTVSPropertyOp62
 70
     1
  0
XRECORD
  5
211BD
102
{ACAD_REACTORS
330
211BC
102
}
330
211BC
100
AcDbXrecord
280
     1
102
RTVSPost2010Prop28
280
     0
102
RTVSPost2010PropOp28
 70
     1
102
RTVSPost2010Prop29
280
     1
102
RTVSPost2010PropOp29
 70
     1
102
RTVSPost2010Prop30
280
     1
102
RTVSPost2010PropOp30
 70
     1
102
RTVSPost2010Prop31
280
     0
102
RTVSPost2010PropOp31
 70
     1
102
RTVSPost2010Prop32
280
     0
102
RTVSPost2010PropOp32
 70
     1
102
RTVSPost2010Prop33
280
     0
102
RTVSPost2010PropOp33
 70
     1
102
RTVSPost2010Prop34
280
     0
102
RTVSPost2010PropOp34
 70
     1
102
RTVSPost2010Prop35
280
     0
102
RTVSPost2010PropOp35
 70
     1
102
RTVSPost2010Prop36
280
     0
102
RTVSPost2010PropOp36
 70
     1
102
RTVSPost2010Prop37
 90
       50
102
RTVSPost2010PropOp37
 70
     1
102
RTVSPost2010Prop38
140
0.0
102
RTVSPost2010PropOp38
 70
     1
102
RTVSPost2010Prop39
140
1.0
102
RTVSPost2010PropOp39
 70
     1
102
RTVSPost2010Prop40
 90
        0
102
RTVSPost2010PropOp40
 70
     1
102
RTVSPost2010Prop41ColorIndex
 90
       18
102
RTVSPost2010Prop41ColorRGB
 90
        0
102
RTVSPost2010PropOp41
 70
     1
102
RTVSPost2010Prop42
 90
       50
102
RTVSPost2010PropOp42
 70
     1
102
RTVSPost2010Prop43
 90
        3
102
RTVSPost2010PropOp43
 70
     1
102
RTVSPost2010Prop44ColorIndex
 90
        5
102
RTVSPost2010Prop44ColorRGB
 90
      255
102
RTVSPost2010PropOp44
 70
     1
102
RTVSPost2010Prop45
280
     0
102
RTVSPost2010PropOp45
 70
     1
102
RTVSPost2010Prop46
 90
       50
102
RTVSPost2010PropOp46
 70
     1
102
RTVSPost2010Prop47
 90
       50
102
RTVSPost2010PropOp47
 70
     1
102
RTVSPost2010Prop48
 90
       50
102
RTVSPost2010PropOp48
 70
     1
102
RTVSPost2010Prop49
280
     0
102
RTVSPost2010PropOp49
 70
     1
102
RTVSPost2010Prop50
 90
       50
102
RTVSPost2010PropOp50
 70
     1
102
RTVSPost2010Prop51ColorIndex
 90
      256
102
RTVSPost2010Prop51ColorRGB
 90
-16777216
102
RTVSPost2010PropOp51
 70
     0
102
RTVSPost2010Prop52
140
1.0
102
RTVSPost2010PropOp52
 70
     0
102
RTVSPost2010Prop53
 90
        2
102
RTVSPost2010PropOp53
 70
     1
102
RTVSPost2010Prop54
  1
strokes_ogs.tif
102
RTVSPost2010PropOp54
 70
     1
102
RTVSPost2010Prop55
280
     0
102
RTVSPost2010PropOp55
 70
     1
102
RTVSPost2010Prop56
140
1.0
102
RTVSPost2010PropOp56
 70
     1
102
RTVSPost2010Prop57
140
1.0
102
RTVSPost2010PropOp57
 70
     1
102
RTVSPropertyOp0
 70
     1
102
RTVSPropertyOp1
 70
     1
102
RTVSPropertyOp2
 70
     1
102
RTVSPropertyOp3
 70
     1
102
RTVSPropertyOp4
 70
     1
102
RTVSPropertyOp5
 70
     1
102
RTVSPropertyOp6
 70
     1
102
RTVSPropertyOp7
 70
     1
102
RTVSPropertyOp8
 70
     1
102
RTVSPropertyOp9
 70
     1
102
RTVSPropertyOp10
 70
     1
102
RTVSPropertyOp11
 70
     1
102
RTVSPropertyOp12
 70
     1
102
RTVSPropertyOp13
 70
     1
102
RTVSPropertyOp14
 70
     1
102
RTVSPropertyOp15
 70
     1
102
RTVSPropertyOp16
 70
     1
102
RTVSPropertyOp17
 70
     1
102
RTVSPropertyOp18
 70
     1
102
RTVSPropertyOp19
 70
     1
102
RTVSPropertyOp20
 70
     1
102
RTVSPropertyOp21
 70
     1
102
RTVSPropertyOp22
 70
     1
102
RTVSPropertyOp23
 70
     1
102
RTVSPropertyOp24
 70
     1
102
RTVSPropertyOp25
 70
     1
102
RTVSPropertyOp26
 70
     1
102
RTVSPropertyOp27
 70
     1
102
RTVSPropertyOp28
 70
     1
102
RTVSPropertyOp29
 70
     1
102
RTVSPropertyOp30
 70
     1
102
RTVSPropertyOp31
 70
     1
102
RTVSPropertyOp32
 70
     1
102
RTVSPropertyOp33
 70
     1
102
RTVSPropertyOp34
 70
     1
102
RTVSPropertyOp35
 70
     1
102
RTVSPropertyOp36
 70
     1
102
RTVSPropertyOp37
 70
     1
102
RTVSPropertyOp38
 70
     1
102
RTVSPropertyOp39
 70
     1
102
RTVSPropertyOp40
 70
     1
102
RTVSPropertyOp41
 70
     1
102
RTVSPropertyOp42
 70
     1
102
RTVSPropertyOp43
 70
     1
102
RTVSPropertyOp44
 70
     1
102
RTVSPropertyOp45
 70
     1
102
RTVSPropertyOp46
 70
     1
102
RTVSPropertyOp47
 70
     1
102
RTVSPropertyOp48
 70
     1
102
RTVSPropertyOp49
 70
     1
102
RTVSPropertyOp50
 70
     1
102
RTVSPropertyOp51
 70
     0
102
RTVSPropertyOp52
 70
     0
102
RTVSPropertyOp53
 70
     1
102
RTVSPropertyOp54
 70
     1
102
RTVSPropertyOp55
 70
     1
102
RTVSPropertyOp56
 70
     1
102
RTVSPropertyOp57
 70
     1
102
RTVSPropertyOp58
 70
     1
102
RTVSPropertyOp59
 70
     1
102
RTVSPropertyOp60
 70
     1
102
RTVSPropertyOp61
 70
     1
102
RTVSPropertyOp62
 70
     1
  0
XRECORD
  5
211C7
102
{ACAD_REACTORS
330
211C6
102
}
330
211C6
100
AcDbXrecord
280
     1
102
RTVSPost2010Prop28
280
     0
102
RTVSPost2010PropOp28
 70
     1
102
RTVSPost2010Prop29
280
     1
102
RTVSPost2010PropOp29
 70
     1
102
RTVSPost2010Prop30
280
     1
102
RTVSPost2010PropOp30
 70
     1
102
RTVSPost2010Prop31
280
     0
102
RTVSPost2010PropOp31
 70
     1
102
RTVSPost2010Prop32
280
     0
102
RTVSPost2010PropOp32
 70
     1
102
RTVSPost2010Prop33
280
     0
102
RTVSPost2010PropOp33
 70
     1
102
RTVSPost2010Prop34
280
     0
102
RTVSPost2010PropOp34
 70
     1
102
RTVSPost2010Prop35
280
     0
102
RTVSPost2010PropOp35
 70
     1
102
RTVSPost2010Prop36
280
     0
102
RTVSPost2010PropOp36
 70
     1
102
RTVSPost2010Prop37
 90
       50
102
RTVSPost2010PropOp37
 70
     1
102
RTVSPost2010Prop38
140
0.0
102
RTVSPost2010PropOp38
 70
     1
102
RTVSPost2010Prop39
140
1.0
102
RTVSPost2010PropOp39
 70
     1
102
RTVSPost2010Prop40
 90
        0
102
RTVSPost2010PropOp40
 70
     1
102
RTVSPost2010Prop41ColorIndex
 90
       18
102
RTVSPost2010Prop41ColorRGB
 90
        0
102
RTVSPost2010PropOp41
 70
     1
102
RTVSPost2010Prop42
 90
       50
102
RTVSPost2010PropOp42
 70
     1
102
RTVSPost2010Prop43
 90
        3
102
RTVSPost2010PropOp43
 70
     1
102
RTVSPost2010Prop44ColorIndex
 90
        5
102
RTVSPost2010Prop44ColorRGB
 90
      255
102
RTVSPost2010PropOp44
 70
     1
102
RTVSPost2010Prop45
280
     0
102
RTVSPost2010PropOp45
 70
     1
102
RTVSPost2010Prop46
 90
       50
102
RTVSPost2010PropOp46
 70
     1
102
RTVSPost2010Prop47
 90
       50
102
RTVSPost2010PropOp47
 70
     1
102
RTVSPost2010Prop48
 90
       50
102
RTVSPost2010PropOp48
 70
     1
102
RTVSPost2010Prop49
280
     0
102
RTVSPost2010PropOp49
 70
     1
102
RTVSPost2010Prop50
 90
       50
102
RTVSPost2010PropOp50
 70
     1
102
RTVSPost2010Prop51ColorIndex
 90
      256
102
RTVSPost2010Prop51ColorRGB
 90
-16777216
102
RTVSPost2010PropOp51
 70
     0
102
RTVSPost2010Prop52
140
1.0
102
RTVSPost2010PropOp52
 70
     0
102
RTVSPost2010Prop53
 90
        2
102
RTVSPost2010PropOp53
 70
     1
102
RTVSPost2010Prop54
  1
strokes_ogs.tif
102
RTVSPost2010PropOp54
 70
     1
102
RTVSPost2010Prop55
280
     0
102
RTVSPost2010PropOp55
 70
     1
102
RTVSPost2010Prop56
140
1.0
102
RTVSPost2010PropOp56
 70
     1
102
RTVSPost2010Prop57
140
1.0
102
RTVSPost2010PropOp57
 70
     1
102
RTVSPropertyOp0
 70
     0
102
RTVSPropertyOp1
 70
     0
102
RTVSPropertyOp2
 70
     0
102
RTVSPropertyOp3
 70
     0
102
RTVSPropertyOp4
 70
     0
102
RTVSPropertyOp5
 70
     0
102
RTVSPropertyOp6
 70
     0
102
RTVSPropertyOp7
 70
     0
102
RTVSPropertyOp8
 70
     0
102
RTVSPropertyOp9
 70
     0
102
RTVSPropertyOp10
 70
     0
102
RTVSPropertyOp11
 70
     0
102
RTVSPropertyOp12
 70
     0
102
RTVSPropertyOp13
 70
     0
102
RTVSPropertyOp14
 70
     2
102
RTVSPropertyOp15
 70
     0
102
RTVSPropertyOp16
 70
     0
102
RTVSPropertyOp17
 70
     0
102
RTVSPropertyOp18
 70
     0
102
RTVSPropertyOp19
 70
     0
102
RTVSPropertyOp20
 70
     0
102
RTVSPropertyOp21
 70
     0
102
RTVSPropertyOp22
 70
     0
102
RTVSPropertyOp23
 70
     0
102
RTVSPropertyOp24
 70
     0
102
RTVSPropertyOp25
 70
     0
102
RTVSPropertyOp26
 70
     0
102
RTVSPropertyOp27
 70
     0
102
RTVSPropertyOp28
 70
     1
102
RTVSPropertyOp29
 70
     1
102
RTVSPropertyOp30
 70
     1
102
RTVSPropertyOp31
 70
     1
102
RTVSPropertyOp32
 70
     1
102
RTVSPropertyOp33
 70
     1
102
RTVSPropertyOp34
 70
     1
102
RTVSPropertyOp35
 70
     1
102
RTVSPropertyOp36
 70
     1
102
RTVSPropertyOp37
 70
     1
102
RTVSPropertyOp38
 70
     1
102
RTVSPropertyOp39
 70
     1
102
RTVSPropertyOp40
 70
     1
102
RTVSPropertyOp41
 70
     1
102
RTVSPropertyOp42
 70
     1
102
RTVSPropertyOp43
 70
     1
102
RTVSPropertyOp44
 70
     1
102
RTVSPropertyOp45
 70
     1
102
RTVSPropertyOp46
 70
     1
102
RTVSPropertyOp47
 70
     1
102
RTVSPropertyOp48
 70
     1
102
RTVSPropertyOp49
 70
     1
102
RTVSPropertyOp50
 70
     1
102
RTVSPropertyOp51
 70
     0
102
RTVSPropertyOp52
 70
     0
102
RTVSPropertyOp53
 70
     1
102
RTVSPropertyOp54
 70
     1
102
RTVSPropertyOp55
 70
     1
102
RTVSPropertyOp56
 70
     1
102
RTVSPropertyOp57
 70
     1
102
RTVSPropertyOp58
 70
     1
102
RTVSPropertyOp59
 70
     1
102
RTVSPropertyOp60
 70
     1
102
RTVSPropertyOp61
 70
     1
102
RTVSPropertyOp62
 70
     1
  0
XRECORD
  5
211B5
102
{ACAD_REACTORS
330
211B4
102
}
330
211B4
100
AcDbXrecord
280
     1
102
RTVSPost2010Prop28
280
     0
102
RTVSPost2010PropOp28
 70
     1
102
RTVSPost2010Prop29
280
     1
102
RTVSPost2010PropOp29
 70
     1
102
RTVSPost2010Prop30
280
     1
102
RTVSPost2010PropOp30
 70
     1
102
RTVSPost2010Prop31
280
     0
102
RTVSPost2010PropOp31
 70
     1
102
RTVSPost2010Prop32
280
     0
102
RTVSPost2010PropOp32
 70
     1
102
RTVSPost2010Prop33
280
     0
102
RTVSPost2010PropOp33
 70
     1
102
RTVSPost2010Prop34
280
     0
102
RTVSPost2010PropOp34
 70
     1
102
RTVSPost2010Prop35
280
     0
102
RTVSPost2010PropOp35
 70
     1
102
RTVSPost2010Prop36
280
     0
102
RTVSPost2010PropOp36
 70
     1
102
RTVSPost2010Prop37
 90
       50
102
RTVSPost2010PropOp37
 70
     1
102
RTVSPost2010Prop38
140
0.0
102
RTVSPost2010PropOp38
 70
     1
102
RTVSPost2010Prop39
140
1.0
102
RTVSPost2010PropOp39
 70
     1
102
RTVSPost2010Prop40
 90
        0
102
RTVSPost2010PropOp40
 70
     1
102
RTVSPost2010Prop41ColorIndex
 90
       18
102
RTVSPost2010Prop41ColorRGB
 90
        0
102
RTVSPost2010PropOp41
 70
     1
102
RTVSPost2010Prop42
 90
       50
102
RTVSPost2010PropOp42
 70
     1
102
RTVSPost2010Prop43
 90
        3
102
RTVSPost2010PropOp43
 70
     1
102
RTVSPost2010Prop44ColorIndex
 90
        5
102
RTVSPost2010Prop44ColorRGB
 90
      255
102
RTVSPost2010PropOp44
 70
     1
102
RTVSPost2010Prop45
280
     0
102
RTVSPost2010PropOp45
 70
     1
102
RTVSPost2010Prop46
 90
       50
102
RTVSPost2010PropOp46
 70
     1
102
RTVSPost2010Prop47
 90
       50
102
RTVSPost2010PropOp47
 70
     1
102
RTVSPost2010Prop48
 90
       50
102
RTVSPost2010PropOp48
 70
     1
102
RTVSPost2010Prop49
280
     0
102
RTVSPost2010PropOp49
 70
     1
102
RTVSPost2010Prop50
 90
       50
102
RTVSPost2010PropOp50
 70
     1
102
RTVSPost2010Prop51ColorIndex
 90
      256
102
RTVSPost2010Prop51ColorRGB
 90
-16777216
102
RTVSPost2010PropOp51
 70
     0
102
RTVSPost2010Prop52
140
1.0
102
RTVSPost2010PropOp52
 70
     0
102
RTVSPost2010Prop53
 90
        2
102
RTVSPost2010PropOp53
 70
     1
102
RTVSPost2010Prop54
  1
strokes_ogs.tif
102
RTVSPost2010PropOp54
 70
     1
102
RTVSPost2010Prop55
280
     0
102
RTVSPost2010PropOp55
 70
     1
102
RTVSPost2010Prop56
140
1.0
102
RTVSPost2010PropOp56
 70
     1
102
RTVSPost2010Prop57
140
1.0
102
RTVSPost2010PropOp57
 70
     1
102
RTVSPropertyOp0
 70
     1
102
RTVSPropertyOp1
 70
     1
102
RTVSPropertyOp2
 70
     1
102
RTVSPropertyOp3
 70
     1
102
RTVSPropertyOp4
 70
     1
102
RTVSPropertyOp5
 70
     1
102
RTVSPropertyOp6
 70
     1
102
RTVSPropertyOp7
 70
     1
102
RTVSPropertyOp8
 70
     1
102
RTVSPropertyOp9
 70
     1
102
RTVSPropertyOp10
 70
     1
102
RTVSPropertyOp11
 70
     1
102
RTVSPropertyOp12
 70
     1
102
RTVSPropertyOp13
 70
     1
102
RTVSPropertyOp14
 70
     1
102
RTVSPropertyOp15
 70
     1
102
RTVSPropertyOp16
 70
     1
102
RTVSPropertyOp17
 70
     1
102
RTVSPropertyOp18
 70
     1
102
RTVSPropertyOp19
 70
     1
102
RTVSPropertyOp20
 70
     1
102
RTVSPropertyOp21
 70
     1
102
RTVSPropertyOp22
 70
     1
102
RTVSPropertyOp23
 70
     1
102
RTVSPropertyOp24
 70
     1
102
RTVSPropertyOp25
 70
     1
102
RTVSPropertyOp26
 70
     1
102
RTVSPropertyOp27
 70
     1
102
RTVSPropertyOp28
 70
     1
102
RTVSPropertyOp29
 70
     1
102
RTVSPropertyOp30
 70
     1
102
RTVSPropertyOp31
 70
     1
102
RTVSPropertyOp32
 70
     1
102
RTVSPropertyOp33
 70
     1
102
RTVSPropertyOp34
 70
     1
102
RTVSPropertyOp35
 70
     1
102
RTVSPropertyOp36
 70
     1
102
RTVSPropertyOp37
 70
     1
102
RTVSPropertyOp38
 70
     1
102
RTVSPropertyOp39
 70
     1
102
RTVSPropertyOp40
 70
     1
102
RTVSPropertyOp41
 70
     1
102
RTVSPropertyOp42
 70
     1
102
RTVSPropertyOp43
 70
     1
102
RTVSPropertyOp44
 70
     1
102
RTVSPropertyOp45
 70
     1
102
RTVSPropertyOp46
 70
     1
102
RTVSPropertyOp47
 70
     1
102
RTVSPropertyOp48
 70
     1
102
RTVSPropertyOp49
 70
     1
102
RTVSPropertyOp50
 70
     1
102
RTVSPropertyOp51
 70
     0
102
RTVSPropertyOp52
 70
     0
102
RTVSPropertyOp53
 70
     1
102
RTVSPropertyOp54
 70
     1
102
RTVSPropertyOp55
 70
     1
102
RTVSPropertyOp56
 70
     1
102
RTVSPropertyOp57
 70
     1
102
RTVSPropertyOp58
 70
     1
102
RTVSPropertyOp59
 70
     1
102
RTVSPropertyOp60
 70
     1
102
RTVSPropertyOp61
 70
     1
102
RTVSPropertyOp62
 70
     1
  0
XRECORD
  5
211D1
102
{ACAD_REACTORS
330
211D0
102
}
330
211D0
100
AcDbXrecord
280
     1
102
RTVSPost2010Prop28
280
     0
102
RTVSPost2010PropOp28
 70
     1
102
RTVSPost2010Prop29
280
     1
102
RTVSPost2010PropOp29
 70
     1
102
RTVSPost2010Prop30
280
     1
102
RTVSPost2010PropOp30
 70
     1
102
RTVSPost2010Prop31
280
     0
102
RTVSPost2010PropOp31
 70
     1
102
RTVSPost2010Prop32
280
     0
102
RTVSPost2010PropOp32
 70
     1
102
RTVSPost2010Prop33
280
     0
102
RTVSPost2010PropOp33
 70
     1
102
RTVSPost2010Prop34
280
     0
102
RTVSPost2010PropOp34
 70
     1
102
RTVSPost2010Prop35
280
     0
102
RTVSPost2010PropOp35
 70
     1
102
RTVSPost2010Prop36
280
     0
102
RTVSPost2010PropOp36
 70
     1
102
RTVSPost2010Prop37
 90
       50
102
RTVSPost2010PropOp37
 70
     1
102
RTVSPost2010Prop38
140
0.0
102
RTVSPost2010PropOp38
 70
     1
102
RTVSPost2010Prop39
140
1.0
102
RTVSPost2010PropOp39
 70
     1
102
RTVSPost2010Prop40
 90
        0
102
RTVSPost2010PropOp40
 70
     1
102
RTVSPost2010Prop41ColorIndex
 90
       18
102
RTVSPost2010Prop41ColorRGB
 90
        0
102
RTVSPost2010PropOp41
 70
     1
102
RTVSPost2010Prop42
 90
       50
102
RTVSPost2010PropOp42
 70
     1
102
RTVSPost2010Prop43
 90
        3
102
RTVSPost2010PropOp43
 70
     1
102
RTVSPost2010Prop44ColorIndex
 90
        5
102
RTVSPost2010Prop44ColorRGB
 90
      255
102
RTVSPost2010PropOp44
 70
     1
102
RTVSPost2010Prop45
280
     0
102
RTVSPost2010PropOp45
 70
     1
102
RTVSPost2010Prop46
 90
       50
102
RTVSPost2010PropOp46
 70
     1
102
RTVSPost2010Prop47
 90
       50
102
RTVSPost2010PropOp47
 70
     1
102
RTVSPost2010Prop48
 90
       50
102
RTVSPost2010PropOp48
 70
     1
102
RTVSPost2010Prop49
280
     0
102
RTVSPost2010PropOp49
 70
     1
102
RTVSPost2010Prop50
 90
       50
102
RTVSPost2010PropOp50
 70
     1
102
RTVSPost2010Prop51ColorIndex
 90
      256
102
RTVSPost2010Prop51ColorRGB
 90
-16777216
102
RTVSPost2010PropOp51
 70
     0
102
RTVSPost2010Prop52
140
1.0
102
RTVSPost2010PropOp52
 70
     0
102
RTVSPost2010Prop53
 90
        2
102
RTVSPost2010PropOp53
 70
     1
102
RTVSPost2010Prop54
  1
strokes_ogs.tif
102
RTVSPost2010PropOp54
 70
     1
102
RTVSPost2010Prop55
280
     0
102
RTVSPost2010PropOp55
 70
     1
102
RTVSPost2010Prop56
140
1.0
102
RTVSPost2010PropOp56
 70
     1
102
RTVSPost2010Prop57
140
1.0
102
RTVSPost2010PropOp57
 70
     1
102
RTVSPropertyOp0
 70
     1
102
RTVSPropertyOp1
 70
     1
102
RTVSPropertyOp2
 70
     1
102
RTVSPropertyOp3
 70
     1
102
RTVSPropertyOp4
 70
     1
102
RTVSPropertyOp5
 70
     1
102
RTVSPropertyOp6
 70
     1
102
RTVSPropertyOp7
 70
     1
102
RTVSPropertyOp8
 70
     1
102
RTVSPropertyOp9
 70
     1
102
RTVSPropertyOp10
 70
     1
102
RTVSPropertyOp11
 70
     1
102
RTVSPropertyOp12
 70
     1
102
RTVSPropertyOp13
 70
     1
102
RTVSPropertyOp14
 70
     1
102
RTVSPropertyOp15
 70
     1
102
RTVSPropertyOp16
 70
     1
102
RTVSPropertyOp17
 70
     1
102
RTVSPropertyOp18
 70
     1
102
RTVSPropertyOp19
 70
     1
102
RTVSPropertyOp20
 70
     1
102
RTVSPropertyOp21
 70
     1
102
RTVSPropertyOp22
 70
     1
102
RTVSPropertyOp23
 70
     1
102
RTVSPropertyOp24
 70
     1
102
RTVSPropertyOp25
 70
     1
102
RTVSPropertyOp26
 70
     1
102
RTVSPropertyOp27
 70
     1
102
RTVSPropertyOp28
 70
     1
102
RTVSPropertyOp29
 70
     1
102
RTVSPropertyOp30
 70
     1
102
RTVSPropertyOp31
 70
     1
102
RTVSPropertyOp32
 70
     1
102
RTVSPropertyOp33
 70
     1
102
RTVSPropertyOp34
 70
     1
102
RTVSPropertyOp35
 70
     1
102
RTVSPropertyOp36
 70
     1
102
RTVSPropertyOp37
 70
     1
102
RTVSPropertyOp38
 70
     1
102
RTVSPropertyOp39
 70
     1
102
RTVSPropertyOp40
 70
     1
102
RTVSPropertyOp41
 70
     1
102
RTVSPropertyOp42
 70
     1
102
RTVSPropertyOp43
 70
     1
102
RTVSPropertyOp44
 70
     1
102
RTVSPropertyOp45
 70
     1
102
RTVSPropertyOp46
 70
     1
102
RTVSPropertyOp47
 70
     1
102
RTVSPropertyOp48
 70
     1
102
RTVSPropertyOp49
 70
     1
102
RTVSPropertyOp50
 70
     1
102
RTVSPropertyOp51
 70
     0
102
RTVSPropertyOp52
 70
     0
102
RTVSPropertyOp53
 70
     1
102
RTVSPropertyOp54
 70
     1
102
RTVSPropertyOp55
 70
     1
102
RTVSPropertyOp56
 70
     1
102
RTVSPropertyOp57
 70
     1
102
RTVSPropertyOp58
 70
     1
102
RTVSPropertyOp59
 70
     1
102
RTVSPropertyOp60
 70
     1
102
RTVSPropertyOp61
 70
     1
102
RTVSPropertyOp62
 70
     1
  0
XRECORD
  5
211CF
102
{ACAD_REACTORS
330
211CE
102
}
330
211CE
100
AcDbXrecord
280
     1
102
RTVSPost2010Prop28
280
     0
102
RTVSPost2010PropOp28
 70
     1
102
RTVSPost2010Prop29
280
     1
102
RTVSPost2010PropOp29
 70
     1
102
RTVSPost2010Prop30
280
     1
102
RTVSPost2010PropOp30
 70
     1
102
RTVSPost2010Prop31
280
     0
102
RTVSPost2010PropOp31
 70
     1
102
RTVSPost2010Prop32
280
     0
102
RTVSPost2010PropOp32
 70
     1
102
RTVSPost2010Prop33
280
     0
102
RTVSPost2010PropOp33
 70
     1
102
RTVSPost2010Prop34
280
     0
102
RTVSPost2010PropOp34
 70
     1
102
RTVSPost2010Prop35
280
     0
102
RTVSPost2010PropOp35
 70
     1
102
RTVSPost2010Prop36
280
     0
102
RTVSPost2010PropOp36
 70
     1
102
RTVSPost2010Prop37
 90
       50
102
RTVSPost2010PropOp37
 70
     1
102
RTVSPost2010Prop38
140
0.0
102
RTVSPost2010PropOp38
 70
     1
102
RTVSPost2010Prop39
140
1.0
102
RTVSPost2010PropOp39
 70
     1
102
RTVSPost2010Prop40
 90
        0
102
RTVSPost2010PropOp40
 70
     1
102
RTVSPost2010Prop41ColorIndex
 90
       18
102
RTVSPost2010Prop41ColorRGB
 90
        0
102
RTVSPost2010PropOp41
 70
     1
102
RTVSPost2010Prop42
 90
       50
102
RTVSPost2010PropOp42
 70
     1
102
RTVSPost2010Prop43
 90
        3
102
RTVSPost2010PropOp43
 70
     1
102
RTVSPost2010Prop44ColorIndex
 90
        5
102
RTVSPost2010Prop44ColorRGB
 90
      255
102
RTVSPost2010PropOp44
 70
     1
102
RTVSPost2010Prop45
280
     0
102
RTVSPost2010PropOp45
 70
     1
102
RTVSPost2010Prop46
 90
       50
102
RTVSPost2010PropOp46
 70
     1
102
RTVSPost2010Prop47
 90
       50
102
RTVSPost2010PropOp47
 70
     1
102
RTVSPost2010Prop48
 90
       50
102
RTVSPost2010PropOp48
 70
     1
102
RTVSPost2010Prop49
280
     0
102
RTVSPost2010PropOp49
 70
     1
102
RTVSPost2010Prop50
 90
       50
102
RTVSPost2010PropOp50
 70
     1
102
RTVSPost2010Prop51ColorIndex
 90
      256
102
RTVSPost2010Prop51ColorRGB
 90
-16777216
102
RTVSPost2010PropOp51
 70
     0
102
RTVSPost2010Prop52
140
1.0
102
RTVSPost2010PropOp52
 70
     0
102
RTVSPost2010Prop53
 90
        2
102
RTVSPost2010PropOp53
 70
     1
102
RTVSPost2010Prop54
  1
strokes_ogs.tif
102
RTVSPost2010PropOp54
 70
     1
102
RTVSPost2010Prop55
280
     0
102
RTVSPost2010PropOp55
 70
     1
102
RTVSPost2010Prop56
140
1.0
102
RTVSPost2010PropOp56
 70
     1
102
RTVSPost2010Prop57
140
1.0
102
RTVSPost2010PropOp57
 70
     1
102
RTVSPropertyOp0
 70
     1
102
RTVSPropertyOp1
 70
     1
102
RTVSPropertyOp2
 70
     1
102
RTVSPropertyOp3
 70
     1
102
RTVSPropertyOp4
 70
     1
102
RTVSPropertyOp5
 70
     1
102
RTVSPropertyOp6
 70
     1
102
RTVSPropertyOp7
 70
     1
102
RTVSPropertyOp8
 70
     1
102
RTVSPropertyOp9
 70
     1
102
RTVSPropertyOp10
 70
     1
102
RTVSPropertyOp11
 70
     1
102
RTVSPropertyOp12
 70
     1
102
RTVSPropertyOp13
 70
     1
102
RTVSPropertyOp14
 70
     1
102
RTVSPropertyOp15
 70
     1
102
RTVSPropertyOp16
 70
     1
102
RTVSPropertyOp17
 70
     1
102
RTVSPropertyOp18
 70
     1
102
RTVSPropertyOp19
 70
     1
102
RTVSPropertyOp20
 70
     1
102
RTVSPropertyOp21
 70
     1
102
RTVSPropertyOp22
 70
     1
102
RTVSPropertyOp23
 70
     1
102
RTVSPropertyOp24
 70
     1
102
RTVSPropertyOp25
 70
     1
102
RTVSPropertyOp26
 70
     1
102
RTVSPropertyOp27
 70
     1
102
RTVSPropertyOp28
 70
     1
102
RTVSPropertyOp29
 70
     1
102
RTVSPropertyOp30
 70
     1
102
RTVSPropertyOp31
 70
     1
102
RTVSPropertyOp32
 70
     1
102
RTVSPropertyOp33
 70
     1
102
RTVSPropertyOp34
 70
     1
102
RTVSPropertyOp35
 70
     1
102
RTVSPropertyOp36
 70
     1
102
RTVSPropertyOp37
 70
     1
102
RTVSPropertyOp38
 70
     1
102
RTVSPropertyOp39
 70
     1
102
RTVSPropertyOp40
 70
     1
102
RTVSPropertyOp41
 70
     1
102
RTVSPropertyOp42
 70
     1
102
RTVSPropertyOp43
 70
     1
102
RTVSPropertyOp44
 70
     1
102
RTVSPropertyOp45
 70
     1
102
RTVSPropertyOp46
 70
     1
102
RTVSPropertyOp47
 70
     1
102
RTVSPropertyOp48
 70
     1
102
RTVSPropertyOp49
 70
     1
102
RTVSPropertyOp50
 70
     1
102
RTVSPropertyOp51
 70
     0
102
RTVSPropertyOp52
 70
     0
102
RTVSPropertyOp53
 70
     1
102
RTVSPropertyOp54
 70
     1
102
RTVSPropertyOp55
 70
     1
102
RTVSPropertyOp56
 70
     1
102
RTVSPropertyOp57
 70
     1
102
RTVSPropertyOp58
 70
     1
102
RTVSPropertyOp59
 70
     1
102
RTVSPropertyOp60
 70
     1
102
RTVSPropertyOp61
 70
     1
102
RTVSPropertyOp62
 70
     1
  0
XRECORD
  5
211C9
102
{ACAD_REACTORS
330
211C8
102
}
330
211C8
100
AcDbXrecord
280
     1
102
RTVSPost2010Prop28
280
     0
102
RTVSPost2010PropOp28
 70
     1
102
RTVSPost2010Prop29
280
     1
102
RTVSPost2010PropOp29
 70
     1
102
RTVSPost2010Prop30
280
     1
102
RTVSPost2010PropOp30
 70
     1
102
RTVSPost2010Prop31
280
     0
102
RTVSPost2010PropOp31
 70
     1
102
RTVSPost2010Prop32
280
     0
102
RTVSPost2010PropOp32
 70
     1
102
RTVSPost2010Prop33
280
     0
102
RTVSPost2010PropOp33
 70
     1
102
RTVSPost2010Prop34
280
     0
102
RTVSPost2010PropOp34
 70
     1
102
RTVSPost2010Prop35
280
     0
102
RTVSPost2010PropOp35
 70
     1
102
RTVSPost2010Prop36
280
     0
102
RTVSPost2010PropOp36
 70
     1
102
RTVSPost2010Prop37
 90
       50
102
RTVSPost2010PropOp37
 70
     1
102
RTVSPost2010Prop38
140
0.0
102
RTVSPost2010PropOp38
 70
     1
102
RTVSPost2010Prop39
140
1.0
102
RTVSPost2010PropOp39
 70
     1
102
RTVSPost2010Prop40
 90
        0
102
RTVSPost2010PropOp40
 70
     1
102
RTVSPost2010Prop41ColorIndex
 90
       18
102
RTVSPost2010Prop41ColorRGB
 90
        0
102
RTVSPost2010PropOp41
 70
     1
102
RTVSPost2010Prop42
 90
       50
102
RTVSPost2010PropOp42
 70
     1
102
RTVSPost2010Prop43
 90
        3
102
RTVSPost2010PropOp43
 70
     1
102
RTVSPost2010Prop44ColorIndex
 90
        5
102
RTVSPost2010Prop44ColorRGB
 90
      255
102
RTVSPost2010PropOp44
 70
     1
102
RTVSPost2010Prop45
280
     0
102
RTVSPost2010PropOp45
 70
     1
102
RTVSPost2010Prop46
 90
       50
102
RTVSPost2010PropOp46
 70
     1
102
RTVSPost2010Prop47
 90
       50
102
RTVSPost2010PropOp47
 70
     1
102
RTVSPost2010Prop48
 90
       50
102
RTVSPost2010PropOp48
 70
     1
102
RTVSPost2010Prop49
280
     0
102
RTVSPost2010PropOp49
 70
     1
102
RTVSPost2010Prop50
 90
       50
102
RTVSPost2010PropOp50
 70
     1
102
RTVSPost2010Prop51ColorIndex
 90
      256
102
RTVSPost2010Prop51ColorRGB
 90
-16777216
102
RTVSPost2010PropOp51
 70
     0
102
RTVSPost2010Prop52
140
1.0
102
RTVSPost2010PropOp52
 70
     0
102
RTVSPost2010Prop53
 90
        2
102
RTVSPost2010PropOp53
 70
     1
102
RTVSPost2010Prop54
  1
strokes_ogs.tif
102
RTVSPost2010PropOp54
 70
     1
102
RTVSPost2010Prop55
280
     0
102
RTVSPost2010PropOp55
 70
     1
102
RTVSPost2010Prop56
140
1.0
102
RTVSPost2010PropOp56
 70
     1
102
RTVSPost2010Prop57
140
1.0
102
RTVSPost2010PropOp57
 70
     1
102
RTVSPropertyOp0
 70
     1
102
RTVSPropertyOp1
 70
     1
102
RTVSPropertyOp2
 70
     1
102
RTVSPropertyOp3
 70
     1
102
RTVSPropertyOp4
 70
     1
102
RTVSPropertyOp5
 70
     1
102
RTVSPropertyOp6
 70
     1
102
RTVSPropertyOp7
 70
     1
102
RTVSPropertyOp8
 70
     1
102
RTVSPropertyOp9
 70
     1
102
RTVSPropertyOp10
 70
     1
102
RTVSPropertyOp11
 70
     1
102
RTVSPropertyOp12
 70
     1
102
RTVSPropertyOp13
 70
     1
102
RTVSPropertyOp14
 70
     1
102
RTVSPropertyOp15
 70
     1
102
RTVSPropertyOp16
 70
     1
102
RTVSPropertyOp17
 70
     1
102
RTVSPropertyOp18
 70
     1
102
RTVSPropertyOp19
 70
     1
102
RTVSPropertyOp20
 70
     1
102
RTVSPropertyOp21
 70
     1
102
RTVSPropertyOp22
 70
     1
102
RTVSPropertyOp23
 70
     1
102
RTVSPropertyOp24
 70
     1
102
RTVSPropertyOp25
 70
     1
102
RTVSPropertyOp26
 70
     1
102
RTVSPropertyOp27
 70
     1
102
RTVSPropertyOp28
 70
     1
102
RTVSPropertyOp29
 70
     1
102
RTVSPropertyOp30
 70
     1
102
RTVSPropertyOp31
 70
     1
102
RTVSPropertyOp32
 70
     1
102
RTVSPropertyOp33
 70
     1
102
RTVSPropertyOp34
 70
     1
102
RTVSPropertyOp35
 70
     1
102
RTVSPropertyOp36
 70
     1
102
RTVSPropertyOp37
 70
     1
102
RTVSPropertyOp38
 70
     1
102
RTVSPropertyOp39
 70
     1
102
RTVSPropertyOp40
 70
     1
102
RTVSPropertyOp41
 70
     1
102
RTVSPropertyOp42
 70
     1
102
RTVSPropertyOp43
 70
     1
102
RTVSPropertyOp44
 70
     1
102
RTVSPropertyOp45
 70
     1
102
RTVSPropertyOp46
 70
     1
102
RTVSPropertyOp47
 70
     1
102
RTVSPropertyOp48
 70
     1
102
RTVSPropertyOp49
 70
     1
102
RTVSPropertyOp50
 70
     1
102
RTVSPropertyOp51
 70
     0
102
RTVSPropertyOp52
 70
     0
102
RTVSPropertyOp53
 70
     1
102
RTVSPropertyOp54
 70
     1
102
RTVSPropertyOp55
 70
     1
102
RTVSPropertyOp56
 70
     1
102
RTVSPropertyOp57
 70
     1
102
RTVSPropertyOp58
 70
     1
102
RTVSPropertyOp59
 70
     1
102
RTVSPropertyOp60
 70
     1
102
RTVSPropertyOp61
 70
     1
102
RTVSPropertyOp62
 70
     1
  0
XRECORD
  5
211CB
102
{ACAD_REACTORS
330
211CA
102
}
330
211CA
100
AcDbXrecord
280
     1
102
RTVSPost2010Prop28
280
     0
102
RTVSPost2010PropOp28
 70
     1
102
RTVSPost2010Prop29
280
     1
102
RTVSPost2010PropOp29
 70
     1
102
RTVSPost2010Prop30
280
     1
102
RTVSPost2010PropOp30
 70
     1
102
RTVSPost2010Prop31
280
     0
102
RTVSPost2010PropOp31
 70
     1
102
RTVSPost2010Prop32
280
     0
102
RTVSPost2010PropOp32
 70
     1
102
RTVSPost2010Prop33
280
     0
102
RTVSPost2010PropOp33
 70
     1
102
RTVSPost2010Prop34
280
     0
102
RTVSPost2010PropOp34
 70
     1
102
RTVSPost2010Prop35
280
     0
102
RTVSPost2010PropOp35
 70
     1
102
RTVSPost2010Prop36
280
     0
102
RTVSPost2010PropOp36
 70
     1
102
RTVSPost2010Prop37
 90
       50
102
RTVSPost2010PropOp37
 70
     1
102
RTVSPost2010Prop38
140
0.0
102
RTVSPost2010PropOp38
 70
     1
102
RTVSPost2010Prop39
140
1.0
102
RTVSPost2010PropOp39
 70
     1
102
RTVSPost2010Prop40
 90
        0
102
RTVSPost2010PropOp40
 70
     1
102
RTVSPost2010Prop41ColorIndex
 90
       18
102
RTVSPost2010Prop41ColorRGB
 90
        0
102
RTVSPost2010PropOp41
 70
     1
102
RTVSPost2010Prop42
 90
       50
102
RTVSPost2010PropOp42
 70
     1
102
RTVSPost2010Prop43
 90
        3
102
RTVSPost2010PropOp43
 70
     1
102
RTVSPost2010Prop44ColorIndex
 90
        5
102
RTVSPost2010Prop44ColorRGB
 90
      255
102
RTVSPost2010PropOp44
 70
     1
102
RTVSPost2010Prop45
280
     0
102
RTVSPost2010PropOp45
 70
     1
102
RTVSPost2010Prop46
 90
       50
102
RTVSPost2010PropOp46
 70
     1
102
RTVSPost2010Prop47
 90
       50
102
RTVSPost2010PropOp47
 70
     1
102
RTVSPost2010Prop48
 90
       50
102
RTVSPost2010PropOp48
 70
     1
102
RTVSPost2010Prop49
280
     0
102
RTVSPost2010PropOp49
 70
     1
102
RTVSPost2010Prop50
 90
       50
102
RTVSPost2010PropOp50
 70
     1
102
RTVSPost2010Prop51ColorIndex
 90
      256
102
RTVSPost2010Prop51ColorRGB
 90
-16777216
102
RTVSPost2010PropOp51
 70
     0
102
RTVSPost2010Prop52
140
1.0
102
RTVSPost2010PropOp52
 70
     0
102
RTVSPost2010Prop53
 90
        2
102
RTVSPost2010PropOp53
 70
     1
102
RTVSPost2010Prop54
  1
strokes_ogs.tif
102
RTVSPost2010PropOp54
 70
     1
102
RTVSPost2010Prop55
280
     0
102
RTVSPost2010PropOp55
 70
     1
102
RTVSPost2010Prop56
140
1.0
102
RTVSPost2010PropOp56
 70
     1
102
RTVSPost2010Prop57
140
1.0
102
RTVSPost2010PropOp57
 70
     1
102
RTVSPropertyOp0
 70
     1
102
RTVSPropertyOp1
 70
     1
102
RTVSPropertyOp2
 70
     1
102
RTVSPropertyOp3
 70
     1
102
RTVSPropertyOp4
 70
     1
102
RTVSPropertyOp5
 70
     1
102
RTVSPropertyOp6
 70
     1
102
RTVSPropertyOp7
 70
     1
102
RTVSPropertyOp8
 70
     1
102
RTVSPropertyOp9
 70
     1
102
RTVSPropertyOp10
 70
     1
102
RTVSPropertyOp11
 70
     1
102
RTVSPropertyOp12
 70
     1
102
RTVSPropertyOp13
 70
     1
102
RTVSPropertyOp14
 70
     1
102
RTVSPropertyOp15
 70
     1
102
RTVSPropertyOp16
 70
     1
102
RTVSPropertyOp17
 70
     1
102
RTVSPropertyOp18
 70
     1
102
RTVSPropertyOp19
 70
     1
102
RTVSPropertyOp20
 70
     1
102
RTVSPropertyOp21
 70
     1
102
RTVSPropertyOp22
 70
     1
102
RTVSPropertyOp23
 70
     1
102
RTVSPropertyOp24
 70
     1
102
RTVSPropertyOp25
 70
     1
102
RTVSPropertyOp26
 70
     1
102
RTVSPropertyOp27
 70
     1
102
RTVSPropertyOp28
 70
     1
102
RTVSPropertyOp29
 70
     1
102
RTVSPropertyOp30
 70
     1
102
RTVSPropertyOp31
 70
     1
102
RTVSPropertyOp32
 70
     1
102
RTVSPropertyOp33
 70
     1
102
RTVSPropertyOp34
 70
     1
102
RTVSPropertyOp35
 70
     1
102
RTVSPropertyOp36
 70
     1
102
RTVSPropertyOp37
 70
     1
102
RTVSPropertyOp38
 70
     1
102
RTVSPropertyOp39
 70
     1
102
RTVSPropertyOp40
 70
     1
102
RTVSPropertyOp41
 70
     1
102
RTVSPropertyOp42
 70
     1
102
RTVSPropertyOp43
 70
     1
102
RTVSPropertyOp44
 70
     1
102
RTVSPropertyOp45
 70
     1
102
RTVSPropertyOp46
 70
     1
102
RTVSPropertyOp47
 70
     1
102
RTVSPropertyOp48
 70
     1
102
RTVSPropertyOp49
 70
     1
102
RTVSPropertyOp50
 70
     1
102
RTVSPropertyOp51
 70
     0
102
RTVSPropertyOp52
 70
     0
102
RTVSPropertyOp53
 70
     1
102
RTVSPropertyOp54
 70
     1
102
RTVSPropertyOp55
 70
     1
102
RTVSPropertyOp56
 70
     1
102
RTVSPropertyOp57
 70
     1
102
RTVSPropertyOp58
 70
     1
102
RTVSPropertyOp59
 70
     1
102
RTVSPropertyOp60
 70
     1
102
RTVSPropertyOp61
 70
     1
102
RTVSPropertyOp62
 70
     1
  0
XRECORD
  5
211BB
102
{ACAD_REACTORS
330
211BA
102
}
330
211BA
100
AcDbXrecord
280
     1
102
RTVSPost2010Prop28
280
     0
102
RTVSPost2010PropOp28
 70
     1
102
RTVSPost2010Prop29
280
     1
102
RTVSPost2010PropOp29
 70
     1
102
RTVSPost2010Prop30
280
     1
102
RTVSPost2010PropOp30
 70
     1
102
RTVSPost2010Prop31
280
     0
102
RTVSPost2010PropOp31
 70
     1
102
RTVSPost2010Prop32
280
     0
102
RTVSPost2010PropOp32
 70
     1
102
RTVSPost2010Prop33
280
     0
102
RTVSPost2010PropOp33
 70
     1
102
RTVSPost2010Prop34
280
     0
102
RTVSPost2010PropOp34
 70
     1
102
RTVSPost2010Prop35
280
     0
102
RTVSPost2010PropOp35
 70
     1
102
RTVSPost2010Prop36
280
     0
102
RTVSPost2010PropOp36
 70
     1
102
RTVSPost2010Prop37
 90
       50
102
RTVSPost2010PropOp37
 70
     1
102
RTVSPost2010Prop38
140
0.0
102
RTVSPost2010PropOp38
 70
     1
102
RTVSPost2010Prop39
140
1.0
102
RTVSPost2010PropOp39
 70
     1
102
RTVSPost2010Prop40
 90
        0
102
RTVSPost2010PropOp40
 70
     1
102
RTVSPost2010Prop41ColorIndex
 90
       18
102
RTVSPost2010Prop41ColorRGB
 90
        0
102
RTVSPost2010PropOp41
 70
     1
102
RTVSPost2010Prop42
 90
       50
102
RTVSPost2010PropOp42
 70
     1
102
RTVSPost2010Prop43
 90
        3
102
RTVSPost2010PropOp43
 70
     1
102
RTVSPost2010Prop44ColorIndex
 90
        5
102
RTVSPost2010Prop44ColorRGB
 90
      255
102
RTVSPost2010PropOp44
 70
     1
102
RTVSPost2010Prop45
280
     0
102
RTVSPost2010PropOp45
 70
     1
102
RTVSPost2010Prop46
 90
       50
102
RTVSPost2010PropOp46
 70
     1
102
RTVSPost2010Prop47
 90
       50
102
RTVSPost2010PropOp47
 70
     1
102
RTVSPost2010Prop48
 90
       50
102
RTVSPost2010PropOp48
 70
     1
102
RTVSPost2010Prop49
280
     0
102
RTVSPost2010PropOp49
 70
     1
102
RTVSPost2010Prop50
 90
       50
102
RTVSPost2010PropOp50
 70
     1
102
RTVSPost2010Prop51ColorIndex
 90
      256
102
RTVSPost2010Prop51ColorRGB
 90
-16777216
102
RTVSPost2010PropOp51
 70
     0
102
RTVSPost2010Prop52
140
1.0
102
RTVSPost2010PropOp52
 70
     0
102
RTVSPost2010Prop53
 90
        2
102
RTVSPost2010PropOp53
 70
     1
102
RTVSPost2010Prop54
  1
strokes_ogs.tif
102
RTVSPost2010PropOp54
 70
     1
102
RTVSPost2010Prop55
280
     0
102
RTVSPost2010PropOp55
 70
     1
102
RTVSPost2010Prop56
140
1.0
102
RTVSPost2010PropOp56
 70
     1
102
RTVSPost2010Prop57
140
1.0
102
RTVSPost2010PropOp57
 70
     1
102
RTVSPropertyOp0
 70
     1
102
RTVSPropertyOp1
 70
     1
102
RTVSPropertyOp2
 70
     1
102
RTVSPropertyOp3
 70
     1
102
RTVSPropertyOp4
 70
     1
102
RTVSPropertyOp5
 70
     1
102
RTVSPropertyOp6
 70
     1
102
RTVSPropertyOp7
 70
     1
102
RTVSPropertyOp8
 70
     1
102
RTVSPropertyOp9
 70
     1
102
RTVSPropertyOp10
 70
     1
102
RTVSPropertyOp11
 70
     1
102
RTVSPropertyOp12
 70
     1
102
RTVSPropertyOp13
 70
     1
102
RTVSPropertyOp14
 70
     1
102
RTVSPropertyOp15
 70
     1
102
RTVSPropertyOp16
 70
     1
102
RTVSPropertyOp17
 70
     1
102
RTVSPropertyOp18
 70
     1
102
RTVSPropertyOp19
 70
     1
102
RTVSPropertyOp20
 70
     1
102
RTVSPropertyOp21
 70
     1
102
RTVSPropertyOp22
 70
     1
102
RTVSPropertyOp23
 70
     1
102
RTVSPropertyOp24
 70
     1
102
RTVSPropertyOp25
 70
     1
102
RTVSPropertyOp26
 70
     1
102
RTVSPropertyOp27
 70
     1
102
RTVSPropertyOp28
 70
     1
102
RTVSPropertyOp29
 70
     1
102
RTVSPropertyOp30
 70
     1
102
RTVSPropertyOp31
 70
     1
102
RTVSPropertyOp32
 70
     1
102
RTVSPropertyOp33
 70
     1
102
RTVSPropertyOp34
 70
     1
102
RTVSPropertyOp35
 70
     1
102
RTVSPropertyOp36
 70
     1
102
RTVSPropertyOp37
 70
     1
102
RTVSPropertyOp38
 70
     1
102
RTVSPropertyOp39
 70
     1
102
RTVSPropertyOp40
 70
     1
102
RTVSPropertyOp41
 70
     1
102
RTVSPropertyOp42
 70
     1
102
RTVSPropertyOp43
 70
     1
102
RTVSPropertyOp44
 70
     1
102
RTVSPropertyOp45
 70
     1
102
RTVSPropertyOp46
 70
     1
102
RTVSPropertyOp47
 70
     1
102
RTVSPropertyOp48
 70
     1
102
RTVSPropertyOp49
 70
     1
102
RTVSPropertyOp50
 70
     1
102
RTVSPropertyOp51
 70
     0
102
RTVSPropertyOp52
 70
     0
102
RTVSPropertyOp53
 70
     1
102
RTVSPropertyOp54
 70
     1
102
RTVSPropertyOp55
 70
     1
102
RTVSPropertyOp56
 70
     1
102
RTVSPropertyOp57
 70
     1
102
RTVSPropertyOp58
 70
     1
102
RTVSPropertyOp59
 70
     1
102
RTVSPropertyOp60
 70
     1
102
RTVSPropertyOp61
 70
     1
102
RTVSPropertyOp62
 70
     1
  0
XRECORD
  5
211AF
102
{ACAD_REACTORS
330
211AE
102
}
330
211AE
100
AcDbXrecord
280
     1
102
RTVSPost2010Prop28
280
     0
102
RTVSPost2010PropOp28
 70
     1
102
RTVSPost2010Prop29
280
     1
102
RTVSPost2010PropOp29
 70
     1
102
RTVSPost2010Prop30
280
     1
102
RTVSPost2010PropOp30
 70
     1
102
RTVSPost2010Prop31
280
     0
102
RTVSPost2010PropOp31
 70
     1
102
RTVSPost2010Prop32
280
     0
102
RTVSPost2010PropOp32
 70
     1
102
RTVSPost2010Prop33
280
     0
102
RTVSPost2010PropOp33
 70
     1
102
RTVSPost2010Prop34
280
     0
102
RTVSPost2010PropOp34
 70
     1
102
RTVSPost2010Prop35
280
     0
102
RTVSPost2010PropOp35
 70
     1
102
RTVSPost2010Prop36
280
     0
102
RTVSPost2010PropOp36
 70
     1
102
RTVSPost2010Prop37
 90
       50
102
RTVSPost2010PropOp37
 70
     1
102
RTVSPost2010Prop38
140
0.0
102
RTVSPost2010PropOp38
 70
     1
102
RTVSPost2010Prop39
140
1.0
102
RTVSPost2010PropOp39
 70
     1
102
RTVSPost2010Prop40
 90
        0
102
RTVSPost2010PropOp40
 70
     1
102
RTVSPost2010Prop41ColorIndex
 90
       18
102
RTVSPost2010Prop41ColorRGB
 90
        0
102
RTVSPost2010PropOp41
 70
     1
102
RTVSPost2010Prop42
 90
       50
102
RTVSPost2010PropOp42
 70
     1
102
RTVSPost2010Prop43
 90
        3
102
RTVSPost2010PropOp43
 70
     1
102
RTVSPost2010Prop44ColorIndex
 90
        5
102
RTVSPost2010Prop44ColorRGB
 90
      255
102
RTVSPost2010PropOp44
 70
     1
102
RTVSPost2010Prop45
280
     0
102
RTVSPost2010PropOp45
 70
     1
102
RTVSPost2010Prop46
 90
       50
102
RTVSPost2010PropOp46
 70
     1
102
RTVSPost2010Prop47
 90
       50
102
RTVSPost2010PropOp47
 70
     1
102
RTVSPost2010Prop48
 90
       50
102
RTVSPost2010PropOp48
 70
     1
102
RTVSPost2010Prop49
280
     0
102
RTVSPost2010PropOp49
 70
     1
102
RTVSPost2010Prop50
 90
       50
102
RTVSPost2010PropOp50
 70
     1
102
RTVSPost2010Prop51ColorIndex
 90
      256
102
RTVSPost2010Prop51ColorRGB
 90
-16777216
102
RTVSPost2010PropOp51
 70
     0
102
RTVSPost2010Prop52
140
1.0
102
RTVSPost2010PropOp52
 70
     0
102
RTVSPost2010Prop53
 90
        2
102
RTVSPost2010PropOp53
 70
     1
102
RTVSPost2010Prop54
  1
strokes_ogs.tif
102
RTVSPost2010PropOp54
 70
     1
102
RTVSPost2010Prop55
280
     0
102
RTVSPost2010PropOp55
 70
     1
102
RTVSPost2010Prop56
140
1.0
102
RTVSPost2010PropOp56
 70
     1
102
RTVSPost2010Prop57
140
1.0
102
RTVSPost2010PropOp57
 70
     1
102
RTVSPropertyOp0
 70
     1
102
RTVSPropertyOp1
 70
     1
102
RTVSPropertyOp2
 70
     1
102
RTVSPropertyOp3
 70
     1
102
RTVSPropertyOp4
 70
     1
102
RTVSPropertyOp5
 70
     1
102
RTVSPropertyOp6
 70
     1
102
RTVSPropertyOp7
 70
     1
102
RTVSPropertyOp8
 70
     1
102
RTVSPropertyOp9
 70
     1
102
RTVSPropertyOp10
 70
     1
102
RTVSPropertyOp11
 70
     1
102
RTVSPropertyOp12
 70
     1
102
RTVSPropertyOp13
 70
     1
102
RTVSPropertyOp14
 70
     1
102
RTVSPropertyOp15
 70
     1
102
RTVSPropertyOp16
 70
     1
102
RTVSPropertyOp17
 70
     1
102
RTVSPropertyOp18
 70
     1
102
RTVSPropertyOp19
 70
     1
102
RTVSPropertyOp20
 70
     1
102
RTVSPropertyOp21
 70
     1
102
RTVSPropertyOp22
 70
     1
102
RTVSPropertyOp23
 70
     1
102
RTVSPropertyOp24
 70
     1
102
RTVSPropertyOp25
 70
     1
102
RTVSPropertyOp26
 70
     1
102
RTVSPropertyOp27
 70
     1
102
RTVSPropertyOp28
 70
     1
102
RTVSPropertyOp29
 70
     1
102
RTVSPropertyOp30
 70
     1
102
RTVSPropertyOp31
 70
     1
102
RTVSPropertyOp32
 70
     1
102
RTVSPropertyOp33
 70
     1
102
RTVSPropertyOp34
 70
     1
102
RTVSPropertyOp35
 70
     1
102
RTVSPropertyOp36
 70
     1
102
RTVSPropertyOp37
 70
     1
102
RTVSPropertyOp38
 70
     1
102
RTVSPropertyOp39
 70
     1
102
RTVSPropertyOp40
 70
     1
102
RTVSPropertyOp41
 70
     1
102
RTVSPropertyOp42
 70
     1
102
RTVSPropertyOp43
 70
     1
102
RTVSPropertyOp44
 70
     1
102
RTVSPropertyOp45
 70
     1
102
RTVSPropertyOp46
 70
     1
102
RTVSPropertyOp47
 70
     1
102
RTVSPropertyOp48
 70
     1
102
RTVSPropertyOp49
 70
     1
102
RTVSPropertyOp50
 70
     1
102
RTVSPropertyOp51
 70
     0
102
RTVSPropertyOp52
 70
     0
102
RTVSPropertyOp53
 70
     1
102
RTVSPropertyOp54
 70
     1
102
RTVSPropertyOp55
 70
     1
102
RTVSPropertyOp56
 70
     1
102
RTVSPropertyOp57
 70
     1
102
RTVSPropertyOp58
 70
     1
102
RTVSPropertyOp59
 70
     1
102
RTVSPropertyOp60
 70
     1
102
RTVSPropertyOp61
 70
     1
102
RTVSPropertyOp62
 70
     1
  0
XRECORD
  5
211CD
102
{ACAD_REACTORS
330
211CC
102
}
330
211CC
100
AcDbXrecord
280
     1
102
RTVSPost2010Prop28
280
     0
102
RTVSPost2010PropOp28
 70
     1
102
RTVSPost2010Prop29
280
     1
102
RTVSPost2010PropOp29
 70
     1
102
RTVSPost2010Prop30
280
     1
102
RTVSPost2010PropOp30
 70
     1
102
RTVSPost2010Prop31
280
     0
102
RTVSPost2010PropOp31
 70
     1
102
RTVSPost2010Prop32
280
     0
102
RTVSPost2010PropOp32
 70
     1
102
RTVSPost2010Prop33
280
     0
102
RTVSPost2010PropOp33
 70
     1
102
RTVSPost2010Prop34
280
     0
102
RTVSPost2010PropOp34
 70
     1
102
RTVSPost2010Prop35
280
     0
102
RTVSPost2010PropOp35
 70
     1
102
RTVSPost2010Prop36
280
     0
102
RTVSPost2010PropOp36
 70
     1
102
RTVSPost2010Prop37
 90
       50
102
RTVSPost2010PropOp37
 70
     1
102
RTVSPost2010Prop38
140
0.0
102
RTVSPost2010PropOp38
 70
     1
102
RTVSPost2010Prop39
140
1.0
102
RTVSPost2010PropOp39
 70
     1
102
RTVSPost2010Prop40
 90
        0
102
RTVSPost2010PropOp40
 70
     1
102
RTVSPost2010Prop41ColorIndex
 90
       18
102
RTVSPost2010Prop41ColorRGB
 90
        0
102
RTVSPost2010PropOp41
 70
     1
102
RTVSPost2010Prop42
 90
       50
102
RTVSPost2010PropOp42
 70
     1
102
RTVSPost2010Prop43
 90
        3
102
RTVSPost2010PropOp43
 70
     1
102
RTVSPost2010Prop44ColorIndex
 90
        5
102
RTVSPost2010Prop44ColorRGB
 90
      255
102
RTVSPost2010PropOp44
 70
     1
102
RTVSPost2010Prop45
280
     0
102
RTVSPost2010PropOp45
 70
     1
102
RTVSPost2010Prop46
 90
       50
102
RTVSPost2010PropOp46
 70
     1
102
RTVSPost2010Prop47
 90
       50
102
RTVSPost2010PropOp47
 70
     1
102
RTVSPost2010Prop48
 90
       50
102
RTVSPost2010PropOp48
 70
     1
102
RTVSPost2010Prop49
280
     0
102
RTVSPost2010PropOp49
 70
     1
102
RTVSPost2010Prop50
 90
       50
102
RTVSPost2010PropOp50
 70
     1
102
RTVSPost2010Prop51ColorIndex
 90
      256
102
RTVSPost2010Prop51ColorRGB
 90
-16777216
102
RTVSPost2010PropOp51
 70
     0
102
RTVSPost2010Prop52
140
1.0
102
RTVSPost2010PropOp52
 70
     0
102
RTVSPost2010Prop53
 90
        2
102
RTVSPost2010PropOp53
 70
     1
102
RTVSPost2010Prop54
  1
strokes_ogs.tif
102
RTVSPost2010PropOp54
 70
     1
102
RTVSPost2010Prop55
280
     0
102
RTVSPost2010PropOp55
 70
     1
102
RTVSPost2010Prop56
140
1.0
102
RTVSPost2010PropOp56
 70
     1
102
RTVSPost2010Prop57
140
1.0
102
RTVSPost2010PropOp57
 70
     1
102
RTVSPropertyOp0
 70
     1
102
RTVSPropertyOp1
 70
     1
102
RTVSPropertyOp2
 70
     1
102
RTVSPropertyOp3
 70
     1
102
RTVSPropertyOp4
 70
     1
102
RTVSPropertyOp5
 70
     1
102
RTVSPropertyOp6
 70
     1
102
RTVSPropertyOp7
 70
     1
102
RTVSPropertyOp8
 70
     1
102
RTVSPropertyOp9
 70
     1
102
RTVSPropertyOp10
 70
     1
102
RTVSPropertyOp11
 70
     1
102
RTVSPropertyOp12
 70
     1
102
RTVSPropertyOp13
 70
     1
102
RTVSPropertyOp14
 70
     1
102
RTVSPropertyOp15
 70
     1
102
RTVSPropertyOp16
 70
     1
102
RTVSPropertyOp17
 70
     1
102
RTVSPropertyOp18
 70
     1
102
RTVSPropertyOp19
 70
     1
102
RTVSPropertyOp20
 70
     1
102
RTVSPropertyOp21
 70
     1
102
RTVSPropertyOp22
 70
     1
102
RTVSPropertyOp23
 70
     1
102
RTVSPropertyOp24
 70
     1
102
RTVSPropertyOp25
 70
     1
102
RTVSPropertyOp26
 70
     1
102
RTVSPropertyOp27
 70
     1
102
RTVSPropertyOp28
 70
     1
102
RTVSPropertyOp29
 70
     1
102
RTVSPropertyOp30
 70
     1
102
RTVSPropertyOp31
 70
     1
102
RTVSPropertyOp32
 70
     1
102
RTVSPropertyOp33
 70
     1
102
RTVSPropertyOp34
 70
     1
102
RTVSPropertyOp35
 70
     1
102
RTVSPropertyOp36
 70
     1
102
RTVSPropertyOp37
 70
     1
102
RTVSPropertyOp38
 70
     1
102
RTVSPropertyOp39
 70
     1
102
RTVSPropertyOp40
 70
     1
102
RTVSPropertyOp41
 70
     1
102
RTVSPropertyOp42
 70
     1
102
RTVSPropertyOp43
 70
     1
102
RTVSPropertyOp44
 70
     1
102
RTVSPropertyOp45
 70
     1
102
RTVSPropertyOp46
 70
     1
102
RTVSPropertyOp47
 70
     1
102
RTVSPropertyOp48
 70
     1
102
RTVSPropertyOp49
 70
     1
102
RTVSPropertyOp50
 70
     1
102
RTVSPropertyOp51
 70
     0
102
RTVSPropertyOp52
 70
     0
102
RTVSPropertyOp53
 70
     1
102
RTVSPropertyOp54
 70
     1
102
RTVSPropertyOp55
 70
     1
102
RTVSPropertyOp56
 70
     1
102
RTVSPropertyOp57
 70
     1
102
RTVSPropertyOp58
 70
     1
102
RTVSPropertyOp59
 70
     1
102
RTVSPropertyOp60
 70
     1
102
RTVSPropertyOp61
 70
     1
102
RTVSPropertyOp62
 70
     1
  0
ENDSEC
  0
EOF
