  0
SECTION
  2
HEADER
  9
$ACADVER
  1
AC1015
  9
$ACADMAINTVER
 70
    18
  9
$DWGCODEPAGE
  3
ANSI_1252
  9
$INSBASE
 10
0.0
 20
0.0
 30
0.0
  9
$EXTMIN
 10
-378.7
 20
-579.8062053372862
 30
0.0
  9
$EXTMAX
 10
516.5659649387788
 20
613.2
 30
0.0
  9
$LIMMIN
 10
0.0
 20
0.0
  9
$LIMMAX
 10
12.0
 20
9.0
  9
$ORTHOMODE
 70
     0
  9
$REGENMODE
 70
     1
  9
$FILLMODE
 70
     1
  9
$QTEXTMODE
 70
     0
  9
$MIRRTEXT
 70
     0
  9
$LTSCALE
 40
1.0
  9
$ATTMODE
 70
     1
  9
$TEXTSIZE
 40
0.2
  9
$TRACEWID
 40
0.05
  9
$TEXTSTYLE
  7
Standard
  9
$CLAYER
  8
0
  9
$CELTYPE
  6
ByLayer
  9
$CECOLOR
 62
   256
  9
$CELTSCALE
 40
1.0
  9
$DISPSILH
 70
     0
  9
$DIMSCALE
 40
1.0
  9
$DIMASZ
 40
0.18
  9
$DIMEXO
 40
0.0625
  9
$DIMDLI
 40
0.38
  9
$DIMRND
 40
0.0
  9
$DIMDLE
 40
0.0
  9
$DIMEXE
 40
0.18
  9
$DIMTP
 40
0.0
  9
$DIMTM
 40
0.0
  9
$DIMTXT
 40
0.18
  9
$DIMCEN
 40
0.09
  9
$DIMTSZ
 40
0.0
  9
$DIMTOL
 70
     0
  9
$DIMLIM
 70
     0
  9
$DIMTIH
 70
     1
  9
$DIMTOH
 70
     1
  9
$DIMSE1
 70
     0
  9
$DIMSE2
 70
     0
  9
$DIMTAD
 70
     0
  9
$DIMZIN
 70
     0
  9
$DIMBLK
  1

  9
$DIMASO
 70
     1
  9
$DIMSHO
 70
     1
  9
$DIMPOST
  1

  9
$DIMAPOST
  1

  9
$DIMALT
 70
     0
  9
$DIMALTD
 70
     2
  9
$DIMALTF
 40
25.4
  9
$DIMLFAC
 40
1.0
  9
$DIMTOFL
 70
     0
  9
$DIMTVP
 40
0.0
  9
$DIMTIX
 70
     0
  9
$DIMSOXD
 70
     0
  9
$DIMSAH
 70
     0
  9
$DIMBLK1
  1

  9
$DIMBLK2
  1

  9
$DIMSTYLE
  2
Standard
  9
$DIMCLRD
 70
     0
  9
$DIMCLRE
 70
     0
  9
$DIMCLRT
 70
     0
  9
$DIMTFAC
 40
1.0
  9
$DIMGAP
 40
0.09
  9
$DIMJUST
 70
     0
  9
$DIMSD1
 70
     0
  9
$DIMSD2
 70
     0
  9
$DIMTOLJ
 70
     1
  9
$DIMTZIN
 70
     0
  9
$DIMALTZ
 70
     0
  9
$DIMALTTZ
 70
     0
  9
$DIMUPT
 70
     0
  9
$DIMDEC
 70
     4
  9
$DIMTDEC
 70
     4
  9
$DIMALTU
 70
     2
  9
$DIMALTTD
 70
     2
  9
$DIMTXSTY
  7
Standard
  9
$DIMAUNIT
 70
     0
  9
$DIMADEC
 70
     0
  9
$DIMALTRND
 40
0.0
  9
$DIMAZIN
 70
     0
  9
$DIMDSEP
 70
    46
  9
$DIMATFIT
 70
     3
  9
$DIMFRAC
 70
     0
  9
$DIMLDRBLK
  1

  9
$DIMLUNIT
 70
     2
  9
$DIMLWD
 70
    -2
  9
$DIMLWE
 70
    -2
  9
$DIMTMOVE
 70
     0
  9
$LUNITS
 70
     2
  9
$LUPREC
 70
     4
  9
$SKETCHINC
 40
0.1
  9
$FILLETRAD
 40
0.0
  9
$AUNITS
 70
     0
  9
$AUPREC
 70
     0
  9
$MENU
  1
.
  9
$ELEVATION
 40
0.0
  9
$PELEVATION
 40
0.0
  9
$THICKNESS
 40
0.0
  9
$LIMCHECK
 70
     0
  9
$CHAMFERA
 40
0.0
  9
$CHAMFERB
 40
0.0
  9
$CHAMFERC
 40
0.0
  9
$CHAMFERD
 40
0.0
  9
$SKPOLY
 70
     0
  9
$TDCREATE
 40
2460200.550335648
  9
$TDUCREATE
 40
2460200.258668982
  9
$TDUPDATE
 40
2460200.575706019
  9
$TDUUPDATE
 40
2460200.284039352
  9
$TDINDWG
 40
0.0062615741
  9
$TDUSRTIMER
 40
0.0062615741
  9
$USRTIMER
 70
     1
  9
$ANGBASE
 50
0.0
  9
$ANGDIR
 70
     0
  9
$PDMODE
 70
     0
  9
$PDSIZE
 40
0.0
  9
$PLINEWID
 40
0.0
  9
$SPLFRAME
 70
     0
  9
$SPLINETYPE
 70
     6
  9
$SPLINESEGS
 70
     8
  9
$HANDSEED
  5
1F9AC
  9
$SURFTAB1
 70
     6
  9
$SURFTAB2
 70
     6
  9
$SURFTYPE
 70
     6
  9
$SURFU
 70
     6
  9
$SURFV
 70
     6
  9
$UCSBASE
  2

  9
$UCSNAME
  2

  9
$UCSORG
 10
0.0
 20
0.0
 30
0.0
  9
$UCSXDIR
 10
1.0
 20
0.0
 30
0.0
  9
$UCSYDIR
 10
0.0
 20
1.0
 30
0.0
  9
$UCSORTHOREF
  2

  9
$UCSORTHOVIEW
 70
     0
  9
$UCSORGTOP
 10
0.0
 20
0.0
 30
0.0
  9
$UCSORGBOTTOM
 10
0.0
 20
0.0
 30
0.0
  9
$UCSORGLEFT
 10
0.0
 20
0.0
 30
0.0
  9
$UCSORGRIGHT
 10
0.0
 20
0.0
 30
0.0
  9
$UCSORGFRONT
 10
0.0
 20
0.0
 30
0.0
  9
$UCSORGBACK
 10
0.0
 20
0.0
 30
0.0
  9
$PUCSBASE
  2

  9
$PUCSNAME
  2

  9
$PUCSORG
 10
0.0
 20
0.0
 30
0.0
  9
$PUCSXDIR
 10
1.0
 20
0.0
 30
0.0
  9
$PUCSYDIR
 10
0.0
 20
1.0
 30
0.0
  9
$PUCSORTHOREF
  2

  9
$PUCSORTHOVIEW
 70
     0
  9
$PUCSORGTOP
 10
0.0
 20
0.0
 30
0.0
  9
$PUCSORGBOTTOM
 10
0.0
 20
0.0
 30
0.0
  9
$PUCSORGLEFT
 10
0.0
 20
0.0
 30
0.0
  9
$PUCSORGRIGHT
 10
0.0
 20
0.0
 30
0.0
  9
$PUCSORGFRONT
 10
0.0
 20
0.0
 30
0.0
  9
$PUCSORGBACK
 10
0.0
 20
0.0
 30
0.0
  9
$USERI1
 70
     0
  9
$USERI2
 70
     0
  9
$USERI3
 70
     0
  9
$USERI4
 70
     0
  9
$USERI5
 70
     0
  9
$USERR1
 40
0.0
  9
$USERR2
 40
0.0
  9
$USERR3
 40
0.0
  9
$USERR4
 40
0.0
  9
$USERR5
 40
0.0
  9
$WORLDVIEW
 70
     1
  9
$SHADEDGE
 70
     3
  9
$SHADEDIF
 70
    70
  9
$TILEMODE
 70
     1
  9
$MAXACTVP
 70
    48
  9
$PINSBASE
 10
0.0
 20
0.0
 30
0.0
  9
$PLIMCHECK
 70
     0
  9
$PEXTMIN
 10
0.0
 20
0.0
 30
0.0
  9
$PEXTMAX
 10
0.0
 20
0.0
 30
0.0
  9
$PLIMMIN
 10
0.0
 20
0.0
  9
$PLIMMAX
 10
12.0
 20
9.0
  9
$UNITMODE
 70
     0
  9
$VISRETAIN
 70
     1
  9
$PLINEGEN
 70
     0
  9
$PSLTSCALE
 70
     1
  9
$TREEDEPTH
 70
  3020
  9
$CMLSTYLE
  2
Standard
  9
$CMLJUST
 70
     0
  9
$CMLSCALE
 40
1.0
  9
$PROXYGRAPHICS
 70
     1
  9
$MEASUREMENT
 70
     0
  9
$CELWEIGHT
370
    -1
  9
$ENDCAPS
280
     0
  9
$JOINSTYLE
280
     0
  9
$LWDISPLAY
290
     0
  9
$INSUNITS
 70
     1
  9
$HYPERLINKBASE
  1

  9
$STYLESHEET
  1

  9
$XEDIT
290
     1
  9
$CEPSNTYPE
380
     0
  9
$PSTYLEMODE
290
     1
  9
$FINGERPRINTGUID
  2
{0640A35E-3A99-8F4D-9B8F-B81E1BF62B8F}
  9
$VERSIONGUID
  2
{02159691-A639-474B-84E6-8C7D0A5D0763}
  9
$EXTNAMES
290
     1
  9
$PSVPSCALE
 40
0.0
  9
$OLESTARTUP
290
     0
  0
ENDSEC
  0
SECTION
  2
CLASSES
  0
CLASS
  1
ACDBDICTIONARYWDFLT
  2
AcDbDictionaryWithDefault
  3
ObjectDBX Classes
 90
        0
280
     0
281
     0
  0
CLASS
  1
ACDBPLACEHOLDER
  2
AcDbPlaceHolder
  3
ObjectDBX Classes
 90
        0
280
     0
281
     0
  0
CLASS
  1
LAYOUT
  2
AcDbLayout
  3
ObjectDBX Classes
 90
        0
280
     0
281
     0
  0
CLASS
  1
DICTIONARYVAR
  2
AcDbDictionaryVar
  3
ObjectDBX Classes
 90
        0
280
     0
281
     0
  0
CLASS
  1
TABLESTYLE
  2
AcDbTableStyle
  3
ObjectDBX Classes
 90
     4095
280
     0
281
     0
  0
CLASS
  1
MATERIAL
  2
AcDbMaterial
  3
ObjectDBX Classes
 90
     1153
280
     0
281
     0
  0
CLASS
  1
VISUALSTYLE
  2
AcDbVisualStyle
  3
ObjectDBX Classes
 90
     4095
280
     0
281
     0
  0
CLASS
  1
SCALE
  2
AcDbScale
  3
ObjectDBX Classes
 90
     1153
280
     0
281
     0
  0
CLASS
  1
MLEADERSTYLE
  2
AcDbMLeaderStyle
  3
ACDB_MLEADERSTYLE_CLASS
 90
     4095
280
     0
281
     0
  0
CLASS
  1
CELLSTYLEMAP
  2
AcDbCellStyleMap
  3
ObjectDBX Classes
 90
     1152
280
     0
281
     0
  0
CLASS
  1
EXACXREFPANELOBJECT
  2
ExAcXREFPanelObject
  3
EXAC_ESW
 90
    33793
280
     0
281
     0
  0
CLASS
  1
NPOCOLLECTION
  2
AcDbImpNonPersistentObjectsCollection
  3
ObjectDBX Classes
 90
    33921
280
     0
281
     0
  0
CLASS
  1
LAYER_INDEX
  2
AcDbLayerIndex
  3
ObjectDBX Classes
 90
    32768
280
     0
281
     0
  0
CLASS
  1
SPATIAL_INDEX
  2
AcDbSpatialIndex
  3
ObjectDBX Classes
 90
    32768
280
     0
281
     0
  0
CLASS
  1
IDBUFFER
  2
AcDbIdBuffer
  3
ObjectDBX Classes
 90
    32768
280
     0
281
     0
  0
CLASS
  1
ACDBSECTIONVIEWSTYLE
  2
AcDbSectionViewStyle
  3
ObjectDBX Classes
 90
     1025
280
     0
281
     0
  0
CLASS
  1
ACDBDETAILVIEWSTYLE
  2
AcDbDetailViewStyle
  3
ObjectDBX Classes
 90
     1025
280
     0
281
     0
  0
CLASS
  1
XRECORD
  2
AcDbXrecord
  3
ObjectDBX Classes
 90
        0
280
     0
281
     0
  0
ENDSEC
  0
SECTION
  2
TABLES
  0
TABLE
  2
VPORT
  5
8
102
{ACAD_XDICTIONARY
360
1F8C2
102
}
330
0
100
AcDbSymbolTable
 70
     1
  0
VPORT
  5
94
330
8
100
AcDbSymbolTableRecord
100
AcDbViewportTableRecord
  2
*Active
 70
     0
 10
0.0
 20
0.0
 11
1.0
 21
1.0
 12
68.9329824693894
 22
16.69689733135692
 13
0.0
 23
0.0
 14
0.5
 24
0.5
 15
0.5
 25
0.5
 16
0.0
 26
0.0
 36
1.0
 17
0.0
 27
0.0
 37
0.0
 40
1268.653985197905
 41
0.9846153846153846
 42
50.0
 43
0.0
 44
0.0
 50
0.0
 51
0.0
 71
     0
 72
  1000
 73
     1
 74
     3
 75
     0
 76
     1
 77
     0
 78
     0
281
     0
 65
     1
110
0.0
120
0.0
130
0.0
111
1.0
121
0.0
131
0.0
112
0.0
122
1.0
132
0.0
 79
     0
146
0.0
1001
ACAD_NAV_VCDISPLAY
1070
     3
  0
ENDTAB
  0
TABLE
  2
LTYPE
  5
5
330
0
100
AcDbSymbolTable
 70
     1
  0
LTYPE
  5
14
330
5
100
AcDbSymbolTableRecord
100
AcDbLinetypeTableRecord
  2
ByBlock
 70
     0
  3

 72
    65
 73
     0
 40
0.0
  0
LTYPE
  5
15
330
5
100
AcDbSymbolTableRecord
100
AcDbLinetypeTableRecord
  2
ByLayer
 70
     0
  3

 72
    65
 73
     0
 40
0.0
  0
LTYPE
  5
16
330
5
100
AcDbSymbolTableRecord
100
AcDbLinetypeTableRecord
  2
Continuous
 70
     0
  3
Solid line
 72
    65
 73
     0
 40
0.0
  0
ENDTAB
  0
TABLE
  2
LAYER
  5
2
102
{ACAD_XDICTIONARY
360
18E
102
}
330
0
100
AcDbSymbolTable
 70
     1
  0
LAYER
  5
10
102
{ACAD_XDICTIONARY
360
E6
102
}
330
2
100
AcDbSymbolTableRecord
100
AcDbLayerTableRecord
  2
0
 70
     0
 62
     7
  6
Continuous
370
    -3
390
F
  0
ENDTAB
  0
TABLE
  2
STYLE
  5
3
330
0
100
AcDbSymbolTable
 70
     1
  0
STYLE
  5
11
330
3
100
AcDbSymbolTableRecord
100
AcDbTextStyleTableRecord
  2
Standard
 70
     0
 40
0.0
 41
1.0
 50
0.0
 71
     0
 42
0.2
  3
arial.ttf
  4

1001
ACAD
1000
Arial
1071
       34
  0
ENDTAB
  0
TABLE
  2
VIEW
  5
6
330
0
100
AcDbSymbolTable
 70
     0
  0
ENDTAB
  0
TABLE
  2
UCS
  5
7
330
0
100
AcDbSymbolTable
 70
     0
  0
ENDTAB
  0
TABLE
  2
APPID
  5
9
330
0
100
AcDbSymbolTable
 70
     7
  0
APPID
  5
12
330
9
100
AcDbSymbolTableRecord
100
AcDbRegAppTableRecord
  2
ACAD
 70
     0
  0
APPID
  5
DD
330
9
100
AcDbSymbolTableRecord
100
AcDbRegAppTableRecord
  2
AcadAnnoPO
 70
     0
  0
APPID
  5
DE
330
9
100
AcDbSymbolTableRecord
100
AcDbRegAppTableRecord
  2
AcadAnnotative
 70
     0
  0
APPID
  5
DF
330
9
100
AcDbSymbolTableRecord
100
AcDbRegAppTableRecord
  2
ACAD_DSTYLE_DIMJAG
 70
     0
  0
APPID
  5
E0
330
9
100
AcDbSymbolTableRecord
100
AcDbRegAppTableRecord
  2
ACAD_DSTYLE_DIMTALN
 70
     0
  0
APPID
  5
107
330
9
100
AcDbSymbolTableRecord
100
AcDbRegAppTableRecord
  2
ACAD_MLEADERVER
 70
     0
  0
APPID
  5
1A6
330
9
100
AcDbSymbolTableRecord
100
AcDbRegAppTableRecord
  2
ACAD_NAV_VCDISPLAY
 70
     0
  0
ENDTAB
  0
TABLE
  2
DIMSTYLE
  5
A
330
0
100
AcDbSymbolTable
 70
     1
100
AcDbDimStyleTable
 71
     0
  0
DIMSTYLE
105
27
330
A
100
AcDbSymbolTableRecord
100
AcDbDimStyleTableRecord
  2
Standard
 70
     0
340
11
  0
ENDTAB
  0
TABLE
  2
BLOCK_RECORD
  5
1
330
0
100
AcDbSymbolTable
 70
     7
  0
BLOCK_RECORD
  5
1F
102
{ACAD_XDICTIONARY
360
15D
102
}
330
1
100
AcDbSymbolTableRecord
100
AcDbBlockTableRecord
  2
*Model_Space
340
22
  0
BLOCK_RECORD
  5
58
102
{ACAD_XDICTIONARY
360
1F876
102
}
330
1
100
AcDbSymbolTableRecord
100
AcDbBlockTableRecord
  2
*Paper_Space
340
59
  0
BLOCK_RECORD
  5
5D
102
{ACAD_XDICTIONARY
360
1F878
102
}
330
1
100
AcDbSymbolTableRecord
100
AcDbBlockTableRecord
  2
*Paper_Space0
340
5E
  0
BLOCK_RECORD
  5
1F6A0
330
1
100
AcDbSymbolTableRecord
100
AcDbBlockTableRecord
  2
GSE960_200_4-Front
340
0
102
{BLKREFS
331
1F86C
102
}
  0
BLOCK_RECORD
  5
1F717
330
1
100
AcDbSymbolTableRecord
100
AcDbBlockTableRecord
  2
GSE960_200_4-Left
340
0
102
{BLKREFS
331
1F86D
102
}
  0
BLOCK_RECORD
  5
1F746
330
1
100
AcDbSymbolTableRecord
100
AcDbBlockTableRecord
  2
GSE960_200_4-Right
340
0
102
{BLKREFS
331
1F86E
102
}
  0
BLOCK_RECORD
  5
1F775
330
1
100
AcDbSymbolTableRecord
100
AcDbBlockTableRecord
  2
GSE960_200_4-Top
340
0
102
{BLKREFS
331
1F86F
102
}
  0
BLOCK_RECORD
  5
1F7A2
330
1
100
AcDbSymbolTableRecord
100
AcDbBlockTableRecord
  2
GSE960_200_4-Bottom
340
0
102
{BLKREFS
331
1F870
102
}
  0
BLOCK_RECORD
  5
1F7CD
330
1
100
AcDbSymbolTableRecord
100
AcDbBlockTableRecord
  2
GSE960_200_4-ISO
340
0
102
{BLKREFS
331
1F871
102
}
  0
ENDTAB
  0
ENDSEC
  0
SECTION
  2
BLOCKS
  0
BLOCK
  5
20
330
1F
100
AcDbEntity
  8
0
100
AcDbBlockBegin
  2
*Model_Space
 70
     0
 10
0.0
 20
0.0
 30
0.0
  3
*Model_Space
  1

  0
ENDBLK
  5
21
330
1F
100
AcDbEntity
  8
0
100
AcDbBlockEnd
  0
BLOCK
  5
5A
330
58
100
AcDbEntity
 67
     1
  8
0
100
AcDbBlockBegin
  2
*Paper_Space
 70
     0
 10
0.0
 20
0.0
 30
0.0
  3
*Paper_Space
  1

  0
ENDBLK
  5
5B
330
58
100
AcDbEntity
 67
     1
  8
0
100
AcDbBlockEnd
  0
BLOCK
  5
5F
330
5D
100
AcDbEntity
 67
     1
  8
0
100
AcDbBlockBegin
  2
*Paper_Space0
 70
     0
 10
0.0
 20
0.0
 30
0.0
  3
*Paper_Space0
  1

  0
ENDBLK
  5
60
330
5D
100
AcDbEntity
 67
     1
  8
0
100
AcDbBlockEnd
  0
BLOCK
  5
1F6A1
330
1F6A0
100
AcDbEntity
  8
0
100
AcDbBlockBegin
  2
GSE960_200_4-Front
 70
     0
 10
0.0
 20
0.0
 30
0.0
  3
GSE960_200_4-Front
  1

  0
CIRCLE
  5
1F6A3
330
1F6A0
100
AcDbEntity
  8
0
100
AcDbCircle
 10
-125.9999999999986
 20
80.00000000000042
 30
0.0
 40
6.5
  0
CIRCLE
  5
1F6A4
330
1F6A0
100
AcDbEntity
  8
0
100
AcDbCircle
 10
125.9999999999994
 20
79.99999999999786
 30
0.0
 40
6.5
  0
CIRCLE
  5
1F6A5
330
1F6A0
100
AcDbEntity
  8
0
100
AcDbCircle
 10
-125.9999999999986
 20
220.0000000000004
 30
0.0
 40
6.5
  0
CIRCLE
  5
1F6A6
330
1F6A0
100
AcDbEntity
  8
0
100
AcDbCircle
 10
125.9999999999994
 20
219.9999999999979
 30
0.0
 40
6.5
  0
CIRCLE
  5
1F6A7
330
1F6A0
100
AcDbEntity
  8
0
100
AcDbCircle
 10
138.0000000000779
 20
59.99999999999772
 30
0.0
 40
2.5
  0
CIRCLE
  5
1F6A8
330
1F6A0
100
AcDbEntity
  8
0
100
AcDbCircle
 10
-137.9999999999986
 20
60.00000000000049
 30
0.0
 40
2.5
  0
CIRCLE
  5
1F6A9
330
1F6A0
100
AcDbEntity
  8
0
100
AcDbCircle
 10
138.0000000000779
 20
79.99999999999772
 30
0.0
 40
2.5
  0
CIRCLE
  5
1F6AA
330
1F6A0
100
AcDbEntity
  8
0
100
AcDbCircle
 10
-137.9999999999986
 20
80.00000000000049
 30
0.0
 40
2.5
  0
CIRCLE
  5
1F6AB
330
1F6A0
100
AcDbEntity
  8
0
100
AcDbCircle
 10
138.0000000000779
 20
99.99999999999772
 30
0.0
 40
2.5
  0
CIRCLE
  5
1F6AC
330
1F6A0
100
AcDbEntity
  8
0
100
AcDbCircle
 10
-137.9999999999986
 20
100.0000000000005
 30
0.0
 40
2.5
  0
CIRCLE
  5
1F6AD
330
1F6A0
100
AcDbEntity
  8
0
100
AcDbCircle
 10
138.0000000000779
 20
119.9999999999977
 30
0.0
 40
2.5
  0
CIRCLE
  5
1F6AE
330
1F6A0
100
AcDbEntity
  8
0
100
AcDbCircle
 10
-137.9999999999986
 20
120.0000000000005
 30
0.0
 40
2.5
  0
CIRCLE
  5
1F6AF
330
1F6A0
100
AcDbEntity
  8
0
100
AcDbCircle
 10
138.0000000000779
 20
139.9999999999977
 30
0.0
 40
2.5
  0
CIRCLE
  5
1F6B0
330
1F6A0
100
AcDbEntity
  8
0
100
AcDbCircle
 10
-137.9999999999986
 20
140.0000000000005
 30
0.0
 40
2.5
  0
CIRCLE
  5
1F6B1
330
1F6A0
100
AcDbEntity
  8
0
100
AcDbCircle
 10
138.0000000000779
 20
159.9999999999977
 30
0.0
 40
2.5
  0
CIRCLE
  5
1F6B2
330
1F6A0
100
AcDbEntity
  8
0
100
AcDbCircle
 10
-137.9999999999986
 20
160.0000000000005
 30
0.0
 40
2.5
  0
CIRCLE
  5
1F6B3
330
1F6A0
100
AcDbEntity
  8
0
100
AcDbCircle
 10
138.0000000000779
 20
179.9999999999977
 30
0.0
 40
2.5
  0
CIRCLE
  5
1F6B4
330
1F6A0
100
AcDbEntity
  8
0
100
AcDbCircle
 10
-137.9999999999986
 20
180.0000000000005
 30
0.0
 40
2.5
  0
CIRCLE
  5
1F6B5
330
1F6A0
100
AcDbEntity
  8
0
100
AcDbCircle
 10
138.0000000000779
 20
199.9999999999977
 30
0.0
 40
2.5
  0
CIRCLE
  5
1F6B6
330
1F6A0
100
AcDbEntity
  8
0
100
AcDbCircle
 10
-137.9999999999986
 20
200.0000000000005
 30
0.0
 40
2.5
  0
CIRCLE
  5
1F6B7
330
1F6A0
100
AcDbEntity
  8
0
100
AcDbCircle
 10
138.0000000000779
 20
219.9999999999977
 30
0.0
 40
2.5
  0
CIRCLE
  5
1F6B8
330
1F6A0
100
AcDbEntity
  8
0
100
AcDbCircle
 10
-137.9999999999986
 20
220.0000000000005
 30
0.0
 40
2.5
  0
CIRCLE
  5
1F6B9
330
1F6A0
100
AcDbEntity
  8
0
100
AcDbCircle
 10
138.0000000000779
 20
239.9999999999977
 30
0.0
 40
2.5
  0
CIRCLE
  5
1F6BA
330
1F6A0
100
AcDbEntity
  8
0
100
AcDbCircle
 10
-137.9999999999986
 20
240.0000000000005
 30
0.0
 40
2.5
  0
CIRCLE
  5
1F6BB
330
1F6A0
100
AcDbEntity
  8
0
100
AcDbCircle
 10
138.0000000000779
 20
259.9999999999977
 30
0.0
 40
2.5
  0
CIRCLE
  5
1F6BC
330
1F6A0
100
AcDbEntity
  8
0
100
AcDbCircle
 10
-137.9999999999986
 20
260.0000000000005
 30
0.0
 40
2.5
  0
CIRCLE
  5
1F6BD
330
1F6A0
100
AcDbEntity
  8
0
100
AcDbCircle
 10
138.0000000000779
 20
279.9999999999977
 30
0.0
 40
2.5
  0
CIRCLE
  5
1F6BE
330
1F6A0
100
AcDbEntity
  8
0
100
AcDbCircle
 10
-137.9999999999986
 20
280.0000000000005
 30
0.0
 40
2.5
  0
CIRCLE
  5
1F6BF
330
1F6A0
100
AcDbEntity
  8
0
100
AcDbCircle
 10
138.0000000000779
 20
299.9999999999977
 30
0.0
 40
2.5
  0
CIRCLE
  5
1F6C0
330
1F6A0
100
AcDbEntity
  8
0
100
AcDbCircle
 10
-137.9999999999986
 20
300.0000000000005
 30
0.0
 40
2.5
  0
CIRCLE
  5
1F6C1
330
1F6A0
100
AcDbEntity
  8
0
100
AcDbCircle
 10
138.0000000000779
 20
319.9999999999977
 30
0.0
 40
2.5
  0
CIRCLE
  5
1F6C2
330
1F6A0
100
AcDbEntity
  8
0
100
AcDbCircle
 10
-137.9999999999986
 20
320.0000000000005
 30
0.0
 40
2.5
  0
CIRCLE
  5
1F6C3
330
1F6A0
100
AcDbEntity
  8
0
100
AcDbCircle
 10
138.0000000000779
 20
339.9999999999977
 30
0.0
 40
2.5
  0
CIRCLE
  5
1F6C4
330
1F6A0
100
AcDbEntity
  8
0
100
AcDbCircle
 10
-137.9999999999986
 20
340.0000000000005
 30
0.0
 40
2.5
  0
CIRCLE
  5
1F6C5
330
1F6A0
100
AcDbEntity
  8
0
100
AcDbCircle
 10
114.0000000000779
 20
29.99999999999787
 30
0.0
 40
2.5
  0
CIRCLE
  5
1F6C6
330
1F6A0
100
AcDbEntity
  8
0
100
AcDbCircle
 10
-113.9999999999984
 20
30.00000000000021
 30
0.0
 40
2.5
  0
CIRCLE
  5
1F6C7
330
1F6A0
100
AcDbEntity
  8
0
100
AcDbCircle
 10
114.0000000000779
 20
49.99999999999786
 30
0.0
 40
2.5
  0
CIRCLE
  5
1F6C8
330
1F6A0
100
AcDbEntity
  8
0
100
AcDbCircle
 10
-113.9999999999984
 20
50.00000000000021
 30
0.0
 40
2.5
  0
CIRCLE
  5
1F6C9
330
1F6A0
100
AcDbEntity
  8
0
100
AcDbCircle
 10
114.0000000000779
 20
69.99999999999786
 30
0.0
 40
2.5
  0
CIRCLE
  5
1F6CA
330
1F6A0
100
AcDbEntity
  8
0
100
AcDbCircle
 10
-113.9999999999984
 20
70.00000000000021
 30
0.0
 40
2.5
  0
CIRCLE
  5
1F6CB
330
1F6A0
100
AcDbEntity
  8
0
100
AcDbCircle
 10
114.0000000000779
 20
89.99999999999786
 30
0.0
 40
2.5
  0
CIRCLE
  5
1F6CC
330
1F6A0
100
AcDbEntity
  8
0
100
AcDbCircle
 10
-113.9999999999984
 20
90.00000000000021
 30
0.0
 40
2.5
  0
CIRCLE
  5
1F6CD
330
1F6A0
100
AcDbEntity
  8
0
100
AcDbCircle
 10
114.0000000000779
 20
109.9999999999979
 30
0.0
 40
2.5
  0
CIRCLE
  5
1F6CE
330
1F6A0
100
AcDbEntity
  8
0
100
AcDbCircle
 10
-113.9999999999984
 20
110.0000000000002
 30
0.0
 40
2.5
  0
CIRCLE
  5
1F6CF
330
1F6A0
100
AcDbEntity
  8
0
100
AcDbCircle
 10
114.0000000000779
 20
129.9999999999978
 30
0.0
 40
2.5
  0
CIRCLE
  5
1F6D0
330
1F6A0
100
AcDbEntity
  8
0
100
AcDbCircle
 10
-113.9999999999984
 20
130.0000000000002
 30
0.0
 40
2.5
  0
CIRCLE
  5
1F6D1
330
1F6A0
100
AcDbEntity
  8
0
100
AcDbCircle
 10
114.0000000000779
 20
149.9999999999978
 30
0.0
 40
2.5
  0
CIRCLE
  5
1F6D2
330
1F6A0
100
AcDbEntity
  8
0
100
AcDbCircle
 10
-113.9999999999984
 20
150.0000000000002
 30
0.0
 40
2.5
  0
CIRCLE
  5
1F6D3
330
1F6A0
100
AcDbEntity
  8
0
100
AcDbCircle
 10
114.0000000000779
 20
169.9999999999978
 30
0.0
 40
2.5
  0
CIRCLE
  5
1F6D4
330
1F6A0
100
AcDbEntity
  8
0
100
AcDbCircle
 10
-113.9999999999984
 20
170.0000000000002
 30
0.0
 40
2.5
  0
CIRCLE
  5
1F6D5
330
1F6A0
100
AcDbEntity
  8
0
100
AcDbCircle
 10
114.0000000000779
 20
189.9999999999979
 30
0.0
 40
2.5
  0
CIRCLE
  5
1F6D6
330
1F6A0
100
AcDbEntity
  8
0
100
AcDbCircle
 10
-113.9999999999984
 20
190.0000000000002
 30
0.0
 40
2.5
  0
CIRCLE
  5
1F6D7
330
1F6A0
100
AcDbEntity
  8
0
100
AcDbCircle
 10
114.0000000000779
 20
209.9999999999979
 30
0.0
 40
2.5
  0
CIRCLE
  5
1F6D8
330
1F6A0
100
AcDbEntity
  8
0
100
AcDbCircle
 10
-113.9999999999984
 20
210.0000000000002
 30
0.0
 40
2.5
  0
CIRCLE
  5
1F6D9
330
1F6A0
100
AcDbEntity
  8
0
100
AcDbCircle
 10
114.0000000000779
 20
229.9999999999979
 30
0.0
 40
2.5
  0
CIRCLE
  5
1F6DA
330
1F6A0
100
AcDbEntity
  8
0
100
AcDbCircle
 10
-113.9999999999984
 20
230.0000000000002
 30
0.0
 40
2.5
  0
CIRCLE
  5
1F6DB
330
1F6A0
100
AcDbEntity
  8
0
100
AcDbCircle
 10
114.0000000000779
 20
249.9999999999979
 30
0.0
 40
2.5
  0
CIRCLE
  5
1F6DC
330
1F6A0
100
AcDbEntity
  8
0
100
AcDbCircle
 10
-113.9999999999984
 20
250.0000000000002
 30
0.0
 40
2.5
  0
CIRCLE
  5
1F6DD
330
1F6A0
100
AcDbEntity
  8
0
100
AcDbCircle
 10
114.0000000000779
 20
269.9999999999978
 30
0.0
 40
2.5
  0
CIRCLE
  5
1F6DE
330
1F6A0
100
AcDbEntity
  8
0
100
AcDbCircle
 10
-113.9999999999984
 20
270.0000000000002
 30
0.0
 40
2.5
  0
CIRCLE
  5
1F6DF
330
1F6A0
100
AcDbEntity
  8
0
100
AcDbCircle
 10
114.0000000000779
 20
289.9999999999979
 30
0.0
 40
2.5
  0
CIRCLE
  5
1F6E0
330
1F6A0
100
AcDbEntity
  8
0
100
AcDbCircle
 10
-113.9999999999984
 20
290.0000000000002
 30
0.0
 40
2.5
  0
CIRCLE
  5
1F6E1
330
1F6A0
100
AcDbEntity
  8
0
100
AcDbCircle
 10
114.0000000000779
 20
309.9999999999978
 30
0.0
 40
2.5
  0
CIRCLE
  5
1F6E2
330
1F6A0
100
AcDbEntity
  8
0
100
AcDbCircle
 10
-113.9999999999984
 20
310.0000000000002
 30
0.0
 40
2.5
  0
CIRCLE
  5
1F6E3
330
1F6A0
100
AcDbEntity
  8
0
100
AcDbCircle
 10
114.0000000000779
 20
329.9999999999978
 30
0.0
 40
2.5
  0
CIRCLE
  5
1F6E4
330
1F6A0
100
AcDbEntity
  8
0
100
AcDbCircle
 10
-113.9999999999984
 20
330.0000000000002
 30
0.0
 40
2.5
  0
CIRCLE
  5
1F6E5
330
1F6A0
100
AcDbEntity
  8
0
100
AcDbCircle
 10
114.0000000000779
 20
349.9999999999979
 30
0.0
 40
2.5
  0
CIRCLE
  5
1F6E6
330
1F6A0
100
AcDbEntity
  8
0
100
AcDbCircle
 10
-113.9999999999984
 20
350.0000000000002
 30
0.0
 40
2.5
  0
CIRCLE
  5
1F6E7
330
1F6A0
100
AcDbEntity
  8
0
100
AcDbCircle
 10
138.0000000000779
 20
359.9999999999977
 30
0.0
 40
2.5
  0
CIRCLE
  5
1F6E8
330
1F6A0
100
AcDbEntity
  8
0
100
AcDbCircle
 10
-137.9999999999986
 20
360.0000000000005
 30
0.0
 40
2.5
  0
CIRCLE
  5
1F6E9
330
1F6A0
100
AcDbEntity
  8
0
100
AcDbCircle
 10
114.0000000000779
 20
369.9999999999978
 30
0.0
 40
2.5
  0
CIRCLE
  5
1F6EA
330
1F6A0
100
AcDbEntity
  8
0
100
AcDbCircle
 10
-113.9999999999984
 20
370.0000000000002
 30
0.0
 40
2.5
  0
CIRCLE
  5
1F6EB
330
1F6A0
100
AcDbEntity
  8
0
100
AcDbCircle
 10
-125.9999999999986
 20
360.0000000000004
 30
0.0
 40
6.5
  0
LINE
  5
1F6EC
330
1F6A0
100
AcDbEntity
  8
0
100
AcDbLine
 10
-96.78411760294915
 20
-3.9614797358748
 30
0.0
 11
-96.39205880147459
 21
0.0192601320626068
 31
0.0
  0
SPLINE
  5
1F6ED
330
1F6A0
100
AcDbEntity
  8
0
100
AcDbSpline
210
0.0
220
0.0
230
1.0
 70
     8
 71
     3
 72
     8
 73
     4
 74
     0
 42
0.000000001
 43
0.0000000001
 40
0.0
 40
0.0
 40
0.0
 40
0.0
 40
1.0
 40
1.0
 40
1.0
 40
1.0
 10
-96.39205880147459
 20
0.0192601320626068
 30
0.0
 10
-98.34610316803193
 20
0.2117118666135367
 30
0.0
 10
-100.0
 20
2.036501322484379
 30
0.0
 10
-100.0
 20
4.000000000000023
 30
0.0
  0
LINE
  5
1F6EE
330
1F6A0
100
AcDbEntity
  8
0
100
AcDbLine
 10
-101.0929400000009
 20
4.000000000000016
 30
0.0
 11
-100.0
 21
4.000000000000014
 31
0.0
  0
LINE
  5
1F6EF
330
1F6A0
100
AcDbEntity
  8
0
100
AcDbLine
 10
-104.0
 20
4.000000000000022
 30
0.0
 11
-101.0929400000009
 21
4.000000000000016
 31
0.0
  0
SPLINE
  5
1F6F0
330
1F6A0
100
AcDbEntity
  8
0
100
AcDbSpline
210
0.0
220
0.0
230
1.0
 70
     8
 71
     3
 72
     8
 73
     4
 74
     0
 42
0.000000001
 43
0.0000000001
 40
-1.0
 40
-1.0
 40
-1.0
 40
-1.0
 40
0.0
 40
0.0
 40
0.0
 40
0.0
 10
-104.0
 20
4.000000000000023
 30
0.0
 10
-104.0
 20
0.0730026449687399
 30
0.0
 10
-100.6922063360638
 20
-3.576576266772944
 30
0.0
 10
-96.78411760294915
 20
-3.9614797358748
 30
0.0
  0
LINE
  5
1F6F1
330
1F6A0
100
AcDbEntity
  8
0
100
AcDbLine
 10
-100.0
 20
4.000000000000014
 30
0.0
 11
-99.99999999999998
 21
42.99999999999996
 31
0.0
  0
LINE
  5
1F6F2
330
1F6A0
100
AcDbEntity
  8
0
100
AcDbLine
 10
-104.0
 20
42.99999999999997
 30
0.0
 11
-99.99999999999998
 21
42.99999999999996
 31
0.0
  0
LINE
  5
1F6F3
330
1F6A0
100
AcDbEntity
  8
0
100
AcDbLine
 10
-104.0
 20
42.99999999999997
 30
0.0
 11
-104.0
 21
4.000000000000021
 31
0.0
  0
LINE
  5
1F6F4
330
1F6A0
100
AcDbEntity
  8
0
100
AcDbLine
 10
-99.99999999999998
 20
42.99999999999996
 30
0.0
 11
-99.99999999999932
 21
380.0
 31
0.0
  0
LINE
  5
1F6F5
330
1F6A0
100
AcDbEntity
  8
0
100
AcDbLine
 10
-99.99999999999932
 20
380.0
 30
0.0
 11
-103.9999999999993
 21
380.0
 31
0.0
  0
LINE
  5
1F6F6
330
1F6A0
100
AcDbEntity
  8
0
100
AcDbLine
 10
-103.9999999999993
 20
380.0
 30
0.0
 11
-104.0
 21
42.99999999999997
 31
0.0
  0
LINE
  5
1F6F7
330
1F6A0
100
AcDbEntity
  8
0
100
AcDbLine
 10
-108.0000000000001
 20
4.999971444586801
 30
0.0
 11
-145.5
 21
42.49997144458703
 31
0.0
  0
SPLINE
  5
1F6F8
330
1F6A0
100
AcDbEntity
  8
0
100
AcDbSpline
210
0.0
220
0.0
230
1.0
 70
     8
 71
     3
 72
     8
 73
     4
 74
     0
 42
0.000000001
 43
0.0000000001
 40
-0.124996876740521
 40
-0.124996876740521
 40
-0.124996876740521
 40
-0.124996876740521
 40
0.0
 40
0.0
 40
0.0
 40
0.0
 10
-107.219657958893
 20
4.000000000000056
 30
0.0
 10
-107.4786776834631
 20
4.333323814861587
 30
0.0
 10
-107.7382071535403
 20
4.666647629724078
 30
0.0
 10
-108.0000000000001
 20
4.999971444586659
 30
0.0
  0
ARC
  5
1F6F9
330
1F6A0
100
AcDbEntity
  8
0
100
AcDbCircle
 10
-96.00000000000003
 20
3.9999999999998
 30
0.0
 40
3.999999999999782
100
AcDbArc
 50
264.3751404758755
 51
270.0
  0
LINE
  5
1F6FA
330
1F6A0
100
AcDbEntity
  8
0
100
AcDbLine
 10
-107.9999999999993
 20
380.0
 30
0.0
 11
-145.4999999999993
 21
380.0000000000001
 31
0.0
  0
LINE
  5
1F6FB
330
1F6A0
100
AcDbEntity
  8
0
100
AcDbLine
 10
-145.5
 20
42.49997144458703
 30
0.0
 11
-145.4999999999993
 21
380.0000000000001
 31
0.0
  0
LINE
  5
1F6FC
330
1F6A0
100
AcDbEntity
  8
0
100
AcDbLine
 10
-103.9999999999993
 20
380.0
 30
0.0
 11
-107.9999999999993
 21
380.0
 31
0.0
  0
ARC
  5
1F6FD
330
1F6A0
100
AcDbEntity
  8
0
100
AcDbCircle
 10
-96.00000000000006
 20
3.999999999999596
 30
0.0
 40
7.999999999999564
100
AcDbArc
 50
264.3751404758756
 51
270.0000000000001
  0
CIRCLE
  5
1F6FE
330
1F6A0
100
AcDbEntity
  8
0
100
AcDbCircle
 10
125.9999999999994
 20
359.9999999999978
 30
0.0
 40
6.5
  0
LINE
  5
1F6FF
330
1F6A0
100
AcDbEntity
  8
0
100
AcDbLine
 10
-107.219657958893
 20
4.000000000000055
 30
0.0
 11
-104.0
 21
4.000000000000049
 31
0.0
  0
SPLINE
  5
1F700
330
1F6A0
100
AcDbEntity
  8
0
100
AcDbSpline
210
0.0
220
0.0
230
1.0
 70
     8
 71
     3
 72
    17
 73
    13
 74
     0
 42
0.000000001
 43
0.0000000001
 40
-1.0
 40
-1.0
 40
-1.0
 40
-1.0
 40
-0.7987025995476812
 40
-0.7987025995476812
 40
-0.7987025995476812
 40
-0.3811602335541076
 40
-0.3811602335541076
 40
-0.3811602335541076
 40
-0.0932558951981921
 40
-0.0932558951981921
 40
-0.0932558951981921
 40
0.0
 40
0.0
 40
0.0
 40
0.0
 10
-96.78411760294908
 20
-3.961479735874826
 30
0.0
 10
-97.76540218069056
 20
-3.864843256363191
 30
0.0
 10
-98.68590336432459
 20
-3.638419973054949
 30
0.0
 10
-99.52220626547072
 20
-3.296460144393073
 30
0.0
 10
-101.256912681188
 20
-2.587147875017505
 30
0.0
 10
-102.6483300374098
 20
-1.432334261764609
 30
0.0
 10
-103.9240042669283
 20
-0.0660825811887375
 30
0.0
 10
-104.8036087691762
 20
0.8759769992513184
 30
0.0
 10
-105.6207269386045
 20
1.919922204217022
 30
0.0
 10
-106.4333309736711
 20
2.974793731167035
 30
0.0
 10
-106.6965438073663
 20
3.316480102155984
 30
0.0
 10
-106.9565641249176
 20
3.661735694255189
 30
0.0
 10
-107.2196579588903
 20
3.9999999999974
 30
0.0
  0
LINE
  5
1F701
330
1F6A0
100
AcDbEntity
  8
0
100
AcDbLine
 10
107.219657958893
 20
4.000000000000055
 30
0.0
 11
104.0
 21
4.000000000000049
 31
0.0
  0
SPLINE
  5
1F702
330
1F6A0
100
AcDbEntity
  8
0
100
AcDbSpline
210
0.0
220
0.0
230
1.0
 70
     8
 71
     3
 72
    17
 73
    13
 74
     0
 42
0.000000001
 43
0.0000000001
 40
-1.0
 40
-1.0
 40
-1.0
 40
-1.0
 40
-0.7987025995476812
 40
-0.7987025995476812
 40
-0.7987025995476812
 40
-0.3811602335541076
 40
-0.3811602335541076
 40
-0.3811602335541076
 40
-0.0932558951981921
 40
-0.0932558951981921
 40
-0.0932558951981921
 40
0.0
 40
0.0
 40
0.0
 40
0.0
 10
96.78411760294908
 20
-3.961479735874826
 30
0.0
 10
97.76540218069056
 20
-3.864843256363191
 30
0.0
 10
98.68590336432459
 20
-3.638419973054949
 30
0.0
 10
99.52220626547072
 20
-3.296460144393073
 30
0.0
 10
101.256912681188
 20
-2.587147875017505
 30
0.0
 10
102.6483300374098
 20
-1.432334261764609
 30
0.0
 10
103.9240042669283
 20
-0.0660825811887375
 30
0.0
 10
104.8036087691762
 20
0.8759769992513184
 30
0.0
 10
105.6207269386045
 20
1.919922204217022
 30
0.0
 10
106.4333309736711
 20
2.974793731167035
 30
0.0
 10
106.6965438073663
 20
3.316480102155984
 30
0.0
 10
106.9565641249176
 20
3.661735694255189
 30
0.0
 10
107.2196579588903
 20
3.9999999999974
 30
0.0
  0
LINE
  5
1F703
330
1F6A0
100
AcDbEntity
  8
0
100
AcDbLine
 10
-96.00000000000003
 20
0.0
 30
0.0
 11
96.00000000000003
 21
0.0
 31
0.0
  0
LINE
  5
1F704
330
1F6A0
100
AcDbEntity
  8
0
100
AcDbLine
 10
-96.00000000000003
 20
-3.999999999999968
 30
0.0
 11
96.00000000000003
 21
-3.999999999999968
 31
0.0
  0
LINE
  5
1F705
330
1F6A0
100
AcDbEntity
  8
0
100
AcDbLine
 10
96.78411760294915
 20
-3.9614797358748
 30
0.0
 11
96.39205880147459
 21
0.0192601320626068
 31
0.0
  0
SPLINE
  5
1F706
330
1F6A0
100
AcDbEntity
  8
0
100
AcDbSpline
210
0.0
220
0.0
230
1.0
 70
     8
 71
     3
 72
     8
 73
     4
 74
     0
 42
0.000000001
 43
0.0000000001
 40
-1.0
 40
-1.0
 40
-1.0
 40
-1.0
 40
0.0
 40
0.0
 40
0.0
 40
0.0
 10
104.0
 20
4.000000000000023
 30
0.0
 10
104.0
 20
0.0730026449687399
 30
0.0
 10
100.6922063360638
 20
-3.576576266772944
 30
0.0
 10
96.78411760294915
 20
-3.9614797358748
 30
0.0
  0
LINE
  5
1F707
330
1F6A0
100
AcDbEntity
  8
0
100
AcDbLine
 10
104.0
 20
4.000000000000022
 30
0.0
 11
101.0929400000009
 21
4.000000000000016
 31
0.0
  0
LINE
  5
1F708
330
1F6A0
100
AcDbEntity
  8
0
100
AcDbLine
 10
101.0929400000009
 20
4.000000000000016
 30
0.0
 11
100.0
 21
4.000000000000014
 31
0.0
  0
SPLINE
  5
1F709
330
1F6A0
100
AcDbEntity
  8
0
100
AcDbSpline
210
0.0
220
0.0
230
1.0
 70
     8
 71
     3
 72
     8
 73
     4
 74
     0
 42
0.000000001
 43
0.0000000001
 40
0.0
 40
0.0
 40
0.0
 40
0.0
 40
1.0
 40
1.0
 40
1.0
 40
1.0
 10
96.39205880147459
 20
0.0192601320626068
 30
0.0
 10
98.34610316803193
 20
0.2117118666135367
 30
0.0
 10
100.0
 20
2.036501322484379
 30
0.0
 10
100.0
 20
4.000000000000023
 30
0.0
  0
LINE
  5
1F70A
330
1F6A0
100
AcDbEntity
  8
0
100
AcDbLine
 10
100.0
 20
4.000000000000014
 30
0.0
 11
99.99999999999998
 21
42.99999999999996
 31
0.0
  0
LINE
  5
1F70B
330
1F6A0
100
AcDbEntity
  8
0
100
AcDbLine
 10
104.0
 20
42.99999999999997
 30
0.0
 11
104.0
 21
4.000000000000021
 31
0.0
  0
LINE
  5
1F70C
330
1F6A0
100
AcDbEntity
  8
0
100
AcDbLine
 10
104.0
 20
42.99999999999997
 30
0.0
 11
99.99999999999998
 21
42.99999999999996
 31
0.0
  0
LINE
  5
1F70D
330
1F6A0
100
AcDbEntity
  8
0
100
AcDbLine
 10
99.99999999999998
 20
42.99999999999996
 30
0.0
 11
99.99999999999932
 21
380.0
 31
0.0
  0
LINE
  5
1F70E
330
1F6A0
100
AcDbEntity
  8
0
100
AcDbLine
 10
103.9999999999993
 20
380.0
 30
0.0
 11
104.0
 21
42.99999999999997
 31
0.0
  0
LINE
  5
1F70F
330
1F6A0
100
AcDbEntity
  8
0
100
AcDbLine
 10
99.99999999999932
 20
380.0
 30
0.0
 11
103.9999999999993
 21
380.0
 31
0.0
  0
LINE
  5
1F710
330
1F6A0
100
AcDbEntity
  8
0
100
AcDbLine
 10
108.0000000000001
 20
4.999971444586801
 30
0.0
 11
145.5
 21
42.49997144458703
 31
0.0
  0
SPLINE
  5
1F711
330
1F6A0
100
AcDbEntity
  8
0
100
AcDbSpline
210
0.0
220
0.0
230
1.0
 70
     8
 71
     3
 72
     8
 73
     4
 74
     0
 42
0.000000001
 43
0.0000000001
 40
-0.124996876740521
 40
-0.124996876740521
 40
-0.124996876740521
 40
-0.124996876740521
 40
0.0
 40
0.0
 40
0.0
 40
0.0
 10
107.219657958893
 20
4.000000000000056
 30
0.0
 10
107.4786776834631
 20
4.333323814861587
 30
0.0
 10
107.7382071535403
 20
4.666647629724078
 30
0.0
 10
108.0000000000001
 20
4.999971444586659
 30
0.0
  0
ARC
  5
1F712
330
1F6A0
100
AcDbEntity
  8
0
100
AcDbCircle
 10
96.00000000000003
 20
3.9999999999998
 30
0.0
 40
3.999999999999782
100
AcDbArc
 50
270.0
 51
275.6248595241245
  0
ARC
  5
1F713
330
1F6A0
100
AcDbEntity
  8
0
100
AcDbCircle
 10
96.00000000000006
 20
3.999999999999596
 30
0.0
 40
7.999999999999564
100
AcDbArc
 50
269.9999999999999
 51
275.6248595241244
  0
LINE
  5
1F714
330
1F6A0
100
AcDbEntity
  8
0
100
AcDbLine
 10
145.5
 20
42.49997144458703
 30
0.0
 11
145.4999999999993
 21
380.0000000000001
 31
0.0
  0
LINE
  5
1F715
330
1F6A0
100
AcDbEntity
  8
0
100
AcDbLine
 10
107.9999999999993
 20
380.0
 30
0.0
 11
145.4999999999993
 21
380.0000000000001
 31
0.0
  0
LINE
  5
1F716
330
1F6A0
100
AcDbEntity
  8
0
100
AcDbLine
 10
103.9999999999993
 20
380.0
 30
0.0
 11
107.9999999999993
 21
380.0
 31
0.0
  0
ENDBLK
  5
1F6A2
330
1F6A0
100
AcDbEntity
  8
0
100
AcDbBlockEnd
  0
BLOCK
  5
1F718
330
1F717
100
AcDbEntity
  8
0
100
AcDbBlockBegin
  2
GSE960_200_4-Left
 70
     0
 10
0.0
 20
0.0
 30
0.0
  3
GSE960_200_4-Left
  1

  0
CIRCLE
  5
1F71A
330
1F717
100
AcDbEntity
  8
0
100
AcDbCircle
 10
61.50001428400003
 20
50.0
 30
0.0
 40
2.5
  0
CIRCLE
  5
1F71B
330
1F717
100
AcDbEntity
  8
0
100
AcDbCircle
 10
61.50001428400003
 20
70.0
 30
0.0
 40
2.5
  0
CIRCLE
  5
1F71C
330
1F717
100
AcDbEntity
  8
0
100
AcDbCircle
 10
61.50001428400003
 20
90.0
 30
0.0
 40
2.5
  0
CIRCLE
  5
1F71D
330
1F717
100
AcDbEntity
  8
0
100
AcDbCircle
 10
61.50001428400003
 20
110.0
 30
0.0
 40
2.5
  0
CIRCLE
  5
1F71E
330
1F717
100
AcDbEntity
  8
0
100
AcDbCircle
 10
61.50001428400003
 20
130.0
 30
0.0
 40
2.5
  0
CIRCLE
  5
1F71F
330
1F717
100
AcDbEntity
  8
0
100
AcDbCircle
 10
61.50001428400003
 20
150.0
 30
0.0
 40
2.5
  0
CIRCLE
  5
1F720
330
1F717
100
AcDbEntity
  8
0
100
AcDbCircle
 10
61.50001428400003
 20
170.0
 30
0.0
 40
2.5
  0
CIRCLE
  5
1F721
330
1F717
100
AcDbEntity
  8
0
100
AcDbCircle
 10
61.50001428400003
 20
190.0
 30
0.0
 40
2.5
  0
CIRCLE
  5
1F722
330
1F717
100
AcDbEntity
  8
0
100
AcDbCircle
 10
61.50001428400003
 20
210.0
 30
0.0
 40
2.5
  0
CIRCLE
  5
1F723
330
1F717
100
AcDbEntity
  8
0
100
AcDbCircle
 10
61.50001428400003
 20
230.0
 30
0.0
 40
2.5
  0
CIRCLE
  5
1F724
330
1F717
100
AcDbEntity
  8
0
100
AcDbCircle
 10
61.50001428400003
 20
250.0
 30
0.0
 40
2.5
  0
CIRCLE
  5
1F725
330
1F717
100
AcDbEntity
  8
0
100
AcDbCircle
 10
61.50001428400003
 20
270.0
 30
0.0
 40
2.5
  0
CIRCLE
  5
1F726
330
1F717
100
AcDbEntity
  8
0
100
AcDbCircle
 10
61.50001428400003
 20
290.0
 30
0.0
 40
2.5
  0
CIRCLE
  5
1F727
330
1F717
100
AcDbEntity
  8
0
100
AcDbCircle
 10
61.50001428400003
 20
310.0
 30
0.0
 40
2.5
  0
CIRCLE
  5
1F728
330
1F717
100
AcDbEntity
  8
0
100
AcDbCircle
 10
61.50001428400003
 20
330.0
 30
0.0
 40
2.5
  0
CIRCLE
  5
1F729
330
1F717
100
AcDbEntity
  8
0
100
AcDbCircle
 10
61.50001428400003
 20
350.0
 30
0.0
 40
2.5
  0
CIRCLE
  5
1F72A
330
1F717
100
AcDbEntity
  8
0
100
AcDbCircle
 10
61.50001428400003
 20
370.0
 30
0.0
 40
2.5
  0
LINE
  5
1F72B
330
1F717
100
AcDbEntity
  8
0
100
AcDbLine
 10
118.0
 20
-3.9614797358748
 30
0.0
 11
118.0
 21
0.0192601320626068
 31
0.0
  0
SPLINE
  5
1F72C
330
1F717
100
AcDbEntity
  8
0
100
AcDbSpline
210
0.0
220
0.0
230
1.0
 70
     8
 71
     3
 72
     8
 73
     4
 74
     0
 42
0.000000001
 43
0.0000000001
 40
0.0
 40
0.0
 40
0.0
 40
0.0
 40
1.0
 40
1.0
 40
1.0
 40
1.0
 10
117.9999999999999
 20
0.0192601320626068
 30
0.0
 10
115.5000047613317
 20
0.2117118666135367
 30
0.0
 10
113.000009522667
 20
2.036501322484379
 30
0.0
 10
110.5000142839999
 20
4.000000000000023
 30
0.0
  0
SPLINE
  5
1F72D
330
1F717
100
AcDbEntity
  8
0
100
AcDbSpline
210
0.0
220
0.0
230
1.0
 70
     8
 71
     3
 72
     8
 73
     4
 74
     0
 42
0.000000001
 43
0.0000000001
 40
-1.0
 40
-1.0
 40
-1.0
 40
-1.0
 40
0.0
 40
0.0
 40
0.0
 40
0.0
 10
110.5000142839999
 20
4.000000000000023
 30
0.0
 10
113.000009522667
 20
0.0730026449687399
 30
0.0
 10
115.5000047613317
 20
-3.576576266772944
 30
0.0
 10
117.9999999999999
 20
-3.9614797358748
 30
0.0
  0
LINE
  5
1F72E
330
1F717
100
AcDbEntity
  8
0
100
AcDbLine
 10
71.500014284
 20
42.99999999999997
 30
0.0
 11
110.5000142839999
 21
4.000000000000021
 31
0.0
  0
LINE
  5
1F72F
330
1F717
100
AcDbEntity
  8
0
100
AcDbLine
 10
71.50001428400003
 20
380.0
 30
0.0
 11
71.500014284
 21
42.99999999999997
 31
0.0
  0
LINE
  5
1F730
330
1F717
100
AcDbEntity
  8
0
100
AcDbLine
 10
0.0
 20
42.49997144458703
 30
0.0
 11
0.0
 21
4.999971444586801
 31
0.0
  0
LINE
  5
1F731
330
1F717
100
AcDbEntity
  8
0
100
AcDbLine
 10
2.907059999994466
 20
4.999971444586659
 30
0.0
 11
0.0
 21
4.999971444586801
 31
0.0
  0
LINE
  5
1F732
330
1F717
100
AcDbEntity
  8
0
100
AcDbLine
 10
3.999999999999968
 20
4.999971444586801
 30
0.0
 11
2.907059999994466
 21
4.999971444586659
 31
0.0
  0
LINE
  5
1F733
330
1F717
100
AcDbEntity
  8
0
100
AcDbLine
 10
3.999999999999968
 20
4.999971444586801
 30
0.0
 11
4.000000000000242
 21
42.49997144458703
 31
0.0
  0
LINE
  5
1F734
330
1F717
100
AcDbEntity
  8
0
100
AcDbLine
 10
4.000000000000242
 20
42.49997144458703
 30
0.0
 11
0.0
 21
42.49997144458703
 31
0.0
  0
SPLINE
  5
1F735
330
1F717
100
AcDbEntity
  8
0
100
AcDbSpline
210
0.0
220
0.0
230
1.0
 70
     8
 71
     3
 72
     8
 73
     4
 74
     0
 42
0.000000001
 43
0.0000000001
 40
-0.124996876740521
 40
-0.124996876740521
 40
-0.124996876740521
 40
-0.124996876740521
 40
0.0
 40
0.0
 40
0.0
 40
0.0
 10
4.076855049978257
 20
4.000000000000056
 30
0.0
 10
4.029230776354309
 20
4.333323814861587
 30
0.0
 10
3.999999999999969
 20
4.666647629724078
 30
0.0
 10
3.999999999999968
 20
4.999971444586659
 30
0.0
  0
SPLINE
  5
1F736
330
1F717
100
AcDbEntity
  8
0
100
AcDbSpline
210
0.0
220
0.0
230
1.0
 70
     8
 71
     3
 72
     8
 73
     4
 74
     0
 42
0.000000001
 43
0.0000000001
 40
0.0
 40
0.0
 40
0.0
 40
0.0
 40
0.124996876740521
 40
0.124996876740521
 40
0.124996876740521
 40
0.124996876740521
 10
-0.0000000000000311
 20
4.999971444586659
 30
0.0
 10
-0.0000000000000314
 20
4.666647629724077
 30
0.0
 10
0.0584615527086483
 20
4.333323814861586
 30
0.0
 10
0.1537100999565455
 20
4.000000000000055
 30
0.0
  0
LINE
  5
1F737
330
1F717
100
AcDbEntity
  8
0
100
AcDbLine
 10
4.000000000000242
 20
42.49997144458703
 30
0.0
 11
3.999999999999968
 21
380.0000000000001
 31
0.0
  0
LINE
  5
1F738
330
1F717
100
AcDbEntity
  8
0
100
AcDbLine
 10
3.999999999999968
 20
380.0000000000001
 30
0.0
 11
0.0
 21
380.0000000000001
 31
0.0
  0
LINE
  5
1F739
330
1F717
100
AcDbEntity
  8
0
100
AcDbLine
 10
8.000000000000005
 20
380.0
 30
0.0
 11
3.999999999999994
 21
380.0
 31
0.0
  0
LINE
  5
1F73A
330
1F717
100
AcDbEntity
  8
0
100
AcDbLine
 10
0.0
 20
42.49997144458703
 30
0.0
 11
0.0
 21
380.0000000000001
 31
0.0
  0
LINE
  5
1F73B
330
1F717
100
AcDbEntity
  8
0
100
AcDbLine
 10
8.000000000000007
 20
-3.961479735874815
 30
0.0
 11
8.000000000000007
 21
-3.999999999999996
 31
0.0
  0
LINE
  5
1F73C
330
1F717
100
AcDbEntity
  8
0
100
AcDbLine
 10
118.0
 20
-3.999999999999968
 30
0.0
 11
8.000000000000007
 21
-3.999999999999985
 31
0.0
  0
LINE
  5
1F73D
330
1F717
100
AcDbEntity
  8
0
100
AcDbLine
 10
118.0
 20
-3.961479735874783
 30
0.0
 11
118.0
 21
-3.999999999999968
 31
0.0
  0
LINE
  5
1F73E
330
1F717
100
AcDbEntity
  8
0
100
AcDbLine
 10
71.50001428400003
 20
380.0
 30
0.0
 11
8.000000000000007
 21
380.0
 31
0.0
  0
LINE
  5
1F73F
330
1F717
100
AcDbEntity
  8
0
100
AcDbLine
 10
4.076855049978276
 20
4.000000000000055
 30
0.0
 11
8.000000000000005
 21
4.000000000000049
 31
0.0
  0
SPLINE
  5
1F740
330
1F717
100
AcDbEntity
  8
0
100
AcDbSpline
210
0.0
220
0.0
230
1.0
 70
     8
 71
     3
 72
    17
 73
    13
 74
     0
 42
0.000000001
 43
0.0000000001
 40
-1.0
 40
-1.0
 40
-1.0
 40
-1.0
 40
-0.7987025995476812
 40
-0.7987025995476812
 40
-0.7987025995476812
 40
-0.3811602335541076
 40
-0.3811602335541076
 40
-0.3811602335541076
 40
-0.0932558951981921
 40
-0.0932558951981921
 40
-0.0932558951981921
 40
0.0
 40
0.0
 40
0.0
 40
0.0
 10
7.999999999999976
 20
-3.961479735874826
 30
0.0
 10
7.996785710433736
 20
-3.864843256363191
 30
0.0
 10
7.865318102313323
 20
-3.638419973054949
 30
0.0
 10
7.642039859799703
 20
-3.296460144393073
 30
0.0
 10
7.17890359751048
 20
-2.587147875017505
 30
0.0
 10
6.350931229310535
 20
-1.432334261764609
 30
0.0
 10
5.597617724134046
 20
-0.0660825811887375
 30
0.0
 10
5.078192046774756
 20
0.8759769992513184
 30
0.0
 10
4.598123756126033
 20
1.919922204217022
 30
0.0
 10
4.300736303772262
 20
2.974793731167035
 30
0.0
 10
4.204408706736623
 20
3.316480102155984
 30
0.0
 10
4.130688291168516
 20
3.661735694255189
 30
0.0
 10
4.076855049975697
 20
3.9999999999974
 30
0.0
  0
LINE
  5
1F741
330
1F717
100
AcDbEntity
  8
0
100
AcDbLine
 10
8.000000000000007
 20
4.00000000000002
 30
0.0
 11
8.000000000000007
 21
-3.961479735874815
 31
0.0
  0
SPLINE
  5
1F742
330
1F717
100
AcDbEntity
  8
0
100
AcDbSpline
210
0.0
220
0.0
230
1.0
 70
     8
 71
     3
 72
    11
 73
     7
 74
     0
 42
0.000000001
 43
0.0000000001
 40
0.0
 40
0.0
 40
0.0
 40
0.0
 40
0.1579095663827872
 40
0.1579095663827872
 40
0.1579095663827872
 40
0.3007094851249675
 40
0.3007094851249675
 40
0.3007094851249675
 40
0.3007094851249675
 10
0.153710099956547
 20
4.00000000000006
 30
0.0
 10
0.2741847043207739
 20
3.603088925919259
 30
0.0
 10
0.5469653196103496
 20
3.239411805340799
 30
0.0
 10
0.9332959893116257
 20
2.913201666972624
 30
0.0
 10
1.282660435713955
 20
2.618205091914403
 30
0.0
 10
1.717717712111209
 20
2.35124625321815
 30
0.0
 10
2.198740928020805
 20
2.109579616414284
 30
0.0
  0
LINE
  5
1F743
330
1F717
100
AcDbEntity
  8
0
100
AcDbLine
 10
0.1537100999565616
 20
4.000000000000055
 30
0.0
 11
4.076855049978257
 21
4.000000000000056
 31
0.0
  0
SPLINE
  5
1F744
330
1F717
100
AcDbEntity
  8
0
100
AcDbSpline
210
0.0
220
0.0
230
1.0
 70
     8
 71
     3
 72
     8
 73
     4
 74
     0
 42
0.000000001
 43
0.0000000001
 40
0.5603583378970969
 40
0.5603583378970969
 40
0.5603583378970969
 40
0.5603583378970969
 40
0.5604244029738847
 40
0.5604244029738847
 40
0.5604244029738847
 40
0.5604244029738847
 10
5.03972248592883
 20
1.025685479751053
 30
0.0
 10
5.039961596708639
 20
1.025612027396724
 30
0.0
 10
5.040200701866075
 20
1.025538579387354
 30
0.0
 10
5.040439801397203
 20
1.025465135722671
 30
0.0
  0
SPLINE
  5
1F745
330
1F717
100
AcDbEntity
  8
0
100
AcDbSpline
210
0.0
220
0.0
230
1.0
 70
     8
 71
     3
 72
    12
 73
     8
 74
     0
 42
0.000000001
 43
0.0000000001
 40
0.0071072134151171
 40
0.0071072134151171
 40
0.0071072134151171
 40
0.0071072134151171
 40
0.2513267432641455
 40
0.2513267432641455
 40
0.4956045595744568
 40
0.4956045595744568
 40
0.5886239138918607
 40
0.5886239138918607
 40
0.5886239138918607
 40
0.5886239138918607
 10
6.479751731106219
 20
-1.54219978534222
 30
0.0
 10
6.067280810636718
 20
-0.9082529958907443
 30
0.0
 10
5.553099674821785
 20
-0.2850413602532659
 30
0.0
 10
4.375486372128719
 20
0.8006148447999395
 30
0.0
 10
3.705032841691443
 20
1.272753290830359
 30
0.0
 10
2.739494313775337
 20
1.829563089102426
 30
0.0
 10
2.468319252244797
 20
1.974253254807578
 30
0.0
 10
2.194864707807838
 20
2.111911511970227
 30
0.0
  0
ENDBLK
  5
1F719
330
1F717
100
AcDbEntity
  8
0
100
AcDbBlockEnd
  0
BLOCK
  5
1F747
330
1F746
100
AcDbEntity
  8
0
100
AcDbBlockBegin
  2
GSE960_200_4-Right
 70
     0
 10
0.0
 20
0.0
 30
0.0
  3
GSE960_200_4-Right
  1

  0
CIRCLE
  5
1F749
330
1F746
100
AcDbEntity
  8
0
100
AcDbCircle
 10
-61.50001428400003
 20
40.0
 30
0.0
 40
2.5
  0
CIRCLE
  5
1F74A
330
1F746
100
AcDbEntity
  8
0
100
AcDbCircle
 10
-61.50001428400003
 20
60.0
 30
0.0
 40
2.5
  0
CIRCLE
  5
1F74B
330
1F746
100
AcDbEntity
  8
0
100
AcDbCircle
 10
-61.50001428400003
 20
80.0
 30
0.0
 40
2.5
  0
CIRCLE
  5
1F74C
330
1F746
100
AcDbEntity
  8
0
100
AcDbCircle
 10
-61.50001428400003
 20
100.0
 30
0.0
 40
2.5
  0
CIRCLE
  5
1F74D
330
1F746
100
AcDbEntity
  8
0
100
AcDbCircle
 10
-61.50001428400003
 20
120.0
 30
0.0
 40
2.5
  0
CIRCLE
  5
1F74E
330
1F746
100
AcDbEntity
  8
0
100
AcDbCircle
 10
-61.50001428400003
 20
140.0
 30
0.0
 40
2.5
  0
CIRCLE
  5
1F74F
330
1F746
100
AcDbEntity
  8
0
100
AcDbCircle
 10
-61.50001428400003
 20
160.0
 30
0.0
 40
2.5
  0
CIRCLE
  5
1F750
330
1F746
100
AcDbEntity
  8
0
100
AcDbCircle
 10
-61.50001428400003
 20
180.0
 30
0.0
 40
2.5
  0
CIRCLE
  5
1F751
330
1F746
100
AcDbEntity
  8
0
100
AcDbCircle
 10
-61.50001428400003
 20
200.0
 30
0.0
 40
2.5
  0
CIRCLE
  5
1F752
330
1F746
100
AcDbEntity
  8
0
100
AcDbCircle
 10
-61.50001428400003
 20
220.0
 30
0.0
 40
2.5
  0
CIRCLE
  5
1F753
330
1F746
100
AcDbEntity
  8
0
100
AcDbCircle
 10
-61.50001428400003
 20
240.0
 30
0.0
 40
2.5
  0
CIRCLE
  5
1F754
330
1F746
100
AcDbEntity
  8
0
100
AcDbCircle
 10
-61.50001428400003
 20
260.0
 30
0.0
 40
2.5
  0
CIRCLE
  5
1F755
330
1F746
100
AcDbEntity
  8
0
100
AcDbCircle
 10
-61.50001428400003
 20
280.0
 30
0.0
 40
2.5
  0
CIRCLE
  5
1F756
330
1F746
100
AcDbEntity
  8
0
100
AcDbCircle
 10
-61.50001428400003
 20
300.0
 30
0.0
 40
2.5
  0
CIRCLE
  5
1F757
330
1F746
100
AcDbEntity
  8
0
100
AcDbCircle
 10
-61.50001428400003
 20
320.0
 30
0.0
 40
2.5
  0
CIRCLE
  5
1F758
330
1F746
100
AcDbEntity
  8
0
100
AcDbCircle
 10
-61.50001428400003
 20
340.0
 30
0.0
 40
2.5
  0
CIRCLE
  5
1F759
330
1F746
100
AcDbEntity
  8
0
100
AcDbCircle
 10
-61.50001428400003
 20
360.0
 30
0.0
 40
2.5
  0
SPLINE
  5
1F75A
330
1F746
100
AcDbEntity
  8
0
100
AcDbSpline
210
0.0
220
0.0
230
1.0
 70
     8
 71
     3
 72
     8
 73
     4
 74
     0
 42
0.000000001
 43
0.0000000001
 40
0.5603583378970969
 40
0.5603583378970969
 40
0.5603583378970969
 40
0.5603583378970969
 40
0.5604244029738847
 40
0.5604244029738847
 40
0.5604244029738847
 40
0.5604244029738847
 10
-5.03972248592883
 20
1.025685479751053
 30
0.0
 10
-5.039961596708639
 20
1.025612027396724
 30
0.0
 10
-5.040200701866075
 20
1.025538579387354
 30
0.0
 10
-5.040439801397203
 20
1.025465135722671
 30
0.0
  0
LINE
  5
1F75B
330
1F746
100
AcDbEntity
  8
0
100
AcDbLine
 10
-4.076855049978276
 20
4.000000000000055
 30
0.0
 11
-8.000000000000005
 21
4.000000000000049
 31
0.0
  0
LINE
  5
1F75C
330
1F746
100
AcDbEntity
  8
0
100
AcDbLine
 10
-8.000000000000007
 20
4.00000000000002
 30
0.0
 11
-8.000000000000007
 21
-3.961479735874815
 31
0.0
  0
SPLINE
  5
1F75D
330
1F746
100
AcDbEntity
  8
0
100
AcDbSpline
210
0.0
220
0.0
230
1.0
 70
     8
 71
     3
 72
    17
 73
    13
 74
     0
 42
0.000000001
 43
0.0000000001
 40
-1.0
 40
-1.0
 40
-1.0
 40
-1.0
 40
-0.7987025995476812
 40
-0.7987025995476812
 40
-0.7987025995476812
 40
-0.3811602335541076
 40
-0.3811602335541076
 40
-0.3811602335541076
 40
-0.0932558951981921
 40
-0.0932558951981921
 40
-0.0932558951981921
 40
0.0
 40
0.0
 40
0.0
 40
0.0
 10
-7.999999999999976
 20
-3.961479735874826
 30
0.0
 10
-7.996785710433736
 20
-3.864843256363191
 30
0.0
 10
-7.865318102313323
 20
-3.638419973054949
 30
0.0
 10
-7.642039859799703
 20
-3.296460144393073
 30
0.0
 10
-7.17890359751048
 20
-2.587147875017505
 30
0.0
 10
-6.350931229310535
 20
-1.432334261764609
 30
0.0
 10
-5.597617724134046
 20
-0.0660825811887375
 30
0.0
 10
-5.078192046774756
 20
0.8759769992513184
 30
0.0
 10
-4.598123756126033
 20
1.919922204217022
 30
0.0
 10
-4.300736303772262
 20
2.974793731167035
 30
0.0
 10
-4.204408706736623
 20
3.316480102155984
 30
0.0
 10
-4.130688291168516
 20
3.661735694255189
 30
0.0
 10
-4.076855049975697
 20
3.9999999999974
 30
0.0
  0
SPLINE
  5
1F75E
330
1F746
100
AcDbEntity
  8
0
100
AcDbSpline
210
0.0
220
0.0
230
1.0
 70
     8
 71
     3
 72
    11
 73
     7
 74
     0
 42
0.000000001
 43
0.0000000001
 40
0.0
 40
0.0
 40
0.0
 40
0.0
 40
0.1579095663827872
 40
0.1579095663827872
 40
0.1579095663827872
 40
0.3007094851249657
 40
0.3007094851249657
 40
0.3007094851249657
 40
0.3007094851249657
 10
-0.153710099956547
 20
4.00000000000006
 30
0.0
 10
-0.2741847043207739
 20
3.603088925919259
 30
0.0
 10
-0.5469653196103496
 20
3.239411805340799
 30
0.0
 10
-0.9332959893116257
 20
2.913201666972624
 30
0.0
 10
-1.28266043571395
 20
2.618205091914407
 30
0.0
 10
-1.717717712111199
 20
2.351246253218157
 30
0.0
 10
-2.198740928020787
 20
2.109579616414293
 30
0.0
  0
LINE
  5
1F75F
330
1F746
100
AcDbEntity
  8
0
100
AcDbLine
 10
-0.1537100999565616
 20
4.000000000000055
 30
0.0
 11
-4.076855049978257
 21
4.000000000000056
 31
0.0
  0
SPLINE
  5
1F760
330
1F746
100
AcDbEntity
  8
0
100
AcDbSpline
210
0.0
220
0.0
230
1.0
 70
     8
 71
     3
 72
    12
 73
     8
 74
     0
 42
0.000000001
 43
0.0000000001
 40
0.0
 40
0.0
 40
0.0
 40
0.0
 40
0.2457235345974083
 40
0.2457235345974083
 40
0.4138426732199174
 40
0.4138426732199174
 40
0.5821548660888169
 40
0.5821548660888169
 40
0.5821548660888169
 40
0.5821548660888169
 10
-2.194864707807828
 20
2.111911511970232
 30
0.0
 10
-2.917232839730675
 20
1.748268120067259
 30
0.0
 10
-3.626082707904771
 20
1.331660100104602
 30
0.0
 10
-4.711404207750615
 20
0.5028633464705253
 30
0.0
 10
-5.124902202516437
 20
0.1285295127390438
 30
0.0
 10
-5.865226896756729
 20
-0.6737498267727902
 30
0.0
 10
-6.195527107038085
 20
-1.105343803372394
 30
0.0
 10
-6.479761318818039
 20
-1.5421973052025
 30
0.0
  0
LINE
  5
1F761
330
1F746
100
AcDbEntity
  8
0
100
AcDbLine
 10
-118.0
 20
-3.9614797358748
 30
0.0
 11
-118.0
 21
0.0192601320626068
 31
0.0
  0
SPLINE
  5
1F762
330
1F746
100
AcDbEntity
  8
0
100
AcDbSpline
210
0.0
220
0.0
230
1.0
 70
     8
 71
     3
 72
     8
 73
     4
 74
     0
 42
0.000000001
 43
0.0000000001
 40
-1.0
 40
-1.0
 40
-1.0
 40
-1.0
 40
0.0
 40
0.0
 40
0.0
 40
0.0
 10
-110.5000142839999
 20
4.000000000000023
 30
0.0
 10
-113.000009522667
 20
0.0730026449687399
 30
0.0
 10
-115.5000047613317
 20
-3.576576266772944
 30
0.0
 10
-117.9999999999999
 20
-3.9614797358748
 30
0.0
  0
SPLINE
  5
1F763
330
1F746
100
AcDbEntity
  8
0
100
AcDbSpline
210
0.0
220
0.0
230
1.0
 70
     8
 71
     3
 72
     8
 73
     4
 74
     0
 42
0.000000001
 43
0.0000000001
 40
0.0
 40
0.0
 40
0.0
 40
0.0
 40
1.0
 40
1.0
 40
1.0
 40
1.0
 10
-117.9999999999999
 20
0.0192601320626068
 30
0.0
 10
-115.5000047613317
 20
0.2117118666135367
 30
0.0
 10
-113.000009522667
 20
2.036501322484379
 30
0.0
 10
-110.5000142839999
 20
4.000000000000023
 30
0.0
  0
LINE
  5
1F764
330
1F746
100
AcDbEntity
  8
0
100
AcDbLine
 10
-71.500014284
 20
42.99999999999997
 30
0.0
 11
-110.5000142839999
 21
4.000000000000021
 31
0.0
  0
LINE
  5
1F765
330
1F746
100
AcDbEntity
  8
0
100
AcDbLine
 10
-71.50001428400003
 20
380.0
 30
0.0
 11
-71.500014284
 21
42.99999999999997
 31
0.0
  0
LINE
  5
1F766
330
1F746
100
AcDbEntity
  8
0
100
AcDbLine
 10
0.0
 20
42.49997144458703
 30
0.0
 11
0.0
 21
4.999971444586801
 31
0.0
  0
LINE
  5
1F767
330
1F746
100
AcDbEntity
  8
0
100
AcDbLine
 10
-4.000000000000242
 20
42.49997144458703
 30
0.0
 11
0.0
 21
42.49997144458703
 31
0.0
  0
LINE
  5
1F768
330
1F746
100
AcDbEntity
  8
0
100
AcDbLine
 10
-3.999999999999968
 20
4.999971444586801
 30
0.0
 11
-4.000000000000242
 21
42.49997144458703
 31
0.0
  0
LINE
  5
1F769
330
1F746
100
AcDbEntity
  8
0
100
AcDbLine
 10
-3.999999999999968
 20
4.999971444586801
 30
0.0
 11
-2.907059999994466
 21
4.999971444586659
 31
0.0
  0
LINE
  5
1F76A
330
1F746
100
AcDbEntity
  8
0
100
AcDbLine
 10
-2.907059999994466
 20
4.999971444586659
 30
0.0
 11
0.0
 21
4.999971444586801
 31
0.0
  0
SPLINE
  5
1F76B
330
1F746
100
AcDbEntity
  8
0
100
AcDbSpline
210
0.0
220
0.0
230
1.0
 70
     8
 71
     3
 72
     8
 73
     4
 74
     0
 42
0.000000001
 43
0.0000000001
 40
0.0
 40
0.0
 40
0.0
 40
0.0
 40
0.124996876740521
 40
0.124996876740521
 40
0.124996876740521
 40
0.124996876740521
 10
0.0000000000000311
 20
4.999971444586659
 30
0.0
 10
0.0000000000000314
 20
4.666647629724077
 30
0.0
 10
-0.0584615527086483
 20
4.333323814861586
 30
0.0
 10
-0.1537100999565455
 20
4.000000000000055
 30
0.0
  0
SPLINE
  5
1F76C
330
1F746
100
AcDbEntity
  8
0
100
AcDbSpline
210
0.0
220
0.0
230
1.0
 70
     8
 71
     3
 72
     8
 73
     4
 74
     0
 42
0.000000001
 43
0.0000000001
 40
-0.124996876740521
 40
-0.124996876740521
 40
-0.124996876740521
 40
-0.124996876740521
 40
0.0
 40
0.0
 40
0.0
 40
0.0
 10
-4.076855049978257
 20
4.000000000000056
 30
0.0
 10
-4.029230776354309
 20
4.333323814861587
 30
0.0
 10
-3.999999999999969
 20
4.666647629724078
 30
0.0
 10
-3.999999999999968
 20
4.999971444586659
 30
0.0
  0
LINE
  5
1F76D
330
1F746
100
AcDbEntity
  8
0
100
AcDbLine
 10
-4.000000000000242
 20
42.49997144458703
 30
0.0
 11
-3.999999999999968
 21
380.0000000000001
 31
0.0
  0
LINE
  5
1F76E
330
1F746
100
AcDbEntity
  8
0
100
AcDbLine
 10
-3.999999999999968
 20
380.0000000000001
 30
0.0
 11
0.0
 21
380.0000000000001
 31
0.0
  0
LINE
  5
1F76F
330
1F746
100
AcDbEntity
  8
0
100
AcDbLine
 10
0.0
 20
42.49997144458703
 30
0.0
 11
0.0
 21
380.0000000000001
 31
0.0
  0
LINE
  5
1F770
330
1F746
100
AcDbEntity
  8
0
100
AcDbLine
 10
-118.0
 20
-3.999999999999968
 30
0.0
 11
-8.000000000000007
 21
-3.999999999999985
 31
0.0
  0
LINE
  5
1F771
330
1F746
100
AcDbEntity
  8
0
100
AcDbLine
 10
-118.0
 20
-3.961479735874783
 30
0.0
 11
-118.0
 21
-3.999999999999968
 31
0.0
  0
LINE
  5
1F772
330
1F746
100
AcDbEntity
  8
0
100
AcDbLine
 10
-8.000000000000005
 20
380.0
 30
0.0
 11
-3.999999999999994
 21
380.0
 31
0.0
  0
LINE
  5
1F773
330
1F746
100
AcDbEntity
  8
0
100
AcDbLine
 10
-8.000000000000007
 20
-3.961479735874815
 30
0.0
 11
-8.000000000000007
 21
-3.999999999999996
 31
0.0
  0
LINE
  5
1F774
330
1F746
100
AcDbEntity
  8
0
100
AcDbLine
 10
-71.50001428400003
 20
380.0
 30
0.0
 11
-8.000000000000007
 21
380.0
 31
0.0
  0
ENDBLK
  5
1F748
330
1F746
100
AcDbEntity
  8
0
100
AcDbBlockEnd
  0
BLOCK
  5
1F776
330
1F775
100
AcDbEntity
  8
0
100
AcDbBlockBegin
  2
GSE960_200_4-Top
 70
     0
 10
0.0
 20
0.0
 30
0.0
  3
GSE960_200_4-Top
  1

  0
CIRCLE
  5
1F778
330
1F775
100
AcDbEntity
  8
0
100
AcDbCircle
 10
0.0
 20
-66.0
 30
0.0
 40
2.5
  0
CIRCLE
  5
1F779
330
1F775
100
AcDbEntity
  8
0
100
AcDbCircle
 10
0.0
 20
-106.0
 30
0.0
 40
2.5
  0
SPLINE
  5
1F77A
330
1F775
100
AcDbEntity
  8
0
100
AcDbSpline
210
0.0
220
0.0
230
1.0
 70
     8
 71
     3
 72
    11
 73
     7
 74
     0
 42
0.000000001
 43
0.0000000001
 40
0.6802286889198235
 40
0.6802286889198235
 40
0.6802286889198235
 40
0.6802286889198235
 40
0.8298827852155699
 40
0.8298827852155699
 40
0.8298827852155699
 40
1.0
 40
1.0
 40
1.0
 40
1.0
 10
-100.1872826646457
 20
-6.268745290678272
 30
0.0
 10
-99.7067995639211
 20
-6.741028717225598
 30
0.0
 10
-99.1878204811608
 20
-7.151935687885115
 30
0.0
 10
-98.60999463107567
 20
-7.454337515965968
 30
0.0
 10
-97.95315912386261
 20
-7.798088592696749
 30
0.0
 10
-97.2478174228757
 20
-7.989807074032167
 30
0.0
 10
-96.39205880146469
 20
-8.000000000000293
 30
0.0
  0
LINE
  5
1F77B
330
1F775
100
AcDbEntity
  8
0
100
AcDbLine
 10
-100.0
 20
-8.000000000000007
 30
0.0
 11
-96.39205880147457
 21
-8.000000000000007
 31
0.0
  0
SPLINE
  5
1F77C
330
1F775
100
AcDbEntity
  8
0
100
AcDbSpline
210
0.0
220
0.0
230
1.0
 70
     8
 71
     3
 72
    11
 73
     7
 74
     0
 42
0.000000001
 43
0.0000000001
 40
0.6802286889198235
 40
0.6802286889198235
 40
0.6802286889198235
 40
0.6802286889198235
 40
0.8298827852155699
 40
0.8298827852155699
 40
0.8298827852155699
 40
1.0
 40
1.0
 40
1.0
 40
1.0
 10
100.1872826646457
 20
-6.268745290678272
 30
0.0
 10
99.7067995639211
 20
-6.741028717225598
 30
0.0
 10
99.1878204811608
 20
-7.151935687885115
 30
0.0
 10
98.60999463107567
 20
-7.454337515965968
 30
0.0
 10
97.95315912386261
 20
-7.798088592696749
 30
0.0
 10
97.2478174228757
 20
-7.989807074032167
 30
0.0
 10
96.39205880146469
 20
-8.000000000000293
 30
0.0
  0
LINE
  5
1F77D
330
1F775
100
AcDbEntity
  8
0
100
AcDbLine
 10
100.0
 20
-8.000000000000007
 30
0.0
 11
96.39205880147457
 21
-8.000000000000007
 31
0.0
  0
LINE
  5
1F77E
330
1F775
100
AcDbEntity
  8
0
100
AcDbLine
 10
-96.78411760294915
 20
-118.0
 30
0.0
 11
-96.39205880147459
 21
-118.0
 31
0.0
  0
SPLINE
  5
1F77F
330
1F775
100
AcDbEntity
  8
0
100
AcDbSpline
210
0.0
220
0.0
230
1.0
 70
     8
 71
     3
 72
     8
 73
     4
 74
     0
 42
0.000000001
 43
0.0000000001
 40
0.0
 40
0.0
 40
0.0
 40
0.0
 40
1.0
 40
1.0
 40
1.0
 40
1.0
 10
-96.39205880147459
 20
-117.9999999999999
 30
0.0
 10
-98.34610316803193
 20
-115.5000047613317
 30
0.0
 10
-100.0
 20
-113.000009522667
 30
0.0
 10
-100.0
 20
-110.5000142839999
 30
0.0
  0
LINE
  5
1F780
330
1F775
100
AcDbEntity
  8
0
100
AcDbLine
 10
-101.0929400000009
 20
-110.5000142839999
 30
0.0
 11
-100.0
 21
-110.5000142839999
 31
0.0
  0
LINE
  5
1F781
330
1F775
100
AcDbEntity
  8
0
100
AcDbLine
 10
-104.0
 20
-110.5000142839999
 30
0.0
 11
-101.0929400000009
 21
-110.5000142839999
 31
0.0
  0
SPLINE
  5
1F782
330
1F775
100
AcDbEntity
  8
0
100
AcDbSpline
210
0.0
220
0.0
230
1.0
 70
     8
 71
     3
 72
     8
 73
     4
 74
     0
 42
0.000000001
 43
0.0000000001
 40
-1.0
 40
-1.0
 40
-1.0
 40
-1.0
 40
0.0
 40
0.0
 40
0.0
 40
0.0
 10
-104.0
 20
-110.5000142839999
 30
0.0
 10
-104.0
 20
-113.000009522667
 30
0.0
 10
-100.6922063360638
 20
-115.5000047613317
 30
0.0
 10
-96.78411760294915
 20
-117.9999999999999
 30
0.0
  0
LINE
  5
1F783
330
1F775
100
AcDbEntity
  8
0
100
AcDbLine
 10
-100.0
 20
-110.5000142839999
 30
0.0
 11
-99.99999999999998
 21
-71.500014284
 31
0.0
  0
LINE
  5
1F784
330
1F775
100
AcDbEntity
  8
0
100
AcDbLine
 10
-104.0
 20
-71.500014284
 30
0.0
 11
-104.0
 21
-110.5000142839999
 31
0.0
  0
LINE
  5
1F785
330
1F775
100
AcDbEntity
  8
0
100
AcDbLine
 10
-99.99999999999932
 20
-71.50001428400003
 30
0.0
 11
-103.9999999999993
 21
-71.50001428400003
 31
0.0
  0
LINE
  5
1F786
330
1F775
100
AcDbEntity
  8
0
100
AcDbLine
 10
-96.00000000000003
 20
-118.0
 30
0.0
 11
-96.39205880147459
 21
-118.0
 31
0.0
  0
LINE
  5
1F787
330
1F775
100
AcDbEntity
  8
0
100
AcDbLine
 10
-96.39205880147457
 20
-8.000000000000007
 30
0.0
 11
-96.00000000000003
 21
-8.000000000000007
 31
0.0
  0
LINE
  5
1F788
330
1F775
100
AcDbEntity
  8
0
100
AcDbLine
 10
-99.9999999999993
 20
-8.000000000000005
 30
0.0
 11
-99.99999999999932
 21
-71.50001428400003
 31
0.0
  0
ARC
  5
1F789
330
1F775
100
AcDbEntity
  8
0
100
AcDbCircle
 10
-107.9999999999993
 20
-8.00000000000001
 30
0.0
 40
8.00000000000001
100
AcDbArc
 50
0.0
 51
90.0
  0
LINE
  5
1F78A
330
1F775
100
AcDbEntity
  8
0
100
AcDbLine
 10
-107.9999999999993
 20
-4.000000000000003
 30
0.0
 11
-145.4999999999993
 21
-3.999999999999968
 31
0.0
  0
LINE
  5
1F78B
330
1F775
100
AcDbEntity
  8
0
100
AcDbLine
 10
-145.4999999999993
 20
0.0
 30
0.0
 11
-107.9999999999993
 21
0.0
 31
0.0
  0
LINE
  5
1F78C
330
1F775
100
AcDbEntity
  8
0
100
AcDbLine
 10
-145.4999999999993
 20
-3.999999999999968
 30
0.0
 11
-145.4999999999993
 21
0.0
 31
0.0
  0
ARC
  5
1F78D
330
1F775
100
AcDbEntity
  8
0
100
AcDbCircle
 10
-107.9999999999993
 20
-8.000000000000015
 30
0.0
 40
4.000000000000021
100
AcDbArc
 50
0.0
 51
89.99999999999975
  0
LINE
  5
1F78E
330
1F775
100
AcDbEntity
  8
0
100
AcDbLine
 10
-103.9999999999993
 20
-71.50001428400003
 30
0.0
 11
-103.9999999999993
 21
-8.000000000000007
 31
0.0
  0
LINE
  5
1F78F
330
1F775
100
AcDbEntity
  8
0
100
AcDbLine
 10
-96.00000000000003
 20
-118.0
 30
0.0
 11
96.00000000000003
 21
-118.0
 31
0.0
  0
LINE
  5
1F790
330
1F775
100
AcDbEntity
  8
0
100
AcDbLine
 10
99.9999999999993
 20
-8.000000000000005
 30
0.0
 11
99.99999999999932
 21
-71.50001428400003
 31
0.0
  0
LINE
  5
1F791
330
1F775
100
AcDbEntity
  8
0
100
AcDbLine
 10
103.9999999999993
 20
-71.50001428400003
 30
0.0
 11
103.9999999999993
 21
-8.000000000000007
 31
0.0
  0
LINE
  5
1F792
330
1F775
100
AcDbEntity
  8
0
100
AcDbLine
 10
96.00000000000003
 20
-8.000000000000007
 30
0.0
 11
-96.00000000000003
 21
-8.000000000000007
 31
0.0
  0
LINE
  5
1F793
330
1F775
100
AcDbEntity
  8
0
100
AcDbLine
 10
96.39205880147457
 20
-8.000000000000007
 30
0.0
 11
96.00000000000003
 21
-8.000000000000007
 31
0.0
  0
ARC
  5
1F794
330
1F775
100
AcDbEntity
  8
0
100
AcDbCircle
 10
107.9999999999993
 20
-8.00000000000001
 30
0.0
 40
8.00000000000001
100
AcDbArc
 50
90.0
 51
180.0
  0
ARC
  5
1F795
330
1F775
100
AcDbEntity
  8
0
100
AcDbCircle
 10
107.9999999999993
 20
-8.000000000000015
 30
0.0
 40
4.000000000000021
100
AcDbArc
 50
90.00000000000026
 51
180.0
  0
LINE
  5
1F796
330
1F775
100
AcDbEntity
  8
0
100
AcDbLine
 10
96.78411760294915
 20
-118.0
 30
0.0
 11
96.39205880147459
 21
-118.0
 31
0.0
  0
SPLINE
  5
1F797
330
1F775
100
AcDbEntity
  8
0
100
AcDbSpline
210
0.0
220
0.0
230
1.0
 70
     8
 71
     3
 72
     8
 73
     4
 74
     0
 42
0.000000001
 43
0.0000000001
 40
-1.0
 40
-1.0
 40
-1.0
 40
-1.0
 40
0.0
 40
0.0
 40
0.0
 40
0.0
 10
104.0
 20
-110.5000142839999
 30
0.0
 10
104.0
 20
-113.000009522667
 30
0.0
 10
100.6922063360638
 20
-115.5000047613317
 30
0.0
 10
96.78411760294915
 20
-117.9999999999999
 30
0.0
  0
LINE
  5
1F798
330
1F775
100
AcDbEntity
  8
0
100
AcDbLine
 10
104.0
 20
-110.5000142839999
 30
0.0
 11
101.0929400000009
 21
-110.5000142839999
 31
0.0
  0
LINE
  5
1F799
330
1F775
100
AcDbEntity
  8
0
100
AcDbLine
 10
101.0929400000009
 20
-110.5000142839999
 30
0.0
 11
100.0
 21
-110.5000142839999
 31
0.0
  0
SPLINE
  5
1F79A
330
1F775
100
AcDbEntity
  8
0
100
AcDbSpline
210
0.0
220
0.0
230
1.0
 70
     8
 71
     3
 72
     8
 73
     4
 74
     0
 42
0.000000001
 43
0.0000000001
 40
0.0
 40
0.0
 40
0.0
 40
0.0
 40
1.0
 40
1.0
 40
1.0
 40
1.0
 10
96.39205880147459
 20
-117.9999999999999
 30
0.0
 10
98.34610316803193
 20
-115.5000047613317
 30
0.0
 10
100.0
 20
-113.000009522667
 30
0.0
 10
100.0
 20
-110.5000142839999
 30
0.0
  0
LINE
  5
1F79B
330
1F775
100
AcDbEntity
  8
0
100
AcDbLine
 10
100.0
 20
-110.5000142839999
 30
0.0
 11
99.99999999999998
 21
-71.500014284
 31
0.0
  0
LINE
  5
1F79C
330
1F775
100
AcDbEntity
  8
0
100
AcDbLine
 10
104.0
 20
-71.500014284
 30
0.0
 11
104.0
 21
-110.5000142839999
 31
0.0
  0
LINE
  5
1F79D
330
1F775
100
AcDbEntity
  8
0
100
AcDbLine
 10
99.99999999999932
 20
-71.50001428400003
 30
0.0
 11
103.9999999999993
 21
-71.50001428400003
 31
0.0
  0
LINE
  5
1F79E
330
1F775
100
AcDbEntity
  8
0
100
AcDbLine
 10
96.00000000000003
 20
-118.0
 30
0.0
 11
96.39205880147459
 21
-118.0
 31
0.0
  0
LINE
  5
1F79F
330
1F775
100
AcDbEntity
  8
0
100
AcDbLine
 10
107.9999999999993
 20
-4.000000000000003
 30
0.0
 11
145.4999999999993
 21
-3.999999999999968
 31
0.0
  0
LINE
  5
1F7A0
330
1F775
100
AcDbEntity
  8
0
100
AcDbLine
 10
145.4999999999993
 20
-3.999999999999968
 30
0.0
 11
145.4999999999993
 21
0.0
 31
0.0
  0
LINE
  5
1F7A1
330
1F775
100
AcDbEntity
  8
0
100
AcDbLine
 10
145.4999999999993
 20
0.0
 30
0.0
 11
107.9999999999993
 21
0.0
 31
0.0
  0
ENDBLK
  5
1F777
330
1F775
100
AcDbEntity
  8
0
100
AcDbBlockEnd
  0
BLOCK
  5
1F7A3
330
1F7A2
100
AcDbEntity
  8
0
100
AcDbBlockBegin
  2
GSE960_200_4-Bottom
 70
     0
 10
0.0
 20
0.0
 30
0.0
  3
GSE960_200_4-Bottom
  1

  0
CIRCLE
  5
1F7A5
330
1F7A2
100
AcDbEntity
  8
0
100
AcDbCircle
 10
0.0000000000000009
 20
66.0
 30
0.0
 40
2.5
  0
CIRCLE
  5
1F7A6
330
1F7A2
100
AcDbEntity
  8
0
100
AcDbCircle
 10
0.0000000000000009
 20
106.0
 30
0.0
 40
2.5
  0
ARC
  5
1F7A7
330
1F7A2
100
AcDbEntity
  8
0
100
AcDbCircle
 10
-108.0
 20
7.999999999999991
 30
0.0
 40
4.000000000000001
100
AcDbArc
 50
282.844288349063
 51
0.0
  0
SPLINE
  5
1F7A8
330
1F7A2
100
AcDbEntity
  8
0
100
AcDbSpline
210
0.0
220
0.0
230
1.0
 70
     8
 71
     3
 72
    17
 73
    13
 74
     0
 42
0.000000001
 43
0.0000000001
 40
-1.0
 40
-1.0
 40
-1.0
 40
-1.0
 40
-0.7987025995476812
 40
-0.7987025995476812
 40
-0.7987025995476812
 40
-0.3811602335541076
 40
-0.3811602335541076
 40
-0.3811602335541076
 40
-0.0932558951981921
 40
-0.0932558951981921
 40
-0.0932558951981921
 40
0.0
 40
0.0
 40
0.0
 40
0.0
 10
-96.78411760294908
 20
7.999999999999976
 30
0.0
 10
-97.76540218069056
 20
7.996785710433736
 30
0.0
 10
-98.68590336432459
 20
7.865318102313323
 30
0.0
 10
-99.52220626547072
 20
7.642039859799703
 30
0.0
 10
-101.256912681188
 20
7.17890359751048
 30
0.0
 10
-102.6483300374098
 20
6.350931229310535
 30
0.0
 10
-103.9240042669283
 20
5.597617724134046
 30
0.0
 10
-104.8036087691762
 20
5.078192046774756
 30
0.0
 10
-105.6207269386045
 20
4.598123756126033
 30
0.0
 10
-106.4333309736711
 20
4.300736303772262
 30
0.0
 10
-106.6965438073663
 20
4.204408706736623
 30
0.0
 10
-106.9565641249176
 20
4.130688291168516
 30
0.0
 10
-107.2196579588903
 20
4.076855049975697
 30
0.0
  0
LINE
  5
1F7A9
330
1F7A2
100
AcDbEntity
  8
0
100
AcDbLine
 10
-104.0
 20
8.000000000000007
 30
0.0
 11
-96.78411760294913
 21
8.000000000000007
 31
0.0
  0
SPLINE
  5
1F7AA
330
1F7A2
100
AcDbEntity
  8
0
100
AcDbSpline
210
0.0
220
0.0
230
1.0
 70
     8
 71
     3
 72
    17
 73
    13
 74
     0
 42
0.000000001
 43
0.0000000001
 40
0.0
 40
0.0
 40
0.0
 40
0.0
 40
0.1579095663827872
 40
0.1579095663827872
 40
0.1579095663827872
 40
0.5789547831913938
 40
0.5789547831913938
 40
0.5789547831913938
 40
0.8298827852155699
 40
0.8298827852155699
 40
0.8298827852155699
 40
1.0
 40
1.0
 40
1.0
 40
1.0
 10
-106.4393159177859
 20
0.153710099956547
 30
0.0
 10
-105.8335346593871
 20
0.2741847043207739
 30
0.0
 10
-105.2693972031732
 20
0.5469653196103496
 30
0.0
 10
-104.7611574678668
 20
0.9332959893116257
 30
0.0
 10
-103.4060026508111
 20
1.963396218894162
 30
0.0
 10
-102.3476109898572
 20
3.738478896853592
 30
0.0
 10
-101.1161591983227
 20
5.24021784998017
 30
0.0
 10
-100.3822576473658
 20
6.13520095399492
 30
0.0
 10
-99.57884673515208
 20
6.947294351715852
 30
0.0
 10
-98.60999463107567
 20
7.454337515965968
 30
0.0
 10
-97.95315912386261
 20
7.798088592696749
 30
0.0
 10
-97.2478174228757
 20
7.989807074032167
 30
0.0
 10
-96.39205880146469
 20
8.000000000000293
 30
0.0
  0
ARC
  5
1F7AB
330
1F7A2
100
AcDbEntity
  8
0
100
AcDbCircle
 10
-108.0
 20
8.000000000000003
 30
0.0
 40
8.000000000000012
100
AcDbArc
 50
282.8024291580398
 51
347.4819768880759
  0
LINE
  5
1F7AC
330
1F7A2
100
AcDbEntity
  8
0
100
AcDbLine
 10
-106.4393159177859
 20
0.1537100999565616
 30
0.0
 11
-107.219657958893
 21
4.076855049978257
 31
0.0
  0
ARC
  5
1F7AD
330
1F7A2
100
AcDbEntity
  8
0
100
AcDbCircle
 10
108.0
 20
7.999999999999991
 30
0.0
 40
4.000000000000001
100
AcDbArc
 50
180.0
 51
257.155711650937
  0
LINE
  5
1F7AE
330
1F7A2
100
AcDbEntity
  8
0
100
AcDbLine
 10
104.0
 20
8.000000000000007
 30
0.0
 11
96.78411760294913
 21
8.000000000000007
 31
0.0
  0
SPLINE
  5
1F7AF
330
1F7A2
100
AcDbEntity
  8
0
100
AcDbSpline
210
0.0
220
0.0
230
1.0
 70
     8
 71
     3
 72
    17
 73
    13
 74
     0
 42
0.000000001
 43
0.0000000001
 40
-1.0
 40
-1.0
 40
-1.0
 40
-1.0
 40
-0.7987025995476812
 40
-0.7987025995476812
 40
-0.7987025995476812
 40
-0.3811602335541076
 40
-0.3811602335541076
 40
-0.3811602335541076
 40
-0.0932558951981921
 40
-0.0932558951981921
 40
-0.0932558951981921
 40
0.0
 40
0.0
 40
0.0
 40
0.0
 10
96.78411760294908
 20
7.999999999999976
 30
0.0
 10
97.76540218069056
 20
7.996785710433736
 30
0.0
 10
98.68590336432459
 20
7.865318102313323
 30
0.0
 10
99.52220626547072
 20
7.642039859799703
 30
0.0
 10
101.256912681188
 20
7.17890359751048
 30
0.0
 10
102.6483300374098
 20
6.350931229310535
 30
0.0
 10
103.9240042669283
 20
5.597617724134046
 30
0.0
 10
104.8036087691762
 20
5.078192046774756
 30
0.0
 10
105.6207269386045
 20
4.598123756126033
 30
0.0
 10
106.4333309736711
 20
4.300736303772262
 30
0.0
 10
106.6965438073663
 20
4.204408706736623
 30
0.0
 10
106.9565641249176
 20
4.130688291168516
 30
0.0
 10
107.2196579588903
 20
4.076855049975697
 30
0.0
  0
SPLINE
  5
1F7B0
330
1F7A2
100
AcDbEntity
  8
0
100
AcDbSpline
210
0.0
220
0.0
230
1.0
 70
     8
 71
     3
 72
    17
 73
    13
 74
     0
 42
0.000000001
 43
0.0000000001
 40
0.0
 40
0.0
 40
0.0
 40
0.0
 40
0.1579095663827872
 40
0.1579095663827872
 40
0.1579095663827872
 40
0.5789547831913938
 40
0.5789547831913938
 40
0.5789547831913938
 40
0.8298827852155699
 40
0.8298827852155699
 40
0.8298827852155699
 40
1.0
 40
1.0
 40
1.0
 40
1.0
 10
106.4393159177859
 20
0.153710099956547
 30
0.0
 10
105.8335346593871
 20
0.2741847043207739
 30
0.0
 10
105.2693972031732
 20
0.5469653196103496
 30
0.0
 10
104.7611574678668
 20
0.9332959893116257
 30
0.0
 10
103.4060026508111
 20
1.963396218894162
 30
0.0
 10
102.3476109898572
 20
3.738478896853592
 30
0.0
 10
101.1161591983227
 20
5.24021784998017
 30
0.0
 10
100.3822576473658
 20
6.13520095399492
 30
0.0
 10
99.57884673515208
 20
6.947294351715852
 30
0.0
 10
98.60999463107567
 20
7.454337515965968
 30
0.0
 10
97.95315912386261
 20
7.798088592696749
 30
0.0
 10
97.2478174228757
 20
7.989807074032167
 30
0.0
 10
96.39205880146469
 20
8.000000000000293
 30
0.0
  0
ARC
  5
1F7B1
330
1F7A2
100
AcDbEntity
  8
0
100
AcDbCircle
 10
108.0000000000001
 20
8.000000000000012
 30
0.0
 40
8.000000000000031
100
AcDbArc
 50
192.5180231119241
 51
257.1975708419619
  0
LINE
  5
1F7B2
330
1F7A2
100
AcDbEntity
  8
0
100
AcDbLine
 10
106.4393159177859
 20
0.1537100999565616
 30
0.0
 11
107.219657958893
 21
4.076855049978257
 31
0.0
  0
SPLINE
  5
1F7B3
330
1F7A2
100
AcDbEntity
  8
0
100
AcDbSpline
210
0.0
220
0.0
230
1.0
 70
     8
 71
     3
 72
     8
 73
     4
 74
     0
 42
0.000000001
 43
0.0000000001
 40
0.0
 40
0.0
 40
0.0
 40
0.0
 40
0.007554454113055
 40
0.007554454113055
 40
0.007554454113055
 40
0.007554454113055
 10
-106.2273365015559
 20
0.1991233495198201
 30
0.0
 10
-106.2504660787208
 20
0.1939586503673805
 30
0.0
 10
-106.2736784817798
 20
0.1888497389994768
 30
0.0
 10
-106.2969588725621
 20
0.1837892241697618
 30
0.0
  0
SPLINE
  5
1F7B4
330
1F7A2
100
AcDbEntity
  8
0
100
AcDbSpline
210
0.0
220
0.0
230
1.0
 70
     8
 71
     3
 72
     8
 73
     4
 74
     0
 42
0.000000001
 43
0.0000000001
 40
0.0073376325280381
 40
0.0073376325280381
 40
0.0073376325280381
 40
0.0073376325280381
 40
0.0148920866410891
 40
0.0148920866410891
 40
0.0148920866410891
 40
0.0148920866410891
 10
106.2969588725619
 20
0.1837892241698122
 30
0.0
 10
106.2736784817798
 20
0.1888497389994844
 30
0.0
 10
106.2504660787211
 20
0.1939586503673447
 30
0.0
 10
106.2273365015562
 20
0.1991233495197795
 30
0.0
  0
SPLINE
  5
1F7B5
330
1F7A2
100
AcDbEntity
  8
0
100
AcDbSpline
210
0.0
220
0.0
230
1.0
 70
     8
 71
     3
 72
     8
 73
     4
 74
     0
 42
0.000000001
 43
0.0000000001
 40
-1.0
 40
-1.0
 40
-1.0
 40
-1.0
 40
0.0
 40
0.0
 40
0.0
 40
0.0
 10
-104.0
 20
110.5000142839999
 30
0.0
 10
-104.0
 20
113.000009522667
 30
0.0
 10
-100.6922063360638
 20
115.5000047613317
 30
0.0
 10
-96.78411760294915
 20
117.9999999999999
 30
0.0
  0
LINE
  5
1F7B6
330
1F7A2
100
AcDbEntity
  8
0
100
AcDbLine
 10
-145.5
 20
0.0
 30
0.0
 11
-108.0000000000001
 21
0.0
 31
0.0
  0
LINE
  5
1F7B7
330
1F7A2
100
AcDbEntity
  8
0
100
AcDbLine
 10
-108.0000000000001
 20
2.907059999994466
 30
0.0
 11
-108.0000000000001
 21
0.0
 31
0.0
  0
LINE
  5
1F7B8
330
1F7A2
100
AcDbEntity
  8
0
100
AcDbLine
 10
-108.0000000000001
 20
3.999999999999968
 30
0.0
 11
-108.0000000000001
 21
2.907059999994466
 31
0.0
  0
LINE
  5
1F7B9
330
1F7A2
100
AcDbEntity
  8
0
100
AcDbLine
 10
-108.0000000000001
 20
3.999999999999968
 30
0.0
 11
-145.5
 21
4.000000000000242
 31
0.0
  0
LINE
  5
1F7BA
330
1F7A2
100
AcDbEntity
  8
0
100
AcDbLine
 10
-145.5
 20
4.000000000000242
 30
0.0
 11
-145.5
 21
0.0
 31
0.0
  0
SPLINE
  5
1F7BB
330
1F7A2
100
AcDbEntity
  8
0
100
AcDbSpline
210
0.0
220
0.0
230
1.0
 70
     8
 71
     3
 72
     8
 73
     4
 74
     0
 42
0.000000001
 43
0.0000000001
 40
-0.124996876740521
 40
-0.124996876740521
 40
-0.124996876740521
 40
-0.124996876740521
 40
0.0
 40
0.0
 40
0.0
 40
0.0
 10
-107.219657958893
 20
4.076855049978257
 30
0.0
 10
-107.4786776834631
 20
4.029230776354309
 30
0.0
 10
-107.7382071535403
 20
3.999999999999969
 30
0.0
 10
-108.0000000000001
 20
3.999999999999968
 30
0.0
  0
SPLINE
  5
1F7BC
330
1F7A2
100
AcDbEntity
  8
0
100
AcDbSpline
210
0.0
220
0.0
230
1.0
 70
     8
 71
     3
 72
     8
 73
     4
 74
     0
 42
0.000000001
 43
0.0000000001
 40
0.0
 40
0.0
 40
0.0
 40
0.0
 40
0.124996876740521
 40
0.124996876740521
 40
0.124996876740521
 40
0.124996876740521
 10
-108.0000000000001
 20
-0.0000000000000311
 30
0.0
 10
-107.4764143070805
 20
-0.0000000000000314
 30
0.0
 10
-106.957355366926
 20
0.0584615527086483
 30
0.0
 10
-106.4393159177859
 20
0.1537100999565455
 30
0.0
  0
LINE
  5
1F7BD
330
1F7A2
100
AcDbEntity
  8
0
100
AcDbLine
 10
-104.0
 20
110.5000142839999
 30
0.0
 11
-104.0
 21
8.000000000000007
 31
0.0
  0
LINE
  5
1F7BE
330
1F7A2
100
AcDbEntity
  8
0
100
AcDbLine
 10
-96.78411760294913
 20
8.000000000000007
 30
0.0
 11
-96.00000000000003
 21
8.000000000000007
 31
0.0
  0
LINE
  5
1F7BF
330
1F7A2
100
AcDbEntity
  8
0
100
AcDbLine
 10
-96.78411760294915
 20
118.0
 30
0.0
 11
-96.00000000000003
 21
118.0
 31
0.0
  0
LINE
  5
1F7C0
330
1F7A2
100
AcDbEntity
  8
0
100
AcDbLine
 10
-96.00000000000003
 20
118.0
 30
0.0
 11
96.00000000000003
 21
118.0
 31
0.0
  0
SPLINE
  5
1F7C1
330
1F7A2
100
AcDbEntity
  8
0
100
AcDbSpline
210
0.0
220
0.0
230
1.0
 70
     8
 71
     3
 72
     8
 73
     4
 74
     0
 42
0.000000001
 43
0.0000000001
 40
-1.0
 40
-1.0
 40
-1.0
 40
-1.0
 40
0.0
 40
0.0
 40
0.0
 40
0.0
 10
104.0
 20
110.5000142839999
 30
0.0
 10
104.0
 20
113.000009522667
 30
0.0
 10
100.6922063360638
 20
115.5000047613317
 30
0.0
 10
96.78411760294915
 20
117.9999999999999
 30
0.0
  0
LINE
  5
1F7C2
330
1F7A2
100
AcDbEntity
  8
0
100
AcDbLine
 10
145.5
 20
0.0
 30
0.0
 11
108.0000000000001
 21
0.0
 31
0.0
  0
LINE
  5
1F7C3
330
1F7A2
100
AcDbEntity
  8
0
100
AcDbLine
 10
145.5
 20
4.000000000000242
 30
0.0
 11
145.5
 21
0.0
 31
0.0
  0
LINE
  5
1F7C4
330
1F7A2
100
AcDbEntity
  8
0
100
AcDbLine
 10
108.0000000000001
 20
3.999999999999968
 30
0.0
 11
145.5
 21
4.000000000000242
 31
0.0
  0
LINE
  5
1F7C5
330
1F7A2
100
AcDbEntity
  8
0
100
AcDbLine
 10
108.0000000000001
 20
3.999999999999968
 30
0.0
 11
108.0000000000001
 21
2.907059999994466
 31
0.0
  0
LINE
  5
1F7C6
330
1F7A2
100
AcDbEntity
  8
0
100
AcDbLine
 10
108.0000000000001
 20
2.907059999994466
 30
0.0
 11
108.0000000000001
 21
0.0
 31
0.0
  0
SPLINE
  5
1F7C7
330
1F7A2
100
AcDbEntity
  8
0
100
AcDbSpline
210
0.0
220
0.0
230
1.0
 70
     8
 71
     3
 72
     8
 73
     4
 74
     0
 42
0.000000001
 43
0.0000000001
 40
0.0
 40
0.0
 40
0.0
 40
0.0
 40
0.124996876740521
 40
0.124996876740521
 40
0.124996876740521
 40
0.124996876740521
 10
108.0000000000001
 20
-0.0000000000000311
 30
0.0
 10
107.4764143070805
 20
-0.0000000000000314
 30
0.0
 10
106.957355366926
 20
0.0584615527086483
 30
0.0
 10
106.4393159177859
 20
0.1537100999565455
 30
0.0
  0
SPLINE
  5
1F7C8
330
1F7A2
100
AcDbEntity
  8
0
100
AcDbSpline
210
0.0
220
0.0
230
1.0
 70
     8
 71
     3
 72
     8
 73
     4
 74
     0
 42
0.000000001
 43
0.0000000001
 40
-0.124996876740521
 40
-0.124996876740521
 40
-0.124996876740521
 40
-0.124996876740521
 40
0.0
 40
0.0
 40
0.0
 40
0.0
 10
107.219657958893
 20
4.076855049978257
 30
0.0
 10
107.4786776834631
 20
4.029230776354309
 30
0.0
 10
107.7382071535403
 20
3.999999999999969
 30
0.0
 10
108.0000000000001
 20
3.999999999999968
 30
0.0
  0
LINE
  5
1F7C9
330
1F7A2
100
AcDbEntity
  8
0
100
AcDbLine
 10
-96.00000000000003
 20
8.000000000000007
 30
0.0
 11
96.00000000000003
 21
8.000000000000007
 31
0.0
  0
LINE
  5
1F7CA
330
1F7A2
100
AcDbEntity
  8
0
100
AcDbLine
 10
96.78411760294913
 20
8.000000000000007
 30
0.0
 11
96.00000000000003
 21
8.000000000000007
 31
0.0
  0
LINE
  5
1F7CB
330
1F7A2
100
AcDbEntity
  8
0
100
AcDbLine
 10
96.78411760294915
 20
118.0
 30
0.0
 11
96.00000000000003
 21
118.0
 31
0.0
  0
LINE
  5
1F7CC
330
1F7A2
100
AcDbEntity
  8
0
100
AcDbLine
 10
104.0
 20
110.5000142839999
 30
0.0
 11
104.0
 21
8.000000000000007
 31
0.0
  0
ENDBLK
  5
1F7A4
330
1F7A2
100
AcDbEntity
  8
0
100
AcDbBlockEnd
  0
BLOCK
  5
1F7CE
330
1F7CD
100
AcDbEntity
  8
0
100
AcDbBlockBegin
  2
GSE960_200_4-ISO
 70
     0
 10
0.0
 20
0.0
 30
0.0
  3
GSE960_200_4-ISO
  1

  0
ELLIPSE
  5
1F7D0
330
1F7CD
100
AcDbEntity
  8
0
100
AcDbEllipse
 10
71.77511581581689
 20
-164.0391821231869
 30
0.0
 11
-1.249999999999996
 21
-2.165063509461098
 31
0.0
210
0.0
220
0.0
230
1.0
 40
0.5773502691896269
 41
0.0
 42
6.283185307179586
  0
ELLIPSE
  5
1F7D1
330
1F7CD
100
AcDbEntity
  8
0
100
AcDbEllipse
 10
-72.4746675462389
 20
-72.59156505928155
 30
0.0
 11
1.249999999999999
 21
2.165063509461096
 31
0.0
210
0.0
220
0.0
230
1.0
 40
0.5773502691896259
 41
0.0
 42
6.283185307179586
  0
ELLIPSE
  5
1F7D2
330
1F7CD
100
AcDbEntity
  8
0
100
AcDbEllipse
 10
71.77511581581686
 20
-147.7092505046324
 30
0.0
 11
-1.249999999999996
 21
-2.165063509461098
 31
0.0
210
0.0
220
0.0
230
1.0
 40
0.5773502691896269
 41
0.0
 42
6.283185307179586
  0
ELLIPSE
  5
1F7D3
330
1F7CD
100
AcDbEntity
  8
0
100
AcDbEllipse
 10
-72.4746675462389
 20
-56.26163344072704
 30
0.0
 11
1.249999999999999
 21
2.165063509461096
 31
0.0
210
0.0
220
0.0
230
1.0
 40
0.5773502691896259
 41
0.0
 42
6.283185307179586
  0
ELLIPSE
  5
1F7D4
330
1F7CD
100
AcDbEntity
  8
0
100
AcDbEllipse
 10
71.77511581581683
 20
-131.3793188860779
 30
0.0
 11
-1.249999999999996
 21
-2.165063509461098
 31
0.0
210
0.0
220
0.0
230
1.0
 40
0.5773502691896269
 41
0.0
 42
6.283185307179586
  0
ELLIPSE
  5
1F7D5
330
1F7CD
100
AcDbEntity
  8
0
100
AcDbEllipse
 10
-72.4746675462389
 20
-39.93170182217252
 30
0.0
 11
1.249999999999999
 21
2.165063509461096
 31
0.0
210
0.0
220
0.0
230
1.0
 40
0.5773502691896259
 41
0.0
 42
6.283185307179586
  0
ELLIPSE
  5
1F7D6
330
1F7CD
100
AcDbEntity
  8
0
100
AcDbEllipse
 10
71.77511581581682
 20
-115.0493872675233
 30
0.0
 11
-1.249999999999996
 21
-2.165063509461098
 31
0.0
210
0.0
220
0.0
230
1.0
 40
0.5773502691896269
 41
0.0
 42
6.283185307179586
  0
ELLIPSE
  5
1F7D7
330
1F7CD
100
AcDbEntity
  8
0
100
AcDbEllipse
 10
-72.4746675462389
 20
-23.60177020361799
 30
0.0
 11
1.249999999999999
 21
2.165063509461096
 31
0.0
210
0.0
220
0.0
230
1.0
 40
0.5773502691896259
 41
0.0
 42
6.283185307179586
  0
ELLIPSE
  5
1F7D8
330
1F7CD
100
AcDbEntity
  8
0
100
AcDbEllipse
 10
71.77511581581679
 20
-98.71945564896879
 30
0.0
 11
-1.249999999999996
 21
-2.165063509461098
 31
0.0
210
0.0
220
0.0
230
1.0
 40
0.5773502691896269
 41
0.0
 42
6.283185307179586
  0
ELLIPSE
  5
1F7D9
330
1F7CD
100
AcDbEntity
  8
0
100
AcDbEllipse
 10
-72.4746675462389
 20
-7.27183858506347
 30
0.0
 11
1.249999999999999
 21
2.165063509461096
 31
0.0
210
0.0
220
0.0
230
1.0
 40
0.5773502691896259
 41
0.0
 42
6.283185307179586
  0
ELLIPSE
  5
1F7DA
330
1F7CD
100
AcDbEntity
  8
0
100
AcDbEllipse
 10
71.77511581581676
 20
-82.38952403041427
 30
0.0
 11
-1.249999999999996
 21
-2.165063509461098
 31
0.0
210
0.0
220
0.0
230
1.0
 40
0.5773502691896269
 41
0.0
 42
6.283185307179586
  0
ELLIPSE
  5
1F7DB
330
1F7CD
100
AcDbEntity
  8
0
100
AcDbEllipse
 10
-72.4746675462389
 20
9.058093033491037
 30
0.0
 11
1.249999999999999
 21
2.165063509461096
 31
0.0
210
0.0
220
0.0
230
1.0
 40
0.5773502691896259
 41
0.0
 42
6.283185307179586
  0
ELLIPSE
  5
1F7DC
330
1F7CD
100
AcDbEntity
  8
0
100
AcDbEllipse
 10
71.77511581581672
 20
-66.05959241185972
 30
0.0
 11
-1.249999999999996
 21
-2.165063509461098
 31
0.0
210
0.0
220
0.0
230
1.0
 40
0.5773502691896269
 41
0.0
 42
6.283185307179586
  0
ELLIPSE
  5
1F7DD
330
1F7CD
100
AcDbEntity
  8
0
100
AcDbEllipse
 10
-72.4746675462389
 20
25.38802465204556
 30
0.0
 11
1.249999999999999
 21
2.165063509461096
 31
0.0
210
0.0
220
0.0
230
1.0
 40
0.5773502691896259
 41
0.0
 42
6.283185307179586
  0
ELLIPSE
  5
1F7DE
330
1F7CD
100
AcDbEntity
  8
0
100
AcDbEllipse
 10
71.7751158158167
 20
-49.72966079330518
 30
0.0
 11
-1.249999999999996
 21
-2.165063509461098
 31
0.0
210
0.0
220
0.0
230
1.0
 40
0.5773502691896269
 41
0.0
 42
6.283185307179586
  0
ELLIPSE
  5
1F7DF
330
1F7CD
100
AcDbEntity
  8
0
100
AcDbEllipse
 10
-72.4746675462389
 20
41.71795627060006
 30
0.0
 11
1.249999999999999
 21
2.165063509461096
 31
0.0
210
0.0
220
0.0
230
1.0
 40
0.5773502691896259
 41
0.0
 42
6.283185307179586
  0
ELLIPSE
  5
1F7E0
330
1F7CD
100
AcDbEntity
  8
0
100
AcDbEllipse
 10
71.77511581581668
 20
-33.39972917475066
 30
0.0
 11
-1.249999999999996
 21
-2.165063509461098
 31
0.0
210
0.0
220
0.0
230
1.0
 40
0.5773502691896269
 41
0.0
 42
6.283185307179586
  0
ELLIPSE
  5
1F7E1
330
1F7CD
100
AcDbEntity
  8
0
100
AcDbEllipse
 10
-72.4746675462389
 20
58.04788788915459
 30
0.0
 11
1.249999999999999
 21
2.165063509461096
 31
0.0
210
0.0
220
0.0
230
1.0
 40
0.5773502691896259
 41
0.0
 42
6.283185307179586
  0
ELLIPSE
  5
1F7E2
330
1F7CD
100
AcDbEntity
  8
0
100
AcDbEllipse
 10
71.77511581581665
 20
-17.06979755619613
 30
0.0
 11
-1.249999999999996
 21
-2.165063509461098
 31
0.0
210
0.0
220
0.0
230
1.0
 40
0.5773502691896269
 41
0.0
 42
6.283185307179586
  0
ELLIPSE
  5
1F7E3
330
1F7CD
100
AcDbEntity
  8
0
100
AcDbEllipse
 10
-72.4746675462389
 20
74.37781950770911
 30
0.0
 11
1.249999999999999
 21
2.165063509461096
 31
0.0
210
0.0
220
0.0
230
1.0
 40
0.5773502691896259
 41
0.0
 42
6.283185307179586
  0
ELLIPSE
  5
1F7E4
330
1F7CD
100
AcDbEntity
  8
0
100
AcDbEllipse
 10
71.77511581581661
 20
-0.7398659376415928
 30
0.0
 11
-1.249999999999996
 21
-2.165063509461098
 31
0.0
210
0.0
220
0.0
230
1.0
 40
0.5773502691896269
 41
0.0
 42
6.283185307179586
  0
ELLIPSE
  5
1F7E5
330
1F7CD
100
AcDbEntity
  8
0
100
AcDbEllipse
 10
-72.4746675462389
 20
90.70775112626364
 30
0.0
 11
1.249999999999999
 21
2.165063509461096
 31
0.0
210
0.0
220
0.0
230
1.0
 40
0.5773502691896259
 41
0.0
 42
6.283185307179586
  0
ELLIPSE
  5
1F7E6
330
1F7CD
100
AcDbEntity
  8
0
100
AcDbEllipse
 10
71.77511581581658
 20
15.59006568091295
 30
0.0
 11
-1.249999999999996
 21
-2.165063509461098
 31
0.0
210
0.0
220
0.0
230
1.0
 40
0.5773502691896269
 41
0.0
 42
6.283185307179586
  0
ELLIPSE
  5
1F7E7
330
1F7CD
100
AcDbEntity
  8
0
100
AcDbEllipse
 10
-72.4746675462389
 20
107.0376827448181
 30
0.0
 11
1.249999999999999
 21
2.165063509461096
 31
0.0
210
0.0
220
0.0
230
1.0
 40
0.5773502691896259
 41
0.0
 42
6.283185307179586
  0
ELLIPSE
  5
1F7E8
330
1F7CD
100
AcDbEntity
  8
0
100
AcDbEllipse
 10
71.77511581581656
 20
31.91999729946747
 30
0.0
 11
-1.249999999999996
 21
-2.165063509461098
 31
0.0
210
0.0
220
0.0
230
1.0
 40
0.5773502691896269
 41
0.0
 42
6.283185307179586
  0
ELLIPSE
  5
1F7E9
330
1F7CD
100
AcDbEntity
  8
0
100
AcDbEllipse
 10
-72.4746675462389
 20
123.3676143633726
 30
0.0
 11
1.249999999999999
 21
2.165063509461096
 31
0.0
210
0.0
220
0.0
230
1.0
 40
0.5773502691896259
 41
0.0
 42
6.283185307179586
  0
ELLIPSE
  5
1F7EA
330
1F7CD
100
AcDbEntity
  8
0
100
AcDbEllipse
 10
71.77511581581653
 20
48.249928918022
 30
0.0
 11
-1.249999999999996
 21
-2.165063509461098
 31
0.0
210
0.0
220
0.0
230
1.0
 40
0.5773502691896269
 41
0.0
 42
6.283185307179586
  0
ELLIPSE
  5
1F7EB
330
1F7CD
100
AcDbEntity
  8
0
100
AcDbEllipse
 10
-72.4746675462389
 20
139.6975459819272
 30
0.0
 11
1.249999999999999
 21
2.165063509461096
 31
0.0
210
0.0
220
0.0
230
1.0
 40
0.5773502691896259
 41
0.0
 42
6.283185307179586
  0
ELLIPSE
  5
1F7EC
330
1F7CD
100
AcDbEntity
  8
0
100
AcDbEllipse
 10
71.77511581581652
 20
64.57986053657652
 30
0.0
 11
-1.249999999999996
 21
-2.165063509461098
 31
0.0
210
0.0
220
0.0
230
1.0
 40
0.5773502691896269
 41
0.0
 42
6.283185307179586
  0
ELLIPSE
  5
1F7ED
330
1F7CD
100
AcDbEntity
  8
0
100
AcDbEllipse
 10
-72.4746675462389
 20
156.0274776004817
 30
0.0
 11
1.249999999999999
 21
2.165063509461096
 31
0.0
210
0.0
220
0.0
230
1.0
 40
0.5773502691896259
 41
0.0
 42
6.283185307179586
  0
ELLIPSE
  5
1F7EE
330
1F7CD
100
AcDbEntity
  8
0
100
AcDbEllipse
 10
71.77511581581649
 20
80.90979215513108
 30
0.0
 11
-1.249999999999996
 21
-2.165063509461098
 31
0.0
210
0.0
220
0.0
230
1.0
 40
0.5773502691896269
 41
0.0
 42
6.283185307179586
  0
ELLIPSE
  5
1F7EF
330
1F7CD
100
AcDbEntity
  8
0
100
AcDbEllipse
 10
-72.4746675462389
 20
172.3574092190362
 30
0.0
 11
1.249999999999999
 21
2.165063509461096
 31
0.0
210
0.0
220
0.0
230
1.0
 40
0.5773502691896259
 41
0.0
 42
6.283185307179586
  0
ELLIPSE
  5
1F7F0
330
1F7CD
100
AcDbEntity
  8
0
100
AcDbEllipse
 10
127.9901150204603
 20
-116.8864987431937
 30
0.0
 11
3.250000000000007
 21
-5.629165124598845
 31
0.0
210
0.0
220
0.0
230
0.9999999999999998
 40
0.577350269189627
 41
0.0
 42
6.283185307179586
  0
ELLIPSE
  5
1F7F1
330
1F7CD
100
AcDbEntity
  8
0
100
AcDbEllipse
 10
130.8185421452065
 20
-115.2535055813382
 30
0.0
 11
3.250000000000347
 21
-5.62916512459866
 31
0.0
210
0.0
220
0.0
230
1.0
 40
0.5773502691896269
 41
3.591789343522108
 42
5.83298861724644
  0
ELLIPSE
  5
1F7F2
330
1F7CD
100
AcDbEntity
  8
0
100
AcDbEllipse
 10
127.9901150204603
 20
-2.576977413312047
 30
0.0
 11
3.250000000000007
 21
-5.629165124598845
 31
0.0
210
0.0
220
0.0
230
0.9999999999999998
 40
0.577350269189627
 41
0.0
 42
6.283185307179586
  0
ELLIPSE
  5
1F7F3
330
1F7CD
100
AcDbEntity
  8
0
100
AcDbEllipse
 10
130.8185421452065
 20
-0.943984251456591
 30
0.0
 11
3.25000000000034
 21
-5.629165124598647
 31
0.0
210
0.0
220
0.0
230
1.0
 40
0.5773502691896269
 41
3.591789343522115
 42
5.832988617246441
  0
ELLIPSE
  5
1F7F4
330
1F7CD
100
AcDbEntity
  8
0
100
AcDbEllipse
 10
136.4753963947544
 20
-138.1154098473467
 30
0.0
 11
1.250000000000003
 21
-2.165063509461094
 31
0.0
210
0.0
220
0.0
230
0.9999999999999998
 40
0.5773502691896269
 41
0.0
 42
6.283185307179586
  0
ELLIPSE
  5
1F7F5
330
1F7CD
100
AcDbEntity
  8
0
100
AcDbEllipse
 10
136.4753963947544
 20
-121.7854782287922
 30
0.0
 11
1.250000000000003
 21
-2.165063509461094
 31
0.0
210
0.0
220
0.0
230
0.9999999999999998
 40
0.5773502691896269
 41
0.0
 42
6.283185307179586
  0
ELLIPSE
  5
1F7F6
330
1F7CD
100
AcDbEntity
  8
0
100
AcDbEllipse
 10
136.4753963947544
 20
-105.4555466102377
 30
0.0
 11
1.250000000000003
 21
-2.165063509461094
 31
0.0
210
0.0
220
0.0
230
0.9999999999999998
 40
0.5773502691896269
 41
0.0
 42
6.283185307179586
  0
ELLIPSE
  5
1F7F7
330
1F7CD
100
AcDbEntity
  8
0
100
AcDbEllipse
 10
136.4753963947544
 20
-89.12561499168317
 30
0.0
 11
1.250000000000003
 21
-2.165063509461094
 31
0.0
210
0.0
220
0.0
230
0.9999999999999998
 40
0.5773502691896269
 41
0.0
 42
6.283185307179586
  0
ELLIPSE
  5
1F7F8
330
1F7CD
100
AcDbEntity
  8
0
100
AcDbEllipse
 10
136.4753963947544
 20
-72.79568337312865
 30
0.0
 11
1.250000000000003
 21
-2.165063509461094
 31
0.0
210
0.0
220
0.0
230
0.9999999999999998
 40
0.5773502691896269
 41
0.0
 42
6.283185307179586
  0
ELLIPSE
  5
1F7F9
330
1F7CD
100
AcDbEntity
  8
0
100
AcDbEllipse
 10
136.4753963947544
 20
-56.46575175457414
 30
0.0
 11
1.250000000000003
 21
-2.165063509461094
 31
0.0
210
0.0
220
0.0
230
0.9999999999999998
 40
0.5773502691896269
 41
0.0
 42
6.283185307179586
  0
ELLIPSE
  5
1F7FA
330
1F7CD
100
AcDbEntity
  8
0
100
AcDbEllipse
 10
136.4753963947544
 20
-40.13582013601961
 30
0.0
 11
1.250000000000003
 21
-2.165063509461094
 31
0.0
210
0.0
220
0.0
230
0.9999999999999998
 40
0.5773502691896269
 41
0.0
 42
6.283185307179586
  0
ELLIPSE
  5
1F7FB
330
1F7CD
100
AcDbEntity
  8
0
100
AcDbEllipse
 10
136.4753963947544
 20
-23.80588851746509
 30
0.0
 11
1.250000000000003
 21
-2.165063509461094
 31
0.0
210
0.0
220
0.0
230
0.9999999999999998
 40
0.5773502691896269
 41
0.0
 42
6.283185307179586
  0
ELLIPSE
  5
1F7FC
330
1F7CD
100
AcDbEntity
  8
0
100
AcDbEllipse
 10
136.4753963947544
 20
-7.475956898910567
 30
0.0
 11
1.250000000000003
 21
-2.165063509461094
 31
0.0
210
0.0
220
0.0
230
0.9999999999999998
 40
0.5773502691896269
 41
0.0
 42
6.283185307179586
  0
ELLIPSE
  5
1F7FD
330
1F7CD
100
AcDbEntity
  8
0
100
AcDbEllipse
 10
136.4753963947544
 20
8.853974719643922
 30
0.0
 11
1.250000000000003
 21
-2.165063509461094
 31
0.0
210
0.0
220
0.0
230
0.9999999999999998
 40
0.5773502691896269
 41
0.0
 42
6.283185307179586
  0
ELLIPSE
  5
1F7FE
330
1F7CD
100
AcDbEntity
  8
0
100
AcDbEllipse
 10
136.4753963947544
 20
25.18390633819843
 30
0.0
 11
1.250000000000003
 21
-2.165063509461094
 31
0.0
210
0.0
220
0.0
230
0.9999999999999998
 40
0.5773502691896269
 41
0.0
 42
6.283185307179586
  0
ELLIPSE
  5
1F7FF
330
1F7CD
100
AcDbEntity
  8
0
100
AcDbEllipse
 10
136.4753963947544
 20
41.51383795675297
 30
0.0
 11
1.250000000000003
 21
-2.165063509461094
 31
0.0
210
0.0
220
0.0
230
0.9999999999999998
 40
0.5773502691896269
 41
0.0
 42
6.283185307179586
  0
ELLIPSE
  5
1F800
330
1F7CD
100
AcDbEntity
  8
0
100
AcDbEllipse
 10
136.4753963947544
 20
57.84376957530749
 30
0.0
 11
1.250000000000003
 21
-2.165063509461094
 31
0.0
210
0.0
220
0.0
230
0.9999999999999998
 40
0.5773502691896269
 41
0.0
 42
6.283185307179586
  0
ELLIPSE
  5
1F801
330
1F7CD
100
AcDbEntity
  8
0
100
AcDbEllipse
 10
136.4753963947544
 20
74.17370119386203
 30
0.0
 11
1.250000000000003
 21
-2.165063509461094
 31
0.0
210
0.0
220
0.0
230
0.9999999999999998
 40
0.5773502691896269
 41
0.0
 42
6.283185307179586
  0
ELLIPSE
  5
1F802
330
1F7CD
100
AcDbEntity
  8
0
100
AcDbEllipse
 10
136.4753963947544
 20
90.50363281241651
 30
0.0
 11
1.250000000000003
 21
-2.165063509461094
 31
0.0
210
0.0
220
0.0
230
0.9999999999999998
 40
0.5773502691896269
 41
0.0
 42
6.283185307179586
  0
ELLIPSE
  5
1F803
330
1F7CD
100
AcDbEntity
  8
0
100
AcDbEllipse
 10
119.5048336462773
 20
-152.8123483040457
 30
0.0
 11
1.250000000000003
 21
-2.165063509461094
 31
0.0
210
0.0
220
0.0
230
0.9999999999999998
 40
0.5773502691896269
 41
0.0
 42
6.283185307179586
  0
ELLIPSE
  5
1F804
330
1F7CD
100
AcDbEntity
  8
0
100
AcDbEllipse
 10
119.5048336462773
 20
-136.4824166854911
 30
0.0
 11
1.250000000000003
 21
-2.165063509461094
 31
0.0
210
0.0
220
0.0
230
0.9999999999999998
 40
0.5773502691896269
 41
0.0
 42
6.283185307179586
  0
ELLIPSE
  5
1F805
330
1F7CD
100
AcDbEntity
  8
0
100
AcDbEllipse
 10
119.5048336462773
 20
-120.1524850669366
 30
0.0
 11
1.250000000000003
 21
-2.165063509461094
 31
0.0
210
0.0
220
0.0
230
0.9999999999999998
 40
0.5773502691896269
 41
0.0
 42
6.283185307179586
  0
ELLIPSE
  5
1F806
330
1F7CD
100
AcDbEntity
  8
0
100
AcDbEllipse
 10
119.5048336462773
 20
-103.8225534483821
 30
0.0
 11
1.250000000000003
 21
-2.165063509461094
 31
0.0
210
0.0
220
0.0
230
0.9999999999999998
 40
0.5773502691896269
 41
0.0
 42
6.283185307179586
  0
ELLIPSE
  5
1F807
330
1F7CD
100
AcDbEntity
  8
0
100
AcDbEllipse
 10
119.5048336462773
 20
-87.49262182982761
 30
0.0
 11
1.250000000000003
 21
-2.165063509461094
 31
0.0
210
0.0
220
0.0
230
0.9999999999999998
 40
0.5773502691896269
 41
0.0
 42
6.283185307179586
  0
ELLIPSE
  5
1F808
330
1F7CD
100
AcDbEntity
  8
0
100
AcDbEllipse
 10
119.5048336462773
 20
-71.16269021127308
 30
0.0
 11
1.250000000000003
 21
-2.165063509461094
 31
0.0
210
0.0
220
0.0
230
0.9999999999999998
 40
0.5773502691896269
 41
0.0
 42
6.283185307179586
  0
ELLIPSE
  5
1F809
330
1F7CD
100
AcDbEntity
  8
0
100
AcDbEllipse
 10
119.5048336462773
 20
-54.83275859271859
 30
0.0
 11
1.250000000000003
 21
-2.165063509461094
 31
0.0
210
0.0
220
0.0
230
0.9999999999999998
 40
0.5773502691896269
 41
0.0
 42
6.283185307179586
  0
ELLIPSE
  5
1F80A
330
1F7CD
100
AcDbEntity
  8
0
100
AcDbEllipse
 10
119.5048336462772
 20
-38.50282697416407
 30
0.0
 11
1.250000000000003
 21
-2.165063509461094
 31
0.0
210
0.0
220
0.0
230
0.9999999999999998
 40
0.5773502691896269
 41
0.0
 42
6.283185307179586
  0
ELLIPSE
  5
1F80B
330
1F7CD
100
AcDbEntity
  8
0
100
AcDbEllipse
 10
119.5048336462772
 20
-22.17289535560955
 30
0.0
 11
1.250000000000003
 21
-2.165063509461094
 31
0.0
210
0.0
220
0.0
230
0.9999999999999998
 40
0.5773502691896269
 41
0.0
 42
6.283185307179586
  0
ELLIPSE
  5
1F80C
330
1F7CD
100
AcDbEntity
  8
0
100
AcDbEllipse
 10
119.5048336462772
 20
-5.84296373705504
 30
0.0
 11
1.250000000000003
 21
-2.165063509461094
 31
0.0
210
0.0
220
0.0
230
0.9999999999999998
 40
0.5773502691896269
 41
0.0
 42
6.283185307179586
  0
ELLIPSE
  5
1F80D
330
1F7CD
100
AcDbEntity
  8
0
100
AcDbEllipse
 10
119.5048336462772
 20
10.48696788149948
 30
0.0
 11
1.250000000000003
 21
-2.165063509461094
 31
0.0
210
0.0
220
0.0
230
0.9999999999999998
 40
0.5773502691896269
 41
0.0
 42
6.283185307179586
  0
ELLIPSE
  5
1F80E
330
1F7CD
100
AcDbEntity
  8
0
100
AcDbEllipse
 10
119.5048336462772
 20
26.81689950005401
 30
0.0
 11
1.250000000000003
 21
-2.165063509461094
 31
0.0
210
0.0
220
0.0
230
0.9999999999999998
 40
0.5773502691896269
 41
0.0
 42
6.283185307179586
  0
ELLIPSE
  5
1F80F
330
1F7CD
100
AcDbEntity
  8
0
100
AcDbEllipse
 10
119.5048336462772
 20
43.14683111860848
 30
0.0
 11
1.250000000000003
 21
-2.165063509461094
 31
0.0
210
0.0
220
0.0
230
0.9999999999999998
 40
0.5773502691896269
 41
0.0
 42
6.283185307179586
  0
ELLIPSE
  5
1F810
330
1F7CD
100
AcDbEntity
  8
0
100
AcDbEllipse
 10
119.5048336462772
 20
59.476762737163
 30
0.0
 11
1.250000000000003
 21
-2.165063509461094
 31
0.0
210
0.0
220
0.0
230
0.9999999999999998
 40
0.5773502691896269
 41
0.0
 42
6.283185307179586
  0
ELLIPSE
  5
1F811
330
1F7CD
100
AcDbEntity
  8
0
100
AcDbEllipse
 10
119.5048336462772
 20
75.80669435571753
 30
0.0
 11
1.250000000000003
 21
-2.165063509461094
 31
0.0
210
0.0
220
0.0
230
0.9999999999999998
 40
0.5773502691896269
 41
0.0
 42
6.283185307179586
  0
ELLIPSE
  5
1F812
330
1F7CD
100
AcDbEntity
  8
0
100
AcDbEllipse
 10
119.5048336462772
 20
92.13662597427205
 30
0.0
 11
1.250000000000003
 21
-2.165063509461094
 31
0.0
210
0.0
220
0.0
230
0.9999999999999998
 40
0.5773502691896269
 41
0.0
 42
6.283185307179586
  0
ELLIPSE
  5
1F813
330
1F7CD
100
AcDbEntity
  8
0
100
AcDbEllipse
 10
119.5048336462772
 20
108.4665575928265
 30
0.0
 11
1.250000000000003
 21
-2.165063509461094
 31
0.0
210
0.0
220
0.0
230
0.9999999999999998
 40
0.5773502691896269
 41
0.0
 42
6.283185307179586
  0
ELLIPSE
  5
1F814
330
1F7CD
100
AcDbEntity
  8
0
100
AcDbEllipse
 10
136.4753963947543
 20
106.833564430971
 30
0.0
 11
1.250000000000003
 21
-2.165063509461094
 31
0.0
210
0.0
220
0.0
230
0.9999999999999998
 40
0.5773502691896269
 41
0.0
 42
6.283185307179586
  0
ELLIPSE
  5
1F815
330
1F7CD
100
AcDbEntity
  8
0
100
AcDbEllipse
 10
-58.68607521278686
 20
219.5100925990307
 30
0.0
 11
1.250000000000003
 21
-2.165063509461094
 31
0.0
210
0.0
220
0.0
230
0.9999999999999998
 40
0.5773502691896269
 41
0.0
 42
6.283185307179586
  0
ELLIPSE
  5
1F816
330
1F7CD
100
AcDbEntity
  8
0
100
AcDbEllipse
 10
119.5048336462772
 20
124.7964892113811
 30
0.0
 11
1.250000000000003
 21
-2.165063509461094
 31
0.0
210
0.0
220
0.0
230
0.9999999999999998
 40
0.5773502691896269
 41
0.0
 42
6.283185307179586
  0
ELLIPSE
  5
1F817
330
1F7CD
100
AcDbEntity
  8
0
100
AcDbEllipse
 10
-41.71551246430959
 20
217.877099437175
 30
0.0
 11
-1.24999999999981
 21
2.165063509461242
 31
0.0
210
0.0
220
0.0
230
1.0
 40
0.5773502691896269
 41
4.71238898038446
 42
7.853981633974254
  0
ELLIPSE
  5
1F818
330
1F7CD
100
AcDbEntity
  8
0
100
AcDbEllipse
 10
-50.20079383854832
 20
214.6111131134643
 30
0.0
 11
-3.25000000000001
 21
5.629165124598848
 31
0.0
210
0.0
220
0.0
230
1.0
 40
0.5773502691896269
 41
4.493063494084125
 42
8.07330712027505
  0
ELLIPSE
  5
1F819
330
1F7CD
100
AcDbEntity
  8
0
100
AcDbEllipse
 10
-47.37236671380212
 20
216.2441062753198
 30
0.0
 11
3.250000000000331
 21
-5.629165124598628
 31
0.0
210
0.0
220
0.0
230
0.9999999999999998
 40
0.5773502691896267
 41
3.591789343522108
 42
4.93171446668505
  0
ELLIPSE
  5
1F81A
330
1F7CD
100
AcDbEntity
  8
0
100
AcDbEllipse
 10
-72.4746675462389
 20
188.6873408375907
 30
0.0
 11
1.249999999999999
 21
2.165063509461096
 31
0.0
210
0.0
220
0.0
230
1.0
 40
0.5773502691896259
 41
0.0
 42
6.283185307179586
  0
LINE
  5
1F81B
330
1F7CD
100
AcDbEntity
  8
0
100
AcDbLine
 10
-110.1522183325123
 20
-141.0298298361427
 30
0.0
 11
-109.8749908953657
 21
-137.9396266798724
 31
0.0
  0
SPLINE
  5
1F81C
330
1F7CD
100
AcDbEntity
  8
0
100
AcDbSpline
210
0.0
220
0.0
230
1.0
 70
     8
 71
     3
 72
     8
 73
     4
 74
     0
 42
0.000000001
 43
0.0000000001
 40
0.0
 40
0.0
 40
0.0
 40
0.0
 40
1.0
 40
1.0
 40
1.0
 40
1.0
 10
-109.8749908953657
 20
-137.9396266798724
 30
0.0
 10
-109.4889453315014
 20
-135.9641364421263
 30
0.0
 10
-108.8906634105751
 20
-132.7783827538875
 30
0.0
 10
-107.1228998243795
 20
-130.1545740146862
 30
0.0
  0
LINE
  5
1F81D
330
1F7CD
100
AcDbEntity
  8
0
100
AcDbLine
 10
-107.8957251098102
 20
-129.7083831281063
 30
0.0
 11
-107.1228998243795
 21
-130.1545740146862
 31
0.0
  0
LINE
  5
1F81E
330
1F7CD
100
AcDbEntity
  8
0
100
AcDbLine
 10
-109.9513269491257
 20
-128.5215808528308
 30
0.0
 11
-107.8957251098102
 21
-129.7083831281063
 31
0.0
  0
SPLINE
  5
1F81F
330
1F7CD
100
AcDbEntity
  8
0
100
AcDbSpline
210
0.0
220
0.0
230
1.0
 70
     8
 71
     3
 72
     8
 73
     4
 74
     0
 42
0.000000001
 43
0.0000000001
 40
-1.0
 40
-1.0
 40
-1.0
 40
-1.0
 40
0.0
 40
0.0
 40
0.0
 40
0.0
 10
-109.9513269491257
 20
-128.5215808528308
 30
0.0
 10
-111.7190905353213
 20
-132.7485795488797
 30
0.0
 10
-111.14789079098
 20
-138.0994681430045
 30
0.0
 10
-110.1522183325123
 20
-141.0298298361427
 30
0.0
  0
LINE
  5
1F820
330
1F7CD
100
AcDbEntity
  8
0
100
AcDbLine
 10
-107.1228998243795
 20
-130.1545740146862
 30
0.0
 11
-79.54573535810419
 21
-82.38952403041439
 31
0.0
  0
LINE
  5
1F821
330
1F7CD
100
AcDbEntity
  8
0
100
AcDbLine
 10
-82.37416248285036
 20
-80.75653086855894
 30
0.0
 11
-79.54573535810419
 21
-82.38952403041439
 31
0.0
  0
LINE
  5
1F822
330
1F7CD
100
AcDbEntity
  8
0
100
AcDbLine
 10
-82.37416248285036
 20
-80.75653086855894
 30
0.0
 11
-109.9513269491257
 21
-128.5215808528308
 31
0.0
  0
LINE
  5
1F823
330
1F7CD
100
AcDbEntity
  8
0
100
AcDbLine
 10
-79.54573535810419
 20
-82.38952403041439
 30
0.0
 11
-79.54573535810377
 21
192.769823742229
 31
0.0
  0
LINE
  5
1F824
330
1F7CD
100
AcDbEntity
  8
0
100
AcDbLine
 10
-79.54573535810377
 20
192.769823742229
 30
0.0
 11
-82.37416248284993
 21
194.4028169040844
 31
0.0
  0
LINE
  5
1F825
330
1F7CD
100
AcDbEntity
  8
0
100
AcDbLine
 10
-82.37416248284993
 20
194.4028169040844
 30
0.0
 11
-82.37416248285036
 21
-80.75653086855894
 31
0.0
  0
ELLIPSE
  5
1F826
330
1F7CD
100
AcDbEntity
  8
0
100
AcDbEllipse
 10
-109.5977634582192
 20
-134.8494235236023
 30
0.0
 11
-1.999999999999684
 21
3.464101615137686
 31
0.0
210
0.0
220
0.0
230
1.0
 40
0.5773502691896259
 41
2.258022171534424
 42
2.356194490192585
  0
LINE
  5
1F827
330
1F7CD
100
AcDbEntity
  8
0
100
AcDbLine
 10
-31.81601752769904
 20
-93.2080978962881
 30
0.0
 11
-109.5977634582192
 21
-138.115409847313
 31
0.0
  0
ELLIPSE
  5
1F828
330
1F7CD
100
AcDbEntity
  8
0
100
AcDbEllipse
 10
-31.81601752769904
 20
-89.94211157257707
 30
0.0
 11
2.000000000000102
 21
-3.464101615137931
 31
0.0
210
0.0
220
0.0
230
0.9999999999999998
 40
0.5773502691896258
 41
5.399614825124022
 42
5.497787143782137
  0
LINE
  5
1F829
330
1F7CD
100
AcDbEntity
  8
0
100
AcDbLine
 10
-34.64444465244523
 20
-88.30911841072174
 30
0.0
 11
-107.1228998243795
 21
-130.1545740146862
 31
0.0
  0
LINE
  5
1F82A
330
1F7CD
100
AcDbEntity
  8
0
100
AcDbLine
 10
-34.64444465244472
 20
218.6935960181028
 30
0.0
 11
-34.64444465244524
 21
-88.30911841072168
 31
0.0
  0
LINE
  5
1F82B
330
1F7CD
100
AcDbEntity
  8
0
100
AcDbLine
 10
-34.64444465244472
 20
218.6935960181028
 30
0.0
 11
-79.54573535810377
 21
192.769823742229
 31
0.0
  0
ELLIPSE
  5
1F82C
330
1F7CD
100
AcDbEntity
  8
0
100
AcDbEllipse
 10
-40.30129890193712
 20
221.9595823418138
 30
0.0
 11
8.00000000000001
 21
0.0
 31
0.0
210
0.0
220
0.0
230
1.0
 40
0.5773502691896258
 41
5.497787143782137
 42
7.068583470577035
  0
LINE
  5
1F82D
330
1F7CD
100
AcDbEntity
  8
0
100
AcDbLine
 10
-37.47287177719092
 20
223.5925755036692
 30
0.0
 11
-37.47287177719092
 21
220.3265891799583
 31
0.0
  0
LINE
  5
1F82E
330
1F7CD
100
AcDbEntity
  8
0
100
AcDbLine
 10
-37.47287177719092
 20
223.5925755036692
 30
0.0
 11
-63.98937607168644
 21
238.9018863960642
 31
0.0
  0
LINE
  5
1F82F
330
1F7CD
100
AcDbEntity
  8
0
100
AcDbLine
 10
-63.98937607168666
 20
205.0172782875634
 30
0.0
 11
-63.98937607168644
 21
238.9018863960642
 31
0.0
  0
LINE
  5
1F830
330
1F7CD
100
AcDbEntity
  8
0
100
AcDbLine
 10
-34.64444465244473
 20
225.2255686655247
 30
0.0
 11
-37.47287177719092
 21
223.5925755036692
 31
0.0
  0
LINE
  5
1F831
330
1F7CD
100
AcDbEntity
  8
0
100
AcDbLine
 10
-61.16094894694025
 20
240.5348795579196
 30
0.0
 11
-34.64444465244473
 21
225.2255686655247
 31
0.0
  0
LINE
  5
1F832
330
1F7CD
100
AcDbEntity
  8
0
100
AcDbLine
 10
-63.98937607168644
 20
238.9018863960642
 30
0.0
 11
-61.16094894694025
 21
240.5348795579196
 31
0.0
  0
ELLIPSE
  5
1F833
330
1F7CD
100
AcDbEntity
  8
0
100
AcDbEllipse
 10
-40.30129890193712
 20
221.9595823418138
 30
0.0
 11
4.000000000000021
 21
-0.0000000000000003
 31
0.0
210
0.0
220
0.0
230
1.0
 40
0.5773502691896258
 41
5.497787143782133
 42
7.068583470577022
  0
LINE
  5
1F834
330
1F7CD
100
AcDbEntity
  8
0
100
AcDbLine
 10
-37.47287177719091
 20
220.3265891799583
 30
0.0
 11
-34.64444465244472
 21
218.6935960181028
 31
0.0
  0
ELLIPSE
  5
1F835
330
1F7CD
100
AcDbEntity
  8
0
100
AcDbEllipse
 10
-109.5977634582192
 20
-134.8494235236024
 30
0.0
 11
-3.99999999999937
 21
6.928203230275371
 31
0.0
210
0.0
220
0.0
230
1.0
 40
0.5773502691896259
 41
2.258022171534427
 42
2.356194490192589
  0
LINE
  5
1F836
330
1F7CD
100
AcDbEntity
  8
0
100
AcDbLine
 10
-82.37416248284993
 20
194.4028169040844
 30
0.0
 11
-37.47287177719091
 21
220.3265891799583
 31
0.0
  0
LINE
  5
1F837
330
1F7CD
100
AcDbEntity
  8
0
100
AcDbLine
 10
-109.5977634582192
 20
-138.115409847313
 30
0.0
 11
-109.5977634582192
 21
-141.3813961710239
 31
0.0
  0
LINE
  5
1F838
330
1F7CD
100
AcDbEntity
  8
0
100
AcDbLine
 10
-32.30129890193762
 20
-85.04313208701084
 30
0.0
 11
-32.3012989019371
 21
221.9595823418138
 31
0.0
  0
ELLIPSE
  5
1F839
330
1F7CD
100
AcDbEntity
  8
0
100
AcDbEllipse
 10
127.9901150204602
 20
111.7325439165695
 30
0.0
 11
3.250000000000007
 21
-5.629165124598845
 31
0.0
210
0.0
220
0.0
230
0.9999999999999998
 40
0.577350269189627
 41
0.0
 42
6.283185307179586
  0
ELLIPSE
  5
1F83A
330
1F7CD
100
AcDbEntity
  8
0
100
AcDbEllipse
 10
130.8185421452064
 20
113.365537078425
 30
0.0
 11
3.250000000000316
 21
-5.629165124598602
 31
0.0
210
0.0
220
0.0
230
1.0
 40
0.5773502691896267
 41
3.591789343522103
 42
5.832988617246443
  0
ELLIPSE
  5
1F83B
330
1F7CD
100
AcDbEntity
  8
0
100
AcDbEllipse
 10
71.77511581581645
 20
97.23972377368566
 30
0.0
 11
-1.249999999999996
 21
-2.165063509461098
 31
0.0
210
0.0
220
0.0
230
1.0
 40
0.5773502691896269
 41
0.0
 42
6.283185307179586
  0
ELLIPSE
  5
1F83C
330
1F7CD
100
AcDbEntity
  8
0
100
AcDbEllipse
 10
-4.945959842610205
 20
-156.078334627723
 30
0.0
 11
2.499999999999999
 21
-0.0000000000001489
 31
0.0
210
0.0
220
0.0
230
1.0
 40
0.5773502691896257
 41
0.0
 42
6.283185307179586
  0
ELLIPSE
  5
1F83D
330
1F7CD
100
AcDbEntity
  8
0
100
AcDbEllipse
 10
-33.23023109007211
 20
-172.4082662462775
 30
0.0
 11
2.499999999999999
 21
-0.0000000000001489
 31
0.0
210
0.0
220
0.0
230
1.0
 40
0.5773502691896257
 41
0.0
 42
6.283185307179586
  0
SPLINE
  5
1F83E
330
1F7CD
100
AcDbEntity
  8
0
100
AcDbSpline
210
0.0
220
0.0
230
1.0
 70
     8
 71
     3
 72
    14
 73
    10
 74
     0
 42
0.000000001
 43
0.0000000001
 40
0.5550662864640929
 40
0.5550662864640929
 40
0.5550662864640929
 40
0.5550662864640929
 40
0.5789547831913938
 40
0.5789547831913938
 40
0.5789547831913938
 40
0.8298827852155699
 40
0.8298827852155699
 40
0.8298827852155699
 40
0.97895427562622
 40
0.97895427562622
 40
0.97895427562622
 40
0.97895427562622
 10
-33.44684104635066
 20
-88.95053227469617
 30
0.0
 10
-33.45952457453385
 20
-89.03595424593152
 30
0.0
 10
-33.47138419214537
 20
-89.12081915500207
 30
0.0
 10
-33.48222771758635
 20
-89.20509660020343
 30
0.0
 10
-33.59612957607756
 20
-90.09035828834944
 30
0.0
 10
-33.60226902045727
 20
-90.92361994750175
 30
0.0
 10
-33.27572078749354
 20
-91.66507618200782
 30
0.0
 10
-33.08172477514663
 20
-92.10556104244774
 30
0.0
 10
-32.77884175834461
 20
-92.49968081795342
 30
0.0
 10
-32.30454992719348
 20
-92.87459631930719
 30
0.0
  0
ELLIPSE
  5
1F83F
330
1F7CD
100
AcDbEntity
  8
0
100
AcDbEllipse
 10
-40.30129890193758
 20
-85.04313208701081
 30
0.0
 11
7.999999999999972
 21
0.0000000000000003
 31
0.0
210
0.0
220
0.0
230
1.0
 40
0.5773502691896258
 41
5.53368208098877
 42
6.283185307179589
  0
ELLIPSE
  5
1F840
330
1F7CD
100
AcDbEntity
  8
0
100
AcDbEllipse
 10
-40.30129890198712
 20
-85.04313208698313
 30
0.0
 11
8.000000000068894
 21
0.0000000000000008
 31
0.0
210
0.0
220
0.0
230
1.0
 40
0.5773502691896257
 41
5.497787143782278
 42
5.533682080988598
  0
ELLIPSE
  5
1F841
330
1F7CD
100
AcDbEntity
  8
0
100
AcDbEllipse
 10
-31.81601752769904
 20
-89.94211157257721
 30
0.0
 11
2.000000000000218
 21
-3.464101615137654
 31
0.0
210
0.0
220
0.0
230
0.9999999999999998
 40
0.5773502691896257
 41
3.926990816987
 42
5.399614825123803
  0
ELLIPSE
  5
1F842
330
1F7CD
100
AcDbEntity
  8
0
100
AcDbEllipse
 10
112.4337658343567
 20
-173.2247628272053
 30
0.0
 11
-4.00000000000004
 21
-0.0000000000002449
 31
0.0
210
0.0
220
0.0
230
1.0
 40
0.5773502691896245
 41
4.123335451831959
 42
5.497787143781938
  0
ELLIPSE
  5
1F843
330
1F7CD
100
AcDbEntity
  8
0
100
AcDbEllipse
 10
103.9484844601181
 20
-168.3257833416389
 30
0.0
 11
3.999999999999991
 21
-6.928203230275522
 31
0.0
210
0.0
220
0.0
230
1.0
 40
0.5773502691896259
 41
0.0000000000000097
 42
0.785398163397458
  0
SPLINE
  5
1F844
330
1F7CD
100
AcDbEntity
  8
0
100
AcDbSpline
210
0.0
220
0.0
230
1.0
 70
     8
 71
     3
 72
    14
 73
    10
 74
     0
 42
0.000000001
 43
0.0000000001
 40
-0.7204734365201487
 40
-0.7204734365201487
 40
-0.7204734365201487
 40
-0.7204734365201487
 40
-0.3811602335541076
 40
-0.3811602335541076
 40
-0.3811602335541076
 40
-0.0932558951981921
 40
-0.0932558951981921
 40
-0.0932558951981921
 40
0.0
 40
0.0
 40
0.0
 40
0.0
 10
107.5663115203256
 20
-175.4756715688917
 30
0.0
 10
108.8296132277438
 20
-175.2413092129387
 30
0.0
 10
110.0844334632162
 20
-174.633156477771
 30
0.0
 10
111.2503424096814
 20
-173.8999186053881
 30
0.0
 10
112.2396061367663
 20
-173.2777725684507
 30
0.0
 10
113.1568554791501
 20
-172.5629949147331
 30
0.0
 10
113.9417379869644
 20
-171.9120322087716
 30
0.0
 10
114.1959714636449
 20
-171.7011770676794
 30
0.0
 10
114.4319617991918
 20
-171.4953336736825
 30
0.0
 10
114.656063083183
 20
-171.3045723038579
 30
0.0
  0
LINE
  5
1F845
330
1F7CD
100
AcDbEntity
  8
0
100
AcDbLine
 10
114.6569112572242
 20
-171.3038394335109
 30
0.0
 11
114.6560630831831
 21
-171.3045723038579
 31
0.0
  0
SPLINE
  5
1F846
330
1F7CD
100
AcDbEntity
  8
0
100
AcDbSpline
210
0.0
220
0.0
230
1.0
 70
     8
 71
     3
 72
    12
 73
     8
 74
     0
 42
0.000000001
 43
0.0000000001
 40
0.0
 40
0.0
 40
0.0
 40
0.0
 40
0.1497773179143312
 40
0.1497773179143312
 40
0.239691550588913
 40
0.239691550588913
 40
0.3334513135442363
 40
0.3334513135442363
 40
0.3334513135442363
 40
0.3334513135442363
 10
-32.45332735824874
 20
-85.93929299249991
 30
0.0
 10
-32.61512083592228
 20
-86.41158324534748
 30
0.0
 10
-32.80616850890066
 20
-86.8776755883247
 30
0.0
 10
-33.08305141362681
 20
-87.60661803591579
 30
0.0
 10
-33.18082384144582
 20
-87.8785194721564
 30
0.0
 10
-33.34473753044377
 20
-88.42188674373687
 30
0.0
 10
-33.40906538084169
 20
-88.69481305693424
 30
0.0
 10
-33.4468791776323
 20
-88.95030831086842
 30
0.0
  0
LINE
  5
1F847
330
1F7CD
100
AcDbEntity
  8
0
100
AcDbLine
 10
-109.5977634582192
 20
-138.115409847313
 30
0.0
 11
26.1667385295979
 21
-216.4990816163748
 31
0.0
  0
LINE
  5
1F848
330
1F7CD
100
AcDbEntity
  8
0
100
AcDbLine
 10
-109.5977634582192
 20
-141.3813961710239
 30
0.0
 11
26.1667385295979
 21
-219.7650679400857
 31
0.0
  0
LINE
  5
1F849
330
1F7CD
100
AcDbEntity
  8
0
100
AcDbLine
 10
106.7769115848638
 20
137.0439379253308
 30
0.0
 11
61.87562087920476
 21
111.1201656494569
 31
0.0
  0
LINE
  5
1F84A
330
1F7CD
100
AcDbEntity
  8
0
100
AcDbLine
 10
64.70404800395096
 20
109.4871724876015
 30
0.0
 11
109.60533870961
 21
135.4109447634754
 31
0.0
  0
LINE
  5
1F84B
330
1F7CD
100
AcDbEntity
  8
0
100
AcDbLine
 10
34.29845641292999
 20
-211.8042321074589
 30
0.0
 11
26.1667385295979
 21
-216.4990816163748
 31
0.0
  0
LINE
  5
1F84C
330
1F7CD
100
AcDbEntity
  8
0
100
AcDbLine
 10
26.1667385295979
 20
-216.4990816163748
 30
0.0
 11
26.1667385295979
 21
-219.7650679400857
 31
0.0
  0
ELLIPSE
  5
1F84D
330
1F7CD
100
AcDbEntity
  8
0
100
AcDbEllipse
 10
26.1667385295979
 20
-213.233095292664
 30
0.0
 11
1.999999999999891
 21
-3.464101615137566
 31
0.0
210
0.0
220
0.0
230
1.0
 40
0.5773502691896259
 41
5.497787143782137
 42
5.595959462440273
  0
ELLIPSE
  5
1F84E
330
1F7CD
100
AcDbEntity
  8
0
100
AcDbEllipse
 10
26.16673852959792
 20
-213.2330952926642
 30
0.0
 11
3.999999999999782
 21
-6.928203230275133
 31
0.0
210
0.0
220
0.0
230
1.0
 40
0.5773502691896259
 41
5.497787143782133
 42
5.595959462440269
  0
LINE
  5
1F84F
330
1F7CD
100
AcDbEntity
  8
0
100
AcDbLine
 10
37.12688353767619
 20
-213.4372252693143
 30
0.0
 11
109.6053387096105
 21
-171.5917696653498
 31
0.0
  0
LINE
  5
1F850
330
1F7CD
100
AcDbEntity
  8
0
100
AcDbLine
 10
107.9484844601181
 20
-175.2539865719144
 30
0.0
 11
32.64161225930076
 21
-218.7324295088851
 31
0.0
  0
LINE
  5
1F851
330
1F7CD
100
AcDbEntity
  8
0
100
AcDbLine
 10
61.87562087920522
 20
-147.3009905513313
 30
0.0
 11
-31.81601752769904
 21
-93.2080978962881
 31
0.0
  0
ELLIPSE
  5
1F852
330
1F7CD
100
AcDbEntity
  8
0
100
AcDbEllipse
 10
112.4337658343562
 20
133.7779516016199
 30
0.0
 11
-8.000000000000007
 21
-0.0000000000004777
 31
0.0
210
0.0
220
0.0
230
1.0
 40
0.5773502691896258
 41
3.926990816987
 42
5.497787143781897
  0
LINE
  5
1F853
330
1F7CD
100
AcDbEntity
  8
0
100
AcDbLine
 10
115.2621929591024
 20
135.4109447634754
 30
0.0
 11
115.2621929591029
 21
-170.7752963998193
 31
0.0
  0
LINE
  5
1F854
330
1F7CD
100
AcDbEntity
  8
0
100
AcDbLine
 10
118.0906200838486
 20
137.0439379253308
 30
0.0
 11
115.2621929591024
 21
135.4109447634754
 31
0.0
  0
LINE
  5
1F855
330
1F7CD
100
AcDbEntity
  8
0
100
AcDbLine
 10
109.60533870961
 20
135.4109447634754
 30
0.0
 11
106.7769115848638
 21
137.0439379253308
 31
0.0
  0
ELLIPSE
  5
1F856
330
1F7CD
100
AcDbEntity
  8
0
100
AcDbEllipse
 10
112.4337658343562
 20
133.7779516016199
 30
0.0
 11
4.000000000000021
 21
-0.0000000000002383
 31
0.0
210
0.0
220
0.0
230
1.0
 40
0.5773502691896257
 41
0.7853981633977041
 42
2.356194490192592
  0
LINE
  5
1F857
330
1F7CD
100
AcDbEntity
  8
0
100
AcDbLine
 10
109.6053387096105
 20
-171.5917696653498
 30
0.0
 11
109.60533870961
 21
135.4109447634754
 31
0.0
  0
LINE
  5
1F858
330
1F7CD
100
AcDbEntity
  8
0
100
AcDbLine
 10
26.72119340389099
 20
-220.0537309470576
 30
0.0
 11
26.44396596674445
 21
-216.6434131198607
 31
0.0
  0
SPLINE
  5
1F859
330
1F7CD
100
AcDbEntity
  8
0
100
AcDbSpline
210
0.0
220
0.0
230
1.0
 70
     8
 71
     3
 72
     8
 73
     4
 74
     0
 42
0.000000001
 43
0.0000000001
 40
-1.0
 40
-1.0
 40
-1.0
 40
-1.0
 40
0.0
 40
0.0
 40
0.0
 40
0.0
 10
37.12688353767618
 20
-213.4372252693143
 30
0.0
 10
35.35911995148059
 20
-217.6642239653632
 30
0.0
 10
31.25239303475151
 20
-220.3143103424697
 30
0.0
 10
26.72119340389099
 20
-220.0537309470576
 30
0.0
  0
LINE
  5
1F85A
330
1F7CD
100
AcDbEntity
  8
0
100
AcDbLine
 10
37.12688353767619
 20
-213.4372252693143
 30
0.0
 11
35.07128169836068
 21
-212.2504229940388
 31
0.0
  0
LINE
  5
1F85B
330
1F7CD
100
AcDbEntity
  8
0
100
AcDbLine
 10
35.07128169836068
 20
-212.2504229940388
 30
0.0
 11
34.29845641292999
 21
-211.8042321074589
 31
0.0
  0
SPLINE
  5
1F85C
330
1F7CD
100
AcDbEntity
  8
0
100
AcDbSpline
210
0.0
220
0.0
230
1.0
 70
     8
 71
     3
 72
     8
 73
     4
 74
     0
 42
0.000000001
 43
0.0000000001
 40
0.0
 40
0.0
 40
0.0
 40
0.0
 40
1.0
 40
1.0
 40
1.0
 40
1.0
 10
26.44396596674445
 20
-216.6434131198607
 30
0.0
 10
29.59344757527291
 20
-216.2633934263897
 30
0.0
 10
32.5306928267344
 20
-214.4280408466602
 30
0.0
 10
34.29845641292999
 20
-211.8042321074589
 30
0.0
  0
LINE
  5
1F85D
330
1F7CD
100
AcDbEntity
  8
0
100
AcDbLine
 10
34.29845641292999
 20
-211.8042321074589
 30
0.0
 11
61.87562087920525
 21
-164.0391821231869
 31
0.0
  0
LINE
  5
1F85E
330
1F7CD
100
AcDbEntity
  8
0
100
AcDbLine
 10
64.70404800395144
 20
-165.6721752850424
 30
0.0
 11
37.12688353767619
 21
-213.4372252693143
 31
0.0
  0
LINE
  5
1F85F
330
1F7CD
100
AcDbEntity
  8
0
100
AcDbLine
 10
64.70404800395144
 20
-165.6721752850424
 30
0.0
 11
61.87562087920525
 21
-164.0391821231869
 31
0.0
  0
LINE
  5
1F860
330
1F7CD
100
AcDbEntity
  8
0
100
AcDbLine
 10
61.87562087920525
 20
-164.0391821231869
 30
0.0
 11
61.87562087920476
 21
111.1201656494569
 31
0.0
  0
LINE
  5
1F861
330
1F7CD
100
AcDbEntity
  8
0
100
AcDbLine
 10
64.70404800395096
 20
109.4871724876015
 30
0.0
 11
64.70404800395144
 21
-165.6721752850424
 31
0.0
  0
LINE
  5
1F862
330
1F7CD
100
AcDbEntity
  8
0
100
AcDbLine
 10
61.87562087920476
 20
111.1201656494569
 30
0.0
 11
64.70404800395096
 21
109.4871724876015
 31
0.0
  0
LINE
  5
1F863
330
1F7CD
100
AcDbEntity
  8
0
100
AcDbLine
 10
141.7786972535981
 20
-155.4659855074243
 30
0.0
 11
144.6071243783444
 21
-153.8329923455689
 31
0.0
  0
LINE
  5
1F864
330
1F7CD
100
AcDbEntity
  8
0
100
AcDbLine
 10
115.2621929591029
 20
-170.7752963998193
 30
0.0
 11
141.7786972535981
 21
-155.4659855074243
 31
0.0
  0
SPLINE
  5
1F865
330
1F7CD
100
AcDbEntity
  8
0
100
AcDbSpline
210
0.0
220
0.0
230
1.0
 70
     8
 71
     3
 72
     8
 73
     4
 74
     0
 42
0.000000001
 43
0.0000000001
 40
-0.124996876740521
 40
-0.124996876740521
 40
-0.124996876740521
 40
-0.124996876740521
 40
0.0
 40
0.0
 40
0.0
 40
0.0
 10
114.6560630831831
 20
-171.3045723038579
 30
0.0
 10
114.8728931337162
 20
-171.1187163801422
 30
0.0
 10
115.0770774621051
 20
-170.9405776729736
 30
0.0
 10
115.2621929591029
 20
-170.7752963998195
 30
0.0
  0
SPLINE
  5
1F866
330
1F7CD
100
AcDbEntity
  8
0
100
AcDbSpline
210
0.0
220
0.0
230
1.0
 70
     8
 71
     3
 72
     8
 73
     4
 74
     0
 42
0.000000001
 43
0.0000000001
 40
0.0
 40
0.0
 40
0.0
 40
0.0
 40
0.1724604610624533
 40
0.1724604610624533
 40
0.1724604610624533
 40
0.1724604610624533
 10
116.0350182445368
 20
-170.3291055132376
 30
0.0
 10
115.5656403218589
 20
-170.6001009832474
 30
0.0
 10
115.0905616754401
 20
-170.9291409434941
 30
0.0
 10
114.6569112572242
 20
-171.3038394335109
 30
0.0
  0
LINE
  5
1F867
330
1F7CD
100
AcDbEntity
  8
0
100
AcDbLine
 10
141.7786972535981
 20
-155.4659855074243
 30
0.0
 11
141.7786972535979
 21
120.1016338710806
 31
0.0
  0
LINE
  5
1F868
330
1F7CD
100
AcDbEntity
  8
0
100
AcDbLine
 10
115.2621929591024
 20
135.4109447634754
 30
0.0
 11
141.7786972535979
 21
120.1016338710806
 31
0.0
  0
LINE
  5
1F869
330
1F7CD
100
AcDbEntity
  8
0
100
AcDbLine
 10
141.7786972535979
 20
120.1016338710806
 30
0.0
 11
144.6071243783441
 21
121.734627032936
 31
0.0
  0
LINE
  5
1F86A
330
1F7CD
100
AcDbEntity
  8
0
100
AcDbLine
 10
144.6071243783441
 20
121.734627032936
 30
0.0
 11
118.0906200838486
 21
137.0439379253308
 31
0.0
  0
LINE
  5
1F86B
330
1F7CD
100
AcDbEntity
  8
0
100
AcDbLine
 10
144.6071243783444
 20
-153.8329923455689
 30
0.0
 11
144.6071243783441
 21
121.734627032936
 31
0.0
  0
ENDBLK
  5
1F7CF
330
1F7CD
100
AcDbEntity
  8
0
100
AcDbBlockEnd
  0
ENDSEC
  0
SECTION
  2
ENTITIES
  0
INSERT
  5
1F86C
330
1F
100
AcDbEntity
  8
0
100
AcDbBlockReference
  2
GSE960_200_4-Front
 10
0.0
 20
0.0
 30
0.0
  0
INSERT
  5
1F86D
330
1F
100
AcDbEntity
  8
0
100
AcDbBlockReference
  2
GSE960_200_4-Left
 10
260.7
 20
0.0
 30
0.0
  0
INSERT
  5
1F86E
330
1F
100
AcDbEntity
  8
0
100
AcDbBlockReference
  2
GSE960_200_4-Right
 10
-260.7
 20
0.0
 30
0.0
  0
INSERT
  5
1F86F
330
1F
100
AcDbEntity
  8
0
100
AcDbBlockReference
  2
GSE960_200_4-Top
 10
0.0
 20
-119.1999999999999
 30
0.0
  0
INSERT
  5
1F870
330
1F
100
AcDbEntity
  8
0
100
AcDbBlockReference
  2
GSE960_200_4-Bottom
 10
0.0
 20
495.2
 30
0.0
  0
INSERT
  5
1F871
330
1F
100
AcDbEntity
  8
0
100
AcDbBlockReference
  2
GSE960_200_4-ISO
 10
371.9588405604345
 20
-359.7348795579196
 30
0.0
  0
MTEXT
  5
1F872
330
1F
100
AcDbEntity
  8
0
100
AcDbMText
 10
0.0
 20
-352.4
 30
0.0
 40
28.96666666666666
 41
0.0
 71
     5
 72
     5
  1
GSE960/200/4
 73
     1
 44
1.0
1001
ACAD
1000
MTEXTBEGIN
1070
    73
1070
     1
1070
    44
1040
1.0
1070
    74
1070
     0
1000
MTEXTEND
  0
ENDSEC
  0
SECTION
  2
OBJECTS
  0
DICTIONARY
  5
C
330
0
100
AcDbDictionary
281
     1
  3
ACAD_CIP_PREVIOUS_PRODUCT_INFO
350
1A5
  3
ACAD_COLOR
350
73
  3
ACAD_DETAILVIEWSTYLE
350
1AB
  3
ACAD_GROUP
350
D
  3
ACAD_LAYOUT
350
1A
  3
ACAD_MATERIAL
350
72
  3
ACAD_MLEADERSTYLE
350
D7
  3
ACAD_MLINESTYLE
350
17
  3
ACAD_PLOTSETTINGS
350
19
  3
ACAD_PLOTSTYLENAME
350
E
  3
ACAD_SCALELIST
350
B6
  3
ACAD_SECTIONVIEWSTYLE
350
1A8
  3
ACAD_TABLESTYLE
350
86
  3
ACAD_VISUALSTYLE
350
99
  3
ACDB_RECOMPOSE_DATA
350
1F96A
  3
AcDbVariableDictionary
350
66
  3
DWGPROPS
350
1F96B
  0
DICTIONARY
  5
1F8C2
330
8
100
AcDbDictionary
280
     1
281
     1
  0
DICTIONARY
  5
18E
330
2
100
AcDbDictionary
280
     1
281
     1
  3
ACAD_LAYERSTATES
360
18F
  0
DICTIONARY
  5
E6
330
10
100
AcDbDictionary
280
     1
281
     1
  0
DICTIONARY
  5
15D
330
1F
100
AcDbDictionary
280
     1
281
     1
  3
ACAD_LAYOUTSELFREF
360
1F8CA
  0
DICTIONARY
  5
1F876
330
58
100
AcDbDictionary
280
     1
281
     1
  3
ACAD_LAYOUTSELFREF
360
1F8CC
  0
DICTIONARY
  5
1F878
330
5D
100
AcDbDictionary
280
     1
281
     1
  3
ACAD_LAYOUTSELFREF
360
1F8CF
  0
XRECORD
  5
1A5
102
{ACAD_REACTORS
330
C
102
}
330
C
100
AcDbXrecord
280
     1
300
ACD
300
2021
300

  0
DICTIONARY
  5
73
102
{ACAD_REACTORS
330
C
102
}
330
C
100
AcDbDictionary
281
     1
  0
DICTIONARY
  5
1AB
102
{ACAD_REACTORS
330
C
102
}
330
C
100
AcDbDictionary
281
     1
  3
Imperial24
350
1AC
  0
DICTIONARY
  5
D
102
{ACAD_REACTORS
330
C
102
}
330
C
100
AcDbDictionary
281
     1
  0
DICTIONARY
  5
1A
102
{ACAD_REACTORS
330
C
102
}
330
C
100
AcDbDictionary
281
     1
  3
Layout1
350
59
  3
Layout2
350
5E
  3
Model
350
22
  0
DICTIONARY
  5
72
102
{ACAD_REACTORS
330
C
102
}
330
C
100
AcDbDictionary
281
     1
  3
ByBlock
350
97
  3
ByLayer
350
96
  3
Global
350
98
  0
DICTIONARY
  5
D7
102
{ACAD_REACTORS
330
C
102
}
330
C
100
AcDbDictionary
281
     1
  3
Standard
350
D8
  0
DICTIONARY
  5
17
102
{ACAD_REACTORS
330
C
102
}
330
C
100
AcDbDictionary
281
     1
  3
Standard
350
18
  0
DICTIONARY
  5
19
102
{ACAD_REACTORS
330
C
102
}
330
C
100
AcDbDictionary
281
     1
  0
ACDBDICTIONARYWDFLT
  5
E
102
{ACAD_REACTORS
330
C
102
}
330
C
100
AcDbDictionary
281
     1
  3
Normal
350
F
100
AcDbDictionaryWithDefault
340
F
  0
DICTIONARY
  5
B6
102
{ACAD_REACTORS
330
C
102
}
330
C
100
AcDbDictionary
281
     1
  3
A0
350
B7
  3
A1
350
124
  3
A2
350
125
  3
A3
350
126
  3
A4
350
127
  3
A5
350
128
  3
A6
350
129
  3
A7
350
12A
  3
A8
350
12B
  3
A9
350
12C
  3
B0
350
12D
  3
B1
350
12E
  3
B2
350
12F
  3
B3
350
130
  3
B4
350
131
  3
B5
350
132
  3
B6
350
133
  3
B7
350
134
  3
B8
350
135
  3
B9
350
136
  3
C0
350
137
  3
C1
350
138
  3
C2
350
139
  3
C3
350
13A
  3
C4
350
13B
  3
C5
350
13C
  3
C6
350
13D
  3
C7
350
13E
  3
C8
350
13F
  3
C9
350
140
  3
D0
350
141
  3
D1
350
142
  3
D2
350
143
  0
DICTIONARY
  5
1A8
102
{ACAD_REACTORS
330
C
102
}
330
C
100
AcDbDictionary
281
     1
  3
Imperial24
350
1AA
  0
DICTIONARY
  5
86
102
{ACAD_REACTORS
330
C
102
}
330
C
100
AcDbDictionary
281
     1
  3
Standard
350
87
  0
DICTIONARY
  5
99
102
{ACAD_REACTORS
330
C
102
}
330
C
100
AcDbDictionary
281
     1
  3
2dWireframe
350
9F
  3
Basic
350
9E
  3
Brighten
350
A5
  3
ColorChange
350
A9
  3
Conceptual
350
A2
  3
Dim
350
A4
  3
EdgeColorOff
350
175
  3
Facepattern
350
A8
  3
Flat
350
9A
  3
FlatWithEdges
350
9B
  3
Gouraud
350
9C
  3
GouraudWithEdges
350
9D
  3
Hidden
350
A1
  3
JitterOff
350
173
  3
Linepattern
350
A7
  3
OverhangOff
350
174
  3
Realistic
350
A3
  3
Shaded
350
182
  3
Shaded with edges
350
181
  3
Shades of Gray
350
17E
  3
Sketchy
350
17F
  3
Thicken
350
A6
  3
Wireframe
350
A0
  3
X-Ray
350
180
  0
XRECORD
  5
1F96A
102
{ACAD_REACTORS
330
C
102
}
330
C
100
AcDbXrecord
280
     1
 90
        1
330
87
  0
DICTIONARY
  5
66
102
{ACAD_REACTORS
330
C
102
}
330
C
100
AcDbDictionary
281
     1
  3
CANNOSCALE
350
F0
  3
CMLEADERSTYLE
350
EF
  3
CTABLESTYLE
350
89
  3
CVIEWDETAILSTYLE
350
1B7
  3
CVIEWSECTIONSTYLE
350
1B8
  3
DIMASSOC
350
67
  3
HIDETEXT
350
6B
  3
INDEXCTL
350
1F91D
  3
LAYEREVAL
350
14D
  3
LAYERNOTIFY
350
14E
  3
LIGHTINGUNITS
350
1F91B
  3
MSLTSCALE
350
1F91A
  3
SORTENTS
350
1F91C
  3
XCLIPFRAME
350
1F968
  0
XRECORD
  5
1F96B
102
{ACAD_REACTORS
330
C
102
}
330
C
100
AcDbXrecord
280
     1
  1
DWGPROPS COOKIE
  2

  3

  4

  6

  7

  8
tronnguyen
  9

300
=
301
=
302
=
303
=
304
=
305
=
306
=
307
=
308
=
309
=
 40
0.0062615740740741
 41
2460200.550335648
 42
2460200.575706019
  1

 90
        0
  0
DICTIONARY
  5
18F
102
{ACAD_REACTORS
330
18E
102
}
330
18E
100
AcDbDictionary
281
     1
  0
XRECORD
  5
1F8CA
102
{ACAD_REACTORS
330
15D
102
}
330
15D
100
AcDbXrecord
280
     1
340
1F
  0
XRECORD
  5
1F8CC
102
{ACAD_REACTORS
330
1F876
102
}
330
1F876
100
AcDbXrecord
280
     1
340
58
  0
XRECORD
  5
1F8CF
102
{ACAD_REACTORS
330
1F878
102
}
330
1F878
100
AcDbXrecord
280
     1
340
5D
  0
ACDBDETAILVIEWSTYLE
  5
1AC
102
{ACAD_XDICTIONARY
360
1F9AA
102
}
102
{ACAD_REACTORS
330
1AB
102
}
330
1AB
100
AcDbModelDocViewStyle
 70
     0
  3
Imperial24
290
     0
100
AcDbDetailViewStyle
 70
     0
 71
     0
 90
        3
 71
     1
340
11
 40
0.24
340
0
 40
0.24
300

 40
0.36
280
     3
 71
     2
340
16
 90
       25
 71
     3
340
11
 40
0.24
 90
        1
 40
0.75
 90
        1
300
%<\AcVar ViewType \f "%tc1">% %<\AcVar ViewDetailId>%\PSCALE %<\AcVar ViewScale \f "%sn">%
 71
     4
340
16
 90
       25
340
16
 90
       25
280
     0
  0
LAYOUT
  5
59
102
{ACAD_XDICTIONARY
360
1F96E
102
}
102
{ACAD_REACTORS
330
1A
102
}
330
1A
100
AcDbPlotSettings
  1

  2
None
  4

  6

 40
0.0
 41
0.0
 42
0.0
 43
0.0
 44
0.0
 45
0.0
 46
0.0
 47
0.0
 48
0.0
 49
0.0
140
0.0
141
0.0
142
1.0
143
1.0
 70
   688
 72
     0
 73
     0
 74
     5
  7

 75
    16
147
1.0
148
0.0
149
0.0
100
AcDbLayout
  1
Layout1
 70
     1
 71
     1
 10
0.0
 20
0.0
 11
12.0
 21
9.0
 12
0.0
 22
0.0
 32
0.0
 14
0.0
 24
0.0
 34
0.0
 15
0.0
 25
0.0
 35
0.0
146
0.0
 13
0.0
 23
0.0
 33
0.0
 16
1.0
 26
0.0
 36
0.0
 17
0.0
 27
1.0
 37
0.0
 76
     0
330
58
  0
LAYOUT
  5
5E
102
{ACAD_XDICTIONARY
360
1F970
102
}
102
{ACAD_REACTORS
330
1A
102
}
330
1A
100
AcDbPlotSettings
  1

  2
None
  4

  6

 40
0.0
 41
0.0
 42
0.0
 43
0.0
 44
0.0
 45
0.0
 46
0.0
 47
0.0
 48
0.0
 49
0.0
140
0.0
141
0.0
142
1.0
143
1.0
 70
   688
 72
     0
 73
     0
 74
     5
  7

 75
    16
147
1.0
148
0.0
149
0.0
100
AcDbLayout
  1
Layout2
 70
     1
 71
     2
 10
0.0
 20
0.0
 11
12.0
 21
9.0
 12
0.0
 22
0.0
 32
0.0
 14
0.0
 24
0.0
 34
0.0
 15
0.0
 25
0.0
 35
0.0
146
0.0
 13
0.0
 23
0.0
 33
0.0
 16
1.0
 26
0.0
 36
0.0
 17
0.0
 27
1.0
 37
0.0
 76
     0
330
5D
  0
LAYOUT
  5
22
102
{ACAD_XDICTIONARY
360
1F96C
102
}
102
{ACAD_REACTORS
330
1A
102
}
330
1A
100
AcDbPlotSettings
  1

  2
none_device
  4
ANSI_A_(8.50_x_11.00_Inches)
  6

 40
6.349999904632568
 41
19.04999923706055
 42
6.350006103515625
 43
19.04998779296875
 44
215.8999938964844
 45
279.3999938964844
 46
0.0
 47
0.0
 48
0.0
 49
0.0
140
0.0
141
0.0
142
1.0
143
2.584895464708373
 70
 11952
 72
     0
 73
     1
 74
     0
  7

 75
     0
147
0.3868628397755418
148
0.0
149
0.0
100
AcDbLayout
  1
Model
 70
     1
 71
     0
 10
0.0
 20
0.0
 11
12.0
 21
9.0
 12
0.0
 22
0.0
 32
0.0
 14
0.0
 24
0.0
 34
0.0
 15
0.0
 25
0.0
 35
0.0
146
0.0
 13
0.0
 23
0.0
 33
0.0
 16
1.0
 26
0.0
 36
0.0
 17
0.0
 27
1.0
 37
0.0
 76
     0
330
1F
331
94
  0
MATERIAL
  5
97
102
{ACAD_XDICTIONARY
360
188
102
}
102
{ACAD_REACTORS
330
72
102
}
330
72
100
AcDbMaterial
  1
ByBlock
  0
MATERIAL
  5
96
102
{ACAD_XDICTIONARY
360
186
102
}
102
{ACAD_REACTORS
330
72
102
}
330
72
100
AcDbMaterial
  1
ByLayer
  0
MATERIAL
  5
98
102
{ACAD_XDICTIONARY
360
110
102
}
102
{ACAD_REACTORS
330
72
102
}
330
72
100
AcDbMaterial
  1
Global
 43
0.0208000000566244
 43
0.0
 43
0.0
 43
0.0
 43
0.0
 43
0.0208000000566244
 43
0.0
 43
0.0
 43
0.0
 43
0.0
 43
1.0
 43
0.0
 43
0.0
 43
0.0
 43
0.0
 43
1.0
 49
0.0208000000566244
 49
0.0
 49
0.0
 49
0.0
 49
0.0
 49
0.0208000000566244
 49
0.0
 49
0.0
 49
0.0
 49
0.0
 49
1.0
 49
0.0
 49
0.0
 49
0.0
 49
0.0
 49
1.0
142
0.0208000000566244
142
0.0
142
0.0
142
0.0
142
0.0
142
0.0208000000566244
142
0.0
142
0.0
142
0.0
142
0.0
142
1.0
142
0.0
142
0.0
142
0.0
142
0.0
142
1.0
144
0.0208000000566244
144
0.0
144
0.0
144
0.0
144
0.0
144
0.0208000000566244
144
0.0
144
0.0
144
0.0
144
0.0
144
1.0
144
0.0
144
0.0
144
0.0
144
0.0
144
1.0
1001
ACAD
1070
    -1
1070
     3
1070
     0
1000

1071
        0
1070
     0
  0
MLEADERSTYLE
  5
D8
102
{ACAD_XDICTIONARY
360
1F996
102
}
102
{ACAD_REACTORS
330
D7
102
}
330
D7
100
AcDbMLeaderStyle
170
     2
171
     1
172
     0
 90
        2
 40
0.0
 41
0.0
173
     1
 91
-1056964608
340
14
 92
       -2
290
     1
 42
0.09
291
     1
 43
0.36
  3
Standard
 44
0.18
300

342
11
174
     1
178
     1
175
     1
176
     0
 93
-1056964608
 45
0.18
292
     0
297
     0
 46
0.18
 94
-1056964608
 47
1.0
 49
1.0
140
1.0
293
     1
141
0.0
294
     1
177
     0
142
1.0
295
     0
296
     0
143
0.125
1001
ACAD_MLEADERVER
1070
     2
  0
MLINESTYLE
  5
18
102
{ACAD_REACTORS
330
17
102
}
330
17
100
AcDbMlineStyle
  2
STANDARD
 70
     0
  3

 62
   256
 51
90.0
 52
90.0
 71
     2
 49
0.5
 62
   256
  6
BYLAYER
 49
-0.5
 62
   256
  6
BYLAYER
  0
ACDBPLACEHOLDER
  5
F
102
{ACAD_REACTORS
330
E
102
}
330
E
  0
SCALE
  5
B7
102
{ACAD_REACTORS
330
B6
102
}
330
B6
100
AcDbScale
 70
     0
300
1:1
140
1.0
141
1.0
290
     1
  0
SCALE
  5
124
102
{ACAD_REACTORS
330
B6
102
}
330
B6
100
AcDbScale
 70
     0
300
1:2
140
1.0
141
2.0
290
     0
  0
SCALE
  5
125
102
{ACAD_REACTORS
330
B6
102
}
330
B6
100
AcDbScale
 70
     0
300
1:4
140
1.0
141
4.0
290
     0
  0
SCALE
  5
126
102
{ACAD_REACTORS
330
B6
102
}
330
B6
100
AcDbScale
 70
     0
300
1:5
140
1.0
141
5.0
290
     0
  0
SCALE
  5
127
102
{ACAD_REACTORS
330
B6
102
}
330
B6
100
AcDbScale
 70
     0
300
1:8
140
1.0
141
8.0
290
     0
  0
SCALE
  5
128
102
{ACAD_REACTORS
330
B6
102
}
330
B6
100
AcDbScale
 70
     0
300
1:10
140
1.0
141
10.0
290
     0
  0
SCALE
  5
129
102
{ACAD_REACTORS
330
B6
102
}
330
B6
100
AcDbScale
 70
     0
300
1:16
140
1.0
141
16.0
290
     0
  0
SCALE
  5
12A
102
{ACAD_REACTORS
330
B6
102
}
330
B6
100
AcDbScale
 70
     0
300
1:20
140
1.0
141
20.0
290
     0
  0
SCALE
  5
12B
102
{ACAD_REACTORS
330
B6
102
}
330
B6
100
AcDbScale
 70
     0
300
1:30
140
1.0
141
30.0
290
     0
  0
SCALE
  5
12C
102
{ACAD_REACTORS
330
B6
102
}
330
B6
100
AcDbScale
 70
     0
300
1:40
140
1.0
141
40.0
290
     0
  0
SCALE
  5
12D
102
{ACAD_REACTORS
330
B6
102
}
330
B6
100
AcDbScale
 70
     0
300
1:50
140
1.0
141
50.0
290
     0
  0
SCALE
  5
12E
102
{ACAD_REACTORS
330
B6
102
}
330
B6
100
AcDbScale
 70
     0
300
1:100
140
1.0
141
100.0
290
     0
  0
SCALE
  5
12F
102
{ACAD_REACTORS
330
B6
102
}
330
B6
100
AcDbScale
 70
     0
300
2:1
140
2.0
141
1.0
290
     0
  0
SCALE
  5
130
102
{ACAD_REACTORS
330
B6
102
}
330
B6
100
AcDbScale
 70
     0
300
4:1
140
4.0
141
1.0
290
     0
  0
SCALE
  5
131
102
{ACAD_REACTORS
330
B6
102
}
330
B6
100
AcDbScale
 70
     0
300
8:1
140
8.0
141
1.0
290
     0
  0
SCALE
  5
132
102
{ACAD_REACTORS
330
B6
102
}
330
B6
100
AcDbScale
 70
     0
300
10:1
140
10.0
141
1.0
290
     0
  0
SCALE
  5
133
102
{ACAD_REACTORS
330
B6
102
}
330
B6
100
AcDbScale
 70
     0
300
100:1
140
100.0
141
1.0
290
     0
  0
SCALE
  5
134
102
{ACAD_REACTORS
330
B6
102
}
330
B6
100
AcDbScale
 70
     0
300
1/128" = 1'-0"
140
0.0078125
141
12.0
290
     0
  0
SCALE
  5
135
102
{ACAD_REACTORS
330
B6
102
}
330
B6
100
AcDbScale
 70
     0
300
1/64" = 1'-0"
140
0.015625
141
12.0
290
     0
  0
SCALE
  5
136
102
{ACAD_REACTORS
330
B6
102
}
330
B6
100
AcDbScale
 70
     0
300
1/32" = 1'-0"
140
0.03125
141
12.0
290
     0
  0
SCALE
  5
137
102
{ACAD_REACTORS
330
B6
102
}
330
B6
100
AcDbScale
 70
     0
300
1/16" = 1'-0"
140
0.0625
141
12.0
290
     0
  0
SCALE
  5
138
102
{ACAD_REACTORS
330
B6
102
}
330
B6
100
AcDbScale
 70
     0
300
3/32" = 1'-0"
140
0.09375
141
12.0
290
     0
  0
SCALE
  5
139
102
{ACAD_REACTORS
330
B6
102
}
330
B6
100
AcDbScale
 70
     0
300
1/8" = 1'-0"
140
0.125
141
12.0
290
     0
  0
SCALE
  5
13A
102
{ACAD_REACTORS
330
B6
102
}
330
B6
100
AcDbScale
 70
     0
300
3/16" = 1'-0"
140
0.1875
141
12.0
290
     0
  0
SCALE
  5
13B
102
{ACAD_REACTORS
330
B6
102
}
330
B6
100
AcDbScale
 70
     0
300
1/4" = 1'-0"
140
0.25
141
12.0
290
     0
  0
SCALE
  5
13C
102
{ACAD_REACTORS
330
B6
102
}
330
B6
100
AcDbScale
 70
     0
300
3/8" = 1'-0"
140
0.375
141
12.0
290
     0
  0
SCALE
  5
13D
102
{ACAD_REACTORS
330
B6
102
}
330
B6
100
AcDbScale
 70
     0
300
1/2" = 1'-0"
140
0.5
141
12.0
290
     0
  0
SCALE
  5
13E
102
{ACAD_REACTORS
330
B6
102
}
330
B6
100
AcDbScale
 70
     0
300
3/4" = 1'-0"
140
0.75
141
12.0
290
     0
  0
SCALE
  5
13F
102
{ACAD_REACTORS
330
B6
102
}
330
B6
100
AcDbScale
 70
     0
300
1" = 1'-0"
140
1.0
141
12.0
290
     0
  0
SCALE
  5
140
102
{ACAD_REACTORS
330
B6
102
}
330
B6
100
AcDbScale
 70
     0
300
1-1/2" = 1'-0"
140
1.5
141
12.0
290
     0
  0
SCALE
  5
141
102
{ACAD_REACTORS
330
B6
102
}
330
B6
100
AcDbScale
 70
     0
300
3" = 1'-0"
140
3.0
141
12.0
290
     0
  0
SCALE
  5
142
102
{ACAD_REACTORS
330
B6
102
}
330
B6
100
AcDbScale
 70
     0
300
6" = 1'-0"
140
6.0
141
12.0
290
     0
  0
SCALE
  5
143
102
{ACAD_REACTORS
330
B6
102
}
330
B6
100
AcDbScale
 70
     0
300
1'-0" = 1'-0"
140
12.0
141
12.0
290
     0
  0
ACDBSECTIONVIEWSTYLE
  5
1AA
102
{ACAD_XDICTIONARY
360
1F9A8
102
}
102
{ACAD_REACTORS
330
1A8
102
}
330
1A8
100
AcDbModelDocViewStyle
 70
     0
  3
Imperial24
290
     0
100
AcDbSectionViewStyle
 70
     0
 71
     0
 90
       78
 71
     1
340
11
 40
0.24
340
0
340
0
 40
0.24
300
I, O, Q, S, X, Z
 40
0.48
 90
        3
 40
0.18
 90
        1
 71
     2
340
16
 90
       25
340
16
 90
       50
 40
0.24
 40
0.0
 40
0.24
 71
     3
340
11
 40
0.24
 90
        1
 40
0.75
 90
        1
300
%<\AcVar ViewType \f "%tc1">% %<\AcVar ViewSectionStartId>%-%<\AcVar ViewSectionEndId>%\PSCALE %<\AcVar ViewScale \f "%sn">%
 71
     4
300
ANSI31
 40
1.0
 90
        0
290
     0
290
     0
 90
        6
 40
0.0
 40
1.570796326794896
 40
0.2617993877991494
 40
1.308996938995747
 40
-0.2617993877991494
 40
1.832595714594046
  0
TABLESTYLE
  5
87
102
{ACAD_XDICTIONARY
360
104
102
}
102
{ACAD_REACTORS
330
86
102
}
330
86
100
AcDbTableStyle
  3
Standard
 70
     0
 71
     0
 40
0.06
 41
0.06
280
     0
281
     0
  7
Standard
140
0.18
170
     2
 62
     0
 63
     7
283
     0
274
    -2
284
     1
 64
     0
275
    -2
285
     1
 65
     0
276
    -2
286
     1
 66
     0
277
    -2
287
     1
 67
     0
278
    -2
288
     1
 68
     0
279
    -2
289
     1
 69
     0
  7
Standard
140
0.25
170
     5
 62
     0
 63
     7
283
     0
274
    -2
284
     1
 64
     0
275
    -2
285
     1
 65
     0
276
    -2
286
     1
 66
     0
277
    -2
287
     1
 67
     0
278
    -2
288
     1
 68
     0
279
    -2
289
     1
 69
     0
  7
Standard
140
0.18
170
     5
 62
     0
 63
     7
283
     0
274
    -2
284
     1
 64
     0
275
    -2
285
     1
 65
     0
276
    -2
286
     1
 66
     0
277
    -2
287
     1
 67
     0
278
    -2
288
     1
 68
     0
279
    -2
289
     1
 69
     0
  0
VISUALSTYLE
  5
9F
102
{ACAD_XDICTIONARY
360
1F980
102
}
102
{ACAD_REACTORS
330
99
102
}
330
99
100
AcDbVisualStyle
  2
2dWireframe
 70
     4
 71
     0
 72
     2
 73
     1
 90
        0
 40
-0.6
 41
-30.0
 62
     5
 63
     7
 74
     1
 91
        4
 64
     7
 65
   257
 75
     1
175
     1
 42
1.0
 92
        0
 66
   257
 43
1.0
 76
     1
 77
     6
 78
     2
 67
     7
 79
     5
170
     0
171
     0
290
     0
174
     0
 93
        1
 44
0.0
173
     0
291
     0
 45
0.0
1001
ACAD
1000
AcDbSavedByObjectVersion
1070
     0
  0
VISUALSTYLE
  5
9E
102
{ACAD_XDICTIONARY
360
1F97E
102
}
102
{ACAD_REACTORS
330
99
102
}
330
99
100
AcDbVisualStyle
  2
Basic
 70
     7
 71
     1
 72
     0
 73
     1
 90
        0
 40
-0.6
 41
-30.0
 62
     5
 63
     7
 74
     0
 91
        4
 64
     7
 65
   257
 75
     1
175
     1
 42
1.0
 92
        8
 66
     7
 43
1.0
 76
     1
 77
     6
 78
     2
 67
     7
 79
     5
170
     0
171
     0
290
     0
174
     0
 93
        1
 44
0.0
173
     0
291
     1
 45
0.0
1001
ACAD
1000
AcDbSavedByObjectVersion
1070
     0
  0
VISUALSTYLE
  5
A5
102
{ACAD_XDICTIONARY
360
1F98C
102
}
102
{ACAD_REACTORS
330
99
102
}
330
99
100
AcDbVisualStyle
  2
Brighten
 70
    12
 71
     2
 72
     2
 73
     1
 90
        0
 40
-0.6
 41
-30.0
 62
     5
 63
     7
 74
     1
 91
        4
 64
     7
 65
   257
 75
     1
175
     1
 42
1.0
 92
        8
 66
     7
 43
1.0
 76
     1
 77
     6
 78
     2
 67
     7
 79
     5
170
     0
171
     0
290
     0
174
     0
 93
        1
 44
50.0
173
     0
291
     1
 45
0.0
1001
ACAD
1000
AcDbSavedByObjectVersion
1070
     0
  0
VISUALSTYLE
  5
A9
102
{ACAD_XDICTIONARY
360
1F994
102
}
102
{ACAD_REACTORS
330
99
102
}
330
99
100
AcDbVisualStyle
  2
ColorChange
 70
    16
 71
     2
 72
     2
 73
     3
 90
        0
 40
-0.6
 41
-30.0
 62
     5
 63
     8
 74
     1
 91
        4
 64
     7
 65
   257
 75
     1
175
     1
 42
1.0
 92
        8
 66
     8
 43
1.0
 76
     1
 77
     6
 78
     2
 67
     7
 79
     5
170
     0
171
     0
290
     0
174
     0
 93
        1
 44
0.0
173
     0
291
     1
 45
0.0
1001
ACAD
1000
AcDbSavedByObjectVersion
1070
     0
  0
VISUALSTYLE
  5
A2
102
{ACAD_XDICTIONARY
360
1F986
102
}
102
{ACAD_REACTORS
330
99
102
}
330
99
100
AcDbVisualStyle
  2
Conceptual
 70
     9
 71
     3
 72
     2
 73
     1
 90
        0
 40
-0.6
 41
-30.0
 62
     5
 63
     7
 74
     2
 91
        2
 64
     7
 65
   257
 75
     1
175
     1
 42
40.0
 92
        8
 66
     7
 43
1.0
 76
     1
 77
     6
 78
     2
 67
     7
 79
     3
170
     0
171
     0
290
     0
174
     0
 93
        1
 44
0.0
173
     0
291
     0
 45
0.0
1001
ACAD
1000
AcDbSavedByObjectVersion
1070
     0
  0
VISUALSTYLE
  5
A4
102
{ACAD_XDICTIONARY
360
1F98A
102
}
102
{ACAD_REACTORS
330
99
102
}
330
99
100
AcDbVisualStyle
  2
Dim
 70
    11
 71
     2
 72
     2
 73
     1
 90
        0
 40
-0.6
 41
-30.0
 62
     5
 63
     7
 74
     1
 91
        4
 64
     7
 65
   257
 75
     1
175
     1
 42
1.0
 92
        8
 66
     7
 43
1.0
 76
     1
 77
     6
 78
     2
 67
     7
 79
     5
170
     0
171
     0
290
     0
174
     0
 93
        1
 44
-50.0
173
     0
291
     1
 45
0.0
1001
ACAD
1000
AcDbSavedByObjectVersion
1070
     0
  0
VISUALSTYLE
  5
175
102
{ACAD_XDICTIONARY
360
1F99C
102
}
102
{ACAD_REACTORS
330
99
102
}
330
99
100
AcDbVisualStyle
  2
EdgeColorOff
 70
    22
 71
     2
 72
     2
 73
     0
 90
        0
 40
-0.6
 41
-30.0
 62
     5
 63
     7
 74
     1
 91
        4
 64
     7
 65
   257
 75
     1
175
     1
 42
1.0
 92
        8
 66
     7
 43
1.0
 76
     1
 77
     6
 78
     2
 67
     7
 79
     5
170
     0
171
     0
290
     0
174
     0
 93
        1
 44
0.0
173
     0
291
     1
 45
0.0
1001
ACAD
1000
AcDbSavedByObjectVersion
1070
     0
  0
VISUALSTYLE
  5
A8
102
{ACAD_XDICTIONARY
360
1F992
102
}
102
{ACAD_REACTORS
330
99
102
}
330
99
100
AcDbVisualStyle
  2
Facepattern
 70
    15
 71
     2
 72
     2
 73
     1
 90
        0
 40
-0.6
 41
-30.0
 62
     5
 63
     7
 74
     1
 91
        4
 64
     7
 65
   257
 75
     1
175
     1
 42
1.0
 92
        8
 66
     7
 43
1.0
 76
     1
 77
     6
 78
     2
 67
     7
 79
     5
170
     0
171
     0
290
     0
174
     0
 93
        1
 44
0.0
173
     0
291
     1
 45
0.0
1001
ACAD
1000
AcDbSavedByObjectVersion
1070
     0
  0
VISUALSTYLE
  5
9A
102
{ACAD_XDICTIONARY
360
1F976
102
}
102
{ACAD_REACTORS
330
99
102
}
330
99
100
AcDbVisualStyle
  2
Flat
 70
     0
 71
     2
 72
     1
 73
     1
 90
        2
 40
-0.6
 41
30.0
 62
     5
 63
     7
 74
     0
 91
        0
 64
     7
 65
   257
 75
     1
175
     1
 42
1.0
 92
        8
 66
     7
 43
1.0
 76
     1
 77
     6
 78
     2
 67
     7
 79
     5
170
     0
171
     0
290
     0
174
     0
 93
       13
 44
0.0
173
     0
291
     1
 45
0.0
1001
ACAD
1000
AcDbSavedByObjectVersion
1070
     0
  0
VISUALSTYLE
  5
9B
102
{ACAD_XDICTIONARY
360
1F978
102
}
102
{ACAD_REACTORS
330
99
102
}
330
99
100
AcDbVisualStyle
  2
FlatWithEdges
 70
     1
 71
     2
 72
     1
 73
     1
 90
        2
 40
-0.6
 41
30.0
 62
     5
 63
     7
 74
     1
 91
        0
 64
     7
 65
   257
 75
     1
175
     1
 42
1.0
 92
        0
 66
   257
 43
1.0
 76
     1
 77
     6
 78
     2
 67
     7
 79
     5
170
     0
171
     0
290
     0
174
     0
 93
       13
 44
0.0
173
     0
291
     1
 45
0.0
1001
ACAD
1000
AcDbSavedByObjectVersion
1070
     0
  0
VISUALSTYLE
  5
9C
102
{ACAD_XDICTIONARY
360
1F97A
102
}
102
{ACAD_REACTORS
330
99
102
}
330
99
100
AcDbVisualStyle
  2
Gouraud
 70
     2
 71
     2
 72
     2
 73
     1
 90
        2
 40
-0.6
 41
30.0
 62
     5
 63
     7
 74
     0
 91
        0
 64
     7
 65
   257
 75
     1
175
     1
 42
1.0
 92
        0
 66
     7
 43
1.0
 76
     1
 77
     6
 78
     2
 67
     7
 79
     5
170
     0
171
     0
290
     0
174
     0
 93
       13
 44
0.0
173
     0
291
     1
 45
0.0
1001
ACAD
1000
AcDbSavedByObjectVersion
1070
     0
  0
VISUALSTYLE
  5
9D
102
{ACAD_XDICTIONARY
360
1F97C
102
}
102
{ACAD_REACTORS
330
99
102
}
330
99
100
AcDbVisualStyle
  2
GouraudWithEdges
 70
     3
 71
     2
 72
     2
 73
     1
 90
        2
 40
-0.6
 41
30.0
 62
     5
 63
     7
 74
     1
 91
        0
 64
     7
 65
   257
 75
     1
175
     1
 42
1.0
 92
        0
 66
   257
 43
1.0
 76
     1
 77
     6
 78
     2
 67
     7
 79
     5
170
     0
171
     0
290
     0
174
     0
 93
       13
 44
0.0
173
     0
291
     1
 45
0.0
1001
ACAD
1000
AcDbSavedByObjectVersion
1070
     0
  0
VISUALSTYLE
  5
A1
102
{ACAD_XDICTIONARY
360
1F984
102
}
102
{ACAD_REACTORS
330
99
102
}
330
99
100
AcDbVisualStyle
  2
Hidden
 70
     6
 71
     1
 72
     2
 73
     2
 90
        0
 40
-0.6
 41
-30.0
 62
     5
 63
     7
 74
     2
 91
        2
 64
     7
 65
   257
 75
     2
175
     1
 42
40.0
 92
        0
 66
   257
 43
1.0
 76
     1
 77
     6
 78
     2
 67
     7
 79
     3
170
     0
171
     0
290
     0
174
     0
 93
        1
 44
0.0
173
     0
291
     0
 45
0.0
1001
ACAD
1000
AcDbSavedByObjectVersion
1070
     0
  0
VISUALSTYLE
  5
173
102
{ACAD_XDICTIONARY
360
1F998
102
}
102
{ACAD_REACTORS
330
99
102
}
330
99
100
AcDbVisualStyle
  2
JitterOff
 70
    20
 71
     2
 72
     2
 73
     0
 90
        0
 40
-0.6
 41
-30.0
 62
     5
 63
     7
 74
     1
 91
        4
 64
     7
 65
   257
 75
     1
175
     1
 42
1.0
 92
       10
 66
     7
 43
1.0
 76
     1
 77
     6
 78
     2
 67
     7
 79
     5
170
     0
171
     0
290
     0
174
     0
 93
        1
 44
0.0
173
     0
291
     1
 45
0.0
1001
ACAD
1000
AcDbSavedByObjectVersion
1070
     0
  0
VISUALSTYLE
  5
A7
102
{ACAD_XDICTIONARY
360
1F990
102
}
102
{ACAD_REACTORS
330
99
102
}
330
99
100
AcDbVisualStyle
  2
Linepattern
 70
    14
 71
     2
 72
     2
 73
     1
 90
        0
 40
-0.6
 41
-30.0
 62
     5
 63
     7
 74
     1
 91
        4
 64
     7
 65
   257
 75
     7
175
     7
 42
1.0
 92
        8
 66
     7
 43
1.0
 76
     1
 77
     6
 78
     2
 67
     7
 79
     5
170
     0
171
     0
290
     0
174
     0
 93
        1
 44
0.0
173
     0
291
     1
 45
0.0
1001
ACAD
1000
AcDbSavedByObjectVersion
1070
     0
  0
VISUALSTYLE
  5
174
102
{ACAD_XDICTIONARY
360
1F99A
102
}
102
{ACAD_REACTORS
330
99
102
}
330
99
100
AcDbVisualStyle
  2
OverhangOff
 70
    21
 71
     2
 72
     2
 73
     0
 90
        0
 40
-0.6
 41
-30.0
 62
     5
 63
     7
 74
     1
 91
        4
 64
     7
 65
   257
 75
     1
175
     1
 42
1.0
 92
        9
 66
     7
 43
1.0
 76
     1
 77
     6
 78
     2
 67
     7
 79
     5
170
     0
171
     0
290
     0
174
     0
 93
        1
 44
0.0
173
     0
291
     1
 45
0.0
1001
ACAD
1000
AcDbSavedByObjectVersion
1070
     0
  0
VISUALSTYLE
  5
A3
102
{ACAD_XDICTIONARY
360
1F988
102
}
102
{ACAD_REACTORS
330
99
102
}
330
99
100
AcDbVisualStyle
  2
Realistic
 70
     8
 71
     2
 72
     2
 73
     0
 90
        2
 40
-0.6
 41
30.0
 62
     5
 63
     7
 74
     0
 91
        0
 64
     7
 65
   257
 75
     1
175
     1
 42
1.0
 92
        8
 66
   257
 43
1.0
 76
     1
 77
     6
 78
     2
 67
     7
 79
     3
170
     0
171
     0
290
     0
174
     0
 93
       13
 44
0.0
173
     0
291
     0
 45
0.0
1001
ACAD
1000
AcDbSavedByObjectVersion
1070
     0
  0
VISUALSTYLE
  5
182
102
{ACAD_XDICTIONARY
360
1F9A6
102
}
102
{ACAD_REACTORS
330
99
102
}
330
99
100
AcDbVisualStyle
  2
Shaded
 70
    27
 71
     2
 72
     2
 73
     1
 90
        2
 40
-0.6
 41
30.0
 62
     5
 63
     7
 74
     0
 91
        4
 64
     7
 65
   257
 75
     1
175
     1
 42
1.0
 92
        8
 66
   257
 43
1.0
 76
     1
 77
     6
 78
     2
 67
     8
 79
     3
170
     0
171
     0
290
     0
174
     0
 93
        5
 44
0.0
173
     0
291
     0
 45
0.0
1001
ACAD
1000
AcDbSavedByObjectVersion
1070
     0
  0
VISUALSTYLE
  5
181
102
{ACAD_XDICTIONARY
360
1F9A4
102
}
102
{ACAD_REACTORS
330
99
102
}
330
99
100
AcDbVisualStyle
  2
Shaded with edges
 70
    26
 71
     2
 72
     2
 73
     1
 90
        2
 40
-0.6
 41
30.0
 62
     5
 63
     7
 74
     1
 91
        2
 64
     7
 65
   257
 75
     2
175
     1
 42
1.0
 92
        8
 66
   257
 43
1.0
 76
     1
 77
     6
 78
     2
 67
     7
 79
     3
170
     0
171
     0
290
     0
174
     0
 93
        5
 44
0.0
173
     0
291
     0
 45
0.0
1001
ACAD
1000
AcDbSavedByObjectVersion
1070
     0
  0
VISUALSTYLE
  5
17E
102
{ACAD_XDICTIONARY
360
1F99E
102
}
102
{ACAD_REACTORS
330
99
102
}
330
99
100
AcDbVisualStyle
  2
Shades of Gray
 70
    23
 71
     2
 72
     2
 73
     3
 90
        0
 40
-0.6
 41
-30.0
 62
     5
 63
     7
 74
     2
 91
        2
 64
     7
 65
     7
 75
     1
175
     1
 42
40.0
 92
        8
 66
     7
 43
1.0
 76
     1
 77
     6
 78
     2
 67
     7
 79
     3
170
     0
171
     0
290
     0
174
     0
 93
        1
 44
0.0
173
     0
291
     0
 45
0.0
1001
ACAD
1000
AcDbSavedByObjectVersion
1070
     0
  0
VISUALSTYLE
  5
17F
102
{ACAD_XDICTIONARY
360
1F9A0
102
}
102
{ACAD_REACTORS
330
99
102
}
330
99
100
AcDbVisualStyle
  2
Sketchy
 70
    24
 71
     1
 72
     2
 73
     2
 90
        0
 40
-0.6
 41
-30.0
 62
     5
 63
     7
 74
     2
 91
        2
 64
     7
 65
     7
 75
     1
175
     1
 42
40.0
 92
       11
 66
     7
 43
1.0
 76
     1
 77
     6
 78
     2
 67
     7
 79
     6
170
     0
171
     0
290
     0
174
     0
 93
        1
 44
0.0
173
     0
291
     0
 45
0.0
1001
ACAD
1000
AcDbSavedByObjectVersion
1070
     0
  0
VISUALSTYLE
  5
A6
102
{ACAD_XDICTIONARY
360
1F98E
102
}
102
{ACAD_REACTORS
330
99
102
}
330
99
100
AcDbVisualStyle
  2
Thicken
 70
    13
 71
     2
 72
     2
 73
     1
 90
        0
 40
-0.6
 41
-30.0
 62
     5
 63
     7
 74
     1
 91
        4
 64
     7
 65
   257
 75
     1
175
     1
 42
1.0
 92
       12
 66
     7
 43
1.0
 76
     1
 77
     6
 78
     2
 67
     7
 79
     5
170
     0
171
     0
290
     0
174
     0
 93
        1
 44
0.0
173
     0
291
     1
 45
0.0
1001
ACAD
1000
AcDbSavedByObjectVersion
1070
     0
  0
VISUALSTYLE
  5
A0
102
{ACAD_XDICTIONARY
360
1F982
102
}
102
{ACAD_REACTORS
330
99
102
}
330
99
100
AcDbVisualStyle
  2
Wireframe
 70
     5
 71
     0
 72
     2
 73
     0
 90
        0
 40
-0.6
 41
-30.0
 62
     5
 63
     7
 74
     1
 91
        4
 64
     7
 65
   257
 75
     1
175
     1
 42
1.0
 92
        0
 66
   257
 43
1.0
 76
     1
 77
     6
 78
     2
 67
     7
 79
     3
170
     0
171
     0
290
     0
174
     0
 93
        1
 44
0.0
173
     0
291
     0
 45
0.0
1001
ACAD
1000
AcDbSavedByObjectVersion
1070
     0
  0
VISUALSTYLE
  5
180
102
{ACAD_XDICTIONARY
360
1F9A2
102
}
102
{ACAD_REACTORS
330
99
102
}
330
99
100
AcDbVisualStyle
  2
X-Ray
 70
    25
 71
     2
 72
     2
 73
     1
 90
        1
 40
0.5
 41
-30.0
 62
     5
 63
     7
 74
     1
 91
        0
 64
     7
 65
   257
 75
     1
175
     1
 42
1.0
 92
        8
 66
     7
 43
1.0
 76
     1
 77
     6
 78
     2
 67
     7
 79
     3
170
     0
171
     0
290
     0
174
     0
 93
       13
 44
0.0
173
     0
291
     0
 45
0.0
1001
ACAD
1000
AcDbSavedByObjectVersion
1070
     0
  0
DICTIONARYVAR
  5
F0
102
{ACAD_REACTORS
330
66
102
}
330
66
100
DictionaryVariables
280
     0
  1
1:1
  0
DICTIONARYVAR
  5
EF
102
{ACAD_REACTORS
330
66
102
}
330
66
100
DictionaryVariables
280
     0
  1
STANDARD
  0
DICTIONARYVAR
  5
89
102
{ACAD_REACTORS
330
66
102
}
330
66
100
DictionaryVariables
280
     0
  1
STANDARD
  0
DICTIONARYVAR
  5
1B7
102
{ACAD_REACTORS
330
66
102
}
330
66
100
DictionaryVariables
280
     0
  1
Imperial24
  0
DICTIONARYVAR
  5
1B8
102
{ACAD_REACTORS
330
66
102
}
330
66
100
DictionaryVariables
280
     0
  1
Imperial24
  0
DICTIONARYVAR
  5
67
102
{ACAD_REACTORS
330
66
102
}
330
66
100
DictionaryVariables
280
     0
  1
2
  0
DICTIONARYVAR
  5
6B
102
{ACAD_REACTORS
330
66
102
}
330
66
100
DictionaryVariables
280
     0
  1
1
  0
DICTIONARYVAR
  5
1F91D
102
{ACAD_REACTORS
330
66
102
}
330
66
100
DictionaryVariables
280
     0
  1
0
  0
DICTIONARYVAR
  5
14D
102
{ACAD_REACTORS
330
66
102
}
330
66
100
DictionaryVariables
280
     0
  1
0
  0
DICTIONARYVAR
  5
14E
102
{ACAD_REACTORS
330
66
102
}
330
66
100
DictionaryVariables
280
     0
  1
0
  0
DICTIONARYVAR
  5
1F91B
102
{ACAD_REACTORS
330
66
102
}
330
66
100
DictionaryVariables
280
     0
  1
2
  0
DICTIONARYVAR
  5
1F91A
102
{ACAD_REACTORS
330
66
102
}
330
66
100
DictionaryVariables
280
     0
  1
1
  0
DICTIONARYVAR
  5
1F91C
102
{ACAD_REACTORS
330
66
102
}
330
66
100
DictionaryVariables
280
     0
  1
127
  0
DICTIONARYVAR
  5
1F968
102
{ACAD_REACTORS
330
66
102
}
330
66
100
DictionaryVariables
280
     0
  1
2
  0
DICTIONARY
  5
1F9AA
330
1AC
100
AcDbDictionary
280
     1
281
     1
  3
ACAD_XREC_ROUNDTRIP
360
1F9AB
  0
DICTIONARY
  5
1F96E
330
59
100
AcDbDictionary
280
     1
281
     1
  3
ACAD_XREC_ROUNDTRIP
360
1F96F
  0
DICTIONARY
  5
1F970
330
5E
100
AcDbDictionary
280
     1
281
     1
  3
ACAD_XREC_ROUNDTRIP
360
1F971
  0
DICTIONARY
  5
1F96C
330
22
100
AcDbDictionary
280
     1
281
     1
  3
ACAD_XREC_ROUNDTRIP
360
1F96D
  0
DICTIONARY
  5
188
330
97
100
AcDbDictionary
280
     1
281
     1
  3
ACAD_XREC_ROUNDTRIP
360
1F974
  3
FBXASSET
360
189
  0
DICTIONARY
  5
186
330
96
100
AcDbDictionary
280
     1
281
     1
  3
ACAD_XREC_ROUNDTRIP
360
1F973
  3
FBXASSET
360
187
  0
DICTIONARY
  5
110
330
98
100
AcDbDictionary
280
     1
281
     1
  3
ACAD_XREC_ROUNDTRIP
360
1F975
  3
BUMPTILE
360
112
  3
DIFFUSETILE
360
111
  3
FBXASSET
360
18A
  3
OPACITYTILE
360
113
  3
REFLECTIONTILE
360
114
  0
DICTIONARY
  5
1F996
330
D8
100
AcDbDictionary
280
     1
281
     1
  3
ACAD_XREC_ROUNDTRIP
360
1F997
  0
DICTIONARY
  5
1F9A8
330
1AA
100
AcDbDictionary
280
     1
281
     1
  3
ACAD_XREC_ROUNDTRIP
360
1F9A9
  0
DICTIONARY
  5
104
330
87
100
AcDbDictionary
280
     1
281
     1
  3
ACAD_ROUNDTRIP_2008_TABLESTYLE_CELLSTYLEMAP
360
1F969
  3
ACAD_XREC_ROUNDTRIP
360
1F972
  0
DICTIONARY
  5
1F980
330
9F
100
AcDbDictionary
280
     1
281
     1
  3
ACAD_XREC_ROUNDTRIP
360
1F981
  0
DICTIONARY
  5
1F97E
330
9E
100
AcDbDictionary
280
     1
281
     1
  3
ACAD_XREC_ROUNDTRIP
360
1F97F
  0
DICTIONARY
  5
1F98C
330
A5
100
AcDbDictionary
280
     1
281
     1
  3
ACAD_XREC_ROUNDTRIP
360
1F98D
  0
DICTIONARY
  5
1F994
330
A9
100
AcDbDictionary
280
     1
281
     1
  3
ACAD_XREC_ROUNDTRIP
360
1F995
  0
DICTIONARY
  5
1F986
330
A2
100
AcDbDictionary
280
     1
281
     1
  3
ACAD_XREC_ROUNDTRIP
360
1F987
  0
DICTIONARY
  5
1F98A
330
A4
100
AcDbDictionary
280
     1
281
     1
  3
ACAD_XREC_ROUNDTRIP
360
1F98B
  0
DICTIONARY
  5
1F99C
330
175
100
AcDbDictionary
280
     1
281
     1
  3
ACAD_XREC_ROUNDTRIP
360
1F99D
  0
DICTIONARY
  5
1F992
330
A8
100
AcDbDictionary
280
     1
281
     1
  3
ACAD_XREC_ROUNDTRIP
360
1F993
  0
DICTIONARY
  5
1F976
330
9A
100
AcDbDictionary
280
     1
281
     1
  3
ACAD_XREC_ROUNDTRIP
360
1F977
  0
DICTIONARY
  5
1F978
330
9B
100
AcDbDictionary
280
     1
281
     1
  3
ACAD_XREC_ROUNDTRIP
360
1F979
  0
DICTIONARY
  5
1F97A
330
9C
100
AcDbDictionary
280
     1
281
     1
  3
ACAD_XREC_ROUNDTRIP
360
1F97B
  0
DICTIONARY
  5
1F97C
330
9D
100
AcDbDictionary
280
     1
281
     1
  3
ACAD_XREC_ROUNDTRIP
360
1F97D
  0
DICTIONARY
  5
1F984
330
A1
100
AcDbDictionary
280
     1
281
     1
  3
ACAD_XREC_ROUNDTRIP
360
1F985
  0
DICTIONARY
  5
1F998
330
173
100
AcDbDictionary
280
     1
281
     1
  3
ACAD_XREC_ROUNDTRIP
360
1F999
  0
DICTIONARY
  5
1F990
330
A7
100
AcDbDictionary
280
     1
281
     1
  3
ACAD_XREC_ROUNDTRIP
360
1F991
  0
DICTIONARY
  5
1F99A
330
174
100
AcDbDictionary
280
     1
281
     1
  3
ACAD_XREC_ROUNDTRIP
360
1F99B
  0
DICTIONARY
  5
1F988
330
A3
100
AcDbDictionary
280
     1
281
     1
  3
ACAD_XREC_ROUNDTRIP
360
1F989
  0
DICTIONARY
  5
1F9A6
330
182
100
AcDbDictionary
280
     1
281
     1
  3
ACAD_XREC_ROUNDTRIP
360
1F9A7
  0
DICTIONARY
  5
1F9A4
330
181
100
AcDbDictionary
280
     1
281
     1
  3
ACAD_XREC_ROUNDTRIP
360
1F9A5
  0
DICTIONARY
  5
1F99E
330
17E
100
AcDbDictionary
280
     1
281
     1
  3
ACAD_XREC_ROUNDTRIP
360
1F99F
  0
DICTIONARY
  5
1F9A0
330
17F
100
AcDbDictionary
280
     1
281
     1
  3
ACAD_XREC_ROUNDTRIP
360
1F9A1
  0
DICTIONARY
  5
1F98E
330
A6
100
AcDbDictionary
280
     1
281
     1
  3
ACAD_XREC_ROUNDTRIP
360
1F98F
  0
DICTIONARY
  5
1F982
330
A0
100
AcDbDictionary
280
     1
281
     1
  3
ACAD_XREC_ROUNDTRIP
360
1F983
  0
DICTIONARY
  5
1F9A2
330
180
100
AcDbDictionary
280
     1
281
     1
  3
ACAD_XREC_ROUNDTRIP
360
1F9A3
  0
XRECORD
  5
1F9AB
102
{ACAD_REACTORS
330
1F9AA
102
}
330
1F9AA
100
AcDbXrecord
280
     1
102
DISPLAYNAME
  1
Imperial24
102
FLAGS
 90
        0
  0
XRECORD
  5
1F96F
102
{ACAD_REACTORS
330
1F96E
102
}
330
1F96E
100
AcDbXrecord
280
     1
102
SHADEPLOT
 70
     0
102
SHADEPLOTRESLEVEL
 70
     2
102
SHADEPLOTCUSTOMDPI
 70
   300
  0
XRECORD
  5
1F971
102
{ACAD_REACTORS
330
1F970
102
}
330
1F970
100
AcDbXrecord
280
     1
102
SHADEPLOT
 70
     0
102
SHADEPLOTRESLEVEL
 70
     2
102
SHADEPLOTCUSTOMDPI
 70
   300
  0
XRECORD
  5
1F96D
102
{ACAD_REACTORS
330
1F96C
102
}
330
1F96C
100
AcDbXrecord
280
     1
102
SHADEPLOT
 70
     0
102
SHADEPLOTRESLEVEL
 70
     2
102
SHADEPLOTCUSTOMDPI
 70
   300
  0
XRECORD
  5
1F974
102
{ACAD_REACTORS
330
188
102
}
330
188
100
AcDbXrecord
280
     1
102
MATERIAL
148
0.0
149
0.0
149
0.0
 93
        0
 94
       63
282
     0
 72
     1
 77
     1
171
     1
175
     1
179
     1
273
     0
  0
XRECORD
  5
189
102
{ACAD_REACTORS
330
188
102
}
330
188
100
AcDbXrecord
280
     1
 70
     1
 90
429727718
  1
508B35C9-AEE7-456F-BE74-D52651303AC6
310
504B03040A0000080000B670623B3DEE336E79000000790000001B0000006175746F6465736B2D64657369676E2D7061636B6167652E786D6C3C3F786D6C2076657273696F6E3D22312E302220656E636F64696E673D227574662D3822203F3E3C666F726D6174733E3C666F726D61743E687474703A2F2F736368656D612E
310
6175746F6465736B2E636F6D2F64657369676E2D7061636B6167652F323030393C2F666F726D61743E3C2F666F726D6174733E504B0304140006080800B670623BD486FD9CA0000000F4000000130000005B436F6E74656E745F54797065735D2E786D6C7D8EC10E82300C865F65E91D8A1E8C310C0EEA1BF002731658846E
310
D98AC1B77784ABF1D8FE5FBFBF75BBCE937A534CCEB38643598122B6FEE978D0B0485F9C41B54DDD7D022595594E1A469170414C76A4D9A4D207E29CF43ECE46F218070CC6BECC4078ACAA135ACF422C856C0E68EA1BF5669944DDD7BCDE7B1F8E415D77AECB980613C2E4AC91FC167A2B244592486606FC29C8FD7F045B9A
310
EF7053A7E60B504B0304140006080800B670623B28ED286BEB0000007C01000008000000636F72652E786D6C8D90416EC3201045AF82665B6183218D6D61A254764FD00B204C5C94182C03558F5F9C3852BBEB6A467FFE9B197D71FA9E6FE8CBACC17AD7012D0820E3B41FAD9B3A48F1826B40272956EFE32F1B20A766D3C1
310
268314D3EAD3B24BDABB685CCCAAF3A3D94515828980F42D371D04FD696655A814B3235C8B45E9AB9A4C419F5D8653B2237A1CB163DE672FD6AC209BF3C08E0D1B30EB19C3FC9D72FCC6EB231EFA33EDE96BDD341517E5064B11EDFCBCAF57A3A2194156843498524CAA0FCA5B7268F9E185D42D21A2DCEC7FA0B48CFF8492
310
759155FBBB0F2C80A4F991FB408A72CB22977B50B96EB9C91F504B0304140006080800B670623B55019EA25F0000007C00000007000000636E782E786D6C4DCB3B0E80201045D1AD90E915ED2CF8AC45050C11660C8261F98AB1B07AC9C97D42D718D865D3E909258CFD00CCE24AC6E326A164D74DC0B4128928FF32603847
310
2BA13128B1252AC747C6BAB984FC68F0B87FE8960A5C09FE86CFB69FBA01504B0304140006080800B670623B7BC41AC871010000D40300000C0000006662782F636F72652E786D6CC553ED6E8320147D15C2DF4501B56B6D90A64BBB27D80B50A5CE54C120983EFEAE1F4DD7A56BBA5FF3879273EEE59E7310BE393735EA95
310
ED2AA333CC428A91D2B9292A5D66D8BB63B0C26823B835C67D2BC348CB46657880B1E0A535BE9DA1DC68A7B403549B42CDA0EC3AE530CA6B5864B8CB3F552343E91D5474A7B095F949962A6421D0502778E72C0840D390E18DC5F170E664C205F7BE2A66B62A605A75AC94C522DDEEE3651AEF837817C741F2CE92E02D592D
310
83FD6ECB76EC7595A651C2C9D02CB8AB9A8BBADC2AE954814544691A3016D0E883256BBA58278B17BA5A53CAC9507ED3E4DBE2C9265F691747B3DCA9ADC382819091F8E1162272A8933DE82182932144F88C09DF060D8140C84E1EEA8B8F1340BDCA9DB1093085F157AA97B557309586747CD0EF0B4EA64E983A6E0EAEEFCE
310
889E9EF17847386AA94B30211D2C0FDE0D3AF9A4610EAD5536E8DD1969631B593F67E381C33F5157F17725E5A636F6BF1491F980C8FC7B90E13E8A2F504B0304140006080800B670623B70102A487D0000009D0000000B0000006662782F636E782E786D6C4DCCD10A83201886E15B91FFDC95A5C30335ACCDFB886521330D
310
A76397BF1A1DECE883878F57749FD5A3B74D2F17830472A901D9F088930B8B849267CC01754AA418F3DF0D5018572BE160506249B16C274D761E8BCFBB7A179E27F65CB39A0F14D396184C9921B81F34C3ACA1B4B99ABB6E6F062A25AA5F69DF23ACBE504B0304140006080800B670623B3610CA3329010000120200003100
310
00006662782F42384135303843342D343331462D343546312D424341352D3532343432364645413344462F636F72652E786D6C8D515B6EC32010BC0AE22B55850D0E446E848992B43E412FE000495162B07854397EA176A4F62F3F2C9A9D991D58BEBB8F37F0AD7D30CE76905418026DA553C65E3A98E219B510EC04F7CEC5
310
3F3408EC30EA0E16180A7EF12E4D0B249D8DDAC68C5AA7F4020E21E80881BCE54B0783FCD2E3500D296646B856D320AFC34557A4CAEDCC133C449F0380794839A138B47B86DB2345744D7A44594FD0E1B867883594369BFE63BF7EEF793D0B054FC9A8456E548E63CE46FB674D8A58F068C6477CE9F510B582A2C1F80D1182
310
70F349E816B32D65AFB8DD62CCEB42FF274A937A52948C8DEB66893BCB021484D7734370E5D2E9F608A3EF93F3119479ABA0E50B14B8C298119A43CCC4FCFCECB8A18B6388CEE7EF5D5D4F994BD86CBBA182D76543B9FCAE2FD7B24DF103504B0304140006080800B670623B1B8617914E0100003303000030000000666278
310
2F42384135303843342D343331462D343546312D424341352D3532343432364645413344462F636E782E786D6CD593C16EC32010447F0571AD6CE3D489D20813A9877E410FBD62D82434182CC055F3F75D1292E692438FBD206B7698593D61BEFD1E2DF982108D773D6D6B460938E5B571FB9ECE6957AD29D90A1EBC4F7736
310
4A9C1CA1A759A682EF839FA72269D8C9D92654AD71C72206887E0E0A22CAF926B15E498B01E0AA19451807D01A34B919F16B070157417138917400F2F6FA41FCF0092A45DEE414C19BDC21783E4BD39D891265658C3D8DEA00A3ACE59CBC8678ACB54CB26EEB6BD7839D7E9348BE70AD9C8321B9BCA7F9A4A26C542347DEE0
310
50F09802D22BA6749A800A394DD62899107273365E3C82CFC6A55557BC06C10774B7ABE7AEC3B0F34CF06446280E154026D0542C187BA9DAB6628BF7B6DBB0E5A65B3EB1F58631DE64BBE083F7B65CC218087E22CABB042E51D1F2268F1FE12B3EA24D40D63E9CFE00120194D60B9D5BC67FE6D39CDF37E20AF817881F504B
310
0304140006080800B670623BBFEF2E3B690500003C100000340000006662782F42384135303843342D343331462D343546312D424341352D3532343432364645413344462F6F626A656374732E786D6CAD575D739B3814FD2B0CFB0C98D84E931D4227B6938EA793B6534F3BFB90198F0099B001899144EAECAFDF231018B0
310
D37A3FFC609090EEE7B94757C1FB7D915B2F54C88CB31BDB7727B64559CC938CA53776A576CE956DBD0F03C1B9EA2DB32D460A7A63EB693B0C52C1ABD24C257447AA5C8D66EF177F5832A68CDA569C13296F6C193FD182B8A4523CA1F2D94D88226EBADBBBBEDB2C1C8A4D05299F46424B222853B014F30C52ACC6287F389C
310
D85E1878FA7B18E87FB36AFAF62AAFF667A83F635211161F291B8999FAB3D5DDC5FCDA99CF6653677679E13B8BFBC5CAF1DF4D27CBCBE5F2FAF6EE1A8AA51290642C117467871F101B91C581D77CEA2C36869F3229E68CD1B8F61F1ED6361B89092D294B90C78C4A68EB793D190E7D1D9BDEE7A91E1B95FDE9F3BCEAEFE809
310
6A6D6F9F7D4B79F4275C90E7A04248AA51D5C4C738DAE06F72885AC4796EBE65D22A88A22223B995679120E2D50EB1542F098381188D4EA111AE3DB043FF20AF6F2B4AE3D7D83D65E5AECA730D4D3BAC91BD05FEA992B565D95F549CD6069B90AB2A63EACA38A45E4B6A87D781574F86817E4C2FCCC72690D62E2729520E37
310
9BAF234797BAF6D62B3BFC781FED37BA1E4F2B2F052FA9501A3E80569BB8F6A9A364D4FA67654E6F803383981F82F21591FF84F23D9882BC896C3FDBCF8C162508933B2E0AE4C69DD43F6BD2BE38DDDBF10BF86CB4FA784D37F3AF16075E67EC9030DECA1FC0A55373F5DFF3378C591FA9BDF485C10B0A8C8BA909E5262639
310
A8E72163488806A595734C81CB77D1DE0ED7604A303B76913CEC0272F412782FF88EFF4636D8AA56DF7B322474C4B767303F625997056C7B032C473C592B36CEBD15F3F9FF5233B7ABCDC74D257624A60F8658567497B14CE1EC3C80B76FD02011038F9EE9EB0F2E12387A9C844D3F09855125116D1D731DF8B43D2CF4E0A0
310
79A020C6BE946BCE0B7EA1E1219331CD73C228AF5A2DDD31A4B1DA918CE91350854D40A71723140BFA92E94E62B0626016CEFA5864A50E5977E8753CEDBEE1CBB7F52780D20E17AF0BA0F5F9B02A3AD07DCC732EB6D1EBB661421BE0C39E21BABF0FE16D22EA6929407C8DE596724C88B749B6DB5512BC7B228ADFD7CB7EA6
310
3A22397E690BA8D5D8D4E40CEC8CDA23C2C0B7D5898640101CEC9C6D331CE328CB93CAFBBAC70A642DF70DF95155945B52F08AA973C23469FD69ADEF84F7BB18F983A8F8C90E37F5D35980B2139A1C523540813E824EF83448CF7C72B598CE97D7CEEDDDDD3B6736BFBC771677EF66CE6A7E7139F7A793E9EDF2B2B3A8B624
310
0CDA13AA5F8388264EC4A0129909F3B7F5A16CEDF08128E97D680ACA4B9BE7B7B58BB638F0B00700EF36AE8B32A705658A68F83EE897FC2B41573190D1CCAF0B92D233A47CFEB019D9809933F67DD1A5467F8CF69AD9A5AE859342D45355448C64F968A371DC2D596ADC6E43D93D1B466F877A64E2893E54F23C4B40388995
310
525E5005DA3983ED45412510D3EFCA13737B3863F74BD30F2A12E5B4B5E489A025CE25500DB855B11ACE5BBFA185D35DD48D8DC3CE7DC69F2944DB42AA6F6CF09BCA622ADD08C7A36E7C6AE18000BAB08E040135C2D21C9D75B3A91B77BB746C403F38018DFE6EC939DD92F16B40BC05294B9CDA035AAD6D330AE27FE4786B
310
8E45145EA34A75BE1C263A676A35A8ACC6297337400BF16C54EF515F3F77CB77EB3583889C754FFA29081AA98E2222ADEF05DA3E63D2EDEA8B8756C05A7FB6CABC4A91CBF325398202CC952E70A008A830324BA200D5E5EF8F5F04C75DB4B0EE3340E071C98B823333B83577596BF3849B69F2085AA0FAFA212F26BEFF5877
310
FDE622B28D88A42E49E43326DA82D31E8CB006401E1DA726059ECEC168F97A6599036306A135688F9AD2E61A6EA178F4CD51974A9F2CCB9F36FE5EBD14601068D9C3BF01504B0304140006080000B670623B000000000000000000000000350000006662782F42384135303843342D343331462D343546312D424341352D35
310
32343432364645413344462F76657274696365732E62696E504B0304140006080800B670623BF270F1330600000004000000360000006662782F42384135303843342D343331462D343546312D424341352D3532343432364645413344462F747269616E676C65732E62696E636660600000504B0304140006080000B67062
310
3B000000000000000000000000370000006662782F42384135303843342D343331462D343546312D424341352D3532343432364645413344462F617474726962757465732E62696E504B0304140006080800B670623B08DA0BD19000000041010000360000006662782F42384135303843342D343331462D343546312D4243
310
41352D3532343432364645413344462F6469726563746F72792E786D6C858F410AC3201045AF22B36F53E9A60B35CBEEBAE80D244E44489C6234F4F835464A48035D0DF398FF9F8AF63D0E6CC63039F212F8F9020C7D47C6792B21C5FE7403D62A1188E2E60C98D7234A5830286103A55745067B9D86B8A3CF9C7F90C11DE6
310
07FB144396D7B6A82D282E9A152AD114D5EF2CB866EEE831B8EEA07A7BB5A8D7D61A2BAAEB7FD5F70921FF497D00504B0304140006080800B670623B3B4606F3FE000000A00100003B0000006662782F42384135303843342D343331462D343546312D424341352D3532343432364645413344462F7265736F75726365732F
310
636F72652E786D6C8D504B6E833010BD0A9A6D65B08134808CA354A427E8052C332156828DFCA97AFC9A40A576D7CDCCE87D344F8F9FBEE647F689CE6B6B7A6039850C8DB2A336530F315C4903D94970676DF82583CCC8197B5861107C72362E3BA4AC096842428D1D7107A5F71820538F74F4E0D50D6799CB1892C2DFF345
310
AABB9C306779A2934E701F5C0A906D4FD609C2A1B7D129F4BCD858C163D4E3AED163FAA9AF1A1D88F67CA98E6D35906AA82A52BFB39ABCD5CD915C86331BD86BD3B665CD8BD52C78D0F34F46E550061C419494B6843142CB0F5677F4D0D58717DA7494F26295FF31C565FCA7296A13AA728FBBD93C0896823C09C18BB5AFB4
310
9E65A6BD762BBE01504B010214000A0000080000B670623B3DEE336E79000000790000001B00000000000000000000000000000000006175746F6465736B2D64657369676E2D7061636B6167652E786D6C504B01021400140006080800B670623BD486FD9CA0000000F40000001300000000000000000000000000B2000000
310
5B436F6E74656E745F54797065735D2E786D6C504B01021400140006080800B670623B28ED286BEB0000007C010000080000000000000000000000000083010000636F72652E786D6C504B01021400140006080800B670623B55019EA25F0000007C000000070000000000000000000000000094020000636E782E786D6C50
310
4B01021400140006080800B670623B7BC41AC871010000D40300000C00000000000000000000000000180300006662782F636F72652E786D6C504B01021400140006080800B670623B70102A487D0000009D0000000B00000000000000000000000000B30400006662782F636E782E786D6C504B01021400140006080800B6
310
70623B3610CA3329010000120200003100000000000000000000000000590500006662782F42384135303843342D343331462D343546312D424341352D3532343432364645413344462F636F72652E786D6C504B01021400140006080800B670623B1B8617914E010000330300003000000000000000000000000000D10600
310
006662782F42384135303843342D343331462D343546312D424341352D3532343432364645413344462F636E782E786D6C504B01021400140006080800B670623BBFEF2E3B690500003C10000034000000000000000000000000006D0800006662782F42384135303843342D343331462D343546312D424341352D35323434
310
32364645413344462F6F626A656374732E786D6C504B01021400140006080000B670623B0000000000000000000000003500000000000000000000000000280E00006662782F42384135303843342D343331462D343546312D424341352D3532343432364645413344462F76657274696365732E62696E504B010214001400
310
06080800B670623BF270F133060000000400000036000000000000000000000000007B0E00006662782F42384135303843342D343331462D343546312D424341352D3532343432364645413344462F747269616E676C65732E62696E504B01021400140006080000B670623B00000000000000000000000037000000000000
310
00000000000000D50E00006662782F42384135303843342D343331462D343546312D424341352D3532343432364645413344462F617474726962757465732E62696E504B01021400140006080800B670623B08DA0BD1900000004101000036000000000000000000000000002A0F00006662782F42384135303843342D3433
310
31462D343546312D424341352D3532343432364645413344462F6469726563746F72792E786D6C504B01021400140006080800B670623B3B4606F3FE000000A00100003B000000000000000000000000000E1000006662782F42384135303843342D343331462D343546312D424341352D3532343432364645413344462F72
310
65736F75726365732F636F72652E786D6C504B0506000000000E000E0080040000651100000000
  0
XRECORD
  5
1F973
102
{ACAD_REACTORS
330
186
102
}
330
186
100
AcDbXrecord
280
     1
102
MATERIAL
148
0.0
149
0.0
149
0.0
 93
        0
 94
       63
282
     0
 72
     1
 77
     1
171
     1
175
     1
179
     1
273
     0
  0
XRECORD
  5
187
102
{ACAD_REACTORS
330
186
102
}
330
186
100
AcDbXrecord
280
     1
 70
     1
 90
429727718
  1
887D55A9-D0DD-414E-B741-A7DCD4DA2B4C
310
504B03040A0000080000B670623B3DEE336E79000000790000001B0000006175746F6465736B2D64657369676E2D7061636B6167652E786D6C3C3F786D6C2076657273696F6E3D22312E302220656E636F64696E673D227574662D3822203F3E3C666F726D6174733E3C666F726D61743E687474703A2F2F736368656D612E
310
6175746F6465736B2E636F6D2F64657369676E2D7061636B6167652F323030393C2F666F726D61743E3C2F666F726D6174733E504B0304140006080800B670623BD486FD9CA0000000F4000000130000005B436F6E74656E745F54797065735D2E786D6C7D8EC10E82300C865F65E91D8A1E8C310C0EEA1BF002731658846E
310
D98AC1B77784ABF1D8FE5FBFBF75BBCE937A534CCEB38643598122B6FEE978D0B0485F9C41B54DDD7D022595594E1A469170414C76A4D9A4D207E29CF43ECE46F218070CC6BECC4078ACAA135ACF422C856C0E68EA1BF5669944DDD7BCDE7B1F8E415D77AECB980613C2E4AC91FC167A2B244592486606FC29C8FD7F045B9A
310
EF7053A7E60B504B0304140006080800B670623BBC1638F5EC0000007C01000008000000636F72652E786D6C8D90416EC3201045AF82665B61836BE2D8C24471DB9CA01740401C94182C03558F5F9C3852BBEB6A467FFE9B197D7EF89E6EE8CB2CC17AD7032D0820E394D7D68D3DA478C67B4007C117EFE32F1B202727D3C3
310
2A83E0E3E2D3BC49CABB685CCCAAF3DA6CA20CC14440EA969B1E82BA98491632C5EC08D76296EA2A4753D06797E194AC468F2356E77DF66CCD02825543D50CACC62D39ED70FDC68EB8FD68F6F8787A6784342D1DDA1D2F5758F068A7E77DB518198D065111D2624A31A93E69DD11D6D5EC85EC3B4278B9DAFF4069D6FF8492
310
75F1B5DADE7D600104CD8FDC0782976B16B9DC83CA75CD4DFC00504B0304140006080800B670623B55019EA25F0000007C00000007000000636E782E786D6C4DCB3B0E80201045D1AD90E915ED2CF8AC45050C11660C8261F98AB1B07AC9C97D42D718D865D3E909258CFD00CCE24AC6E326A164D74DC0B4128928FF326038
310
472BA13128B1252AC747C6BAB984FC68F0B87FE8960A5C09FE86CFB69FBA01504B0304140006080800B670623B3586FFB671010000D40300000C0000006662782F636F72652E786D6CC553ED6E8320147D15C2DF4541A76D6D90A6DDD627D80B50A4CE54C120983EFEAE1F4DD7A55BBA5FF3879273EEE59E7310B6393735EA
310
95ED2AA3731C851423A5A5292A5DE6D8BB63B0C268C39935C67D29C3488B46E578803167A535BE9D2169B453DA01AA4DA16650749D7218C91A1639EEE4876A4428BC838AEE14B6429E44A9C228041AEA38EB9C0501681A32BC313F1ECE8C4C3867DE57C5CC56054CAB8E95B298A7F12E5EEED224C8E87E11242FE936C8DE96
310
AB60BB7F4D295D66D12E5B30323473E6AAE6A24E5A259C2A308F29CD82280A68FC1E256B9AAE93F489AED694323294DF34F9B678B0C957DA3DC7B3DCA9ADC33C022123F1CD2D44E450277AD04338234388F01913BE0D1A0281909D38D4171F27807A259DB1093085F157AA17B557309586747CD0CF0B46A64E983A6E0EAEEF
310
CE881F9EF1FB8E70D44297604238581EBC1B74B249C31C5AAB6CD0BB33D2C636A27ECCC62F0EFF445DC5DF95244D6DEC7F2922F30191F9F720C37DE49F504B0304140006080800B670623B4220A0FF7D0000009D0000000B0000006662782F636E782E786D6C4DCCD10A83201886E15B91FFDCE542CB0335D0EC3E6259C84A
310
C3E9D8E5AF46073BFAE0E1E315DD675BD1DBA5978F41C2FD4600B9F088930F8B849267CC01754AA418F3DF0D50183727E164506249B1EC174D6E1ECB9A0F5D7D785E68DB8151CD286E5A5363CA6B8A39E90D36D40E96B086F55A43A544F52B1D7B86D517504B0304140006080800B670623B2FA3FEDE290100001202000031
310
0000006662782F45374635344235342D363743322D343832342D383044432D4334454645303536354442422F636F72652E786D6C8D515B6EC32010BC0AE22B55850D2E386E848994D7097A0117488A1283C5A3CAF10BB523B57FF961D1ECCCECC0F2ED7DBC816FED8371B687A4C210682B9D32F6D2C314CFA883602BB8772E
310
FEA141608751F7B0C050F08B77695A20E96CD43666D43AA5177008414708E42D5F7A18E4971E876A483133C2B59A06791D2EBA22556E679EE021FA1C00CC43CA09C5717D6274C7286AD7FB06D1AEA1A8C3873DDAD3E3E98859CB0EBB1DAF67A1E02919B5C88DCA71CCD968FFAC49110B1ECDF8882FBD1EA256503418BF2342
310
106E3E08DD60B6A1EC15771B8C795DE8FF4469524F8A92B1F1AD59E2CEB20005E1F5DC105CB9F4797B84D1F7C9F908CABC55D0F2050A5C61CC1AD2F27A26E6E767C7962E8E213A9FBF7775FDCC5CC266DB960A5E970DE5F2BBBE5CCB36C50F504B0304140006080800B670623B1B8617914E01000033030000300000006662
310
782F45374635344235342D363743322D343832342D383044432D4334454645303536354442422F636E782E786D6CD593C16EC32010447F0571AD6CE3D489D20813A9877E410FBD62D82434182CC055F3F75D1292E692438FBD206B7698593D61BEFD1E2DF982108D773D6D6B460938E5B571FB9ECE6957AD29D90A1EBC4F77
310
364A9C1CA1A759A682EF839FA72269D8C9D92654AD71C72206887E0E0A22CAF926B15E498B01E0AA19451807D01A34B919F16B070157417138917400F2F6FA41FCF0092A45DEE414C19BDC21783E4BD39D891265658C3D8DEA00A3ACE59CBC8678ACB54CB26EEB6BD7839D7E9348BE70AD9C8321B9BCA7F9A4A26C542347DE
310
E050F09802D22BA6749A800A394DD62899107273365E3C82CFC6A55557BC06C10774B7ABE7AEC3B0F34CF06446280E154026D0542C187BA9DAB6628BF7B6DBB0E5A65B3EB1F58631DE64BBE083F7B65CC218087E22CABB042E51D1F2268F1FE12B3EA24D40D63E9CFE00120194D60B9D5BC67FE6D39CDF37E20AF817881F50
310
4B0304140006080800B670623B29652116630500003C100000340000006662782F45374635344235342D363743322D343832342D383044432D4334454645303536354442422F6F626A656374732E786D6CAD575D739B3814FD2B0CFB0C989834C90EA1639B24E3E9A6EDD4D3CE3E64C623834CD8006224913AFDF57B040203
310
B65BEF871F0C12D2FD3CF7E8CA7FBFCB33E3957291B2E2D674ED8969D02262715A24B76625B7D6B569BC0F7CCE98EC2D338D82E4F4D654D366E0279C55A59E8AE99654991CCDDECFFF3444440B6A1A514684B83545F44C7362934AB2988A173B2692D8C97667BB76B3702836E1A47C1E092D09A78584A5982F20C5688C7287
310
C389E904BEA3BE07BEFAD7ABA6A75739B53F43FD69212429A20365233153D70BEF2E2E6FAC4BCF9B5ADEBB0BD79ADFCF43CBBD9A4E16EF168B9BD9DD0D140BC921495BC2E9D60C1E101B9E46BED37CEA2CD6861F3329624541A3DA7F7858DBAC25C6B4A4458C3CA654405BCFEBC970E8AAD8F43E4FD558ABEC4F9FE7557F47
310
4F506B7BFBEC5BCA367FC105710E2AB8A00A554D7CB4A30DFE26FBA86D18CBF4B75418399194A72433B274C3097F33032C554B027F2046A1932B842B0FCCC0DDCBEBDB8AD2F835768F59B9ADB24C41D30C6A64AF817F2A456D59FA83F2E3DA60137255A585BCD60EC9B7929AC18DEFD49381AF1ED30BFDB109A4B1CD488294
310
C3CDE6EBC8D185AABD6568061FEE37BB95AAC7E3CA4BCE4ACAA5820FA0D526AE7DAA2869B5EE5999531BE0CC20E6FBA07C41E43FA27CF7A6206F3CDD793B4F6B919C1462CB788EDCD893FA674CDA17AB7B3B7C019F8D561FAEE966FED562DFE98C1D12C6A9FC015C2A35D7FF3D7FC398F591DA4B5FE0BFA2C0189FEA50AE22
310
92817A1ED3020951A03432862970F976B33383259812CC8E5D240BBA801CBCF8CE2BBEE3BF910DB6AAD5F79E05123AE2DB33981FB1ACCB02B69D00CB014FD68AB573A7627EF9BFD4CC2C5C7D58557C4B22FAA88925A4DBB44825CECE3D78FB060D1231F0E885BE7D673C86A3874958F593906B5502D1563157814FDAC3420D
310
F69A070A22EC4B98E23CFF171A1E5311D12C23056555ABA53B8614563B92D17D02AAB009E8F46284624E5F53D5490C560CCCC2591FF1B45421EB0EBD8EA7ED13BE7C5D7E0428CD60FEF60779EB13E6664FF711CB185F6FDED60D139A001FF60CD1FD6D086F1D51474901E26B2CB794A343BC8ED3EDB612E0DD2351FCB65CF4
310
33D511C9E14B5B40ADC6A6263DB0336A8F700DDF56271A024E70B0B3629DE21847591E55DED73D56206AB927E46FAABC5C939C55853C274C93D69FD6FA4E78BF8B11DF898C9ECD60553FAD39283BA6F18984AA23E8884F83F45C5F5F859797B31B2B9C84A1E5B9DE9D35BFF25C6B76152E422F9C5DCC3D847F5801ED09D5AF
310
41441327A25FF15487F9EB725FB666F048A4701E9A827292E6F97569A32DF61DEC01C0BB8DCBBCCC684E0B49147C1FD54BF685A0AB18C868E6973949E819523E3DAC463660E68C7D9F55A9D1EFA3BD7A76A16AE1A810F95CE59B82A4D968A376DC2E8B44BBDD86B27B368CDE0ED548C7137DA860591A83706223A12CA712B4
310
7306DBF39C0A20A6DF95C7FAF670C6EED7A61F946493D1D6926782963813403548A78AE470DEF80D2D9CEAA26E4D1C76F60BFE74219A06527D6B82DF641A51616F703CAAC6A7160E08A00BEB4810A0274592A1B36E3675E36E978A0DE80727A0D6DF2D39A75BD27E0D8837276589537B40ABB56D5A41F48F1C6FCD3188C4EB
310
A6929D2FFB89CE995A4D00AE813BDD032DC48B56BD437DFDDC2DD7AED70C2272D63DE9A72068A45A92F0A4BE17A8A06B9366E16707AD80B1FC649459952097E74BB23805982B55E0401150A165964402AA8BDF9F3E7386BB686EDCA780C0D382E5392BF460A6EFB2C6EA1937D3F809B440D5F5435C4C5CF7A9EEFAF54564BD
310
2182DA24162F98680B4E7930C21A0079709CEAEB99A372305ABE0C0D7D6078105A83F6A0296DAEE1068A47DD1C55A9F4C9B2FC69E3EFD44B81028E963DF81B504B0304140006080000B670623B000000000000000000000000350000006662782F45374635344235342D363743322D343832342D383044432D433445464530
310
3536354442422F76657274696365732E62696E504B0304140006080800B670623BF270F1330600000004000000360000006662782F45374635344235342D363743322D343832342D383044432D4334454645303536354442422F747269616E676C65732E62696E636660600000504B0304140006080000B670623B00000000
310
0000000000000000370000006662782F45374635344235342D363743322D343832342D383044432D4334454645303536354442422F617474726962757465732E62696E504B0304140006080800B670623B08DA0BD19000000041010000360000006662782F45374635344235342D363743322D343832342D383044432D4334
310
454645303536354442422F6469726563746F72792E786D6C858F410AC3201045AF22B36F53E9A60B35CBEEBAE80D244E44489C6234F4F835464A48035D0DF398FF9F8AF63D0E6CC63039F212F8F9020C7D47C6792B21C5FE7403D62A1188E2E60C98D7234A5830286103A55745067B9D86B8A3CF9C7F90C11DE607FB144396
310
D7B6A82D282E9A152AD114D5EF2CB866EEE831B8EEA07A7BB5A8D7D61A2BAAEB7FD5F70921FF497D00504B0304140006080800B670623B6378F24DFF000000A00100003B0000006662782F45374635344235342D363743322D343832342D383044432D4334454645303536354442422F7265736F75726365732F636F72652E
310
786D6C8D504B6E833010BD0A9A6D65B0094E42641C85B639412F6099496225D8C89FAAC7AF09546A77DDCC8CDE47F3F4C4F16B7C149FE88371B603565228D06A37187BED20C50BD9437194C23B177FC9A0B06AC40E6618A4B87A97A615D2CE46B431A3D60DB8822A048C50E8473E3A08FA86A32A558A5911EEE5A4F45D5DB1
310
6465A6B34E8A107D0E502C4FE609D26370C96B0CA25A58295232C3AA3143FE692E063D485EF7F5AEE71BD2D2F39634AFFC44DAF7DD9E9CCE6F9CD25DCBFA762BAAD92C4534E34F46ED51451C40D694B6843142EB0FD61C283F34FC85EE0F948A6A96FF31A569F8A729191B37F51A77B105902C0779125254735F793DCBCC7B
310
EE567E03504B010214000A0000080000B670623B3DEE336E79000000790000001B00000000000000000000000000000000006175746F6465736B2D64657369676E2D7061636B6167652E786D6C504B01021400140006080800B670623BD486FD9CA0000000F40000001300000000000000000000000000B20000005B436F6E
310
74656E745F54797065735D2E786D6C504B01021400140006080800B670623BBC1638F5EC0000007C010000080000000000000000000000000083010000636F72652E786D6C504B01021400140006080800B670623B55019EA25F0000007C000000070000000000000000000000000095020000636E782E786D6C504B010214
310
00140006080800B670623B3586FFB671010000D40300000C00000000000000000000000000190300006662782F636F72652E786D6C504B01021400140006080800B670623B4220A0FF7D0000009D0000000B00000000000000000000000000B40400006662782F636E782E786D6C504B01021400140006080800B670623B2F
310
A3FEDE290100001202000031000000000000000000000000005A0500006662782F45374635344235342D363743322D343832342D383044432D4334454645303536354442422F636F72652E786D6C504B01021400140006080800B670623B1B8617914E010000330300003000000000000000000000000000D2060000666278
310
2F45374635344235342D363743322D343832342D383044432D4334454645303536354442422F636E782E786D6C504B01021400140006080800B670623B29652116630500003C10000034000000000000000000000000006E0800006662782F45374635344235342D363743322D343832342D383044432D4334454645303536
310
354442422F6F626A656374732E786D6C504B01021400140006080000B670623B0000000000000000000000003500000000000000000000000000230E00006662782F45374635344235342D363743322D343832342D383044432D4334454645303536354442422F76657274696365732E62696E504B01021400140006080800
310
B670623BF270F13306000000040000003600000000000000000000000000760E00006662782F45374635344235342D363743322D343832342D383044432D4334454645303536354442422F747269616E676C65732E62696E504B01021400140006080000B670623B0000000000000000000000003700000000000000000000
310
000000D00E00006662782F45374635344235342D363743322D343832342D383044432D4334454645303536354442422F617474726962757465732E62696E504B01021400140006080800B670623B08DA0BD190000000410100003600000000000000000000000000250F00006662782F45374635344235342D363743322D34
310
3832342D383044432D4334454645303536354442422F6469726563746F72792E786D6C504B01021400140006080800B670623B6378F24DFF000000A00100003B00000000000000000000000000091000006662782F45374635344235342D363743322D343832342D383044432D4334454645303536354442422F7265736F75
310
726365732F636F72652E786D6C504B0506000000000E000E0080040000611100000000
  0
XRECORD
  5
1F975
102
{ACAD_REACTORS
330
110
102
}
330
110
100
AcDbXrecord
280
     1
102
MATERIAL
148
0.0
149
0.0
149
0.0
 93
        0
 94
       63
282
     0
 72
     1
 77
     1
171
     1
175
     1
179
     1
273
     0
  0
XRECORD
  5
112
102
{ACAD_REACTORS
330
110
102
}
330
110
100
AcDbXrecord
280
     1
270
     1
271
     1
  0
XRECORD
  5
111
102
{ACAD_REACTORS
330
110
102
}
330
110
100
AcDbXrecord
280
     1
270
     1
271
     1
  0
XRECORD
  5
18A
102
{ACAD_REACTORS
330
110
102
}
330
110
100
AcDbXrecord
280
     1
 70
     0
 90
1778669749
  1
9BF507EE-FAF7-4A99-A33D-4EE51894BC40
310
504B03040A0000080000B670623B3DEE336E79000000790000001B0000006175746F6465736B2D64657369676E2D7061636B6167652E786D6C3C3F786D6C2076657273696F6E3D22312E302220656E636F64696E673D227574662D3822203F3E3C666F726D6174733E3C666F726D61743E687474703A2F2F736368656D612E
310
6175746F6465736B2E636F6D2F64657369676E2D7061636B6167652F323030393C2F666F726D61743E3C2F666F726D6174733E504B0304140006080800B670623BD486FD9CA0000000F4000000130000005B436F6E74656E745F54797065735D2E786D6C7D8EC10E82300C865F65E91D8A1E8C310C0EEA1BF002731658846E
310
D98AC1B77784ABF1D8FE5FBFBF75BBCE937A534CCEB38643598122B6FEE978D0B0485F9C41B54DDD7D022595594E1A469170414C76A4D9A4D207E29CF43ECE46F218070CC6BECC4078ACAA135ACF422C856C0E68EA1BF5669944DDD7BCDE7B1F8E415D77AECB980613C2E4AC91FC167A2B244592486606FC29C8FD7F045B9A
310
EF7053A7E60B504B0304140006080800B670623BCA089DFFEC0000007C01000008000000636F72652E786D6C8D90416E83301045AF62CDB632D8402020E32882F604BD80653BC44AB011B6AB1EBF262152BBEB6A467FFE9B197D76FA9EEFE84BAFDE38DB03CD08206DA553C64E3DC470C1474027CE56E7C22F1B202B66DDC3
310
260367D3EAE2B24BD2D9A06D48AA754AEFA2F05E0740F29E9A1EBCBCEA59642286E4F0B76C11F226269DD15797E0188D42CF2346A57DE662F40ABCAEC77628C6120F654571D50C04B7F5B9C1E3997CD4F550BE3745C3F20DE62C98F9755FAE5A04AD801784B498524C8A4F5A75E4D055873772EC0861F966FF03C545FD138A
310
C686B2D8DF7D621E384D8F3C069CE55B16A93C824A75CB8DFF00504B0304140006080800B670623B55019EA25F0000007C00000007000000636E782E786D6C4DCB3B0E80201045D1AD90E915ED2CF8AC45050C11660C8261F98AB1B07AC9C97D42D718D865D3E909258CFD00CCE24AC6E326A164D74DC0B4128928FF326038
310
472BA13128B1252AC747C6BAB984FC68F0B87FE8960A5C09FE86CFB69FBA01504B0304140006080800B670623B68FC0B7272010000D40300000C0000006662782F636F72652E786D6CC5535B6E833010BC8AE5DF0A6C1E8124328E22D29EA01770C0A128602363A31CBFCB234A53A555FA553EC09AD9F5CE8C31DB5DDA060D
310
D2F4B556190E7C8A9154852E6B5565D8D993B7C668C799D1DA7E29C3488956667884316795D1AE5BA0422B2B950554E9522EA0E87B69312A1A5864B82F3E642B7CE12C54F467BF13C55954D20F7CA0A18EB3DE1A1080E621E31BF3D3F1C2C88C73E65C5D2E6C5DC2B4FA544B8379921C36797888BC3C8A032F4E73EA6D927D
310
EA1DF6F42D49F2E8350D5346C666CE6CDD5ED515460A2B4BCC434A375E1078347C0FE22D5D6DE3D50B5D6F2965642CBF6B725DF96493AB958DC245EEDCD6631E809089F8E61622B2A81703E8219C913144F84C09DF070D8140C8561C9BAB8F3340832CAC363130A576376A108D933095FA747AD0CF0B46E64E983A6D0EAE1F
310
CE089F9EF1FB8E70D44255604258581E9D1D75B259C3125A278D37D80B52DAB4A279CEC62F0EFF44DDC43F9454E8469BFF5244960322CBEF41C6FBC83F01504B0304140006080800B670623B0F71DDB67E0000009D0000000B0000006662782F636E782E786D6C4DCCD10A83201886E15B91FFDCA54DB73F502386BB8F5816
310
32D3703976F9ABD1C18E3E78F87855FB990379BBFCF2296AE02706C4C5471A7C9C349475A408A4352AA7B4FEDD80C47E761A7606A3A69CCA72D0E0C6BE8475D3E0E3F3409428EA6B27A84079A782899AA2EC1A7AE3ECCC2FD858CB2D544655BFD2B67BD87C01504B0304140006080800B670623BE134B4FB28010000120200
310
00310000006662782F38353834323741342D343835462D343034322D383541392D4331303331363839454531452F636F72652E786D6C8D515B6EC32010BC0AE22B55850D0EA424C24451959EA0172086A42831583CAA1CBF503B52FB971F16CDCECC0EACD8DFC71BF836215AEF7A481A0C817183D7D65D7A98D3197108F652
310
04EFD31F1A044E8DA6871586525C82CFD3020DDE25E352419DD76601558C264130DCCAA58771F832A36A544E8511AFCDA486ABBA988634A55D7852C4144A00300FA927949C71DABD1D28A29C7D208A6987383B6CD13BC16BB2E1DBE3911C453B0BA5C8D9EA456E758963CFD684674DAA588A64C747FC2118958C86B2C3788B
310
0841B8FB247487D98EB257CC77188BB6D2FF89F2A49F1465EBD2BA5BE2CEB2082511EDDC9042FB7CBA3DC298FBE4430275DE2A9AE1054ADC60CC08E3A29D89E5F9C5714317C7987C28DFBBBA9E0A97B0D97643A568EB864AF95D5FA9759BF207504B0304140006080800B670623B1B8617914E010000330300003000000066
310
62782F38353834323741342D343835462D343034322D383541392D4331303331363839454531452F636E782E786D6CD593C16EC32010447F0571AD6CE3D489D20813A9877E410FBD62D82434182CC055F3F75D1292E692438FBD206B7698593D61BEFD1E2DF982108D773D6D6B460938E5B571FB9ECE6957AD29D90A1EBC4F
310
77364A9C1CA1A759A682EF839FA72269D8C9D92654AD71C72206887E0E0A22CAF926B15E498B01E0AA19451807D01A34B919F16B070157417138917400F2F6FA41FCF0092A45DEE414C19BDC21783E4BD39D891265658C3D8DEA00A3ACE59CBC8678ACB54CB26EEB6BD7839D7E9348BE70AD9C8321B9BCA7F9A4A26C542347
310
DEE050F09802D22BA6749A800A394DD62899107273365E3C82CFC6A55557BC06C10774B7ABE7AEC3B0F34CF06446280E154026D0542C187BA9DAB6628BF7B6DBB0E5A65B3EB1F58631DE64BBE083F7B65CC218087E22CABB042E51D1F2268F1FE12B3EA24D40D63E9CFE00120194D60B9D5BC67FE6D39CDF37E20AF817881F
310
504B0304140006080800B670623B5933D422630500003B100000340000006662782F38353834323741342D343835462D343034322D383541392D4331303331363839454531452F6F626A656374732E786D6CAD575B6FA33814FE2B887D0642934E9B156594264D158D3A534DD4D13E548A0C38942D60649B4EBABF7E3F8321
310
40924EF6928780CDF1B97EE762EFF32E4B8D37CA45C2F21BD3B547A641F39045491EDF98A5DC5AD7A6F1D9F73863B243661A39C9E88DA9B64DDF8B392B0BBD15D12D295339D85DDEFE618890E6D434C2940871638AF08566C426A5641115AF764424B1E3EDCE76ED9AB0CF36E6A47819302D08A7B984A6D8CFC1C5A89572FB
310
CB91E9F89EA3BEFB9EFAD754E3D3544E654F5F7E920B49F2F040D880CDD89D2CEE2E2EA7D6E56432B6269F2E5CEB7679BBB0DCABF168FE693E9FCEEEA6102C240727AD09A75BD3BF876F78127A4EFDA9D5582B7E4CA590E5390D2BFB6161A5B3E618D182E611E2985001691DAB47FDA5AB7CD3F93C566B2DB2BB7D9E55DD13
310
1D468DEECDB3AB290BFE8409E21C54704115AA6AFF68436BFC8DF65E0B184BF5B74418199194272435D224E084BF9B3E481589EFF5D828747285706581E9BB7B7E5D5D911ABFC6EE312DB7659A2A689A7E85EC0DF04FA5A8344BFEA2FCB834E8845895492EAFB541F2BDA0A63FF59C6AD3F7D4637CA13FD68E34B629891172
310
98597F1D183A57B9B75A98FE9765B05BAB7C3C2EBCE0ACA05C2AF8005A4DE09AA7F29216EB9E15397500C6F47CBE77CA7778FE2BD277AF0AE2C693DD6437D1522427B9D8329E2136F6A8FA19A3E6C56ADF0E5F50CF06D48734EDCEBF22F69C56D97EC138153F804B85E6FABFC7AFEFB32E523BE1F3BD372418E363EDCA7548
310
52949E8724474014288D94610BB57C1BEC4C7F854A89CA8E5324F55B871CBC78CE1BBEE3BFE68D6A5589EF3C730474506FCFA8FCF0659516D0ED04580EEA6425581B77CAE797FF4BCECC16EB2FEB926F49481F746159D06D922712BD730FDEAE42BD40F42C7AA5EF3F198F60E86110D6DD20645A9480B795CF95E3E3A659A8
310
C55E724F408873315335CFFB8584874484344D494E59D94869DB90C26A5B64F49C802CAC1D3ABE18A098D3B7444D123D8A9E5AE8F5214F0AE5B2B6E9B575DA3E61CBD3EA2B4009FA940524DD1305FB6A1FB294F14DF0BEA90BA109ECE1481FDC3FFAE8D60E75141700BE82725371B4873751B2DD960265F788137FACE6DD40
310
B575E4F0A5C99F46629D92131467A41EE11ABD8D4CCC039CA0AFB37C93A08B232B8F0AEFCA1E0A1015DF13FC83322B362463652ECF71D3A8B1A7D1BE65DE1D62C44F22C317D35F574FEB16153BA2D13E543D10A80E74C4A65E78A6B7CBCBD1D5DD9DB59C2DAFACC96C3AB566E3F1C29ADCDD5DBAD7D3C9ED7C822ED74F80A6
310
41755310DE4443F44A9E68373FADF6596BFA0F440AE7BECE2727AE9F4F2B1B53B1E7E00CF0DD1E5C65454A339A4BA2D0FBA05ED2EF0443458F47BDBFCA484CCFE0F2ED7E3DD0013B679C7B5499467F0ECEEADDB9CA85A34CE44B99053949D2C1416DB85DE4B136BB7165FBAC0B7AB3542BED4F8CA182A549847A1319316519
310
95A83A67147B9E5101C47487F2485F1ECE38FD568F839204296D3479219888530154036E6528FBFBC66F98E0D4107563A2D7D9AFF8D389681A08F58D89F22693900A3B407754734FC51C10C010D6D640809EE4718AC1BA3ED4AEDB53CA37283F68805A7E4B72CEB0A4EDEAD5DD8C14059A76AFAA56BA6901E13F32BC51C720
310
12AF41295B5BF61BAD3195181FB506E6B40F4C10AF5AF40EF9F5B159AE5DD1F43C72D635E94310D45C2D49785C5D0B94D3B54AB3C5A38349C0587D338AB48C11CBF339599C02CCA54A70A008A8D03C0B2201D5F9EFCF8F9CE12A9A19CB0410789EB32C63B95ECCF455D658BFE0621A3DA32C5075FB101723D77DAE867E7D0F
310
D90444509B44E2151B4DC2290B065803200FBAA9BE9D392A0603F2D5C2D00D6302A615680F66D2FA166E2079D4C551A54AB758161FCEFD4E450A14704CECFEDF504B0304140006080000B670623B000000000000000000000000350000006662782F38353834323741342D343835462D343034322D383541392D4331303331
310
363839454531452F76657274696365732E62696E504B0304140006080800B670623BF270F1330600000004000000360000006662782F38353834323741342D343835462D343034322D383541392D4331303331363839454531452F747269616E676C65732E62696E636660600000504B0304140006080000B670623B000000
310
000000000000000000370000006662782F38353834323741342D343835462D343034322D383541392D4331303331363839454531452F617474726962757465732E62696E504B0304140006080800B670623B08DA0BD19000000041010000360000006662782F38353834323741342D343835462D343034322D383541392D43
310
31303331363839454531452F6469726563746F72792E786D6C858F410AC3201045AF22B36F53E9A60B35CBEEBAE80D244E44489C6234F4F835464A48035D0DF398FF9F8AF63D0E6CC63039F212F8F9020C7D47C6792B21C5FE7403D62A1188E2E60C98D7234A5830286103A55745067B9D86B8A3CF9C7F90C11DE607FB1443
310
96D7B6A82D282E9A152AD114D5EF2CB866EEE831B8EEA07A7BB5A8D7D61A2BAAEB7FD5F70921FF497D00504B0304140006080800B670623BD9A3B367FE000000A00100003B0000006662782F38353834323741342D343835462D343034322D383541392D4331303331363839454531452F7265736F75726365732F636F7265
310
2E786D6C8D504B6E833010BD0A9A6D65B01D0201194711694FD00B586642AD043BF2A7EAF16B122AB5BB6E6646EFA3797AE2F8B5DC8A4FF4C1383B002B291468B59B8C9D0748F1420E501CA5F0CEC55F3228AC5A708015062966EFD27D83B4B3116DCCA875136EA00A012314FA968F0182FEC045952AC5AC08D7F2AEF455CD
310
58B232D3592745883E07289E4FD609D26370C96B0CA27AB252A464A64D63A6FCD35C0C7A904D73EE467EE664DCD58CD4ED4849D79C5A723ED1B7A61977AF2D6F45B59AA58866F9C9A83DAA8813484E6947182394BFB3BAA7FBBEDEBFD0434FA9A856F91F53BA4FFF342563E38E6F719FB60092E5200F428A6AED2BAF479979
310
AFDDCA6F504B010214000A0000080000B670623B3DEE336E79000000790000001B00000000000000000000000000000000006175746F6465736B2D64657369676E2D7061636B6167652E786D6C504B01021400140006080800B670623BD486FD9CA0000000F40000001300000000000000000000000000B20000005B436F6E
310
74656E745F54797065735D2E786D6C504B01021400140006080800B670623BCA089DFFEC0000007C010000080000000000000000000000000083010000636F72652E786D6C504B01021400140006080800B670623B55019EA25F0000007C000000070000000000000000000000000095020000636E782E786D6C504B010214
310
00140006080800B670623B68FC0B7272010000D40300000C00000000000000000000000000190300006662782F636F72652E786D6C504B01021400140006080800B670623B0F71DDB67E0000009D0000000B00000000000000000000000000B50400006662782F636E782E786D6C504B01021400140006080800B670623BE1
310
34B4FB280100001202000031000000000000000000000000005C0500006662782F38353834323741342D343835462D343034322D383541392D4331303331363839454531452F636F72652E786D6C504B01021400140006080800B670623B1B8617914E010000330300003000000000000000000000000000D3060000666278
310
2F38353834323741342D343835462D343034322D383541392D4331303331363839454531452F636E782E786D6C504B01021400140006080800B670623B5933D422630500003B10000034000000000000000000000000006F0800006662782F38353834323741342D343835462D343034322D383541392D4331303331363839
310
454531452F6F626A656374732E786D6C504B01021400140006080000B670623B0000000000000000000000003500000000000000000000000000240E00006662782F38353834323741342D343835462D343034322D383541392D4331303331363839454531452F76657274696365732E62696E504B01021400140006080800
310
B670623BF270F13306000000040000003600000000000000000000000000770E00006662782F38353834323741342D343835462D343034322D383541392D4331303331363839454531452F747269616E676C65732E62696E504B01021400140006080000B670623B0000000000000000000000003700000000000000000000
310
000000D10E00006662782F38353834323741342D343835462D343034322D383541392D4331303331363839454531452F617474726962757465732E62696E504B01021400140006080800B670623B08DA0BD190000000410100003600000000000000000000000000260F00006662782F38353834323741342D343835462D34
310
3034322D383541392D4331303331363839454531452F6469726563746F72792E786D6C504B01021400140006080800B670623BD9A3B367FE000000A00100003B000000000000000000000000000A1000006662782F38353834323741342D343835462D343034322D383541392D4331303331363839454531452F7265736F75
310
726365732F636F72652E786D6C504B0506000000000E000E0080040000611100000000
  0
XRECORD
  5
113
102
{ACAD_REACTORS
330
110
102
}
330
110
100
AcDbXrecord
280
     1
270
     1
271
     1
  0
XRECORD
  5
114
102
{ACAD_REACTORS
330
110
102
}
330
110
100
AcDbXrecord
280
     1
270
     1
271
     1
  0
XRECORD
  5
1F997
102
{ACAD_REACTORS
330
1F996
102
}
330
1F996
100
AcDbXrecord
280
     1
102
ACAD_ROUNDTRIP_2012_MLEADER_STYLE
298
     1
  0
XRECORD
  5
1F9A9
102
{ACAD_REACTORS
330
1F9A8
102
}
330
1F9A8
100
AcDbXrecord
280
     1
102
DISPLAYNAME
  1
Imperial24
102
FLAGS
 90
        0
  0
CELLSTYLEMAP
  5
1F969
102
{ACAD_REACTORS
330
104
102
}
330
104
100
AcDbCellStyleMap
 90
        3
300
CELLSTYLE
  1
TABLEFORMAT_BEGIN
 90
        5
170
     1
 91
        0
 92
    32768
 62
   257
 93
        1
300
CONTENTFORMAT
  1
CONTENTFORMAT_BEGIN
 90
        0
 91
        0
 92
      512
 93
        0
300

 40
0.0
140
1.0
 94
        5
 62
     0
340
11
144
0.25
309
CONTENTFORMAT_END
171
     1
301
MARGIN
  1
CELLMARGIN_BEGIN
 40
0.06
 40
0.06
 40
0.06
 40
0.06
 40
0.18
 40
0.18
309
CELLMARGIN_END
 94
        6
 95
        1
302
GRIDFORMAT
  1
GRIDFORMAT_BEGIN
 90
        0
 91
        1
 62
     0
 92
       -2
340
0
 93
        0
 40
0.045
309
GRIDFORMAT_END
 95
        2
302
GRIDFORMAT
  1
GRIDFORMAT_BEGIN
 90
        0
 91
        1
 62
     0
 92
       -2
340
0
 93
        0
 40
0.045
309
GRIDFORMAT_END
 95
        4
302
GRIDFORMAT
  1
GRIDFORMAT_BEGIN
 90
        0
 91
        1
 62
     0
 92
       -2
340
0
 93
        0
 40
0.045
309
GRIDFORMAT_END
 95
        8
302
GRIDFORMAT
  1
GRIDFORMAT_BEGIN
 90
        0
 91
        1
 62
     0
 92
       -2
340
0
 93
        0
 40
0.045
309
GRIDFORMAT_END
 95
       16
302
GRIDFORMAT
  1
GRIDFORMAT_BEGIN
 90
        0
 91
        1
 62
     0
 92
       -2
340
0
 93
        0
 40
0.045
309
GRIDFORMAT_END
 95
       32
302
GRIDFORMAT
  1
GRIDFORMAT_BEGIN
 90
        0
 91
        1
 62
     0
 92
       -2
340
0
 93
        0
 40
0.045
309
GRIDFORMAT_END
309
TABLEFORMAT_END
  1
CELLSTYLE_BEGIN
 90
        1
 91
        1
300
_TITLE
309
CELLSTYLE_END
300
CELLSTYLE
  1
TABLEFORMAT_BEGIN
 90
        5
170
     1
 91
        0
 92
        0
 62
   257
 93
        1
300
CONTENTFORMAT
  1
CONTENTFORMAT_BEGIN
 90
        0
 91
        0
 92
      512
 93
        0
300

 40
0.0
140
1.0
 94
        5
 62
     0
340
11
144
0.18
309
CONTENTFORMAT_END
171
     1
301
MARGIN
  1
CELLMARGIN_BEGIN
 40
0.06
 40
0.06
 40
0.06
 40
0.06
 40
0.18
 40
0.18
309
CELLMARGIN_END
 94
        6
 95
        1
302
GRIDFORMAT
  1
GRIDFORMAT_BEGIN
 90
        0
 91
        1
 62
     0
 92
       -2
340
0
 93
        0
 40
0.045
309
GRIDFORMAT_END
 95
        2
302
GRIDFORMAT
  1
GRIDFORMAT_BEGIN
 90
        0
 91
        1
 62
     0
 92
       -2
340
0
 93
        0
 40
0.045
309
GRIDFORMAT_END
 95
        4
302
GRIDFORMAT
  1
GRIDFORMAT_BEGIN
 90
        0
 91
        1
 62
     0
 92
       -2
340
0
 93
        0
 40
0.045
309
GRIDFORMAT_END
 95
        8
302
GRIDFORMAT
  1
GRIDFORMAT_BEGIN
 90
        0
 91
        1
 62
     0
 92
       -2
340
0
 93
        0
 40
0.045
309
GRIDFORMAT_END
 95
       16
302
GRIDFORMAT
  1
GRIDFORMAT_BEGIN
 90
        0
 91
        1
 62
     0
 92
       -2
340
0
 93
        0
 40
0.045
309
GRIDFORMAT_END
 95
       32
302
GRIDFORMAT
  1
GRIDFORMAT_BEGIN
 90
        0
 91
        1
 62
     0
 92
       -2
340
0
 93
        0
 40
0.045
309
GRIDFORMAT_END
309
TABLEFORMAT_END
  1
CELLSTYLE_BEGIN
 90
        2
 91
        1
300
_HEADER
309
CELLSTYLE_END
300
CELLSTYLE
  1
TABLEFORMAT_BEGIN
 90
        5
170
     1
 91
        0
 92
        0
 62
   257
 93
        1
300
CONTENTFORMAT
  1
CONTENTFORMAT_BEGIN
 90
        0
 91
        0
 92
      512
 93
        0
300

 40
0.0
140
1.0
 94
        2
 62
     0
340
11
144
0.18
309
CONTENTFORMAT_END
171
     1
301
MARGIN
  1
CELLMARGIN_BEGIN
 40
0.06
 40
0.06
 40
0.06
 40
0.06
 40
0.18
 40
0.18
309
CELLMARGIN_END
 94
        6
 95
        1
302
GRIDFORMAT
  1
GRIDFORMAT_BEGIN
 90
        0
 91
        1
 62
     0
 92
       -2
340
0
 93
        0
 40
0.045
309
GRIDFORMAT_END
 95
        2
302
GRIDFORMAT
  1
GRIDFORMAT_BEGIN
 90
        0
 91
        1
 62
     0
 92
       -2
340
0
 93
        0
 40
0.045
309
GRIDFORMAT_END
 95
        4
302
GRIDFORMAT
  1
GRIDFORMAT_BEGIN
 90
        0
 91
        1
 62
     0
 92
       -2
340
0
 93
        0
 40
0.045
309
GRIDFORMAT_END
 95
        8
302
GRIDFORMAT
  1
GRIDFORMAT_BEGIN
 90
        0
 91
        1
 62
     0
 92
       -2
340
0
 93
        0
 40
0.045
309
GRIDFORMAT_END
 95
       16
302
GRIDFORMAT
  1
GRIDFORMAT_BEGIN
 90
        0
 91
        1
 62
     0
 92
       -2
340
0
 93
        0
 40
0.045
309
GRIDFORMAT_END
 95
       32
302
GRIDFORMAT
  1
GRIDFORMAT_BEGIN
 90
        0
 91
        1
 62
     0
 92
       -2
340
0
 93
        0
 40
0.045
309
GRIDFORMAT_END
309
TABLEFORMAT_END
  1
CELLSTYLE_BEGIN
 90
        3
 91
        2
300
_DATA
309
CELLSTYLE_END
  0
XRECORD
  5
1F972
102
{ACAD_REACTORS
330
104
102
}
330
104
100
AcDbXrecord
280
     1
102
ACAD_ROUNDTRIP_PRE2007_TABLESTYLE
 90
      512
 91
        0
  1

 92
      512
 93
        0
  2

 94
      512
 95
        0
  3

  0
XRECORD
  5
1F981
102
{ACAD_REACTORS
330
1F980
102
}
330
1F980
100
AcDbXrecord
280
     1
102
RTVSPost2010Prop28
280
     1
102
RTVSPost2010PropOp28
 70
     1
102
RTVSPost2010Prop29
280
     1
102
RTVSPost2010PropOp29
 70
     1
102
RTVSPost2010Prop30
280
     0
102
RTVSPost2010PropOp30
 70
     1
102
RTVSPost2010Prop31
280
     0
102
RTVSPost2010PropOp31
 70
     1
102
RTVSPost2010Prop32
280
     0
102
RTVSPost2010PropOp32
 70
     1
102
RTVSPost2010Prop33
280
     0
102
RTVSPost2010PropOp33
 70
     1
102
RTVSPost2010Prop34
280
     0
102
RTVSPost2010PropOp34
 70
     1
102
RTVSPost2010Prop35
280
     0
102
RTVSPost2010PropOp35
 70
     1
102
RTVSPost2010Prop36
280
     0
102
RTVSPost2010PropOp36
 70
     1
102
RTVSPost2010Prop37
 90
       50
102
RTVSPost2010PropOp37
 70
     1
102
RTVSPost2010Prop38
140
0.0
102
RTVSPost2010PropOp38
 70
     1
102
RTVSPost2010Prop39
140
1.0
102
RTVSPost2010PropOp39
 70
     1
102
RTVSPost2010Prop40
 90
        0
102
RTVSPost2010PropOp40
 70
     1
102
RTVSPost2010Prop41ColorIndex
 90
       18
102
RTVSPost2010Prop41ColorRGB
 90
        0
102
RTVSPost2010PropOp41
 70
     1
102
RTVSPost2010Prop42
 90
       50
102
RTVSPost2010PropOp42
 70
     1
102
RTVSPost2010Prop43
 90
        3
102
RTVSPost2010PropOp43
 70
     1
102
RTVSPost2010Prop44ColorIndex
 90
        5
102
RTVSPost2010Prop44ColorRGB
 90
      255
102
RTVSPost2010PropOp44
 70
     1
102
RTVSPost2010Prop45
280
     0
102
RTVSPost2010PropOp45
 70
     1
102
RTVSPost2010Prop46
 90
       50
102
RTVSPost2010PropOp46
 70
     1
102
RTVSPost2010Prop47
 90
       50
102
RTVSPost2010PropOp47
 70
     1
102
RTVSPost2010Prop48
 90
       50
102
RTVSPost2010PropOp48
 70
     1
102
RTVSPost2010Prop49
280
     0
102
RTVSPost2010PropOp49
 70
     1
102
RTVSPost2010Prop50
 90
       50
102
RTVSPost2010PropOp50
 70
     1
102
RTVSPost2010Prop51ColorIndex
 90
      256
102
RTVSPost2010Prop51ColorRGB
 90
-16777216
102
RTVSPost2010PropOp51
 70
     0
102
RTVSPost2010Prop52
140
1.0
102
RTVSPost2010PropOp52
 70
     0
102
RTVSPost2010Prop53
 90
        2
102
RTVSPost2010PropOp53
 70
     1
102
RTVSPost2010Prop54
  1
strokes_ogs.tif
102
RTVSPost2010PropOp54
 70
     1
102
RTVSPost2010Prop55
280
     0
102
RTVSPost2010PropOp55
 70
     1
102
RTVSPost2010Prop56
140
1.0
102
RTVSPost2010PropOp56
 70
     1
102
RTVSPost2010Prop57
140
1.0
102
RTVSPost2010PropOp57
 70
     1
102
RTVSPropertyOp0
 70
     1
102
RTVSPropertyOp1
 70
     1
102
RTVSPropertyOp2
 70
     1
102
RTVSPropertyOp3
 70
     1
102
RTVSPropertyOp4
 70
     1
102
RTVSPropertyOp5
 70
     1
102
RTVSPropertyOp6
 70
     1
102
RTVSPropertyOp7
 70
     1
102
RTVSPropertyOp8
 70
     1
102
RTVSPropertyOp9
 70
     1
102
RTVSPropertyOp10
 70
     1
102
RTVSPropertyOp11
 70
     1
102
RTVSPropertyOp12
 70
     1
102
RTVSPropertyOp13
 70
     1
102
RTVSPropertyOp14
 70
     1
102
RTVSPropertyOp15
 70
     1
102
RTVSPropertyOp16
 70
     1
102
RTVSPropertyOp17
 70
     1
102
RTVSPropertyOp18
 70
     1
102
RTVSPropertyOp19
 70
     1
102
RTVSPropertyOp20
 70
     1
102
RTVSPropertyOp21
 70
     1
102
RTVSPropertyOp22
 70
     1
102
RTVSPropertyOp23
 70
     1
102
RTVSPropertyOp24
 70
     1
102
RTVSPropertyOp25
 70
     1
102
RTVSPropertyOp26
 70
     1
102
RTVSPropertyOp27
 70
     1
102
RTVSPropertyOp28
 70
     1
102
RTVSPropertyOp29
 70
     1
102
RTVSPropertyOp30
 70
     1
102
RTVSPropertyOp31
 70
     1
102
RTVSPropertyOp32
 70
     1
102
RTVSPropertyOp33
 70
     1
102
RTVSPropertyOp34
 70
     1
102
RTVSPropertyOp35
 70
     1
102
RTVSPropertyOp36
 70
     1
102
RTVSPropertyOp37
 70
     1
102
RTVSPropertyOp38
 70
     1
102
RTVSPropertyOp39
 70
     1
102
RTVSPropertyOp40
 70
     1
102
RTVSPropertyOp41
 70
     1
102
RTVSPropertyOp42
 70
     1
102
RTVSPropertyOp43
 70
     1
102
RTVSPropertyOp44
 70
     1
102
RTVSPropertyOp45
 70
     1
102
RTVSPropertyOp46
 70
     1
102
RTVSPropertyOp47
 70
     1
102
RTVSPropertyOp48
 70
     1
102
RTVSPropertyOp49
 70
     1
102
RTVSPropertyOp50
 70
     1
102
RTVSPropertyOp51
 70
     0
102
RTVSPropertyOp52
 70
     0
102
RTVSPropertyOp53
 70
     1
102
RTVSPropertyOp54
 70
     1
102
RTVSPropertyOp55
 70
     1
102
RTVSPropertyOp56
 70
     1
102
RTVSPropertyOp57
 70
     1
102
RTVSPropertyOp58
 70
     1
102
RTVSPropertyOp59
 70
     1
102
RTVSPropertyOp60
 70
     1
102
RTVSPropertyOp61
 70
     1
102
RTVSPropertyOp62
 70
     1
  0
XRECORD
  5
1F97F
102
{ACAD_REACTORS
330
1F97E
102
}
330
1F97E
100
AcDbXrecord
280
     1
102
RTVSPost2010Prop28
280
     0
102
RTVSPost2010PropOp28
 70
     1
102
RTVSPost2010Prop29
280
     1
102
RTVSPost2010PropOp29
 70
     1
102
RTVSPost2010Prop30
280
     1
102
RTVSPost2010PropOp30
 70
     1
102
RTVSPost2010Prop31
280
     0
102
RTVSPost2010PropOp31
 70
     1
102
RTVSPost2010Prop32
280
     0
102
RTVSPost2010PropOp32
 70
     1
102
RTVSPost2010Prop33
280
     0
102
RTVSPost2010PropOp33
 70
     1
102
RTVSPost2010Prop34
280
     0
102
RTVSPost2010PropOp34
 70
     1
102
RTVSPost2010Prop35
280
     0
102
RTVSPost2010PropOp35
 70
     1
102
RTVSPost2010Prop36
280
     0
102
RTVSPost2010PropOp36
 70
     1
102
RTVSPost2010Prop37
 90
       50
102
RTVSPost2010PropOp37
 70
     1
102
RTVSPost2010Prop38
140
0.0
102
RTVSPost2010PropOp38
 70
     1
102
RTVSPost2010Prop39
140
1.0
102
RTVSPost2010PropOp39
 70
     1
102
RTVSPost2010Prop40
 90
        0
102
RTVSPost2010PropOp40
 70
     1
102
RTVSPost2010Prop41ColorIndex
 90
       18
102
RTVSPost2010Prop41ColorRGB
 90
        0
102
RTVSPost2010PropOp41
 70
     1
102
RTVSPost2010Prop42
 90
       50
102
RTVSPost2010PropOp42
 70
     1
102
RTVSPost2010Prop43
 90
        3
102
RTVSPost2010PropOp43
 70
     1
102
RTVSPost2010Prop44ColorIndex
 90
        5
102
RTVSPost2010Prop44ColorRGB
 90
      255
102
RTVSPost2010PropOp44
 70
     1
102
RTVSPost2010Prop45
280
     0
102
RTVSPost2010PropOp45
 70
     1
102
RTVSPost2010Prop46
 90
       50
102
RTVSPost2010PropOp46
 70
     1
102
RTVSPost2010Prop47
 90
       50
102
RTVSPost2010PropOp47
 70
     1
102
RTVSPost2010Prop48
 90
       50
102
RTVSPost2010PropOp48
 70
     1
102
RTVSPost2010Prop49
280
     0
102
RTVSPost2010PropOp49
 70
     1
102
RTVSPost2010Prop50
 90
       50
102
RTVSPost2010PropOp50
 70
     1
102
RTVSPost2010Prop51ColorIndex
 90
      256
102
RTVSPost2010Prop51ColorRGB
 90
-16777216
102
RTVSPost2010PropOp51
 70
     0
102
RTVSPost2010Prop52
140
1.0
102
RTVSPost2010PropOp52
 70
     0
102
RTVSPost2010Prop53
 90
        2
102
RTVSPost2010PropOp53
 70
     1
102
RTVSPost2010Prop54
  1
strokes_ogs.tif
102
RTVSPost2010PropOp54
 70
     1
102
RTVSPost2010Prop55
280
     0
102
RTVSPost2010PropOp55
 70
     1
102
RTVSPost2010Prop56
140
1.0
102
RTVSPost2010PropOp56
 70
     1
102
RTVSPost2010Prop57
140
1.0
102
RTVSPost2010PropOp57
 70
     1
102
RTVSPropertyOp0
 70
     1
102
RTVSPropertyOp1
 70
     1
102
RTVSPropertyOp2
 70
     1
102
RTVSPropertyOp3
 70
     1
102
RTVSPropertyOp4
 70
     1
102
RTVSPropertyOp5
 70
     1
102
RTVSPropertyOp6
 70
     1
102
RTVSPropertyOp7
 70
     1
102
RTVSPropertyOp8
 70
     1
102
RTVSPropertyOp9
 70
     1
102
RTVSPropertyOp10
 70
     1
102
RTVSPropertyOp11
 70
     1
102
RTVSPropertyOp12
 70
     1
102
RTVSPropertyOp13
 70
     1
102
RTVSPropertyOp14
 70
     1
102
RTVSPropertyOp15
 70
     1
102
RTVSPropertyOp16
 70
     1
102
RTVSPropertyOp17
 70
     1
102
RTVSPropertyOp18
 70
     1
102
RTVSPropertyOp19
 70
     1
102
RTVSPropertyOp20
 70
     1
102
RTVSPropertyOp21
 70
     1
102
RTVSPropertyOp22
 70
     1
102
RTVSPropertyOp23
 70
     1
102
RTVSPropertyOp24
 70
     1
102
RTVSPropertyOp25
 70
     1
102
RTVSPropertyOp26
 70
     1
102
RTVSPropertyOp27
 70
     1
102
RTVSPropertyOp28
 70
     1
102
RTVSPropertyOp29
 70
     1
102
RTVSPropertyOp30
 70
     1
102
RTVSPropertyOp31
 70
     1
102
RTVSPropertyOp32
 70
     1
102
RTVSPropertyOp33
 70
     1
102
RTVSPropertyOp34
 70
     1
102
RTVSPropertyOp35
 70
     1
102
RTVSPropertyOp36
 70
     1
102
RTVSPropertyOp37
 70
     1
102
RTVSPropertyOp38
 70
     1
102
RTVSPropertyOp39
 70
     1
102
RTVSPropertyOp40
 70
     1
102
RTVSPropertyOp41
 70
     1
102
RTVSPropertyOp42
 70
     1
102
RTVSPropertyOp43
 70
     1
102
RTVSPropertyOp44
 70
     1
102
RTVSPropertyOp45
 70
     1
102
RTVSPropertyOp46
 70
     1
102
RTVSPropertyOp47
 70
     1
102
RTVSPropertyOp48
 70
     1
102
RTVSPropertyOp49
 70
     1
102
RTVSPropertyOp50
 70
     1
102
RTVSPropertyOp51
 70
     0
102
RTVSPropertyOp52
 70
     0
102
RTVSPropertyOp53
 70
     1
102
RTVSPropertyOp54
 70
     1
102
RTVSPropertyOp55
 70
     1
102
RTVSPropertyOp56
 70
     1
102
RTVSPropertyOp57
 70
     1
102
RTVSPropertyOp58
 70
     1
102
RTVSPropertyOp59
 70
     1
102
RTVSPropertyOp60
 70
     1
102
RTVSPropertyOp61
 70
     1
102
RTVSPropertyOp62
 70
     1
  0
XRECORD
  5
1F98D
102
{ACAD_REACTORS
330
1F98C
102
}
330
1F98C
100
AcDbXrecord
280
     1
102
RTVSPost2010Prop28
280
     0
102
RTVSPost2010PropOp28
 70
     1
102
RTVSPost2010Prop29
280
     1
102
RTVSPost2010PropOp29
 70
     1
102
RTVSPost2010Prop30
280
     1
102
RTVSPost2010PropOp30
 70
     1
102
RTVSPost2010Prop31
280
     0
102
RTVSPost2010PropOp31
 70
     1
102
RTVSPost2010Prop32
280
     0
102
RTVSPost2010PropOp32
 70
     1
102
RTVSPost2010Prop33
280
     0
102
RTVSPost2010PropOp33
 70
     1
102
RTVSPost2010Prop34
280
     0
102
RTVSPost2010PropOp34
 70
     1
102
RTVSPost2010Prop35
280
     0
102
RTVSPost2010PropOp35
 70
     1
102
RTVSPost2010Prop36
280
     0
102
RTVSPost2010PropOp36
 70
     1
102
RTVSPost2010Prop37
 90
       50
102
RTVSPost2010PropOp37
 70
     1
102
RTVSPost2010Prop38
140
0.0
102
RTVSPost2010PropOp38
 70
     1
102
RTVSPost2010Prop39
140
1.0
102
RTVSPost2010PropOp39
 70
     1
102
RTVSPost2010Prop40
 90
        0
102
RTVSPost2010PropOp40
 70
     1
102
RTVSPost2010Prop41ColorIndex
 90
       18
102
RTVSPost2010Prop41ColorRGB
 90
        0
102
RTVSPost2010PropOp41
 70
     1
102
RTVSPost2010Prop42
 90
       50
102
RTVSPost2010PropOp42
 70
     1
102
RTVSPost2010Prop43
 90
        3
102
RTVSPost2010PropOp43
 70
     1
102
RTVSPost2010Prop44ColorIndex
 90
        5
102
RTVSPost2010Prop44ColorRGB
 90
      255
102
RTVSPost2010PropOp44
 70
     1
102
RTVSPost2010Prop45
280
     0
102
RTVSPost2010PropOp45
 70
     1
102
RTVSPost2010Prop46
 90
       50
102
RTVSPost2010PropOp46
 70
     1
102
RTVSPost2010Prop47
 90
       50
102
RTVSPost2010PropOp47
 70
     1
102
RTVSPost2010Prop48
 90
       50
102
RTVSPost2010PropOp48
 70
     1
102
RTVSPost2010Prop49
280
     0
102
RTVSPost2010PropOp49
 70
     1
102
RTVSPost2010Prop50
 90
       50
102
RTVSPost2010PropOp50
 70
     1
102
RTVSPost2010Prop51ColorIndex
 90
      256
102
RTVSPost2010Prop51ColorRGB
 90
-16777216
102
RTVSPost2010PropOp51
 70
     0
102
RTVSPost2010Prop52
140
1.0
102
RTVSPost2010PropOp52
 70
     0
102
RTVSPost2010Prop53
 90
        2
102
RTVSPost2010PropOp53
 70
     1
102
RTVSPost2010Prop54
  1
strokes_ogs.tif
102
RTVSPost2010PropOp54
 70
     1
102
RTVSPost2010Prop55
280
     0
102
RTVSPost2010PropOp55
 70
     1
102
RTVSPost2010Prop56
140
1.0
102
RTVSPost2010PropOp56
 70
     1
102
RTVSPost2010Prop57
140
1.0
102
RTVSPost2010PropOp57
 70
     1
102
RTVSPropertyOp0
 70
     1
102
RTVSPropertyOp1
 70
     1
102
RTVSPropertyOp2
 70
     1
102
RTVSPropertyOp3
 70
     1
102
RTVSPropertyOp4
 70
     1
102
RTVSPropertyOp5
 70
     1
102
RTVSPropertyOp6
 70
     1
102
RTVSPropertyOp7
 70
     1
102
RTVSPropertyOp8
 70
     1
102
RTVSPropertyOp9
 70
     1
102
RTVSPropertyOp10
 70
     1
102
RTVSPropertyOp11
 70
     1
102
RTVSPropertyOp12
 70
     1
102
RTVSPropertyOp13
 70
     1
102
RTVSPropertyOp14
 70
     1
102
RTVSPropertyOp15
 70
     1
102
RTVSPropertyOp16
 70
     1
102
RTVSPropertyOp17
 70
     1
102
RTVSPropertyOp18
 70
     1
102
RTVSPropertyOp19
 70
     1
102
RTVSPropertyOp20
 70
     1
102
RTVSPropertyOp21
 70
     1
102
RTVSPropertyOp22
 70
     1
102
RTVSPropertyOp23
 70
     1
102
RTVSPropertyOp24
 70
     1
102
RTVSPropertyOp25
 70
     1
102
RTVSPropertyOp26
 70
     1
102
RTVSPropertyOp27
 70
     1
102
RTVSPropertyOp28
 70
     1
102
RTVSPropertyOp29
 70
     1
102
RTVSPropertyOp30
 70
     1
102
RTVSPropertyOp31
 70
     1
102
RTVSPropertyOp32
 70
     1
102
RTVSPropertyOp33
 70
     1
102
RTVSPropertyOp34
 70
     1
102
RTVSPropertyOp35
 70
     1
102
RTVSPropertyOp36
 70
     1
102
RTVSPropertyOp37
 70
     1
102
RTVSPropertyOp38
 70
     1
102
RTVSPropertyOp39
 70
     1
102
RTVSPropertyOp40
 70
     1
102
RTVSPropertyOp41
 70
     1
102
RTVSPropertyOp42
 70
     1
102
RTVSPropertyOp43
 70
     1
102
RTVSPropertyOp44
 70
     1
102
RTVSPropertyOp45
 70
     1
102
RTVSPropertyOp46
 70
     1
102
RTVSPropertyOp47
 70
     1
102
RTVSPropertyOp48
 70
     1
102
RTVSPropertyOp49
 70
     1
102
RTVSPropertyOp50
 70
     1
102
RTVSPropertyOp51
 70
     0
102
RTVSPropertyOp52
 70
     0
102
RTVSPropertyOp53
 70
     1
102
RTVSPropertyOp54
 70
     1
102
RTVSPropertyOp55
 70
     1
102
RTVSPropertyOp56
 70
     1
102
RTVSPropertyOp57
 70
     1
102
RTVSPropertyOp58
 70
     1
102
RTVSPropertyOp59
 70
     1
102
RTVSPropertyOp60
 70
     1
102
RTVSPropertyOp61
 70
     1
102
RTVSPropertyOp62
 70
     1
  0
XRECORD
  5
1F995
102
{ACAD_REACTORS
330
1F994
102
}
330
1F994
100
AcDbXrecord
280
     1
102
RTVSPost2010Prop28
280
     0
102
RTVSPost2010PropOp28
 70
     1
102
RTVSPost2010Prop29
280
     1
102
RTVSPost2010PropOp29
 70
     1
102
RTVSPost2010Prop30
280
     1
102
RTVSPost2010PropOp30
 70
     1
102
RTVSPost2010Prop31
280
     0
102
RTVSPost2010PropOp31
 70
     1
102
RTVSPost2010Prop32
280
     0
102
RTVSPost2010PropOp32
 70
     1
102
RTVSPost2010Prop33
280
     0
102
RTVSPost2010PropOp33
 70
     1
102
RTVSPost2010Prop34
280
     0
102
RTVSPost2010PropOp34
 70
     1
102
RTVSPost2010Prop35
280
     0
102
RTVSPost2010PropOp35
 70
     1
102
RTVSPost2010Prop36
280
     0
102
RTVSPost2010PropOp36
 70
     1
102
RTVSPost2010Prop37
 90
       50
102
RTVSPost2010PropOp37
 70
     1
102
RTVSPost2010Prop38
140
0.0
102
RTVSPost2010PropOp38
 70
     1
102
RTVSPost2010Prop39
140
1.0
102
RTVSPost2010PropOp39
 70
     1
102
RTVSPost2010Prop40
 90
        0
102
RTVSPost2010PropOp40
 70
     1
102
RTVSPost2010Prop41ColorIndex
 90
       18
102
RTVSPost2010Prop41ColorRGB
 90
        0
102
RTVSPost2010PropOp41
 70
     1
102
RTVSPost2010Prop42
 90
       50
102
RTVSPost2010PropOp42
 70
     1
102
RTVSPost2010Prop43
 90
        3
102
RTVSPost2010PropOp43
 70
     1
102
RTVSPost2010Prop44ColorIndex
 90
        5
102
RTVSPost2010Prop44ColorRGB
 90
      255
102
RTVSPost2010PropOp44
 70
     1
102
RTVSPost2010Prop45
280
     0
102
RTVSPost2010PropOp45
 70
     1
102
RTVSPost2010Prop46
 90
       50
102
RTVSPost2010PropOp46
 70
     1
102
RTVSPost2010Prop47
 90
       50
102
RTVSPost2010PropOp47
 70
     1
102
RTVSPost2010Prop48
 90
       50
102
RTVSPost2010PropOp48
 70
     1
102
RTVSPost2010Prop49
280
     0
102
RTVSPost2010PropOp49
 70
     1
102
RTVSPost2010Prop50
 90
       50
102
RTVSPost2010PropOp50
 70
     1
102
RTVSPost2010Prop51ColorIndex
 90
      256
102
RTVSPost2010Prop51ColorRGB
 90
-16777216
102
RTVSPost2010PropOp51
 70
     0
102
RTVSPost2010Prop52
140
1.0
102
RTVSPost2010PropOp52
 70
     0
102
RTVSPost2010Prop53
 90
        2
102
RTVSPost2010PropOp53
 70
     1
102
RTVSPost2010Prop54
  1
strokes_ogs.tif
102
RTVSPost2010PropOp54
 70
     1
102
RTVSPost2010Prop55
280
     0
102
RTVSPost2010PropOp55
 70
     1
102
RTVSPost2010Prop56
140
1.0
102
RTVSPost2010PropOp56
 70
     1
102
RTVSPost2010Prop57
140
1.0
102
RTVSPost2010PropOp57
 70
     1
102
RTVSPropertyOp0
 70
     1
102
RTVSPropertyOp1
 70
     1
102
RTVSPropertyOp2
 70
     1
102
RTVSPropertyOp3
 70
     1
102
RTVSPropertyOp4
 70
     1
102
RTVSPropertyOp5
 70
     1
102
RTVSPropertyOp6
 70
     1
102
RTVSPropertyOp7
 70
     1
102
RTVSPropertyOp8
 70
     1
102
RTVSPropertyOp9
 70
     1
102
RTVSPropertyOp10
 70
     1
102
RTVSPropertyOp11
 70
     1
102
RTVSPropertyOp12
 70
     1
102
RTVSPropertyOp13
 70
     1
102
RTVSPropertyOp14
 70
     1
102
RTVSPropertyOp15
 70
     1
102
RTVSPropertyOp16
 70
     1
102
RTVSPropertyOp17
 70
     1
102
RTVSPropertyOp18
 70
     1
102
RTVSPropertyOp19
 70
     1
102
RTVSPropertyOp20
 70
     1
102
RTVSPropertyOp21
 70
     1
102
RTVSPropertyOp22
 70
     1
102
RTVSPropertyOp23
 70
     1
102
RTVSPropertyOp24
 70
     1
102
RTVSPropertyOp25
 70
     1
102
RTVSPropertyOp26
 70
     1
102
RTVSPropertyOp27
 70
     1
102
RTVSPropertyOp28
 70
     1
102
RTVSPropertyOp29
 70
     1
102
RTVSPropertyOp30
 70
     1
102
RTVSPropertyOp31
 70
     1
102
RTVSPropertyOp32
 70
     1
102
RTVSPropertyOp33
 70
     1
102
RTVSPropertyOp34
 70
     1
102
RTVSPropertyOp35
 70
     1
102
RTVSPropertyOp36
 70
     1
102
RTVSPropertyOp37
 70
     1
102
RTVSPropertyOp38
 70
     1
102
RTVSPropertyOp39
 70
     1
102
RTVSPropertyOp40
 70
     1
102
RTVSPropertyOp41
 70
     1
102
RTVSPropertyOp42
 70
     1
102
RTVSPropertyOp43
 70
     1
102
RTVSPropertyOp44
 70
     1
102
RTVSPropertyOp45
 70
     1
102
RTVSPropertyOp46
 70
     1
102
RTVSPropertyOp47
 70
     1
102
RTVSPropertyOp48
 70
     1
102
RTVSPropertyOp49
 70
     1
102
RTVSPropertyOp50
 70
     1
102
RTVSPropertyOp51
 70
     0
102
RTVSPropertyOp52
 70
     0
102
RTVSPropertyOp53
 70
     1
102
RTVSPropertyOp54
 70
     1
102
RTVSPropertyOp55
 70
     1
102
RTVSPropertyOp56
 70
     1
102
RTVSPropertyOp57
 70
     1
102
RTVSPropertyOp58
 70
     1
102
RTVSPropertyOp59
 70
     1
102
RTVSPropertyOp60
 70
     1
102
RTVSPropertyOp61
 70
     1
102
RTVSPropertyOp62
 70
     1
  0
XRECORD
  5
1F987
102
{ACAD_REACTORS
330
1F986
102
}
330
1F986
100
AcDbXrecord
280
     1
102
RTVSPost2010Prop28
280
     0
102
RTVSPost2010PropOp28
 70
     1
102
RTVSPost2010Prop29
280
     1
102
RTVSPost2010PropOp29
 70
     1
102
RTVSPost2010Prop30
280
     1
102
RTVSPost2010PropOp30
 70
     1
102
RTVSPost2010Prop31
280
     0
102
RTVSPost2010PropOp31
 70
     1
102
RTVSPost2010Prop32
280
     0
102
RTVSPost2010PropOp32
 70
     1
102
RTVSPost2010Prop33
280
     0
102
RTVSPost2010PropOp33
 70
     1
102
RTVSPost2010Prop34
280
     0
102
RTVSPost2010PropOp34
 70
     1
102
RTVSPost2010Prop35
280
     0
102
RTVSPost2010PropOp35
 70
     1
102
RTVSPost2010Prop36
280
     0
102
RTVSPost2010PropOp36
 70
     1
102
RTVSPost2010Prop37
 90
       50
102
RTVSPost2010PropOp37
 70
     1
102
RTVSPost2010Prop38
140
0.0
102
RTVSPost2010PropOp38
 70
     1
102
RTVSPost2010Prop39
140
1.0
102
RTVSPost2010PropOp39
 70
     1
102
RTVSPost2010Prop40
 90
        0
102
RTVSPost2010PropOp40
 70
     1
102
RTVSPost2010Prop41ColorIndex
 90
       18
102
RTVSPost2010Prop41ColorRGB
 90
        0
102
RTVSPost2010PropOp41
 70
     1
102
RTVSPost2010Prop42
 90
       50
102
RTVSPost2010PropOp42
 70
     1
102
RTVSPost2010Prop43
 90
        3
102
RTVSPost2010PropOp43
 70
     1
102
RTVSPost2010Prop44ColorIndex
 90
        5
102
RTVSPost2010Prop44ColorRGB
 90
      255
102
RTVSPost2010PropOp44
 70
     1
102
RTVSPost2010Prop45
280
     0
102
RTVSPost2010PropOp45
 70
     1
102
RTVSPost2010Prop46
 90
       50
102
RTVSPost2010PropOp46
 70
     1
102
RTVSPost2010Prop47
 90
       50
102
RTVSPost2010PropOp47
 70
     1
102
RTVSPost2010Prop48
 90
       50
102
RTVSPost2010PropOp48
 70
     1
102
RTVSPost2010Prop49
280
     0
102
RTVSPost2010PropOp49
 70
     1
102
RTVSPost2010Prop50
 90
       50
102
RTVSPost2010PropOp50
 70
     1
102
RTVSPost2010Prop51ColorIndex
 90
      256
102
RTVSPost2010Prop51ColorRGB
 90
-16777216
102
RTVSPost2010PropOp51
 70
     0
102
RTVSPost2010Prop52
140
1.0
102
RTVSPost2010PropOp52
 70
     0
102
RTVSPost2010Prop53
 90
        2
102
RTVSPost2010PropOp53
 70
     1
102
RTVSPost2010Prop54
  1
strokes_ogs.tif
102
RTVSPost2010PropOp54
 70
     1
102
RTVSPost2010Prop55
280
     0
102
RTVSPost2010PropOp55
 70
     1
102
RTVSPost2010Prop56
140
1.0
102
RTVSPost2010PropOp56
 70
     1
102
RTVSPost2010Prop57
140
1.0
102
RTVSPost2010PropOp57
 70
     1
102
RTVSPropertyOp0
 70
     1
102
RTVSPropertyOp1
 70
     1
102
RTVSPropertyOp2
 70
     1
102
RTVSPropertyOp3
 70
     1
102
RTVSPropertyOp4
 70
     1
102
RTVSPropertyOp5
 70
     1
102
RTVSPropertyOp6
 70
     1
102
RTVSPropertyOp7
 70
     1
102
RTVSPropertyOp8
 70
     1
102
RTVSPropertyOp9
 70
     1
102
RTVSPropertyOp10
 70
     1
102
RTVSPropertyOp11
 70
     1
102
RTVSPropertyOp12
 70
     1
102
RTVSPropertyOp13
 70
     1
102
RTVSPropertyOp14
 70
     1
102
RTVSPropertyOp15
 70
     1
102
RTVSPropertyOp16
 70
     1
102
RTVSPropertyOp17
 70
     1
102
RTVSPropertyOp18
 70
     1
102
RTVSPropertyOp19
 70
     1
102
RTVSPropertyOp20
 70
     1
102
RTVSPropertyOp21
 70
     1
102
RTVSPropertyOp22
 70
     1
102
RTVSPropertyOp23
 70
     1
102
RTVSPropertyOp24
 70
     1
102
RTVSPropertyOp25
 70
     1
102
RTVSPropertyOp26
 70
     1
102
RTVSPropertyOp27
 70
     1
102
RTVSPropertyOp28
 70
     1
102
RTVSPropertyOp29
 70
     1
102
RTVSPropertyOp30
 70
     1
102
RTVSPropertyOp31
 70
     1
102
RTVSPropertyOp32
 70
     1
102
RTVSPropertyOp33
 70
     1
102
RTVSPropertyOp34
 70
     1
102
RTVSPropertyOp35
 70
     1
102
RTVSPropertyOp36
 70
     1
102
RTVSPropertyOp37
 70
     1
102
RTVSPropertyOp38
 70
     1
102
RTVSPropertyOp39
 70
     1
102
RTVSPropertyOp40
 70
     1
102
RTVSPropertyOp41
 70
     1
102
RTVSPropertyOp42
 70
     1
102
RTVSPropertyOp43
 70
     1
102
RTVSPropertyOp44
 70
     1
102
RTVSPropertyOp45
 70
     1
102
RTVSPropertyOp46
 70
     1
102
RTVSPropertyOp47
 70
     1
102
RTVSPropertyOp48
 70
     1
102
RTVSPropertyOp49
 70
     1
102
RTVSPropertyOp50
 70
     1
102
RTVSPropertyOp51
 70
     0
102
RTVSPropertyOp52
 70
     0
102
RTVSPropertyOp53
 70
     1
102
RTVSPropertyOp54
 70
     1
102
RTVSPropertyOp55
 70
     1
102
RTVSPropertyOp56
 70
     1
102
RTVSPropertyOp57
 70
     1
102
RTVSPropertyOp58
 70
     1
102
RTVSPropertyOp59
 70
     1
102
RTVSPropertyOp60
 70
     1
102
RTVSPropertyOp61
 70
     1
102
RTVSPropertyOp62
 70
     1
  0
XRECORD
  5
1F98B
102
{ACAD_REACTORS
330
1F98A
102
}
330
1F98A
100
AcDbXrecord
280
     1
102
RTVSPost2010Prop28
280
     0
102
RTVSPost2010PropOp28
 70
     1
102
RTVSPost2010Prop29
280
     1
102
RTVSPost2010PropOp29
 70
     1
102
RTVSPost2010Prop30
280
     1
102
RTVSPost2010PropOp30
 70
     1
102
RTVSPost2010Prop31
280
     0
102
RTVSPost2010PropOp31
 70
     1
102
RTVSPost2010Prop32
280
     0
102
RTVSPost2010PropOp32
 70
     1
102
RTVSPost2010Prop33
280
     0
102
RTVSPost2010PropOp33
 70
     1
102
RTVSPost2010Prop34
280
     0
102
RTVSPost2010PropOp34
 70
     1
102
RTVSPost2010Prop35
280
     0
102
RTVSPost2010PropOp35
 70
     1
102
RTVSPost2010Prop36
280
     0
102
RTVSPost2010PropOp36
 70
     1
102
RTVSPost2010Prop37
 90
       50
102
RTVSPost2010PropOp37
 70
     1
102
RTVSPost2010Prop38
140
0.0
102
RTVSPost2010PropOp38
 70
     1
102
RTVSPost2010Prop39
140
1.0
102
RTVSPost2010PropOp39
 70
     1
102
RTVSPost2010Prop40
 90
        0
102
RTVSPost2010PropOp40
 70
     1
102
RTVSPost2010Prop41ColorIndex
 90
       18
102
RTVSPost2010Prop41ColorRGB
 90
        0
102
RTVSPost2010PropOp41
 70
     1
102
RTVSPost2010Prop42
 90
       50
102
RTVSPost2010PropOp42
 70
     1
102
RTVSPost2010Prop43
 90
        3
102
RTVSPost2010PropOp43
 70
     1
102
RTVSPost2010Prop44ColorIndex
 90
        5
102
RTVSPost2010Prop44ColorRGB
 90
      255
102
RTVSPost2010PropOp44
 70
     1
102
RTVSPost2010Prop45
280
     0
102
RTVSPost2010PropOp45
 70
     1
102
RTVSPost2010Prop46
 90
       50
102
RTVSPost2010PropOp46
 70
     1
102
RTVSPost2010Prop47
 90
       50
102
RTVSPost2010PropOp47
 70
     1
102
RTVSPost2010Prop48
 90
       50
102
RTVSPost2010PropOp48
 70
     1
102
RTVSPost2010Prop49
280
     0
102
RTVSPost2010PropOp49
 70
     1
102
RTVSPost2010Prop50
 90
       50
102
RTVSPost2010PropOp50
 70
     1
102
RTVSPost2010Prop51ColorIndex
 90
      256
102
RTVSPost2010Prop51ColorRGB
 90
-16777216
102
RTVSPost2010PropOp51
 70
     0
102
RTVSPost2010Prop52
140
1.0
102
RTVSPost2010PropOp52
 70
     0
102
RTVSPost2010Prop53
 90
        2
102
RTVSPost2010PropOp53
 70
     1
102
RTVSPost2010Prop54
  1
strokes_ogs.tif
102
RTVSPost2010PropOp54
 70
     1
102
RTVSPost2010Prop55
280
     0
102
RTVSPost2010PropOp55
 70
     1
102
RTVSPost2010Prop56
140
1.0
102
RTVSPost2010PropOp56
 70
     1
102
RTVSPost2010Prop57
140
1.0
102
RTVSPost2010PropOp57
 70
     1
102
RTVSPropertyOp0
 70
     1
102
RTVSPropertyOp1
 70
     1
102
RTVSPropertyOp2
 70
     1
102
RTVSPropertyOp3
 70
     1
102
RTVSPropertyOp4
 70
     1
102
RTVSPropertyOp5
 70
     1
102
RTVSPropertyOp6
 70
     1
102
RTVSPropertyOp7
 70
     1
102
RTVSPropertyOp8
 70
     1
102
RTVSPropertyOp9
 70
     1
102
RTVSPropertyOp10
 70
     1
102
RTVSPropertyOp11
 70
     1
102
RTVSPropertyOp12
 70
     1
102
RTVSPropertyOp13
 70
     1
102
RTVSPropertyOp14
 70
     1
102
RTVSPropertyOp15
 70
     1
102
RTVSPropertyOp16
 70
     1
102
RTVSPropertyOp17
 70
     1
102
RTVSPropertyOp18
 70
     1
102
RTVSPropertyOp19
 70
     1
102
RTVSPropertyOp20
 70
     1
102
RTVSPropertyOp21
 70
     1
102
RTVSPropertyOp22
 70
     1
102
RTVSPropertyOp23
 70
     1
102
RTVSPropertyOp24
 70
     1
102
RTVSPropertyOp25
 70
     1
102
RTVSPropertyOp26
 70
     1
102
RTVSPropertyOp27
 70
     1
102
RTVSPropertyOp28
 70
     1
102
RTVSPropertyOp29
 70
     1
102
RTVSPropertyOp30
 70
     1
102
RTVSPropertyOp31
 70
     1
102
RTVSPropertyOp32
 70
     1
102
RTVSPropertyOp33
 70
     1
102
RTVSPropertyOp34
 70
     1
102
RTVSPropertyOp35
 70
     1
102
RTVSPropertyOp36
 70
     1
102
RTVSPropertyOp37
 70
     1
102
RTVSPropertyOp38
 70
     1
102
RTVSPropertyOp39
 70
     1
102
RTVSPropertyOp40
 70
     1
102
RTVSPropertyOp41
 70
     1
102
RTVSPropertyOp42
 70
     1
102
RTVSPropertyOp43
 70
     1
102
RTVSPropertyOp44
 70
     1
102
RTVSPropertyOp45
 70
     1
102
RTVSPropertyOp46
 70
     1
102
RTVSPropertyOp47
 70
     1
102
RTVSPropertyOp48
 70
     1
102
RTVSPropertyOp49
 70
     1
102
RTVSPropertyOp50
 70
     1
102
RTVSPropertyOp51
 70
     0
102
RTVSPropertyOp52
 70
     0
102
RTVSPropertyOp53
 70
     1
102
RTVSPropertyOp54
 70
     1
102
RTVSPropertyOp55
 70
     1
102
RTVSPropertyOp56
 70
     1
102
RTVSPropertyOp57
 70
     1
102
RTVSPropertyOp58
 70
     1
102
RTVSPropertyOp59
 70
     1
102
RTVSPropertyOp60
 70
     1
102
RTVSPropertyOp61
 70
     1
102
RTVSPropertyOp62
 70
     1
  0
XRECORD
  5
1F99D
102
{ACAD_REACTORS
330
1F99C
102
}
330
1F99C
100
AcDbXrecord
280
     1
102
RTVSPost2010Prop28
280
     0
102
RTVSPost2010PropOp28
 70
     1
102
RTVSPost2010Prop29
280
     1
102
RTVSPost2010PropOp29
 70
     1
102
RTVSPost2010Prop30
280
     1
102
RTVSPost2010PropOp30
 70
     1
102
RTVSPost2010Prop31
280
     0
102
RTVSPost2010PropOp31
 70
     1
102
RTVSPost2010Prop32
280
     0
102
RTVSPost2010PropOp32
 70
     1
102
RTVSPost2010Prop33
280
     0
102
RTVSPost2010PropOp33
 70
     1
102
RTVSPost2010Prop34
280
     0
102
RTVSPost2010PropOp34
 70
     1
102
RTVSPost2010Prop35
280
     0
102
RTVSPost2010PropOp35
 70
     1
102
RTVSPost2010Prop36
280
     0
102
RTVSPost2010PropOp36
 70
     1
102
RTVSPost2010Prop37
 90
       50
102
RTVSPost2010PropOp37
 70
     1
102
RTVSPost2010Prop38
140
0.0
102
RTVSPost2010PropOp38
 70
     1
102
RTVSPost2010Prop39
140
1.0
102
RTVSPost2010PropOp39
 70
     1
102
RTVSPost2010Prop40
 90
        0
102
RTVSPost2010PropOp40
 70
     1
102
RTVSPost2010Prop41ColorIndex
 90
       18
102
RTVSPost2010Prop41ColorRGB
 90
        0
102
RTVSPost2010PropOp41
 70
     1
102
RTVSPost2010Prop42
 90
       50
102
RTVSPost2010PropOp42
 70
     1
102
RTVSPost2010Prop43
 90
        3
102
RTVSPost2010PropOp43
 70
     1
102
RTVSPost2010Prop44ColorIndex
 90
        5
102
RTVSPost2010Prop44ColorRGB
 90
      255
102
RTVSPost2010PropOp44
 70
     1
102
RTVSPost2010Prop45
280
     0
102
RTVSPost2010PropOp45
 70
     1
102
RTVSPost2010Prop46
 90
       50
102
RTVSPost2010PropOp46
 70
     1
102
RTVSPost2010Prop47
 90
       50
102
RTVSPost2010PropOp47
 70
     1
102
RTVSPost2010Prop48
 90
       50
102
RTVSPost2010PropOp48
 70
     1
102
RTVSPost2010Prop49
280
     0
102
RTVSPost2010PropOp49
 70
     1
102
RTVSPost2010Prop50
 90
       50
102
RTVSPost2010PropOp50
 70
     1
102
RTVSPost2010Prop51ColorIndex
 90
      256
102
RTVSPost2010Prop51ColorRGB
 90
-16777216
102
RTVSPost2010PropOp51
 70
     0
102
RTVSPost2010Prop52
140
1.0
102
RTVSPost2010PropOp52
 70
     0
102
RTVSPost2010Prop53
 90
        2
102
RTVSPost2010PropOp53
 70
     1
102
RTVSPost2010Prop54
  1
strokes_ogs.tif
102
RTVSPost2010PropOp54
 70
     1
102
RTVSPost2010Prop55
280
     0
102
RTVSPost2010PropOp55
 70
     1
102
RTVSPost2010Prop56
140
1.0
102
RTVSPost2010PropOp56
 70
     1
102
RTVSPost2010Prop57
140
1.0
102
RTVSPost2010PropOp57
 70
     1
102
RTVSPropertyOp0
 70
     0
102
RTVSPropertyOp1
 70
     0
102
RTVSPropertyOp2
 70
     0
102
RTVSPropertyOp3
 70
     0
102
RTVSPropertyOp4
 70
     0
102
RTVSPropertyOp5
 70
     0
102
RTVSPropertyOp6
 70
     0
102
RTVSPropertyOp7
 70
     0
102
RTVSPropertyOp8
 70
     0
102
RTVSPropertyOp9
 70
     0
102
RTVSPropertyOp10
 70
     0
102
RTVSPropertyOp11
 70
     0
102
RTVSPropertyOp12
 70
     0
102
RTVSPropertyOp13
 70
     0
102
RTVSPropertyOp14
 70
     2
102
RTVSPropertyOp15
 70
     0
102
RTVSPropertyOp16
 70
     0
102
RTVSPropertyOp17
 70
     0
102
RTVSPropertyOp18
 70
     0
102
RTVSPropertyOp19
 70
     0
102
RTVSPropertyOp20
 70
     0
102
RTVSPropertyOp21
 70
     0
102
RTVSPropertyOp22
 70
     0
102
RTVSPropertyOp23
 70
     0
102
RTVSPropertyOp24
 70
     0
102
RTVSPropertyOp25
 70
     0
102
RTVSPropertyOp26
 70
     0
102
RTVSPropertyOp27
 70
     0
102
RTVSPropertyOp28
 70
     1
102
RTVSPropertyOp29
 70
     1
102
RTVSPropertyOp30
 70
     1
102
RTVSPropertyOp31
 70
     1
102
RTVSPropertyOp32
 70
     1
102
RTVSPropertyOp33
 70
     1
102
RTVSPropertyOp34
 70
     1
102
RTVSPropertyOp35
 70
     1
102
RTVSPropertyOp36
 70
     1
102
RTVSPropertyOp37
 70
     1
102
RTVSPropertyOp38
 70
     1
102
RTVSPropertyOp39
 70
     1
102
RTVSPropertyOp40
 70
     1
102
RTVSPropertyOp41
 70
     1
102
RTVSPropertyOp42
 70
     1
102
RTVSPropertyOp43
 70
     1
102
RTVSPropertyOp44
 70
     1
102
RTVSPropertyOp45
 70
     1
102
RTVSPropertyOp46
 70
     1
102
RTVSPropertyOp47
 70
     1
102
RTVSPropertyOp48
 70
     1
102
RTVSPropertyOp49
 70
     1
102
RTVSPropertyOp50
 70
     1
102
RTVSPropertyOp51
 70
     0
102
RTVSPropertyOp52
 70
     0
102
RTVSPropertyOp53
 70
     1
102
RTVSPropertyOp54
 70
     1
102
RTVSPropertyOp55
 70
     1
102
RTVSPropertyOp56
 70
     1
102
RTVSPropertyOp57
 70
     1
102
RTVSPropertyOp58
 70
     1
102
RTVSPropertyOp59
 70
     1
102
RTVSPropertyOp60
 70
     1
102
RTVSPropertyOp61
 70
     1
102
RTVSPropertyOp62
 70
     1
  0
XRECORD
  5
1F993
102
{ACAD_REACTORS
330
1F992
102
}
330
1F992
100
AcDbXrecord
280
     1
102
RTVSPost2010Prop28
280
     0
102
RTVSPost2010PropOp28
 70
     1
102
RTVSPost2010Prop29
280
     1
102
RTVSPost2010PropOp29
 70
     1
102
RTVSPost2010Prop30
280
     1
102
RTVSPost2010PropOp30
 70
     1
102
RTVSPost2010Prop31
280
     0
102
RTVSPost2010PropOp31
 70
     1
102
RTVSPost2010Prop32
280
     0
102
RTVSPost2010PropOp32
 70
     1
102
RTVSPost2010Prop33
280
     0
102
RTVSPost2010PropOp33
 70
     1
102
RTVSPost2010Prop34
280
     0
102
RTVSPost2010PropOp34
 70
     1
102
RTVSPost2010Prop35
280
     0
102
RTVSPost2010PropOp35
 70
     1
102
RTVSPost2010Prop36
280
     0
102
RTVSPost2010PropOp36
 70
     1
102
RTVSPost2010Prop37
 90
       50
102
RTVSPost2010PropOp37
 70
     1
102
RTVSPost2010Prop38
140
0.0
102
RTVSPost2010PropOp38
 70
     1
102
RTVSPost2010Prop39
140
1.0
102
RTVSPost2010PropOp39
 70
     1
102
RTVSPost2010Prop40
 90
        0
102
RTVSPost2010PropOp40
 70
     1
102
RTVSPost2010Prop41ColorIndex
 90
       18
102
RTVSPost2010Prop41ColorRGB
 90
        0
102
RTVSPost2010PropOp41
 70
     1
102
RTVSPost2010Prop42
 90
       50
102
RTVSPost2010PropOp42
 70
     1
102
RTVSPost2010Prop43
 90
        3
102
RTVSPost2010PropOp43
 70
     1
102
RTVSPost2010Prop44ColorIndex
 90
        5
102
RTVSPost2010Prop44ColorRGB
 90
      255
102
RTVSPost2010PropOp44
 70
     1
102
RTVSPost2010Prop45
280
     0
102
RTVSPost2010PropOp45
 70
     1
102
RTVSPost2010Prop46
 90
       50
102
RTVSPost2010PropOp46
 70
     1
102
RTVSPost2010Prop47
 90
       50
102
RTVSPost2010PropOp47
 70
     1
102
RTVSPost2010Prop48
 90
       50
102
RTVSPost2010PropOp48
 70
     1
102
RTVSPost2010Prop49
280
     0
102
RTVSPost2010PropOp49
 70
     1
102
RTVSPost2010Prop50
 90
       50
102
RTVSPost2010PropOp50
 70
     1
102
RTVSPost2010Prop51ColorIndex
 90
      256
102
RTVSPost2010Prop51ColorRGB
 90
-16777216
102
RTVSPost2010PropOp51
 70
     0
102
RTVSPost2010Prop52
140
1.0
102
RTVSPost2010PropOp52
 70
     0
102
RTVSPost2010Prop53
 90
        2
102
RTVSPost2010PropOp53
 70
     1
102
RTVSPost2010Prop54
  1
strokes_ogs.tif
102
RTVSPost2010PropOp54
 70
     1
102
RTVSPost2010Prop55
280
     0
102
RTVSPost2010PropOp55
 70
     1
102
RTVSPost2010Prop56
140
1.0
102
RTVSPost2010PropOp56
 70
     1
102
RTVSPost2010Prop57
140
1.0
102
RTVSPost2010PropOp57
 70
     1
102
RTVSPropertyOp0
 70
     1
102
RTVSPropertyOp1
 70
     1
102
RTVSPropertyOp2
 70
     1
102
RTVSPropertyOp3
 70
     1
102
RTVSPropertyOp4
 70
     1
102
RTVSPropertyOp5
 70
     1
102
RTVSPropertyOp6
 70
     1
102
RTVSPropertyOp7
 70
     1
102
RTVSPropertyOp8
 70
     1
102
RTVSPropertyOp9
 70
     1
102
RTVSPropertyOp10
 70
     1
102
RTVSPropertyOp11
 70
     1
102
RTVSPropertyOp12
 70
     1
102
RTVSPropertyOp13
 70
     1
102
RTVSPropertyOp14
 70
     1
102
RTVSPropertyOp15
 70
     1
102
RTVSPropertyOp16
 70
     1
102
RTVSPropertyOp17
 70
     1
102
RTVSPropertyOp18
 70
     1
102
RTVSPropertyOp19
 70
     1
102
RTVSPropertyOp20
 70
     1
102
RTVSPropertyOp21
 70
     1
102
RTVSPropertyOp22
 70
     1
102
RTVSPropertyOp23
 70
     1
102
RTVSPropertyOp24
 70
     1
102
RTVSPropertyOp25
 70
     1
102
RTVSPropertyOp26
 70
     1
102
RTVSPropertyOp27
 70
     1
102
RTVSPropertyOp28
 70
     1
102
RTVSPropertyOp29
 70
     1
102
RTVSPropertyOp30
 70
     1
102
RTVSPropertyOp31
 70
     1
102
RTVSPropertyOp32
 70
     1
102
RTVSPropertyOp33
 70
     1
102
RTVSPropertyOp34
 70
     1
102
RTVSPropertyOp35
 70
     1
102
RTVSPropertyOp36
 70
     1
102
RTVSPropertyOp37
 70
     1
102
RTVSPropertyOp38
 70
     1
102
RTVSPropertyOp39
 70
     1
102
RTVSPropertyOp40
 70
     1
102
RTVSPropertyOp41
 70
     1
102
RTVSPropertyOp42
 70
     1
102
RTVSPropertyOp43
 70
     1
102
RTVSPropertyOp44
 70
     1
102
RTVSPropertyOp45
 70
     1
102
RTVSPropertyOp46
 70
     1
102
RTVSPropertyOp47
 70
     1
102
RTVSPropertyOp48
 70
     1
102
RTVSPropertyOp49
 70
     1
102
RTVSPropertyOp50
 70
     1
102
RTVSPropertyOp51
 70
     0
102
RTVSPropertyOp52
 70
     0
102
RTVSPropertyOp53
 70
     1
102
RTVSPropertyOp54
 70
     1
102
RTVSPropertyOp55
 70
     1
102
RTVSPropertyOp56
 70
     1
102
RTVSPropertyOp57
 70
     1
102
RTVSPropertyOp58
 70
     1
102
RTVSPropertyOp59
 70
     1
102
RTVSPropertyOp60
 70
     1
102
RTVSPropertyOp61
 70
     1
102
RTVSPropertyOp62
 70
     1
  0
XRECORD
  5
1F977
102
{ACAD_REACTORS
330
1F976
102
}
330
1F976
100
AcDbXrecord
280
     1
102
RTVSPost2010Prop28
280
     0
102
RTVSPost2010PropOp28
 70
     1
102
RTVSPost2010Prop29
280
     1
102
RTVSPost2010PropOp29
 70
     1
102
RTVSPost2010Prop30
280
     1
102
RTVSPost2010PropOp30
 70
     1
102
RTVSPost2010Prop31
280
     0
102
RTVSPost2010PropOp31
 70
     1
102
RTVSPost2010Prop32
280
     0
102
RTVSPost2010PropOp32
 70
     1
102
RTVSPost2010Prop33
280
     0
102
RTVSPost2010PropOp33
 70
     1
102
RTVSPost2010Prop34
280
     0
102
RTVSPost2010PropOp34
 70
     1
102
RTVSPost2010Prop35
280
     0
102
RTVSPost2010PropOp35
 70
     1
102
RTVSPost2010Prop36
280
     0
102
RTVSPost2010PropOp36
 70
     1
102
RTVSPost2010Prop37
 90
       50
102
RTVSPost2010PropOp37
 70
     1
102
RTVSPost2010Prop38
140
0.0
102
RTVSPost2010PropOp38
 70
     1
102
RTVSPost2010Prop39
140
1.0
102
RTVSPost2010PropOp39
 70
     1
102
RTVSPost2010Prop40
 90
        0
102
RTVSPost2010PropOp40
 70
     1
102
RTVSPost2010Prop41ColorIndex
 90
       18
102
RTVSPost2010Prop41ColorRGB
 90
        0
102
RTVSPost2010PropOp41
 70
     1
102
RTVSPost2010Prop42
 90
       50
102
RTVSPost2010PropOp42
 70
     1
102
RTVSPost2010Prop43
 90
        3
102
RTVSPost2010PropOp43
 70
     1
102
RTVSPost2010Prop44ColorIndex
 90
        5
102
RTVSPost2010Prop44ColorRGB
 90
      255
102
RTVSPost2010PropOp44
 70
     1
102
RTVSPost2010Prop45
280
     0
102
RTVSPost2010PropOp45
 70
     1
102
RTVSPost2010Prop46
 90
       50
102
RTVSPost2010PropOp46
 70
     1
102
RTVSPost2010Prop47
 90
       50
102
RTVSPost2010PropOp47
 70
     1
102
RTVSPost2010Prop48
 90
       50
102
RTVSPost2010PropOp48
 70
     1
102
RTVSPost2010Prop49
280
     0
102
RTVSPost2010PropOp49
 70
     1
102
RTVSPost2010Prop50
 90
       50
102
RTVSPost2010PropOp50
 70
     1
102
RTVSPost2010Prop51ColorIndex
 90
      256
102
RTVSPost2010Prop51ColorRGB
 90
-16777216
102
RTVSPost2010PropOp51
 70
     0
102
RTVSPost2010Prop52
140
1.0
102
RTVSPost2010PropOp52
 70
     0
102
RTVSPost2010Prop53
 90
        2
102
RTVSPost2010PropOp53
 70
     1
102
RTVSPost2010Prop54
  1
strokes_ogs.tif
102
RTVSPost2010PropOp54
 70
     1
102
RTVSPost2010Prop55
280
     0
102
RTVSPost2010PropOp55
 70
     1
102
RTVSPost2010Prop56
140
1.0
102
RTVSPost2010PropOp56
 70
     1
102
RTVSPost2010Prop57
140
1.0
102
RTVSPost2010PropOp57
 70
     1
102
RTVSPropertyOp0
 70
     1
102
RTVSPropertyOp1
 70
     1
102
RTVSPropertyOp2
 70
     1
102
RTVSPropertyOp3
 70
     1
102
RTVSPropertyOp4
 70
     1
102
RTVSPropertyOp5
 70
     1
102
RTVSPropertyOp6
 70
     1
102
RTVSPropertyOp7
 70
     1
102
RTVSPropertyOp8
 70
     1
102
RTVSPropertyOp9
 70
     1
102
RTVSPropertyOp10
 70
     1
102
RTVSPropertyOp11
 70
     1
102
RTVSPropertyOp12
 70
     1
102
RTVSPropertyOp13
 70
     1
102
RTVSPropertyOp14
 70
     1
102
RTVSPropertyOp15
 70
     1
102
RTVSPropertyOp16
 70
     1
102
RTVSPropertyOp17
 70
     1
102
RTVSPropertyOp18
 70
     1
102
RTVSPropertyOp19
 70
     1
102
RTVSPropertyOp20
 70
     1
102
RTVSPropertyOp21
 70
     1
102
RTVSPropertyOp22
 70
     1
102
RTVSPropertyOp23
 70
     1
102
RTVSPropertyOp24
 70
     1
102
RTVSPropertyOp25
 70
     1
102
RTVSPropertyOp26
 70
     1
102
RTVSPropertyOp27
 70
     1
102
RTVSPropertyOp28
 70
     1
102
RTVSPropertyOp29
 70
     1
102
RTVSPropertyOp30
 70
     1
102
RTVSPropertyOp31
 70
     1
102
RTVSPropertyOp32
 70
     1
102
RTVSPropertyOp33
 70
     1
102
RTVSPropertyOp34
 70
     1
102
RTVSPropertyOp35
 70
     1
102
RTVSPropertyOp36
 70
     1
102
RTVSPropertyOp37
 70
     1
102
RTVSPropertyOp38
 70
     1
102
RTVSPropertyOp39
 70
     1
102
RTVSPropertyOp40
 70
     1
102
RTVSPropertyOp41
 70
     1
102
RTVSPropertyOp42
 70
     1
102
RTVSPropertyOp43
 70
     1
102
RTVSPropertyOp44
 70
     1
102
RTVSPropertyOp45
 70
     1
102
RTVSPropertyOp46
 70
     1
102
RTVSPropertyOp47
 70
     1
102
RTVSPropertyOp48
 70
     1
102
RTVSPropertyOp49
 70
     1
102
RTVSPropertyOp50
 70
     1
102
RTVSPropertyOp51
 70
     0
102
RTVSPropertyOp52
 70
     0
102
RTVSPropertyOp53
 70
     1
102
RTVSPropertyOp54
 70
     1
102
RTVSPropertyOp55
 70
     1
102
RTVSPropertyOp56
 70
     1
102
RTVSPropertyOp57
 70
     1
102
RTVSPropertyOp58
 70
     1
102
RTVSPropertyOp59
 70
     1
102
RTVSPropertyOp60
 70
     1
102
RTVSPropertyOp61
 70
     1
102
RTVSPropertyOp62
 70
     1
  0
XRECORD
  5
1F979
102
{ACAD_REACTORS
330
1F978
102
}
330
1F978
100
AcDbXrecord
280
     1
102
RTVSPost2010Prop28
280
     0
102
RTVSPost2010PropOp28
 70
     1
102
RTVSPost2010Prop29
280
     1
102
RTVSPost2010PropOp29
 70
     1
102
RTVSPost2010Prop30
280
     1
102
RTVSPost2010PropOp30
 70
     1
102
RTVSPost2010Prop31
280
     0
102
RTVSPost2010PropOp31
 70
     1
102
RTVSPost2010Prop32
280
     0
102
RTVSPost2010PropOp32
 70
     1
102
RTVSPost2010Prop33
280
     0
102
RTVSPost2010PropOp33
 70
     1
102
RTVSPost2010Prop34
280
     0
102
RTVSPost2010PropOp34
 70
     1
102
RTVSPost2010Prop35
280
     0
102
RTVSPost2010PropOp35
 70
     1
102
RTVSPost2010Prop36
280
     0
102
RTVSPost2010PropOp36
 70
     1
102
RTVSPost2010Prop37
 90
       50
102
RTVSPost2010PropOp37
 70
     1
102
RTVSPost2010Prop38
140
0.0
102
RTVSPost2010PropOp38
 70
     1
102
RTVSPost2010Prop39
140
1.0
102
RTVSPost2010PropOp39
 70
     1
102
RTVSPost2010Prop40
 90
        0
102
RTVSPost2010PropOp40
 70
     1
102
RTVSPost2010Prop41ColorIndex
 90
       18
102
RTVSPost2010Prop41ColorRGB
 90
        0
102
RTVSPost2010PropOp41
 70
     1
102
RTVSPost2010Prop42
 90
       50
102
RTVSPost2010PropOp42
 70
     1
102
RTVSPost2010Prop43
 90
        3
102
RTVSPost2010PropOp43
 70
     1
102
RTVSPost2010Prop44ColorIndex
 90
        5
102
RTVSPost2010Prop44ColorRGB
 90
      255
102
RTVSPost2010PropOp44
 70
     1
102
RTVSPost2010Prop45
280
     0
102
RTVSPost2010PropOp45
 70
     1
102
RTVSPost2010Prop46
 90
       50
102
RTVSPost2010PropOp46
 70
     1
102
RTVSPost2010Prop47
 90
       50
102
RTVSPost2010PropOp47
 70
     1
102
RTVSPost2010Prop48
 90
       50
102
RTVSPost2010PropOp48
 70
     1
102
RTVSPost2010Prop49
280
     0
102
RTVSPost2010PropOp49
 70
     1
102
RTVSPost2010Prop50
 90
       50
102
RTVSPost2010PropOp50
 70
     1
102
RTVSPost2010Prop51ColorIndex
 90
      256
102
RTVSPost2010Prop51ColorRGB
 90
-16777216
102
RTVSPost2010PropOp51
 70
     0
102
RTVSPost2010Prop52
140
1.0
102
RTVSPost2010PropOp52
 70
     0
102
RTVSPost2010Prop53
 90
        2
102
RTVSPost2010PropOp53
 70
     1
102
RTVSPost2010Prop54
  1
strokes_ogs.tif
102
RTVSPost2010PropOp54
 70
     1
102
RTVSPost2010Prop55
280
     0
102
RTVSPost2010PropOp55
 70
     1
102
RTVSPost2010Prop56
140
1.0
102
RTVSPost2010PropOp56
 70
     1
102
RTVSPost2010Prop57
140
1.0
102
RTVSPost2010PropOp57
 70
     1
102
RTVSPropertyOp0
 70
     1
102
RTVSPropertyOp1
 70
     1
102
RTVSPropertyOp2
 70
     1
102
RTVSPropertyOp3
 70
     1
102
RTVSPropertyOp4
 70
     1
102
RTVSPropertyOp5
 70
     1
102
RTVSPropertyOp6
 70
     1
102
RTVSPropertyOp7
 70
     1
102
RTVSPropertyOp8
 70
     1
102
RTVSPropertyOp9
 70
     1
102
RTVSPropertyOp10
 70
     1
102
RTVSPropertyOp11
 70
     1
102
RTVSPropertyOp12
 70
     1
102
RTVSPropertyOp13
 70
     1
102
RTVSPropertyOp14
 70
     1
102
RTVSPropertyOp15
 70
     1
102
RTVSPropertyOp16
 70
     1
102
RTVSPropertyOp17
 70
     1
102
RTVSPropertyOp18
 70
     1
102
RTVSPropertyOp19
 70
     1
102
RTVSPropertyOp20
 70
     1
102
RTVSPropertyOp21
 70
     1
102
RTVSPropertyOp22
 70
     1
102
RTVSPropertyOp23
 70
     1
102
RTVSPropertyOp24
 70
     1
102
RTVSPropertyOp25
 70
     1
102
RTVSPropertyOp26
 70
     1
102
RTVSPropertyOp27
 70
     1
102
RTVSPropertyOp28
 70
     1
102
RTVSPropertyOp29
 70
     1
102
RTVSPropertyOp30
 70
     1
102
RTVSPropertyOp31
 70
     1
102
RTVSPropertyOp32
 70
     1
102
RTVSPropertyOp33
 70
     1
102
RTVSPropertyOp34
 70
     1
102
RTVSPropertyOp35
 70
     1
102
RTVSPropertyOp36
 70
     1
102
RTVSPropertyOp37
 70
     1
102
RTVSPropertyOp38
 70
     1
102
RTVSPropertyOp39
 70
     1
102
RTVSPropertyOp40
 70
     1
102
RTVSPropertyOp41
 70
     1
102
RTVSPropertyOp42
 70
     1
102
RTVSPropertyOp43
 70
     1
102
RTVSPropertyOp44
 70
     1
102
RTVSPropertyOp45
 70
     1
102
RTVSPropertyOp46
 70
     1
102
RTVSPropertyOp47
 70
     1
102
RTVSPropertyOp48
 70
     1
102
RTVSPropertyOp49
 70
     1
102
RTVSPropertyOp50
 70
     1
102
RTVSPropertyOp51
 70
     0
102
RTVSPropertyOp52
 70
     0
102
RTVSPropertyOp53
 70
     1
102
RTVSPropertyOp54
 70
     1
102
RTVSPropertyOp55
 70
     1
102
RTVSPropertyOp56
 70
     1
102
RTVSPropertyOp57
 70
     1
102
RTVSPropertyOp58
 70
     1
102
RTVSPropertyOp59
 70
     1
102
RTVSPropertyOp60
 70
     1
102
RTVSPropertyOp61
 70
     1
102
RTVSPropertyOp62
 70
     1
  0
XRECORD
  5
1F97B
102
{ACAD_REACTORS
330
1F97A
102
}
330
1F97A
100
AcDbXrecord
280
     1
102
RTVSPost2010Prop28
280
     0
102
RTVSPost2010PropOp28
 70
     1
102
RTVSPost2010Prop29
280
     1
102
RTVSPost2010PropOp29
 70
     1
102
RTVSPost2010Prop30
280
     1
102
RTVSPost2010PropOp30
 70
     1
102
RTVSPost2010Prop31
280
     0
102
RTVSPost2010PropOp31
 70
     1
102
RTVSPost2010Prop32
280
     0
102
RTVSPost2010PropOp32
 70
     1
102
RTVSPost2010Prop33
280
     0
102
RTVSPost2010PropOp33
 70
     1
102
RTVSPost2010Prop34
280
     0
102
RTVSPost2010PropOp34
 70
     1
102
RTVSPost2010Prop35
280
     0
102
RTVSPost2010PropOp35
 70
     1
102
RTVSPost2010Prop36
280
     0
102
RTVSPost2010PropOp36
 70
     1
102
RTVSPost2010Prop37
 90
       50
102
RTVSPost2010PropOp37
 70
     1
102
RTVSPost2010Prop38
140
0.0
102
RTVSPost2010PropOp38
 70
     1
102
RTVSPost2010Prop39
140
1.0
102
RTVSPost2010PropOp39
 70
     1
102
RTVSPost2010Prop40
 90
        0
102
RTVSPost2010PropOp40
 70
     1
102
RTVSPost2010Prop41ColorIndex
 90
       18
102
RTVSPost2010Prop41ColorRGB
 90
        0
102
RTVSPost2010PropOp41
 70
     1
102
RTVSPost2010Prop42
 90
       50
102
RTVSPost2010PropOp42
 70
     1
102
RTVSPost2010Prop43
 90
        3
102
RTVSPost2010PropOp43
 70
     1
102
RTVSPost2010Prop44ColorIndex
 90
        5
102
RTVSPost2010Prop44ColorRGB
 90
      255
102
RTVSPost2010PropOp44
 70
     1
102
RTVSPost2010Prop45
280
     0
102
RTVSPost2010PropOp45
 70
     1
102
RTVSPost2010Prop46
 90
       50
102
RTVSPost2010PropOp46
 70
     1
102
RTVSPost2010Prop47
 90
       50
102
RTVSPost2010PropOp47
 70
     1
102
RTVSPost2010Prop48
 90
       50
102
RTVSPost2010PropOp48
 70
     1
102
RTVSPost2010Prop49
280
     0
102
RTVSPost2010PropOp49
 70
     1
102
RTVSPost2010Prop50
 90
       50
102
RTVSPost2010PropOp50
 70
     1
102
RTVSPost2010Prop51ColorIndex
 90
      256
102
RTVSPost2010Prop51ColorRGB
 90
-16777216
102
RTVSPost2010PropOp51
 70
     0
102
RTVSPost2010Prop52
140
1.0
102
RTVSPost2010PropOp52
 70
     0
102
RTVSPost2010Prop53
 90
        2
102
RTVSPost2010PropOp53
 70
     1
102
RTVSPost2010Prop54
  1
strokes_ogs.tif
102
RTVSPost2010PropOp54
 70
     1
102
RTVSPost2010Prop55
280
     0
102
RTVSPost2010PropOp55
 70
     1
102
RTVSPost2010Prop56
140
1.0
102
RTVSPost2010PropOp56
 70
     1
102
RTVSPost2010Prop57
140
1.0
102
RTVSPost2010PropOp57
 70
     1
102
RTVSPropertyOp0
 70
     1
102
RTVSPropertyOp1
 70
     1
102
RTVSPropertyOp2
 70
     1
102
RTVSPropertyOp3
 70
     1
102
RTVSPropertyOp4
 70
     1
102
RTVSPropertyOp5
 70
     1
102
RTVSPropertyOp6
 70
     1
102
RTVSPropertyOp7
 70
     1
102
RTVSPropertyOp8
 70
     1
102
RTVSPropertyOp9
 70
     1
102
RTVSPropertyOp10
 70
     1
102
RTVSPropertyOp11
 70
     1
102
RTVSPropertyOp12
 70
     1
102
RTVSPropertyOp13
 70
     1
102
RTVSPropertyOp14
 70
     1
102
RTVSPropertyOp15
 70
     1
102
RTVSPropertyOp16
 70
     1
102
RTVSPropertyOp17
 70
     1
102
RTVSPropertyOp18
 70
     1
102
RTVSPropertyOp19
 70
     1
102
RTVSPropertyOp20
 70
     1
102
RTVSPropertyOp21
 70
     1
102
RTVSPropertyOp22
 70
     1
102
RTVSPropertyOp23
 70
     1
102
RTVSPropertyOp24
 70
     1
102
RTVSPropertyOp25
 70
     1
102
RTVSPropertyOp26
 70
     1
102
RTVSPropertyOp27
 70
     1
102
RTVSPropertyOp28
 70
     1
102
RTVSPropertyOp29
 70
     1
102
RTVSPropertyOp30
 70
     1
102
RTVSPropertyOp31
 70
     1
102
RTVSPropertyOp32
 70
     1
102
RTVSPropertyOp33
 70
     1
102
RTVSPropertyOp34
 70
     1
102
RTVSPropertyOp35
 70
     1
102
RTVSPropertyOp36
 70
     1
102
RTVSPropertyOp37
 70
     1
102
RTVSPropertyOp38
 70
     1
102
RTVSPropertyOp39
 70
     1
102
RTVSPropertyOp40
 70
     1
102
RTVSPropertyOp41
 70
     1
102
RTVSPropertyOp42
 70
     1
102
RTVSPropertyOp43
 70
     1
102
RTVSPropertyOp44
 70
     1
102
RTVSPropertyOp45
 70
     1
102
RTVSPropertyOp46
 70
     1
102
RTVSPropertyOp47
 70
     1
102
RTVSPropertyOp48
 70
     1
102
RTVSPropertyOp49
 70
     1
102
RTVSPropertyOp50
 70
     1
102
RTVSPropertyOp51
 70
     0
102
RTVSPropertyOp52
 70
     0
102
RTVSPropertyOp53
 70
     1
102
RTVSPropertyOp54
 70
     1
102
RTVSPropertyOp55
 70
     1
102
RTVSPropertyOp56
 70
     1
102
RTVSPropertyOp57
 70
     1
102
RTVSPropertyOp58
 70
     1
102
RTVSPropertyOp59
 70
     1
102
RTVSPropertyOp60
 70
     1
102
RTVSPropertyOp61
 70
     1
102
RTVSPropertyOp62
 70
     1
  0
XRECORD
  5
1F97D
102
{ACAD_REACTORS
330
1F97C
102
}
330
1F97C
100
AcDbXrecord
280
     1
102
RTVSPost2010Prop28
280
     0
102
RTVSPost2010PropOp28
 70
     1
102
RTVSPost2010Prop29
280
     1
102
RTVSPost2010PropOp29
 70
     1
102
RTVSPost2010Prop30
280
     1
102
RTVSPost2010PropOp30
 70
     1
102
RTVSPost2010Prop31
280
     0
102
RTVSPost2010PropOp31
 70
     1
102
RTVSPost2010Prop32
280
     0
102
RTVSPost2010PropOp32
 70
     1
102
RTVSPost2010Prop33
280
     0
102
RTVSPost2010PropOp33
 70
     1
102
RTVSPost2010Prop34
280
     0
102
RTVSPost2010PropOp34
 70
     1
102
RTVSPost2010Prop35
280
     0
102
RTVSPost2010PropOp35
 70
     1
102
RTVSPost2010Prop36
280
     0
102
RTVSPost2010PropOp36
 70
     1
102
RTVSPost2010Prop37
 90
       50
102
RTVSPost2010PropOp37
 70
     1
102
RTVSPost2010Prop38
140
0.0
102
RTVSPost2010PropOp38
 70
     1
102
RTVSPost2010Prop39
140
1.0
102
RTVSPost2010PropOp39
 70
     1
102
RTVSPost2010Prop40
 90
        0
102
RTVSPost2010PropOp40
 70
     1
102
RTVSPost2010Prop41ColorIndex
 90
       18
102
RTVSPost2010Prop41ColorRGB
 90
        0
102
RTVSPost2010PropOp41
 70
     1
102
RTVSPost2010Prop42
 90
       50
102
RTVSPost2010PropOp42
 70
     1
102
RTVSPost2010Prop43
 90
        3
102
RTVSPost2010PropOp43
 70
     1
102
RTVSPost2010Prop44ColorIndex
 90
        5
102
RTVSPost2010Prop44ColorRGB
 90
      255
102
RTVSPost2010PropOp44
 70
     1
102
RTVSPost2010Prop45
280
     0
102
RTVSPost2010PropOp45
 70
     1
102
RTVSPost2010Prop46
 90
       50
102
RTVSPost2010PropOp46
 70
     1
102
RTVSPost2010Prop47
 90
       50
102
RTVSPost2010PropOp47
 70
     1
102
RTVSPost2010Prop48
 90
       50
102
RTVSPost2010PropOp48
 70
     1
102
RTVSPost2010Prop49
280
     0
102
RTVSPost2010PropOp49
 70
     1
102
RTVSPost2010Prop50
 90
       50
102
RTVSPost2010PropOp50
 70
     1
102
RTVSPost2010Prop51ColorIndex
 90
      256
102
RTVSPost2010Prop51ColorRGB
 90
-16777216
102
RTVSPost2010PropOp51
 70
     0
102
RTVSPost2010Prop52
140
1.0
102
RTVSPost2010PropOp52
 70
     0
102
RTVSPost2010Prop53
 90
        2
102
RTVSPost2010PropOp53
 70
     1
102
RTVSPost2010Prop54
  1
strokes_ogs.tif
102
RTVSPost2010PropOp54
 70
     1
102
RTVSPost2010Prop55
280
     0
102
RTVSPost2010PropOp55
 70
     1
102
RTVSPost2010Prop56
140
1.0
102
RTVSPost2010PropOp56
 70
     1
102
RTVSPost2010Prop57
140
1.0
102
RTVSPost2010PropOp57
 70
     1
102
RTVSPropertyOp0
 70
     1
102
RTVSPropertyOp1
 70
     1
102
RTVSPropertyOp2
 70
     1
102
RTVSPropertyOp3
 70
     1
102
RTVSPropertyOp4
 70
     1
102
RTVSPropertyOp5
 70
     1
102
RTVSPropertyOp6
 70
     1
102
RTVSPropertyOp7
 70
     1
102
RTVSPropertyOp8
 70
     1
102
RTVSPropertyOp9
 70
     1
102
RTVSPropertyOp10
 70
     1
102
RTVSPropertyOp11
 70
     1
102
RTVSPropertyOp12
 70
     1
102
RTVSPropertyOp13
 70
     1
102
RTVSPropertyOp14
 70
     1
102
RTVSPropertyOp15
 70
     1
102
RTVSPropertyOp16
 70
     1
102
RTVSPropertyOp17
 70
     1
102
RTVSPropertyOp18
 70
     1
102
RTVSPropertyOp19
 70
     1
102
RTVSPropertyOp20
 70
     1
102
RTVSPropertyOp21
 70
     1
102
RTVSPropertyOp22
 70
     1
102
RTVSPropertyOp23
 70
     1
102
RTVSPropertyOp24
 70
     1
102
RTVSPropertyOp25
 70
     1
102
RTVSPropertyOp26
 70
     1
102
RTVSPropertyOp27
 70
     1
102
RTVSPropertyOp28
 70
     1
102
RTVSPropertyOp29
 70
     1
102
RTVSPropertyOp30
 70
     1
102
RTVSPropertyOp31
 70
     1
102
RTVSPropertyOp32
 70
     1
102
RTVSPropertyOp33
 70
     1
102
RTVSPropertyOp34
 70
     1
102
RTVSPropertyOp35
 70
     1
102
RTVSPropertyOp36
 70
     1
102
RTVSPropertyOp37
 70
     1
102
RTVSPropertyOp38
 70
     1
102
RTVSPropertyOp39
 70
     1
102
RTVSPropertyOp40
 70
     1
102
RTVSPropertyOp41
 70
     1
102
RTVSPropertyOp42
 70
     1
102
RTVSPropertyOp43
 70
     1
102
RTVSPropertyOp44
 70
     1
102
RTVSPropertyOp45
 70
     1
102
RTVSPropertyOp46
 70
     1
102
RTVSPropertyOp47
 70
     1
102
RTVSPropertyOp48
 70
     1
102
RTVSPropertyOp49
 70
     1
102
RTVSPropertyOp50
 70
     1
102
RTVSPropertyOp51
 70
     0
102
RTVSPropertyOp52
 70
     0
102
RTVSPropertyOp53
 70
     1
102
RTVSPropertyOp54
 70
     1
102
RTVSPropertyOp55
 70
     1
102
RTVSPropertyOp56
 70
     1
102
RTVSPropertyOp57
 70
     1
102
RTVSPropertyOp58
 70
     1
102
RTVSPropertyOp59
 70
     1
102
RTVSPropertyOp60
 70
     1
102
RTVSPropertyOp61
 70
     1
102
RTVSPropertyOp62
 70
     1
  0
XRECORD
  5
1F985
102
{ACAD_REACTORS
330
1F984
102
}
330
1F984
100
AcDbXrecord
280
     1
102
RTVSPost2010Prop28
280
     0
102
RTVSPost2010PropOp28
 70
     1
102
RTVSPost2010Prop29
280
     1
102
RTVSPost2010PropOp29
 70
     1
102
RTVSPost2010Prop30
280
     1
102
RTVSPost2010PropOp30
 70
     1
102
RTVSPost2010Prop31
280
     0
102
RTVSPost2010PropOp31
 70
     1
102
RTVSPost2010Prop32
280
     0
102
RTVSPost2010PropOp32
 70
     1
102
RTVSPost2010Prop33
280
     0
102
RTVSPost2010PropOp33
 70
     1
102
RTVSPost2010Prop34
280
     0
102
RTVSPost2010PropOp34
 70
     1
102
RTVSPost2010Prop35
280
     0
102
RTVSPost2010PropOp35
 70
     1
102
RTVSPost2010Prop36
280
     0
102
RTVSPost2010PropOp36
 70
     1
102
RTVSPost2010Prop37
 90
       50
102
RTVSPost2010PropOp37
 70
     1
102
RTVSPost2010Prop38
140
0.0
102
RTVSPost2010PropOp38
 70
     1
102
RTVSPost2010Prop39
140
1.0
102
RTVSPost2010PropOp39
 70
     1
102
RTVSPost2010Prop40
 90
        0
102
RTVSPost2010PropOp40
 70
     1
102
RTVSPost2010Prop41ColorIndex
 90
       18
102
RTVSPost2010Prop41ColorRGB
 90
        0
102
RTVSPost2010PropOp41
 70
     1
102
RTVSPost2010Prop42
 90
       50
102
RTVSPost2010PropOp42
 70
     1
102
RTVSPost2010Prop43
 90
        3
102
RTVSPost2010PropOp43
 70
     1
102
RTVSPost2010Prop44ColorIndex
 90
        5
102
RTVSPost2010Prop44ColorRGB
 90
      255
102
RTVSPost2010PropOp44
 70
     1
102
RTVSPost2010Prop45
280
     0
102
RTVSPost2010PropOp45
 70
     1
102
RTVSPost2010Prop46
 90
       50
102
RTVSPost2010PropOp46
 70
     1
102
RTVSPost2010Prop47
 90
       50
102
RTVSPost2010PropOp47
 70
     1
102
RTVSPost2010Prop48
 90
       50
102
RTVSPost2010PropOp48
 70
     1
102
RTVSPost2010Prop49
280
     0
102
RTVSPost2010PropOp49
 70
     1
102
RTVSPost2010Prop50
 90
       50
102
RTVSPost2010PropOp50
 70
     1
102
RTVSPost2010Prop51ColorIndex
 90
      256
102
RTVSPost2010Prop51ColorRGB
 90
-16777216
102
RTVSPost2010PropOp51
 70
     0
102
RTVSPost2010Prop52
140
1.0
102
RTVSPost2010PropOp52
 70
     0
102
RTVSPost2010Prop53
 90
        2
102
RTVSPost2010PropOp53
 70
     1
102
RTVSPost2010Prop54
  1
strokes_ogs.tif
102
RTVSPost2010PropOp54
 70
     1
102
RTVSPost2010Prop55
280
     0
102
RTVSPost2010PropOp55
 70
     1
102
RTVSPost2010Prop56
140
1.0
102
RTVSPost2010PropOp56
 70
     1
102
RTVSPost2010Prop57
140
1.0
102
RTVSPost2010PropOp57
 70
     1
102
RTVSPropertyOp0
 70
     1
102
RTVSPropertyOp1
 70
     1
102
RTVSPropertyOp2
 70
     1
102
RTVSPropertyOp3
 70
     1
102
RTVSPropertyOp4
 70
     1
102
RTVSPropertyOp5
 70
     1
102
RTVSPropertyOp6
 70
     1
102
RTVSPropertyOp7
 70
     1
102
RTVSPropertyOp8
 70
     1
102
RTVSPropertyOp9
 70
     1
102
RTVSPropertyOp10
 70
     1
102
RTVSPropertyOp11
 70
     1
102
RTVSPropertyOp12
 70
     1
102
RTVSPropertyOp13
 70
     1
102
RTVSPropertyOp14
 70
     1
102
RTVSPropertyOp15
 70
     1
102
RTVSPropertyOp16
 70
     1
102
RTVSPropertyOp17
 70
     1
102
RTVSPropertyOp18
 70
     1
102
RTVSPropertyOp19
 70
     1
102
RTVSPropertyOp20
 70
     1
102
RTVSPropertyOp21
 70
     1
102
RTVSPropertyOp22
 70
     1
102
RTVSPropertyOp23
 70
     1
102
RTVSPropertyOp24
 70
     1
102
RTVSPropertyOp25
 70
     1
102
RTVSPropertyOp26
 70
     1
102
RTVSPropertyOp27
 70
     1
102
RTVSPropertyOp28
 70
     1
102
RTVSPropertyOp29
 70
     1
102
RTVSPropertyOp30
 70
     1
102
RTVSPropertyOp31
 70
     1
102
RTVSPropertyOp32
 70
     1
102
RTVSPropertyOp33
 70
     1
102
RTVSPropertyOp34
 70
     1
102
RTVSPropertyOp35
 70
     1
102
RTVSPropertyOp36
 70
     1
102
RTVSPropertyOp37
 70
     1
102
RTVSPropertyOp38
 70
     1
102
RTVSPropertyOp39
 70
     1
102
RTVSPropertyOp40
 70
     1
102
RTVSPropertyOp41
 70
     1
102
RTVSPropertyOp42
 70
     1
102
RTVSPropertyOp43
 70
     1
102
RTVSPropertyOp44
 70
     1
102
RTVSPropertyOp45
 70
     1
102
RTVSPropertyOp46
 70
     1
102
RTVSPropertyOp47
 70
     1
102
RTVSPropertyOp48
 70
     1
102
RTVSPropertyOp49
 70
     1
102
RTVSPropertyOp50
 70
     1
102
RTVSPropertyOp51
 70
     0
102
RTVSPropertyOp52
 70
     0
102
RTVSPropertyOp53
 70
     1
102
RTVSPropertyOp54
 70
     1
102
RTVSPropertyOp55
 70
     1
102
RTVSPropertyOp56
 70
     1
102
RTVSPropertyOp57
 70
     1
102
RTVSPropertyOp58
 70
     1
102
RTVSPropertyOp59
 70
     1
102
RTVSPropertyOp60
 70
     1
102
RTVSPropertyOp61
 70
     1
102
RTVSPropertyOp62
 70
     1
  0
XRECORD
  5
1F999
102
{ACAD_REACTORS
330
1F998
102
}
330
1F998
100
AcDbXrecord
280
     1
102
RTVSPost2010Prop28
280
     0
102
RTVSPost2010PropOp28
 70
     1
102
RTVSPost2010Prop29
280
     1
102
RTVSPost2010PropOp29
 70
     1
102
RTVSPost2010Prop30
280
     1
102
RTVSPost2010PropOp30
 70
     1
102
RTVSPost2010Prop31
280
     0
102
RTVSPost2010PropOp31
 70
     1
102
RTVSPost2010Prop32
280
     0
102
RTVSPost2010PropOp32
 70
     1
102
RTVSPost2010Prop33
280
     0
102
RTVSPost2010PropOp33
 70
     1
102
RTVSPost2010Prop34
280
     0
102
RTVSPost2010PropOp34
 70
     1
102
RTVSPost2010Prop35
280
     0
102
RTVSPost2010PropOp35
 70
     1
102
RTVSPost2010Prop36
280
     0
102
RTVSPost2010PropOp36
 70
     1
102
RTVSPost2010Prop37
 90
       50
102
RTVSPost2010PropOp37
 70
     1
102
RTVSPost2010Prop38
140
0.0
102
RTVSPost2010PropOp38
 70
     1
102
RTVSPost2010Prop39
140
1.0
102
RTVSPost2010PropOp39
 70
     1
102
RTVSPost2010Prop40
 90
        0
102
RTVSPost2010PropOp40
 70
     1
102
RTVSPost2010Prop41ColorIndex
 90
       18
102
RTVSPost2010Prop41ColorRGB
 90
        0
102
RTVSPost2010PropOp41
 70
     1
102
RTVSPost2010Prop42
 90
       50
102
RTVSPost2010PropOp42
 70
     1
102
RTVSPost2010Prop43
 90
        3
102
RTVSPost2010PropOp43
 70
     1
102
RTVSPost2010Prop44ColorIndex
 90
        5
102
RTVSPost2010Prop44ColorRGB
 90
      255
102
RTVSPost2010PropOp44
 70
     1
102
RTVSPost2010Prop45
280
     0
102
RTVSPost2010PropOp45
 70
     1
102
RTVSPost2010Prop46
 90
       50
102
RTVSPost2010PropOp46
 70
     1
102
RTVSPost2010Prop47
 90
       50
102
RTVSPost2010PropOp47
 70
     1
102
RTVSPost2010Prop48
 90
       50
102
RTVSPost2010PropOp48
 70
     1
102
RTVSPost2010Prop49
280
     0
102
RTVSPost2010PropOp49
 70
     1
102
RTVSPost2010Prop50
 90
       50
102
RTVSPost2010PropOp50
 70
     1
102
RTVSPost2010Prop51ColorIndex
 90
      256
102
RTVSPost2010Prop51ColorRGB
 90
-16777216
102
RTVSPost2010PropOp51
 70
     0
102
RTVSPost2010Prop52
140
1.0
102
RTVSPost2010PropOp52
 70
     0
102
RTVSPost2010Prop53
 90
        2
102
RTVSPost2010PropOp53
 70
     1
102
RTVSPost2010Prop54
  1
strokes_ogs.tif
102
RTVSPost2010PropOp54
 70
     1
102
RTVSPost2010Prop55
280
     0
102
RTVSPost2010PropOp55
 70
     1
102
RTVSPost2010Prop56
140
1.0
102
RTVSPost2010PropOp56
 70
     1
102
RTVSPost2010Prop57
140
1.0
102
RTVSPost2010PropOp57
 70
     1
102
RTVSPropertyOp0
 70
     0
102
RTVSPropertyOp1
 70
     0
102
RTVSPropertyOp2
 70
     0
102
RTVSPropertyOp3
 70
     0
102
RTVSPropertyOp4
 70
     0
102
RTVSPropertyOp5
 70
     0
102
RTVSPropertyOp6
 70
     0
102
RTVSPropertyOp7
 70
     0
102
RTVSPropertyOp8
 70
     0
102
RTVSPropertyOp9
 70
     0
102
RTVSPropertyOp10
 70
     0
102
RTVSPropertyOp11
 70
     0
102
RTVSPropertyOp12
 70
     0
102
RTVSPropertyOp13
 70
     0
102
RTVSPropertyOp14
 70
     2
102
RTVSPropertyOp15
 70
     0
102
RTVSPropertyOp16
 70
     0
102
RTVSPropertyOp17
 70
     0
102
RTVSPropertyOp18
 70
     0
102
RTVSPropertyOp19
 70
     0
102
RTVSPropertyOp20
 70
     0
102
RTVSPropertyOp21
 70
     0
102
RTVSPropertyOp22
 70
     0
102
RTVSPropertyOp23
 70
     0
102
RTVSPropertyOp24
 70
     0
102
RTVSPropertyOp25
 70
     0
102
RTVSPropertyOp26
 70
     0
102
RTVSPropertyOp27
 70
     0
102
RTVSPropertyOp28
 70
     1
102
RTVSPropertyOp29
 70
     1
102
RTVSPropertyOp30
 70
     1
102
RTVSPropertyOp31
 70
     1
102
RTVSPropertyOp32
 70
     1
102
RTVSPropertyOp33
 70
     1
102
RTVSPropertyOp34
 70
     1
102
RTVSPropertyOp35
 70
     1
102
RTVSPropertyOp36
 70
     1
102
RTVSPropertyOp37
 70
     1
102
RTVSPropertyOp38
 70
     1
102
RTVSPropertyOp39
 70
     1
102
RTVSPropertyOp40
 70
     1
102
RTVSPropertyOp41
 70
     1
102
RTVSPropertyOp42
 70
     1
102
RTVSPropertyOp43
 70
     1
102
RTVSPropertyOp44
 70
     1
102
RTVSPropertyOp45
 70
     1
102
RTVSPropertyOp46
 70
     1
102
RTVSPropertyOp47
 70
     1
102
RTVSPropertyOp48
 70
     1
102
RTVSPropertyOp49
 70
     1
102
RTVSPropertyOp50
 70
     1
102
RTVSPropertyOp51
 70
     0
102
RTVSPropertyOp52
 70
     0
102
RTVSPropertyOp53
 70
     1
102
RTVSPropertyOp54
 70
     1
102
RTVSPropertyOp55
 70
     1
102
RTVSPropertyOp56
 70
     1
102
RTVSPropertyOp57
 70
     1
102
RTVSPropertyOp58
 70
     1
102
RTVSPropertyOp59
 70
     1
102
RTVSPropertyOp60
 70
     1
102
RTVSPropertyOp61
 70
     1
102
RTVSPropertyOp62
 70
     1
  0
XRECORD
  5
1F991
102
{ACAD_REACTORS
330
1F990
102
}
330
1F990
100
AcDbXrecord
280
     1
102
RTVSPost2010Prop28
280
     0
102
RTVSPost2010PropOp28
 70
     1
102
RTVSPost2010Prop29
280
     1
102
RTVSPost2010PropOp29
 70
     1
102
RTVSPost2010Prop30
280
     1
102
RTVSPost2010PropOp30
 70
     1
102
RTVSPost2010Prop31
280
     0
102
RTVSPost2010PropOp31
 70
     1
102
RTVSPost2010Prop32
280
     0
102
RTVSPost2010PropOp32
 70
     1
102
RTVSPost2010Prop33
280
     0
102
RTVSPost2010PropOp33
 70
     1
102
RTVSPost2010Prop34
280
     0
102
RTVSPost2010PropOp34
 70
     1
102
RTVSPost2010Prop35
280
     0
102
RTVSPost2010PropOp35
 70
     1
102
RTVSPost2010Prop36
280
     0
102
RTVSPost2010PropOp36
 70
     1
102
RTVSPost2010Prop37
 90
       50
102
RTVSPost2010PropOp37
 70
     1
102
RTVSPost2010Prop38
140
0.0
102
RTVSPost2010PropOp38
 70
     1
102
RTVSPost2010Prop39
140
1.0
102
RTVSPost2010PropOp39
 70
     1
102
RTVSPost2010Prop40
 90
        0
102
RTVSPost2010PropOp40
 70
     1
102
RTVSPost2010Prop41ColorIndex
 90
       18
102
RTVSPost2010Prop41ColorRGB
 90
        0
102
RTVSPost2010PropOp41
 70
     1
102
RTVSPost2010Prop42
 90
       50
102
RTVSPost2010PropOp42
 70
     1
102
RTVSPost2010Prop43
 90
        3
102
RTVSPost2010PropOp43
 70
     1
102
RTVSPost2010Prop44ColorIndex
 90
        5
102
RTVSPost2010Prop44ColorRGB
 90
      255
102
RTVSPost2010PropOp44
 70
     1
102
RTVSPost2010Prop45
280
     0
102
RTVSPost2010PropOp45
 70
     1
102
RTVSPost2010Prop46
 90
       50
102
RTVSPost2010PropOp46
 70
     1
102
RTVSPost2010Prop47
 90
       50
102
RTVSPost2010PropOp47
 70
     1
102
RTVSPost2010Prop48
 90
       50
102
RTVSPost2010PropOp48
 70
     1
102
RTVSPost2010Prop49
280
     0
102
RTVSPost2010PropOp49
 70
     1
102
RTVSPost2010Prop50
 90
       50
102
RTVSPost2010PropOp50
 70
     1
102
RTVSPost2010Prop51ColorIndex
 90
      256
102
RTVSPost2010Prop51ColorRGB
 90
-16777216
102
RTVSPost2010PropOp51
 70
     0
102
RTVSPost2010Prop52
140
1.0
102
RTVSPost2010PropOp52
 70
     0
102
RTVSPost2010Prop53
 90
        2
102
RTVSPost2010PropOp53
 70
     1
102
RTVSPost2010Prop54
  1
strokes_ogs.tif
102
RTVSPost2010PropOp54
 70
     1
102
RTVSPost2010Prop55
280
     0
102
RTVSPost2010PropOp55
 70
     1
102
RTVSPost2010Prop56
140
1.0
102
RTVSPost2010PropOp56
 70
     1
102
RTVSPost2010Prop57
140
1.0
102
RTVSPost2010PropOp57
 70
     1
102
RTVSPropertyOp0
 70
     1
102
RTVSPropertyOp1
 70
     1
102
RTVSPropertyOp2
 70
     1
102
RTVSPropertyOp3
 70
     1
102
RTVSPropertyOp4
 70
     1
102
RTVSPropertyOp5
 70
     1
102
RTVSPropertyOp6
 70
     1
102
RTVSPropertyOp7
 70
     1
102
RTVSPropertyOp8
 70
     1
102
RTVSPropertyOp9
 70
     1
102
RTVSPropertyOp10
 70
     1
102
RTVSPropertyOp11
 70
     1
102
RTVSPropertyOp12
 70
     1
102
RTVSPropertyOp13
 70
     1
102
RTVSPropertyOp14
 70
     1
102
RTVSPropertyOp15
 70
     1
102
RTVSPropertyOp16
 70
     1
102
RTVSPropertyOp17
 70
     1
102
RTVSPropertyOp18
 70
     1
102
RTVSPropertyOp19
 70
     1
102
RTVSPropertyOp20
 70
     1
102
RTVSPropertyOp21
 70
     1
102
RTVSPropertyOp22
 70
     1
102
RTVSPropertyOp23
 70
     1
102
RTVSPropertyOp24
 70
     1
102
RTVSPropertyOp25
 70
     1
102
RTVSPropertyOp26
 70
     1
102
RTVSPropertyOp27
 70
     1
102
RTVSPropertyOp28
 70
     1
102
RTVSPropertyOp29
 70
     1
102
RTVSPropertyOp30
 70
     1
102
RTVSPropertyOp31
 70
     1
102
RTVSPropertyOp32
 70
     1
102
RTVSPropertyOp33
 70
     1
102
RTVSPropertyOp34
 70
     1
102
RTVSPropertyOp35
 70
     1
102
RTVSPropertyOp36
 70
     1
102
RTVSPropertyOp37
 70
     1
102
RTVSPropertyOp38
 70
     1
102
RTVSPropertyOp39
 70
     1
102
RTVSPropertyOp40
 70
     1
102
RTVSPropertyOp41
 70
     1
102
RTVSPropertyOp42
 70
     1
102
RTVSPropertyOp43
 70
     1
102
RTVSPropertyOp44
 70
     1
102
RTVSPropertyOp45
 70
     1
102
RTVSPropertyOp46
 70
     1
102
RTVSPropertyOp47
 70
     1
102
RTVSPropertyOp48
 70
     1
102
RTVSPropertyOp49
 70
     1
102
RTVSPropertyOp50
 70
     1
102
RTVSPropertyOp51
 70
     0
102
RTVSPropertyOp52
 70
     0
102
RTVSPropertyOp53
 70
     1
102
RTVSPropertyOp54
 70
     1
102
RTVSPropertyOp55
 70
     1
102
RTVSPropertyOp56
 70
     1
102
RTVSPropertyOp57
 70
     1
102
RTVSPropertyOp58
 70
     1
102
RTVSPropertyOp59
 70
     1
102
RTVSPropertyOp60
 70
     1
102
RTVSPropertyOp61
 70
     1
102
RTVSPropertyOp62
 70
     1
  0
XRECORD
  5
1F99B
102
{ACAD_REACTORS
330
1F99A
102
}
330
1F99A
100
AcDbXrecord
280
     1
102
RTVSPost2010Prop28
280
     0
102
RTVSPost2010PropOp28
 70
     1
102
RTVSPost2010Prop29
280
     1
102
RTVSPost2010PropOp29
 70
     1
102
RTVSPost2010Prop30
280
     1
102
RTVSPost2010PropOp30
 70
     1
102
RTVSPost2010Prop31
280
     0
102
RTVSPost2010PropOp31
 70
     1
102
RTVSPost2010Prop32
280
     0
102
RTVSPost2010PropOp32
 70
     1
102
RTVSPost2010Prop33
280
     0
102
RTVSPost2010PropOp33
 70
     1
102
RTVSPost2010Prop34
280
     0
102
RTVSPost2010PropOp34
 70
     1
102
RTVSPost2010Prop35
280
     0
102
RTVSPost2010PropOp35
 70
     1
102
RTVSPost2010Prop36
280
     0
102
RTVSPost2010PropOp36
 70
     1
102
RTVSPost2010Prop37
 90
       50
102
RTVSPost2010PropOp37
 70
     1
102
RTVSPost2010Prop38
140
0.0
102
RTVSPost2010PropOp38
 70
     1
102
RTVSPost2010Prop39
140
1.0
102
RTVSPost2010PropOp39
 70
     1
102
RTVSPost2010Prop40
 90
        0
102
RTVSPost2010PropOp40
 70
     1
102
RTVSPost2010Prop41ColorIndex
 90
       18
102
RTVSPost2010Prop41ColorRGB
 90
        0
102
RTVSPost2010PropOp41
 70
     1
102
RTVSPost2010Prop42
 90
       50
102
RTVSPost2010PropOp42
 70
     1
102
RTVSPost2010Prop43
 90
        3
102
RTVSPost2010PropOp43
 70
     1
102
RTVSPost2010Prop44ColorIndex
 90
        5
102
RTVSPost2010Prop44ColorRGB
 90
      255
102
RTVSPost2010PropOp44
 70
     1
102
RTVSPost2010Prop45
280
     0
102
RTVSPost2010PropOp45
 70
     1
102
RTVSPost2010Prop46
 90
       50
102
RTVSPost2010PropOp46
 70
     1
102
RTVSPost2010Prop47
 90
       50
102
RTVSPost2010PropOp47
 70
     1
102
RTVSPost2010Prop48
 90
       50
102
RTVSPost2010PropOp48
 70
     1
102
RTVSPost2010Prop49
280
     0
102
RTVSPost2010PropOp49
 70
     1
102
RTVSPost2010Prop50
 90
       50
102
RTVSPost2010PropOp50
 70
     1
102
RTVSPost2010Prop51ColorIndex
 90
      256
102
RTVSPost2010Prop51ColorRGB
 90
-16777216
102
RTVSPost2010PropOp51
 70
     0
102
RTVSPost2010Prop52
140
1.0
102
RTVSPost2010PropOp52
 70
     0
102
RTVSPost2010Prop53
 90
        2
102
RTVSPost2010PropOp53
 70
     1
102
RTVSPost2010Prop54
  1
strokes_ogs.tif
102
RTVSPost2010PropOp54
 70
     1
102
RTVSPost2010Prop55
280
     0
102
RTVSPost2010PropOp55
 70
     1
102
RTVSPost2010Prop56
140
1.0
102
RTVSPost2010PropOp56
 70
     1
102
RTVSPost2010Prop57
140
1.0
102
RTVSPost2010PropOp57
 70
     1
102
RTVSPropertyOp0
 70
     0
102
RTVSPropertyOp1
 70
     0
102
RTVSPropertyOp2
 70
     0
102
RTVSPropertyOp3
 70
     0
102
RTVSPropertyOp4
 70
     0
102
RTVSPropertyOp5
 70
     0
102
RTVSPropertyOp6
 70
     0
102
RTVSPropertyOp7
 70
     0
102
RTVSPropertyOp8
 70
     0
102
RTVSPropertyOp9
 70
     0
102
RTVSPropertyOp10
 70
     0
102
RTVSPropertyOp11
 70
     0
102
RTVSPropertyOp12
 70
     0
102
RTVSPropertyOp13
 70
     0
102
RTVSPropertyOp14
 70
     2
102
RTVSPropertyOp15
 70
     0
102
RTVSPropertyOp16
 70
     0
102
RTVSPropertyOp17
 70
     0
102
RTVSPropertyOp18
 70
     0
102
RTVSPropertyOp19
 70
     0
102
RTVSPropertyOp20
 70
     0
102
RTVSPropertyOp21
 70
     0
102
RTVSPropertyOp22
 70
     0
102
RTVSPropertyOp23
 70
     0
102
RTVSPropertyOp24
 70
     0
102
RTVSPropertyOp25
 70
     0
102
RTVSPropertyOp26
 70
     0
102
RTVSPropertyOp27
 70
     0
102
RTVSPropertyOp28
 70
     1
102
RTVSPropertyOp29
 70
     1
102
RTVSPropertyOp30
 70
     1
102
RTVSPropertyOp31
 70
     1
102
RTVSPropertyOp32
 70
     1
102
RTVSPropertyOp33
 70
     1
102
RTVSPropertyOp34
 70
     1
102
RTVSPropertyOp35
 70
     1
102
RTVSPropertyOp36
 70
     1
102
RTVSPropertyOp37
 70
     1
102
RTVSPropertyOp38
 70
     1
102
RTVSPropertyOp39
 70
     1
102
RTVSPropertyOp40
 70
     1
102
RTVSPropertyOp41
 70
     1
102
RTVSPropertyOp42
 70
     1
102
RTVSPropertyOp43
 70
     1
102
RTVSPropertyOp44
 70
     1
102
RTVSPropertyOp45
 70
     1
102
RTVSPropertyOp46
 70
     1
102
RTVSPropertyOp47
 70
     1
102
RTVSPropertyOp48
 70
     1
102
RTVSPropertyOp49
 70
     1
102
RTVSPropertyOp50
 70
     1
102
RTVSPropertyOp51
 70
     0
102
RTVSPropertyOp52
 70
     0
102
RTVSPropertyOp53
 70
     1
102
RTVSPropertyOp54
 70
     1
102
RTVSPropertyOp55
 70
     1
102
RTVSPropertyOp56
 70
     1
102
RTVSPropertyOp57
 70
     1
102
RTVSPropertyOp58
 70
     1
102
RTVSPropertyOp59
 70
     1
102
RTVSPropertyOp60
 70
     1
102
RTVSPropertyOp61
 70
     1
102
RTVSPropertyOp62
 70
     1
  0
XRECORD
  5
1F989
102
{ACAD_REACTORS
330
1F988
102
}
330
1F988
100
AcDbXrecord
280
     1
102
RTVSPost2010Prop28
280
     0
102
RTVSPost2010PropOp28
 70
     1
102
RTVSPost2010Prop29
280
     1
102
RTVSPost2010PropOp29
 70
     1
102
RTVSPost2010Prop30
280
     1
102
RTVSPost2010PropOp30
 70
     1
102
RTVSPost2010Prop31
280
     0
102
RTVSPost2010PropOp31
 70
     1
102
RTVSPost2010Prop32
280
     0
102
RTVSPost2010PropOp32
 70
     1
102
RTVSPost2010Prop33
280
     0
102
RTVSPost2010PropOp33
 70
     1
102
RTVSPost2010Prop34
280
     0
102
RTVSPost2010PropOp34
 70
     1
102
RTVSPost2010Prop35
280
     0
102
RTVSPost2010PropOp35
 70
     1
102
RTVSPost2010Prop36
280
     0
102
RTVSPost2010PropOp36
 70
     1
102
RTVSPost2010Prop37
 90
       50
102
RTVSPost2010PropOp37
 70
     1
102
RTVSPost2010Prop38
140
0.0
102
RTVSPost2010PropOp38
 70
     1
102
RTVSPost2010Prop39
140
1.0
102
RTVSPost2010PropOp39
 70
     1
102
RTVSPost2010Prop40
 90
        0
102
RTVSPost2010PropOp40
 70
     1
102
RTVSPost2010Prop41ColorIndex
 90
       18
102
RTVSPost2010Prop41ColorRGB
 90
        0
102
RTVSPost2010PropOp41
 70
     1
102
RTVSPost2010Prop42
 90
       50
102
RTVSPost2010PropOp42
 70
     1
102
RTVSPost2010Prop43
 90
        3
102
RTVSPost2010PropOp43
 70
     1
102
RTVSPost2010Prop44ColorIndex
 90
        5
102
RTVSPost2010Prop44ColorRGB
 90
      255
102
RTVSPost2010PropOp44
 70
     1
102
RTVSPost2010Prop45
280
     0
102
RTVSPost2010PropOp45
 70
     1
102
RTVSPost2010Prop46
 90
       50
102
RTVSPost2010PropOp46
 70
     1
102
RTVSPost2010Prop47
 90
       50
102
RTVSPost2010PropOp47
 70
     1
102
RTVSPost2010Prop48
 90
       50
102
RTVSPost2010PropOp48
 70
     1
102
RTVSPost2010Prop49
280
     0
102
RTVSPost2010PropOp49
 70
     1
102
RTVSPost2010Prop50
 90
       50
102
RTVSPost2010PropOp50
 70
     1
102
RTVSPost2010Prop51ColorIndex
 90
      256
102
RTVSPost2010Prop51ColorRGB
 90
-16777216
102
RTVSPost2010PropOp51
 70
     0
102
RTVSPost2010Prop52
140
1.0
102
RTVSPost2010PropOp52
 70
     0
102
RTVSPost2010Prop53
 90
        2
102
RTVSPost2010PropOp53
 70
     1
102
RTVSPost2010Prop54
  1
strokes_ogs.tif
102
RTVSPost2010PropOp54
 70
     1
102
RTVSPost2010Prop55
280
     0
102
RTVSPost2010PropOp55
 70
     1
102
RTVSPost2010Prop56
140
1.0
102
RTVSPost2010PropOp56
 70
     1
102
RTVSPost2010Prop57
140
1.0
102
RTVSPost2010PropOp57
 70
     1
102
RTVSPropertyOp0
 70
     1
102
RTVSPropertyOp1
 70
     1
102
RTVSPropertyOp2
 70
     1
102
RTVSPropertyOp3
 70
     1
102
RTVSPropertyOp4
 70
     1
102
RTVSPropertyOp5
 70
     1
102
RTVSPropertyOp6
 70
     1
102
RTVSPropertyOp7
 70
     1
102
RTVSPropertyOp8
 70
     1
102
RTVSPropertyOp9
 70
     1
102
RTVSPropertyOp10
 70
     1
102
RTVSPropertyOp11
 70
     1
102
RTVSPropertyOp12
 70
     1
102
RTVSPropertyOp13
 70
     1
102
RTVSPropertyOp14
 70
     1
102
RTVSPropertyOp15
 70
     1
102
RTVSPropertyOp16
 70
     1
102
RTVSPropertyOp17
 70
     1
102
RTVSPropertyOp18
 70
     1
102
RTVSPropertyOp19
 70
     1
102
RTVSPropertyOp20
 70
     1
102
RTVSPropertyOp21
 70
     1
102
RTVSPropertyOp22
 70
     1
102
RTVSPropertyOp23
 70
     1
102
RTVSPropertyOp24
 70
     1
102
RTVSPropertyOp25
 70
     1
102
RTVSPropertyOp26
 70
     1
102
RTVSPropertyOp27
 70
     1
102
RTVSPropertyOp28
 70
     1
102
RTVSPropertyOp29
 70
     1
102
RTVSPropertyOp30
 70
     1
102
RTVSPropertyOp31
 70
     1
102
RTVSPropertyOp32
 70
     1
102
RTVSPropertyOp33
 70
     1
102
RTVSPropertyOp34
 70
     1
102
RTVSPropertyOp35
 70
     1
102
RTVSPropertyOp36
 70
     1
102
RTVSPropertyOp37
 70
     1
102
RTVSPropertyOp38
 70
     1
102
RTVSPropertyOp39
 70
     1
102
RTVSPropertyOp40
 70
     1
102
RTVSPropertyOp41
 70
     1
102
RTVSPropertyOp42
 70
     1
102
RTVSPropertyOp43
 70
     1
102
RTVSPropertyOp44
 70
     1
102
RTVSPropertyOp45
 70
     1
102
RTVSPropertyOp46
 70
     1
102
RTVSPropertyOp47
 70
     1
102
RTVSPropertyOp48
 70
     1
102
RTVSPropertyOp49
 70
     1
102
RTVSPropertyOp50
 70
     1
102
RTVSPropertyOp51
 70
     0
102
RTVSPropertyOp52
 70
     0
102
RTVSPropertyOp53
 70
     1
102
RTVSPropertyOp54
 70
     1
102
RTVSPropertyOp55
 70
     1
102
RTVSPropertyOp56
 70
     1
102
RTVSPropertyOp57
 70
     1
102
RTVSPropertyOp58
 70
     1
102
RTVSPropertyOp59
 70
     1
102
RTVSPropertyOp60
 70
     1
102
RTVSPropertyOp61
 70
     1
102
RTVSPropertyOp62
 70
     1
  0
XRECORD
  5
1F9A7
102
{ACAD_REACTORS
330
1F9A6
102
}
330
1F9A6
100
AcDbXrecord
280
     1
102
RTVSPost2010Prop28
280
     0
102
RTVSPost2010PropOp28
 70
     1
102
RTVSPost2010Prop29
280
     1
102
RTVSPost2010PropOp29
 70
     1
102
RTVSPost2010Prop30
280
     1
102
RTVSPost2010PropOp30
 70
     1
102
RTVSPost2010Prop31
280
     0
102
RTVSPost2010PropOp31
 70
     1
102
RTVSPost2010Prop32
280
     0
102
RTVSPost2010PropOp32
 70
     1
102
RTVSPost2010Prop33
280
     0
102
RTVSPost2010PropOp33
 70
     1
102
RTVSPost2010Prop34
280
     0
102
RTVSPost2010PropOp34
 70
     1
102
RTVSPost2010Prop35
280
     0
102
RTVSPost2010PropOp35
 70
     1
102
RTVSPost2010Prop36
280
     0
102
RTVSPost2010PropOp36
 70
     1
102
RTVSPost2010Prop37
 90
       50
102
RTVSPost2010PropOp37
 70
     1
102
RTVSPost2010Prop38
140
0.0
102
RTVSPost2010PropOp38
 70
     1
102
RTVSPost2010Prop39
140
1.0
102
RTVSPost2010PropOp39
 70
     1
102
RTVSPost2010Prop40
 90
        0
102
RTVSPost2010PropOp40
 70
     1
102
RTVSPost2010Prop41ColorIndex
 90
       18
102
RTVSPost2010Prop41ColorRGB
 90
        0
102
RTVSPost2010PropOp41
 70
     1
102
RTVSPost2010Prop42
 90
       50
102
RTVSPost2010PropOp42
 70
     1
102
RTVSPost2010Prop43
 90
        3
102
RTVSPost2010PropOp43
 70
     1
102
RTVSPost2010Prop44ColorIndex
 90
        5
102
RTVSPost2010Prop44ColorRGB
 90
      255
102
RTVSPost2010PropOp44
 70
     1
102
RTVSPost2010Prop45
280
     0
102
RTVSPost2010PropOp45
 70
     1
102
RTVSPost2010Prop46
 90
       50
102
RTVSPost2010PropOp46
 70
     1
102
RTVSPost2010Prop47
 90
       50
102
RTVSPost2010PropOp47
 70
     1
102
RTVSPost2010Prop48
 90
       50
102
RTVSPost2010PropOp48
 70
     1
102
RTVSPost2010Prop49
280
     0
102
RTVSPost2010PropOp49
 70
     1
102
RTVSPost2010Prop50
 90
       50
102
RTVSPost2010PropOp50
 70
     1
102
RTVSPost2010Prop51ColorIndex
 90
      256
102
RTVSPost2010Prop51ColorRGB
 90
-16777216
102
RTVSPost2010PropOp51
 70
     0
102
RTVSPost2010Prop52
140
1.0
102
RTVSPost2010PropOp52
 70
     0
102
RTVSPost2010Prop53
 90
        2
102
RTVSPost2010PropOp53
 70
     1
102
RTVSPost2010Prop54
  1
strokes_ogs.tif
102
RTVSPost2010PropOp54
 70
     1
102
RTVSPost2010Prop55
280
     0
102
RTVSPost2010PropOp55
 70
     1
102
RTVSPost2010Prop56
140
1.0
102
RTVSPost2010PropOp56
 70
     1
102
RTVSPost2010Prop57
140
1.0
102
RTVSPost2010PropOp57
 70
     1
102
RTVSPropertyOp0
 70
     1
102
RTVSPropertyOp1
 70
     1
102
RTVSPropertyOp2
 70
     1
102
RTVSPropertyOp3
 70
     1
102
RTVSPropertyOp4
 70
     1
102
RTVSPropertyOp5
 70
     1
102
RTVSPropertyOp6
 70
     1
102
RTVSPropertyOp7
 70
     1
102
RTVSPropertyOp8
 70
     1
102
RTVSPropertyOp9
 70
     1
102
RTVSPropertyOp10
 70
     1
102
RTVSPropertyOp11
 70
     1
102
RTVSPropertyOp12
 70
     1
102
RTVSPropertyOp13
 70
     1
102
RTVSPropertyOp14
 70
     1
102
RTVSPropertyOp15
 70
     1
102
RTVSPropertyOp16
 70
     1
102
RTVSPropertyOp17
 70
     1
102
RTVSPropertyOp18
 70
     1
102
RTVSPropertyOp19
 70
     1
102
RTVSPropertyOp20
 70
     1
102
RTVSPropertyOp21
 70
     1
102
RTVSPropertyOp22
 70
     1
102
RTVSPropertyOp23
 70
     1
102
RTVSPropertyOp24
 70
     1
102
RTVSPropertyOp25
 70
     1
102
RTVSPropertyOp26
 70
     1
102
RTVSPropertyOp27
 70
     1
102
RTVSPropertyOp28
 70
     1
102
RTVSPropertyOp29
 70
     1
102
RTVSPropertyOp30
 70
     1
102
RTVSPropertyOp31
 70
     1
102
RTVSPropertyOp32
 70
     1
102
RTVSPropertyOp33
 70
     1
102
RTVSPropertyOp34
 70
     1
102
RTVSPropertyOp35
 70
     1
102
RTVSPropertyOp36
 70
     1
102
RTVSPropertyOp37
 70
     1
102
RTVSPropertyOp38
 70
     1
102
RTVSPropertyOp39
 70
     1
102
RTVSPropertyOp40
 70
     1
102
RTVSPropertyOp41
 70
     1
102
RTVSPropertyOp42
 70
     1
102
RTVSPropertyOp43
 70
     1
102
RTVSPropertyOp44
 70
     1
102
RTVSPropertyOp45
 70
     1
102
RTVSPropertyOp46
 70
     1
102
RTVSPropertyOp47
 70
     1
102
RTVSPropertyOp48
 70
     1
102
RTVSPropertyOp49
 70
     1
102
RTVSPropertyOp50
 70
     1
102
RTVSPropertyOp51
 70
     0
102
RTVSPropertyOp52
 70
     0
102
RTVSPropertyOp53
 70
     1
102
RTVSPropertyOp54
 70
     1
102
RTVSPropertyOp55
 70
     1
102
RTVSPropertyOp56
 70
     1
102
RTVSPropertyOp57
 70
     1
102
RTVSPropertyOp58
 70
     1
102
RTVSPropertyOp59
 70
     1
102
RTVSPropertyOp60
 70
     1
102
RTVSPropertyOp61
 70
     1
102
RTVSPropertyOp62
 70
     1
  0
XRECORD
  5
1F9A5
102
{ACAD_REACTORS
330
1F9A4
102
}
330
1F9A4
100
AcDbXrecord
280
     1
102
RTVSPost2010Prop28
280
     0
102
RTVSPost2010PropOp28
 70
     1
102
RTVSPost2010Prop29
280
     1
102
RTVSPost2010PropOp29
 70
     1
102
RTVSPost2010Prop30
280
     1
102
RTVSPost2010PropOp30
 70
     1
102
RTVSPost2010Prop31
280
     0
102
RTVSPost2010PropOp31
 70
     1
102
RTVSPost2010Prop32
280
     0
102
RTVSPost2010PropOp32
 70
     1
102
RTVSPost2010Prop33
280
     0
102
RTVSPost2010PropOp33
 70
     1
102
RTVSPost2010Prop34
280
     0
102
RTVSPost2010PropOp34
 70
     1
102
RTVSPost2010Prop35
280
     0
102
RTVSPost2010PropOp35
 70
     1
102
RTVSPost2010Prop36
280
     0
102
RTVSPost2010PropOp36
 70
     1
102
RTVSPost2010Prop37
 90
       50
102
RTVSPost2010PropOp37
 70
     1
102
RTVSPost2010Prop38
140
0.0
102
RTVSPost2010PropOp38
 70
     1
102
RTVSPost2010Prop39
140
1.0
102
RTVSPost2010PropOp39
 70
     1
102
RTVSPost2010Prop40
 90
        0
102
RTVSPost2010PropOp40
 70
     1
102
RTVSPost2010Prop41ColorIndex
 90
       18
102
RTVSPost2010Prop41ColorRGB
 90
        0
102
RTVSPost2010PropOp41
 70
     1
102
RTVSPost2010Prop42
 90
       50
102
RTVSPost2010PropOp42
 70
     1
102
RTVSPost2010Prop43
 90
        3
102
RTVSPost2010PropOp43
 70
     1
102
RTVSPost2010Prop44ColorIndex
 90
        5
102
RTVSPost2010Prop44ColorRGB
 90
      255
102
RTVSPost2010PropOp44
 70
     1
102
RTVSPost2010Prop45
280
     0
102
RTVSPost2010PropOp45
 70
     1
102
RTVSPost2010Prop46
 90
       50
102
RTVSPost2010PropOp46
 70
     1
102
RTVSPost2010Prop47
 90
       50
102
RTVSPost2010PropOp47
 70
     1
102
RTVSPost2010Prop48
 90
       50
102
RTVSPost2010PropOp48
 70
     1
102
RTVSPost2010Prop49
280
     0
102
RTVSPost2010PropOp49
 70
     1
102
RTVSPost2010Prop50
 90
       50
102
RTVSPost2010PropOp50
 70
     1
102
RTVSPost2010Prop51ColorIndex
 90
      256
102
RTVSPost2010Prop51ColorRGB
 90
-16777216
102
RTVSPost2010PropOp51
 70
     0
102
RTVSPost2010Prop52
140
1.0
102
RTVSPost2010PropOp52
 70
     0
102
RTVSPost2010Prop53
 90
        2
102
RTVSPost2010PropOp53
 70
     1
102
RTVSPost2010Prop54
  1
strokes_ogs.tif
102
RTVSPost2010PropOp54
 70
     1
102
RTVSPost2010Prop55
280
     0
102
RTVSPost2010PropOp55
 70
     1
102
RTVSPost2010Prop56
140
1.0
102
RTVSPost2010PropOp56
 70
     1
102
RTVSPost2010Prop57
140
1.0
102
RTVSPost2010PropOp57
 70
     1
102
RTVSPropertyOp0
 70
     1
102
RTVSPropertyOp1
 70
     1
102
RTVSPropertyOp2
 70
     1
102
RTVSPropertyOp3
 70
     1
102
RTVSPropertyOp4
 70
     1
102
RTVSPropertyOp5
 70
     1
102
RTVSPropertyOp6
 70
     1
102
RTVSPropertyOp7
 70
     1
102
RTVSPropertyOp8
 70
     1
102
RTVSPropertyOp9
 70
     1
102
RTVSPropertyOp10
 70
     1
102
RTVSPropertyOp11
 70
     1
102
RTVSPropertyOp12
 70
     1
102
RTVSPropertyOp13
 70
     1
102
RTVSPropertyOp14
 70
     1
102
RTVSPropertyOp15
 70
     1
102
RTVSPropertyOp16
 70
     1
102
RTVSPropertyOp17
 70
     1
102
RTVSPropertyOp18
 70
     1
102
RTVSPropertyOp19
 70
     1
102
RTVSPropertyOp20
 70
     1
102
RTVSPropertyOp21
 70
     1
102
RTVSPropertyOp22
 70
     1
102
RTVSPropertyOp23
 70
     1
102
RTVSPropertyOp24
 70
     1
102
RTVSPropertyOp25
 70
     1
102
RTVSPropertyOp26
 70
     1
102
RTVSPropertyOp27
 70
     1
102
RTVSPropertyOp28
 70
     1
102
RTVSPropertyOp29
 70
     1
102
RTVSPropertyOp30
 70
     1
102
RTVSPropertyOp31
 70
     1
102
RTVSPropertyOp32
 70
     1
102
RTVSPropertyOp33
 70
     1
102
RTVSPropertyOp34
 70
     1
102
RTVSPropertyOp35
 70
     1
102
RTVSPropertyOp36
 70
     1
102
RTVSPropertyOp37
 70
     1
102
RTVSPropertyOp38
 70
     1
102
RTVSPropertyOp39
 70
     1
102
RTVSPropertyOp40
 70
     1
102
RTVSPropertyOp41
 70
     1
102
RTVSPropertyOp42
 70
     1
102
RTVSPropertyOp43
 70
     1
102
RTVSPropertyOp44
 70
     1
102
RTVSPropertyOp45
 70
     1
102
RTVSPropertyOp46
 70
     1
102
RTVSPropertyOp47
 70
     1
102
RTVSPropertyOp48
 70
     1
102
RTVSPropertyOp49
 70
     1
102
RTVSPropertyOp50
 70
     1
102
RTVSPropertyOp51
 70
     0
102
RTVSPropertyOp52
 70
     0
102
RTVSPropertyOp53
 70
     1
102
RTVSPropertyOp54
 70
     1
102
RTVSPropertyOp55
 70
     1
102
RTVSPropertyOp56
 70
     1
102
RTVSPropertyOp57
 70
     1
102
RTVSPropertyOp58
 70
     1
102
RTVSPropertyOp59
 70
     1
102
RTVSPropertyOp60
 70
     1
102
RTVSPropertyOp61
 70
     1
102
RTVSPropertyOp62
 70
     1
  0
XRECORD
  5
1F99F
102
{ACAD_REACTORS
330
1F99E
102
}
330
1F99E
100
AcDbXrecord
280
     1
102
RTVSPost2010Prop28
280
     0
102
RTVSPost2010PropOp28
 70
     1
102
RTVSPost2010Prop29
280
     1
102
RTVSPost2010PropOp29
 70
     1
102
RTVSPost2010Prop30
280
     1
102
RTVSPost2010PropOp30
 70
     1
102
RTVSPost2010Prop31
280
     0
102
RTVSPost2010PropOp31
 70
     1
102
RTVSPost2010Prop32
280
     0
102
RTVSPost2010PropOp32
 70
     1
102
RTVSPost2010Prop33
280
     0
102
RTVSPost2010PropOp33
 70
     1
102
RTVSPost2010Prop34
280
     0
102
RTVSPost2010PropOp34
 70
     1
102
RTVSPost2010Prop35
280
     0
102
RTVSPost2010PropOp35
 70
     1
102
RTVSPost2010Prop36
280
     0
102
RTVSPost2010PropOp36
 70
     1
102
RTVSPost2010Prop37
 90
       50
102
RTVSPost2010PropOp37
 70
     1
102
RTVSPost2010Prop38
140
0.0
102
RTVSPost2010PropOp38
 70
     1
102
RTVSPost2010Prop39
140
1.0
102
RTVSPost2010PropOp39
 70
     1
102
RTVSPost2010Prop40
 90
        0
102
RTVSPost2010PropOp40
 70
     1
102
RTVSPost2010Prop41ColorIndex
 90
       18
102
RTVSPost2010Prop41ColorRGB
 90
        0
102
RTVSPost2010PropOp41
 70
     1
102
RTVSPost2010Prop42
 90
       50
102
RTVSPost2010PropOp42
 70
     1
102
RTVSPost2010Prop43
 90
        3
102
RTVSPost2010PropOp43
 70
     1
102
RTVSPost2010Prop44ColorIndex
 90
        5
102
RTVSPost2010Prop44ColorRGB
 90
      255
102
RTVSPost2010PropOp44
 70
     1
102
RTVSPost2010Prop45
280
     0
102
RTVSPost2010PropOp45
 70
     1
102
RTVSPost2010Prop46
 90
       50
102
RTVSPost2010PropOp46
 70
     1
102
RTVSPost2010Prop47
 90
       50
102
RTVSPost2010PropOp47
 70
     1
102
RTVSPost2010Prop48
 90
       50
102
RTVSPost2010PropOp48
 70
     1
102
RTVSPost2010Prop49
280
     0
102
RTVSPost2010PropOp49
 70
     1
102
RTVSPost2010Prop50
 90
       50
102
RTVSPost2010PropOp50
 70
     1
102
RTVSPost2010Prop51ColorIndex
 90
      256
102
RTVSPost2010Prop51ColorRGB
 90
-16777216
102
RTVSPost2010PropOp51
 70
     0
102
RTVSPost2010Prop52
140
1.0
102
RTVSPost2010PropOp52
 70
     0
102
RTVSPost2010Prop53
 90
        2
102
RTVSPost2010PropOp53
 70
     1
102
RTVSPost2010Prop54
  1
strokes_ogs.tif
102
RTVSPost2010PropOp54
 70
     1
102
RTVSPost2010Prop55
280
     0
102
RTVSPost2010PropOp55
 70
     1
102
RTVSPost2010Prop56
140
1.0
102
RTVSPost2010PropOp56
 70
     1
102
RTVSPost2010Prop57
140
1.0
102
RTVSPost2010PropOp57
 70
     1
102
RTVSPropertyOp0
 70
     1
102
RTVSPropertyOp1
 70
     1
102
RTVSPropertyOp2
 70
     1
102
RTVSPropertyOp3
 70
     1
102
RTVSPropertyOp4
 70
     1
102
RTVSPropertyOp5
 70
     1
102
RTVSPropertyOp6
 70
     1
102
RTVSPropertyOp7
 70
     1
102
RTVSPropertyOp8
 70
     1
102
RTVSPropertyOp9
 70
     1
102
RTVSPropertyOp10
 70
     1
102
RTVSPropertyOp11
 70
     1
102
RTVSPropertyOp12
 70
     1
102
RTVSPropertyOp13
 70
     1
102
RTVSPropertyOp14
 70
     1
102
RTVSPropertyOp15
 70
     1
102
RTVSPropertyOp16
 70
     1
102
RTVSPropertyOp17
 70
     1
102
RTVSPropertyOp18
 70
     1
102
RTVSPropertyOp19
 70
     1
102
RTVSPropertyOp20
 70
     1
102
RTVSPropertyOp21
 70
     1
102
RTVSPropertyOp22
 70
     1
102
RTVSPropertyOp23
 70
     1
102
RTVSPropertyOp24
 70
     1
102
RTVSPropertyOp25
 70
     1
102
RTVSPropertyOp26
 70
     1
102
RTVSPropertyOp27
 70
     1
102
RTVSPropertyOp28
 70
     1
102
RTVSPropertyOp29
 70
     1
102
RTVSPropertyOp30
 70
     1
102
RTVSPropertyOp31
 70
     1
102
RTVSPropertyOp32
 70
     1
102
RTVSPropertyOp33
 70
     1
102
RTVSPropertyOp34
 70
     1
102
RTVSPropertyOp35
 70
     1
102
RTVSPropertyOp36
 70
     1
102
RTVSPropertyOp37
 70
     1
102
RTVSPropertyOp38
 70
     1
102
RTVSPropertyOp39
 70
     1
102
RTVSPropertyOp40
 70
     1
102
RTVSPropertyOp41
 70
     1
102
RTVSPropertyOp42
 70
     1
102
RTVSPropertyOp43
 70
     1
102
RTVSPropertyOp44
 70
     1
102
RTVSPropertyOp45
 70
     1
102
RTVSPropertyOp46
 70
     1
102
RTVSPropertyOp47
 70
     1
102
RTVSPropertyOp48
 70
     1
102
RTVSPropertyOp49
 70
     1
102
RTVSPropertyOp50
 70
     1
102
RTVSPropertyOp51
 70
     0
102
RTVSPropertyOp52
 70
     0
102
RTVSPropertyOp53
 70
     1
102
RTVSPropertyOp54
 70
     1
102
RTVSPropertyOp55
 70
     1
102
RTVSPropertyOp56
 70
     1
102
RTVSPropertyOp57
 70
     1
102
RTVSPropertyOp58
 70
     1
102
RTVSPropertyOp59
 70
     1
102
RTVSPropertyOp60
 70
     1
102
RTVSPropertyOp61
 70
     1
102
RTVSPropertyOp62
 70
     1
  0
XRECORD
  5
1F9A1
102
{ACAD_REACTORS
330
1F9A0
102
}
330
1F9A0
100
AcDbXrecord
280
     1
102
RTVSPost2010Prop28
280
     0
102
RTVSPost2010PropOp28
 70
     1
102
RTVSPost2010Prop29
280
     1
102
RTVSPost2010PropOp29
 70
     1
102
RTVSPost2010Prop30
280
     1
102
RTVSPost2010PropOp30
 70
     1
102
RTVSPost2010Prop31
280
     0
102
RTVSPost2010PropOp31
 70
     1
102
RTVSPost2010Prop32
280
     0
102
RTVSPost2010PropOp32
 70
     1
102
RTVSPost2010Prop33
280
     0
102
RTVSPost2010PropOp33
 70
     1
102
RTVSPost2010Prop34
280
     0
102
RTVSPost2010PropOp34
 70
     1
102
RTVSPost2010Prop35
280
     0
102
RTVSPost2010PropOp35
 70
     1
102
RTVSPost2010Prop36
280
     0
102
RTVSPost2010PropOp36
 70
     1
102
RTVSPost2010Prop37
 90
       50
102
RTVSPost2010PropOp37
 70
     1
102
RTVSPost2010Prop38
140
0.0
102
RTVSPost2010PropOp38
 70
     1
102
RTVSPost2010Prop39
140
1.0
102
RTVSPost2010PropOp39
 70
     1
102
RTVSPost2010Prop40
 90
        0
102
RTVSPost2010PropOp40
 70
     1
102
RTVSPost2010Prop41ColorIndex
 90
       18
102
RTVSPost2010Prop41ColorRGB
 90
        0
102
RTVSPost2010PropOp41
 70
     1
102
RTVSPost2010Prop42
 90
       50
102
RTVSPost2010PropOp42
 70
     1
102
RTVSPost2010Prop43
 90
        3
102
RTVSPost2010PropOp43
 70
     1
102
RTVSPost2010Prop44ColorIndex
 90
        5
102
RTVSPost2010Prop44ColorRGB
 90
      255
102
RTVSPost2010PropOp44
 70
     1
102
RTVSPost2010Prop45
280
     0
102
RTVSPost2010PropOp45
 70
     1
102
RTVSPost2010Prop46
 90
       50
102
RTVSPost2010PropOp46
 70
     1
102
RTVSPost2010Prop47
 90
       50
102
RTVSPost2010PropOp47
 70
     1
102
RTVSPost2010Prop48
 90
       50
102
RTVSPost2010PropOp48
 70
     1
102
RTVSPost2010Prop49
280
     0
102
RTVSPost2010PropOp49
 70
     1
102
RTVSPost2010Prop50
 90
       50
102
RTVSPost2010PropOp50
 70
     1
102
RTVSPost2010Prop51ColorIndex
 90
      256
102
RTVSPost2010Prop51ColorRGB
 90
-16777216
102
RTVSPost2010PropOp51
 70
     0
102
RTVSPost2010Prop52
140
1.0
102
RTVSPost2010PropOp52
 70
     0
102
RTVSPost2010Prop53
 90
        2
102
RTVSPost2010PropOp53
 70
     1
102
RTVSPost2010Prop54
  1
strokes_ogs.tif
102
RTVSPost2010PropOp54
 70
     1
102
RTVSPost2010Prop55
280
     0
102
RTVSPost2010PropOp55
 70
     1
102
RTVSPost2010Prop56
140
1.0
102
RTVSPost2010PropOp56
 70
     1
102
RTVSPost2010Prop57
140
1.0
102
RTVSPost2010PropOp57
 70
     1
102
RTVSPropertyOp0
 70
     1
102
RTVSPropertyOp1
 70
     1
102
RTVSPropertyOp2
 70
     1
102
RTVSPropertyOp3
 70
     1
102
RTVSPropertyOp4
 70
     1
102
RTVSPropertyOp5
 70
     1
102
RTVSPropertyOp6
 70
     1
102
RTVSPropertyOp7
 70
     1
102
RTVSPropertyOp8
 70
     1
102
RTVSPropertyOp9
 70
     1
102
RTVSPropertyOp10
 70
     1
102
RTVSPropertyOp11
 70
     1
102
RTVSPropertyOp12
 70
     1
102
RTVSPropertyOp13
 70
     1
102
RTVSPropertyOp14
 70
     1
102
RTVSPropertyOp15
 70
     1
102
RTVSPropertyOp16
 70
     1
102
RTVSPropertyOp17
 70
     1
102
RTVSPropertyOp18
 70
     1
102
RTVSPropertyOp19
 70
     1
102
RTVSPropertyOp20
 70
     1
102
RTVSPropertyOp21
 70
     1
102
RTVSPropertyOp22
 70
     1
102
RTVSPropertyOp23
 70
     1
102
RTVSPropertyOp24
 70
     1
102
RTVSPropertyOp25
 70
     1
102
RTVSPropertyOp26
 70
     1
102
RTVSPropertyOp27
 70
     1
102
RTVSPropertyOp28
 70
     1
102
RTVSPropertyOp29
 70
     1
102
RTVSPropertyOp30
 70
     1
102
RTVSPropertyOp31
 70
     1
102
RTVSPropertyOp32
 70
     1
102
RTVSPropertyOp33
 70
     1
102
RTVSPropertyOp34
 70
     1
102
RTVSPropertyOp35
 70
     1
102
RTVSPropertyOp36
 70
     1
102
RTVSPropertyOp37
 70
     1
102
RTVSPropertyOp38
 70
     1
102
RTVSPropertyOp39
 70
     1
102
RTVSPropertyOp40
 70
     1
102
RTVSPropertyOp41
 70
     1
102
RTVSPropertyOp42
 70
     1
102
RTVSPropertyOp43
 70
     1
102
RTVSPropertyOp44
 70
     1
102
RTVSPropertyOp45
 70
     1
102
RTVSPropertyOp46
 70
     1
102
RTVSPropertyOp47
 70
     1
102
RTVSPropertyOp48
 70
     1
102
RTVSPropertyOp49
 70
     1
102
RTVSPropertyOp50
 70
     1
102
RTVSPropertyOp51
 70
     0
102
RTVSPropertyOp52
 70
     0
102
RTVSPropertyOp53
 70
     1
102
RTVSPropertyOp54
 70
     1
102
RTVSPropertyOp55
 70
     1
102
RTVSPropertyOp56
 70
     1
102
RTVSPropertyOp57
 70
     1
102
RTVSPropertyOp58
 70
     1
102
RTVSPropertyOp59
 70
     1
102
RTVSPropertyOp60
 70
     1
102
RTVSPropertyOp61
 70
     1
102
RTVSPropertyOp62
 70
     1
  0
XRECORD
  5
1F98F
102
{ACAD_REACTORS
330
1F98E
102
}
330
1F98E
100
AcDbXrecord
280
     1
102
RTVSPost2010Prop28
280
     0
102
RTVSPost2010PropOp28
 70
     1
102
RTVSPost2010Prop29
280
     1
102
RTVSPost2010PropOp29
 70
     1
102
RTVSPost2010Prop30
280
     1
102
RTVSPost2010PropOp30
 70
     1
102
RTVSPost2010Prop31
280
     0
102
RTVSPost2010PropOp31
 70
     1
102
RTVSPost2010Prop32
280
     0
102
RTVSPost2010PropOp32
 70
     1
102
RTVSPost2010Prop33
280
     0
102
RTVSPost2010PropOp33
 70
     1
102
RTVSPost2010Prop34
280
     0
102
RTVSPost2010PropOp34
 70
     1
102
RTVSPost2010Prop35
280
     0
102
RTVSPost2010PropOp35
 70
     1
102
RTVSPost2010Prop36
280
     0
102
RTVSPost2010PropOp36
 70
     1
102
RTVSPost2010Prop37
 90
       50
102
RTVSPost2010PropOp37
 70
     1
102
RTVSPost2010Prop38
140
0.0
102
RTVSPost2010PropOp38
 70
     1
102
RTVSPost2010Prop39
140
1.0
102
RTVSPost2010PropOp39
 70
     1
102
RTVSPost2010Prop40
 90
        0
102
RTVSPost2010PropOp40
 70
     1
102
RTVSPost2010Prop41ColorIndex
 90
       18
102
RTVSPost2010Prop41ColorRGB
 90
        0
102
RTVSPost2010PropOp41
 70
     1
102
RTVSPost2010Prop42
 90
       50
102
RTVSPost2010PropOp42
 70
     1
102
RTVSPost2010Prop43
 90
        3
102
RTVSPost2010PropOp43
 70
     1
102
RTVSPost2010Prop44ColorIndex
 90
        5
102
RTVSPost2010Prop44ColorRGB
 90
      255
102
RTVSPost2010PropOp44
 70
     1
102
RTVSPost2010Prop45
280
     0
102
RTVSPost2010PropOp45
 70
     1
102
RTVSPost2010Prop46
 90
       50
102
RTVSPost2010PropOp46
 70
     1
102
RTVSPost2010Prop47
 90
       50
102
RTVSPost2010PropOp47
 70
     1
102
RTVSPost2010Prop48
 90
       50
102
RTVSPost2010PropOp48
 70
     1
102
RTVSPost2010Prop49
280
     0
102
RTVSPost2010PropOp49
 70
     1
102
RTVSPost2010Prop50
 90
       50
102
RTVSPost2010PropOp50
 70
     1
102
RTVSPost2010Prop51ColorIndex
 90
      256
102
RTVSPost2010Prop51ColorRGB
 90
-16777216
102
RTVSPost2010PropOp51
 70
     0
102
RTVSPost2010Prop52
140
1.0
102
RTVSPost2010PropOp52
 70
     0
102
RTVSPost2010Prop53
 90
        2
102
RTVSPost2010PropOp53
 70
     1
102
RTVSPost2010Prop54
  1
strokes_ogs.tif
102
RTVSPost2010PropOp54
 70
     1
102
RTVSPost2010Prop55
280
     0
102
RTVSPost2010PropOp55
 70
     1
102
RTVSPost2010Prop56
140
1.0
102
RTVSPost2010PropOp56
 70
     1
102
RTVSPost2010Prop57
140
1.0
102
RTVSPost2010PropOp57
 70
     1
102
RTVSPropertyOp0
 70
     1
102
RTVSPropertyOp1
 70
     1
102
RTVSPropertyOp2
 70
     1
102
RTVSPropertyOp3
 70
     1
102
RTVSPropertyOp4
 70
     1
102
RTVSPropertyOp5
 70
     1
102
RTVSPropertyOp6
 70
     1
102
RTVSPropertyOp7
 70
     1
102
RTVSPropertyOp8
 70
     1
102
RTVSPropertyOp9
 70
     1
102
RTVSPropertyOp10
 70
     1
102
RTVSPropertyOp11
 70
     1
102
RTVSPropertyOp12
 70
     1
102
RTVSPropertyOp13
 70
     1
102
RTVSPropertyOp14
 70
     1
102
RTVSPropertyOp15
 70
     1
102
RTVSPropertyOp16
 70
     1
102
RTVSPropertyOp17
 70
     1
102
RTVSPropertyOp18
 70
     1
102
RTVSPropertyOp19
 70
     1
102
RTVSPropertyOp20
 70
     1
102
RTVSPropertyOp21
 70
     1
102
RTVSPropertyOp22
 70
     1
102
RTVSPropertyOp23
 70
     1
102
RTVSPropertyOp24
 70
     1
102
RTVSPropertyOp25
 70
     1
102
RTVSPropertyOp26
 70
     1
102
RTVSPropertyOp27
 70
     1
102
RTVSPropertyOp28
 70
     1
102
RTVSPropertyOp29
 70
     1
102
RTVSPropertyOp30
 70
     1
102
RTVSPropertyOp31
 70
     1
102
RTVSPropertyOp32
 70
     1
102
RTVSPropertyOp33
 70
     1
102
RTVSPropertyOp34
 70
     1
102
RTVSPropertyOp35
 70
     1
102
RTVSPropertyOp36
 70
     1
102
RTVSPropertyOp37
 70
     1
102
RTVSPropertyOp38
 70
     1
102
RTVSPropertyOp39
 70
     1
102
RTVSPropertyOp40
 70
     1
102
RTVSPropertyOp41
 70
     1
102
RTVSPropertyOp42
 70
     1
102
RTVSPropertyOp43
 70
     1
102
RTVSPropertyOp44
 70
     1
102
RTVSPropertyOp45
 70
     1
102
RTVSPropertyOp46
 70
     1
102
RTVSPropertyOp47
 70
     1
102
RTVSPropertyOp48
 70
     1
102
RTVSPropertyOp49
 70
     1
102
RTVSPropertyOp50
 70
     1
102
RTVSPropertyOp51
 70
     0
102
RTVSPropertyOp52
 70
     0
102
RTVSPropertyOp53
 70
     1
102
RTVSPropertyOp54
 70
     1
102
RTVSPropertyOp55
 70
     1
102
RTVSPropertyOp56
 70
     1
102
RTVSPropertyOp57
 70
     1
102
RTVSPropertyOp58
 70
     1
102
RTVSPropertyOp59
 70
     1
102
RTVSPropertyOp60
 70
     1
102
RTVSPropertyOp61
 70
     1
102
RTVSPropertyOp62
 70
     1
  0
XRECORD
  5
1F983
102
{ACAD_REACTORS
330
1F982
102
}
330
1F982
100
AcDbXrecord
280
     1
102
RTVSPost2010Prop28
280
     0
102
RTVSPost2010PropOp28
 70
     1
102
RTVSPost2010Prop29
280
     1
102
RTVSPost2010PropOp29
 70
     1
102
RTVSPost2010Prop30
280
     1
102
RTVSPost2010PropOp30
 70
     1
102
RTVSPost2010Prop31
280
     0
102
RTVSPost2010PropOp31
 70
     1
102
RTVSPost2010Prop32
280
     0
102
RTVSPost2010PropOp32
 70
     1
102
RTVSPost2010Prop33
280
     0
102
RTVSPost2010PropOp33
 70
     1
102
RTVSPost2010Prop34
280
     0
102
RTVSPost2010PropOp34
 70
     1
102
RTVSPost2010Prop35
280
     0
102
RTVSPost2010PropOp35
 70
     1
102
RTVSPost2010Prop36
280
     0
102
RTVSPost2010PropOp36
 70
     1
102
RTVSPost2010Prop37
 90
       50
102
RTVSPost2010PropOp37
 70
     1
102
RTVSPost2010Prop38
140
0.0
102
RTVSPost2010PropOp38
 70
     1
102
RTVSPost2010Prop39
140
1.0
102
RTVSPost2010PropOp39
 70
     1
102
RTVSPost2010Prop40
 90
        0
102
RTVSPost2010PropOp40
 70
     1
102
RTVSPost2010Prop41ColorIndex
 90
       18
102
RTVSPost2010Prop41ColorRGB
 90
        0
102
RTVSPost2010PropOp41
 70
     1
102
RTVSPost2010Prop42
 90
       50
102
RTVSPost2010PropOp42
 70
     1
102
RTVSPost2010Prop43
 90
        3
102
RTVSPost2010PropOp43
 70
     1
102
RTVSPost2010Prop44ColorIndex
 90
        5
102
RTVSPost2010Prop44ColorRGB
 90
      255
102
RTVSPost2010PropOp44
 70
     1
102
RTVSPost2010Prop45
280
     0
102
RTVSPost2010PropOp45
 70
     1
102
RTVSPost2010Prop46
 90
       50
102
RTVSPost2010PropOp46
 70
     1
102
RTVSPost2010Prop47
 90
       50
102
RTVSPost2010PropOp47
 70
     1
102
RTVSPost2010Prop48
 90
       50
102
RTVSPost2010PropOp48
 70
     1
102
RTVSPost2010Prop49
280
     0
102
RTVSPost2010PropOp49
 70
     1
102
RTVSPost2010Prop50
 90
       50
102
RTVSPost2010PropOp50
 70
     1
102
RTVSPost2010Prop51ColorIndex
 90
      256
102
RTVSPost2010Prop51ColorRGB
 90
-16777216
102
RTVSPost2010PropOp51
 70
     0
102
RTVSPost2010Prop52
140
1.0
102
RTVSPost2010PropOp52
 70
     0
102
RTVSPost2010Prop53
 90
        2
102
RTVSPost2010PropOp53
 70
     1
102
RTVSPost2010Prop54
  1
strokes_ogs.tif
102
RTVSPost2010PropOp54
 70
     1
102
RTVSPost2010Prop55
280
     0
102
RTVSPost2010PropOp55
 70
     1
102
RTVSPost2010Prop56
140
1.0
102
RTVSPost2010PropOp56
 70
     1
102
RTVSPost2010Prop57
140
1.0
102
RTVSPost2010PropOp57
 70
     1
102
RTVSPropertyOp0
 70
     1
102
RTVSPropertyOp1
 70
     1
102
RTVSPropertyOp2
 70
     1
102
RTVSPropertyOp3
 70
     1
102
RTVSPropertyOp4
 70
     1
102
RTVSPropertyOp5
 70
     1
102
RTVSPropertyOp6
 70
     1
102
RTVSPropertyOp7
 70
     1
102
RTVSPropertyOp8
 70
     1
102
RTVSPropertyOp9
 70
     1
102
RTVSPropertyOp10
 70
     1
102
RTVSPropertyOp11
 70
     1
102
RTVSPropertyOp12
 70
     1
102
RTVSPropertyOp13
 70
     1
102
RTVSPropertyOp14
 70
     1
102
RTVSPropertyOp15
 70
     1
102
RTVSPropertyOp16
 70
     1
102
RTVSPropertyOp17
 70
     1
102
RTVSPropertyOp18
 70
     1
102
RTVSPropertyOp19
 70
     1
102
RTVSPropertyOp20
 70
     1
102
RTVSPropertyOp21
 70
     1
102
RTVSPropertyOp22
 70
     1
102
RTVSPropertyOp23
 70
     1
102
RTVSPropertyOp24
 70
     1
102
RTVSPropertyOp25
 70
     1
102
RTVSPropertyOp26
 70
     1
102
RTVSPropertyOp27
 70
     1
102
RTVSPropertyOp28
 70
     1
102
RTVSPropertyOp29
 70
     1
102
RTVSPropertyOp30
 70
     1
102
RTVSPropertyOp31
 70
     1
102
RTVSPropertyOp32
 70
     1
102
RTVSPropertyOp33
 70
     1
102
RTVSPropertyOp34
 70
     1
102
RTVSPropertyOp35
 70
     1
102
RTVSPropertyOp36
 70
     1
102
RTVSPropertyOp37
 70
     1
102
RTVSPropertyOp38
 70
     1
102
RTVSPropertyOp39
 70
     1
102
RTVSPropertyOp40
 70
     1
102
RTVSPropertyOp41
 70
     1
102
RTVSPropertyOp42
 70
     1
102
RTVSPropertyOp43
 70
     1
102
RTVSPropertyOp44
 70
     1
102
RTVSPropertyOp45
 70
     1
102
RTVSPropertyOp46
 70
     1
102
RTVSPropertyOp47
 70
     1
102
RTVSPropertyOp48
 70
     1
102
RTVSPropertyOp49
 70
     1
102
RTVSPropertyOp50
 70
     1
102
RTVSPropertyOp51
 70
     0
102
RTVSPropertyOp52
 70
     0
102
RTVSPropertyOp53
 70
     1
102
RTVSPropertyOp54
 70
     1
102
RTVSPropertyOp55
 70
     1
102
RTVSPropertyOp56
 70
     1
102
RTVSPropertyOp57
 70
     1
102
RTVSPropertyOp58
 70
     1
102
RTVSPropertyOp59
 70
     1
102
RTVSPropertyOp60
 70
     1
102
RTVSPropertyOp61
 70
     1
102
RTVSPropertyOp62
 70
     1
  0
XRECORD
  5
1F9A3
102
{ACAD_REACTORS
330
1F9A2
102
}
330
1F9A2
100
AcDbXrecord
280
     1
102
RTVSPost2010Prop28
280
     0
102
RTVSPost2010PropOp28
 70
     1
102
RTVSPost2010Prop29
280
     1
102
RTVSPost2010PropOp29
 70
     1
102
RTVSPost2010Prop30
280
     1
102
RTVSPost2010PropOp30
 70
     1
102
RTVSPost2010Prop31
280
     0
102
RTVSPost2010PropOp31
 70
     1
102
RTVSPost2010Prop32
280
     0
102
RTVSPost2010PropOp32
 70
     1
102
RTVSPost2010Prop33
280
     0
102
RTVSPost2010PropOp33
 70
     1
102
RTVSPost2010Prop34
280
     0
102
RTVSPost2010PropOp34
 70
     1
102
RTVSPost2010Prop35
280
     0
102
RTVSPost2010PropOp35
 70
     1
102
RTVSPost2010Prop36
280
     0
102
RTVSPost2010PropOp36
 70
     1
102
RTVSPost2010Prop37
 90
       50
102
RTVSPost2010PropOp37
 70
     1
102
RTVSPost2010Prop38
140
0.0
102
RTVSPost2010PropOp38
 70
     1
102
RTVSPost2010Prop39
140
1.0
102
RTVSPost2010PropOp39
 70
     1
102
RTVSPost2010Prop40
 90
        0
102
RTVSPost2010PropOp40
 70
     1
102
RTVSPost2010Prop41ColorIndex
 90
       18
102
RTVSPost2010Prop41ColorRGB
 90
        0
102
RTVSPost2010PropOp41
 70
     1
102
RTVSPost2010Prop42
 90
       50
102
RTVSPost2010PropOp42
 70
     1
102
RTVSPost2010Prop43
 90
        3
102
RTVSPost2010PropOp43
 70
     1
102
RTVSPost2010Prop44ColorIndex
 90
        5
102
RTVSPost2010Prop44ColorRGB
 90
      255
102
RTVSPost2010PropOp44
 70
     1
102
RTVSPost2010Prop45
280
     0
102
RTVSPost2010PropOp45
 70
     1
102
RTVSPost2010Prop46
 90
       50
102
RTVSPost2010PropOp46
 70
     1
102
RTVSPost2010Prop47
 90
       50
102
RTVSPost2010PropOp47
 70
     1
102
RTVSPost2010Prop48
 90
       50
102
RTVSPost2010PropOp48
 70
     1
102
RTVSPost2010Prop49
280
     0
102
RTVSPost2010PropOp49
 70
     1
102
RTVSPost2010Prop50
 90
       50
102
RTVSPost2010PropOp50
 70
     1
102
RTVSPost2010Prop51ColorIndex
 90
      256
102
RTVSPost2010Prop51ColorRGB
 90
-16777216
102
RTVSPost2010PropOp51
 70
     0
102
RTVSPost2010Prop52
140
1.0
102
RTVSPost2010PropOp52
 70
     0
102
RTVSPost2010Prop53
 90
        2
102
RTVSPost2010PropOp53
 70
     1
102
RTVSPost2010Prop54
  1
strokes_ogs.tif
102
RTVSPost2010PropOp54
 70
     1
102
RTVSPost2010Prop55
280
     0
102
RTVSPost2010PropOp55
 70
     1
102
RTVSPost2010Prop56
140
1.0
102
RTVSPost2010PropOp56
 70
     1
102
RTVSPost2010Prop57
140
1.0
102
RTVSPost2010PropOp57
 70
     1
102
RTVSPropertyOp0
 70
     1
102
RTVSPropertyOp1
 70
     1
102
RTVSPropertyOp2
 70
     1
102
RTVSPropertyOp3
 70
     1
102
RTVSPropertyOp4
 70
     1
102
RTVSPropertyOp5
 70
     1
102
RTVSPropertyOp6
 70
     1
102
RTVSPropertyOp7
 70
     1
102
RTVSPropertyOp8
 70
     1
102
RTVSPropertyOp9
 70
     1
102
RTVSPropertyOp10
 70
     1
102
RTVSPropertyOp11
 70
     1
102
RTVSPropertyOp12
 70
     1
102
RTVSPropertyOp13
 70
     1
102
RTVSPropertyOp14
 70
     1
102
RTVSPropertyOp15
 70
     1
102
RTVSPropertyOp16
 70
     1
102
RTVSPropertyOp17
 70
     1
102
RTVSPropertyOp18
 70
     1
102
RTVSPropertyOp19
 70
     1
102
RTVSPropertyOp20
 70
     1
102
RTVSPropertyOp21
 70
     1
102
RTVSPropertyOp22
 70
     1
102
RTVSPropertyOp23
 70
     1
102
RTVSPropertyOp24
 70
     1
102
RTVSPropertyOp25
 70
     1
102
RTVSPropertyOp26
 70
     1
102
RTVSPropertyOp27
 70
     1
102
RTVSPropertyOp28
 70
     1
102
RTVSPropertyOp29
 70
     1
102
RTVSPropertyOp30
 70
     1
102
RTVSPropertyOp31
 70
     1
102
RTVSPropertyOp32
 70
     1
102
RTVSPropertyOp33
 70
     1
102
RTVSPropertyOp34
 70
     1
102
RTVSPropertyOp35
 70
     1
102
RTVSPropertyOp36
 70
     1
102
RTVSPropertyOp37
 70
     1
102
RTVSPropertyOp38
 70
     1
102
RTVSPropertyOp39
 70
     1
102
RTVSPropertyOp40
 70
     1
102
RTVSPropertyOp41
 70
     1
102
RTVSPropertyOp42
 70
     1
102
RTVSPropertyOp43
 70
     1
102
RTVSPropertyOp44
 70
     1
102
RTVSPropertyOp45
 70
     1
102
RTVSPropertyOp46
 70
     1
102
RTVSPropertyOp47
 70
     1
102
RTVSPropertyOp48
 70
     1
102
RTVSPropertyOp49
 70
     1
102
RTVSPropertyOp50
 70
     1
102
RTVSPropertyOp51
 70
     0
102
RTVSPropertyOp52
 70
     0
102
RTVSPropertyOp53
 70
     1
102
RTVSPropertyOp54
 70
     1
102
RTVSPropertyOp55
 70
     1
102
RTVSPropertyOp56
 70
     1
102
RTVSPropertyOp57
 70
     1
102
RTVSPropertyOp58
 70
     1
102
RTVSPropertyOp59
 70
     1
102
RTVSPropertyOp60
 70
     1
102
RTVSPropertyOp61
 70
     1
102
RTVSPropertyOp62
 70
     1
  0
ENDSEC
  0
EOF
