  0
SECTION
  2
HEADER
  9
$ACADVER
  1
AC1015
  9
$ACADMAINTVER
 70
    18
  9
$DWGCODEPAGE
  3
ANSI_1252
  9
$INSBASE
 10
0.0
 20
0.0
 30
0.0
  9
$EXTMIN
 10
-144.0021339788006
 20
-281.6526772956254
 30
-0.0015258207003583
  9
$EXTMAX
 10
194.3750508981391
 20
184.3120318315955
 30
0.0000000349246037
  9
$LIMMIN
 10
0.0
 20
0.0
  9
$LIMMAX
 10
420.0
 20
297.0
  9
$ORTHOMODE
 70
     0
  9
$REGENMODE
 70
     1
  9
$FILLMODE
 70
     1
  9
$QTEXTMODE
 70
     0
  9
$MIRRTEXT
 70
     0
  9
$LTSCALE
 40
1.0
  9
$ATTMODE
 70
     1
  9
$TEXTSIZE
 40
2.5
  9
$TRACEWID
 40
1.0
  9
$TEXTSTYLE
  7
Standard
  9
$CLAYER
  8
0
  9
$CELTYPE
  6
ByLayer
  9
$CECOLOR
 62
   256
  9
$CELTSCALE
 40
1.0
  9
$DISPSILH
 70
     0
  9
$DIMSCALE
 40
1.0
  9
$DIMASZ
 40
2.5
  9
$DIMEXO
 40
0.625
  9
$DIMDLI
 40
3.75
  9
$DIMRND
 40
0.0
  9
$DIMDLE
 40
0.0
  9
$DIMEXE
 40
1.25
  9
$DIMTP
 40
0.0
  9
$DIMTM
 40
0.0
  9
$DIMTXT
 40
2.5
  9
$DIMCEN
 40
2.5
  9
$DIMTSZ
 40
0.0
  9
$DIMTOL
 70
     0
  9
$DIMLIM
 70
     0
  9
$DIMTIH
 70
     0
  9
$DIMTOH
 70
     0
  9
$DIMSE1
 70
     0
  9
$DIMSE2
 70
     0
  9
$DIMTAD
 70
     1
  9
$DIMZIN
 70
     8
  9
$DIMBLK
  1

  9
$DIMASO
 70
     1
  9
$DIMSHO
 70
     1
  9
$DIMPOST
  1

  9
$DIMAPOST
  1

  9
$DIMALT
 70
     0
  9
$DIMALTD
 70
     3
  9
$DIMALTF
 40
0.03937007874016
  9
$DIMLFAC
 40
1.0
  9
$DIMTOFL
 70
     1
  9
$DIMTVP
 40
0.0
  9
$DIMTIX
 70
     0
  9
$DIMSOXD
 70
     0
  9
$DIMSAH
 70
     0
  9
$DIMBLK1
  1

  9
$DIMBLK2
  1

  9
$DIMSTYLE
  2
ISO-25
  9
$DIMCLRD
 70
     0
  9
$DIMCLRE
 70
     0
  9
$DIMCLRT
 70
     0
  9
$DIMTFAC
 40
1.0
  9
$DIMGAP
 40
0.625
  9
$DIMJUST
 70
     0
  9
$DIMSD1
 70
     0
  9
$DIMSD2
 70
     0
  9
$DIMTOLJ
 70
     0
  9
$DIMTZIN
 70
     8
  9
$DIMALTZ
 70
     0
  9
$DIMALTTZ
 70
     0
  9
$DIMUPT
 70
     0
  9
$DIMDEC
 70
     2
  9
$DIMTDEC
 70
     2
  9
$DIMALTU
 70
     2
  9
$DIMALTTD
 70
     3
  9
$DIMTXSTY
  7
Standard
  9
$DIMAUNIT
 70
     0
  9
$DIMADEC
 70
     0
  9
$DIMALTRND
 40
0.0
  9
$DIMAZIN
 70
     0
  9
$DIMDSEP
 70
    44
  9
$DIMATFIT
 70
     3
  9
$DIMFRAC
 70
     0
  9
$DIMLDRBLK
  1

  9
$DIMLUNIT
 70
     2
  9
$DIMLWD
 70
    -2
  9
$DIMLWE
 70
    -2
  9
$DIMTMOVE
 70
     0
  9
$LUNITS
 70
     2
  9
$LUPREC
 70
     4
  9
$SKETCHINC
 40
1.0
  9
$FILLETRAD
 40
0.0
  9
$AUNITS
 70
     0
  9
$AUPREC
 70
     0
  9
$MENU
  1
.
  9
$ELEVATION
 40
0.0
  9
$PELEVATION
 40
0.0
  9
$THICKNESS
 40
0.0
  9
$LIMCHECK
 70
     0
  9
$CHAMFERA
 40
0.0
  9
$CHAMFERB
 40
0.0
  9
$CHAMFERC
 40
0.0
  9
$CHAMFERD
 40
0.0
  9
$SKPOLY
 70
     0
  9
$TDCREATE
 40
2460367.705740741
  9
$TDUCREATE
 40
2460367.414074074
  9
$TDUPDATE
 40
2460368.358460648
  9
$TDUUPDATE
 40
2460368.066793982
  9
$TDINDWG
 40
0.0096875000
  9
$TDUSRTIMER
 40
0.0096875000
  9
$USRTIMER
 70
     1
  9
$ANGBASE
 50
0.0
  9
$ANGDIR
 70
     0
  9
$PDMODE
 70
     0
  9
$PDSIZE
 40
0.0
  9
$PLINEWID
 40
0.0
  9
$SPLFRAME
 70
     0
  9
$SPLINETYPE
 70
     6
  9
$SPLINESEGS
 70
     8
  9
$HANDSEED
  5
7C46
  9
$SURFTAB1
 70
     6
  9
$SURFTAB2
 70
     6
  9
$SURFTYPE
 70
     6
  9
$SURFU
 70
     6
  9
$SURFV
 70
     6
  9
$UCSBASE
  2

  9
$UCSNAME
  2

  9
$UCSORG
 10
0.0
 20
0.0
 30
0.0
  9
$UCSXDIR
 10
1.0
 20
0.0
 30
0.0
  9
$UCSYDIR
 10
0.0
 20
1.0
 30
0.0
  9
$UCSORTHOREF
  2

  9
$UCSORTHOVIEW
 70
     0
  9
$UCSORGTOP
 10
0.0
 20
0.0
 30
0.0
  9
$UCSORGBOTTOM
 10
0.0
 20
0.0
 30
0.0
  9
$UCSORGLEFT
 10
0.0
 20
0.0
 30
0.0
  9
$UCSORGRIGHT
 10
0.0
 20
0.0
 30
0.0
  9
$UCSORGFRONT
 10
0.0
 20
0.0
 30
0.0
  9
$UCSORGBACK
 10
0.0
 20
0.0
 30
0.0
  9
$PUCSBASE
  2

  9
$PUCSNAME
  2

  9
$PUCSORG
 10
0.0
 20
0.0
 30
0.0
  9
$PUCSXDIR
 10
1.0
 20
0.0
 30
0.0
  9
$PUCSYDIR
 10
0.0
 20
1.0
 30
0.0
  9
$PUCSORTHOREF
  2

  9
$PUCSORTHOVIEW
 70
     0
  9
$PUCSORGTOP
 10
0.0
 20
0.0
 30
0.0
  9
$PUCSORGBOTTOM
 10
0.0
 20
0.0
 30
0.0
  9
$PUCSORGLEFT
 10
0.0
 20
0.0
 30
0.0
  9
$PUCSORGRIGHT
 10
0.0
 20
0.0
 30
0.0
  9
$PUCSORGFRONT
 10
0.0
 20
0.0
 30
0.0
  9
$PUCSORGBACK
 10
0.0
 20
0.0
 30
0.0
  9
$USERI1
 70
     0
  9
$USERI2
 70
     0
  9
$USERI3
 70
     0
  9
$USERI4
 70
     0
  9
$USERI5
 70
     0
  9
$USERR1
 40
0.0
  9
$USERR2
 40
0.0
  9
$USERR3
 40
0.0
  9
$USERR4
 40
0.0
  9
$USERR5
 40
0.0
  9
$WORLDVIEW
 70
     1
  9
$SHADEDGE
 70
     3
  9
$SHADEDIF
 70
    70
  9
$TILEMODE
 70
     1
  9
$MAXACTVP
 70
    48
  9
$PINSBASE
 10
0.0
 20
0.0
 30
0.0
  9
$PLIMCHECK
 70
     0
  9
$PEXTMIN
 10
0.0
 20
0.0
 30
0.0
  9
$PEXTMAX
 10
0.0
 20
0.0
 30
0.0
  9
$PLIMMIN
 10
0.0
 20
0.0
  9
$PLIMMAX
 10
12.0
 20
9.0
  9
$UNITMODE
 70
     0
  9
$VISRETAIN
 70
     1
  9
$PLINEGEN
 70
     0
  9
$PSLTSCALE
 70
     1
  9
$TREEDEPTH
 70
  3020
  9
$CMLSTYLE
  2
Standard
  9
$CMLJUST
 70
     0
  9
$CMLSCALE
 40
20.0
  9
$PROXYGRAPHICS
 70
     1
  9
$MEASUREMENT
 70
     1
  9
$CELWEIGHT
370
    -1
  9
$ENDCAPS
280
     0
  9
$JOINSTYLE
280
     0
  9
$LWDISPLAY
290
     0
  9
$INSUNITS
 70
     4
  9
$HYPERLINKBASE
  1

  9
$STYLESHEET
  1

  9
$XEDIT
290
     1
  9
$CEPSNTYPE
380
     0
  9
$PSTYLEMODE
290
     1
  9
$FINGERPRINTGUID
  2
{09ACAAAA-6FF3-F94C-B944-1C0D1F37C415}
  9
$VERSIONGUID
  2
{82D2FFEC-A618-004B-9E8E-0921A2CF61FF}
  9
$EXTNAMES
290
     1
  9
$PSVPSCALE
 40
0.0
  9
$OLESTARTUP
290
     0
  0
ENDSEC
  0
SECTION
  2
CLASSES
  0
CLASS
  1
ACDBDICTIONARYWDFLT
  2
AcDbDictionaryWithDefault
  3
ObjectDBX Classes
 90
        0
280
     0
281
     0
  0
CLASS
  1
ACDBPLACEHOLDER
  2
AcDbPlaceHolder
  3
ObjectDBX Classes
 90
        0
280
     0
281
     0
  0
CLASS
  1
LAYOUT
  2
AcDbLayout
  3
ObjectDBX Classes
 90
        0
280
     0
281
     0
  0
CLASS
  1
DICTIONARYVAR
  2
AcDbDictionaryVar
  3
ObjectDBX Classes
 90
        0
280
     0
281
     0
  0
CLASS
  1
TABLESTYLE
  2
AcDbTableStyle
  3
ObjectDBX Classes
 90
     4095
280
     0
281
     0
  0
CLASS
  1
MATERIAL
  2
AcDbMaterial
  3
ObjectDBX Classes
 90
     1153
280
     0
281
     0
  0
CLASS
  1
VISUALSTYLE
  2
AcDbVisualStyle
  3
ObjectDBX Classes
 90
     4095
280
     0
281
     0
  0
CLASS
  1
SCALE
  2
AcDbScale
  3
ObjectDBX Classes
 90
     1153
280
     0
281
     0
  0
CLASS
  1
MLEADERSTYLE
  2
AcDbMLeaderStyle
  3
ACDB_MLEADERSTYLE_CLASS
 90
     4095
280
     0
281
     0
  0
CLASS
  1
CELLSTYLEMAP
  2
AcDbCellStyleMap
  3
ObjectDBX Classes
 90
     1152
280
     0
281
     0
  0
CLASS
  1
EXACXREFPANELOBJECT
  2
ExAcXREFPanelObject
  3
EXAC_ESW
 90
    33793
280
     0
281
     0
  0
CLASS
  1
NPOCOLLECTION
  2
AcDbImpNonPersistentObjectsCollection
  3
ObjectDBX Classes
 90
    33921
280
     0
281
     0
  0
CLASS
  1
LAYER_INDEX
  2
AcDbLayerIndex
  3
ObjectDBX Classes
 90
    32768
280
     0
281
     0
  0
CLASS
  1
SPATIAL_INDEX
  2
AcDbSpatialIndex
  3
ObjectDBX Classes
 90
    32768
280
     0
281
     0
  0
CLASS
  1
IDBUFFER
  2
AcDbIdBuffer
  3
ObjectDBX Classes
 90
    32768
280
     0
281
     0
  0
CLASS
  1
ACDBSECTIONVIEWSTYLE
  2
AcDbSectionViewStyle
  3
ObjectDBX Classes
 90
     1025
280
     0
281
     0
  0
CLASS
  1
ACDBDETAILVIEWSTYLE
  2
AcDbDetailViewStyle
  3
ObjectDBX Classes
 90
     1025
280
     0
281
     0
  0
CLASS
  1
XRECORD
  2
AcDbXrecord
  3
ObjectDBX Classes
 90
        0
280
     0
281
     0
  0
ENDSEC
  0
SECTION
  2
TABLES
  0
TABLE
  2
VPORT
  5
8
102
{ACAD_XDICTIONARY
360
7ABF
102
}
330
0
100
AcDbSymbolTable
 70
     1
  0
VPORT
  5
EA
330
8
100
AcDbSymbolTableRecord
100
AcDbViewportTableRecord
  2
*Active
 70
     0
 10
0.0
 20
0.0
 11
1.0
 21
1.0
 12
25.18645845966921
 22
-48.67032273201494
 13
0.0
 23
0.0
 14
10.0
 24
10.0
 15
10.0
 25
10.0
 16
0.0
 26
0.0
 36
1.0
 17
0.0
 27
0.0
 37
0.0
 40
495.5112408897337
 41
0.9846153846153846
 42
50.0
 43
0.0
 44
0.0
 50
0.0
 51
0.0
 71
     0
 72
  1000
 73
     1
 74
     3
 75
     0
 76
     1
 77
     0
 78
     0
281
     0
 65
     1
110
0.0
120
0.0
130
0.0
111
1.0
121
0.0
131
0.0
112
0.0
122
1.0
132
0.0
 79
     0
146
0.0
1001
ACAD_NAV_VCDISPLAY
1070
     3
  0
ENDTAB
  0
TABLE
  2
LTYPE
  5
5
330
0
100
AcDbSymbolTable
 70
     1
  0
LTYPE
  5
14
330
5
100
AcDbSymbolTableRecord
100
AcDbLinetypeTableRecord
  2
ByBlock
 70
     0
  3

 72
    65
 73
     0
 40
0.0
  0
LTYPE
  5
15
330
5
100
AcDbSymbolTableRecord
100
AcDbLinetypeTableRecord
  2
ByLayer
 70
     0
  3

 72
    65
 73
     0
 40
0.0
  0
LTYPE
  5
16
330
5
100
AcDbSymbolTableRecord
100
AcDbLinetypeTableRecord
  2
Continuous
 70
     0
  3
Solid line
 72
    65
 73
     0
 40
0.0
  0
ENDTAB
  0
TABLE
  2
LAYER
  5
2
102
{ACAD_XDICTIONARY
360
1FF
102
}
330
0
100
AcDbSymbolTable
 70
     1
  0
LAYER
  5
10
102
{ACAD_XDICTIONARY
360
13C
102
}
330
2
100
AcDbSymbolTableRecord
100
AcDbLayerTableRecord
  2
0
 70
     0
 62
     7
  6
Continuous
370
    -3
390
F
  0
ENDTAB
  0
TABLE
  2
STYLE
  5
3
330
0
100
AcDbSymbolTable
 70
     1
  0
STYLE
  5
11
330
3
100
AcDbSymbolTableRecord
100
AcDbTextStyleTableRecord
  2
Standard
 70
     0
 40
0.0
 41
1.0
 50
0.0
 71
     0
 42
2.5
  3
arial.ttf
  4

1001
ACAD
1000
Arial
1071
       34
  0
ENDTAB
  0
TABLE
  2
VIEW
  5
6
330
0
100
AcDbSymbolTable
 70
     0
  0
ENDTAB
  0
TABLE
  2
UCS
  5
7
330
0
100
AcDbSymbolTable
 70
     0
  0
ENDTAB
  0
TABLE
  2
APPID
  5
9
330
0
100
AcDbSymbolTable
 70
     9
  0
APPID
  5
12
330
9
100
AcDbSymbolTableRecord
100
AcDbRegAppTableRecord
  2
ACAD
 70
     0
  0
APPID
  5
9E
330
9
100
AcDbSymbolTableRecord
100
AcDbRegAppTableRecord
  2
ACAD_PSEXT
 70
     0
  0
APPID
  5
133
330
9
100
AcDbSymbolTableRecord
100
AcDbRegAppTableRecord
  2
AcadAnnoPO
 70
     0
  0
APPID
  5
134
330
9
100
AcDbSymbolTableRecord
100
AcDbRegAppTableRecord
  2
AcadAnnotative
 70
     0
  0
APPID
  5
135
330
9
100
AcDbSymbolTableRecord
100
AcDbRegAppTableRecord
  2
ACAD_DSTYLE_DIMJAG
 70
     0
  0
APPID
  5
136
330
9
100
AcDbSymbolTableRecord
100
AcDbRegAppTableRecord
  2
ACAD_DSTYLE_DIMTALN
 70
     0
  0
APPID
  5
165
330
9
100
AcDbSymbolTableRecord
100
AcDbRegAppTableRecord
  2
ACAD_MLEADERVER
 70
     0
  0
APPID
  5
217
330
9
100
AcDbSymbolTableRecord
100
AcDbRegAppTableRecord
  2
ACAD_NAV_VCDISPLAY
 70
     0
  0
APPID
  5
7B6E
330
9
100
AcDbSymbolTableRecord
100
AcDbRegAppTableRecord
  2
ACAD_EXEMPT_FROM_CAD_STANDARDS
 70
     0
  0
ENDTAB
  0
TABLE
  2
DIMSTYLE
  5
A
330
0
100
AcDbSymbolTable
 70
     1
100
AcDbDimStyleTable
 71
     0
  0
DIMSTYLE
105
27
330
A
100
AcDbSymbolTableRecord
100
AcDbDimStyleTableRecord
  2
ISO-25
 70
     0
 41
2.5
 42
0.625
 43
3.75
 44
1.25
 73
     0
 74
     0
 77
     1
 78
     8
140
2.5
141
2.5
143
0.03937007874016
147
0.625
171
     3
172
     1
271
     2
272
     2
274
     3
278
    44
283
     0
284
     8
340
11
  0
ENDTAB
  0
TABLE
  2
BLOCK_RECORD
  5
1
330
0
100
AcDbSymbolTable
 70
     7
  0
BLOCK_RECORD
  5
1F
102
{ACAD_XDICTIONARY
360
1CE
102
}
330
1
100
AcDbSymbolTableRecord
100
AcDbBlockTableRecord
  2
*Model_Space
340
22
  0
BLOCK_RECORD
  5
D2
102
{ACAD_XDICTIONARY
360
7A72
102
}
330
1
100
AcDbSymbolTableRecord
100
AcDbBlockTableRecord
  2
*Paper_Space
340
D3
  0
BLOCK_RECORD
  5
D6
102
{ACAD_XDICTIONARY
360
7A74
102
}
330
1
100
AcDbSymbolTableRecord
100
AcDbBlockTableRecord
  2
*Paper_Space0
340
D7
  0
BLOCK_RECORD
  5
7800
330
1
100
AcDbSymbolTableRecord
100
AcDbBlockTableRecord
  2
TUSR16-Front
340
0
102
{BLKREFS
331
7A68
102
}
  0
BLOCK_RECORD
  5
7873
330
1
100
AcDbSymbolTableRecord
100
AcDbBlockTableRecord
  2
TUSR16-Left
340
0
102
{BLKREFS
331
7A69
102
}
  0
BLOCK_RECORD
  5
78D3
330
1
100
AcDbSymbolTableRecord
100
AcDbBlockTableRecord
  2
TUSR16-Right
340
0
102
{BLKREFS
331
7A6A
102
}
  0
BLOCK_RECORD
  5
7932
330
1
100
AcDbSymbolTableRecord
100
AcDbBlockTableRecord
  2
TUSR16-Top
340
0
102
{BLKREFS
331
7A6B
102
}
  0
BLOCK_RECORD
  5
7984
330
1
100
AcDbSymbolTableRecord
100
AcDbBlockTableRecord
  2
TUSR16-Bottom
340
0
102
{BLKREFS
331
7A6C
102
}
  0
BLOCK_RECORD
  5
79B3
330
1
100
AcDbSymbolTableRecord
100
AcDbBlockTableRecord
  2
TUSR16-ISO
340
0
102
{BLKREFS
331
7A6D
102
}
  0
ENDTAB
  0
ENDSEC
  0
SECTION
  2
BLOCKS
  0
BLOCK
  5
20
330
1F
100
AcDbEntity
  8
0
100
AcDbBlockBegin
  2
*Model_Space
 70
     0
 10
0.0
 20
0.0
 30
0.0
  3
*Model_Space
  1

  0
ENDBLK
  5
21
330
1F
100
AcDbEntity
  8
0
100
AcDbBlockEnd
  0
BLOCK
  5
D4
330
D2
100
AcDbEntity
 67
     1
  8
0
100
AcDbBlockBegin
  2
*Paper_Space
 70
     0
 10
0.0
 20
0.0
 30
0.0
  3
*Paper_Space
  1

  0
ENDBLK
  5
D5
330
D2
100
AcDbEntity
 67
     1
  8
0
100
AcDbBlockEnd
  0
BLOCK
  5
D8
330
D6
100
AcDbEntity
 67
     1
  8
0
100
AcDbBlockBegin
  2
*Paper_Space0
 70
     0
 10
0.0
 20
0.0
 30
0.0
  3
*Paper_Space0
  1

  0
ENDBLK
  5
D9
330
D6
100
AcDbEntity
 67
     1
  8
0
100
AcDbBlockEnd
  0
BLOCK
  5
7801
330
7800
100
AcDbEntity
  8
0
100
AcDbBlockBegin
  2
TUSR16-Front
 70
     0
 10
0.0
 20
0.0
 30
0.0
  3
TUSR16-Front
  1

  0
LINE
  5
7803
330
7800
100
AcDbEntity
  8
0
100
AcDbLine
 10
1.75735934355965
 20
-3.249999999999965
 30
0.0
 11
-0.363961000000001
 21
-3.24999999999999
 31
0.0
  0
SPLINE
  5
7804
330
7800
100
AcDbEntity
  8
0
100
AcDbSpline
210
0.0
220
0.0
230
1.0
 70
     8
 71
     3
 72
    16
 73
    12
 74
     0
 42
0.000000001
 43
0.0000000001
 40
0.1545754483188909
 40
0.1545754483188909
 40
0.1545754483188909
 40
0.1545754483188909
 40
0.2062667644209899
 40
0.2062667644209899
 40
0.2777024473163609
 40
0.2777024473163609
 40
0.3211152132673665
 40
0.3211152132673665
 40
0.3462401103336958
 40
0.3462401103336958
 40
0.379758475389364
 40
0.379758475389364
 40
0.379758475389364
 40
0.379758475389364
 10
1.72398480156701
 20
-31.98585471220051
 30
0.0
 10
1.460962199945131
 20
-32.05986279061429
 30
0.0
 10
1.208020265027005
 20
-32.1582667395248
 30
0.0
 10
0.6503203335380415
 20
-32.44449282992045
 30
0.0
 10
0.3672970280337573
 20
-32.65015181185491
 30
0.0
 10
0.0097836566055598
 20
-33.03454572051459
 30
0.0
 10
-0.1069672561507806
 20
-33.19660058436272
 30
0.0
 10
-0.2455294797194307
 20
-33.47724530451233
 30
0.0
 10
-0.2861505884556781
 20
-33.58452959120818
 30
0.0
 10
-0.3531887542805681
 20
-33.84365328779013
 30
0.0
 10
-0.3638444111670172
 20
-33.97302650566995
 30
0.0
 10
-0.3639605263145388
 20
-34.07496262606379
 30
0.0
  0
SPLINE
  5
7805
330
7800
100
AcDbEntity
  8
0
100
AcDbSpline
210
0.0
220
0.0
230
1.0
 70
     8
 71
     3
 72
    22
 73
    18
 74
     0
 42
0.000000001
 43
0.0000000001
 40
0.0
 40
0.0
 40
0.0
 40
0.0
 40
0.0448080192617406
 40
0.0448080192617406
 40
0.0813094635639821
 40
0.0813094635639821
 40
0.1175066628847155
 40
0.1175066628847155
 40
0.1665377514910647
 40
0.1665377514910647
 40
0.2359157244755988
 40
0.2359157244755988
 40
0.2914329259265702
 40
0.2914329259265702
 40
0.338865254544181
 40
0.338865254544181
 40
0.3990750642678539
 40
0.3990750642678539
 40
0.3990750642678539
 40
0.3990750642678539
 10
-0.3639610000000053
 20
-34.07785630406667
 30
0.0
 10
-0.363979936181366
 20
-33.92849624106125
 30
0.0
 10
-0.3527819214186094
 20
-33.77693877340815
 30
0.0
 10
-0.3106575597199772
 20
-33.50297278125186
 30
0.0
 10
-0.2839576451221364
 20
-33.38156445044723
 30
0.0
 10
-0.2149544537756835
 20
-33.14476121356535
 30
0.0
 10
-0.172502506167435
 20
-33.02854762370421
 30
0.0
 10
-0.0532819453936499
 20
-32.76406032408608
 30
0.0
 10
0.0301130957653635
 20
-32.61931519558538
 30
0.0
 10
0.267754633205955
 20
-32.29837093826476
 30
0.0
 10
0.428969959919759
 20
-32.14500146486373
 30
0.0
 10
0.740929469950858
 20
-31.94337644058104
 30
0.0
 10
0.8880583431684392
 20
-31.87980848087913
 30
0.0
 10
1.164339152150622
 20
-31.82246319564312
 30
0.0
 10
1.2882489213915
 20
-31.82090774035064
 30
0.0
 10
1.55303100347767
 20
-31.87405823388437
 30
0.0
 10
1.660527867423665
 20
-31.93839710995065
 30
0.0
 10
1.731775843759609
 20
-31.9916926312914
 30
0.0
  0
SPLINE
  5
7806
330
7800
100
AcDbEntity
  8
0
100
AcDbSpline
210
0.0
220
0.0
230
1.0
 70
     8
 71
     3
 72
    10
 73
     6
 74
     0
 42
0.000000001
 43
0.0000000001
 40
0.0
 40
0.0
 40
0.0
 40
0.0
 40
0.002042507701403
 40
0.002042507701403
 40
0.0040850154023364
 40
0.0040850154023364
 40
0.0040850154023364
 40
0.0040850154023364
 10
1.731775843759605
 20
-31.99169263129141
 30
0.0
 10
1.736064962802218
 20
-31.99492096297021
 30
0.0
 10
1.740341521725633
 20
-31.99814928738592
 30
0.0
 10
1.748869429680431
 20
-32.00460597030339
 30
0.0
 10
1.75312073370991
 20
-32.00783429471945
 30
0.0
 10
1.757359343559642
 20
-32.01106262639862
 30
0.0
  0
LINE
  5
7807
330
7800
100
AcDbEntity
  8
0
100
AcDbLine
 10
-24.713961
 20
-3.249999999999997
 30
0.0
 11
-0.3639610000000015
 21
-3.249999999999997
 31
0.0
  0
ARC
  5
7808
330
7800
100
AcDbEntity
  8
0
100
AcDbCircle
 10
-24.713961
 20
-5.250000000000007
 30
0.0
 40
2.00000000000001
100
AcDbArc
 50
90.00000000000026
 51
180.0
  0
LINE
  5
7809
330
7800
100
AcDbEntity
  8
0
100
AcDbLine
 10
-26.71396100000001
 20
-64.99999999999999
 30
0.0
 11
-26.71396100000001
 21
-5.249999999999994
 31
0.0
  0
ARC
  5
780A
330
7800
100
AcDbEntity
  8
0
100
AcDbCircle
 10
-24.71396100000001
 20
-64.99999999999999
 30
0.0
 40
1.999999999999999
100
AcDbArc
 50
180.0
 51
270.0
  0
LINE
  5
780B
330
7800
100
AcDbEntity
  8
0
100
AcDbLine
 10
1.553988192431124
 20
-67.0
 30
0.0
 11
-24.713961
 21
-67.0
 31
0.0
  0
LINE
  5
780C
330
7800
100
AcDbEntity
  8
0
100
AcDbLine
 10
3.286038999999996
 20
-63.99999999999999
 30
0.0
 11
1.553988192431124
 21
-67.0
 31
0.0
  0
LINE
  5
780D
330
7800
100
AcDbEntity
  8
0
100
AcDbLine
 10
5.018089807568878
 20
-67.0
 30
0.0
 11
3.286038999999996
 21
-63.99999999999999
 31
0.0
  0
LINE
  5
780E
330
7800
100
AcDbEntity
  8
0
100
AcDbLine
 10
31.286039
 20
-67.0
 30
0.0
 11
5.018089807568877
 21
-67.0
 31
0.0
  0
ARC
  5
780F
330
7800
100
AcDbEntity
  8
0
100
AcDbCircle
 10
31.286039
 20
-65.0
 30
0.0
 40
1.999999999999992
100
AcDbArc
 50
270.0
 51
0.0
  0
LINE
  5
7810
330
7800
100
AcDbEntity
  8
0
100
AcDbLine
 10
33.286039
 20
-50.53999999999999
 30
0.0
 11
33.286039
 21
-64.99999999999999
 31
0.0
  0
ARC
  5
7811
330
7800
100
AcDbEntity
  8
0
100
AcDbCircle
 10
31.286039
 20
-50.53999999999999
 30
0.0
 40
2.000000000000019
100
AcDbArc
 50
0.0
 51
16.25342510736298
  0
LINE
  5
7812
330
7800
100
AcDbEntity
  8
0
100
AcDbLine
 10
1.0431741648142
 20
-36.16401997684194
 30
0.0
 11
28.29708744093287
 21
-47.17531569703083
 31
0.0
  0
ARC
  5
7813
330
7800
100
AcDbEntity
  8
0
100
AcDbCircle
 10
1.886038999999999
 20
-34.07785630406667
 30
0.0
 40
2.25
100
AcDbArc
 50
180.0
 51
247.9999999999999
  0
CIRCLE
  5
7814
330
7800
100
AcDbEntity
  8
0
100
AcDbCircle
 10
17.286039
 20
-50.99999999999998
 30
0.0
 40
2.5
  0
CIRCLE
  5
7815
330
7800
100
AcDbEntity
  8
0
100
AcDbCircle
 10
7.286039
 20
-60.99999999999998
 30
0.0
 40
2.499999999999997
  0
CIRCLE
  5
7816
330
7800
100
AcDbEntity
  8
0
100
AcDbCircle
 10
27.286039
 20
-60.99999999999998
 30
0.0
 40
2.499999999999997
  0
ARC
  5
7817
330
7800
100
AcDbEntity
  8
0
100
AcDbCircle
 10
1.886038999999995
 20
34.21785630406666
 30
0.0
 40
2.249999999999996
100
AcDbArc
 50
112.0
 51
180.0
  0
LINE
  5
7818
330
7800
100
AcDbEntity
  8
0
100
AcDbLine
 10
28.29708744093294
 20
47.31531569703088
 30
0.0
 11
1.043174164814191
 21
36.30401997684193
 31
0.0
  0
ARC
  5
7819
330
7800
100
AcDbEntity
  8
0
100
AcDbCircle
 10
31.286039
 20
50.68000000000002
 30
0.0
 40
2.000000000000078
100
AcDbArc
 50
319.1119980827807
 51
0.0
  0
LINE
  5
781A
330
7800
100
AcDbEntity
  8
0
100
AcDbLine
 10
33.286039
 20
65.00000000000003
 30
0.0
 11
33.28603899999999
 21
50.68000000000002
 31
0.0
  0
ARC
  5
781B
330
7800
100
AcDbEntity
  8
0
100
AcDbCircle
 10
31.28603900000002
 20
65.00000000000003
 30
0.0
 40
1.999999999999984
100
AcDbArc
 50
0.0
 51
90.00000000000026
  0
LINE
  5
781C
330
7800
100
AcDbEntity
  8
0
100
AcDbLine
 10
5.018089807568887
 20
67.00000000000001
 30
0.0
 11
31.286039
 21
67.0
 31
0.0
  0
LINE
  5
781D
330
7800
100
AcDbEntity
  8
0
100
AcDbLine
 10
3.286038999999992
 20
64.00000000000002
 30
0.0
 11
5.018089807568887
 21
67.00000000000001
 31
0.0
  0
LINE
  5
781E
330
7800
100
AcDbEntity
  8
0
100
AcDbLine
 10
1.553988192431124
 20
67.00000000000001
 30
0.0
 11
3.286038999999992
 21
64.00000000000002
 31
0.0
  0
LINE
  5
781F
330
7800
100
AcDbEntity
  8
0
100
AcDbLine
 10
-24.71396100000001
 20
67.00000000000001
 30
0.0
 11
1.553988192431123
 21
67.00000000000001
 31
0.0
  0
ARC
  5
7820
330
7800
100
AcDbEntity
  8
0
100
AcDbCircle
 10
-24.71396100000001
 20
65.00000000000003
 30
0.0
 40
1.999999999999992
100
AcDbArc
 50
89.99999999999975
 51
180.0
  0
LINE
  5
7821
330
7800
100
AcDbEntity
  8
0
100
AcDbLine
 10
-26.71396100000001
 20
3.250000000000006
 30
0.0
 11
-26.71396100000001
 21
65.00000000000003
 31
0.0
  0
ARC
  5
7822
330
7800
100
AcDbEntity
  8
0
100
AcDbCircle
 10
-24.713961
 20
3.250000000000015
 30
0.0
 40
2.00000000000001
100
AcDbArc
 50
180.0
 51
269.9999999999999
  0
LINE
  5
7823
330
7800
100
AcDbEntity
  8
0
100
AcDbLine
 10
-0.3639610000000009
 20
1.250000000000013
 30
0.0
 11
-24.71396100000001
 21
1.250000000000004
 31
0.0
  0
CIRCLE
  5
7824
330
7800
100
AcDbEntity
  8
0
100
AcDbCircle
 10
7.286038999999996
 20
59.00000000000002
 30
0.0
 40
2.499999999999999
  0
CIRCLE
  5
7825
330
7800
100
AcDbEntity
  8
0
100
AcDbCircle
 10
27.286039
 20
59.00000000000002
 30
0.0
 40
2.500000000000002
  0
CIRCLE
  5
7826
330
7800
100
AcDbEntity
  8
0
100
AcDbCircle
 10
17.286039
 20
49.00000000000002
 30
0.0
 40
2.499999999999996
  0
LINE
  5
7827
330
7800
100
AcDbEntity
  8
0
100
AcDbLine
 10
73.53519788601992
 20
-59.00000000000002
 30
0.0
 11
48.9920669283067
 21
-58.99999999999999
 31
0.0
  0
LINE
  5
7828
330
7800
100
AcDbEntity
  8
0
100
AcDbLine
 10
75.65651822957957
 20
-59.00000000000002
 30
0.0
 11
73.53519788601992
 21
-59.00000000000002
 31
0.0
  0
ELLIPSE
  5
7829
330
7800
100
AcDbEntity
  8
0
100
AcDbEllipse
 10
73.53519788601992
 20
-57.00000000000002
 30
0.0
 11
0.0000000000000064
 21
-1.999999999999992
 31
0.0
210
0.0
220
0.0
230
1.0
 40
0.7071067811865478
 41
0.0
 42
1.570796326794898
  0
ELLIPSE
  5
782A
330
7800
100
AcDbEntity
  8
0
100
AcDbEllipse
 10
75.65651822957957
 20
-57.00000000000002
 30
0.0
 11
0.0
 21
-1.999999999999992
 31
0.0
210
0.0
220
0.0
230
1.0
 40
0.7071067811865476
 41
0.0
 42
1.5707963267949
  0
LINE
  5
782B
330
7800
100
AcDbEntity
  8
0
100
AcDbLine
 10
74.94941144839302
 20
52.00000000000002
 30
0.0
 11
74.94941144839302
 21
-57.0
 31
0.0
  0
LINE
  5
782C
330
7800
100
AcDbEntity
  8
0
100
AcDbLine
 10
77.07073179195266
 20
-57.0
 30
0.0
 11
77.07073179195266
 21
52.00000000000002
 31
0.0
  0
ELLIPSE
  5
782D
330
7800
100
AcDbEntity
  8
0
100
AcDbEllipse
 10
73.53519788601992
 20
52.00000000000002
 30
0.0
 11
0.0
 21
1.999999999999992
 31
0.0
210
0.0
220
0.0
230
1.0
 40
0.7071067811865476
 41
4.712388980384689
 42
6.283185307179586
  0
ELLIPSE
  5
782E
330
7800
100
AcDbEntity
  8
0
100
AcDbEllipse
 10
75.65651822957957
 20
52.00000000000002
 30
0.0
 11
-0.0000000000000001
 21
1.999999999999992
 31
0.0
210
0.0
220
0.0
230
1.0
 40
0.7071067811865476
 41
4.712388980384689
 42
6.283185307179586
  0
LINE
  5
782F
330
7800
100
AcDbEntity
  8
0
100
AcDbLine
 10
75.65651822957957
 20
54.00000000000002
 30
0.0
 11
73.53519788601992
 21
54.00000000000002
 31
0.0
  0
LINE
  5
7830
330
7800
100
AcDbEntity
  8
0
100
AcDbLine
 10
69.74217009219405
 20
54.00000000000003
 30
0.0
 11
73.53519788601992
 21
54.00000000000002
 31
0.0
  0
ELLIPSE
  5
7831
330
7800
100
AcDbEntity
  8
0
100
AcDbEllipse
 10
69.74217009219405
 20
52.00000000000002
 30
0.0
 11
0.0
 21
1.99999999999995
 31
0.0
210
0.0
220
0.0
230
1.0
 40
0.7071067811865478
 41
0.0
 42
1.029744258676653
  0
LINE
  5
7832
330
7800
100
AcDbEntity
  8
0
100
AcDbLine
 10
66.81768346474772
 20
49.00000000000002
 30
0.0
 11
68.52995247031839
 21
53.03007614982012
 31
0.0
  0
LINE
  5
7833
330
7800
100
AcDbEntity
  8
0
100
AcDbLine
 10
66.81768346474772
 20
44.00000000000001
 30
0.0
 11
66.81768346474772
 21
49.00000000000002
 31
0.0
  0
ELLIPSE
  5
7834
330
7800
100
AcDbEntity
  8
0
100
AcDbEllipse
 10
64.16603303529817
 20
39.00000000000001
 30
0.0
 11
0.0
 21
-6.25
 31
0.0
210
0.0
220
0.0
230
1.0
 40
0.7071067811865476
 41
0.0
 42
2.498091544796505
  0
LINE
  5
7835
330
7800
100
AcDbEntity
  8
0
100
AcDbLine
 10
62.04471269173854
 20
32.75000000000001
 30
0.0
 11
64.16603303529817
 21
32.75000000000001
 31
0.0
  0
ELLIPSE
  5
7836
330
7800
100
AcDbEntity
  8
0
100
AcDbEllipse
 10
62.04471269173854
 20
39.00000000000001
 30
0.0
 11
0.0000000000000002
 21
-6.25
 31
0.0
210
0.0
220
0.0
230
1.0
 40
0.7071067811865478
 41
4.712388980384689
 42
6.283185307179586
  0
ELLIPSE
  5
7837
330
7800
100
AcDbEntity
  8
0
100
AcDbEllipse
 10
64.16603303529818
 20
39.00000000000001
 30
0.0
 11
0.0
 21
-6.25
 31
0.0
210
0.0
220
0.0
230
1.0
 40
0.7071067811865476
 41
4.712388980384689
 42
6.283185307179586
  0
LINE
  5
7838
330
7800
100
AcDbEntity
  8
0
100
AcDbLine
 10
57.62529530932262
 20
50.0
 30
0.0
 11
57.62529530932262
 21
39.00000000000001
 31
0.0
  0
LINE
  5
7839
330
7800
100
AcDbEntity
  8
0
100
AcDbLine
 10
59.74661565288226
 20
39.00000000000001
 30
0.0
 11
59.74661565288226
 21
50.0
 31
0.0
  0
LINE
  5
783A
330
7800
100
AcDbEntity
  8
0
100
AcDbLine
 10
59.74661565288226
 20
50.0
 30
0.0
 11
57.62529530932262
 21
50.0
 31
0.0
  0
LINE
  5
783B
330
7800
100
AcDbEntity
  8
0
100
AcDbLine
 10
55.58405385700329
 20
55.0
 30
0.0
 11
57.62529530932262
 21
50.0
 31
0.0
  0
LINE
  5
783C
330
7800
100
AcDbEntity
  8
0
100
AcDbLine
 10
59.74661565288226
 20
50.0
 30
0.0
 11
57.70537420056293
 21
55.0
 31
0.0
  0
ELLIPSE
  5
783D
330
7800
100
AcDbEntity
  8
0
100
AcDbEllipse
 10
54.35930898561171
 20
54.00000000000002
 30
0.0
 11
0.0
 21
1.99999999999999
 31
0.0
210
0.0
220
0.0
230
1.0
 40
0.7071067811865475
 41
5.23598775598299
 42
6.283185307179586
  0
ELLIPSE
  5
783E
330
7800
100
AcDbEntity
  8
0
100
AcDbEllipse
 10
56.48062932917135
 20
54.00000000000002
 30
0.0
 11
0.0000000000000002
 21
1.99999999999999
 31
0.0
210
0.0
220
0.0
230
1.0
 40
0.7071067811865476
 41
5.23598775598299
 42
6.283185307179586
  0
LINE
  5
783F
330
7800
100
AcDbEntity
  8
0
100
AcDbLine
 10
56.48062932917135
 20
56.00000000000001
 30
0.0
 11
54.35930898561171
 21
56.00000000000001
 31
0.0
  0
LINE
  5
7840
330
7800
100
AcDbEntity
  8
0
100
AcDbLine
 10
44.12634822894117
 20
55.99999999999998
 30
0.0
 11
54.35930898561171
 21
56.00000000000001
 31
0.0
  0
ELLIPSE
  5
7841
330
7800
100
AcDbEntity
  8
0
100
AcDbEllipse
 10
44.12634822894117
 20
54.00000000000002
 30
0.0
 11
-0.0000000000000001
 21
1.999999999999797
 31
0.0
210
0.0
220
0.0
230
1.0
 40
0.7071067811865478
 41
0.0
 42
0.3839724354387535
  0
LINE
  5
7842
330
7800
100
AcDbEntity
  8
0
100
AcDbLine
 10
41.46139065232486
 20
54.63436770913361
 30
0.0
 11
43.596574503978
 21
55.85436770913358
 31
0.0
  0
ELLIPSE
  5
7843
330
7800
100
AcDbEntity
  8
0
100
AcDbEllipse
 10
41.99116437728805
 20
52.78000000000002
 30
0.0
 11
-0.0000000000000005
 21
2.000000000000054
 31
0.0
210
0.0
220
0.0
230
1.0
 40
0.7071067811865475
 41
0.3839724354387499
 42
1.0471975511966
  0
LINE
  5
7844
330
7800
100
AcDbEntity
  8
0
100
AcDbLine
 10
39.94762577965892
 20
51.77437316612596
 30
0.0
 11
40.76641950589645
 21
53.78000000000001
 31
0.0
  0
LINE
  5
7845
330
7800
100
AcDbEntity
  8
0
100
AcDbLine
 10
39.94762577965892
 20
48.23861278752584
 30
0.0
 11
39.94762577965892
 21
51.77437316612596
 31
0.0
  0
ELLIPSE
  5
7846
330
7800
100
AcDbEntity
  8
0
100
AcDbEllipse
 10
37.64952874080265
 20
45.50000000000001
 30
0.0
 11
0.0
 21
-4.249999999999996
 31
0.0
210
0.0
220
0.0
230
1.0
 40
0.7071067811865476
 41
0.0
 42
2.271007882329191
  0
LINE
  5
7847
330
7800
100
AcDbEntity
  8
0
100
AcDbLine
 10
36.58886856902283
 20
41.25
 30
0.0
 11
37.64952874080265
 21
41.25
 31
0.0
  0
ELLIPSE
  5
7848
330
7800
100
AcDbEntity
  8
0
100
AcDbEllipse
 10
36.58886856902283
 20
45.50000000000001
 30
0.0
 11
0.0000000000000002
 21
-4.250000000000007
 31
0.0
210
0.0
220
0.0
230
1.0
 40
0.7071067811865478
 41
4.712388980384689
 42
6.283185307179586
  0
ELLIPSE
  5
7849
330
7800
100
AcDbEntity
  8
0
100
AcDbEllipse
 10
38.71018891258247
 20
45.50000000000001
 30
0.0
 11
0.0000000000000001
 21
-4.250000000000006
 31
0.0
210
0.0
220
0.0
230
1.0
 40
0.7071067811865479
 41
4.712388980384689
 42
6.105785702739207
  0
LINE
  5
784A
330
7800
100
AcDbEntity
  8
0
100
AcDbLine
 10
33.58366474898
 20
47.37083496185031
 30
0.0
 11
33.58366474898
 21
45.50000000000001
 31
0.0
  0
LINE
  5
784B
330
7800
100
AcDbEntity
  8
0
100
AcDbLine
 10
35.70498509253964
 20
45.50000000000001
 30
0.0
 11
35.70498509253964
 21
47.37083496185031
 31
0.0
  0
ELLIPSE
  5
784C
330
7800
100
AcDbEntity
  8
0
100
AcDbEllipse
 10
32.16945118660691
 20
47.37083496185031
 30
0.0
 11
0.0000000000000001
 21
2.000000000000002
 31
0.0
210
0.0
220
0.0
230
1.0
 40
0.7071067811865478
 41
4.712388980384689
 42
6.667157742618335
  0
ELLIPSE
  5
784D
330
7800
100
AcDbEntity
  8
0
100
AcDbEllipse
 10
34.29077153016655
 20
47.37083496185031
 30
0.0
 11
-0.0000000000000001
 21
2.000000000000002
 31
0.0
210
0.0
220
0.0
230
1.0
 40
0.7071067811865479
 41
4.712388980384689
 42
6.283185307179586
  0
LINE
  5
784E
330
7800
100
AcDbEntity
  8
0
100
AcDbLine
 10
1.757359343559646
 20
32.15106262639861
 30
0.0
 11
31.63967746164374
 21
49.22520267098391
 31
0.0
  0
ELLIPSE
  5
784F
330
7800
100
AcDbEntity
  8
0
100
AcDbEllipse
 10
2.470966376771902
 20
-0.999999999999992
 30
0.0
 11
0.0
 21
-2.250000000000004
 31
0.0
210
0.0
220
0.0
230
1.0
 40
0.7071067811865475
 41
0.0
 42
3.141592653589793
  0
LINE
  5
7850
330
7800
100
AcDbEntity
  8
0
100
AcDbLine
 10
2.470966376771902
 20
1.250000000000013
 30
0.0
 11
1.757359343559646
 21
1.250000000000013
 31
0.0
  0
LINE
  5
7851
330
7800
100
AcDbEntity
  8
0
100
AcDbLine
 10
48.9920669283067
 20
-58.99999999999999
 30
0.0
 11
1.757359343559636
 21
-32.01106262639863
 31
0.0
  0
LINE
  5
7852
330
7800
100
AcDbEntity
  8
0
100
AcDbLine
 10
1.757359343559642
 20
-3.249999999999997
 30
0.0
 11
2.470966376771902
 21
-3.249999999999997
 31
0.0
  0
LINE
  5
7853
330
7800
100
AcDbEntity
  8
0
100
AcDbLine
 10
34.29077153016655
 20
49.37083496185032
 30
0.0
 11
32.16945118660691
 21
49.37083496185032
 31
0.0
  0
CIRCLE
  5
7854
330
7800
100
AcDbEntity
  8
0
100
AcDbCircle
 10
-10.713961
 20
-51.0
 30
0.0
 40
2.500000000000002
  0
CIRCLE
  5
7855
330
7800
100
AcDbEntity
  8
0
100
AcDbCircle
 10
-20.71396100000001
 20
-61.0
 30
0.0
 40
2.500000000000001
  0
CIRCLE
  5
7856
330
7800
100
AcDbEntity
  8
0
100
AcDbCircle
 10
-10.713961
 20
-31.0
 30
0.0
 40
2.500000000000002
  0
CIRCLE
  5
7857
330
7800
100
AcDbEntity
  8
0
100
AcDbCircle
 10
-20.71396100000001
 20
-40.99999999999998
 30
0.0
 40
2.500000000000001
  0
CIRCLE
  5
7858
330
7800
100
AcDbEntity
  8
0
100
AcDbCircle
 10
-10.71396100000001
 20
29.00000000000001
 30
0.0
 40
2.500000000000003
  0
CIRCLE
  5
7859
330
7800
100
AcDbEntity
  8
0
100
AcDbCircle
 10
-20.71396100000001
 20
39.00000000000001
 30
0.0
 40
2.5
  0
CIRCLE
  5
785A
330
7800
100
AcDbEntity
  8
0
100
AcDbCircle
 10
-10.71396100000001
 20
9.0
 30
0.0
 40
2.500000000000003
  0
CIRCLE
  5
785B
330
7800
100
AcDbEntity
  8
0
100
AcDbCircle
 10
-20.71396100000001
 20
19.00000000000001
 30
0.0
 40
2.5
  0
CIRCLE
  5
785C
330
7800
100
AcDbEntity
  8
0
100
AcDbCircle
 10
-10.713961
 20
-11.0
 30
0.0
 40
2.500000000000002
  0
CIRCLE
  5
785D
330
7800
100
AcDbEntity
  8
0
100
AcDbCircle
 10
-20.71396100000001
 20
-21.0
 30
0.0
 40
2.500000000000001
  0
CIRCLE
  5
785E
330
7800
100
AcDbEntity
  8
0
100
AcDbCircle
 10
-10.71396100000001
 20
49.00000000000002
 30
0.0
 40
2.500000000000003
  0
CIRCLE
  5
785F
330
7800
100
AcDbEntity
  8
0
100
AcDbCircle
 10
-20.71396100000001
 20
59.00000000000002
 30
0.0
 40
2.5
  0
ELLIPSE
  5
7860
330
7800
100
AcDbEntity
  8
0
100
AcDbEllipse
 10
62.39826608233181
 20
-1.0
 30
0.0
 11
-0.0000000000000006
 21
6.250000000000008
 31
0.0
210
0.0
220
0.0
230
1.0
 40
0.7071067811865478
 41
0.2423658510389623
 42
2.89922680255083
  0
ELLIPSE
  5
7861
330
7800
100
AcDbEntity
  8
0
100
AcDbEllipse
 10
60.27694573877218
 20
-1.0
 30
0.0
 11
-0.0000000000000123
 21
6.250000000000008
 31
0.0
210
0.0
220
0.0
230
1.0
 40
0.7071067811865478
 41
0.0
 42
6.283185307179586
  0
SPLINE
  5
7862
330
7800
100
AcDbEntity
  8
0
100
AcDbSpline
210
0.0
220
0.0
230
1.0
 70
     8
 71
     3
 72
    20
 73
    16
 74
     0
 42
0.000000001
 43
0.0000000001
 40
0.4688358472566643
 40
0.4688358472566643
 40
0.4688358472566643
 40
0.4688358472566643
 40
0.7739904835345957
 40
0.7739904835345957
 40
1.109356065202615
 40
1.109356065202615
 40
1.456631213085541
 40
1.456631213085541
 40
1.805291389165521
 40
1.805291389165521
 40
2.153870086853213
 40
2.153870086853213
 40
2.498860249848333
 40
2.498860249848333
 40
2.672756806333128
 40
2.672756806333128
 40
2.672756806333128
 40
2.672756806333128
 10
57.88045688854134
 20
8.594696808675317
 30
0.0
 10
57.09374110610757
 20
8.031170473151226
 30
0.0
 10
56.40691775856047
 20
7.325932321212796
 30
0.0
 10
55.19447814006899
 20
5.649964513080995
 30
0.0
 10
54.6901141264611
 20
4.658999980957997
 30
0.0
 10
53.93472500900152
 20
2.510594268120543
 30
0.0
 10
53.69344387392214
 20
1.347908783834209
 30
0.0
 10
53.50168312381211
 20
-1.01718696465195
 30
0.0
 10
53.55249298719183
 20
-2.219617073995508
 30
0.0
 10
53.9465173507704
 20
-4.552217289826657
 30
0.0
 10
54.28943997699615
 20
-5.682438342393885
 30
0.0
 10
55.25604895301572
 20
-7.754986390838239
 30
0.0
 10
55.87713192977166
 20
-8.700189514882323
 30
0.0
 10
57.01590127378324
 20
-9.906103587275946
 30
0.0
 10
57.43213610545852
 20
-10.27356359427814
 30
0.0
 10
57.88045688854134
 20
-10.59469680867532
 30
0.0
  0
ELLIPSE
  5
7863
330
7800
100
AcDbEntity
  8
0
100
AcDbEllipse
 10
40.47795586554884
 20
5.499999999999993
 30
0.0
 11
-0.0000000000000001
 21
4.250000000000007
 31
0.0
210
0.0
220
0.0
230
1.0
 40
0.7071067811865475
 41
0.3607127203635265
 42
2.780879933226266
  0
ELLIPSE
  5
7864
330
7800
100
AcDbEntity
  8
0
100
AcDbEllipse
 10
38.35663552198919
 20
5.499999999999993
 30
0.0
 11
0.0000000000000102
 21
4.250000000000007
 31
0.0
210
0.0
220
0.0
230
1.0
 40
0.7071067811865476
 41
0.0
 42
6.283185307179586
  0
SPLINE
  5
7865
330
7800
100
AcDbEntity
  8
0
100
AcDbSpline
210
0.0
220
0.0
230
1.0
 70
     8
 71
     3
 72
    22
 73
    18
 74
     0
 42
0.000000001
 43
0.0000000001
 40
3.61042850084645
 40
3.61042850084645
 40
3.61042850084645
 40
3.61042850084645
 40
3.934000918145961
 40
3.934000918145961
 40
4.234498202548342
 40
4.234498202548342
 40
4.532418678962843
 40
4.532418678962843
 40
4.831219380915151
 40
4.831219380915151
 40
5.130157774808075
 40
5.130157774808075
 40
5.428200581915502
 40
5.428200581915502
 40
5.727408829663904
 40
5.727408829663904
 40
5.814349459922929
 40
5.814349459922929
 40
5.814349459922929
 40
5.814349459922929
 10
40.11411472179728
 20
-2.310506983199005
 30
0.0
 10
40.63808722600065
 20
-1.935184265894851
 30
0.0
 10
41.14902832003839
 20
-1.415731923125869
 30
0.0
 10
42.02258226603336
 20
-0.1628970787606049
 30
0.0
 10
42.39220024050256
 20
0.5513626619008429
 30
0.0
 10
42.96867186820733
 20
2.125416017016109
 30
0.0
 10
43.17680443683653
 20
2.983284469579366
 30
0.0
 10
43.4054596415207
 20
4.760625023891238
 30
0.0
 10
43.4254269465114
 20
5.679873221625189
 30
0.0
 10
43.27344452698568
 20
7.480110926196635
 30
0.0
 10
43.10139826943037
 20
8.360697183229035
 30
0.0
 10
42.59088412500582
 20
9.987139157564197
 30
0.0
 10
42.25297923956941
 20
10.7328491517701
 30
0.0
 10
41.4613087554768
 20
12.020202123593
 30
0.0
 10
41.00772057945643
 20
12.56019697021028
 30
0.0
 10
40.39471000825769
 20
13.09862973647372
 30
0.0
 10
40.25490082505675
 20
13.20966157163615
 30
0.0
 10
40.11411472179729
 20
13.31050698319899
 30
0.0
  0
ELLIPSE
  5
7866
330
7800
100
AcDbEntity
  8
0
100
AcDbEllipse
 10
62.39826608233181
 20
-40.99999999999998
 30
0.0
 11
-0.0000000000000006
 21
6.250000000000008
 31
0.0
210
0.0
220
0.0
230
1.0
 40
0.7071067811865478
 41
0.2423658510389623
 42
2.89922680255083
  0
ELLIPSE
  5
7867
330
7800
100
AcDbEntity
  8
0
100
AcDbEllipse
 10
60.27694573877218
 20
-40.99999999999998
 30
0.0
 11
-0.0000000000000123
 21
6.250000000000008
 31
0.0
210
0.0
220
0.0
230
1.0
 40
0.7071067811865478
 41
0.0
 42
6.283185307179586
  0
ELLIPSE
  5
7868
330
7800
100
AcDbEntity
  8
0
100
AcDbEllipse
 10
40.47795586554884
 20
-34.5
 30
0.0
 11
-0.0000000000000001
 21
4.250000000000007
 31
0.0
210
0.0
220
0.0
230
1.0
 40
0.7071067811865475
 41
0.3607127203635265
 42
2.780879933226266
  0
ELLIPSE
  5
7869
330
7800
100
AcDbEntity
  8
0
100
AcDbEllipse
 10
38.35663552198919
 20
-34.5
 30
0.0
 11
0.0000000000000102
 21
4.250000000000007
 31
0.0
210
0.0
220
0.0
230
1.0
 40
0.7071067811865476
 41
0.0
 42
6.283185307179586
  0
SPLINE
  5
786A
330
7800
100
AcDbEntity
  8
0
100
AcDbSpline
210
0.0
220
0.0
230
1.0
 70
     8
 71
     3
 72
    20
 73
    16
 74
     0
 42
0.000000001
 43
0.0000000001
 40
0.4688358472566642
 40
0.4688358472566642
 40
0.4688358472566642
 40
0.4688358472566642
 40
0.7739904835345957
 40
0.7739904835345957
 40
1.109356065202615
 40
1.109356065202615
 40
1.456631213085541
 40
1.456631213085541
 40
1.805291389165521
 40
1.805291389165521
 40
2.153870086853213
 40
2.153870086853213
 40
2.498860249848333
 40
2.498860249848333
 40
2.672756806333128
 40
2.672756806333128
 40
2.672756806333128
 40
2.672756806333128
 10
57.88045688854134
 20
-31.40530319132467
 30
0.0
 10
57.09374110610757
 20
-31.96882952684877
 30
0.0
 10
56.40691775856047
 20
-32.6740676787872
 30
0.0
 10
55.19447814006899
 20
-34.350035486919
 30
0.0
 10
54.6901141264611
 20
-35.34100001904199
 30
0.0
 10
53.93472500900152
 20
-37.48940573187945
 30
0.0
 10
53.69344387392214
 20
-38.65209121616578
 30
0.0
 10
53.50168312381211
 20
-41.01718696465193
 30
0.0
 10
53.55249298719183
 20
-42.21961707399549
 30
0.0
 10
53.9465173507704
 20
-44.55221728982665
 30
0.0
 10
54.28943997699615
 20
-45.68243834239386
 30
0.0
 10
55.25604895301572
 20
-47.75498639083822
 30
0.0
 10
55.87713192977166
 20
-48.70018951488231
 30
0.0
 10
57.01590127378324
 20
-49.90610358727593
 30
0.0
 10
57.43213610545852
 20
-50.27356359427813
 30
0.0
 10
57.88045688854134
 20
-50.5946968086753
 30
0.0
  0
SPLINE
  5
786B
330
7800
100
AcDbEntity
  8
0
100
AcDbSpline
210
0.0
220
0.0
230
1.0
 70
     8
 71
     3
 72
    22
 73
    18
 74
     0
 42
0.000000001
 43
0.0000000001
 40
3.61042850084645
 40
3.61042850084645
 40
3.61042850084645
 40
3.61042850084645
 40
3.934000918145961
 40
3.934000918145961
 40
4.234498202548342
 40
4.234498202548342
 40
4.532418678962843
 40
4.532418678962843
 40
4.831219380915151
 40
4.831219380915151
 40
5.130157774808075
 40
5.130157774808075
 40
5.428200581915502
 40
5.428200581915502
 40
5.727408829663904
 40
5.727408829663904
 40
5.814349459922929
 40
5.814349459922929
 40
5.814349459922929
 40
5.814349459922929
 10
40.11411472179728
 20
-42.31050698319899
 30
0.0
 10
40.63808722600065
 20
-41.93518426589483
 30
0.0
 10
41.14902832003839
 20
-41.41573192312585
 30
0.0
 10
42.02258226603336
 20
-40.16289707876058
 30
0.0
 10
42.39220024050256
 20
-39.44863733809915
 30
0.0
 10
42.96867186820733
 20
-37.87458398298388
 30
0.0
 10
43.17680443683653
 20
-37.01671553042062
 30
0.0
 10
43.4054596415207
 20
-35.23937497610875
 30
0.0
 10
43.4254269465114
 20
-34.3201267783748
 30
0.0
 10
43.27344452698568
 20
-32.51988907380336
 30
0.0
 10
43.10139826943037
 20
-31.63930281677096
 30
0.0
 10
42.59088412500582
 20
-30.0128608424358
 30
0.0
 10
42.25297923956941
 20
-29.26715084822989
 30
0.0
 10
41.4613087554768
 20
-27.97979787640699
 30
0.0
 10
41.00772057945643
 20
-27.43980302978972
 30
0.0
 10
40.39471000825769
 20
-26.90137026352627
 30
0.0
 10
40.25490082505675
 20
-26.79033842836384
 30
0.0
 10
40.11411472179729
 20
-26.689493016801
 30
0.0
  0
SPLINE
  5
786C
330
7800
100
AcDbEntity
  8
0
100
AcDbSpline
210
0.0
220
0.0
230
1.0
 70
     8
 71
     3
 72
    18
 73
    14
 74
     0
 42
0.000000001
 43
0.0000000001
 40
0.0004428032778766
 40
0.0004428032778766
 40
0.0004428032778766
 40
0.0004428032778766
 40
0.0359645333652011
 40
0.0359645333652011
 40
0.0617610600730457
 40
0.0617610600730457
 40
0.0897018043912943
 40
0.0897018043912943
 40
0.1325947356316109
 40
0.1325947356316109
 40
0.199369308704895
 40
0.199369308704895
 40
0.2077370039098143
 40
0.2077370039098143
 40
0.2077370039098143
 40
0.2077370039098143
 10
-0.3639579817898086
 20
34.21341248440803
 30
0.0
 10
-0.3636991768440472
 20
34.09416299628696
 30
0.0
 10
-0.3490501400813009
 20
33.94114260452332
 30
0.0
 10
-0.2560500006521105
 20
33.63874199123299
 30
0.0
 10
-0.2013968285786838
 20
33.51717637989472
 30
0.0
 10
-0.0623807667696097
 20
33.27864041395069
 30
0.0
 10
0.0237588202280126
 20
33.16322016524344
 30
0.0
 10
0.2683114927963182
 20
32.89195368340954
 30
0.0
 10
0.4392093754818572
 20
32.74917117143873
 30
0.0
 10
0.9039900714379234
 20
32.4353188487773
 30
0.0
 10
1.233223400234937
 20
32.27932101239539
 30
0.0
 10
1.634599020858229
 20
32.15195821547209
 30
0.0
 10
1.679322309641298
 20
32.13856217697208
 30
0.0
 10
1.724035590200585
 20
32.12594467048981
 30
0.0
  0
SPLINE
  5
786D
330
7800
100
AcDbEntity
  8
0
100
AcDbSpline
210
0.0
220
0.0
230
1.0
 70
     8
 71
     3
 72
    10
 73
     6
 74
     0
 42
0.000000001
 43
0.0000000001
 40
0.0
 40
0.0
 40
0.0
 40
0.0
 40
0.0020425076571756
 40
0.0020425076571756
 40
0.0040850153143778
 40
0.0040850153143778
 40
0.0040850153143778
 40
0.0040850153143778
 10
1.757359343559646
 20
32.15106262639861
 30
0.0
 10
1.753120733802165
 20
32.14783429478976
 30
0.0
 10
1.748869429866598
 20
32.14460597044388
 30
0.0
 10
1.740341521541509
 20
32.13814928724608
 30
0.0
 10
1.736064962709341
 20
32.13492096290023
 30
0.0
 10
1.731775843759609
 20
32.13169263129139
 30
0.0
  0
SPLINE
  5
786E
330
7800
100
AcDbEntity
  8
0
100
AcDbSpline
210
0.0
220
0.0
230
1.0
 70
     8
 71
     3
 72
    20
 73
    16
 74
     0
 42
0.000000001
 43
0.0000000001
 40
0.0
 40
0.0
 40
0.0
 40
0.0
 40
0.0292038487375162
 40
0.0292038487375162
 40
0.1061564375205661
 40
0.1061564375205661
 40
0.2088926108953314
 40
0.2088926108953314
 40
0.32998651515226
 40
0.32998651515226
 40
0.4924973234448302
 40
0.4924973234448302
 40
0.5936467899883327
 40
0.5936467899883327
 40
0.7611251630277982
 40
0.7611251630277982
 40
0.7611251630277982
 40
0.7611251630277982
 10
1.731775843759609
 20
32.13169263129139
 30
0.0
 10
1.670364751402241
 20
32.08575538013556
 30
0.0
 10
1.612480367409459
 20
32.05425642962759
 30
0.0
 10
1.413273411761331
 20
31.97048480464409
 30
0.0
 10
1.279435381376515
 20
31.96343709706945
 30
0.0
 10
1.045345620402629
 20
31.97790435500647
 30
0.0
 10
0.909191902483278
 20
32.01474649359933
 30
0.0
 10
0.6196260132988759
 20
32.14938100917878
 30
0.0
 10
0.4730475437423472
 20
32.2542542621374
 30
0.0
 10
0.166678514759125
 20
32.55162108757461
 30
0.0
 10
0.0140922084585522
 20
32.7668610515065
 30
0.0
 10
-0.1777228283798708
 20
33.1739013304291
 30
0.0
 10
-0.2353195545693769
 20
33.33824216867721
 30
0.0
 10
-0.3468284591460551
 20
33.78417056858839
 30
0.0
 10
-0.3639844367851979
 20
34.03299750675251
 30
0.0
 10
-0.3639610000000009
 20
34.21785630406666
 30
0.0
  0
LINE
  5
786F
330
7800
100
AcDbEntity
  8
0
100
AcDbLine
 10
-0.3639609999999961
 20
1.249999999999969
 30
0.0
 11
1.757359343559647
 21
1.250000000000013
 31
0.0
  0
SPLINE
  5
7870
330
7800
100
AcDbEntity
  8
0
100
AcDbSpline
210
0.0
220
0.0
230
1.0
 70
     8
 71
     3
 72
    16
 73
    12
 74
     0
 42
0.000000001
 43
0.0000000001
 40
0.4688358472566473
 40
0.4688358472566473
 40
0.4688358472566473
 40
0.4688358472566473
 40
0.6892279431642958
 40
0.6892279431642958
 40
0.9096200390719442
 40
0.9096200390719442
 40
1.130012134979592
 40
1.130012134979592
 40
1.350404230887241
 40
1.350404230887241
 40
1.570796326794889
 40
1.570796326794889
 40
1.570796326794889
 40
1.570796326794889
 10
14.23282801133727
 20
27.14570428731166
 30
0.0
 10
14.05158977655949
 20
27.01588292033054
 30
0.0
 10
13.90038380291163
 20
26.87233222696022
 30
0.0
 10
13.64932964244394
 20
26.57976197289491
 30
0.0
 10
13.549095225193
 20
26.43058382677911
 30
0.0
 10
13.38671427573463
 20
26.13541176320374
 30
0.0
 10
13.32447246366562
 20
25.98923412309353
 30
0.0
 10
13.22842532422448
 20
25.70129693183092
 30
0.0
 10
13.19462631763765
 20
25.55943799953796
 30
0.0
 10
13.15010776686852
 20
25.27841129718936
 30
0.0
 10
13.13940418679928
 20
25.13919844346175
 30
0.0
 10
13.13940418679928
 20
25.00000000000005
 30
0.0
  0
LINE
  5
7871
330
7800
100
AcDbEntity
  8
0
100
AcDbLine
 10
13.13940418679928
 20
25.00000000000005
 30
0.0
 11
13.13940418679927
 21
-26.99999999999996
 31
0.0
  0
SPLINE
  5
7872
330
7800
100
AcDbEntity
  8
0
100
AcDbSpline
210
0.0
220
0.0
230
1.0
 70
     8
 71
     3
 72
    16
 73
    12
 74
     0
 42
0.000000001
 43
0.0000000001
 40
1.570796326794889
 40
1.570796326794889
 40
1.570796326794889
 40
1.570796326794889
 40
1.791188422702537
 40
1.791188422702537
 40
2.011580518610185
 40
2.011580518610185
 40
2.231972614517833
 40
2.231972614517833
 40
2.452364710425481
 40
2.452364710425481
 40
2.672756806333129
 40
2.672756806333129
 40
2.672756806333129
 40
2.672756806333129
 10
13.13940418679927
 20
-26.99999999999996
 30
0.0
 10
13.13940418679927
 20
-27.13919844346165
 30
0.0
 10
13.1501077668685
 20
-27.27841129718927
 30
0.0
 10
13.19462631763763
 20
-27.55943799953787
 30
0.0
 10
13.22842532422446
 20
-27.70129693183083
 30
0.0
 10
13.32447246366559
 20
-27.98923412309345
 30
0.0
 10
13.3867142757346
 20
-28.13541176320367
 30
0.0
 10
13.54909522519296
 20
-28.43058382677904
 30
0.0
 10
13.64932964244391
 20
-28.57976197289483
 30
0.0
 10
13.90038380291159
 20
-28.87233222696015
 30
0.0
 10
14.05158977655944
 20
-29.01588292033047
 30
0.0
 10
14.23282801133722
 20
-29.14570428731159
 30
0.0
  0
ENDBLK
  5
7802
330
7800
100
AcDbEntity
  8
0
100
AcDbBlockEnd
  0
BLOCK
  5
7874
330
7873
100
AcDbEntity
  8
0
100
AcDbBlockBegin
  2
TUSR16-Left
 70
     0
 10
0.0
 20
0.0
 30
0.0
  3
TUSR16-Left
  1

  0
LINE
  5
7876
330
7873
100
AcDbEntity
  8
0
100
AcDbLine
 10
3.878679656440389
 20
-3.249999999999965
 30
0.0
 11
3.000000000000019
 21
-3.24999999999999
 31
0.0
  0
SPLINE
  5
7877
330
7873
100
AcDbEntity
  8
0
100
AcDbSpline
210
0.0
220
0.0
230
1.0
 70
     8
 71
     3
 72
    22
 73
    18
 74
     0
 42
0.000000001
 43
0.0000000001
 40
0.0
 40
0.0
 40
0.0
 40
0.0
 40
0.0448080192617406
 40
0.0448080192617406
 40
0.0813094635639821
 40
0.0813094635639821
 40
0.1175066628847155
 40
0.1175066628847155
 40
0.1665377514910647
 40
0.1665377514910647
 40
0.2359157244755988
 40
0.2359157244755988
 40
0.2914329259265702
 40
0.2914329259265702
 40
0.338865254544181
 40
0.338865254544181
 40
0.3990750642678539
 40
0.3990750642678539
 40
0.3990750642678539
 40
0.3990750642678539
 10
3.000000000000011
 20
-34.07785630406667
 30
0.0
 10
3.000000000000011
 20
-33.92849624106125
 30
0.0
 10
2.999931003480276
 20
-33.77693877340815
 30
0.0
 10
3.000413962548104
 20
-33.50297278125186
 30
0.0
 10
3.000866531283452
 20
-33.38156445044723
 30
0.0
 10
3.003505515890221
 20
-33.14476121356535
 30
0.0
 10
3.005684676966584
 20
-33.02854762370421
 30
0.0
 10
3.015336958097238
 20
-32.76406032408608
 30
0.0
 10
3.024322437551287
 20
-32.61931519558538
 30
0.0
 10
3.063869959729458
 20
-32.29837093826476
 30
0.0
 10
3.100902633762511
 20
-32.14500146486373
 30
0.0
 10
3.207031734125718
 20
-31.94337644058104
 30
0.0
 10
3.268546781540067
 20
-31.87980848087913
 30
0.0
 10
3.414459183416826
 20
-31.82246319564312
 30
0.0
 10
3.491799299839969
 20
-31.82090774035064
 30
0.0
 10
3.685098795422664
 20
-31.87405823388437
 30
0.0
 10
3.783841236158128
 20
-31.93839710995065
 30
0.0
 10
3.85340104311298
 20
-31.9916926312914
 30
0.0
  0
LINE
  5
7878
330
7873
100
AcDbEntity
  8
0
100
AcDbLine
 10
3.17227997388934
 20
-32.01106262639863
 30
0.0
 11
3.171994835908927
 21
-32.01106262639863
 31
0.0
  0
LINE
  5
7879
330
7873
100
AcDbEntity
  8
0
100
AcDbLine
 10
3.878679656440369
 20
-32.01106262639863
 30
0.0
 11
3.17227997388934
 21
-32.01106262639863
 31
0.0
  0
SPLINE
  5
787A
330
7873
100
AcDbEntity
  8
0
100
AcDbSpline
210
0.0
220
0.0
230
1.0
 70
     8
 71
     3
 72
    10
 73
     6
 74
     0
 42
0.000000001
 43
0.0000000001
 40
0.0
 40
0.0
 40
0.0
 40
0.0
 40
0.002042507701403
 40
0.002042507701403
 40
0.0040850154023364
 40
0.0040850154023364
 40
0.0040850154023364
 40
0.0040850154023364
 10
3.853401043112978
 20
-31.99169263129141
 30
0.0
 10
3.857588534575244
 20
-31.99492096297021
 30
0.0
 10
3.861788871715031
 20
-31.99814928738592
 30
0.0
 10
3.870215149955535
 20
-32.00460597030339
 30
0.0
 10
3.874441046590637
 20
-32.00783429471945
 30
0.0
 10
3.87867965644037
 20
-32.01106262639862
 30
0.0
  0
LINE
  5
787B
330
7873
100
AcDbEntity
  8
0
100
AcDbLine
 10
0.0
 20
-3.249999999999997
 30
0.0
 11
3.000000000000024
 21
-3.249999999999997
 31
0.0
  0
LINE
  5
787C
330
7873
100
AcDbEntity
  8
0
100
AcDbLine
 10
0.0
 20
-67.0
 30
0.0
 11
0.0
 21
-64.99999999999999
 31
0.0
  0
LINE
  5
787D
330
7873
100
AcDbEntity
  8
0
100
AcDbLine
 10
0.0
 20
-5.249999999999999
 30
0.0
 11
0.0
 21
-65.0
 31
0.0
  0
LINE
  5
787E
330
7873
100
AcDbEntity
  8
0
100
AcDbLine
 10
0.0
 20
-5.249999999999998
 30
0.0
 11
0.0
 21
-3.249999999999997
 31
0.0
  0
LINE
  5
787F
330
7873
100
AcDbEntity
  8
0
100
AcDbLine
 10
3.000000000000024
 20
-3.249999999999997
 30
0.0
 11
3.000000000000024
 21
-5.249999999999999
 31
0.0
  0
LINE
  5
7880
330
7873
100
AcDbEntity
  8
0
100
AcDbLine
 10
3.000000000000011
 20
-64.99999999999999
 30
0.0
 11
3.000000000000024
 21
-5.249999999999994
 31
0.0
  0
LINE
  5
7881
330
7873
100
AcDbEntity
  8
0
100
AcDbLine
 10
3.000000000000011
 20
-64.99999999999999
 30
0.0
 11
3.00000000000001
 21
-67.0
 31
0.0
  0
LINE
  5
7882
330
7873
100
AcDbEntity
  8
0
100
AcDbLine
 10
0.0
 20
-67.0
 30
0.0
 11
3.00000000000001
 21
-67.0
 31
0.0
  0
LINE
  5
7883
330
7873
100
AcDbEntity
  8
0
100
AcDbLine
 10
3.000000000000037
 20
67.00000000000001
 30
0.0
 11
3.000000000000038
 21
65.00000000000003
 31
0.0
  0
LINE
  5
7884
330
7873
100
AcDbEntity
  8
0
100
AcDbLine
 10
3.000000000000033
 20
3.250000000000006
 30
0.0
 11
3.000000000000042
 21
65.00000000000003
 31
0.0
  0
LINE
  5
7885
330
7873
100
AcDbEntity
  8
0
100
AcDbLine
 10
3.000000000000033
 20
3.250000000000006
 30
0.0
 11
3.000000000000032
 21
1.250000000000004
 31
0.0
  0
LINE
  5
7886
330
7873
100
AcDbEntity
  8
0
100
AcDbLine
 10
0.0
 20
1.250000000000004
 30
0.0
 11
0.0
 21
3.250000000000006
 31
0.0
  0
LINE
  5
7887
330
7873
100
AcDbEntity
  8
0
100
AcDbLine
 10
0.0
 20
65.00000000000003
 30
0.0
 11
0.0
 21
3.250000000000001
 31
0.0
  0
LINE
  5
7888
330
7873
100
AcDbEntity
  8
0
100
AcDbLine
 10
0.0
 20
65.00000000000003
 30
0.0
 11
0.0
 21
67.00000000000001
 31
0.0
  0
LINE
  5
7889
330
7873
100
AcDbEntity
  8
0
100
AcDbLine
 10
0.0
 20
1.250000000000004
 30
0.0
 11
3.000000000000031
 21
1.250000000000004
 31
0.0
  0
LINE
  5
788A
330
7873
100
AcDbEntity
  8
0
100
AcDbLine
 10
0.0
 20
67.00000000000001
 30
0.0
 11
3.000000000000042
 21
67.00000000000001
 31
0.0
  0
LINE
  5
788B
330
7873
100
AcDbEntity
  8
0
100
AcDbLine
 10
75.65651819890064
 20
-59.00000000000002
 30
0.0
 11
51.11338724118744
 21
-58.99999999999999
 31
0.0
  0
LINE
  5
788C
330
7873
100
AcDbEntity
  8
0
100
AcDbLine
 10
48.99206689762777
 20
-58.99999999999999
 30
0.0
 11
51.11338724118744
 21
-58.99999999999999
 31
0.0
  0
ELLIPSE
  5
788D
330
7873
100
AcDbEntity
  8
0
100
AcDbEllipse
 10
75.65651819890064
 20
-57.00000000000002
 30
0.0
 11
0.0000000000000062
 21
-1.999999999999992
 31
0.0
210
0.0
220
0.0
230
1.0
 40
0.7071067811865475
 41
0.0
 42
1.570796326794898
  0
LINE
  5
788E
330
7873
100
AcDbEntity
  8
0
100
AcDbLine
 10
77.07073176127375
 20
52.00000000000002
 30
0.0
 11
77.07073176127373
 21
-57.0
 31
0.0
  0
ELLIPSE
  5
788F
330
7873
100
AcDbEntity
  8
0
100
AcDbEllipse
 10
75.65651819890065
 20
52.00000000000002
 30
0.0
 11
0.0
 21
1.999999999999992
 31
0.0
210
0.0
220
0.0
230
1.0
 40
0.7071067811865475
 41
4.712388980384689
 42
6.283185307179586
  0
LINE
  5
7890
330
7873
100
AcDbEntity
  8
0
100
AcDbLine
 10
71.86349040507479
 20
54.00000000000003
 30
0.0
 11
75.65651819890065
 21
54.00000000000002
 31
0.0
  0
LINE
  5
7891
330
7873
100
AcDbEntity
  8
0
100
AcDbLine
 10
69.74217006151514
 20
54.00000000000003
 30
0.0
 11
71.86349040507479
 21
54.00000000000003
 31
0.0
  0
ELLIPSE
  5
7892
330
7873
100
AcDbEntity
  8
0
100
AcDbEllipse
 10
71.86349040507479
 20
52.00000000000002
 30
0.0
 11
0.0000000000000006
 21
1.99999999999995
 31
0.0
210
0.0
220
0.0
230
1.0
 40
0.7071067811865474
 41
0.0
 42
1.029744258676653
  0
ELLIPSE
  5
7893
330
7873
100
AcDbEntity
  8
0
100
AcDbEllipse
 10
69.74217006151514
 20
52.00000000000002
 30
0.0
 11
0.0
 21
1.99999999999995
 31
0.0
210
0.0
220
0.0
230
1.0
 40
0.7071067811865475
 41
0.0
 42
1.029744258676653
  0
LINE
  5
7894
330
7873
100
AcDbEntity
  8
0
100
AcDbLine
 10
68.93900377762846
 20
49.00000000000002
 30
0.0
 11
70.65127278319912
 21
53.03007614982012
 31
0.0
  0
LINE
  5
7895
330
7873
100
AcDbEntity
  8
0
100
AcDbLine
 10
68.52995243963947
 20
53.03007614982012
 30
0.0
 11
66.81768343406881
 21
49.00000000000002
 31
0.0
  0
LINE
  5
7896
330
7873
100
AcDbEntity
  8
0
100
AcDbLine
 10
66.81768343406881
 20
49.00000000000002
 30
0.0
 11
68.93900377762846
 21
49.00000000000002
 31
0.0
  0
LINE
  5
7897
330
7873
100
AcDbEntity
  8
0
100
AcDbLine
 10
68.93900377762846
 20
44.00000000000001
 30
0.0
 11
68.93900377762846
 21
49.00000000000002
 31
0.0
  0
LINE
  5
7898
330
7873
100
AcDbEntity
  8
0
100
AcDbLine
 10
66.81768343406881
 20
49.00000000000002
 30
0.0
 11
66.81768343406881
 21
44.00000000000001
 31
0.0
  0
LINE
  5
7899
330
7873
100
AcDbEntity
  8
0
100
AcDbLine
 10
66.81768343406881
 20
44.00000000000001
 30
0.0
 11
68.93900377762846
 21
44.00000000000001
 31
0.0
  0
ELLIPSE
  5
789A
330
7873
100
AcDbEntity
  8
0
100
AcDbEllipse
 10
66.28735334817889
 20
39.00000000000001
 30
0.0
 11
0.0
 21
-6.25
 31
0.0
210
0.0
220
0.0
230
1.0
 40
0.7071067811865475
 41
0.0
 42
2.498091544796505
  0
ELLIPSE
  5
789B
330
7873
100
AcDbEntity
  8
0
100
AcDbEllipse
 10
64.16603300461926
 20
39.00000000000001
 30
0.0
 11
-0.000000000000463
 21
-6.25
 31
0.0
210
0.0
220
0.0
230
1.0
 40
0.7071067811865479
 41
0.0
 42
2.498091544796706
  0
LINE
  5
789C
330
7873
100
AcDbEntity
  8
0
100
AcDbLine
 10
64.16603300461924
 20
32.75000000000001
 30
0.0
 11
66.28735334817888
 21
32.75000000000001
 31
0.0
  0
ELLIPSE
  5
789D
330
7873
100
AcDbEntity
  8
0
100
AcDbEllipse
 10
64.16603300461926
 20
39.00000000000001
 30
0.0
 11
-0.0000000000000002
 21
-6.25
 31
0.0
210
0.0
220
0.0
230
1.0
 40
0.7071067811865475
 41
4.712388980384689
 42
6.283185307179586
  0
LINE
  5
789E
330
7873
100
AcDbEntity
  8
0
100
AcDbLine
 10
59.74661562220335
 20
50.0
 30
0.0
 11
59.74661562220335
 21
39.00000000000001
 31
0.0
  0
LINE
  5
789F
330
7873
100
AcDbEntity
  8
0
100
AcDbLine
 10
57.70537416988403
 20
55.0
 30
0.0
 11
59.74661562220335
 21
50.0
 31
0.0
  0
ELLIPSE
  5
78A0
330
7873
100
AcDbEntity
  8
0
100
AcDbEllipse
 10
56.48062929849245
 20
54.00000000000002
 30
0.0
 11
0.0
 21
1.99999999999999
 31
0.0
210
0.0
220
0.0
230
1.0
 40
0.7071067811865474
 41
5.23598775598299
 42
6.283185307179586
  0
LINE
  5
78A1
330
7873
100
AcDbEntity
  8
0
100
AcDbLine
 10
46.2476685418219
 20
55.99999999999998
 30
0.0
 11
56.48062929849245
 21
56.00000000000001
 31
0.0
  0
LINE
  5
78A2
330
7873
100
AcDbEntity
  8
0
100
AcDbLine
 10
44.12634819826225
 20
55.99999999999998
 30
0.0
 11
46.2476685418219
 21
55.99999999999998
 31
0.0
  0
ELLIPSE
  5
78A3
330
7873
100
AcDbEntity
  8
0
100
AcDbEllipse
 10
46.2476685418219
 20
54.00000000000002
 30
0.0
 11
-0.0000000000000001
 21
1.999999999999797
 31
0.0
210
0.0
220
0.0
230
1.0
 40
0.7071067811865476
 41
0.0
 42
0.3839724354387535
  0
ELLIPSE
  5
78A4
330
7873
100
AcDbEntity
  8
0
100
AcDbEllipse
 10
44.12634819826225
 20
54.00000000000002
 30
0.0
 11
0.0
 21
1.999999999999797
 31
0.0
210
0.0
220
0.0
230
1.0
 40
0.7071067811865476
 41
0.0
 42
0.3839724354387533
  0
LINE
  5
78A5
330
7873
100
AcDbEntity
  8
0
100
AcDbLine
 10
43.5827109652056
 20
54.63436770913361
 30
0.0
 11
45.71789481685872
 21
55.85436770913358
 31
0.0
  0
LINE
  5
78A6
330
7873
100
AcDbEntity
  8
0
100
AcDbLine
 10
43.59657447329908
 20
55.85436770913358
 30
0.0
 11
41.46139062164595
 21
54.63436770913361
 31
0.0
  0
ELLIPSE
  5
78A7
330
7873
100
AcDbEntity
  8
0
100
AcDbEllipse
 10
44.11248469016877
 20
52.78000000000002
 30
0.0
 11
0.0000000000000005
 21
2.000000000000053
 31
0.0
210
0.0
220
0.0
230
1.0
 40
0.7071067811865474
 41
0.3839724354387499
 42
1.0471975511966
  0
ELLIPSE
  5
78A8
330
7873
100
AcDbEntity
  8
0
100
AcDbEllipse
 10
41.99116434660914
 20
52.78000000000002
 30
0.0
 11
0.0000000000000002
 21
2.000000000000053
 31
0.0
210
0.0
220
0.0
230
1.0
 40
0.7071067811865474
 41
0.3839724354387552
 42
1.047197551196603
  0
LINE
  5
78A9
330
7873
100
AcDbEntity
  8
0
100
AcDbLine
 10
42.06894609253964
 20
51.77437316612596
 30
0.0
 11
42.88773981877717
 21
53.78000000000001
 31
0.0
  0
LINE
  5
78AA
330
7873
100
AcDbEntity
  8
0
100
AcDbLine
 10
40.76641947521753
 20
53.78000000000001
 30
0.0
 11
39.94762574898
 21
51.77437316612597
 31
0.0
  0
LINE
  5
78AB
330
7873
100
AcDbEntity
  8
0
100
AcDbLine
 10
39.94762574898
 20
51.77437316612597
 30
0.0
 11
42.06894609253964
 21
51.77437316612596
 31
0.0
  0
LINE
  5
78AC
330
7873
100
AcDbEntity
  8
0
100
AcDbLine
 10
42.06894609253964
 20
48.23861278752584
 30
0.0
 11
42.06894609253964
 21
51.77437316612596
 31
0.0
  0
LINE
  5
78AD
330
7873
100
AcDbEntity
  8
0
100
AcDbLine
 10
39.94762574898
 20
51.77437316612597
 30
0.0
 11
39.94762574898
 21
48.23861278752585
 31
0.0
  0
LINE
  5
78AE
330
7873
100
AcDbEntity
  8
0
100
AcDbLine
 10
39.94762574898
 20
48.23861278752585
 30
0.0
 11
42.06894609253964
 21
48.23861278752584
 31
0.0
  0
ELLIPSE
  5
78AF
330
7873
100
AcDbEntity
  8
0
100
AcDbEllipse
 10
39.77084905368338
 20
45.50000000000001
 30
0.0
 11
0.0
 21
-4.249999999999996
 31
0.0
210
0.0
220
0.0
230
1.0
 40
0.7071067811865474
 41
0.0
 42
2.271007882329191
  0
ELLIPSE
  5
78B0
330
7873
100
AcDbEntity
  8
0
100
AcDbEllipse
 10
37.64952871012373
 20
45.50000000000001
 30
0.0
 11
-0.0000000000003159
 21
-4.249999999999996
 31
0.0
210
0.0
220
0.0
230
1.0
 40
0.7071067811865478
 41
0.1773996044405788
 42
2.271007882329319
  0
LINE
  5
78B1
330
7873
100
AcDbEntity
  8
0
100
AcDbLine
 10
38.71018888190356
 20
41.25
 30
0.0
 11
39.77084905368338
 21
41.25
 31
0.0
  0
ELLIPSE
  5
78B2
330
7873
100
AcDbEntity
  8
0
100
AcDbEllipse
 10
38.71018888190356
 20
45.50000000000001
 30
0.0
 11
-0.0000000000000002
 21
-4.250000000000007
 31
0.0
210
0.0
220
0.0
230
1.0
 40
0.7071067811865475
 41
4.712388980384689
 42
6.283185307179586
  0
LINE
  5
78B3
330
7873
100
AcDbEntity
  8
0
100
AcDbLine
 10
35.70498506186073
 20
47.37083496185031
 30
0.0
 11
35.70498506186073
 21
45.50000000000001
 31
0.0
  0
ELLIPSE
  5
78B4
330
7873
100
AcDbEntity
  8
0
100
AcDbEllipse
 10
34.29077149948764
 20
47.37083496185031
 30
0.0
 11
0.0000000000000002
 21
2.000000000000002
 31
0.0
210
0.0
220
0.0
230
1.0
 40
0.7071067811865476
 41
4.712388980384689
 42
6.667157742618335
  0
ELLIPSE
  5
78B5
330
7873
100
AcDbEntity
  8
0
100
AcDbEllipse
 10
32.16945115592799
 20
47.37083496185031
 30
0.0
 11
0.0
 21
2.000000000000002
 31
0.0
210
0.0
220
0.0
230
1.0
 40
0.7071067811865476
 41
0.0
 42
0.3839724354387488
  0
LINE
  5
78B6
330
7873
100
AcDbEntity
  8
0
100
AcDbLine
 10
3.878679656440388
 20
32.15106262639861
 30
0.0
 11
33.76099777452447
 21
49.22520267098391
 31
0.0
  0
LINE
  5
78B7
330
7873
100
AcDbEntity
  8
0
100
AcDbLine
 10
31.63967743096482
 20
49.22520267098391
 30
0.0
 11
3.01872704452935
 21
32.87178212388818
 31
0.0
  0
ELLIPSE
  5
78B8
330
7873
100
AcDbEntity
  8
0
100
AcDbEllipse
 10
4.592286689652632
 20
-0.999999999999992
 30
0.0
 11
0.0
 21
-2.250000000000004
 31
0.0
210
0.0
220
0.0
230
1.0
 40
0.7071067811865475
 41
0.0
 42
3.141592653589793
  0
ELLIPSE
  5
78B9
330
7873
100
AcDbEntity
  8
0
100
AcDbEllipse
 10
2.470966346092989
 20
-0.999999999999992
 30
0.0
 11
0.0000000000000003
 21
2.250000000000004
 31
0.0
210
0.0
220
0.0
230
1.0
 40
0.7071067811865475
 41
3.141592653589793
 42
6.283185307179586
  0
LINE
  5
78BA
330
7873
100
AcDbEntity
  8
0
100
AcDbLine
 10
4.592286689652632
 20
1.250000000000013
 30
0.0
 11
3.878679656440381
 21
1.250000000000013
 31
0.0
  0
LINE
  5
78BB
330
7873
100
AcDbEntity
  8
0
100
AcDbLine
 10
3.01872704452933
 20
-32.7317821238882
 30
0.0
 11
48.99206689762777
 21
-58.99999999999999
 31
0.0
  0
LINE
  5
78BC
330
7873
100
AcDbEntity
  8
0
100
AcDbLine
 10
51.11338724118744
 20
-58.99999999999999
 30
0.0
 11
3.878679656440366
 21
-32.01106262639863
 31
0.0
  0
LINE
  5
78BD
330
7873
100
AcDbEntity
  8
0
100
AcDbLine
 10
3.87867965644038
 20
-3.249999999999997
 30
0.0
 11
4.592286689652636
 21
-3.249999999999997
 31
0.0
  0
LINE
  5
78BE
330
7873
100
AcDbEntity
  8
0
100
AcDbLine
 10
32.16945115592799
 20
49.37083496185032
 30
0.0
 11
34.29077149948764
 21
49.37083496185032
 31
0.0
  0
LINE
  5
78BF
330
7873
100
AcDbEntity
  8
0
100
AcDbLine
 10
3.171994835908981
 20
32.15106262639861
 30
0.0
 11
3.172279973951001
 21
32.15106262639861
 31
0.0
  0
LINE
  5
78C0
330
7873
100
AcDbEntity
  8
0
100
AcDbLine
 10
3.172279973951001
 20
32.15106262639861
 30
0.0
 11
3.878679656440388
 21
32.15106262639861
 31
0.0
  0
SPLINE
  5
78C1
330
7873
100
AcDbEntity
  8
0
100
AcDbSpline
210
0.0
220
0.0
230
1.0
 70
     8
 71
     3
 72
    10
 73
     6
 74
     0
 42
0.000000001
 43
0.0000000001
 40
0.0
 40
0.0
 40
0.0
 40
0.0
 40
0.0020425076571756
 40
0.0020425076571756
 40
0.0040850153143778
 40
0.0040850153143778
 40
0.0040850153143778
 40
0.0040850153143778
 10
3.878679656440388
 20
32.15106262639861
 30
0.0
 10
3.874441046682903
 20
32.14783429478976
 30
0.0
 10
3.870215150138398
 20
32.14460597044388
 30
0.0
 10
3.861788871532012
 20
32.13814928724608
 30
0.0
 10
3.857588534484576
 20
32.13492096290023
 30
0.0
 10
3.853401043112988
 20
32.13169263129139
 30
0.0
  0
SPLINE
  5
78C2
330
7873
100
AcDbEntity
  8
0
100
AcDbSpline
210
0.0
220
0.0
230
1.0
 70
     8
 71
     3
 72
    20
 73
    16
 74
     0
 42
0.000000001
 43
0.0000000001
 40
0.0
 40
0.0
 40
0.0
 40
0.0
 40
0.0292038487375162
 40
0.0292038487375162
 40
0.1061564375205661
 40
0.1061564375205661
 40
0.2088926108953314
 40
0.2088926108953314
 40
0.32998651515226
 40
0.32998651515226
 40
0.4924973234448302
 40
0.4924973234448302
 40
0.5936467899883327
 40
0.5936467899883327
 40
0.7611251630277982
 40
0.7611251630277982
 40
0.7611251630277982
 40
0.7611251630277982
 10
3.853401043112988
 20
32.13169263129139
 30
0.0
 10
3.793445042269913
 20
32.08575538013556
 30
0.0
 10
3.741953848795058
 20
32.05425642962759
 30
0.0
 10
3.575788910622139
 20
31.97048480464409
 30
0.0
 10
3.48744865373212
 20
31.96343709706945
 30
0.0
 10
3.347036989114471
 20
31.97790435500647
 30
0.0
 10
3.279755693676515
 20
32.01474649359933
 30
0.0
 10
3.16076733341541
 20
32.14938100917878
 30
0.0
 10
3.115986682584832
 20
32.2542542621374
 30
0.0
 10
3.041782749643453
 20
32.55162108757461
 30
0.0
 10
3.021550862807402
 20
32.7668610515065
 30
0.0
 10
3.004875407166771
 20
33.1739013304291
 30
0.0
 10
3.002465043088018
 20
33.33824216867721
 30
0.0
 10
2.99924281069432
 20
33.78417056858839
 30
0.0
 10
3.000000000000029
 20
34.03299750675251
 30
0.0
 10
3.000000000000029
 20
34.21785630406666
 30
0.0
  0
LINE
  5
78C3
330
7873
100
AcDbEntity
  8
0
100
AcDbLine
 10
3.000000000000024
 20
1.249999999999969
 30
0.0
 11
3.878679656440382
 21
1.250000000000013
 31
0.0
  0
ELLIPSE
  5
78C4
330
7873
100
AcDbEntity
  8
0
100
AcDbEllipse
 10
63.81247961402599
 20
-1.0
 30
0.0
 11
0.0000000000000004
 21
-6.250000000000008
 31
0.0
210
0.0
220
0.0
230
1.0
 40
0.7071067811865474
 41
0.2423658510389623
 42
2.89922680255083
  0
ELLIPSE
  5
78C5
330
7873
100
AcDbEntity
  8
0
100
AcDbEllipse
 10
65.93379995758562
 20
-1.0
 30
0.0
 11
-0.0000000000000118
 21
6.250000000000008
 31
0.0
210
0.0
220
0.0
230
1.0
 40
0.7071067811865478
 41
0.0
 42
6.283185307179586
  0
SPLINE
  5
78C6
330
7873
100
AcDbEntity
  8
0
100
AcDbSpline
210
0.0
220
0.0
230
1.0
 70
     8
 71
     3
 72
    20
 73
    16
 74
     0
 42
0.000000001
 43
0.0000000001
 40
3.610428500846457
 40
3.610428500846457
 40
3.610428500846457
 40
3.610428500846457
 40
3.915583137124388
 40
3.915583137124388
 40
4.250948718792407
 40
4.250948718792407
 40
4.598223866675335
 40
4.598223866675335
 40
4.946884042755314
 40
4.946884042755314
 40
5.295462740443006
 40
5.295462740443006
 40
5.640452903438126
 40
5.640452903438126
 40
5.814349459922921
 40
5.814349459922921
 40
5.814349459922921
 40
5.814349459922921
 10
68.33028880781646
 20
-10.59469680867532
 30
0.0
 10
69.11700459025024
 20
-10.03117047315122
 30
0.0
 10
69.80382793779734
 20
-9.325932321212796
 30
0.0
 10
71.01626755628882
 20
-7.649964513080995
 30
0.0
 10
71.52063156989671
 20
-6.658999980958
 30
0.0
 10
72.27602068735629
 20
-4.510594268120548
 30
0.0
 10
72.51730182243564
 20
-3.347908783834213
 30
0.0
 10
72.70906257254567
 20
-0.9828130353480549
 30
0.0
 10
72.65825270916597
 20
0.2196170739955024
 30
0.0
 10
72.26422834558739
 20
2.552217289826651
 30
0.0
 10
71.92130571936164
 20
3.682438342393881
 30
0.0
 10
70.9546967433421
 20
5.754986390838237
 30
0.0
 10
70.33361376658615
 20
6.70018951488232
 30
0.0
 10
69.19484442257457
 20
7.906103587275944
 30
0.0
 10
68.77860959089928
 20
8.273563594278135
 30
0.0
 10
68.33028880781646
 20
8.594696808675317
 30
0.0
  0
ELLIPSE
  5
78C7
330
7873
100
AcDbEntity
  8
0
100
AcDbEllipse
 10
34.82110158537755
 20
5.499999999999993
 30
0.0
 11
-0.0000000000000046
 21
-4.250000000000007
 31
0.0
210
0.0
220
0.0
230
1.0
 40
0.7071067811865471
 41
0.3607127203635237
 42
2.780879933226274
  0
ELLIPSE
  5
78C8
330
7873
100
AcDbEntity
  8
0
100
AcDbEllipse
 10
36.94242192893717
 20
5.499999999999993
 30
0.0
 11
0.0000000000000105
 21
4.250000000000007
 31
0.0
210
0.0
220
0.0
230
1.0
 40
0.7071067811865475
 41
0.0
 42
6.283185307179586
  0
SPLINE
  5
78C9
330
7873
100
AcDbEntity
  8
0
100
AcDbSpline
210
0.0
220
0.0
230
1.0
 70
     8
 71
     3
 72
    22
 73
    18
 74
     0
 42
0.000000001
 43
0.0000000001
 40
0.4688358472566613
 40
0.4688358472566613
 40
0.4688358472566613
 40
0.4688358472566613
 40
0.7924082645561716
 40
0.7924082645561716
 40
1.092905548958553
 40
1.092905548958553
 40
1.390826025373053
 40
1.390826025373053
 40
1.689626727325362
 40
1.689626727325362
 40
1.988565121218287
 40
1.988565121218287
 40
2.286607928325714
 40
2.286607928325714
 40
2.585816176074115
 40
2.585816176074115
 40
2.672756806333131
 40
2.672756806333131
 40
2.672756806333131
 40
2.672756806333131
 10
35.18494272912908
 20
13.31050698319897
 30
0.0
 10
34.6609702249257
 20
12.93518426589482
 30
0.0
 10
34.15002913088797
 20
12.41573192312583
 30
0.0
 10
33.27647518489301
 20
11.16289707876056
 30
0.0
 10
32.90685721042381
 20
10.44863733809912
 30
0.0
 10
32.33038558271904
 20
8.874583982983846
 30
0.0
 10
32.12225301408984
 20
8.016715530420587
 30
0.0
 10
31.89359780940567
 20
6.239374976108712
 30
0.0
 10
31.87363050441498
 20
5.32012677837476
 30
0.0
 10
32.0256129239407
 20
3.519889073803313
 30
0.0
 10
32.19765918149601
 20
2.639302816770914
 30
0.0
 10
32.70817332592058
 20
1.012860842435754
 30
0.0
 10
33.04607821135699
 20
0.267150848229852
 30
0.0
 10
33.83774869544959
 20
-1.020202123593038
 30
0.0
 10
34.29133687146997
 20
-1.560196970210308
 30
0.0
 10
34.9043474426687
 20
-2.098629736473738
 30
0.0
 10
35.04415662586963
 20
-2.209661571636156
 30
0.0
 10
35.18494272912908
 20
-2.310506983198989
 30
0.0
  0
ELLIPSE
  5
78CA
330
7873
100
AcDbEntity
  8
0
100
AcDbEllipse
 10
63.81247961402599
 20
-40.99999999999998
 30
0.0
 11
0.0000000000000004
 21
-6.250000000000008
 31
0.0
210
0.0
220
0.0
230
1.0
 40
0.7071067811865474
 41
0.2423658510389623
 42
2.89922680255083
  0
ELLIPSE
  5
78CB
330
7873
100
AcDbEntity
  8
0
100
AcDbEllipse
 10
65.93379995758562
 20
-40.99999999999998
 30
0.0
 11
-0.0000000000000118
 21
6.250000000000008
 31
0.0
210
0.0
220
0.0
230
1.0
 40
0.7071067811865478
 41
0.0
 42
6.283185307179586
  0
ELLIPSE
  5
78CC
330
7873
100
AcDbEntity
  8
0
100
AcDbEllipse
 10
34.82110158537755
 20
-34.5
 30
0.0
 11
-0.000000000000004
 21
-4.250000000000007
 31
0.0
210
0.0
220
0.0
230
1.0
 40
0.7071067811865471
 41
0.3607127203635238
 42
2.780879933226274
  0
ELLIPSE
  5
78CD
330
7873
100
AcDbEntity
  8
0
100
AcDbEllipse
 10
36.94242192893717
 20
-34.5
 30
0.0
 11
0.0000000000000105
 21
4.250000000000007
 31
0.0
210
0.0
220
0.0
230
1.0
 40
0.7071067811865475
 41
0.0
 42
6.283185307179586
  0
SPLINE
  5
78CE
330
7873
100
AcDbEntity
  8
0
100
AcDbSpline
210
0.0
220
0.0
230
1.0
 70
     8
 71
     3
 72
    20
 73
    16
 74
     0
 42
0.000000001
 43
0.0000000001
 40
3.610428500846457
 40
3.610428500846457
 40
3.610428500846457
 40
3.610428500846457
 40
3.915583137124388
 40
3.915583137124388
 40
4.250948718792407
 40
4.250948718792407
 40
4.598223866675335
 40
4.598223866675335
 40
4.946884042755314
 40
4.946884042755314
 40
5.295462740443006
 40
5.295462740443006
 40
5.640452903438126
 40
5.640452903438126
 40
5.814349459922921
 40
5.814349459922921
 40
5.814349459922921
 40
5.814349459922921
 10
68.33028880781646
 20
-50.5946968086753
 30
0.0
 10
69.11700459025022
 20
-50.03117047315122
 30
0.0
 10
69.80382793779734
 20
-49.32593232121278
 30
0.0
 10
71.01626755628879
 20
-47.64996451308099
 30
0.0
 10
71.52063156989671
 20
-46.65899998095799
 30
0.0
 10
72.27602068735627
 20
-44.51059426812054
 30
0.0
 10
72.51730182243564
 20
-43.3479087838342
 30
0.0
 10
72.70906257254566
 20
-40.98281303534804
 30
0.0
 10
72.65825270916597
 20
-39.78038292600449
 30
0.0
 10
72.26422834558739
 20
-37.44778271017334
 30
0.0
 10
71.92130571936164
 20
-36.31756165760612
 30
0.0
 10
70.9546967433421
 20
-34.24501360916176
 30
0.0
 10
70.33361376658615
 20
-33.29981048511768
 30
0.0
 10
69.19484442257457
 20
-32.09389641272405
 30
0.0
 10
68.77860959089928
 20
-31.72643640572186
 30
0.0
 10
68.33028880781646
 20
-31.40530319132468
 30
0.0
  0
SPLINE
  5
78CF
330
7873
100
AcDbEntity
  8
0
100
AcDbSpline
210
0.0
220
0.0
230
1.0
 70
     8
 71
     3
 72
    22
 73
    18
 74
     0
 42
0.000000001
 43
0.0000000001
 40
0.4688358472566613
 40
0.4688358472566613
 40
0.4688358472566613
 40
0.4688358472566613
 40
0.7924082645561716
 40
0.7924082645561716
 40
1.092905548958553
 40
1.092905548958553
 40
1.390826025373053
 40
1.390826025373053
 40
1.689626727325362
 40
1.689626727325362
 40
1.988565121218287
 40
1.988565121218287
 40
2.286607928325714
 40
2.286607928325714
 40
2.585816176074115
 40
2.585816176074115
 40
2.672756806333131
 40
2.672756806333131
 40
2.672756806333131
 40
2.672756806333131
 10
35.18494272912908
 20
-26.68949301680101
 30
0.0
 10
34.6609702249257
 20
-27.06481573410517
 30
0.0
 10
34.15002913088797
 20
-27.58426807687416
 30
0.0
 10
33.27647518489301
 20
-28.83710292123942
 30
0.0
 10
32.90685721042381
 20
-29.55136266190088
 30
0.0
 10
32.33038558271904
 20
-31.12541601701615
 30
0.0
 10
32.12225301408984
 20
-31.9832844695794
 30
0.0
 10
31.89359780940567
 20
-33.76062502389128
 30
0.0
 10
31.87363050441498
 20
-34.67987322162523
 30
0.0
 10
32.0256129239407
 20
-36.48011092619667
 30
0.0
 10
32.19765918149601
 20
-37.36069718322908
 30
0.0
 10
32.70817332592058
 20
-38.98713915756424
 30
0.0
 10
33.04607821135699
 20
-39.73284915177014
 30
0.0
 10
33.83774869544959
 20
-41.02020212359302
 30
0.0
 10
34.29133687146997
 20
-41.56019697021029
 30
0.0
 10
34.9043474426687
 20
-42.09862973647371
 30
0.0
 10
35.04415662586963
 20
-42.20966157163615
 30
0.0
 10
35.18494272912908
 20
-42.31050698319897
 30
0.0
  0
SPLINE
  5
78D0
330
7873
100
AcDbEntity
  8
0
100
AcDbSpline
210
0.0
220
0.0
230
1.0
 70
     8
 71
     3
 72
    16
 73
    12
 74
     0
 42
0.000000001
 43
0.0000000001
 40
4.712388980384687
 40
4.712388980384687
 40
4.712388980384687
 40
4.712388980384687
 40
4.932781076292332
 40
4.932781076292332
 40
5.153173172199978
 40
5.153173172199978
 40
5.373565268107624
 40
5.373565268107624
 40
5.593957364015269
 40
5.593957364015269
 40
5.814349459922913
 40
5.814349459922913
 40
5.814349459922913
 40
5.814349459922913
 10
20.44035317412077
 20
25.00000000000003
 30
0.0
 10
20.44035317412077
 20
25.13919844346172
 30
0.0
 10
20.42964959405153
 20
25.27841129718935
 30
0.0
 10
20.3851310432824
 20
25.55943799953793
 30
0.0
 10
20.35133203669557
 20
25.70129693183089
 30
0.0
 10
20.25528489725444
 20
25.9892341230935
 30
0.0
 10
20.19304308518544
 20
26.13541176320371
 30
0.0
 10
20.03066213572708
 20
26.43058382677908
 30
0.0
 10
19.93042771847613
 20
26.57976197289487
 30
0.0
 10
19.67937355800846
 20
26.87233222696018
 30
0.0
 10
19.52816758436061
 20
27.01588292033049
 30
0.0
 10
19.34692934958284
 20
27.14570428731161
 30
0.0
  0
SPLINE
  5
78D1
330
7873
100
AcDbEntity
  8
0
100
AcDbSpline
210
0.0
220
0.0
230
1.0
 70
     8
 71
     3
 72
    16
 73
    12
 74
     0
 42
0.000000001
 43
0.0000000001
 40
3.610428500846452
 40
3.610428500846452
 40
3.610428500846452
 40
3.610428500846452
 40
3.830820596754099
 40
3.830820596754099
 40
4.051212692661746
 40
4.051212692661746
 40
4.271604788569392
 40
4.271604788569392
 40
4.491996884477039
 40
4.491996884477039
 40
4.712388980384687
 40
4.712388980384687
 40
4.712388980384687
 40
4.712388980384687
 10
19.34692934958283
 20
-29.1457042873116
 30
0.0
 10
19.5281675843606
 20
-29.01588292033048
 30
0.0
 10
19.67937355800846
 20
-28.87233222696016
 30
0.0
 10
19.93042771847614
 20
-28.57976197289485
 30
0.0
 10
20.03066213572709
 20
-28.43058382677905
 30
0.0
 10
20.19304308518546
 20
-28.13541176320367
 30
0.0
 10
20.25528489725446
 20
-27.98923412309346
 30
0.0
 10
20.3513320366956
 20
-27.70129693183085
 30
0.0
 10
20.38513104328242
 20
-27.55943799953789
 30
0.0
 10
20.42964959405156
 20
-27.27841129718929
 30
0.0
 10
20.4403531741208
 20
-27.13919844346167
 30
0.0
 10
20.4403531741208
 20
-26.99999999999997
 30
0.0
  0
LINE
  5
78D2
330
7873
100
AcDbEntity
  8
0
100
AcDbLine
 10
20.44035317412081
 20
-26.99999999999997
 30
0.0
 11
20.44035317412079
 21
25.00000000000004
 31
0.0
  0
ENDBLK
  5
7875
330
7873
100
AcDbEntity
  8
0
100
AcDbBlockEnd
  0
BLOCK
  5
78D4
330
78D3
100
AcDbEntity
  8
0
100
AcDbBlockBegin
  2
TUSR16-Right
 70
     0
 10
0.0
 20
0.0
 30
0.0
  3
TUSR16-Right
  1

  0
LINE
  5
78D6
330
78D3
100
AcDbEntity
  8
0
100
AcDbLine
 10
-1.757359312880746
 20
-3.249999999999952
 30
0.0
 11
0.0
 21
-3.249999999999978
 31
0.0
  0
SPLINE
  5
78D7
330
78D3
100
AcDbEntity
  8
0
100
AcDbSpline
210
0.0
220
0.0
230
1.0
 70
     8
 71
     3
 72
    20
 73
    16
 74
     0
 42
0.000000001
 43
0.0000000001
 40
0.0
 40
0.0
 40
0.0
 40
0.0
 40
0.0482577406244757
 40
0.0482577406244757
 40
0.1247210444914851
 40
0.1247210444914851
 40
0.2062667644209899
 40
0.2062667644209899
 40
0.2777024473163609
 40
0.2777024473163609
 40
0.3211152132673665
 40
0.3211152132673665
 40
0.3462401103336958
 40
0.3462401103336958
 40
0.3800764519768972
 40
0.3800764519768972
 40
0.3800764519768972
 40
0.3800764519768972
 10
-1.70680208622594
 20
-31.9916926312914
 30
0.0
 10
-1.598230392920466
 20
-31.9502085523921
 30
0.0
 10
-1.44455124782421
 20
-31.89803377414265
 30
0.0
 10
-0.9972979500718603
 20
-31.81011609383321
 30
0.0
 10
-0.7587437725302565
 20
-31.81605506716432
 30
0.0
 10
-0.3683320903950011
 20
-31.95345439965681
 30
0.0
 10
-0.2355389050282361
 20
-32.0888659634303
 30
0.0
 10
-0.0770441793877362
 20
-32.44449282992045
 30
0.0
 10
-0.0405478600966474
 20
-32.65015181185491
 30
0.0
 10
-0.0101160165884057
 20
-33.03454572051459
 30
0.0
 10
-0.0048633496153355
 20
-33.19660058436272
 30
0.0
 10
-0.0009537301506563
 20
-33.47724530451233
 30
0.0
 10
-0.0004358054848336
 20
-33.58452959120818
 30
0.0
 10
0.00011565779713
 20
-33.84505831312136
 30
0.0
 10
-0.0000000000000123
 20
-33.97547945352131
 30
0.0
 10
-0.0000000000000123
 20
-34.07785630406668
 30
0.0
  0
SPLINE
  5
78D8
330
78D3
100
AcDbEntity
  8
0
100
AcDbSpline
210
0.0
220
0.0
230
1.0
 70
     8
 71
     3
 72
    14
 73
    10
 74
     0
 42
0.000000001
 43
0.0000000001
 40
0.0
 40
0.0
 40
0.0
 40
0.0
 40
0.0448080192617406
 40
0.0448080192617406
 40
0.0813094635639821
 40
0.0813094635639821
 40
0.1175066628847155
 40
0.1175066628847155
 40
0.1377590608509694
 40
0.1377590608509694
 40
0.1377590608509694
 40
0.1377590608509694
 10
-3.000000000000011
 20
-34.07785630406667
 30
0.0
 10
-3.000000000000011
 20
-33.92849624106125
 30
0.0
 10
-2.999931003480276
 20
-33.77693877340815
 30
0.0
 10
-3.000413962548104
 20
-33.50297278125186
 30
0.0
 10
-3.000866531283452
 20
-33.38156445044723
 30
0.0
 10
-3.003505515890221
 20
-33.14476121356535
 30
0.0
 10
-3.005684676966584
 20
-33.02854762370421
 30
0.0
 10
-3.012077711438805
 20
-32.85336867884802
 30
0.0
 10
-3.014956981910634
 20
-32.79178439769038
 30
0.0
 10
-3.018700812336184
 20
-32.73177730295882
 30
0.0
  0
SPLINE
  5
78D9
330
78D3
100
AcDbEntity
  8
0
100
AcDbSpline
210
0.0
220
0.0
230
1.0
 70
     8
 71
     3
 72
    10
 73
     6
 74
     0
 42
0.000000001
 43
0.0000000001
 40
0.0
 40
0.0
 40
0.0
 40
0.0
 40
0.0037246980274982
 40
0.0037246980274982
 40
0.0074493960547429
 40
0.0074493960547429
 40
0.0074493960547429
 40
0.0074493960547429
 10
-1.757359312880732
 20
-32.01106262639861
 30
0.0
 10
-1.74888209366525
 20
-32.00783429490124
 30
0.0
 10
-1.740430300871526
 20
-32.00460597067243
 30
0.0
 10
-1.723577742466259
 20
-31.9981492870178
 30
0.0
 10
-1.715177068673575
 20
-31.99492096278889
 30
0.0
 10
-1.706802086225943
 20
-31.9916926312914
 30
0.0
  0
LINE
  5
78DA
330
78D3
100
AcDbEntity
  8
0
100
AcDbLine
 10
0.0
 20
-3.249999999999997
 30
0.0
 11
0.0
 21
-34.07785630406667
 31
0.0
  0
LINE
  5
78DB
330
78D3
100
AcDbEntity
  8
0
100
AcDbLine
 10
0.0
 20
-36.16401997684195
 30
0.0
 11
0.0
 21
-34.07785630406667
 31
0.0
  0
LINE
  5
78DC
330
78D3
100
AcDbEntity
  8
0
100
AcDbLine
 10
0.0
 20
-48.68563229086642
 30
0.0
 11
0.0
 21
-36.16401997684194
 31
0.0
  0
LINE
  5
78DD
330
78D3
100
AcDbEntity
  8
0
100
AcDbLine
 10
0.0
 20
-48.6856322908664
 30
0.0
 11
0.0
 21
-50.53999999999999
 31
0.0
  0
LINE
  5
78DE
330
78D3
100
AcDbEntity
  8
0
100
AcDbLine
 10
0.0
 20
-64.99999999999999
 30
0.0
 11
0.0
 21
-50.53999999999999
 31
0.0
  0
LINE
  5
78DF
330
78D3
100
AcDbEntity
  8
0
100
AcDbLine
 10
0.0
 20
-64.99999999999999
 30
0.0
 11
0.0
 21
-67.0
 31
0.0
  0
LINE
  5
78E0
330
78D3
100
AcDbEntity
  8
0
100
AcDbLine
 10
-2.999999999999997
 20
-67.0
 30
0.0
 11
-2.999999999999997
 21
-64.99999999999999
 31
0.0
  0
LINE
  5
78E1
330
78D3
100
AcDbEntity
  8
0
100
AcDbLine
 10
-3.0
 20
-50.53999999999999
 30
0.0
 11
-2.999999999999997
 21
-64.99999999999999
 31
0.0
  0
LINE
  5
78E2
330
78D3
100
AcDbEntity
  8
0
100
AcDbLine
 10
-3.0
 20
-50.53999999999999
 30
0.0
 11
-3.000000000000002
 21
-48.6856322908664
 31
0.0
  0
LINE
  5
78E3
330
78D3
100
AcDbEntity
  8
0
100
AcDbLine
 10
-3.000000000000011
 20
-36.16401997684194
 30
0.0
 11
-3.000000000000001
 21
-48.68563229086642
 31
0.0
  0
LINE
  5
78E4
330
78D3
100
AcDbEntity
  8
0
100
AcDbLine
 10
-3.000000000000011
 20
-34.07785630406667
 30
0.0
 11
-3.000000000000011
 21
-36.16401997684195
 31
0.0
  0
LINE
  5
78E5
330
78D3
100
AcDbEntity
  8
0
100
AcDbLine
 10
0.0
 20
-67.0
 30
0.0
 11
-2.999999999999997
 21
-67.0
 31
0.0
  0
LINE
  5
78E6
330
78D3
100
AcDbEntity
  8
0
100
AcDbLine
 10
-3.000000000000033
 20
36.30401997684193
 30
0.0
 11
-3.000000000000033
 21
34.21785630406666
 31
0.0
  0
LINE
  5
78E7
330
78D3
100
AcDbEntity
  8
0
100
AcDbLine
 10
-3.000000000000029
 20
48.82563229086645
 30
0.0
 11
-3.000000000000029
 21
36.30401997684193
 31
0.0
  0
LINE
  5
78E8
330
78D3
100
AcDbEntity
  8
0
100
AcDbLine
 10
-3.00000000000003
 20
48.82563229086638
 30
0.0
 11
-3.000000000000029
 21
50.68000000000002
 31
0.0
  0
LINE
  5
78E9
330
78D3
100
AcDbEntity
  8
0
100
AcDbLine
 10
-3.000000000000028
 20
65.00000000000003
 30
0.0
 11
-3.000000000000025
 21
50.68000000000002
 31
0.0
  0
LINE
  5
78EA
330
78D3
100
AcDbEntity
  8
0
100
AcDbLine
 10
-3.000000000000028
 20
65.00000000000003
 30
0.0
 11
-3.000000000000029
 21
67.00000000000001
 31
0.0
  0
LINE
  5
78EB
330
78D3
100
AcDbEntity
  8
0
100
AcDbLine
 10
0.0
 20
34.21785630406666
 30
0.0
 11
0.0
 21
36.30401997684193
 31
0.0
  0
LINE
  5
78EC
330
78D3
100
AcDbEntity
  8
0
100
AcDbLine
 10
0.0
 20
67.00000000000001
 30
0.0
 11
0.0
 21
65.00000000000003
 31
0.0
  0
LINE
  5
78ED
330
78D3
100
AcDbEntity
  8
0
100
AcDbLine
 10
0.0
 20
50.68000000000002
 30
0.0
 11
0.0
 21
65.00000000000003
 31
0.0
  0
LINE
  5
78EE
330
78D3
100
AcDbEntity
  8
0
100
AcDbLine
 10
0.0
 20
50.68000000000002
 30
0.0
 11
0.0
 21
48.82563229086638
 31
0.0
  0
LINE
  5
78EF
330
78D3
100
AcDbEntity
  8
0
100
AcDbLine
 10
0.0
 20
36.30401997684193
 30
0.0
 11
0.0
 21
48.82563229086645
 31
0.0
  0
LINE
  5
78F0
330
78D3
100
AcDbEntity
  8
0
100
AcDbLine
 10
0.0
 20
67.0
 30
0.0
 11
-3.000000000000029
 21
67.0
 31
0.0
  0
LINE
  5
78F1
330
78D3
100
AcDbEntity
  8
0
100
AcDbLine
 10
-48.99206689762777
 20
-58.99999999999999
 30
0.0
 11
-73.53519785534101
 21
-59.00000000000002
 31
0.0
  0
LINE
  5
78F2
330
78D3
100
AcDbEntity
  8
0
100
AcDbLine
 10
-73.53519785534101
 20
-59.00000000000002
 30
0.0
 11
-75.65651819890064
 21
-59.00000000000002
 31
0.0
  0
ELLIPSE
  5
78F3
330
78D3
100
AcDbEntity
  8
0
100
AcDbEllipse
 10
-75.65651819890064
 20
-57.00000000000002
 30
0.0
 11
-0.0000000000000062
 21
-1.999999999999992
 31
0.0
210
0.0
220
0.0
230
1.0
 40
0.7071067811865475
 41
4.712388980384687
 42
6.283185307179595
  0
ELLIPSE
  5
78F4
330
78D3
100
AcDbEntity
  8
0
100
AcDbEllipse
 10
-73.53519785534101
 20
-57.00000000000002
 30
0.0
 11
0.0
 21
-1.999999999999992
 31
0.0
210
0.0
220
0.0
230
1.0
 40
0.7071067811865475
 41
4.712388980384685
 42
6.283185307179586
  0
LINE
  5
78F5
330
78D3
100
AcDbEntity
  8
0
100
AcDbLine
 10
-77.07073176127375
 20
52.00000000000002
 30
0.0
 11
-77.07073176127373
 21
-57.0
 31
0.0
  0
LINE
  5
78F6
330
78D3
100
AcDbEntity
  8
0
100
AcDbLine
 10
-74.94941141771409
 20
-57.0
 30
0.0
 11
-74.94941141771412
 21
52.00000000000002
 31
0.0
  0
ELLIPSE
  5
78F7
330
78D3
100
AcDbEntity
  8
0
100
AcDbEllipse
 10
-75.65651819890065
 20
52.00000000000002
 30
0.0
 11
0.0
 21
1.999999999999992
 31
0.0
210
0.0
220
0.0
230
1.0
 40
0.7071067811865475
 41
0.0
 42
1.570796326794896
  0
ELLIPSE
  5
78F8
330
78D3
100
AcDbEntity
  8
0
100
AcDbEllipse
 10
-73.53519785534103
 20
52.00000000000002
 30
0.0
 11
-0.0000000000000001
 21
1.999999999999992
 31
0.0
210
0.0
220
0.0
230
1.0
 40
0.7071067811865475
 41
0.0
 42
1.570796326794896
  0
LINE
  5
78F9
330
78D3
100
AcDbEntity
  8
0
100
AcDbLine
 10
-73.53519785534103
 20
54.00000000000002
 30
0.0
 11
-75.65651819890065
 21
54.00000000000002
 31
0.0
  0
LINE
  5
78FA
330
78D3
100
AcDbEntity
  8
0
100
AcDbLine
 10
-73.53519785534103
 20
54.00000000000002
 30
0.0
 11
-69.74217006151514
 21
54.00000000000003
 31
0.0
  0
ELLIPSE
  5
78FB
330
78D3
100
AcDbEntity
  8
0
100
AcDbEllipse
 10
-69.74217006151514
 20
52.00000000000002
 30
0.0
 11
0.0
 21
1.99999999999995
 31
0.0
210
0.0
220
0.0
230
1.0
 40
0.7071067811865475
 41
5.25344104850293
 42
6.283185307179586
  0
LINE
  5
78FC
330
78D3
100
AcDbEntity
  8
0
100
AcDbLine
 10
-68.52995243963947
 20
53.03007614982012
 30
0.0
 11
-66.81768343406881
 21
49.00000000000002
 31
0.0
  0
LINE
  5
78FD
330
78D3
100
AcDbEntity
  8
0
100
AcDbLine
 10
-66.81768343406881
 20
49.00000000000002
 30
0.0
 11
-66.81768343406881
 21
44.00000000000001
 31
0.0
  0
ELLIPSE
  5
78FE
330
78D3
100
AcDbEntity
  8
0
100
AcDbEllipse
 10
-64.16603300461926
 20
39.00000000000001
 30
0.0
 11
0.000000000000463
 21
-6.25
 31
0.0
210
0.0
220
0.0
230
1.0
 40
0.7071067811865479
 41
3.78509376238288
 42
6.283185307179329
  0
LINE
  5
78FF
330
78D3
100
AcDbEntity
  8
0
100
AcDbLine
 10
-64.16603300461924
 20
32.75000000000001
 30
0.0
 11
-62.04471266105961
 21
32.75000000000001
 31
0.0
  0
ELLIPSE
  5
7900
330
78D3
100
AcDbEntity
  8
0
100
AcDbEllipse
 10
-64.16603300461926
 20
39.00000000000001
 30
0.0
 11
0.0000000000000002
 21
-6.25
 31
0.0
210
0.0
220
0.0
230
1.0
 40
0.7071067811865475
 41
0.0
 42
1.570796326794896
  0
ELLIPSE
  5
7901
330
78D3
100
AcDbEntity
  8
0
100
AcDbEllipse
 10
-62.04471266105962
 20
39.00000000000001
 30
0.0
 11
0.0
 21
-6.25
 31
0.0
210
0.0
220
0.0
230
1.0
 40
0.7071067811865475
 41
0.0
 42
1.570796326794896
  0
LINE
  5
7902
330
78D3
100
AcDbEntity
  8
0
100
AcDbLine
 10
-59.74661562220335
 20
50.0
 30
0.0
 11
-59.74661562220335
 21
39.00000000000001
 31
0.0
  0
LINE
  5
7903
330
78D3
100
AcDbEntity
  8
0
100
AcDbLine
 10
-57.62529527864372
 20
39.00000000000001
 30
0.0
 11
-57.62529527864372
 21
50.0
 31
0.0
  0
LINE
  5
7904
330
78D3
100
AcDbEntity
  8
0
100
AcDbLine
 10
-57.62529527864372
 20
50.0
 30
0.0
 11
-59.74661562220335
 21
50.0
 31
0.0
  0
LINE
  5
7905
330
78D3
100
AcDbEntity
  8
0
100
AcDbLine
 10
-57.70537416988403
 20
55.0
 30
0.0
 11
-59.74661562220335
 21
50.0
 31
0.0
  0
LINE
  5
7906
330
78D3
100
AcDbEntity
  8
0
100
AcDbLine
 10
-57.62529527864372
 20
50.0
 30
0.0
 11
-55.58405382632439
 21
55.0
 31
0.0
  0
ELLIPSE
  5
7907
330
78D3
100
AcDbEntity
  8
0
100
AcDbEllipse
 10
-56.48062929849245
 20
54.00000000000002
 30
0.0
 11
0.0
 21
1.99999999999999
 31
0.0
210
0.0
220
0.0
230
1.0
 40
0.7071067811865474
 41
0.0
 42
1.047197551196595
  0
ELLIPSE
  5
7908
330
78D3
100
AcDbEntity
  8
0
100
AcDbEllipse
 10
-54.3593089549328
 20
54.00000000000002
 30
0.0
 11
0.0000000000000002
 21
1.99999999999999
 31
0.0
210
0.0
220
0.0
230
1.0
 40
0.7071067811865472
 41
0.0
 42
1.047197551196595
  0
LINE
  5
7909
330
78D3
100
AcDbEntity
  8
0
100
AcDbLine
 10
-54.3593089549328
 20
56.00000000000001
 30
0.0
 11
-56.48062929849245
 21
56.00000000000001
 31
0.0
  0
LINE
  5
790A
330
78D3
100
AcDbEntity
  8
0
100
AcDbLine
 10
-54.3593089549328
 20
56.00000000000001
 30
0.0
 11
-44.12634819826225
 21
55.99999999999998
 31
0.0
  0
ELLIPSE
  5
790B
330
78D3
100
AcDbEntity
  8
0
100
AcDbEllipse
 10
-44.12634819826225
 20
54.00000000000002
 30
0.0
 11
0.0
 21
1.999999999999797
 31
0.0
210
0.0
220
0.0
230
1.0
 40
0.7071067811865476
 41
5.899212871740832
 42
6.283185307179586
  0
LINE
  5
790C
330
78D3
100
AcDbEntity
  8
0
100
AcDbLine
 10
-43.59657447329908
 20
55.85436770913358
 30
0.0
 11
-41.46139062164595
 21
54.63436770913361
 31
0.0
  0
ELLIPSE
  5
790D
330
78D3
100
AcDbEntity
  8
0
100
AcDbEllipse
 10
-41.99116434660914
 20
52.78000000000002
 30
0.0
 11
-0.0000000000000002
 21
2.000000000000053
 31
0.0
210
0.0
220
0.0
230
1.0
 40
0.7071067811865474
 41
5.235987755982982
 42
5.89921287174083
  0
LINE
  5
790E
330
78D3
100
AcDbEntity
  8
0
100
AcDbLine
 10
-40.76641947521753
 20
53.78000000000001
 30
0.0
 11
-39.94762574898
 21
51.77437316612597
 31
0.0
  0
LINE
  5
790F
330
78D3
100
AcDbEntity
  8
0
100
AcDbLine
 10
-39.94762574898
 20
51.77437316612597
 30
0.0
 11
-39.94762574898
 21
48.23861278752585
 31
0.0
  0
ELLIPSE
  5
7910
330
78D3
100
AcDbEntity
  8
0
100
AcDbEllipse
 10
-37.64952871012373
 20
45.50000000000001
 30
0.0
 11
0.0000000000003159
 21
-4.249999999999996
 31
0.0
210
0.0
220
0.0
230
1.0
 40
0.7071067811865478
 41
4.012177424850264
 42
6.283185307179365
  0
LINE
  5
7911
330
78D3
100
AcDbEntity
  8
0
100
AcDbLine
 10
-37.64952871012373
 20
41.25
 30
0.0
 11
-36.58886853834391
 21
41.25
 31
0.0
  0
ELLIPSE
  5
7912
330
78D3
100
AcDbEntity
  8
0
100
AcDbEllipse
 10
-38.71018888190356
 20
45.50000000000001
 30
0.0
 11
0.0000000000000002
 21
-4.250000000000007
 31
0.0
210
0.0
220
0.0
230
1.0
 40
0.7071067811865475
 41
0.1773996044403789
 42
1.570796326794896
  0
ELLIPSE
  5
7913
330
78D3
100
AcDbEntity
  8
0
100
AcDbEllipse
 10
-36.58886853834391
 20
45.50000000000001
 30
0.0
 11
0.0
 21
-4.250000000000007
 31
0.0
210
0.0
220
0.0
230
1.0
 40
0.7071067811865475
 41
0.0
 42
1.570796326794896
  0
LINE
  5
7914
330
78D3
100
AcDbEntity
  8
0
100
AcDbLine
 10
-35.70498506186073
 20
47.37083496185031
 30
0.0
 11
-35.70498506186073
 21
45.50000000000001
 31
0.0
  0
LINE
  5
7915
330
78D3
100
AcDbEntity
  8
0
100
AcDbLine
 10
-33.58366471830108
 20
45.50000000000001
 30
0.0
 11
-33.58366471830108
 21
47.37083496185031
 31
0.0
  0
ELLIPSE
  5
7916
330
78D3
100
AcDbEntity
  8
0
100
AcDbEllipse
 10
-34.29077149948764
 20
47.37083496185031
 30
0.0
 11
0.0
 21
2.000000000000002
 31
0.0
210
0.0
220
0.0
230
1.0
 40
0.7071067811865476
 41
0.0
 42
1.570796326794896
  0
ELLIPSE
  5
7917
330
78D3
100
AcDbEntity
  8
0
100
AcDbEllipse
 10
-32.16945115592799
 20
47.37083496185031
 30
0.0
 11
-0.0000000000000001
 21
2.000000000000002
 31
0.0
210
0.0
220
0.0
230
1.0
 40
0.7071067811865476
 41
5.899212871740837
 42
7.853981633974482
  0
LINE
  5
7918
330
78D3
100
AcDbEntity
  8
0
100
AcDbLine
 10
-31.63967743096482
 20
49.22520267098391
 30
0.0
 11
-1.757359312880746
 21
32.15106262639861
 31
0.0
  0
ELLIPSE
  5
7919
330
78D3
100
AcDbEntity
  8
0
100
AcDbEllipse
 10
-2.470966346092989
 20
-0.999999999999992
 30
0.0
 11
-0.0000000000000003
 21
2.250000000000004
 31
0.0
210
0.0
220
0.0
230
1.0
 40
0.7071067811865475
 41
0.0
 42
3.141592653589793
  0
LINE
  5
791A
330
78D3
100
AcDbEntity
  8
0
100
AcDbLine
 10
-1.757359312880738
 20
1.250000000000013
 30
0.0
 11
-2.470966346092989
 21
1.250000000000013
 31
0.0
  0
LINE
  5
791B
330
78D3
100
AcDbEntity
  8
0
100
AcDbLine
 10
-1.757359312880726
 20
-32.01106262639863
 30
0.0
 11
-48.99206689762777
 21
-58.99999999999999
 31
0.0
  0
LINE
  5
791C
330
78D3
100
AcDbEntity
  8
0
100
AcDbLine
 10
-2.470966346092992
 20
-3.249999999999997
 30
0.0
 11
-1.757359312880737
 21
-3.249999999999997
 31
0.0
  0
LINE
  5
791D
330
78D3
100
AcDbEntity
  8
0
100
AcDbLine
 10
-32.16945115592799
 20
49.37083496185032
 30
0.0
 11
-34.29077149948764
 21
49.37083496185032
 31
0.0
  0
LINE
  5
791E
330
78D3
100
AcDbEntity
  8
0
100
AcDbLine
 10
0.0
 20
34.21785630406666
 30
0.0
 11
0.0
 21
1.250000000000013
 31
0.0
  0
SPLINE
  5
791F
330
78D3
100
AcDbEntity
  8
0
100
AcDbSpline
210
0.0
220
0.0
230
1.0
 70
     8
 71
     3
 72
    10
 73
     6
 74
     0
 42
0.000000001
 43
0.0000000001
 40
0.0
 40
0.0
 40
0.0
 40
0.0
 40
0.0037246980960292
 40
0.0037246980960292
 40
0.0074493961920641
 40
0.0074493961920641
 40
0.0074493961920641
 40
0.0074493961920641
 10
-1.706802086225954
 20
32.13169263129139
 30
0.0
 10
-1.715177068827386
 20
32.13492096284821
 30
0.0
 10
-1.723577742776688
 20
32.13814928713634
 30
0.0
 10
-1.740430300562437
 20
32.14460597055369
 30
0.0
 10
-1.748882093509304
 20
32.14783429484184
 30
0.0
 10
-1.757359312880745
 20
32.15106262639863
 30
0.0
  0
LINE
  5
7920
330
78D3
100
AcDbEntity
  8
0
100
AcDbLine
 10
0.0
 20
1.249999999999924
 30
0.0
 11
-1.757359312880739
 21
1.250000000000013
 31
0.0
  0
SPLINE
  5
7921
330
78D3
100
AcDbEntity
  8
0
100
AcDbSpline
210
0.0
220
0.0
230
1.0
 70
     8
 71
     3
 72
    22
 73
    18
 74
     0
 42
0.000000001
 43
0.0000000001
 40
0.0
 40
0.0
 40
0.0
 40
0.0
 40
0.0359645333652011
 40
0.0359645333652011
 40
0.0617610600730457
 40
0.0617610600730457
 40
0.0897018043912943
 40
0.0897018043912943
 40
0.1325947356316109
 40
0.1325947356316109
 40
0.199369308704895
 40
0.199369308704895
 40
0.2751301000384053
 40
0.2751301000384053
 40
0.3129015393743679
 40
0.3129015393743679
 40
0.3605515933956833
 40
0.3605515933956833
 40
0.3605515933956833
 40
0.3605515933956833
 10
-0.0000000000000289
 20
34.21785630406666
 30
0.0
 10
-0.0000000000000267
 20
34.09797456567056
 30
0.0
 10
0.0002310766620139
 20
33.94332635842951
 30
0.0
 10
-0.000842876879339
 20
33.63874199123299
 30
0.0
 10
-0.0018308708771842
 20
33.51717637989472
 30
0.0
 10
-0.0071474551430817
 20
33.27864041395069
 30
0.0
 10
-0.0117581988720095
 20
33.16322016524344
 30
0.0
 10
-0.031557561305382
 20
32.89195368340954
 30
0.0
 10
-0.0511448178833661
 20
32.74917117143873
 30
0.0
 10
-0.1284920899199535
 20
32.4353188487773
 30
0.0
 10
-0.2041986475815968
 20
32.27932101239539
 30
0.0
 10
-0.4664237345011374
 20
32.03772992009406
 30
0.0
 10
-0.6564608814637132
 20
31.9738187000811
 30
0.0
 10
-1.008857326885149
 20
31.96546946328198
 30
0.0
 10
-1.136812943208535
 20
31.97741842070661
 30
0.0
 10
-1.44565932889065
 20
32.03840802365937
 30
0.0
 10
-1.598608346789179
 20
32.09035296450941
 30
0.0
 10
-1.70680208622595
 20
32.13169263129139
 30
0.0
  0
SPLINE
  5
7922
330
78D3
100
AcDbEntity
  8
0
100
AcDbSpline
210
0.0
220
0.0
230
1.0
 70
     8
 71
     3
 72
    12
 73
     8
 74
     0
 42
0.000000001
 43
0.0000000001
 40
0.4600438631675747
 40
0.4600438631675747
 40
0.4600438631675747
 40
0.4600438631675747
 40
0.4924973234448302
 40
0.4924973234448302
 40
0.5936467899883327
 40
0.5936467899883327
 40
0.7611251630277982
 40
0.7611251630277982
 40
0.7611251630277982
 40
0.7611251630277982
 10
-3.018719464186662
 20
32.87177852958346
 30
0.0
 10
-3.015774765000511
 20
32.91896404327899
 30
0.0
 10
-3.01332525681152
 20
32.96764434828869
 30
0.0
 10
-3.004875407166771
 20
33.1739013304291
 30
0.0
 10
-3.002465043088018
 20
33.33824216867721
 30
0.0
 10
-2.99924281069432
 20
33.78417056858839
 30
0.0
 10
-3.000000000000029
 20
34.03299750675251
 30
0.0
 10
-3.000000000000029
 20
34.21785630406666
 30
0.0
  0
ELLIPSE
  5
7923
330
78D3
100
AcDbEntity
  8
0
100
AcDbEllipse
 10
-63.81247961402599
 20
-1.0
 30
0.0
 11
0.0000000000000118
 21
6.250000000000008
 31
0.0
210
0.0
220
0.0
230
1.0
 40
0.7071067811865478
 41
0.0
 42
6.283185307179586
  0
ELLIPSE
  5
7924
330
78D3
100
AcDbEntity
  8
0
100
AcDbEllipse
 10
-65.93379995758562
 20
-1.0
 30
0.0
 11
0.0000000000000004
 21
6.250000000000008
 31
0.0
210
0.0
220
0.0
230
1.0
 40
0.7071067811865474
 41
3.383958504628755
 42
6.040819456140623
  0
SPLINE
  5
7925
330
78D3
100
AcDbEntity
  8
0
100
AcDbSpline
210
0.0
220
0.0
230
1.0
 70
     8
 71
     3
 72
    22
 73
    18
 74
     0
 42
0.000000001
 43
0.0000000001
 40
3.61042850084644
 40
3.61042850084644
 40
3.61042850084644
 40
3.61042850084644
 40
3.934228032167189
 40
3.934228032167189
 40
4.238546865538696
 40
4.238546865538696
 40
4.540429137164348
 40
4.540429137164348
 40
4.842953485818719
 40
4.842953485818719
 40
5.14555088720383
 40
5.14555088720383
 40
5.447475917955019
 40
5.447475917955019
 40
5.750946091453272
 40
5.750946091453272
 40
5.814349459922938
 40
5.814349459922938
 40
5.814349459922938
 40
5.814349459922938
 10
-66.20896846425671
 20
-10.5946968086754
 30
0.0
 10
-66.86947861203484
 20
-10.12157186131209
 30
0.0
 10
-67.50565138037365
 20
-9.47268118380963
 30
0.0
 10
-68.5925664731403
 20
-7.913139447008394
 30
0.0
 10
-69.05111933849737
 20
-7.02187999425985
 30
0.0
 10
-69.76117987177193
 20
-5.063689910782384
 30
0.0
 10
-70.01420651359544
 20
-3.998935577952197
 30
0.0
 10
-70.28442101213416
 20
-1.798614301277558
 30
0.0
 10
-70.30110161907311
 20
-0.6633788393339393
 30
0.0
 10
-70.09504363670285
 20
1.555847664291354
 30
0.0
 10
-69.87224397220275
 20
2.6393578113791
 30
0.0
 10
-69.21860263298173
 20
4.638236265738054
 30
0.0
 10
-68.78831891953367
 20
5.553329178651583
 30
0.0
 10
-67.77998737870222
 20
7.130548378718893
 30
0.0
 10
-67.201969069695
 20
7.790407871398633
 30
0.0
 10
-66.46668827225326
 20
8.402802104277037
 30
0.0
 10
-66.33830332804329
 20
8.502053946446695
 30
0.0
 10
-66.20896846425671
 20
8.594696808675401
 30
0.0
  0
ELLIPSE
  5
7926
330
78D3
100
AcDbEntity
  8
0
100
AcDbEllipse
 10
-34.82110158537755
 20
5.499999999999993
 30
0.0
 11
0.000000000000012
 21
4.250000000000007
 31
0.0
210
0.0
220
0.0
230
1.0
 40
0.7071067811865475
 41
0.0
 42
6.283185307179586
  0
ELLIPSE
  5
7927
330
78D3
100
AcDbEntity
  8
0
100
AcDbEllipse
 10
-36.94242192893717
 20
5.499999999999993
 30
0.0
 11
-0.0000000000000011
 21
-4.250000000000006
 31
0.0
210
0.0
220
0.0
230
1.0
 40
0.7071067811865478
 41
0.3607127203635223
 42
2.780879933226271
  0
SPLINE
  5
7928
330
78D3
100
AcDbEntity
  8
0
100
AcDbSpline
210
0.0
220
0.0
230
1.0
 70
     8
 71
     3
 72
    20
 73
    16
 74
     0
 42
0.000000001
 43
0.0000000001
 40
0.4688358472566598
 40
0.4688358472566598
 40
0.4688358472566598
 40
0.4688358472566598
 40
0.770083126397708
 40
0.770083126397708
 40
1.107261838481027
 40
1.107261838481027
 40
1.46071369271544
 40
1.46071369271544
 40
1.816545179932156
 40
1.816545179932156
 40
2.172116069642852
 40
2.172116069642852
 40
2.521646319578253
 40
2.521646319578253
 40
2.672756806333133
 40
2.672756806333133
 40
2.672756806333133
 40
2.672756806333133
 10
-33.06362238556944
 20
13.31050698319899
 30
0.0
 10
-32.4136659174194
 20
12.8449416609759
 30
0.0
 10
-31.85127321233518
 20
12.26841299400546
 30
0.0
 10
-30.85306000431636
 20
10.89931744936273
 30
0.0
 10
-30.43883230925052
 20
10.08836311190222
 30
0.0
 10
-29.81673989351366
 20
8.328322334727612
 30
0.0
 10
-29.61985628288786
 20
7.373750570281982
 30
0.0
 10
-29.46813288733703
 20
5.432464787148254
 30
0.0
 10
-29.51505275617745
 20
4.445588490627268
 30
0.0
 10
-29.85470961594801
 20
2.530469123247569
 30
0.0
 10
-30.14703643885606
 20
1.60199942688091
 30
0.0
 10
-30.97191205508573
 20
-0.0983228173950676
 30
0.0
 10
-31.50080722708783
 20
-0.8738585100372063
 30
0.0
 10
-32.4333148277729
 20
-1.815229807655333
 30
0.0
 10
-32.73759375370369
 20
-2.076971919719194
 30
0.0
 10
-33.06362238556945
 20
-2.310506983198999
 30
0.0
  0
ELLIPSE
  5
7929
330
78D3
100
AcDbEntity
  8
0
100
AcDbEllipse
 10
-63.81247961402599
 20
-40.99999999999998
 30
0.0
 11
0.0000000000000118
 21
6.250000000000008
 31
0.0
210
0.0
220
0.0
230
1.0
 40
0.7071067811865478
 41
0.0
 42
6.283185307179586
  0
ELLIPSE
  5
792A
330
78D3
100
AcDbEntity
  8
0
100
AcDbEllipse
 10
-65.93379995758562
 20
-40.99999999999998
 30
0.0
 11
0.0000000000000004
 21
6.250000000000008
 31
0.0
210
0.0
220
0.0
230
1.0
 40
0.7071067811865474
 41
3.383958504628755
 42
6.040819456140623
  0
ELLIPSE
  5
792B
330
78D3
100
AcDbEntity
  8
0
100
AcDbEllipse
 10
-34.82110158537755
 20
-34.5
 30
0.0
 11
0.000000000000012
 21
4.250000000000007
 31
0.0
210
0.0
220
0.0
230
1.0
 40
0.7071067811865475
 41
0.0
 42
6.283185307179586
  0
ELLIPSE
  5
792C
330
78D3
100
AcDbEntity
  8
0
100
AcDbEllipse
 10
-36.94242192893717
 20
-34.5
 30
0.0
 11
0.0000000000000003
 21
-4.250000000000007
 31
0.0
210
0.0
220
0.0
230
1.0
 40
0.7071067811865474
 41
0.3607127203635234
 42
2.780879933226271
  0
SPLINE
  5
792D
330
78D3
100
AcDbEntity
  8
0
100
AcDbSpline
210
0.0
220
0.0
230
1.0
 70
     8
 71
     3
 72
    22
 73
    18
 74
     0
 42
0.000000001
 43
0.0000000001
 40
3.61042850084644
 40
3.61042850084644
 40
3.61042850084644
 40
3.61042850084644
 40
3.934228032167189
 40
3.934228032167189
 40
4.238546865538696
 40
4.238546865538696
 40
4.540429137164348
 40
4.540429137164348
 40
4.842953485818719
 40
4.842953485818719
 40
5.14555088720383
 40
5.14555088720383
 40
5.447475917955019
 40
5.447475917955019
 40
5.750946091453272
 40
5.750946091453272
 40
5.814349459922938
 40
5.814349459922938
 40
5.814349459922938
 40
5.814349459922938
 10
-66.20896846425671
 20
-50.5946968086754
 30
0.0
 10
-66.86947861203481
 20
-50.12157186131208
 30
0.0
 10
-67.50565138037362
 20
-49.47268118380962
 30
0.0
 10
-68.59256647314028
 20
-47.91313944700838
 30
0.0
 10
-69.05111933849737
 20
-47.02187999425984
 30
0.0
 10
-69.76117987177193
 20
-45.06368991078237
 30
0.0
 10
-70.01420651359544
 20
-43.99893557795218
 30
0.0
 10
-70.28442101213414
 20
-41.79861430127754
 30
0.0
 10
-70.30110161907311
 20
-40.66337883933392
 30
0.0
 10
-70.09504363670285
 20
-38.44415233570863
 30
0.0
 10
-69.87224397220273
 20
-37.3606421886209
 30
0.0
 10
-69.21860263298173
 20
-35.36176373426194
 30
0.0
 10
-68.78831891953365
 20
-34.44667082134841
 30
0.0
 10
-67.7799873787022
 20
-32.86945162128109
 30
0.0
 10
-67.201969069695
 20
-32.20959212860136
 30
0.0
 10
-66.46668827225326
 20
-31.59719789572296
 30
0.0
 10
-66.33830332804329
 20
-31.49794605355329
 30
0.0
 10
-66.20896846425671
 20
-31.40530319132459
 30
0.0
  0
SPLINE
  5
792E
330
78D3
100
AcDbEntity
  8
0
100
AcDbSpline
210
0.0
220
0.0
230
1.0
 70
     8
 71
     3
 72
    20
 73
    16
 74
     0
 42
0.000000001
 43
0.0000000001
 40
0.4688358472566599
 40
0.4688358472566599
 40
0.4688358472566599
 40
0.4688358472566599
 40
0.7700831263977081
 40
0.7700831263977081
 40
1.107261838481027
 40
1.107261838481027
 40
1.46071369271544
 40
1.46071369271544
 40
1.816545179932157
 40
1.816545179932157
 40
2.172116069642853
 40
2.172116069642853
 40
2.521646319578253
 40
2.521646319578253
 40
2.672756806333133
 40
2.672756806333133
 40
2.672756806333133
 40
2.672756806333133
 10
-33.06362238556944
 20
-26.68949301680101
 30
0.0
 10
-32.4136659174194
 20
-27.15505833902409
 30
0.0
 10
-31.85127321233518
 20
-27.73158700599453
 30
0.0
 10
-30.85306000431636
 20
-29.10068255063725
 30
0.0
 10
-30.43883230925052
 20
-29.91163688809777
 30
0.0
 10
-29.81673989351366
 20
-31.67167766527238
 30
0.0
 10
-29.61985628288786
 20
-32.62624942971801
 30
0.0
 10
-29.46813288733703
 20
-34.56753521285174
 30
0.0
 10
-29.51505275617745
 20
-35.55441150937273
 30
0.0
 10
-29.85470961594801
 20
-37.46953087675243
 30
0.0
 10
-30.14703643885606
 20
-38.39800057311909
 30
0.0
 10
-30.97191205508573
 20
-40.09832281739505
 30
0.0
 10
-31.50080722708783
 20
-40.87385851003719
 30
0.0
 10
-32.4333148277729
 20
-41.81522980765532
 30
0.0
 10
-32.73759375370369
 20
-42.07697191971917
 30
0.0
 10
-33.06362238556944
 20
-42.31050698319898
 30
0.0
  0
SPLINE
  5
792F
330
78D3
100
AcDbEntity
  8
0
100
AcDbSpline
210
0.0
220
0.0
230
1.0
 70
     8
 71
     3
 72
    16
 73
    12
 74
     0
 42
0.000000001
 43
0.0000000001
 40
4.712388980384684
 40
4.712388980384684
 40
4.712388980384684
 40
4.712388980384684
 40
4.932781076292328
 40
4.932781076292328
 40
5.153173172199972
 40
5.153173172199972
 40
5.373565268107616
 40
5.373565268107616
 40
5.59395736401526
 40
5.59395736401526
 40
5.814349459922905
 40
5.814349459922905
 40
5.814349459922905
 40
5.814349459922905
 10
-18.04508248516341
 20
25.00000000000003
 30
0.0
 10
-18.04508248516341
 20
25.2029490263141
 30
0.0
 10
-18.02907436834995
 20
25.40587618095626
 30
0.0
 10
-17.96736809428224
 20
25.79540168023398
 30
0.0
 10
-17.92166240549246
 20
25.98194546741846
 30
0.0
 10
-17.80764956296987
 20
26.32374156707161
 30
0.0
 10
-17.73934509512275
 20
26.47890299655474
 30
0.0
 10
-17.59215735767451
 20
26.74645721606451
 30
0.0
 10
-17.51335101752654
 20
26.85870279794219
 30
0.0
 10
-17.36124515889639
 20
27.03596195836139
 30
0.0
 10
-17.28822886331851
 20
27.10084953862015
 30
0.0
 10
-17.22560900602318
 20
27.14570428731162
 30
0.0
  0
SPLINE
  5
7930
330
78D3
100
AcDbEntity
  8
0
100
AcDbSpline
210
0.0
220
0.0
230
1.0
 70
     8
 71
     3
 72
    16
 73
    12
 74
     0
 42
0.000000001
 43
0.0000000001
 40
3.610428500846443
 40
3.610428500846443
 40
3.610428500846443
 40
3.610428500846443
 40
3.830820596754091
 40
3.830820596754091
 40
4.05121269266174
 40
4.05121269266174
 40
4.271604788569388
 40
4.271604788569388
 40
4.491996884477036
 40
4.491996884477036
 40
4.712388980384684
 40
4.712388980384684
 40
4.712388980384684
 40
4.712388980384684
 10
-17.22560900602317
 20
-29.1457042873116
 30
0.0
 10
-17.2882288633185
 20
-29.10084953862014
 30
0.0
 10
-17.36124515889638
 20
-29.03596195836138
 30
0.0
 10
-17.51335101752654
 20
-28.85870279794218
 30
0.0
 10
-17.59215735767451
 20
-28.74645721606451
 30
0.0
 10
-17.73934509512276
 20
-28.47890299655473
 30
0.0
 10
-17.80764956296988
 20
-28.32374156707161
 30
0.0
 10
-17.92166240549248
 20
-27.98194546741845
 30
0.0
 10
-17.96736809428226
 20
-27.79540168023396
 30
0.0
 10
-18.02907436834997
 20
-27.40587618095623
 30
0.0
 10
-18.04508248516345
 20
-27.20294902631406
 30
0.0
 10
-18.04508248516345
 20
-26.99999999999999
 30
0.0
  0
LINE
  5
7931
330
78D3
100
AcDbEntity
  8
0
100
AcDbLine
 10
-18.04508248516345
 20
-26.99999999999999
 30
0.0
 11
-18.04508248516343
 21
25.00000000000002
 31
0.0
  0
ENDBLK
  5
78D5
330
78D3
100
AcDbEntity
  8
0
100
AcDbBlockEnd
  0
BLOCK
  5
7933
330
7932
100
AcDbEntity
  8
0
100
AcDbBlockBegin
  2
TUSR16-Top
 70
     0
 10
0.0
 20
0.0
 30
0.0
  3
TUSR16-Top
  1

  0
LINE
  5
7935
330
7932
100
AcDbEntity
  8
0
100
AcDbLine
 10
33.286039
 20
-3.000000000000028
 30
0.0
 11
31.286039
 21
-3.000000000000029
 31
0.0
  0
LINE
  5
7936
330
7932
100
AcDbEntity
  8
0
100
AcDbLine
 10
5.018089807568887
 20
-3.000000000000031
 30
0.0
 11
31.286039
 21
-3.000000000000029
 31
0.0
  0
LINE
  5
7937
330
7932
100
AcDbEntity
  8
0
100
AcDbLine
 10
3.286038999999992
 20
-3.000000000000031
 30
0.0
 11
5.018089807568887
 21
-3.000000000000031
 31
0.0
  0
LINE
  5
7938
330
7932
100
AcDbEntity
  8
0
100
AcDbLine
 10
1.553988192431124
 20
-3.000000000000031
 30
0.0
 11
3.286038999999992
 21
-3.000000000000031
 31
0.0
  0
LINE
  5
7939
330
7932
100
AcDbEntity
  8
0
100
AcDbLine
 10
-24.71396100000001
 20
-3.000000000000042
 30
0.0
 11
1.553988192431123
 21
-3.000000000000031
 31
0.0
  0
LINE
  5
793A
330
7932
100
AcDbEntity
  8
0
100
AcDbLine
 10
-24.71396100000001
 20
-3.000000000000037
 30
0.0
 11
-26.71396100000001
 21
-3.000000000000038
 31
0.0
  0
LINE
  5
793B
330
7932
100
AcDbEntity
  8
0
100
AcDbLine
 10
-26.71396100000001
 20
0.0
 30
0.0
 11
-24.713961
 21
0.0
 31
0.0
  0
LINE
  5
793C
330
7932
100
AcDbEntity
  8
0
100
AcDbLine
 10
1.553988192431128
 20
0.0
 30
0.0
 11
-24.71396100000001
 21
0.0
 31
0.0
  0
LINE
  5
793D
330
7932
100
AcDbEntity
  8
0
100
AcDbLine
 10
3.286038999999991
 20
0.0
 30
0.0
 11
1.553988192431128
 21
0.0
 31
0.0
  0
LINE
  5
793E
330
7932
100
AcDbEntity
  8
0
100
AcDbLine
 10
5.018089807568886
 20
0.0
 30
0.0
 11
3.286038999999991
 21
0.0
 31
0.0
  0
LINE
  5
793F
330
7932
100
AcDbEntity
  8
0
100
AcDbLine
 10
31.286039
 20
0.0
 30
0.0
 11
5.018089807568886
 21
0.0
 31
0.0
  0
LINE
  5
7940
330
7932
100
AcDbEntity
  8
0
100
AcDbLine
 10
31.286039
 20
0.0
 30
0.0
 11
33.286039
 21
0.0
 31
0.0
  0
LINE
  5
7941
330
7932
100
AcDbEntity
  8
0
100
AcDbLine
 10
-26.71396100000001
 20
0.0
 30
0.0
 11
-26.71396100000001
 21
-3.000000000000042
 31
0.0
  0
LINE
  5
7942
330
7932
100
AcDbEntity
  8
0
100
AcDbLine
 10
1.553988192431128
 20
0.0
 30
0.0
 11
1.553988192431124
 21
-3.000000000000031
 31
0.0
  0
LINE
  5
7943
330
7932
100
AcDbEntity
  8
0
100
AcDbLine
 10
3.286038999999991
 20
0.0
 30
0.0
 11
3.286038999999992
 21
-3.000000000000031
 31
0.0
  0
LINE
  5
7944
330
7932
100
AcDbEntity
  8
0
100
AcDbLine
 10
5.018089807568886
 20
0.0
 30
0.0
 11
5.018089807568887
 21
-3.000000000000031
 31
0.0
  0
LINE
  5
7945
330
7932
100
AcDbEntity
  8
0
100
AcDbLine
 10
33.286039
 20
0.0
 30
0.0
 11
33.286039
 21
-3.000000000000029
 31
0.0
  0
LINE
  5
7946
330
7932
100
AcDbEntity
  8
0
100
AcDbLine
 10
77.07073179195266
 20
-74.94941141771412
 30
0.0
 11
74.94941144839302
 21
-77.07073176127375
 31
0.0
  0
LINE
  5
7947
330
7932
100
AcDbEntity
  8
0
100
AcDbLine
 10
74.94941144839302
 20
-77.07073176127375
 30
0.0
 11
73.53519788601992
 21
-75.65651819890065
 31
0.0
  0
LINE
  5
7948
330
7932
100
AcDbEntity
  8
0
100
AcDbLine
 10
75.65651822957957
 20
-73.53519785534103
 30
0.0
 11
77.07073179195266
 21
-74.94941141771412
 31
0.0
  0
LINE
  5
7949
330
7932
100
AcDbEntity
  8
0
100
AcDbLine
 10
69.74217009219405
 20
-71.86349040507479
 30
0.0
 11
73.53519788601992
 21
-75.65651819890065
 31
0.0
  0
LINE
  5
794A
330
7932
100
AcDbEntity
  8
0
100
AcDbLine
 10
75.65651822957957
 20
-73.53519785534103
 30
0.0
 11
71.86349043575368
 21
-69.74217006151514
 31
0.0
  0
LINE
  5
794B
330
7932
100
AcDbEntity
  8
0
100
AcDbLine
 10
69.74217009219405
 20
-71.86349040507479
 30
0.0
 11
68.52995247031842
 21
-70.65127278319915
 31
0.0
  0
LINE
  5
794C
330
7932
100
AcDbEntity
  8
0
100
AcDbLine
 10
70.65127281387805
 20
-68.52995243963952
 30
0.0
 11
71.86349043575368
 21
-69.74217006151514
 31
0.0
  0
LINE
  5
794D
330
7932
100
AcDbEntity
  8
0
100
AcDbLine
 10
66.81768346474772
 20
-68.93900377762846
 30
0.0
 11
68.52995247031839
 21
-70.65127278319912
 31
0.0
  0
LINE
  5
794E
330
7932
100
AcDbEntity
  8
0
100
AcDbLine
 10
70.65127281387802
 20
-68.52995243963947
 30
0.0
 11
68.93900380830736
 21
-66.81768343406881
 31
0.0
  0
LINE
  5
794F
330
7932
100
AcDbEntity
  8
0
100
AcDbLine
 10
68.93900380830736
 20
-66.81768343406881
 30
0.0
 11
66.81768346474772
 21
-68.93900377762846
 31
0.0
  0
LINE
  5
7950
330
7932
100
AcDbEntity
  8
0
100
AcDbLine
 10
64.16603303529817
 20
-66.28735334817889
 30
0.0
 11
66.81768346474772
 21
-68.93900377762846
 31
0.0
  0
LINE
  5
7951
330
7932
100
AcDbEntity
  8
0
100
AcDbLine
 10
68.93900380830736
 20
-66.81768343406881
 30
0.0
 11
66.2873533788578
 21
-64.16603300461926
 31
0.0
  0
LINE
  5
7952
330
7932
100
AcDbEntity
  8
0
100
AcDbLine
 10
62.04471269173854
 20
-64.16603300461924
 30
0.0
 11
64.16603303529817
 21
-66.28735334817888
 31
0.0
  0
LINE
  5
7953
330
7932
100
AcDbEntity
  8
0
100
AcDbLine
 10
66.2873533788578
 20
-64.16603300461924
 30
0.0
 11
64.16603303529818
 21
-62.04471266105961
 31
0.0
  0
LINE
  5
7954
330
7932
100
AcDbEntity
  8
0
100
AcDbLine
 10
57.62529530932262
 20
-59.74661562220333
 30
0.0
 11
62.04471269173854
 21
-64.16603300461926
 31
0.0
  0
LINE
  5
7955
330
7932
100
AcDbEntity
  8
0
100
AcDbLine
 10
64.16603303529818
 20
-62.04471266105962
 30
0.0
 11
59.74661565288226
 21
-57.62529527864369
 31
0.0
  0
LINE
  5
7956
330
7932
100
AcDbEntity
  8
0
100
AcDbLine
 10
59.74661565288226
 20
-57.62529527864372
 30
0.0
 11
57.62529530932262
 21
-59.74661562220335
 31
0.0
  0
LINE
  5
7957
330
7932
100
AcDbEntity
  8
0
100
AcDbLine
 10
55.58405385700329
 20
-57.70537416988403
 30
0.0
 11
57.62529530932262
 21
-59.74661562220335
 31
0.0
  0
LINE
  5
7958
330
7932
100
AcDbEntity
  8
0
100
AcDbLine
 10
59.74661565288226
 20
-57.62529527864372
 30
0.0
 11
57.70537420056293
 21
-55.58405382632439
 31
0.0
  0
LINE
  5
7959
330
7932
100
AcDbEntity
  8
0
100
AcDbLine
 10
55.58405385700329
 20
-57.70537416988402
 30
0.0
 11
54.35930898561171
 21
-56.48062929849245
 31
0.0
  0
LINE
  5
795A
330
7932
100
AcDbEntity
  8
0
100
AcDbLine
 10
56.48062932917135
 20
-54.3593089549328
 30
0.0
 11
57.70537420056293
 21
-55.58405382632438
 31
0.0
  0
LINE
  5
795B
330
7932
100
AcDbEntity
  8
0
100
AcDbLine
 10
44.12634822894117
 20
-46.2476685418219
 30
0.0
 11
54.35930898561171
 21
-56.48062929849245
 31
0.0
  0
LINE
  5
795C
330
7932
100
AcDbEntity
  8
0
100
AcDbLine
 10
56.48062932917135
 20
-54.3593089549328
 30
0.0
 11
46.2476685725008
 21
-44.12634819826225
 31
0.0
  0
LINE
  5
795D
330
7932
100
AcDbEntity
  8
0
100
AcDbLine
 10
44.12634822894117
 20
-46.2476685418219
 30
0.0
 11
43.59657450397805
 21
-45.71789481685879
 31
0.0
  0
LINE
  5
795E
330
7932
100
AcDbEntity
  8
0
100
AcDbLine
 10
45.71789484753769
 20
-43.59657447329914
 30
0.0
 11
46.2476685725008
 21
-44.12634819826225
 31
0.0
  0
LINE
  5
795F
330
7932
100
AcDbEntity
  8
0
100
AcDbLine
 10
41.46139065232486
 20
-43.5827109652056
 30
0.0
 11
43.596574503978
 21
-45.71789481685872
 31
0.0
  0
LINE
  5
7960
330
7932
100
AcDbEntity
  8
0
100
AcDbLine
 10
45.71789484753764
 20
-43.59657447329908
 30
0.0
 11
43.58271099588452
 21
-41.46139062164595
 31
0.0
  0
LINE
  5
7961
330
7932
100
AcDbEntity
  8
0
100
AcDbLine
 10
41.46139065232486
 20
-43.58271096520559
 30
0.0
 11
40.76641950589642
 21
-42.88773981877715
 31
0.0
  0
LINE
  5
7962
330
7932
100
AcDbEntity
  8
0
100
AcDbLine
 10
42.88773984945605
 20
-40.7664194752175
 30
0.0
 11
43.5827109958845
 21
-41.46139062164595
 31
0.0
  0
LINE
  5
7963
330
7932
100
AcDbEntity
  8
0
100
AcDbLine
 10
39.94762577965892
 20
-42.06894609253964
 30
0.0
 11
40.76641950589645
 21
-42.88773981877717
 31
0.0
  0
LINE
  5
7964
330
7932
100
AcDbEntity
  8
0
100
AcDbLine
 10
42.88773984945609
 20
-40.76641947521753
 30
0.0
 11
42.06894612321856
 21
-39.94762574898
 31
0.0
  0
LINE
  5
7965
330
7932
100
AcDbEntity
  8
0
100
AcDbLine
 10
42.06894612321856
 20
-39.94762574898
 30
0.0
 11
39.94762577965892
 21
-42.06894609253964
 31
0.0
  0
LINE
  5
7966
330
7932
100
AcDbEntity
  8
0
100
AcDbLine
 10
37.64952874080265
 20
-39.77084905368338
 30
0.0
 11
39.94762577965892
 21
-42.06894609253964
 31
0.0
  0
LINE
  5
7967
330
7932
100
AcDbEntity
  8
0
100
AcDbLine
 10
42.06894612321856
 20
-39.94762574898
 30
0.0
 11
39.7708490843623
 21
-37.64952871012373
 31
0.0
  0
LINE
  5
7968
330
7932
100
AcDbEntity
  8
0
100
AcDbLine
 10
36.58886856902283
 20
-38.71018888190356
 30
0.0
 11
37.64952874080265
 21
-39.77084905368338
 31
0.0
  0
LINE
  5
7969
330
7932
100
AcDbEntity
  8
0
100
AcDbLine
 10
39.7708490843623
 20
-37.64952871012373
 30
0.0
 11
38.71018891258247
 21
-36.58886853834391
 31
0.0
  0
LINE
  5
796A
330
7932
100
AcDbEntity
  8
0
100
AcDbLine
 10
33.58366474897999
 20
-35.70498506186073
 30
0.0
 11
36.58886856902283
 21
-38.71018888190356
 31
0.0
  0
LINE
  5
796B
330
7932
100
AcDbEntity
  8
0
100
AcDbLine
 10
38.71018891258247
 20
-36.58886853834391
 30
0.0
 11
35.70498509253964
 21
-33.58366471830108
 31
0.0
  0
LINE
  5
796C
330
7932
100
AcDbEntity
  8
0
100
AcDbLine
 10
35.70498509253964
 20
-33.58366471830108
 30
0.0
 11
33.58366474898
 21
-35.70498506186073
 31
0.0
  0
LINE
  5
796D
330
7932
100
AcDbEntity
  8
0
100
AcDbLine
 10
33.58366474898
 20
-35.70498506186073
 30
0.0
 11
31.63967746164374
 21
-33.76099777452447
 31
0.0
  0
LINE
  5
796E
330
7932
100
AcDbEntity
  8
0
100
AcDbLine
 10
33.76099780520339
 20
-31.63967743096482
 30
0.0
 11
35.70498509253965
 21
-33.58366471830109
 31
0.0
  0
LINE
  5
796F
330
7932
100
AcDbEntity
  8
0
100
AcDbLine
 10
1.757359343559646
 20
-3.878679656440388
 30
0.0
 11
31.63967746164374
 21
-33.76099777452447
 31
0.0
  0
LINE
  5
7970
330
7932
100
AcDbEntity
  8
0
100
AcDbLine
 10
33.76099780520339
 20
-31.63967743096482
 30
0.0
 11
5.12132037423858
 21
-3.000000000000024
 31
0.0
  0
LINE
  5
7971
330
7932
100
AcDbEntity
  8
0
100
AcDbLine
 10
2.636039000000005
 20
-3.000000000000029
 30
0.0
 11
2.463759026049033
 21
-3.172279973951001
 31
0.0
  0
LINE
  5
7972
330
7932
100
AcDbEntity
  8
0
100
AcDbLine
 10
2.463759026049033
 20
-3.172279973951001
 30
0.0
 11
1.757359343559646
 21
-3.878679656440388
 31
0.0
  0
SPLINE
  5
7973
330
7932
100
AcDbEntity
  8
0
100
AcDbSpline
210
0.0
220
0.0
230
1.0
 70
     8
 71
     3
 72
    10
 73
     6
 74
     0
 42
0.000000001
 43
0.0000000001
 40
0.0
 40
0.0
 40
0.0
 40
0.0
 40
0.0020425076571756
 40
0.0020425076571756
 40
0.0040850153143778
 40
0.0040850153143778
 40
0.0040850153143778
 40
0.0040850153143778
 10
1.757359343559646
 20
-3.878679656440388
 30
0.0
 10
1.753120733802165
 20
-3.874441046682903
 30
0.0
 10
1.748869429866598
 20
-3.870215150138398
 30
0.0
 10
1.740341521541509
 20
-3.861788871532012
 30
0.0
 10
1.736064962709341
 20
-3.857588534484576
 30
0.0
 10
1.731775843759609
 20
-3.853401043112988
 30
0.0
  0
SPLINE
  5
7974
330
7932
100
AcDbEntity
  8
0
100
AcDbSpline
210
0.0
220
0.0
230
1.0
 70
     8
 71
     3
 72
    20
 73
    16
 74
     0
 42
0.000000001
 43
0.0000000001
 40
0.0
 40
0.0
 40
0.0
 40
0.0
 40
0.0292038487375162
 40
0.0292038487375162
 40
0.1061564375205661
 40
0.1061564375205661
 40
0.2088926108953314
 40
0.2088926108953314
 40
0.32998651515226
 40
0.32998651515226
 40
0.4924973234448302
 40
0.4924973234448302
 40
0.5936467899883327
 40
0.5936467899883327
 40
0.7610143407726185
 40
0.7610143407726185
 40
0.7610143407726185
 40
0.7610143407726185
 10
1.731775843759609
 20
-3.853401043112988
 30
0.0
 10
1.670364751402241
 20
-3.793445042269913
 30
0.0
 10
1.612480367409459
 20
-3.741953848795058
 30
0.0
 10
1.413273411761331
 20
-3.575788910622139
 30
0.0
 10
1.279435381376515
 20
-3.48744865373212
 30
0.0
 10
1.045345620402629
 20
-3.347036989114471
 30
0.0
 10
0.909191902483278
 20
-3.279755693676515
 30
0.0
 10
0.6196260132988759
 20
-3.16076733341541
 30
0.0
 10
0.4730475437423472
 20
-3.115986682584832
 30
0.0
 10
0.166678514759125
 20
-3.041782749643453
 30
0.0
 10
0.0140922084585522
 20
-3.021550862807402
 30
0.0
 10
-0.1777228283798709
 20
-3.004875407166771
 30
0.0
 10
-0.2353195545693769
 20
-3.002465043088018
 30
0.0
 10
-0.3467824562139055
 20
-2.999244140024374
 30
0.0
 10
-0.363961709263691
 20
-2.999998999130459
 30
0.0
 10
-0.3639610239483318
 20
-2.999999999006418
 30
0.0
  0
LINE
  5
7975
330
7932
100
AcDbEntity
  8
0
100
AcDbLine
 10
54.28278977864414
 20
-59.9396439974576
 30
0.0
 11
66.27110169890022
 21
-71.92795591771369
 31
0.0
  0
ARC
  5
7976
330
7932
100
AcDbEntity
  8
0
100
AcDbCircle
 10
56.0505567316105
 20
-58.17187704449124
 30
0.0
 40
2.5
100
AcDbArc
 50
159.3157391711768
 51
225.0000000000003
  0
ARC
  5
7977
330
7932
100
AcDbEntity
  8
0
100
AcDbCircle
 10
68.03886865186658
 20
-70.1601889647473
 30
0.0
 40
2.5
100
AcDbArc
 50
225.0000000000003
 51
290.6842608288232
  0
ARC
  5
7978
330
7932
100
AcDbEntity
  8
0
100
AcDbCircle
 10
52.07450707700821
 20
-56.67070112404186
 30
0.0
 40
1.75
100
AcDbArc
 50
339.3157391711763
 51
44.9999999999996
  0
ARC
  5
7979
330
7932
100
AcDbEntity
  8
0
100
AcDbCircle
 10
69.54004457231595
 20
-74.1362386193496
 30
0.0
 40
1.75
100
AcDbArc
 50
45.0000000000004
 51
110.6842608288237
  0
LINE
  5
797A
330
7932
100
AcDbEntity
  8
0
100
AcDbLine
 10
35.89801346779391
 20
-30.24115918762261
 30
0.0
 11
45.05789826330378
 21
-39.40104398313248
 31
0.0
  0
ARC
  5
797B
330
7932
100
AcDbEntity
  8
0
100
AcDbCircle
 10
34.13024651482754
 20
-32.00892614058897
 30
0.0
 40
2.5
100
AcDbArc
 50
45.00000000000007
 51
110.6842608288236
  0
ARC
  5
797C
330
7932
100
AcDbEntity
  8
0
100
AcDbCircle
 10
43.29013131033741
 20
-41.16881093609885
 30
0.0
 40
2.5
100
AcDbArc
 50
339.3157391711763
 51
45.00000000000008
  0
ARC
  5
797D
330
7932
100
AcDbEntity
  8
0
100
AcDbCircle
 10
32.62907059437816
 20
-28.03287648598669
 30
0.0
 40
1.75
100
AcDbArc
 50
225.0000000000002
 51
290.6842608288234
  0
ARC
  5
797E
330
7932
100
AcDbEntity
  8
0
100
AcDbCircle
 10
47.26618096493969
 20
-42.66998685654822
 30
0.0
 40
1.75
100
AcDbArc
 50
159.3157391711764
 51
225.0
  0
LINE
  5
797F
330
7932
100
AcDbEntity
  8
0
100
AcDbLine
 10
13.8716372338329
 20
-19.52849145264638
 30
0.0
 11
14.05126590827373
 21
-19.70812012708721
 31
0.0
  0
ARC
  5
7980
330
7932
100
AcDbEntity
  8
0
100
AcDbCircle
 10
15.63940418679928
 20
-17.76072449968001
 30
0.0
 40
2.5
100
AcDbArc
 50
159.3157391711766
 51
225.0
  0
ARC
  5
7981
330
7932
100
AcDbEntity
  8
0
100
AcDbCircle
 10
11.66335453219699
 20
-16.25954857923065
 30
0.0
 40
1.75
100
AcDbArc
 50
339.3157391711764
 51
45.0
  0
ARC
  5
7982
330
7932
100
AcDbEntity
  8
0
100
AcDbCircle
 10
15.81903286124006
 20
-17.94035317412079
 30
0.0
 40
2.5
100
AcDbArc
 50
225.0
 51
290.6842608288234
  0
ARC
  5
7983
330
7932
100
AcDbEntity
  8
0
100
AcDbCircle
 10
17.32020878168942
 20
-21.91640282872307
 30
0.0
 40
1.75
100
AcDbArc
 50
45.0000000000001
 51
110.6842608288236
  0
ENDBLK
  5
7934
330
7932
100
AcDbEntity
  8
0
100
AcDbBlockEnd
  0
BLOCK
  5
7985
330
7984
100
AcDbEntity
  8
0
100
AcDbBlockBegin
  2
TUSR16-Bottom
 70
     0
 10
0.0
 20
0.0
 30
0.0
  3
TUSR16-Bottom
  1

  0
SPLINE
  5
7987
330
7984
100
AcDbEntity
  8
0
100
AcDbSpline
210
0.0
220
0.0
230
1.0
 70
     8
 71
     3
 72
    22
 73
    18
 74
     0
 42
0.000000001
 43
0.0000000001
 40
0.0000367049083829
 40
0.0000367049083829
 40
0.0000367049083829
 40
0.0000367049083829
 40
0.0448080192617406
 40
0.0448080192617406
 40
0.0813094635639821
 40
0.0813094635639821
 40
0.1175066628847155
 40
0.1175066628847155
 40
0.1665377514910647
 40
0.1665377514910647
 40
0.2359157244755988
 40
0.2359157244755988
 40
0.2914329259265702
 40
0.2914329259265702
 40
0.338865254544181
 40
0.338865254544181
 40
0.3990750642678539
 40
0.3990750642678539
 40
0.3990750642678539
 40
0.3990750642678539
 10
-0.3639610239543523
 20
2.99999999986134
 30
0.0
 10
-0.3639615822012331
 20
2.999999887186612
 30
0.0
 10
-0.3527629055406406
 20
2.999931221498788
 30
0.0
 10
-0.3106575597199772
 20
3.000413962548104
 30
0.0
 10
-0.2839576451221364
 20
3.000866531283452
 30
0.0
 10
-0.2149544537756836
 20
3.003505515890221
 30
0.0
 10
-0.172502506167435
 20
3.005684676966584
 30
0.0
 10
-0.05328194539365
 20
3.015336958097238
 30
0.0
 10
0.0301130957653635
 20
3.024322437551287
 30
0.0
 10
0.267754633205955
 20
3.063869959729458
 30
0.0
 10
0.428969959919759
 20
3.100902633762511
 30
0.0
 10
0.740929469950858
 20
3.207031734125718
 30
0.0
 10
0.8880583431684392
 20
3.268546781540067
 30
0.0
 10
1.164339152150622
 20
3.414459183416826
 30
0.0
 10
1.2882489213915
 20
3.491799299839969
 30
0.0
 10
1.55303100347767
 20
3.685098795422664
 30
0.0
 10
1.660527867423665
 20
3.783841236158128
 30
0.0
 10
1.731775843759609
 20
3.85340104311298
 30
0.0
  0
LINE
  5
7988
330
7984
100
AcDbEntity
  8
0
100
AcDbLine
 10
2.463759026110659
 20
3.17227997388934
 30
0.0
 11
2.636038999999997
 21
3.000000000000003
 31
0.0
  0
LINE
  5
7989
330
7984
100
AcDbEntity
  8
0
100
AcDbLine
 10
1.757359343559637
 20
3.878679656440369
 30
0.0
 11
2.463759026110659
 21
3.17227997388934
 31
0.0
  0
SPLINE
  5
798A
330
7984
100
AcDbEntity
  8
0
100
AcDbSpline
210
0.0
220
0.0
230
1.0
 70
     8
 71
     3
 72
    10
 73
     6
 74
     0
 42
0.000000001
 43
0.0000000001
 40
0.0
 40
0.0
 40
0.0
 40
0.0
 40
0.002042507701403
 40
0.002042507701403
 40
0.0040850154023364
 40
0.0040850154023364
 40
0.0040850154023364
 40
0.0040850154023364
 10
1.731775843759605
 20
3.853401043112978
 30
0.0
 10
1.736064962802218
 20
3.857588534575244
 30
0.0
 10
1.740341521725633
 20
3.861788871715031
 30
0.0
 10
1.748869429680431
 20
3.870215149955535
 30
0.0
 10
1.75312073370991
 20
3.874441046590637
 30
0.0
 10
1.757359343559642
 20
3.87867965644037
 30
0.0
  0
LINE
  5
798B
330
7984
100
AcDbEntity
  8
0
100
AcDbLine
 10
33.286039
 20
0.0
 30
0.0
 11
31.286039
 21
0.0
 31
0.0
  0
LINE
  5
798C
330
7984
100
AcDbEntity
  8
0
100
AcDbLine
 10
5.018089807568877
 20
0.0
 30
0.0
 11
31.286039
 21
0.0
 31
0.0
  0
LINE
  5
798D
330
7984
100
AcDbEntity
  8
0
100
AcDbLine
 10
3.286038999999996
 20
0.0
 30
0.0
 11
5.018089807568877
 21
0.0
 31
0.0
  0
LINE
  5
798E
330
7984
100
AcDbEntity
  8
0
100
AcDbLine
 10
1.553988192431123
 20
0.0
 30
0.0
 11
3.286038999999996
 21
0.0
 31
0.0
  0
LINE
  5
798F
330
7984
100
AcDbEntity
  8
0
100
AcDbLine
 10
-24.713961
 20
0.0
 30
0.0
 11
1.553988192431123
 21
0.0
 31
0.0
  0
LINE
  5
7990
330
7984
100
AcDbEntity
  8
0
100
AcDbLine
 10
-24.71396100000001
 20
0.0
 30
0.0
 11
-26.71396100000001
 21
0.0
 31
0.0
  0
LINE
  5
7991
330
7984
100
AcDbEntity
  8
0
100
AcDbLine
 10
-26.71396100000001
 20
3.000000000000011
 30
0.0
 11
-24.71396100000001
 21
3.00000000000001
 31
0.0
  0
LINE
  5
7992
330
7984
100
AcDbEntity
  8
0
100
AcDbLine
 10
1.553988192431124
 20
3.000000000000004
 30
0.0
 11
-24.713961
 21
3.00000000000001
 31
0.0
  0
LINE
  5
7993
330
7984
100
AcDbEntity
  8
0
100
AcDbLine
 10
3.286038999999996
 20
3.000000000000004
 30
0.0
 11
1.553988192431124
 21
3.000000000000004
 31
0.0
  0
LINE
  5
7994
330
7984
100
AcDbEntity
  8
0
100
AcDbLine
 10
5.018089807568878
 20
3.000000000000003
 30
0.0
 11
3.286038999999996
 21
3.000000000000004
 31
0.0
  0
LINE
  5
7995
330
7984
100
AcDbEntity
  8
0
100
AcDbLine
 10
31.286039
 20
2.999999999999997
 30
0.0
 11
5.018089807568877
 21
3.000000000000003
 31
0.0
  0
LINE
  5
7996
330
7984
100
AcDbEntity
  8
0
100
AcDbLine
 10
31.286039
 20
2.999999999999997
 30
0.0
 11
33.286039
 21
2.999999999999997
 31
0.0
  0
LINE
  5
7997
330
7984
100
AcDbEntity
  8
0
100
AcDbLine
 10
33.286039
 20
0.0
 30
0.0
 11
33.286039
 21
2.999999999999998
 31
0.0
  0
LINE
  5
7998
330
7984
100
AcDbEntity
  8
0
100
AcDbLine
 10
5.018089807568877
 20
0.0
 30
0.0
 11
5.018089807568878
 21
3.000000000000003
 31
0.0
  0
LINE
  5
7999
330
7984
100
AcDbEntity
  8
0
100
AcDbLine
 10
3.286038999999996
 20
0.0
 30
0.0
 11
3.286038999999996
 21
3.000000000000004
 31
0.0
  0
LINE
  5
799A
330
7984
100
AcDbEntity
  8
0
100
AcDbLine
 10
1.553988192431123
 20
0.0
 30
0.0
 11
1.553988192431124
 21
3.000000000000004
 31
0.0
  0
LINE
  5
799B
330
7984
100
AcDbEntity
  8
0
100
AcDbLine
 10
-26.71396100000001
 20
0.0
 30
0.0
 11
-26.71396100000001
 21
3.000000000000011
 31
0.0
  0
LINE
  5
799C
330
7984
100
AcDbEntity
  8
0
100
AcDbLine
 10
73.53519788601992
 20
75.65651819890064
 30
0.0
 11
48.9920669283067
 21
51.11338724118744
 31
0.0
  0
LINE
  5
799D
330
7984
100
AcDbEntity
  8
0
100
AcDbLine
 10
51.11338727186635
 20
48.99206689762777
 30
0.0
 11
48.9920669283067
 21
51.11338724118744
 31
0.0
  0
LINE
  5
799E
330
7984
100
AcDbEntity
  8
0
100
AcDbLine
 10
51.11338727186635
 20
48.99206689762777
 30
0.0
 11
75.65651822957957
 21
73.53519785534101
 31
0.0
  0
LINE
  5
799F
330
7984
100
AcDbEntity
  8
0
100
AcDbLine
 10
73.53519788601992
 20
75.65651819890064
 30
0.0
 11
74.94941144839302
 21
77.07073176127373
 31
0.0
  0
LINE
  5
79A0
330
7984
100
AcDbEntity
  8
0
100
AcDbLine
 10
77.07073179195266
 20
74.94941141771409
 30
0.0
 11
75.65651822957957
 21
73.53519785534101
 31
0.0
  0
LINE
  5
79A1
330
7984
100
AcDbEntity
  8
0
100
AcDbLine
 10
77.07073179195266
 20
74.94941141771409
 30
0.0
 11
74.94941144839302
 21
77.07073176127373
 31
0.0
  0
LINE
  5
79A2
330
7984
100
AcDbEntity
  8
0
100
AcDbLine
 10
5.121320374238559
 20
3.000000000000004
 30
0.0
 11
51.11338727186635
 21
48.99206689762777
 31
0.0
  0
LINE
  5
79A3
330
7984
100
AcDbEntity
  8
0
100
AcDbLine
 10
48.9920669283067
 20
51.11338724118744
 30
0.0
 11
1.757359343559636
 21
3.878679656440366
 31
0.0
  0
LINE
  5
79A4
330
7984
100
AcDbEntity
  8
0
100
AcDbLine
 10
66.27110169890022
 20
71.92795591771369
 30
0.0
 11
54.28278977864414
 21
59.9396439974576
 31
0.0
  0
LINE
  5
79A5
330
7984
100
AcDbEntity
  8
0
100
AcDbLine
 10
45.05789826330378
 20
39.40104398313248
 30
0.0
 11
35.89801346779391
 21
30.24115918762261
 31
0.0
  0
ARC
  5
79A6
330
7984
100
AcDbEntity
  8
0
100
AcDbCircle
 10
68.03886865186658
 20
70.1601889647473
 30
0.0
 40
2.5
100
AcDbArc
 50
69.31573917117683
 51
134.9999999999997
  0
ARC
  5
79A7
330
7984
100
AcDbEntity
  8
0
100
AcDbCircle
 10
56.0505567316105
 20
58.17187704449121
 30
0.0
 40
2.5
100
AcDbArc
 50
134.9999999999999
 51
200.6842608288231
  0
ARC
  5
79A8
330
7984
100
AcDbEntity
  8
0
100
AcDbCircle
 10
69.54004457231595
 20
74.13623861934958
 30
0.0
 40
1.75
100
AcDbArc
 50
249.3157391711763
 51
314.9999999999998
  0
ARC
  5
79A9
330
7984
100
AcDbEntity
  8
0
100
AcDbCircle
 10
52.07450707700821
 20
56.67070112404186
 30
0.0
 40
1.75
100
AcDbArc
 50
315.0000000000002
 51
20.68426082882375
  0
ARC
  5
79AA
330
7984
100
AcDbEntity
  8
0
100
AcDbCircle
 10
43.29013131033741
 20
41.16881093609885
 30
0.0
 40
2.5
100
AcDbArc
 50
315.0000000000001
 51
20.68426082882359
  0
ARC
  5
79AB
330
7984
100
AcDbEntity
  8
0
100
AcDbCircle
 10
34.13024651482754
 20
32.00892614058897
 30
0.0
 40
2.5
100
AcDbArc
 50
249.3157391711764
 51
315.0000000000001
  0
ARC
  5
79AC
330
7984
100
AcDbEntity
  8
0
100
AcDbCircle
 10
47.26618096493969
 20
42.66998685654822
 30
0.0
 40
1.75
100
AcDbArc
 50
135.0
 51
200.6842608288237
  0
ARC
  5
79AD
330
7984
100
AcDbEntity
  8
0
100
AcDbCircle
 10
32.62907059437816
 20
28.03287648598669
 30
0.0
 40
1.75
100
AcDbArc
 50
69.3157391711766
 51
135.0000000000001
  0
LINE
  5
79AE
330
7984
100
AcDbEntity
  8
0
100
AcDbLine
 10
14.0512659082737
 20
19.70812012708717
 30
0.0
 11
13.8716372338329
 21
19.52849145264637
 31
0.0
  0
ARC
  5
79AF
330
7984
100
AcDbEntity
  8
0
100
AcDbCircle
 10
15.63940418679927
 20
17.76072449967999
 30
0.0
 40
2.5
100
AcDbArc
 50
135.0
 51
200.6842608288234
  0
ARC
  5
79B0
330
7984
100
AcDbEntity
  8
0
100
AcDbCircle
 10
11.66335453219698
 20
16.25954857923063
 30
0.0
 40
1.75
100
AcDbArc
 50
315.0
 51
20.68426082882359
  0
ARC
  5
79B1
330
7984
100
AcDbEntity
  8
0
100
AcDbCircle
 10
15.81903286124007
 20
17.94035317412081
 30
0.0
 40
2.5
100
AcDbArc
 50
69.3157391711766
 51
135.0
  0
ARC
  5
79B2
330
7984
100
AcDbEntity
  8
0
100
AcDbCircle
 10
17.32020878168945
 20
21.9164028287231
 30
0.0
 40
1.75
100
AcDbArc
 50
249.3157391711764
 51
314.9999999999999
  0
ENDBLK
  5
7986
330
7984
100
AcDbEntity
  8
0
100
AcDbBlockEnd
  0
BLOCK
  5
79B4
330
79B3
100
AcDbEntity
  8
0
100
AcDbBlockBegin
  2
TUSR16-ISO
 70
     0
 10
0.0
 20
0.0
 30
0.0
  3
TUSR16-ISO
  1

  0
LINE
  5
79B6
330
79B3
100
AcDbEntity
  8
0
100
AcDbLine
 10
5.4445917633444
 20
25.66669034974239
 30
0.0
 11
-8.030817671428755
 21
33.44672161434908
 31
0.0
  0
LINE
  5
79B7
330
79B3
100
AcDbEntity
  8
0
100
AcDbLine
 10
-8.030817671428755
 20
33.44672161434908
 30
0.0
 11
-10.1521380149884
 21
32.22197674295749
 31
0.0
  0
LINE
  5
79B8
330
79B3
100
AcDbEntity
  8
0
100
AcDbLine
 10
-10.1521380149884
 20
32.22197674295749
 30
0.0
 11
5.444591763344397
 21
23.21720060695921
 31
0.0
  0
LINE
  5
79B9
330
79B3
100
AcDbEntity
  8
0
100
AcDbLine
 10
32.09693579998109
 20
-26.81908607212613
 30
0.0
 11
13.37997136139172
 21
-7.280829288240293
 31
0.0
  0
ELLIPSE
  5
79BA
330
79B3
100
AcDbEntity
  8
0
100
AcDbEllipse
 10
31.56716207501793
 20
-28.0273059636994
 30
0.0
 11
-1.000000000000114
 21
1.732050807568833
 31
0.0
210
0.0
220
0.0
230
1.0
 40
0.5773502691896259
 41
3.926990816987
 42
5.113814708343241
  0
LINE
  5
79BB
330
79B3
100
AcDbEntity
  8
0
100
AcDbLine
 10
32.98137563739103
 20
-40.65034310484203
 30
0.0
 11
32.98137563739103
 21
-28.84380254462712
 31
0.0
  0
ELLIPSE
  5
79BC
330
79B3
100
AcDbEntity
  8
0
100
AcDbEllipse
 10
31.56716207501793
 20
-39.83384652391432
 30
0.0
 11
0.9999999999999957
 21
-1.732050807568872
 31
0.0
210
0.0
220
0.0
230
1.0
 40
0.5773502691896258
 41
0.0000000000000094
 42
0.7853981633974648
  0
ELLIPSE
  5
79BD
330
79B3
100
AcDbEntity
  8
0
100
AcDbEllipse
 10
-8.030817671428748
 20
31.81372845249362
 30
0.0
 11
-1.000000000000005
 21
1.732050807568886
 31
0.0
210
0.0
220
0.0
230
1.0
 40
0.577350269189626
 41
5.497787143782142
 42
6.283185307179585
  0
ELLIPSE
  5
79BE
330
79B3
100
AcDbEntity
  8
0
100
AcDbEllipse
 10
28.73873495027174
 20
-34.93486703834796
 30
0.0
 11
1.250000000000128
 21
-2.165063509461019
 31
0.0
210
0.0
220
0.0
230
1.0
 40
0.577350269189626
 41
4.154790153685038
 42
5.269987807084103
  0
ELLIPSE
  5
79BF
330
79B3
100
AcDbEntity
  8
0
100
AcDbEllipse
 10
14.59659932654078
 20
-26.76990122907069
 30
0.0
 11
1.25
 21
-2.165063509461094
 31
0.0
210
0.0
220
0.0
230
1.0
 40
0.5773502691896259
 41
4.787997951593782
 42
5.269987807084223
  0
ELLIPSE
  5
79C0
330
79B3
100
AcDbEntity
  8
0
100
AcDbEllipse
 10
21.66766713840626
 20
-22.68741832443206
 30
0.0
 11
1.25000000000013
 21
-2.16506350946102
 31
0.0
210
0.0
220
0.0
230
1.0
 40
0.577350269189626
 41
4.154790153685034
 42
5.269987807084108
  0
ELLIPSE
  5
79C1
330
79B3
100
AcDbEntity
  8
0
100
AcDbEllipse
 10
-10.15213801498839
 20
30.58898358110204
 30
0.0
 11
-1.000000000000006
 21
1.732050807568886
 31
0.0
210
0.0
220
0.0
230
1.0
 40
0.577350269189626
 41
5.497787143782142
 42
7.06858347057703
  0
LINE
  5
79C2
330
79B3
100
AcDbEntity
  8
0
100
AcDbLine
 10
-11.56635157736149
 20
-17.38019054840185
 30
0.0
 11
-11.56635157736149
 21
31.40548016202977
 31
0.0
  0
ELLIPSE
  5
79C3
330
79B3
100
AcDbEntity
  8
0
100
AcDbEllipse
 10
-10.15213801498839
 20
-18.19668712932957
 30
0.0
 11
-0.9999999999998975
 21
1.732050807568936
 31
0.0
210
0.0
220
0.0
230
1.0
 40
0.5773502691896259
 41
0.7853981633976881
 42
2.356194490192585
  0
LINE
  5
79C4
330
79B3
100
AcDbEntity
  8
0
100
AcDbLine
 10
5.444591763344379
 20
-28.8344564271833
 30
0.0
 11
-10.15213801498839
 21
-19.82968029118502
 31
0.0
  0
LINE
  5
79C5
330
79B3
100
AcDbEntity
  8
0
100
AcDbLine
 10
29.44584173145829
 20
-42.69158455716136
 30
0.0
 11
13.4445917633444
 21
-33.45325858070032
 31
0.0
  0
ELLIPSE
  5
79C6
330
79B3
100
AcDbEntity
  8
0
100
AcDbEllipse
 10
29.44584173145829
 20
-41.05859139530591
 30
0.0
 11
0.9999999999999975
 21
-1.73205080756887
 31
0.0
210
0.0
220
0.0
230
1.0
 40
0.5773502691896259
 41
5.497787143782133
 42
7.068583470577035
  0
LINE
  5
79C7
330
79B3
100
AcDbEntity
  8
0
100
AcDbLine
 10
30.86005529383138
 20
-30.06854741601872
 30
0.0
 11
30.86005529383138
 21
-41.87508797623362
 31
0.0
  0
ELLIPSE
  5
79C8
330
79B3
100
AcDbEntity
  8
0
100
AcDbEllipse
 10
29.44584173145828
 20
-29.25205083509099
 30
0.0
 11
0.9999999999999072
 21
-1.732050807568952
 31
0.0
210
0.0
220
0.0
230
1.0
 40
0.5773502691896259
 41
0.7853981633975913
 42
1.972222054753641
  0
LINE
  5
79C9
330
79B3
100
AcDbEntity
  8
0
100
AcDbLine
 10
11.8087701251096
 20
-9.07983225660994
 30
0.0
 11
29.97561545642144
 21
-28.04383094351772
 31
0.0
  0
ELLIPSE
  5
79CA
330
79B3
100
AcDbEntity
  8
0
100
AcDbEllipse
 10
19.54634679484662
 20
-23.91216319582365
 30
0.0
 11
-1.250000000000001
 21
2.165063509461095
 31
0.0
210
0.0
220
0.0
230
1.0
 40
0.5773502691896259
 41
0.0
 42
6.283185307179586
  0
ELLIPSE
  5
79CB
330
79B3
100
AcDbEntity
  8
0
100
AcDbEllipse
 10
12.47527898298114
 20
-27.99464610046229
 30
0.0
 11
1.25
 21
-2.165063509461094
 31
0.0
210
0.0
220
0.0
230
1.0
 40
0.5773502691896259
 41
6.078148440310382
 42
8.059018500843686
  0
ELLIPSE
  5
79CC
330
79B3
100
AcDbEntity
  8
0
100
AcDbEllipse
 10
26.61741460671209
 20
-36.15961190973955
 30
0.0
 11
-1.25
 21
2.165063509461094
 31
0.0
210
0.0
220
0.0
230
1.0
 40
0.5773502691896258
 41
0.0
 42
6.283185307179586
  0
LINE
  5
79CD
330
79B3
100
AcDbEntity
  8
0
100
AcDbLine
 10
32.09693579998109
 20
-26.81908607212613
 30
0.0
 11
29.97561545642144
 21
-28.04383094351772
 31
0.0
  0
LINE
  5
79CE
330
79B3
100
AcDbEntity
  8
0
100
AcDbLine
 10
32.98137563739103
 20
-28.84380254462712
 30
0.0
 11
30.86005529383138
 21
-30.06854741601872
 31
0.0
  0
LINE
  5
79CF
330
79B3
100
AcDbEntity
  8
0
100
AcDbLine
 10
32.98137563739103
 20
-40.65034310484203
 30
0.0
 11
30.86005529383138
 21
-41.87508797623362
 31
0.0
  0
ELLIPSE
  5
79D0
330
79B3
100
AcDbEntity
  8
0
100
AcDbEllipse
 10
8.656902364573763
 20
51.95494878358051
 30
0.0
 11
-1.124999999999999
 21
1.948557158514984
 31
0.0
210
0.0
220
0.0
230
1.0
 40
0.5773502691896259
 41
5.88175957922089
 42
7.068583470577032
  0
LINE
  5
79D1
330
79B3
100
AcDbEntity
  8
0
100
AcDbLine
 10
29.97561545642144
 20
51.57378318940602
 30
0.0
 11
8.0609069239902
 21
54.00239241771385
 31
0.0
  0
ELLIPSE
  5
79D2
330
79B3
100
AcDbEntity
  8
0
100
AcDbEllipse
 10
29.44584173145827
 20
53.39373308641345
 30
0.0
 11
1.000000000000039
 21
-1.732050807568945
 31
0.0
210
0.0
220
0.0
230
1.0
 40
0.5773502691896259
 41
5.881759579220894
 42
7.068583470577036
  0
LINE
  5
79D3
330
79B3
100
AcDbEntity
  8
0
100
AcDbLine
 10
30.86005529383137
 20
64.26946754437075
 30
0.0
 11
30.86005529383136
 21
52.57723650548573
 31
0.0
  0
ELLIPSE
  5
79D4
330
79B3
100
AcDbEntity
  8
0
100
AcDbEllipse
 10
29.44584173145828
 20
65.08596412529847
 30
0.0
 11
0.9999999999998893
 21
-1.732050807568922
 31
0.0
210
0.0
220
0.0
230
1.0
 40
0.577350269189626
 41
0.7853981633976926
 42
2.356194490192589
  0
LINE
  5
79D5
330
79B3
100
AcDbEntity
  8
0
100
AcDbLine
 10
10.87159672962653
 20
77.44280263895554
 30
0.0
 11
29.44584173145827
 21
66.71895728715391
 31
0.0
  0
LINE
  5
79D6
330
79B3
100
AcDbEntity
  8
0
100
AcDbLine
 10
9.646851858234931
 20
75.70041967735891
 30
0.0
 11
10.87159672962653
 21
77.44280263895554
 31
0.0
  0
LINE
  5
79D7
330
79B3
100
AcDbEntity
  8
0
100
AcDbLine
 10
8.422106986843347
 20
78.85701620132865
 30
0.0
 11
9.646851858234931
 21
75.70041967735891
 31
0.0
  0
LINE
  5
79D8
330
79B3
100
AcDbEntity
  8
0
100
AcDbLine
 10
-10.1521380149884
 20
89.58086155313026
 30
0.0
 11
8.422106986843347
 21
78.85701620132865
 31
0.0
  0
ELLIPSE
  5
79D9
330
79B3
100
AcDbEntity
  8
0
100
AcDbEllipse
 10
-10.15213801498841
 20
87.94786839127482
 30
0.0
 11
-0.9999999999999971
 21
1.732050807568871
 31
0.0
210
0.0
220
0.0
230
1.0
 40
0.577350269189626
 41
5.497787143782133
 42
7.068583470577036
  0
LINE
  5
79DA
330
79B3
100
AcDbEntity
  8
0
100
AcDbLine
 10
-11.5663515773615
 20
38.34570109991545
 30
0.0
 11
-11.56635157736151
 21
88.76436497220254
 31
0.0
  0
ELLIPSE
  5
79DB
330
79B3
100
AcDbEntity
  8
0
100
AcDbEllipse
 10
-10.1521380149884
 20
37.52920451898773
 30
0.0
 11
-0.9999999999999021
 21
1.732050807568946
 31
0.0
210
0.0
220
0.0
230
0.9999999999999998
 40
0.5773502691896261
 41
0.7853981633976961
 42
2.356194490192585
  0
LINE
  5
79DC
330
79B3
100
AcDbEntity
  8
0
100
AcDbLine
 10
5.444591763344391
 20
26.89143522113398
 30
0.0
 11
-10.1521380149884
 21
35.89621135713227
 31
0.0
  0
ELLIPSE
  5
79DD
330
79B3
100
AcDbEntity
  8
0
100
AcDbEllipse
 10
12.47527898298113
 20
69.98494361086483
 30
0.0
 11
-1.25
 21
2.165063509461094
 31
0.0
210
0.0
220
0.0
230
1.0
 40
0.577350269189626
 41
0.0
 42
6.283185307179586
  0
ELLIPSE
  5
79DE
330
79B3
100
AcDbEntity
  8
0
100
AcDbEllipse
 10
26.61741460671208
 20
61.81997780158756
 30
0.0
 11
-1.250000000000002
 21
2.165063509461098
 31
0.0
210
0.0
220
0.0
230
1.0
 40
0.577350269189626
 41
0.0
 42
6.283185307179586
  0
ELLIPSE
  5
79DF
330
79B3
100
AcDbEntity
  8
0
100
AcDbEllipse
 10
19.54634679484661
 20
57.73749489694893
 30
0.0
 11
-1.249999999999999
 21
2.165063509461092
 31
0.0
210
0.0
220
0.0
230
1.0
 40
0.5773502691896261
 41
0.0
 42
6.283185307179586
  0
ELLIPSE
  5
79E0
330
79B3
100
AcDbEntity
  8
0
100
AcDbEllipse
 10
14.59659932654077
 20
71.20968848225643
 30
0.0
 11
1.250000000000129
 21
-2.16506350946102
 31
0.0
210
0.0
220
0.0
230
1.0
 40
0.577350269189626
 41
4.154790153685036
 42
5.269987807084107
  0
ELLIPSE
  5
79E1
330
79B3
100
AcDbEntity
  8
0
100
AcDbEllipse
 10
28.73873495027172
 20
63.04472267297916
 30
0.0
 11
1.250000000000132
 21
-2.165063509461023
 31
0.0
210
0.0
220
0.0
230
0.9999999999999996
 40
0.5773502691896261
 41
4.154790153685027
 42
5.269987807084111
  0
ELLIPSE
  5
79E2
330
79B3
100
AcDbEntity
  8
0
100
AcDbEllipse
 10
21.66766713840625
 20
58.96223976834052
 30
0.0
 11
1.250000000000128
 21
-2.165063509461019
 31
0.0
210
0.0
220
0.0
230
1.0
 40
0.577350269189626
 41
4.154790153685034
 42
5.269987807084106
  0
ELLIPSE
  5
79E3
330
79B3
100
AcDbEntity
  8
0
100
AcDbEllipse
 10
-8.030817671428771
 20
89.1726132626664
 30
0.0
 11
-0.9999999999999971
 21
1.73205080756887
 31
0.0
210
0.0
220
0.0
230
1.0
 40
0.577350269189626
 41
5.49778714378213
 42
6.283185307179586
  0
LINE
  5
79E4
330
79B3
100
AcDbEntity
  8
0
100
AcDbLine
 10
10.54342733040299
 20
80.08176107272023
 30
0.0
 11
-8.030817671428767
 21
90.80560642452184
 31
0.0
  0
LINE
  5
79E5
330
79B3
100
AcDbEntity
  8
0
100
AcDbLine
 10
11.44000280257104
 20
77.77097203817906
 30
0.0
 11
10.54342733040299
 21
80.08176107272023
 31
0.0
  0
LINE
  5
79E6
330
79B3
100
AcDbEntity
  8
0
100
AcDbLine
 10
31.56716207501792
 20
67.9437021585455
 30
0.0
 11
12.99291707318617
 21
78.66754751034713
 31
0.0
  0
ELLIPSE
  5
79E7
330
79B3
100
AcDbEntity
  8
0
100
AcDbEllipse
 10
31.56716207501793
 20
66.31070899669007
 30
0.0
 11
-1.000000000000096
 21
1.732050807568803
 31
0.0
210
0.0
220
0.0
230
1.0
 40
0.5773502691896259
 41
3.926990816986997
 42
5.497787143781899
  0
LINE
  5
79E8
330
79B3
100
AcDbEntity
  8
0
100
AcDbLine
 10
32.981375637391
 20
53.80198137687731
 30
0.0
 11
32.98137563739101
 21
65.49421241576235
 31
0.0
  0
ELLIPSE
  5
79E9
330
79B3
100
AcDbEntity
  8
0
100
AcDbEllipse
 10
31.56716207501791
 20
54.61847795780504
 30
0.0
 11
1.000000000000038
 21
-1.732050807568946
 31
0.0
210
0.0
220
0.0
230
0.9999999999999998
 40
0.5773502691896259
 41
0.0000000000000014
 42
0.7853981633974527
  0
LINE
  5
79EA
330
79B3
100
AcDbEntity
  8
0
100
AcDbLine
 10
-8.030817671428765
 20
90.80560642452184
 30
0.0
 11
-10.1521380149884
 21
89.58086155313026
 31
0.0
  0
LINE
  5
79EB
330
79B3
100
AcDbEntity
  8
0
100
AcDbLine
 10
10.54342733040299
 20
80.08176107272023
 30
0.0
 11
8.422106986843347
 21
78.85701620132865
 31
0.0
  0
LINE
  5
79EC
330
79B3
100
AcDbEntity
  8
0
100
AcDbLine
 10
12.99291707318617
 20
78.66754751034713
 30
0.0
 11
10.87159672962653
 21
77.44280263895554
 31
0.0
  0
LINE
  5
79ED
330
79B3
100
AcDbEntity
  8
0
100
AcDbLine
 10
31.56716207501792
 20
67.9437021585455
 30
0.0
 11
29.44584173145827
 21
66.71895728715391
 31
0.0
  0
LINE
  5
79EE
330
79B3
100
AcDbEntity
  8
0
100
AcDbLine
 10
32.98137563739101
 20
65.49421241576235
 30
0.0
 11
30.86005529383137
 21
64.26946754437075
 31
0.0
  0
LINE
  5
79EF
330
79B3
100
AcDbEntity
  8
0
100
AcDbLine
 10
32.981375637391
 20
53.80198137687731
 30
0.0
 11
30.86005529383136
 21
52.57723650548573
 31
0.0
  0
LINE
  5
79F0
330
79B3
100
AcDbEntity
  8
0
100
AcDbLine
 10
7.944591763344412
 20
-83.43666498239562
 30
0.0
 11
7.944591763344412
 21
-82.59136552077487
 31
0.0
  0
LINE
  5
79F1
330
79B3
100
AcDbEntity
  8
0
100
AcDbLine
 10
10.9445917633444
 20
-82.59136552077487
 30
0.0
 11
10.9445917633444
 21
-83.43666498239564
 31
0.0
  0
LINE
  5
79F2
330
79B3
100
AcDbEntity
  8
0
100
AcDbLine
 10
10.9445917633444
 20
-82.59136552077485
 30
0.0
 11
7.944591763344403
 21
-82.59136552077485
 31
0.0
  0
LINE
  5
79F3
330
79B3
100
AcDbEntity
  8
0
100
AcDbLine
 10
7.94459176334441
 20
6.406761800347284
 30
0.0
 11
7.944591763344403
 21
-82.59136552077485
 31
0.0
  0
LINE
  5
79F4
330
79B3
100
AcDbEntity
  8
0
100
AcDbLine
 10
10.9445917633444
 20
-82.59136552077485
 30
0.0
 11
10.9445917633444
 21
6.406761800347275
 31
0.0
  0
LINE
  5
79F5
330
79B3
100
AcDbEntity
  8
0
100
AcDbLine
 10
10.9445917633444
 20
6.406761800347284
 30
0.0
 11
7.94459176334441
 21
6.406761800347284
 31
0.0
  0
LINE
  5
79F6
330
79B3
100
AcDbEntity
  8
0
100
AcDbLine
 10
7.94459176334441
 20
6.406761800347283
 30
0.0
 11
7.94459176334441
 21
9.194455500581975
 31
0.0
  0
LINE
  5
79F7
330
79B3
100
AcDbEntity
  8
0
100
AcDbLine
 10
10.9445917633444
 20
9.194455500581975
 30
0.0
 11
10.9445917633444
 21
6.406761800347283
 31
0.0
  0
LINE
  5
79F8
330
79B3
100
AcDbEntity
  8
0
100
AcDbLine
 10
10.9445917633444
 20
9.194455500581977
 30
0.0
 11
7.94459176334441
 21
9.194455500581977
 31
0.0
  0
LINE
  5
79F9
330
79B3
100
AcDbEntity
  8
0
100
AcDbLine
 10
7.94459176334441
 20
12.29144972560465
 30
0.0
 11
7.94459176334441
 21
9.194455500581977
 31
0.0
  0
LINE
  5
79FA
330
79B3
100
AcDbEntity
  8
0
100
AcDbLine
 10
10.9445917633444
 20
9.194455500581977
 30
0.0
 11
10.9445917633444
 21
12.29144972560465
 31
0.0
  0
LINE
  5
79FB
330
79B3
100
AcDbEntity
  8
0
100
AcDbLine
 10
10.9445917633444
 20
12.29144972560465
 30
0.0
 11
7.94459176334441
 21
12.29144972560465
 31
0.0
  0
LINE
  5
79FC
330
79B3
100
AcDbEntity
  8
0
100
AcDbLine
 10
7.94459176334441
 20
12.2914497256046
 30
0.0
 11
7.94459176334441
 21
12.65845656374914
 31
0.0
  0
LINE
  5
79FD
330
79B3
100
AcDbEntity
  8
0
100
AcDbLine
 10
10.9445917633444
 20
12.65845656374914
 30
0.0
 11
10.9445917633444
 21
12.2914497256046
 31
0.0
  0
LINE
  5
79FE
330
79B3
100
AcDbEntity
  8
0
100
AcDbLine
 10
7.94459176334441
 20
18.91885023363764
 30
0.0
 11
7.944591763344409
 21
12.65845656374915
 31
0.0
  0
LINE
  5
79FF
330
79B3
100
AcDbEntity
  8
0
100
AcDbLine
 10
10.9445917633444
 20
12.65845656374915
 30
0.0
 11
10.9445917633444
 21
18.91885023363764
 31
0.0
  0
LINE
  5
7A00
330
79B3
100
AcDbEntity
  8
0
100
AcDbLine
 10
10.9445917633444
 20
18.91885023363764
 30
0.0
 11
7.94459176334441
 21
18.91885023363764
 31
0.0
  0
LINE
  5
7A01
330
79B3
100
AcDbEntity
  8
0
100
AcDbLine
 10
7.944591763344406
 20
24.66799980494295
 30
0.0
 11
7.94459176334441
 21
18.91885023363764
 31
0.0
  0
LINE
  5
7A02
330
79B3
100
AcDbEntity
  8
0
100
AcDbLine
 10
10.9445917633444
 20
18.91885023363764
 30
0.0
 11
10.9445917633444
 21
24.66799980494295
 31
0.0
  0
LINE
  5
7A03
330
79B3
100
AcDbEntity
  8
0
100
AcDbLine
 10
10.9445917633444
 20
24.66799980494295
 30
0.0
 11
7.944591763344406
 21
24.66799980494295
 31
0.0
  0
LINE
  5
7A04
330
79B3
100
AcDbEntity
  8
0
100
AcDbLine
 10
7.944591763344401
 20
24.66799980494295
 30
0.0
 11
7.944591763344401
 21
26.48449638587067
 31
0.0
  0
LINE
  5
7A05
330
79B3
100
AcDbEntity
  8
0
100
AcDbLine
 10
10.94459176334441
 20
26.48449638587067
 30
0.0
 11
10.94459176334441
 21
24.66799980494295
 31
0.0
  0
LINE
  5
7A06
330
79B3
100
AcDbEntity
  8
0
100
AcDbLine
 10
10.94459176334441
 20
26.48449638587067
 30
0.0
 11
7.944591763344401
 21
26.48449638587067
 31
0.0
  0
LINE
  5
7A07
330
79B3
100
AcDbEntity
  8
0
100
AcDbLine
 10
7.944591763344401
 20
34.83967385645974
 30
0.0
 11
7.944591763344401
 21
26.48449638587067
 31
0.0
  0
LINE
  5
7A08
330
79B3
100
AcDbEntity
  8
0
100
AcDbLine
 10
10.94459176334441
 20
26.48449638587067
 30
0.0
 11
10.9445917633444
 21
34.83967385645975
 31
0.0
  0
LINE
  5
7A09
330
79B3
100
AcDbEntity
  8
0
100
AcDbLine
 10
10.9445917633444
 20
34.83967385645975
 30
0.0
 11
7.944591763344401
 21
34.83967385645974
 31
0.0
  0
LINE
  5
7A0A
330
79B3
100
AcDbEntity
  8
0
100
AcDbLine
 10
7.944591763344401
 20
34.8396738564596
 30
0.0
 11
7.944591763344401
 21
35.15332402399224
 31
0.0
  0
LINE
  5
7A0B
330
79B3
100
AcDbEntity
  8
0
100
AcDbLine
 10
10.9445917633444
 20
35.15332402399224
 30
0.0
 11
10.9445917633444
 21
34.83967385645961
 31
0.0
  0
LINE
  5
7A0C
330
79B3
100
AcDbEntity
  8
0
100
AcDbLine
 10
10.94459176334441
 20
35.15332402399244
 30
0.0
 11
7.94459176334441
 21
35.15332402399244
 31
0.0
  0
LINE
  5
7A0D
330
79B3
100
AcDbEntity
  8
0
100
AcDbLine
 10
7.944591763344397
 20
35.90056850978751
 30
0.0
 11
7.94459176334441
 21
35.15332402399244
 31
0.0
  0
LINE
  5
7A0E
330
79B3
100
AcDbEntity
  8
0
100
AcDbLine
 10
10.94459176334441
 20
35.15332402399244
 30
0.0
 11
10.94459176334441
 21
35.9005685097875
 31
0.0
  0
LINE
  5
7A0F
330
79B3
100
AcDbEntity
  8
0
100
AcDbLine
 10
10.94459176334441
 20
35.9005685097875
 30
0.0
 11
7.944591763344397
 21
35.90056850978751
 31
0.0
  0
LINE
  5
7A10
330
79B3
100
AcDbEntity
  8
0
100
AcDbLine
 10
7.94459176334441
 20
35.90056850978753
 30
0.0
 11
7.94459176334441
 21
35.95392518039942
 31
0.0
  0
LINE
  5
7A11
330
79B3
100
AcDbEntity
  8
0
100
AcDbLine
 10
10.94459176334441
 20
35.95392518039942
 30
0.0
 11
10.94459176334441
 21
35.90056850978753
 31
0.0
  0
LINE
  5
7A12
330
79B3
100
AcDbEntity
  8
0
100
AcDbLine
 10
7.944591763344405
 20
36.40205512174099
 30
0.0
 11
7.944591763344405
 21
35.95392518039941
 31
0.0
  0
LINE
  5
7A13
330
79B3
100
AcDbEntity
  8
0
100
AcDbLine
 10
10.94459176334441
 20
35.95392518039941
 30
0.0
 11
10.94459176334441
 21
36.40205512174099
 31
0.0
  0
LINE
  5
7A14
330
79B3
100
AcDbEntity
  8
0
100
AcDbLine
 10
10.94459176334441
 20
36.40205512174099
 30
0.0
 11
7.944591763344405
 21
36.40205512174099
 31
0.0
  0
LINE
  5
7A15
330
79B3
100
AcDbEntity
  8
0
100
AcDbLine
 10
7.9445917633444
 20
36.40205512174099
 30
0.0
 11
7.9445917633444
 21
39.50339898950836
 31
0.0
  0
LINE
  5
7A16
330
79B3
100
AcDbEntity
  8
0
100
AcDbLine
 10
10.94459176334441
 20
39.50339898950836
 30
0.0
 11
10.94459176334441
 21
36.40205512174099
 31
0.0
  0
LINE
  5
7A17
330
79B3
100
AcDbEntity
  8
0
100
AcDbLine
 10
10.94459176334441
 20
39.50339898950837
 30
0.0
 11
7.944591763344406
 21
39.50339898950837
 31
0.0
  0
LINE
  5
7A18
330
79B3
100
AcDbEntity
  8
0
100
AcDbLine
 10
7.944591763344394
 20
49.96123259443359
 30
0.0
 11
7.944591763344406
 21
39.50339898950837
 31
0.0
  0
LINE
  5
7A19
330
79B3
100
AcDbEntity
  8
0
100
AcDbLine
 10
10.94459176334441
 20
39.50339898950837
 30
0.0
 11
10.94459176334439
 21
49.96123259443361
 31
0.0
  0
LINE
  5
7A1A
330
79B3
100
AcDbEntity
  8
0
100
AcDbLine
 10
32.56716207501793
 20
-41.56589733148319
 30
0.0
 11
30.44584173145829
 21
-42.79064220287479
 31
0.0
  0
LINE
  5
7A1B
330
79B3
100
AcDbEntity
  8
0
100
AcDbLine
 10
-9.030817671428753
 20
33.54577926006251
 30
0.0
 11
-11.15213801498839
 21
32.32103438867092
 31
0.0
  0
LINE
  5
7A1C
330
79B3
100
AcDbEntity
  8
0
100
AcDbLine
 10
-9.030817671428769
 20
90.90466407023527
 30
0.0
 11
-11.15213801498841
 21
89.67991919884369
 31
0.0
  0
LINE
  5
7A1D
330
79B3
100
AcDbEntity
  8
0
100
AcDbLine
 10
32.56716207501796
 20
52.88642715023609
 30
0.0
 11
30.4458417314583
 21
51.66168227884449
 31
0.0
  0
LINE
  5
7A1E
330
79B3
100
AcDbEntity
  8
0
100
AcDbLine
 10
10.9445917633444
 20
-83.4366649823956
 30
0.0
 11
7.944591763344412
 21
-83.43666498239562
 31
0.0
  0
LINE
  5
7A1F
330
79B3
100
AcDbEntity
  8
0
100
AcDbLine
 10
10.9445917633444
 20
12.65845656374916
 30
0.0
 11
7.94459176334441
 21
12.65845656374916
 31
0.0
  0
LINE
  5
7A20
330
79B3
100
AcDbEntity
  8
0
100
AcDbLine
 10
10.9445917633444
 20
35.95392518039941
 30
0.0
 11
7.94459176334441
 21
35.95392518039941
 31
0.0
  0
ELLIPSE
  5
7A21
330
79B3
100
AcDbEntity
  8
0
100
AcDbEllipse
 10
-5.202390546682563
 20
17.32091414102649
 30
0.0
 11
1.25000000000013
 21
-2.165063509461023
 31
0.0
210
0.0
220
0.0
230
0.9999999999999998
 40
0.5773502691896258
 41
4.154790153685032
 42
5.269987807084107
  0
ELLIPSE
  5
7A22
330
79B3
100
AcDbEntity
  8
0
100
AcDbEllipse
 10
1.868677265182911
 20
21.40339704566513
 30
0.0
 11
1.250000000000131
 21
-2.165063509461023
 31
0.0
210
0.0
220
0.0
230
0.9999999999999998
 40
0.5773502691896258
 41
4.154790153685031
 42
5.269987807084107
  0
ELLIPSE
  5
7A23
330
79B3
100
AcDbEntity
  8
0
100
AcDbEllipse
 10
-0.2526430783767308
 20
20.17865217427354
 30
0.0
 11
-1.250000000000002
 21
2.165063509461097
 31
0.0
210
0.0
220
0.0
230
0.9999999999999998
 40
0.5773502691896259
 41
0.0
 42
6.283185307179586
  0
ELLIPSE
  5
7A24
330
79B3
100
AcDbEntity
  8
0
100
AcDbEllipse
 10
-7.323710890242206
 20
16.0961692696349
 30
0.0
 11
-1.250000000000001
 21
2.165063509461097
 31
0.0
210
0.0
220
0.0
230
0.9999999999999998
 40
0.5773502691896258
 41
0.0
 42
6.283185307179586
  0
ELLIPSE
  5
7A25
330
79B3
100
AcDbEntity
  8
0
100
AcDbEllipse
 10
-0.252643078376743
 20
69.16844702993711
 30
0.0
 11
-1.250000000000003
 21
2.165063509461099
 31
0.0
210
0.0
220
0.0
230
1.0
 40
0.577350269189626
 41
0.0
 42
6.283185307179586
  0
ELLIPSE
  5
7A26
330
79B3
100
AcDbEntity
  8
0
100
AcDbEllipse
 10
-7.323710890242219
 20
81.41589574385299
 30
0.0
 11
-1.25
 21
2.165063509461096
 31
0.0
210
0.0
220
0.0
230
0.9999999999999998
 40
0.5773502691896259
 41
0.0
 42
6.283185307179586
  0
ELLIPSE
  5
7A27
330
79B3
100
AcDbEntity
  8
0
100
AcDbEllipse
 10
1.868677265182902
 20
70.39319190132869
 30
0.0
 11
1.250000000000132
 21
-2.165063509461024
 31
0.0
210
0.0
220
0.0
230
1.0
 40
0.5773502691896261
 41
4.154790153685031
 42
5.269987807084104
  0
ELLIPSE
  5
7A28
330
79B3
100
AcDbEntity
  8
0
100
AcDbEllipse
 10
-5.202390546682575
 20
82.64064061524457
 30
0.0
 11
1.250000000000129
 21
-2.165063509461021
 31
0.0
210
0.0
220
0.0
230
1.0
 40
0.577350269189626
 41
4.154790153685036
 42
5.269987807084106
  0
ELLIPSE
  5
7A29
330
79B3
100
AcDbEntity
  8
0
100
AcDbEllipse
 10
-5.202390546682561
 20
0.9909825224719837
 30
0.0
 11
1.25000000000013
 21
-2.165063509461022
 31
0.0
210
0.0
220
0.0
230
1.0
 40
0.577350269189626
 41
4.154790153685032
 42
5.269987807084106
  0
ELLIPSE
  5
7A2A
330
79B3
100
AcDbEntity
  8
0
100
AcDbEllipse
 10
1.868677265182914
 20
5.073465427110614
 30
0.0
 11
1.250000000000131
 21
-2.165063509461023
 31
0.0
210
0.0
220
0.0
230
0.9999999999999998
 40
0.5773502691896258
 41
4.154790153685031
 42
5.269987807084106
  0
ELLIPSE
  5
7A2B
330
79B3
100
AcDbEntity
  8
0
100
AcDbEllipse
 10
-5.202390546682559
 20
-15.33894909608254
 30
0.0
 11
1.25000000000013
 21
-2.165063509461022
 31
0.0
210
0.0
220
0.0
230
1.0
 40
0.577350269189626
 41
4.154790153685032
 42
5.269987807084106
  0
ELLIPSE
  5
7A2C
330
79B3
100
AcDbEntity
  8
0
100
AcDbEllipse
 10
1.868677265182916
 20
-11.25646619144391
 30
0.0
 11
1.250000000000132
 21
-2.165063509461023
 31
0.0
210
0.0
220
0.0
230
0.9999999999999998
 40
0.577350269189626
 41
4.154790153685034
 42
5.269987807084108
  0
ELLIPSE
  5
7A2D
330
79B3
100
AcDbEntity
  8
0
100
AcDbEllipse
 10
-0.2526430783767264
 20
-12.4812110628355
 30
0.0
 11
-1.250000000000002
 21
2.165063509461097
 31
0.0
210
0.0
220
0.0
230
0.9999999999999998
 40
0.5773502691896259
 41
0.0
 42
6.283185307179586
  0
ELLIPSE
  5
7A2E
330
79B3
100
AcDbEntity
  8
0
100
AcDbEllipse
 10
-7.323710890242201
 20
-16.56369396747413
 30
0.0
 11
-1.250000000000001
 21
2.165063509461097
 31
0.0
210
0.0
220
0.0
230
0.9999999999999998
 40
0.5773502691896258
 41
0.0
 42
6.283185307179586
  0
ELLIPSE
  5
7A2F
330
79B3
100
AcDbEntity
  8
0
100
AcDbEllipse
 10
-0.2526430783767286
 20
3.848720555719022
 30
0.0
 11
-1.250000000000002
 21
2.165063509461097
 31
0.0
210
0.0
220
0.0
230
0.9999999999999998
 40
0.5773502691896259
 41
0.0
 42
6.283185307179586
  0
ELLIPSE
  5
7A30
330
79B3
100
AcDbEntity
  8
0
100
AcDbEllipse
 10
-7.323710890242204
 20
-0.2337623489196039
 30
0.0
 11
-1.250000000000001
 21
2.165063509461097
 31
0.0
210
0.0
220
0.0
230
0.9999999999999998
 40
0.5773502691896258
 41
0.0
 42
6.283185307179586
  0
ELLIPSE
  5
7A31
330
79B3
100
AcDbEntity
  8
0
100
AcDbEllipse
 10
-0.2526430783767408
 20
52.83851541138258
 30
0.0
 11
-1.250000000000003
 21
2.165063509461099
 31
0.0
210
0.0
220
0.0
230
1.0
 40
0.577350269189626
 41
0.0
 42
6.283185307179586
  0
ELLIPSE
  5
7A32
330
79B3
100
AcDbEntity
  8
0
100
AcDbEllipse
 10
-7.323710890242219
 20
65.08596412529847
 30
0.0
 11
-1.25
 21
2.165063509461096
 31
0.0
210
0.0
220
0.0
230
0.9999999999999998
 40
0.5773502691896259
 41
0.0
 42
6.283185307179586
  0
ELLIPSE
  5
7A33
330
79B3
100
AcDbEntity
  8
0
100
AcDbEllipse
 10
-0.252643078376743
 20
36.50858379282806
 30
0.0
 11
-1.250000000000003
 21
2.165063509461099
 31
0.0
210
0.0
220
0.0
230
1.0
 40
0.577350269189626
 41
0.0
 42
6.283185307179586
  0
ELLIPSE
  5
7A34
330
79B3
100
AcDbEntity
  8
0
100
AcDbEllipse
 10
-7.323710890242217
 20
48.75603250674394
 30
0.0
 11
-1.25
 21
2.165063509461096
 31
0.0
210
0.0
220
0.0
230
0.9999999999999998
 40
0.5773502691896259
 41
0.0
 42
6.283185307179586
  0
ELLIPSE
  5
7A35
330
79B3
100
AcDbEntity
  8
0
100
AcDbEllipse
 10
1.8686772651829
 20
54.06326028277418
 30
0.0
 11
1.250000000000131
 21
-2.165063509461025
 31
0.0
210
0.0
220
0.0
230
1.0
 40
0.5773502691896258
 41
4.154790153685032
 42
5.269987807084111
  0
ELLIPSE
  5
7A36
330
79B3
100
AcDbEntity
  8
0
100
AcDbEllipse
 10
-5.202390546682576
 20
66.31070899669007
 30
0.0
 11
1.25000000000013
 21
-2.165063509461022
 31
0.0
210
0.0
220
0.0
230
1.0
 40
0.577350269189626
 41
4.154790153685031
 42
5.269987807084106
  0
ELLIPSE
  5
7A37
330
79B3
100
AcDbEntity
  8
0
100
AcDbEllipse
 10
1.868677265182899
 20
37.73332866421966
 30
0.0
 11
1.250000000000133
 21
-2.165063509461024
 31
0.0
210
0.0
220
0.0
230
0.9999999999999998
 40
0.577350269189626
 41
4.154790153685029
 42
5.269987807084108
  0
ELLIPSE
  5
7A38
330
79B3
100
AcDbEntity
  8
0
100
AcDbEllipse
 10
-5.202390546682576
 20
49.98077737813554
 30
0.0
 11
1.250000000000129
 21
-2.165063509461021
 31
0.0
210
0.0
220
0.0
230
1.0
 40
0.577350269189626
 41
4.154790153685036
 42
5.269987807084109
  0
LINE
  5
7A39
330
79B3
100
AcDbEntity
  8
0
100
AcDbLine
 10
7.065912106904033
 20
35.19677620034395
 30
0.0
 11
7.06591210690404
 21
52.87350743712419
 31
0.0
  0
LINE
  5
7A3A
330
79B3
100
AcDbEntity
  8
0
100
AcDbLine
 10
7.06591210690404
 20
52.87350743712419
 30
0.0
 11
8.866555902875395
 21
53.91310961744289
 31
0.0
  0
LINE
  5
7A3B
330
79B3
100
AcDbEntity
  8
0
100
AcDbLine
 10
10.94459176334439
 20
49.96123259443361
 30
0.0
 11
8.943591774776935
 21
49.96123259443359
 31
0.0
  0
LINE
  5
7A3C
330
79B3
100
AcDbEntity
  8
0
100
AcDbLine
 10
8.943591774776935
 20
49.96123259443359
 30
0.0
 11
7.944591763344394
 21
49.96123259443359
 31
0.0
  0
SPLINE
  5
7A3D
330
79B3
100
AcDbEntity
  8
0
100
AcDbSpline
210
0.0
220
0.0
230
1.0
 70
     8
 71
     3
 72
    10
 73
     6
 74
     0
 42
0.000000001
 43
0.0000000001
 40
0.0
 40
0.0
 40
0.0
 40
0.0
 40
0.0037246980960292
 40
0.0037246980960292
 40
0.0074493961920641
 40
0.0074493961920641
 40
0.0074493961920641
 40
0.0074493961920641
 10
10.9441605887598
 20
49.98694580112328
 30
0.0
 10
10.94430431185669
 20
49.98266059957344
 30
0.0
 10
10.94441210573962
 20
49.97837515893241
 30
0.0
 10
10.94455583187104
 20
49.96980398273418
 30
0.0
 10
10.94459176334439
 20
49.96551829338796
 30
0.0
 10
10.9445917633444
 20
49.96123259443361
 30
0.0
  0
SPLINE
  5
7A3E
330
79B3
100
AcDbEntity
  8
0
100
AcDbSpline
210
0.0
220
0.0
230
1.0
 70
     8
 71
     3
 72
    22
 73
    18
 74
     0
 42
0.000000001
 43
0.0000000001
 40
0.0223620910340381
 40
0.0223620910340381
 40
0.0223620910340381
 40
0.0223620910340381
 40
0.0359645333652011
 40
0.0359645333652011
 40
0.0617610600730457
 40
0.0617610600730457
 40
0.0897018043912943
 40
0.0897018043912943
 40
0.1325947356316109
 40
0.1325947356316109
 40
0.199369308704895
 40
0.199369308704895
 40
0.2751301000384053
 40
0.2751301000384053
 40
0.3129015393743679
 40
0.3129015393743679
 40
0.3605515933956833
 40
0.3605515933956833
 40
0.3605515933956833
 40
0.3605515933956833
 10
9.203327855503047
 20
53.87582049683446
 30
0.0
 10
9.210731804215066
 20
53.82257087728454
 30
0.0
 10
9.221171892147545
 20
53.76433076885771
 30
0.0
 10
9.262941045910125
 20
53.58100886806972
 30
0.0
 10
9.300888057240952
 20
53.45903555112562
 30
0.0
 10
9.39542786445283
 20
53.20534819448579
 30
0.0
 10
9.453077462390419
 20
53.07405928866835
 30
0.0
 10
9.612002052080953
 20
52.7446498673606
 30
0.0
 10
9.718994821867187
 20
52.55030320205705
 30
0.0
 10
9.992951623178974
 20
52.07272103754212
 30
0.0
 10
10.17222212226112
 20
51.78003332111678
 30
0.0
 10
10.52516289098228
 20
51.16489868553772
 30
0.0
 10
10.67849655970934
 20
50.86902347725462
 30
0.0
 10
10.83378368376527
 20
50.48482079826172
 30
0.0
 10
10.87322022606764
 20
50.36733305959187
 30
0.0
 10
10.93413115138746
 20
50.12979190480361
 30
0.0
 10
10.9423038757329
 20
50.0426038966329
 30
0.0
 10
10.9441605887598
 20
49.98694580112328
 30
0.0
  0
SPLINE
  5
7A3F
330
79B3
100
AcDbEntity
  8
0
100
AcDbSpline
210
0.0
220
0.0
230
1.0
 70
     8
 71
     3
 72
    10
 73
     6
 74
     0
 42
0.000000001
 43
0.0000000001
 40
0.0
 40
0.0
 40
0.0
 40
0.0
 40
0.0020425076571756
 40
0.0020425076571756
 40
0.0040850153143778
 40
0.0040850153143778
 40
0.0040850153143778
 40
0.0040850153143778
 10
7.944591763344394
 20
49.96123259443359
 30
0.0
 10
7.944591763344398
 20
49.96205748308774
 30
0.0
 10
7.944573797605887
 20
49.96288236990112
 30
0.0
 10
7.944501934542621
 20
49.96453202797696
 30
0.0
 10
7.944448037601762
 20
49.96535679043773
 30
0.0
 10
7.944376176052101
 20
49.96618143038964
 30
0.0
  0
SPLINE
  5
7A40
330
79B3
100
AcDbEntity
  8
0
100
AcDbSpline
210
0.0
220
0.0
230
1.0
 70
     8
 71
     3
 72
    20
 73
    16
 74
     0
 42
0.000000001
 43
0.0000000001
 40
0.0
 40
0.0
 40
0.0
 40
0.0
 40
0.0292038487375162
 40
0.0292038487375162
 40
0.1061564375205661
 40
0.1061564375205661
 40
0.2088926108953314
 40
0.2088926108953314
 40
0.32998651515226
 40
0.32998651515226
 40
0.4924973234448302
 40
0.4924973234448302
 40
0.5936467899883327
 40
0.5936467899883327
 40
0.7611251630277982
 40
0.7611251630277982
 40
0.7611251630277982
 40
0.7611251630277982
 10
7.944376176052101
 20
49.96618143038964
 30
0.0
 10
7.943347270975098
 20
49.97822173020132
 30
0.0
 10
7.938826602606454
 20
49.99715533732842
 30
0.0
 10
7.91546236798565
 20
50.07791854298661
 30
0.0
 10
7.883290583818589
 20
50.16286801980668
 30
0.0
 10
7.817050166636447
 20
50.32757005322168
 30
0.0
 10
7.768350009663107
 20
50.44070352984043
 30
0.0
 10
7.647733482243399
 20
50.71742372538378
 30
0.0
 10
7.575751554312281
 20
50.88117441161798
 30
0.0
 10
7.411586040546268
 20
51.27934166897127
 30
0.0
 10
7.317997333022896
 20
51.52563709550975
 30
0.0
 10
7.194154947503765
 20
51.94309997868247
 30
0.0
 10
7.155132296626235
 20
52.10178150323656
 30
0.0
 10
7.078562056413525
 20
52.51271930763376
 30
0.0
 10
7.065895534594294
 20
52.72258042919027
 30
0.0
 10
7.065912106904036
 20
52.87350743712419
 30
0.0
  0
LINE
  5
7A41
330
79B3
100
AcDbEntity
  8
0
100
AcDbLine
 10
7.944376176052104
 20
49.96618143038964
 30
0.0
 11
10.94416058875981
 21
49.98694580112328
 31
0.0
  0
LINE
  5
7A42
330
79B3
100
AcDbEntity
  8
0
100
AcDbLine
 10
5.444591763344397
 20
-17.85389792231896
 30
0.0
 11
5.4445917633444
 21
-34.80793122990414
 31
0.0
  0
LINE
  5
7A43
330
79B3
100
AcDbEntity
  8
0
100
AcDbLine
 10
6.915179998638509
 20
-15.57567242454988
 30
0.0
 11
6.915179998638512
 21
-37.08615672767319
 31
0.0
  0
ARC
  5
7A44
330
79B3
100
AcDbEntity
  8
0
100
AcDbCircle
 10
7.944591763344407
 20
-17.85389792231895
 30
0.0
 40
2.5
100
AcDbArc
 50
114.3157391711767
 51
180.0
  0
ARC
  5
7A45
330
79B3
100
AcDbEntity
  8
0
100
AcDbCircle
 10
7.944591763344406
 20
-34.80793122990414
 30
0.0
 40
2.5
100
AcDbArc
 50
180.0
 51
245.6842608288233
  0
ARC
  5
7A46
330
79B3
100
AcDbEntity
  8
0
100
AcDbCircle
 10
6.194591763344387
 20
-13.98091457611154
 30
0.0
 40
1.75
100
AcDbArc
 50
294.3157391711765
 51
0.0
  0
ARC
  5
7A47
330
79B3
100
AcDbEntity
  8
0
100
AcDbCircle
 10
6.194591763344399
 20
-38.68091457611155
 30
0.0
 40
1.75
100
AcDbArc
 50
0.0
 51
65.68426082882379
  0
LINE
  5
7A48
330
79B3
100
AcDbEntity
  8
0
100
AcDbLine
 10
11.97400352805029
 20
-8.994319260816448
 30
0.0
 11
11.97400352805029
 21
8.516165042306862
 31
0.0
  0
LINE
  5
7A49
330
79B3
100
AcDbEntity
  8
0
100
AcDbLine
 10
13.44459176334441
 20
6.237939544537791
 30
0.0
 11
13.44459176334441
 21
-6.716093763047386
 31
0.0
  0
ARC
  5
7A4A
330
79B3
100
AcDbEntity
  8
0
100
AcDbCircle
 10
10.94459176334441
 20
6.237939544537787
 30
0.0
 40
2.5
100
AcDbArc
 50
0.0
 51
65.68426082882362
  0
ARC
  5
7A4B
330
79B3
100
AcDbEntity
  8
0
100
AcDbCircle
 10
10.94459176334441
 20
-6.716093763047386
 30
0.0
 40
2.5
100
AcDbArc
 50
294.3157391711765
 51
0.0
  0
ARC
  5
7A4C
330
79B3
100
AcDbEntity
  8
0
100
AcDbCircle
 10
12.6945917633444
 20
10.1109228907452
 30
0.0
 40
1.75
100
AcDbArc
 50
180.0
 51
245.6842608288235
  0
ARC
  5
7A4D
330
79B3
100
AcDbEntity
  8
0
100
AcDbCircle
 10
12.6945917633444
 20
-10.5890771092548
 30
0.0
 40
1.75
100
AcDbArc
 50
114.3157391711765
 51
180.0
  0
LINE
  5
7A4E
330
79B3
100
AcDbEntity
  8
0
100
AcDbLine
 10
5.444591763344403
 20
-50.51376115942801
 30
0.0
 11
5.444591763344406
 21
-67.46779446701319
 31
0.0
  0
LINE
  5
7A4F
330
79B3
100
AcDbEntity
  8
0
100
AcDbLine
 10
6.915179998638516
 20
-48.23553566165892
 30
0.0
 11
6.915179998638518
 21
-69.74601996478224
 31
0.0
  0
LINE
  5
7A50
330
79B3
100
AcDbEntity
  8
0
100
AcDbLine
 10
11.97400352805028
 20
-41.65418249792548
 30
0.0
 11
11.97400352805028
 21
-24.14369819480218
 31
0.0
  0
LINE
  5
7A51
330
79B3
100
AcDbEntity
  8
0
100
AcDbLine
 10
13.44459176334441
 20
-26.42192369257124
 30
0.0
 11
13.44459176334441
 21
-39.37595700015642
 31
0.0
  0
ARC
  5
7A52
330
79B3
100
AcDbEntity
  8
0
100
AcDbCircle
 10
7.944591763344414
 20
-50.51376115942797
 30
0.0
 40
2.5
100
AcDbArc
 50
114.3157391711767
 51
180.0
  0
ARC
  5
7A53
330
79B3
100
AcDbEntity
  8
0
100
AcDbCircle
 10
7.944591763344412
 20
-67.46779446701317
 30
0.0
 40
2.5
100
AcDbArc
 50
180.0
 51
245.6842608288233
  0
ARC
  5
7A54
330
79B3
100
AcDbEntity
  8
0
100
AcDbCircle
 10
6.194591763344403
 20
-46.64077781322056
 30
0.0
 40
1.75
100
AcDbArc
 50
294.3157391711761
 51
0.0
  0
ARC
  5
7A55
330
79B3
100
AcDbEntity
  8
0
100
AcDbCircle
 10
6.194591763344396
 20
-71.34077781322059
 30
0.0
 40
1.75
100
AcDbArc
 50
0.0
 51
65.68426082882364
  0
ARC
  5
7A56
330
79B3
100
AcDbEntity
  8
0
100
AcDbCircle
 10
10.94459176334441
 20
-26.42192369257124
 30
0.0
 40
2.5
100
AcDbArc
 50
0.0
 51
65.68426082882364
  0
ARC
  5
7A57
330
79B3
100
AcDbEntity
  8
0
100
AcDbCircle
 10
10.94459176334441
 20
-39.37595700015642
 30
0.0
 40
2.5
100
AcDbArc
 50
294.3157391711765
 51
0.0
  0
ARC
  5
7A58
330
79B3
100
AcDbEntity
  8
0
100
AcDbCircle
 10
12.6945917633444
 20
-22.54894034636383
 30
0.0
 40
1.75
100
AcDbArc
 50
180.0
 51
245.6842608288235
  0
ARC
  5
7A59
330
79B3
100
AcDbEntity
  8
0
100
AcDbCircle
 10
12.6945917633444
 20
-43.24894034636383
 30
0.0
 40
1.75
100
AcDbArc
 50
114.3157391711765
 51
180.0
  0
LINE
  5
7A5A
330
79B3
100
AcDbEntity
  8
0
100
AcDbLine
 10
5.444591763344398
 20
32.84145581372246
 30
0.0
 11
5.444591763344398
 21
32.64110606067114
 31
0.0
  0
LINE
  5
7A5B
330
79B3
100
AcDbEntity
  8
0
100
AcDbLine
 10
5.444591763344401
 20
-9.81671614757065
 30
0.0
 11
5.444591763344401
 21
-9.870399702104544
 31
0.0
  0
LINE
  5
7A5C
330
79B3
100
AcDbEntity
  8
0
100
AcDbLine
 10
6.915179998638516
 20
35.11968131149153
 30
0.0
 11
6.915179998638516
 21
31.3257719562595
 31
0.0
  0
LINE
  5
7A5D
330
79B3
100
AcDbEntity
  8
0
100
AcDbLine
 10
6.915179998638515
 20
-11.13205025198226
 30
0.0
 11
6.915179998638515
 21
-12.1486251998736
 31
0.0
  0
ARC
  5
7A5E
330
79B3
100
AcDbEntity
  8
0
100
AcDbCircle
 10
7.944591763344401
 20
32.84145581372249
 30
0.0
 40
2.5
100
AcDbArc
 50
114.3157391711767
 51
180.0
  0
ARC
  5
7A5F
330
79B3
100
AcDbEntity
  8
0
100
AcDbCircle
 10
6.194591763344401
 20
36.71443915992989
 30
0.0
 40
1.75
100
AcDbArc
 50
294.3157391711763
 51
0.0
  0
ARC
  5
7A60
330
79B3
100
AcDbEntity
  8
0
100
AcDbCircle
 10
7.944591763344401
 20
-9.870399702104544
 30
0.0
 40
2.5
100
AcDbArc
 50
180.0
 51
245.6842608288233
  0
ARC
  5
7A61
330
79B3
100
AcDbEntity
  8
0
100
AcDbCircle
 10
6.194591763344403
 20
-13.74338304831195
 30
0.0
 40
1.75
100
AcDbArc
 50
0.0
 51
65.68426082882374
  0
LINE
  5
7A62
330
79B3
100
AcDbEntity
  8
0
100
AcDbLine
 10
5.444591763344397
 20
32.64110606067112
 30
0.0
 11
5.444591763344401
 21
-9.816716147570673
 31
0.0
  0
ELLIPSE
  5
7A63
330
79B3
100
AcDbEntity
  8
0
100
AcDbEllipse
 10
7.944591763344401
 20
32.64110606067113
 30
0.0
 11
-2.5
 21
0.0000000000000004
 31
0.0
210
0.0
220
0.0
230
1.0
 40
0.5773502691896276
 41
0.0000000000000013
 42
1.14640661820171
  0
ELLIPSE
  5
7A64
330
79B3
100
AcDbEntity
  8
0
100
AcDbEllipse
 10
6.194591763344399
 20
30.40503808317133
 30
0.0
 11
1.75
 21
0.0000000000000013
 31
0.0
210
0.0
220
0.0
230
1.0
 40
0.577350269189628
 41
0.0
 42
1.14640661820171
  0
ELLIPSE
  5
7A65
330
79B3
100
AcDbEntity
  8
0
100
AcDbEllipse
 10
7.944591763344401
 20
-9.816716147570652
 30
0.0
 11
-2.5
 21
-0.0000000000000006
 31
0.0
210
0.0
220
0.0
230
1.0
 40
0.5773502691896275
 41
0.0
 42
1.146406618201707
  0
ELLIPSE
  5
7A66
330
79B3
100
AcDbEntity
  8
0
100
AcDbEllipse
 10
6.194591763344401
 20
-12.05278412507046
 30
0.0
 11
1.75
 21
0.000000000000001
 31
0.0
210
0.0
220
0.0
230
1.0
 40
0.577350269189628
 41
0.0
 42
1.14640661820171
  0
LINE
  5
7A67
330
79B3
100
AcDbEntity
  8
0
100
AcDbLine
 10
6.915179998638516
 20
31.32577195625947
 30
0.0
 11
6.915179998638516
 21
-11.13205025198231
 31
0.0
  0
ENDBLK
  5
79B5
330
79B3
100
AcDbEntity
  8
0
100
AcDbBlockEnd
  0
ENDSEC
  0
SECTION
  2
ENTITIES
  0
INSERT
  5
7A68
330
1F
100
AcDbEntity
  8
0
100
AcDbBlockReference
  2
TUSR16-Front
 10
0.0
 20
0.0
 30
0.0
  0
INSERT
  5
7A69
330
1F
100
AcDbEntity
  8
0
100
AcDbBlockReference
  2
TUSR16-Left
 10
117.2707317919526
 20
0.0
 30
0.0
  0
INSERT
  5
7A6A
330
1F
100
AcDbEntity
  8
0
100
AcDbBlockReference
  2
TUSR16-Right
 10
-66.91419207666204
 20
0.0
 30
0.0
  0
INSERT
  5
7A6B
330
1F
100
AcDbEntity
  8
0
100
AcDbBlockReference
  2
TUSR16-Top
 10
0.0
 20
-107.2
 30
0.0
  0
INSERT
  5
7A6C
330
1F
100
AcDbEntity
  8
0
100
AcDbBlockReference
  2
TUSR16-Bottom
 10
0.0
 20
107.2
 30
0.0
  0
INSERT
  5
7A6D
330
1F
100
AcDbEntity
  8
0
100
AcDbBlockReference
  2
TUSR16-ISO
 10
128.8370833693142
 20
-198.1983551210169
 30
0.0
  0
MTEXT
  5
7A6E
330
1F
100
AcDbEntity
  8
0
100
AcDbMText
 10
0.0
 20
-224.4707317612737
 30
0.0
 40
13.4
 41
0.0
 71
     5
 72
     5
  1
TU/S16
 73
     1
 44
1.0
1001
ACAD
1000
MTEXTBEGIN
1070
    73
1070
     1
1070
    44
1040
1.0
1070
    74
1070
     0
1000
MTEXTEND
  0
ENDSEC
  0
SECTION
  2
OBJECTS
  0
DICTIONARY
  5
C
330
0
100
AcDbDictionary
281
     1
  3
ACAD_CIP_PREVIOUS_PRODUCT_INFO
350
216
  3
ACAD_COLOR
350
6B
  3
ACAD_DETAILVIEWSTYLE
350
21B
  3
ACAD_GROUP
350
D
  3
ACAD_LAYOUT
350
1A
  3
ACAD_MATERIAL
350
6A
  3
ACAD_MLEADERSTYLE
350
12D
  3
ACAD_MLINESTYLE
350
17
  3
ACAD_PLOTSETTINGS
350
19
  3
ACAD_PLOTSTYLENAME
350
E
  3
ACAD_SCALELIST
350
10C
  3
ACAD_SECTIONVIEWSTYLE
350
219
  3
ACAD_TABLESTYLE
350
7E
  3
ACAD_VISUALSTYLE
350
EF
  3
ACDB_RECOMPOSE_DATA
350
7C04
  3
AcDbVariableDictionary
350
5E
  3
DWGPROPS
350
7C05
  0
DICTIONARY
  5
7ABF
330
8
100
AcDbDictionary
280
     1
281
     1
  0
DICTIONARY
  5
1FF
330
2
100
AcDbDictionary
280
     1
281
     1
  3
ACAD_LAYERSTATES
360
200
  0
DICTIONARY
  5
13C
330
10
100
AcDbDictionary
280
     1
281
     1
  0
DICTIONARY
  5
1CE
330
1F
100
AcDbDictionary
280
     1
281
     1
  3
ACAD_LAYOUTSELFREF
360
7AC7
  0
DICTIONARY
  5
7A72
330
D2
100
AcDbDictionary
280
     1
281
     1
  3
ACAD_LAYOUTSELFREF
360
7AD0
  0
DICTIONARY
  5
7A74
330
D6
100
AcDbDictionary
280
     1
281
     1
  3
ACAD_LAYOUTSELFREF
360
7AD3
  0
XRECORD
  5
216
102
{ACAD_REACTORS
330
C
102
}
330
C
100
AcDbXrecord
280
     1
300
ACD
300
2021
300

  0
DICTIONARY
  5
6B
102
{ACAD_REACTORS
330
C
102
}
330
C
100
AcDbDictionary
281
     1
  0
DICTIONARY
  5
21B
102
{ACAD_REACTORS
330
C
102
}
330
C
100
AcDbDictionary
281
     1
  3
Metric50
350
21C
  0
DICTIONARY
  5
D
102
{ACAD_REACTORS
330
C
102
}
330
C
100
AcDbDictionary
281
     1
  0
DICTIONARY
  5
1A
102
{ACAD_REACTORS
330
C
102
}
330
C
100
AcDbDictionary
281
     1
  3
Layout1
350
D3
  3
Layout2
350
D7
  3
Model
350
22
  0
DICTIONARY
  5
6A
102
{ACAD_REACTORS
330
C
102
}
330
C
100
AcDbDictionary
281
     1
  3
ByBlock
350
ED
  3
ByLayer
350
EC
  3
Global
350
EE
  0
DICTIONARY
  5
12D
102
{ACAD_REACTORS
330
C
102
}
330
C
100
AcDbDictionary
281
     1
  3
Standard
350
12E
  0
DICTIONARY
  5
17
102
{ACAD_REACTORS
330
C
102
}
330
C
100
AcDbDictionary
281
     1
  3
Standard
350
18
  0
DICTIONARY
  5
19
102
{ACAD_REACTORS
330
C
102
}
330
C
100
AcDbDictionary
281
     1
  0
ACDBDICTIONARYWDFLT
  5
E
102
{ACAD_REACTORS
330
C
102
}
330
C
100
AcDbDictionary
281
     1
  3
Normal
350
F
100
AcDbDictionaryWithDefault
340
F
  0
DICTIONARY
  5
10C
102
{ACAD_REACTORS
330
C
102
}
330
C
100
AcDbDictionary
281
     1
  3
A0
350
10D
  3
A1
350
1BE
  3
A2
350
1BF
  3
A3
350
1C0
  3
A4
350
1C1
  3
A5
350
1C2
  3
A6
350
1C3
  3
A7
350
1C4
  3
A8
350
1C5
  3
A9
350
1C6
  3
B0
350
1C7
  3
B1
350
1C8
  3
B2
350
1C9
  3
B3
350
1CA
  3
B4
350
1CB
  3
B5
350
1CC
  3
B6
350
1CD
  0
DICTIONARY
  5
219
102
{ACAD_REACTORS
330
C
102
}
330
C
100
AcDbDictionary
281
     1
  3
Metric50
350
21A
  0
DICTIONARY
  5
7E
102
{ACAD_REACTORS
330
C
102
}
330
C
100
AcDbDictionary
281
     1
  3
Standard
350
7F
  0
DICTIONARY
  5
EF
102
{ACAD_REACTORS
330
C
102
}
330
C
100
AcDbDictionary
281
     1
  3
2dWireframe
350
F5
  3
Basic
350
F4
  3
Brighten
350
FB
  3
ColorChange
350
FF
  3
Conceptual
350
F8
  3
Dim
350
FA
  3
EdgeColorOff
350
1E6
  3
Facepattern
350
FE
  3
Flat
350
F0
  3
FlatWithEdges
350
F1
  3
Gouraud
350
F2
  3
GouraudWithEdges
350
F3
  3
Hidden
350
F7
  3
JitterOff
350
1E4
  3
Linepattern
350
FD
  3
OverhangOff
350
1E5
  3
Realistic
350
F9
  3
Shaded
350
1F3
  3
Shaded with edges
350
1F2
  3
Shades of Gray
350
1EF
  3
Sketchy
350
1F0
  3
Thicken
350
FC
  3
Wireframe
350
F6
  3
X-Ray
350
1F1
  0
XRECORD
  5
7C04
102
{ACAD_REACTORS
330
C
102
}
330
C
100
AcDbXrecord
280
     1
 90
        1
330
7F
  0
DICTIONARY
  5
5E
102
{ACAD_REACTORS
330
C
102
}
330
C
100
AcDbDictionary
281
     1
  3
CANNOSCALE
350
146
  3
CENTEREXE
350
259
  3
CENTERLTYPEFILE
350
25A
  3
CMLEADERSTYLE
350
145
  3
CTABLESTYLE
350
84
  3
CVIEWDETAILSTYLE
350
227
  3
CVIEWSECTIONSTYLE
350
228
  3
DIMASSOC
350
5F
  3
HIDETEXT
350
63
  3
INDEXCTL
350
7B1C
  3
LAYEREVAL
350
1AE
  3
LAYERNOTIFY
350
1AF
  3
LIGHTINGUNITS
350
7B1A
  3
MSLTSCALE
350
7B19
  3
PSOLHEIGHT
350
7C01
  3
PSOLWIDTH
350
7C00
  3
SORTENTS
350
7B1B
  3
XCLIPFRAME
350
7C02
  0
XRECORD
  5
7C05
102
{ACAD_REACTORS
330
C
102
}
330
C
100
AcDbXrecord
280
     1
  1
DWGPROPS COOKIE
  2

  3

  4

  6

  7

  8
tronnguyen
  9

300
=
301
=
302
=
303
=
304
=
305
=
306
=
307
=
308
=
309
=
 40
0.0096875
 41
2460367.705740741
 42
2460368.358460648
  1

 90
        0
  0
DICTIONARY
  5
200
102
{ACAD_REACTORS
330
1FF
102
}
330
1FF
100
AcDbDictionary
281
     1
  0
XRECORD
  5
7AC7
102
{ACAD_REACTORS
330
1CE
102
}
330
1CE
100
AcDbXrecord
280
     1
340
1F
  0
XRECORD
  5
7AD0
102
{ACAD_REACTORS
330
7A72
102
}
330
7A72
100
AcDbXrecord
280
     1
340
D2
  0
XRECORD
  5
7AD3
102
{ACAD_REACTORS
330
7A74
102
}
330
7A74
100
AcDbXrecord
280
     1
340
D6
  0
ACDBDETAILVIEWSTYLE
  5
21C
102
{ACAD_XDICTIONARY
360
7C44
102
}
102
{ACAD_REACTORS
330
21B
102
}
330
21B
100
AcDbModelDocViewStyle
 70
     0
  3
Metric50
290
     0
100
AcDbDetailViewStyle
 70
     0
 71
     0
 90
        3
 71
     1
340
11
 40
5.0
340
0
 40
5.0
300

 40
0.0
280
     1
 71
     2
340
16
 90
       25
 71
     3
340
11
 40
5.0
 90
        0
 40
15.0
 90
        1
300
%<\AcVar ViewDetailId>% (%<\AcVar ViewScale \f "%sn">%)
 71
     4
340
16
 90
       25
340
16
 90
       25
280
     0
  0
LAYOUT
  5
D3
102
{ACAD_XDICTIONARY
360
7C09
102
}
102
{ACAD_REACTORS
330
1A
102
}
330
1A
100
AcDbPlotSettings
  1

  2
C:\Documents and Settings\basas\Application Data\Autodesk\AutoCAD 2005\R16.1\enu\plotters\Default Windows System Printer.pc3
  4

  6

 40
0.0
 41
0.0
 42
0.0
 43
0.0
 44
0.0
 45
0.0
 46
0.0
 47
0.0
 48
0.0
 49
0.0
140
0.0
141
0.0
142
1.0
143
1.0
 70
   688
 72
     0
 73
     0
 74
     5
  7

 75
    16
147
1.0
148
0.0
149
0.0
100
AcDbLayout
  1
Layout1
 70
     1
 71
     1
 10
0.0
 20
0.0
 11
12.0
 21
9.0
 12
0.0
 22
0.0
 32
0.0
 14
0.0
 24
0.0
 34
0.0
 15
0.0
 25
0.0
 35
0.0
146
0.0
 13
0.0
 23
0.0
 33
0.0
 16
1.0
 26
0.0
 36
0.0
 17
0.0
 27
1.0
 37
0.0
 76
     0
330
D2
  0
LAYOUT
  5
D7
102
{ACAD_XDICTIONARY
360
7C0B
102
}
102
{ACAD_REACTORS
330
1A
102
}
330
1A
100
AcDbPlotSettings
  1

  2
C:\Documents and Settings\basas\Application Data\Autodesk\AutoCAD 2005\R16.1\enu\plotters\Default Windows System Printer.pc3
  4

  6

 40
0.0
 41
0.0
 42
0.0
 43
0.0
 44
0.0
 45
0.0
 46
0.0
 47
0.0
 48
0.0
 49
0.0
140
0.0
141
0.0
142
1.0
143
1.0
 70
   688
 72
     0
 73
     0
 74
     5
  7

 75
    16
147
1.0
148
0.0
149
0.0
100
AcDbLayout
  1
Layout2
 70
     1
 71
     2
 10
0.0
 20
0.0
 11
12.0
 21
9.0
 12
0.0
 22
0.0
 32
0.0
 14
0.0
 24
0.0
 34
0.0
 15
0.0
 25
0.0
 35
0.0
146
0.0
 13
0.0
 23
0.0
 33
0.0
 16
1.0
 26
0.0
 36
0.0
 17
0.0
 27
1.0
 37
0.0
 76
     0
330
D6
  0
LAYOUT
  5
22
102
{ACAD_XDICTIONARY
360
7C06
102
}
102
{ACAD_REACTORS
330
1A
102
}
330
1A
100
AcDbPlotSettings
  1

  2
none_device
  4
ISO_A4_(210.00_x_297.00_MM)
  6

 40
7.5
 41
20.0
 42
7.5
 43
20.0
 44
210.0
 45
297.0
 46
11.54999923706054
 47
-13.65000009536743
 48
0.0
 49
0.0
140
0.0
141
0.0
142
1.0
143
8.704084754739808
 70
 11952
 72
     1
 73
     0
 74
     0
  7

 75
     0
147
0.1148885871608098
148
0.0
149
0.0
100
AcDbLayout
  1
Model
 70
     1
 71
     0
 10
0.0
 20
0.0
 11
12.0
 21
9.0
 12
0.0
 22
0.0
 32
0.0
 14
0.0
 24
0.0
 34
0.0
 15
0.0
 25
0.0
 35
0.0
146
0.0
 13
0.0
 23
0.0
 33
0.0
 16
1.0
 26
0.0
 36
0.0
 17
0.0
 27
1.0
 37
0.0
 76
     0
330
1F
331
EA
1001
ACAD_PSEXT
1000
None
1000
None
1000
Not applicable
1000
The layout will not be plotted unless a new plotter configuration name is selected.
1070
     0
  0
MATERIAL
  5
ED
102
{ACAD_XDICTIONARY
360
1F9
102
}
102
{ACAD_REACTORS
330
6A
102
}
330
6A
100
AcDbMaterial
  1
ByBlock
  0
MATERIAL
  5
EC
102
{ACAD_XDICTIONARY
360
1F7
102
}
102
{ACAD_REACTORS
330
6A
102
}
330
6A
100
AcDbMaterial
  1
ByLayer
  0
MATERIAL
  5
EE
102
{ACAD_XDICTIONARY
360
173
102
}
102
{ACAD_REACTORS
330
6A
102
}
330
6A
100
AcDbMaterial
  1
Global
 43
0.0007999999797903
 43
0.0
 43
0.0
 43
0.0
 43
0.0
 43
0.0007999999797903
 43
0.0
 43
0.0
 43
0.0
 43
0.0
 43
1.0
 43
0.0
 43
0.0
 43
0.0
 43
0.0
 43
1.0
 49
0.0007999999797903
 49
0.0
 49
0.0
 49
0.0
 49
0.0
 49
0.0007999999797903
 49
0.0
 49
0.0
 49
0.0
 49
0.0
 49
1.0
 49
0.0
 49
0.0
 49
0.0
 49
0.0
 49
1.0
142
0.0007999999797903
142
0.0
142
0.0
142
0.0
142
0.0
142
0.0007999999797903
142
0.0
142
0.0
142
0.0
142
0.0
142
1.0
142
0.0
142
0.0
142
0.0
142
0.0
142
1.0
144
0.0007999999797903
144
0.0
144
0.0
144
0.0
144
0.0
144
0.0007999999797903
144
0.0
144
0.0
144
0.0
144
0.0
144
1.0
144
0.0
144
0.0
144
0.0
144
0.0
144
1.0
1001
ACAD
1070
    -1
1070
     3
1070
     0
1000

1071
        0
1070
     0
  0
MLEADERSTYLE
  5
12E
102
{ACAD_XDICTIONARY
360
7C30
102
}
102
{ACAD_REACTORS
330
12D
102
}
330
12D
100
AcDbMLeaderStyle
170
     2
171
     1
172
     0
 90
        2
 40
0.0
 41
0.0
173
     1
 91
-1056964608
340
14
 92
       -2
290
     1
 42
2.0
291
     1
 43
8.0
  3
Standard
 44
4.0
300

342
11
174
     1
178
     1
175
     1
176
     0
 93
-1056964608
 45
4.0
292
     0
297
     0
 46
4.0
 94
-1056964608
 47
1.0
 49
1.0
140
1.0
293
     1
141
0.0
294
     1
177
     0
142
1.0
295
     0
296
     0
143
3.75
1001
ACAD_MLEADERVER
1070
     2
  0
MLINESTYLE
  5
18
102
{ACAD_REACTORS
330
17
102
}
330
17
100
AcDbMlineStyle
  2
STANDARD
 70
     0
  3

 62
   256
 51
90.0
 52
90.0
 71
     2
 49
0.5
 62
   256
  6
BYLAYER
 49
-0.5
 62
   256
  6
BYLAYER
  0
ACDBPLACEHOLDER
  5
F
102
{ACAD_REACTORS
330
E
102
}
330
E
  0
SCALE
  5
10D
102
{ACAD_REACTORS
330
10C
102
}
330
10C
100
AcDbScale
 70
     0
300
1:1
140
1.0
141
1.0
290
     1
  0
SCALE
  5
1BE
102
{ACAD_REACTORS
330
10C
102
}
330
10C
100
AcDbScale
 70
     0
300
1:2
140
1.0
141
2.0
290
     0
  0
SCALE
  5
1BF
102
{ACAD_REACTORS
330
10C
102
}
330
10C
100
AcDbScale
 70
     0
300
1:4
140
1.0
141
4.0
290
     0
  0
SCALE
  5
1C0
102
{ACAD_REACTORS
330
10C
102
}
330
10C
100
AcDbScale
 70
     0
300
1:5
140
1.0
141
5.0
290
     0
  0
SCALE
  5
1C1
102
{ACAD_REACTORS
330
10C
102
}
330
10C
100
AcDbScale
 70
     0
300
1:8
140
1.0
141
8.0
290
     0
  0
SCALE
  5
1C2
102
{ACAD_REACTORS
330
10C
102
}
330
10C
100
AcDbScale
 70
     0
300
1:10
140
1.0
141
10.0
290
     0
  0
SCALE
  5
1C3
102
{ACAD_REACTORS
330
10C
102
}
330
10C
100
AcDbScale
 70
     0
300
1:16
140
1.0
141
16.0
290
     0
  0
SCALE
  5
1C4
102
{ACAD_REACTORS
330
10C
102
}
330
10C
100
AcDbScale
 70
     0
300
1:20
140
1.0
141
20.0
290
     0
  0
SCALE
  5
1C5
102
{ACAD_REACTORS
330
10C
102
}
330
10C
100
AcDbScale
 70
     0
300
1:30
140
1.0
141
30.0
290
     0
  0
SCALE
  5
1C6
102
{ACAD_REACTORS
330
10C
102
}
330
10C
100
AcDbScale
 70
     0
300
1:40
140
1.0
141
40.0
290
     0
  0
SCALE
  5
1C7
102
{ACAD_REACTORS
330
10C
102
}
330
10C
100
AcDbScale
 70
     0
300
1:50
140
1.0
141
50.0
290
     0
  0
SCALE
  5
1C8
102
{ACAD_REACTORS
330
10C
102
}
330
10C
100
AcDbScale
 70
     0
300
1:100
140
1.0
141
100.0
290
     0
  0
SCALE
  5
1C9
102
{ACAD_REACTORS
330
10C
102
}
330
10C
100
AcDbScale
 70
     0
300
2:1
140
2.0
141
1.0
290
     0
  0
SCALE
  5
1CA
102
{ACAD_REACTORS
330
10C
102
}
330
10C
100
AcDbScale
 70
     0
300
4:1
140
4.0
141
1.0
290
     0
  0
SCALE
  5
1CB
102
{ACAD_REACTORS
330
10C
102
}
330
10C
100
AcDbScale
 70
     0
300
8:1
140
8.0
141
1.0
290
     0
  0
SCALE
  5
1CC
102
{ACAD_REACTORS
330
10C
102
}
330
10C
100
AcDbScale
 70
     0
300
10:1
140
10.0
141
1.0
290
     0
  0
SCALE
  5
1CD
102
{ACAD_REACTORS
330
10C
102
}
330
10C
100
AcDbScale
 70
     0
300
100:1
140
100.0
141
1.0
290
     0
  0
ACDBSECTIONVIEWSTYLE
  5
21A
102
{ACAD_XDICTIONARY
360
7C42
102
}
102
{ACAD_REACTORS
330
219
102
}
330
219
100
AcDbModelDocViewStyle
 70
     0
  3
Metric50
290
     0
100
AcDbSectionViewStyle
 70
     0
 71
     0
 90
      102
 71
     1
340
11
 40
5.0
340
0
340
0
 40
5.0
300
I, O, Q, S, X, Z
 40
10.0
 90
        0
 40
2.5
 90
        0
 71
     2
340
16
 90
       25
340
16
 90
       50
 40
5.0
 40
2.5
 40
5.0
 71
     3
340
11
 40
5.0
 90
        0
 40
15.0
 90
        1
300
%<\AcVar ViewSectionStartId>%-%<\AcVar ViewSectionEndId>% (%<\AcVar ViewScale \f "%sn">%)
 71
     4
300
ANSI31
 40
1.0
 90
        0
290
     0
290
     0
 90
        6
 40
0.0
 40
1.570796326794896
 40
0.2617993877991494
 40
1.308996938995747
 40
-0.2617993877991494
 40
1.832595714594046
  0
TABLESTYLE
  5
7F
102
{ACAD_XDICTIONARY
360
162
102
}
102
{ACAD_REACTORS
330
7E
102
}
330
7E
100
AcDbTableStyle
  3
Standard
 70
     0
 71
     0
 40
1.5
 41
1.5
280
     0
281
     0
  7
Standard
140
4.5
170
     2
 62
     0
 63
     7
283
     0
274
    -2
284
     1
 64
     0
275
    -2
285
     1
 65
     0
276
    -2
286
     1
 66
     0
277
    -2
287
     1
 67
     0
278
    -2
288
     1
 68
     0
279
    -2
289
     1
 69
     0
  7
Standard
140
6.0
170
     5
 62
     0
 63
     7
283
     0
274
    -2
284
     1
 64
     0
275
    -2
285
     1
 65
     0
276
    -2
286
     1
 66
     0
277
    -2
287
     1
 67
     0
278
    -2
288
     1
 68
     0
279
    -2
289
     1
 69
     0
  7
Standard
140
4.5
170
     5
 62
     0
 63
     7
283
     0
274
    -2
284
     1
 64
     0
275
    -2
285
     1
 65
     0
276
    -2
286
     1
 66
     0
277
    -2
287
     1
 67
     0
278
    -2
288
     1
 68
     0
279
    -2
289
     1
 69
     0
  0
VISUALSTYLE
  5
F5
102
{ACAD_XDICTIONARY
360
7C1A
102
}
102
{ACAD_REACTORS
330
EF
102
}
330
EF
100
AcDbVisualStyle
  2
2dWireframe
 70
     4
 71
     0
 72
     2
 73
     1
 90
        0
 40
-0.6
 41
-30.0
 62
     5
 63
     7
 74
     1
 91
        4
 64
     7
 65
   257
 75
     1
175
     1
 42
1.0
 92
        0
 66
   257
 43
1.0
 76
     1
 77
     6
 78
     2
 67
     7
 79
     5
170
     0
171
     0
290
     0
174
     0
 93
        1
 44
0.0
173
     0
291
     0
 45
0.0
1001
ACAD
1000
AcDbSavedByObjectVersion
1070
     0
  0
VISUALSTYLE
  5
F4
102
{ACAD_XDICTIONARY
360
7C18
102
}
102
{ACAD_REACTORS
330
EF
102
}
330
EF
100
AcDbVisualStyle
  2
Basic
 70
     7
 71
     1
 72
     0
 73
     1
 90
        0
 40
-0.6
 41
-30.0
 62
     5
 63
     7
 74
     0
 91
        4
 64
     7
 65
   257
 75
     1
175
     1
 42
1.0
 92
        8
 66
     7
 43
1.0
 76
     1
 77
     6
 78
     2
 67
     7
 79
     5
170
     0
171
     0
290
     0
174
     0
 93
        1
 44
0.0
173
     0
291
     1
 45
0.0
1001
ACAD
1000
AcDbSavedByObjectVersion
1070
     0
  0
VISUALSTYLE
  5
FB
102
{ACAD_XDICTIONARY
360
7C26
102
}
102
{ACAD_REACTORS
330
EF
102
}
330
EF
100
AcDbVisualStyle
  2
Brighten
 70
    12
 71
     2
 72
     2
 73
     1
 90
        0
 40
-0.6
 41
-30.0
 62
     5
 63
     7
 74
     1
 91
        4
 64
     7
 65
   257
 75
     1
175
     1
 42
1.0
 92
        8
 66
     7
 43
1.0
 76
     1
 77
     6
 78
     2
 67
     7
 79
     5
170
     0
171
     0
290
     0
174
     0
 93
        1
 44
50.0
173
     0
291
     1
 45
0.0
1001
ACAD
1000
AcDbSavedByObjectVersion
1070
     0
  0
VISUALSTYLE
  5
FF
102
{ACAD_XDICTIONARY
360
7C2E
102
}
102
{ACAD_REACTORS
330
EF
102
}
330
EF
100
AcDbVisualStyle
  2
ColorChange
 70
    16
 71
     2
 72
     2
 73
     3
 90
        0
 40
-0.6
 41
-30.0
 62
     5
 63
     8
 74
     1
 91
        4
 64
     7
 65
   257
 75
     1
175
     1
 42
1.0
 92
        8
 66
     8
 43
1.0
 76
     1
 77
     6
 78
     2
 67
     7
 79
     5
170
     0
171
     0
290
     0
174
     0
 93
        1
 44
0.0
173
     0
291
     1
 45
0.0
1001
ACAD
1000
AcDbSavedByObjectVersion
1070
     0
  0
VISUALSTYLE
  5
F8
102
{ACAD_XDICTIONARY
360
7C20
102
}
102
{ACAD_REACTORS
330
EF
102
}
330
EF
100
AcDbVisualStyle
  2
Conceptual
 70
     9
 71
     3
 72
     2
 73
     1
 90
        0
 40
-0.6
 41
-30.0
 62
     5
 63
     7
 74
     2
 91
        2
 64
     7
 65
   257
 75
     1
175
     1
 42
40.0
 92
        8
 66
     7
 43
1.0
 76
     1
 77
     6
 78
     2
 67
     7
 79
     3
170
     0
171
     0
290
     0
174
     0
 93
        1
 44
0.0
173
     0
291
     0
 45
0.0
1001
ACAD
1000
AcDbSavedByObjectVersion
1070
     0
  0
VISUALSTYLE
  5
FA
102
{ACAD_XDICTIONARY
360
7C24
102
}
102
{ACAD_REACTORS
330
EF
102
}
330
EF
100
AcDbVisualStyle
  2
Dim
 70
    11
 71
     2
 72
     2
 73
     1
 90
        0
 40
-0.6
 41
-30.0
 62
     5
 63
     7
 74
     1
 91
        4
 64
     7
 65
   257
 75
     1
175
     1
 42
1.0
 92
        8
 66
     7
 43
1.0
 76
     1
 77
     6
 78
     2
 67
     7
 79
     5
170
     0
171
     0
290
     0
174
     0
 93
        1
 44
-50.0
173
     0
291
     1
 45
0.0
1001
ACAD
1000
AcDbSavedByObjectVersion
1070
     0
  0
VISUALSTYLE
  5
1E6
102
{ACAD_XDICTIONARY
360
7C36
102
}
102
{ACAD_REACTORS
330
EF
102
}
330
EF
100
AcDbVisualStyle
  2
EdgeColorOff
 70
    22
 71
     2
 72
     2
 73
     0
 90
        0
 40
-0.6
 41
-30.0
 62
     5
 63
     7
 74
     1
 91
        4
 64
     7
 65
   257
 75
     1
175
     1
 42
1.0
 92
        8
 66
     7
 43
1.0
 76
     1
 77
     6
 78
     2
 67
     7
 79
     5
170
     0
171
     0
290
     0
174
     0
 93
        1
 44
0.0
173
     0
291
     1
 45
0.0
1001
ACAD
1000
AcDbSavedByObjectVersion
1070
     0
  0
VISUALSTYLE
  5
FE
102
{ACAD_XDICTIONARY
360
7C2C
102
}
102
{ACAD_REACTORS
330
EF
102
}
330
EF
100
AcDbVisualStyle
  2
Facepattern
 70
    15
 71
     2
 72
     2
 73
     1
 90
        0
 40
-0.6
 41
-30.0
 62
     5
 63
     7
 74
     1
 91
        4
 64
     7
 65
   257
 75
     1
175
     1
 42
1.0
 92
        8
 66
     7
 43
1.0
 76
     1
 77
     6
 78
     2
 67
     7
 79
     5
170
     0
171
     0
290
     0
174
     0
 93
        1
 44
0.0
173
     0
291
     1
 45
0.0
1001
ACAD
1000
AcDbSavedByObjectVersion
1070
     0
  0
VISUALSTYLE
  5
F0
102
{ACAD_XDICTIONARY
360
7C10
102
}
102
{ACAD_REACTORS
330
EF
102
}
330
EF
100
AcDbVisualStyle
  2
Flat
 70
     0
 71
     2
 72
     1
 73
     1
 90
        2
 40
-0.6
 41
30.0
 62
     5
 63
     7
 74
     0
 91
        0
 64
     7
 65
   257
 75
     1
175
     1
 42
1.0
 92
        8
 66
     7
 43
1.0
 76
     1
 77
     6
 78
     2
 67
     7
 79
     5
170
     0
171
     0
290
     0
174
     0
 93
       13
 44
0.0
173
     0
291
     1
 45
0.0
1001
ACAD
1000
AcDbSavedByObjectVersion
1070
     0
  0
VISUALSTYLE
  5
F1
102
{ACAD_XDICTIONARY
360
7C12
102
}
102
{ACAD_REACTORS
330
EF
102
}
330
EF
100
AcDbVisualStyle
  2
FlatWithEdges
 70
     1
 71
     2
 72
     1
 73
     1
 90
        2
 40
-0.6
 41
30.0
 62
     5
 63
     7
 74
     1
 91
        0
 64
     7
 65
   257
 75
     1
175
     1
 42
1.0
 92
        0
 66
   257
 43
1.0
 76
     1
 77
     6
 78
     2
 67
     7
 79
     5
170
     0
171
     0
290
     0
174
     0
 93
       13
 44
0.0
173
     0
291
     1
 45
0.0
1001
ACAD
1000
AcDbSavedByObjectVersion
1070
     0
  0
VISUALSTYLE
  5
F2
102
{ACAD_XDICTIONARY
360
7C14
102
}
102
{ACAD_REACTORS
330
EF
102
}
330
EF
100
AcDbVisualStyle
  2
Gouraud
 70
     2
 71
     2
 72
     2
 73
     1
 90
        2
 40
-0.6
 41
30.0
 62
     5
 63
     7
 74
     0
 91
        0
 64
     7
 65
   257
 75
     1
175
     1
 42
1.0
 92
        0
 66
     7
 43
1.0
 76
     1
 77
     6
 78
     2
 67
     7
 79
     5
170
     0
171
     0
290
     0
174
     0
 93
       13
 44
0.0
173
     0
291
     1
 45
0.0
1001
ACAD
1000
AcDbSavedByObjectVersion
1070
     0
  0
VISUALSTYLE
  5
F3
102
{ACAD_XDICTIONARY
360
7C16
102
}
102
{ACAD_REACTORS
330
EF
102
}
330
EF
100
AcDbVisualStyle
  2
GouraudWithEdges
 70
     3
 71
     2
 72
     2
 73
     1
 90
        2
 40
-0.6
 41
30.0
 62
     5
 63
     7
 74
     1
 91
        0
 64
     7
 65
   257
 75
     1
175
     1
 42
1.0
 92
        0
 66
   257
 43
1.0
 76
     1
 77
     6
 78
     2
 67
     7
 79
     5
170
     0
171
     0
290
     0
174
     0
 93
       13
 44
0.0
173
     0
291
     1
 45
0.0
1001
ACAD
1000
AcDbSavedByObjectVersion
1070
     0
  0
VISUALSTYLE
  5
F7
102
{ACAD_XDICTIONARY
360
7C1E
102
}
102
{ACAD_REACTORS
330
EF
102
}
330
EF
100
AcDbVisualStyle
  2
Hidden
 70
     6
 71
     1
 72
     2
 73
     2
 90
        0
 40
-0.6
 41
-30.0
 62
     5
 63
     7
 74
     2
 91
        2
 64
     7
 65
   257
 75
     2
175
     1
 42
40.0
 92
        0
 66
   257
 43
1.0
 76
     1
 77
     6
 78
     2
 67
     7
 79
     3
170
     0
171
     0
290
     0
174
     0
 93
        1
 44
0.0
173
     0
291
     0
 45
0.0
1001
ACAD
1000
AcDbSavedByObjectVersion
1070
     0
  0
VISUALSTYLE
  5
1E4
102
{ACAD_XDICTIONARY
360
7C32
102
}
102
{ACAD_REACTORS
330
EF
102
}
330
EF
100
AcDbVisualStyle
  2
JitterOff
 70
    20
 71
     2
 72
     2
 73
     0
 90
        0
 40
-0.6
 41
-30.0
 62
     5
 63
     7
 74
     1
 91
        4
 64
     7
 65
   257
 75
     1
175
     1
 42
1.0
 92
       10
 66
     7
 43
1.0
 76
     1
 77
     6
 78
     2
 67
     7
 79
     5
170
     0
171
     0
290
     0
174
     0
 93
        1
 44
0.0
173
     0
291
     1
 45
0.0
1001
ACAD
1000
AcDbSavedByObjectVersion
1070
     0
  0
VISUALSTYLE
  5
FD
102
{ACAD_XDICTIONARY
360
7C2A
102
}
102
{ACAD_REACTORS
330
EF
102
}
330
EF
100
AcDbVisualStyle
  2
Linepattern
 70
    14
 71
     2
 72
     2
 73
     1
 90
        0
 40
-0.6
 41
-30.0
 62
     5
 63
     7
 74
     1
 91
        4
 64
     7
 65
   257
 75
     7
175
     7
 42
1.0
 92
        8
 66
     7
 43
1.0
 76
     1
 77
     6
 78
     2
 67
     7
 79
     5
170
     0
171
     0
290
     0
174
     0
 93
        1
 44
0.0
173
     0
291
     1
 45
0.0
1001
ACAD
1000
AcDbSavedByObjectVersion
1070
     0
  0
VISUALSTYLE
  5
1E5
102
{ACAD_XDICTIONARY
360
7C34
102
}
102
{ACAD_REACTORS
330
EF
102
}
330
EF
100
AcDbVisualStyle
  2
OverhangOff
 70
    21
 71
     2
 72
     2
 73
     0
 90
        0
 40
-0.6
 41
-30.0
 62
     5
 63
     7
 74
     1
 91
        4
 64
     7
 65
   257
 75
     1
175
     1
 42
1.0
 92
        9
 66
     7
 43
1.0
 76
     1
 77
     6
 78
     2
 67
     7
 79
     5
170
     0
171
     0
290
     0
174
     0
 93
        1
 44
0.0
173
     0
291
     1
 45
0.0
1001
ACAD
1000
AcDbSavedByObjectVersion
1070
     0
  0
VISUALSTYLE
  5
F9
102
{ACAD_XDICTIONARY
360
7C22
102
}
102
{ACAD_REACTORS
330
EF
102
}
330
EF
100
AcDbVisualStyle
  2
Realistic
 70
     8
 71
     2
 72
     2
 73
     0
 90
        2
 40
-0.6
 41
30.0
 62
     5
 63
     7
 74
     0
 91
        0
 64
     7
 65
   257
 75
     1
175
     1
 42
1.0
 92
        8
 66
   257
 43
1.0
 76
     1
 77
     6
 78
     2
 67
     7
 79
     3
170
     0
171
     0
290
     0
174
     0
 93
       13
 44
0.0
173
     0
291
     0
 45
0.0
1001
ACAD
1000
AcDbSavedByObjectVersion
1070
     0
  0
VISUALSTYLE
  5
1F3
102
{ACAD_XDICTIONARY
360
7C40
102
}
102
{ACAD_REACTORS
330
EF
102
}
330
EF
100
AcDbVisualStyle
  2
Shaded
 70
    27
 71
     2
 72
     2
 73
     1
 90
        2
 40
-0.6
 41
30.0
 62
     5
 63
     7
 74
     0
 91
        4
 64
     7
 65
   257
 75
     1
175
     1
 42
1.0
 92
        8
 66
   257
 43
1.0
 76
     1
 77
     6
 78
     2
 67
     8
 79
     3
170
     0
171
     0
290
     0
174
     0
 93
        5
 44
0.0
173
     0
291
     0
 45
0.0
1001
ACAD
1000
AcDbSavedByObjectVersion
1070
     0
  0
VISUALSTYLE
  5
1F2
102
{ACAD_XDICTIONARY
360
7C3E
102
}
102
{ACAD_REACTORS
330
EF
102
}
330
EF
100
AcDbVisualStyle
  2
Shaded with edges
 70
    26
 71
     2
 72
     2
 73
     1
 90
        2
 40
-0.6
 41
30.0
 62
     5
 63
     7
 74
     1
 91
        2
 64
     7
 65
   257
 75
     2
175
     1
 42
1.0
 92
        8
 66
   257
 43
1.0
 76
     1
 77
     6
 78
     2
 67
     7
 79
     3
170
     0
171
     0
290
     0
174
     0
 93
        5
 44
0.0
173
     0
291
     0
 45
0.0
1001
ACAD
1000
AcDbSavedByObjectVersion
1070
     0
  0
VISUALSTYLE
  5
1EF
102
{ACAD_XDICTIONARY
360
7C38
102
}
102
{ACAD_REACTORS
330
EF
102
}
330
EF
100
AcDbVisualStyle
  2
Shades of Gray
 70
    23
 71
     2
 72
     2
 73
     3
 90
        0
 40
-0.6
 41
-30.0
 62
     5
 63
     7
 74
     2
 91
        2
 64
     7
 65
     7
 75
     1
175
     1
 42
40.0
 92
        8
 66
     7
 43
1.0
 76
     1
 77
     6
 78
     2
 67
     7
 79
     3
170
     0
171
     0
290
     0
174
     0
 93
        1
 44
0.0
173
     0
291
     0
 45
0.0
1001
ACAD
1000
AcDbSavedByObjectVersion
1070
     0
  0
VISUALSTYLE
  5
1F0
102
{ACAD_XDICTIONARY
360
7C3A
102
}
102
{ACAD_REACTORS
330
EF
102
}
330
EF
100
AcDbVisualStyle
  2
Sketchy
 70
    24
 71
     1
 72
     2
 73
     2
 90
        0
 40
-0.6
 41
-30.0
 62
     5
 63
     7
 74
     2
 91
        2
 64
     7
 65
     7
 75
     1
175
     1
 42
40.0
 92
       11
 66
     7
 43
1.0
 76
     1
 77
     6
 78
     2
 67
     7
 79
     6
170
     0
171
     0
290
     0
174
     0
 93
        1
 44
0.0
173
     0
291
     0
 45
0.0
1001
ACAD
1000
AcDbSavedByObjectVersion
1070
     0
  0
VISUALSTYLE
  5
FC
102
{ACAD_XDICTIONARY
360
7C28
102
}
102
{ACAD_REACTORS
330
EF
102
}
330
EF
100
AcDbVisualStyle
  2
Thicken
 70
    13
 71
     2
 72
     2
 73
     1
 90
        0
 40
-0.6
 41
-30.0
 62
     5
 63
     7
 74
     1
 91
        4
 64
     7
 65
   257
 75
     1
175
     1
 42
1.0
 92
       12
 66
     7
 43
1.0
 76
     1
 77
     6
 78
     2
 67
     7
 79
     5
170
     0
171
     0
290
     0
174
     0
 93
        1
 44
0.0
173
     0
291
     1
 45
0.0
1001
ACAD
1000
AcDbSavedByObjectVersion
1070
     0
  0
VISUALSTYLE
  5
F6
102
{ACAD_XDICTIONARY
360
7C1C
102
}
102
{ACAD_REACTORS
330
EF
102
}
330
EF
100
AcDbVisualStyle
  2
Wireframe
 70
     5
 71
     0
 72
     2
 73
     0
 90
        0
 40
-0.6
 41
-30.0
 62
     5
 63
     7
 74
     1
 91
        4
 64
     7
 65
   257
 75
     1
175
     1
 42
1.0
 92
        0
 66
   257
 43
1.0
 76
     1
 77
     6
 78
     2
 67
     7
 79
     3
170
     0
171
     0
290
     0
174
     0
 93
        1
 44
0.0
173
     0
291
     0
 45
0.0
1001
ACAD
1000
AcDbSavedByObjectVersion
1070
     0
  0
VISUALSTYLE
  5
1F1
102
{ACAD_XDICTIONARY
360
7C3C
102
}
102
{ACAD_REACTORS
330
EF
102
}
330
EF
100
AcDbVisualStyle
  2
X-Ray
 70
    25
 71
     2
 72
     2
 73
     1
 90
        1
 40
0.5
 41
-30.0
 62
     5
 63
     7
 74
     1
 91
        0
 64
     7
 65
   257
 75
     1
175
     1
 42
1.0
 92
        8
 66
     7
 43
1.0
 76
     1
 77
     6
 78
     2
 67
     7
 79
     3
170
     0
171
     0
290
     0
174
     0
 93
       13
 44
0.0
173
     0
291
     0
 45
0.0
1001
ACAD
1000
AcDbSavedByObjectVersion
1070
     0
  0
DICTIONARYVAR
  5
146
102
{ACAD_REACTORS
330
5E
102
}
330
5E
100
DictionaryVariables
280
     0
  1
1:1
  0
DICTIONARYVAR
  5
259
102
{ACAD_REACTORS
330
5E
102
}
330
5E
100
DictionaryVariables
280
     0
  1
3.500000
  0
DICTIONARYVAR
  5
25A
102
{ACAD_REACTORS
330
5E
102
}
330
5E
100
DictionaryVariables
280
     0
  1
acadiso.lin
  0
DICTIONARYVAR
  5
145
102
{ACAD_REACTORS
330
5E
102
}
330
5E
100
DictionaryVariables
280
     0
  1
STANDARD
  0
DICTIONARYVAR
  5
84
102
{ACAD_REACTORS
330
5E
102
}
330
5E
100
DictionaryVariables
280
     0
  1
STANDARD
  0
DICTIONARYVAR
  5
227
102
{ACAD_REACTORS
330
5E
102
}
330
5E
100
DictionaryVariables
280
     0
  1
Metric50
  0
DICTIONARYVAR
  5
228
102
{ACAD_REACTORS
330
5E
102
}
330
5E
100
DictionaryVariables
280
     0
  1
Metric50
  0
DICTIONARYVAR
  5
5F
102
{ACAD_REACTORS
330
5E
102
}
330
5E
100
DictionaryVariables
280
     0
  1
2
  0
DICTIONARYVAR
  5
63
102
{ACAD_REACTORS
330
5E
102
}
330
5E
100
DictionaryVariables
280
     0
  1
1
  0
DICTIONARYVAR
  5
7B1C
102
{ACAD_REACTORS
330
5E
102
}
330
5E
100
DictionaryVariables
280
     0
  1
0
  0
DICTIONARYVAR
  5
1AE
102
{ACAD_REACTORS
330
5E
102
}
330
5E
100
DictionaryVariables
280
     0
  1
0
  0
DICTIONARYVAR
  5
1AF
102
{ACAD_REACTORS
330
5E
102
}
330
5E
100
DictionaryVariables
280
     0
  1
0
  0
DICTIONARYVAR
  5
7B1A
102
{ACAD_REACTORS
330
5E
102
}
330
5E
100
DictionaryVariables
280
     0
  1
2
  0
DICTIONARYVAR
  5
7B19
102
{ACAD_REACTORS
330
5E
102
}
330
5E
100
DictionaryVariables
280
     0
  1
1
  0
DICTIONARYVAR
  5
7C01
102
{ACAD_REACTORS
330
5E
102
}
330
5E
100
DictionaryVariables
280
     0
  1
80.000000
  0
DICTIONARYVAR
  5
7C00
102
{ACAD_REACTORS
330
5E
102
}
330
5E
100
DictionaryVariables
280
     0
  1
5.000000
  0
DICTIONARYVAR
  5
7B1B
102
{ACAD_REACTORS
330
5E
102
}
330
5E
100
DictionaryVariables
280
     0
  1
127
  0
DICTIONARYVAR
  5
7C02
102
{ACAD_REACTORS
330
5E
102
}
330
5E
100
DictionaryVariables
280
     0
  1
2
  0
DICTIONARY
  5
7C44
330
21C
100
AcDbDictionary
280
     1
281
     1
  3
ACAD_XREC_ROUNDTRIP
360
7C45
  0
DICTIONARY
  5
7C09
330
D3
100
AcDbDictionary
280
     1
281
     1
  3
ACAD_XREC_ROUNDTRIP
360
7C0A
  0
DICTIONARY
  5
7C0B
330
D7
100
AcDbDictionary
280
     1
281
     1
  3
ACAD_XREC_ROUNDTRIP
360
7C0C
  0
DICTIONARY
  5
7C06
330
22
100
AcDbDictionary
280
     1
281
     1
  3
ACAD_XREC_ROUNDTRIP
360
7C07
  0
DICTIONARY
  5
1F9
330
ED
100
AcDbDictionary
280
     1
281
     1
  3
ACAD_XREC_ROUNDTRIP
360
7C0E
  3
FBXASSET
360
1FA
  0
DICTIONARY
  5
1F7
330
EC
100
AcDbDictionary
280
     1
281
     1
  3
ACAD_XREC_ROUNDTRIP
360
7C0D
  3
FBXASSET
360
1F8
  0
DICTIONARY
  5
173
330
EE
100
AcDbDictionary
280
     1
281
     1
  3
ACAD_XREC_ROUNDTRIP
360
7C0F
  3
BUMPTILE
360
175
  3
DIFFUSETILE
360
174
  3
FBXASSET
360
1FB
  3
OPACITYTILE
360
176
  3
REFLECTIONTILE
360
177
  0
DICTIONARY
  5
7C30
330
12E
100
AcDbDictionary
280
     1
281
     1
  3
ACAD_XREC_ROUNDTRIP
360
7C31
  0
DICTIONARY
  5
7C42
330
21A
100
AcDbDictionary
280
     1
281
     1
  3
ACAD_XREC_ROUNDTRIP
360
7C43
  0
DICTIONARY
  5
162
330
7F
100
AcDbDictionary
280
     1
281
     1
  3
ACAD_ROUNDTRIP_2008_TABLESTYLE_CELLSTYLEMAP
360
7C03
  3
ACAD_XREC_ROUNDTRIP
360
7C08
  0
DICTIONARY
  5
7C1A
330
F5
100
AcDbDictionary
280
     1
281
     1
  3
ACAD_XREC_ROUNDTRIP
360
7C1B
  0
DICTIONARY
  5
7C18
330
F4
100
AcDbDictionary
280
     1
281
     1
  3
ACAD_XREC_ROUNDTRIP
360
7C19
  0
DICTIONARY
  5
7C26
330
FB
100
AcDbDictionary
280
     1
281
     1
  3
ACAD_XREC_ROUNDTRIP
360
7C27
  0
DICTIONARY
  5
7C2E
330
FF
100
AcDbDictionary
280
     1
281
     1
  3
ACAD_XREC_ROUNDTRIP
360
7C2F
  0
DICTIONARY
  5
7C20
330
F8
100
AcDbDictionary
280
     1
281
     1
  3
ACAD_XREC_ROUNDTRIP
360
7C21
  0
DICTIONARY
  5
7C24
330
FA
100
AcDbDictionary
280
     1
281
     1
  3
ACAD_XREC_ROUNDTRIP
360
7C25
  0
DICTIONARY
  5
7C36
330
1E6
100
AcDbDictionary
280
     1
281
     1
  3
ACAD_XREC_ROUNDTRIP
360
7C37
  0
DICTIONARY
  5
7C2C
330
FE
100
AcDbDictionary
280
     1
281
     1
  3
ACAD_XREC_ROUNDTRIP
360
7C2D
  0
DICTIONARY
  5
7C10
330
F0
100
AcDbDictionary
280
     1
281
     1
  3
ACAD_XREC_ROUNDTRIP
360
7C11
  0
DICTIONARY
  5
7C12
330
F1
100
AcDbDictionary
280
     1
281
     1
  3
ACAD_XREC_ROUNDTRIP
360
7C13
  0
DICTIONARY
  5
7C14
330
F2
100
AcDbDictionary
280
     1
281
     1
  3
ACAD_XREC_ROUNDTRIP
360
7C15
  0
DICTIONARY
  5
7C16
330
F3
100
AcDbDictionary
280
     1
281
     1
  3
ACAD_XREC_ROUNDTRIP
360
7C17
  0
DICTIONARY
  5
7C1E
330
F7
100
AcDbDictionary
280
     1
281
     1
  3
ACAD_XREC_ROUNDTRIP
360
7C1F
  0
DICTIONARY
  5
7C32
330
1E4
100
AcDbDictionary
280
     1
281
     1
  3
ACAD_XREC_ROUNDTRIP
360
7C33
  0
DICTIONARY
  5
7C2A
330
FD
100
AcDbDictionary
280
     1
281
     1
  3
ACAD_XREC_ROUNDTRIP
360
7C2B
  0
DICTIONARY
  5
7C34
330
1E5
100
AcDbDictionary
280
     1
281
     1
  3
ACAD_XREC_ROUNDTRIP
360
7C35
  0
DICTIONARY
  5
7C22
330
F9
100
AcDbDictionary
280
     1
281
     1
  3
ACAD_XREC_ROUNDTRIP
360
7C23
  0
DICTIONARY
  5
7C40
330
1F3
100
AcDbDictionary
280
     1
281
     1
  3
ACAD_XREC_ROUNDTRIP
360
7C41
  0
DICTIONARY
  5
7C3E
330
1F2
100
AcDbDictionary
280
     1
281
     1
  3
ACAD_XREC_ROUNDTRIP
360
7C3F
  0
DICTIONARY
  5
7C38
330
1EF
100
AcDbDictionary
280
     1
281
     1
  3
ACAD_XREC_ROUNDTRIP
360
7C39
  0
DICTIONARY
  5
7C3A
330
1F0
100
AcDbDictionary
280
     1
281
     1
  3
ACAD_XREC_ROUNDTRIP
360
7C3B
  0
DICTIONARY
  5
7C28
330
FC
100
AcDbDictionary
280
     1
281
     1
  3
ACAD_XREC_ROUNDTRIP
360
7C29
  0
DICTIONARY
  5
7C1C
330
F6
100
AcDbDictionary
280
     1
281
     1
  3
ACAD_XREC_ROUNDTRIP
360
7C1D
  0
DICTIONARY
  5
7C3C
330
1F1
100
AcDbDictionary
280
     1
281
     1
  3
ACAD_XREC_ROUNDTRIP
360
7C3D
  0
XRECORD
  5
7C45
102
{ACAD_REACTORS
330
7C44
102
}
330
7C44
100
AcDbXrecord
280
     1
102
DISPLAYNAME
  1
Metric50
102
FLAGS
 90
        0
  0
XRECORD
  5
7C0A
102
{ACAD_REACTORS
330
7C09
102
}
330
7C09
100
AcDbXrecord
280
     1
102
SHADEPLOT
 70
     0
102
SHADEPLOTRESLEVEL
 70
     2
102
SHADEPLOTCUSTOMDPI
 70
   300
  0
XRECORD
  5
7C0C
102
{ACAD_REACTORS
330
7C0B
102
}
330
7C0B
100
AcDbXrecord
280
     1
102
SHADEPLOT
 70
     0
102
SHADEPLOTRESLEVEL
 70
     2
102
SHADEPLOTCUSTOMDPI
 70
   300
  0
XRECORD
  5
7C07
102
{ACAD_REACTORS
330
7C06
102
}
330
7C06
100
AcDbXrecord
280
     1
102
SHADEPLOT
 70
     0
102
SHADEPLOTRESLEVEL
 70
     2
102
SHADEPLOTCUSTOMDPI
 70
   300
  0
XRECORD
  5
7C0E
102
{ACAD_REACTORS
330
1F9
102
}
330
1F9
100
AcDbXrecord
280
     1
102
MATERIAL
148
0.0
149
0.0
149
0.0
 93
        0
 94
       63
282
     0
 72
     1
 77
     1
171
     1
175
     1
179
     1
273
     0
  0
XRECORD
  5
1FA
102
{ACAD_REACTORS
330
1F9
102
}
330
1F9
100
AcDbXrecord
280
     1
 70
     1
 90
429727718
  1
D62C5603-E3A1-4AEA-B7FB-FE5D8D0755AF
310
504B03040A0000080000CC70623B3DEE336E79000000790000001B0000006175746F6465736B2D64657369676E2D7061636B6167652E786D6C3C3F786D6C2076657273696F6E3D22312E302220656E636F64696E673D227574662D3822203F3E3C666F726D6174733E3C666F726D61743E687474703A2F2F736368656D612E
310
6175746F6465736B2E636F6D2F64657369676E2D7061636B6167652F323030393C2F666F726D61743E3C2F666F726D6174733E504B0304140006080800CC70623BD486FD9CA0000000F4000000130000005B436F6E74656E745F54797065735D2E786D6C7D8EC10E82300C865F65E91D8A1E8C310C0EEA1BF002731658846E
310
D98AC1B77784ABF1D8FE5FBFBF75BBCE937A534CCEB38643598122B6FEE978D0B0485F9C41B54DDD7D022595594E1A469170414C76A4D9A4D207E29CF43ECE46F218070CC6BECC4078ACAA135ACF422C856C0E68EA1BF5669944DDD7BCDE7B1F8E415D77AECB980613C2E4AC91FC167A2B244592486606FC29C8FD7F045B9A
310
EF7053A7E60B504B0304140006080800CC70623B853B8169EB0000007C01000008000000636F72652E786D6C8D90416EC3201045AF62CDB6C206821CC7C244919D9CA01740401C94182C03558F5F9C3852BBEB6A467FFE9B197D7EFC9E1EC5975982F5AE035262288C535E5B377690E21535501C055FBC8FBF6C503839990E
310
5619041F179FE64D52DE45E362569DD7661365082642A11EB9E920A89B99642953CC8E702F67A9EE7234257977194EC9EAE275C4EABCCF5EAD5940D4AC6F0E35A568B8F43562CD7046CD199FD07E60174276A7BE677B5EADB0E0D14EEFFB6A31321A0D82627C4084204C3F096B71DD52F6819B16635EADF63F509AF53FA164
310
5DDCD1EDDD17164090FCC8732078B56691CB33A85CD7DCC40F504B0304140006080800CC70623B55019EA25F0000007C00000007000000636E782E786D6C4DCB3B0E80201045D1AD90E915ED2CF8AC45050C11660C8261F98AB1B07AC9C97D42D718D865D3E909258CFD00CCE24AC6E326A164D74DC0B4128928FF32603847
310
2BA13128B1252AC747C6BAB984FC68F0B87FE8960A5C09FE86CFB69FBA01504B0304140006080800CC70623BDBABAAF470010000D40300000C0000006662782F636F72652E786D6CC553D16E823014FD95A6AF4B694182CC941A83FA05FB810A9511A125A5257EFE2E82712ECEB8A7F100CD39F7F69E734AF9FADC366850B6
310
AF8DCE7018308C942E4C59EB2AC3DE1D498AD15A706B8CFB56869196ADCAF00863C12B6B7C374385D14E6907A836A59A41D9F7CA615434B0C8705F7CAA5606D23BA8E84F41278B93AC54100640439DE0BDB320004D43C63716C7C399D30917DCFBBA9CD9BA8469F5B156168B24CED3F7248AC8769F27244EB73B92EED8862C
310
B7F13E0C179B3C8F979C8ECD82BBBABDAA2BAC924E9558448CBD9330242CFA08E3154B5651FCC6D215639C8EE5774DBE2B5F6CF2B5768B68963BB5F5588420E442FC700B1139D4CB01F450C1E918227C2E09DF070D8140C84E1E9AAB8F1340832A9CB13130A5F1376A908D57309505ECF2A0DF179C4E9D30F5B239B87E3823
310
7A79C6F31DE1A8A5AEC08474B03C7837EAE4938639B44E5932B833D2C6B6B279CDC613877FA26EE21F4A2A4C63EC7F29A2F301D1F9F7A0E37D145F504B0304140006080800CC70623B9C113CC27E0000009D0000000B0000006662782F636E782E786D6C4DCCDF0A83201C86E15B91DFB94BFB330DD428C8FB886521330DA7
310
6397BF1A1DECE883878F57749FCDA1B7892F1BBC047A23808C7F84D9FA55424E0BE6803A256208E9EF06C84F9B91703228B1C690F78B66B34CD9A5439DF5CF0BFBF65E35BCA1B8D6A5C6F540381E886698B5741C695F9503EBA150A2F8958E3DC3EA0B504B0304140006080800CC70623B7DF2F77C2A010000120200003100
310
00006662782F41393633353835312D344632462D344230382D423046372D3739314545314133324237412F636F72652E786D6C8D51DB8EC22014FC15C2939B0D2DB4B45643319AE817EC0F6041255A68B86CFCFC856D4D76DF7CE190393373060EDB3DC707F856CE6B6B7A480A0C81328395DA5C7B18C3057510EC3873D686
310
3F34088C18550F330C39BB3A1BA7051AAC09CA84841A2BD5020AEF55806078A44B0FFD7053A328440C89E1EFC52486BBB8AA8214A99D789CF9E05200300FC927E4FB4D5B375D43103D5527440FB843077C5AA3F5861C8F645F5787F59E95B390B318B55CE45AA638FAA2957BD7248B390B7A7CC51F9C124149C82B8C378810
310
84AB2F42B7B8DD56F413775B8C5999E9FF4471926F8AA236A1AE96B8B3CC434E5839373893369E1FAF30EA395917409EB7F26AF8801C171837A4A6AC9C89E9F9C9B1A58BA30FD6A5EF5DDDCF894B9AD9B6A59C957943A9FCAE2FD5BC4DFE03504B0304140006080800CC70623BAD7543B64E01000033030000300000006662
310
782F41393633353835312D344632462D344230382D423046372D3739314545314133324237412F636E782E786D6CD593CD6EC32010845F0571AD6CE3D48AD20813A9873E410FBD12D82434182C7EAAE6EDBB2424CD25871E7B41D6EC30B3FA84F9E67BB2E40B4234DE8DB46F1925E094D7C6ED479AD3AE5951B2113C789FEE
310
6C943839C1488B4C05DF079FE72A69D8C96C13AAD6B8631503449F83828872B949AC57D26200B826A308D316B4064D6E46FCDA41C05550DC9E483A00797BFD207EFB092A45DE9514C1BBD22178396BD39D891265658C238DEA00936C654E5E433CB65A26D9F6EDB5EBC14EBF49A45CB856E66048291F6939A9A81BB5C89177
310
38143CA680F4AA299D66A042CEB3354A2684DC9D8D178FE0D9B8B41CAAD720F880EE7EF93C0C18769E099ECC04D5A102C8049A8A05632F4DDF376CF1DE0F6BB65C2F8627B65A33C6BB62177CEBBDAD973006829F89F22E814B54F4BC2BE347F8AA8F681390B50FA73F804400B5F542E796F19FF974E7F78DB802FE05E20750
310
4B0304140006080800CC70623BE75B7789680500003C100000340000006662782F41393633353835312D344632462D344230382D423046372D3739314545314133324237412F6F626A656374732E786D6CAD575B8F9B3818FD2B887D06C22499CB8AA1CA655245D5B455A356FB305264C061D8018C6C3393D95FBFC7600890
310
A4CD5EF210B0B1BFEBF98E3F7B1FF6596ABC522E1296DF9BAE3D320D9A872C4AF2F8DE2CE5CEBA358D0FBEC719939D65A691938CDE9B6ADAF4BD98B3B2D05311DD91329583D9D5FC0F438434A7A611A644887B5384CF34233629258BA878B12322891DEFF6B66BD70BFB62634E8AE781D082709A4B588AF91C528CDA28B73F
310
1C998EEF39EABBEFA97FBD6A7C7E9553F9D3D79FE442923C3C523610337627CB87ABE99D359D4CC6D6E4FACAB5E6ABF9D2726FC6A3C5F56271377BB88362213924694B38DD99FE47C48627A1E7D49F5A8BB5E1A74C0A599ED3B0F21F1E56366B89112D681E218F0915D0D6F17AD41FBA2A369DCF6335D62ABBD39779D5DDD1
310
11D4D8DE3CBB96B2E04FB8202E41051754A1AA8E8F76B4C6DFE810B580B1547F4B84911149794252234D024EF8BBE963A95AE27B3D310A9D5C215C7960FAEE415ED75694C6AFB17BCACA5D99A60A9AA65F217B0BFC53292ACB92BF283FAD0D3621576592CB5BED907C2FA8E9DF794E35E97BEA31BED21FEB401ABB94C44839
310
DCACBF0E1C5DA8DA5B2F4DFFD32AD86F543D9E565E7056502E157C00AD2671CD534549AB752FCA9CDA00677A313F04E51B22FF19E57B300579E3C97EB29F682D92935CEC18CF901B7B54FD8C51F362B56FC72FE0B3C1EAE335EDCCBF5AEC39ADB17DC238973F804BA5E6F6BFE7AF1FB32E523BE9F3BD571418E3631DCA4D48
310
5250CF639223210A9446CA30052EDF057BD35F8329C1ECD84552BF0DC8D18BE7BCE23BFE6BD960AB4A7DE79923A103BEBD80F911CBAA2C60DB19B01CF164A5583B772EE6D3FFA56666CBCDA74DC97724A48F9A58967497E489C4D979006FD7A05E227A1EBDD0F737C623387A9C844D3709995625106D157315F8B8392CD4E0
310
A0B9A720C4BE9829CEF37EA1E13111214D53925356365ADA634861B52519DD27A00AEB808EAF0628E6F435519D446F45CF2C9CF5214F0A15B2F6D06B79DA3EE3CBF7F56780D2F4E7EF73A0F5E5B02A38D07DC852C6B7C1FBB6664213E0C39E3EBA7FF4E1AD23EA2829407C85E586727488B751B2DB9502BC7B228A3FD68B6E
310
A65A22397E690AA8D158D7E404EC8CDA235CC3B7D1898680131CEC2CDF2638C65196279577750F15884AEE19F94199155B92B13297978469D4F8D358DF0AEF7631E28DC8F0D9F437D5D39A83B2231A1D52D543813A824EF8D44BCFF2FA6A31BD1E8DAD87F1CCB526B3879935BF59CDADD5C37479BB1CDD4CA7B3556B516589
310
EF352754B706114D9C885EC9131DE6EFEB43D99AFE2391C2F958179413D7CFEF6B1B6DB1E7600F00DE6E5C67454A339A4BA2E0FBA85ED26F045D454F463DBFCE484C2F90F2E5E3666003662ED8F755951A7D1BECD5B30B550B2785C8E7320B7292A4838DDA71BBC863ED7613CAF659337A3354231D4FF4A182A54904C2898C
310
98B28C4AD0CE056CCF332A80986E571EE9DBC305BB5FEB7E509220A58D25CF042D712A806AC0AD0C657FDEF80D2D9CEAA2EE4D1C76F60BFE74219A06527D6F82DF6412526107381E55E353090704D085B52408A8913C4ED159D79BDA71BB4BC506F4831350EB6F975CD22D69BF7AC49B91A2C0A9DDA3D5CA36AD20FC478E37
310
E61844E2352865EBCB61A275A65283CAAA9DD27703B4102F5AF51EF5F573B75CBB5AD38BC845F7A49F82A0966A49C2E3EA5EA0ECD326CD965F1DB402C6FA8B51A4658C5C5E2EC9E214602E55810345408596591009A82E7E7FFACA19EEA299B14A0081A705CB3296EBC14CDF658DCD336EA6D1136881AAEB87B81AB9EE53D5
310
F5EB8BC8362082DA24122F98680A4E7930C01A0079749CEA14382A0783E5EBA5A10F8C098456A03D6A4AEB6BB881E2513747552A5DB22C7EDAF83BD5528081A365F7FF06504B0304140006080000CC70623B000000000000000000000000350000006662782F41393633353835312D344632462D344230382D423046372D37
310
39314545314133324237412F76657274696365732E62696E504B0304140006080800CC70623BF270F1330600000004000000360000006662782F41393633353835312D344632462D344230382D423046372D3739314545314133324237412F747269616E676C65732E62696E636660600000504B0304140006080000CC7062
310
3B000000000000000000000000370000006662782F41393633353835312D344632462D344230382D423046372D3739314545314133324237412F617474726962757465732E62696E504B0304140006080800CC70623B08DA0BD19000000041010000360000006662782F41393633353835312D344632462D344230382D4230
310
46372D3739314545314133324237412F6469726563746F72792E786D6C858F410AC3201045AF22B36F53E9A60B35CBEEBAE80D244E44489C6234F4F835464A48035D0DF398FF9F8AF63D0E6CC63039F212F8F9020C7D47C6792B21C5FE7403D62A1188E2E60C98D7234A5830286103A55745067B9D86B8A3CF9C7F90C11DE6
310
07FB144396D7B6A82D282E9A152AD114D5EF2CB866EEE831B8EEA07A7BB5A8D7D61A2BAAEB7FD5F70921FF497D00504B0304140006080800CC70623BEDD1DC58FD000000A00100003B0000006662782F41393633353835312D344632462D344230382D423046372D3739314545314133324237412F7265736F75726365732F
310
636F72652E786D6C8D504B6E833010BD0A9A6D65B00922041947112427E8052C33A156828DFCA97AFC9A40A576D7CDCCE87D344F8F9FBFE667F689CE6B6B3A6039850C8DB2A336530731DC4903D95970676DF82583CCC8193B5861107C72362E3BA4AC096842428D1D7107A5F7182053CF7474E0D507CE32973124857FE48B
310
540F3961CEF244279DE03EB81420DB9EAC1384436FA353E879B1B182C7A8C75DA3C7F453DF353A1075D537A7BA6464B8F535A99AE14A9A2BBD90E350DD183B5CFABE3AF262350B1EF4FC9351399401471025A527C218A1E53BAB5A5AB765F5469B96525EACF23FA6B88CFF34456DC2A1DCE36E360F82A5202F42F062ED2BAD
310
579969AFDD8A6F504B010214000A0000080000CC70623B3DEE336E79000000790000001B00000000000000000000000000000000006175746F6465736B2D64657369676E2D7061636B6167652E786D6C504B01021400140006080800CC70623BD486FD9CA0000000F40000001300000000000000000000000000B20000005B
310
436F6E74656E745F54797065735D2E786D6C504B01021400140006080800CC70623B853B8169EB0000007C010000080000000000000000000000000083010000636F72652E786D6C504B01021400140006080800CC70623B55019EA25F0000007C000000070000000000000000000000000094020000636E782E786D6C504B
310
01021400140006080800CC70623BDBABAAF470010000D40300000C00000000000000000000000000180300006662782F636F72652E786D6C504B01021400140006080800CC70623B9C113CC27E0000009D0000000B00000000000000000000000000B20400006662782F636E782E786D6C504B01021400140006080800CC70
310
623B7DF2F77C2A010000120200003100000000000000000000000000590500006662782F41393633353835312D344632462D344230382D423046372D3739314545314133324237412F636F72652E786D6C504B01021400140006080800CC70623BAD7543B64E010000330300003000000000000000000000000000D2060000
310
6662782F41393633353835312D344632462D344230382D423046372D3739314545314133324237412F636E782E786D6C504B01021400140006080800CC70623BE75B7789680500003C10000034000000000000000000000000006E0800006662782F41393633353835312D344632462D344230382D423046372D3739314545
310
314133324237412F6F626A656374732E786D6C504B01021400140006080000CC70623B0000000000000000000000003500000000000000000000000000280E00006662782F41393633353835312D344632462D344230382D423046372D3739314545314133324237412F76657274696365732E62696E504B01021400140006
310
080800CC70623BF270F133060000000400000036000000000000000000000000007B0E00006662782F41393633353835312D344632462D344230382D423046372D3739314545314133324237412F747269616E676C65732E62696E504B01021400140006080000CC70623B0000000000000000000000003700000000000000
310
000000000000D50E00006662782F41393633353835312D344632462D344230382D423046372D3739314545314133324237412F617474726962757465732E62696E504B01021400140006080800CC70623B08DA0BD1900000004101000036000000000000000000000000002A0F00006662782F41393633353835312D344632
310
462D344230382D423046372D3739314545314133324237412F6469726563746F72792E786D6C504B01021400140006080800CC70623BEDD1DC58FD000000A00100003B000000000000000000000000000E1000006662782F41393633353835312D344632462D344230382D423046372D3739314545314133324237412F7265
310
736F75726365732F636F72652E786D6C504B0506000000000E000E0080040000641100000000
  0
XRECORD
  5
7C0D
102
{ACAD_REACTORS
330
1F7
102
}
330
1F7
100
AcDbXrecord
280
     1
102
MATERIAL
148
0.0
149
0.0
149
0.0
 93
        0
 94
       63
282
     0
 72
     1
 77
     1
171
     1
175
     1
179
     1
273
     0
  0
XRECORD
  5
1F8
102
{ACAD_REACTORS
330
1F7
102
}
330
1F7
100
AcDbXrecord
280
     1
 70
     1
 90
429727718
  1
30362254-06B7-45E0-A893-8CFA70E3D6BC
310
504B03040A0000080000CC70623B3DEE336E79000000790000001B0000006175746F6465736B2D64657369676E2D7061636B6167652E786D6C3C3F786D6C2076657273696F6E3D22312E302220656E636F64696E673D227574662D3822203F3E3C666F726D6174733E3C666F726D61743E687474703A2F2F736368656D612E
310
6175746F6465736B2E636F6D2F64657369676E2D7061636B6167652F323030393C2F666F726D61743E3C2F666F726D6174733E504B0304140006080800CC70623BD486FD9CA0000000F4000000130000005B436F6E74656E745F54797065735D2E786D6C7D8EC10E82300C865F65E91D8A1E8C310C0EEA1BF002731658846E
310
D98AC1B77784ABF1D8FE5FBFBF75BBCE937A534CCEB38643598122B6FEE978D0B0485F9C41B54DDD7D022595594E1A469170414C76A4D9A4D207E29CF43ECE46F218070CC6BECC4078ACAA135ACF422C856C0E68EA1BF5669944DDD7BCDE7B1F8E415D77AECB980613C2E4AC91FC167A2B244592486606FC29C8FD7F045B9A
310
EF7053A7E60B504B0304140006080800CC70623B1EC5D7A3EB0000007C01000008000000636F72652E786D6C8D90416EC3201045AF82665B6103C6756C6122AB4D4ED00B204C5C94182C03558F5F9C3852BBEB6A467FFE9B197D71FC9E6FE8CBACC17AD7032D0820E3B41FAD9B7A48F1820F808E52ACDEC75F36404ECDA687
310
4D0629A6D5A76597B477D1B89855E747B38B2A041301E95B6E7A08FAD3CCAA50296647B8168BD2573599823EBB0CA76447F43862C7BCCF5EAC59410E4DDD9C7973C2755553CCCFA4C603E3040F1565ED3B1FDE4E432BCA0D9622DAF9795FAF464533826484B498524CD807E51D79ED187F21878E10516EF63F505AC67F42C9
310
BA58B1FDDD071640D2FCC87D2045B96591CB3DA85CB7DCE40F504B0304140006080800CC70623B55019EA25F0000007C00000007000000636E782E786D6C4DCB3B0E80201045D1AD90E915ED2CF8AC45050C11660C8261F98AB1B07AC9C97D42D718D865D3E909258CFD00CCE24AC6E326A164D74DC0B4128928FF32603847
310
2BA13128B1252AC747C6BAB984FC68F0B87FE8960A5C09FE86CFB69FBA01504B0304140006080800CC70623B8C9102E971010000D40300000C0000006662782F636F72652E786D6CC5535B6E833010BC8AE5DF0A6C08340F1947A84D4ED00B38C6A128602363A31CBFCB234A53A551FA553EC09AD9F5CE8C31DB9E9B1AF5CA
310
7695D1198E428A91D2D214952E33ECDD315861B4E5CC1AE3BE9561A445A3323CC098B3D21ADFCE9034DA29ED00D5A6503328BA4E398C640D8B0C77F253352214DE4145770A5B214FA2546114020D759C75CE8200340D19DE981F0F6746269C33EFAB6266AB02A655C74A59CCF365BADC27CB5D902ED22848F6340DF238A141
310
BE88E2F57B92BFEDF23523433367AE6A2EEAA455C2A902F398D2751045018D3FA264435F3771F242571B4A1919CA6F9A7C5B3CD9E42BED16F12C776AEB308F40C848FC700B1139D4891EF410CEC810227CC6846F8386402064270EF5C5C709A05E49676C024C61FC95EA45ED154CA5211D1FF4FB8291A913A68E9B83EBBB33
310
E2A7673CDE118E5AE8124C0807CB8377834E366998436B950D7A7746DAD846D4CFD978E0F04FD455FC5D49D2D4C6FE9722321F10997F0F32DC47FE05504B0304140006080800CC70623BFFEA85907E0000009D0000000B0000006662782F636E782E786D6C4DCCD10A83201886E15B91FFDC95D95A811AB6F23E625948A6C3
310
E9D8E5AF46073BFAE0E1E365ED67B3E8ADC3CB78C7815C7240DA3DFC64DCC221C519D7805AC182F7F1EF06C88D9BE6703008B6049F9E274D7A1E938DBB5AE3D6131B2589BA0D3D965551E0B2EA732C9B9A624AAEB41E3A557677029960D9AFB4EF11165F504B0304140006080800CC70623B4FEEA4082C0100001202000031
310
0000006662782F39464131463745442D413632322D343644302D413938332D3331353338454246344243312F636F72652E786D6C8D515B6EC32010BC0AE2AB55850DD871ED0813254D72825EC00192A2C460F1A872FC42ED48ED5F7E00CDCECCCEB26C731F6FE05B39AFADE921293004CA082BB5B9F43086336A21D870E6AC
310
0D7F68109861543DCC30E4ECE26C9C164858139409093556AA051CBC570102714B8F1E7AF1A5C6A11862480C7F2DA6415C878B2A4891CA89C7990F2E050073937C42DE1DB7E4F87ED8A36D4329AA9B3D46DBAEAD504556557BD81DEBDD0761E52CE42C462D17B996298E3E6BE59E35C962CE821E1FF18553435012728A7187
310
0841987E927A8D9B35ADDF70BBC6989599FE4F1427F9A4286A132ABAC49D651EF234CD5CE04CDA78BA3DC2A8FB645D00B9DF8B57E215725C60BCA2A463E54C4CE327C7A65E1C7DB02E7DEFCBF594B864C5CA6CDBD49C957943E9FA5D5FBAF336F90F504B0304140006080800CC70623BAD7543B64E01000033030000300000
310
006662782F39464131463745442D413632322D343644302D413938332D3331353338454246344243312F636E782E786D6CD593CD6EC32010845F0571AD6CE3D48AD20813A9873E410FBD12D82434182C7EAAE6EDBB2424CD25871E7B41D6EC30B3FA84F9E67BB2E40B4234DE8DB46F1925E094D7C6ED479AD3AE5951B2113C
310
789FEE6C943839C1488B4C05DF079FE72A69D8C96C13AAD6B8631503449F83828872B949AC57D26200B826A308D316B4064D6E46FCDA41C05550DC9E483A00797BFD207EFB092A45DE9514C1BBD22178396BD39D891265658C238DEA00936C654E5E433CB65A26D9F6EDB5EBC14EBF49A45CB856E66048291F6939A9A81BB5
310
C8917738143CA680F4AA299D66A042CEB3354A2684DC9D8D178FE0D9B8B41CAAD720F880EE7EF93C0C18769E099ECC04D5A102C8049A8A05632F4DDF376CF1DE0F6BB65C2F8627B65A33C6BB62177CEBBDAD973006829F89F22E814B54F4BC2BE347F8AA8F681390B50FA73F804400B5F542E796F19FF974E7F78DB802FE05
310
E207504B0304140006080800CC70623B16AB87BA640500003C100000340000006662782F39464131463745442D413632322D343644302D413938332D3331353338454246344243312F6F626A656374732E786D6CAD575B6FA33818FD2B887DE6924B3BED8A326A92B68A663B534DD4D13E548A0C38942D60649B369D5FBFC7
310
600890A493BDE42160637FD7F31D7FF63E6FB3D478A55C242CBF3247B66B1A340F5994E4F19559CA8D75611A9F7D8F33263BCB4C232719BD32D5B4E97B316765A1A722BA21652A07B3B7B33F0D11D29C9A46981221AE4C113ED38CD8A4942CA2E2C58E882476BCD9DA23BB5ED8171B73523C0F841684D35CC252CCE79062D4
310
468DFA43D7747CCF51DF7D4FFDEB5593E3AB9CCA9FBEFE241792E4E19EB28198C968BAB8199F5D5A67D3E9C49A9E8F47D6EC76B6B0469F26EEFC7C3EBFBCBEB98462213924694B38DD98FE1D62C393D073EA4FADC5DAF04326852CCF6958F90F0F2B9BB5C48816348F90C7840A68EB78EDF68723159BCEE7891A6B95DDE9D3
310
BCEAEEE8086A6C6F9E5D4B59F0175C10A7A0820BAA5055C7473B5AE3CFDD452D602CD5DF12616444529E90D448938013FE6EFA58AA96F85E4F8C42275708571E98FE6827AF6B2B4AE3D7D83D64E5A64C53054DD3AF90BD06FEA9149565C94FCA0F6B834DC85599E4F2423B24DF0B6AFA979E534DFA9E7A4CC6FA631D486393
310
921829879BF5D781A373557BCB85E97FB90DB62B558F8795179C15944B051F40AB495CF35451D26A4727654E6D8033BD98EF82F21D91FF8AF2DD9982BCF1643BDD4EB516C9492E368C67C88DED563FC36D5EACF66DFF057C3658BDBFA69DF9578B3DA735B64F18C7F20770A9D45CFCF7FCF563D6456A277DBEF78A02637CA2
310
43B90A490AEAB94F72244481D24819A6C0E59B606BFA4B3025981DBB48EAB701D97BF19C577CC77F2D1B6C55A9EF3C732474C0B727303F625995056C3B02963D9EAC146BE78EC5FCEC7FA999EBC5EACBAAE41B12D27B4D2C0BBA49F244E2ECDC81B76B502F113D8F5EE8FB1BE3111CDD4FC2AA9B844CAB1288B68AB90A7CDC
310
1C166AB0D3DC5310625FCC14E779BFD0709F8890A629C9292B1B2DED31A4B0DA928CEE135085754027E3018A397D4D5427D15BD1330B677DC8934285AC3DF45A9EB68FF8F2B8FC0A509AFEECFD0FF2DE25CC6047F7214B195F07EFEB9A094D800F7BFAE8FED187B78EA8A3A400F115961BCAD1215E47C966530AF0EE8128FE
310
58CEBB996A8964FFA529A046635D9353B0336A8F700DDF46271A024E70B0B37C9DE01847591E54DED53D54202AB947E4076556AC49C6CA5C9E1226B7F1A7B1BE15DEED62C41B91E1B3E9AFAAA735036547343A925075041DF0A9979E893B391F8FCFA6967B3EFB644DCF6E5CEBFAE272625DCC6FAF3FB93793C5F90CE1EF57
310
407342756B10D1C489E8953CD1617E5CEECAD6F4EF8914CE5D5D504E5C3F1F9736DA62CFC11E00BCDDB8CC8A9466349744C1F75EBDA4DF09BA8A9E8C7A7E9991989E20E5DBDD6A6003664ED8F7A04A8DBE0DF6EAD9B9AA858342E47399053949D2C146EDB85DE4B176BB0965FBAC19BD19AA918E27FA50C1D22402E144464C
310
59462568E704B6E71915404CB72B8FF4EDE184DDAF753F284990D2C6926782963815403548A70C657FDEF80D2D9CEAA2AE4C1C76F60BFE74219A06527D6582DF6412526107381E55E353090704D085B52408D0933C4ED159D79BDA71BB4BC506F4831350EB6F979CD22D69BF7AC49B91A2C0A9DDA3D5CA36AD20FC478E37E6
310
1844E2352865EBCB6EA275A652E3836BE04EFB400BF1A2556F515F1FBB35B2AB35BD889C744FFA1004B5544B121E57F70215746DD2F5E2C1412B602CBF19455AC6C8E5E9922C4E01E65215385004546899059180EAFCF7A707CE7017CD8CDB0410789AB32C63B91E5CEBBBACB17AC6CD347A022D5075FD106377347AAABA7E
310
7D11590744509B44E205134DC1290F06580320F78E537D3D73540E06CB970B431F185308AD40BBD794D6D77003C5A36E8EAA54BA64597CD8F83BD552A080A365F7FF06504B0304140006080000CC70623B000000000000000000000000350000006662782F39464131463745442D413632322D343644302D413938332D3331
310
353338454246344243312F76657274696365732E62696E504B0304140006080800CC70623BF270F1330600000004000000360000006662782F39464131463745442D413632322D343644302D413938332D3331353338454246344243312F747269616E676C65732E62696E636660600000504B0304140006080000CC70623B
310
000000000000000000000000370000006662782F39464131463745442D413632322D343644302D413938332D3331353338454246344243312F617474726962757465732E62696E504B0304140006080800CC70623B08DA0BD19000000041010000360000006662782F39464131463745442D413632322D343644302D413938
310
332D3331353338454246344243312F6469726563746F72792E786D6C858F410AC3201045AF22B36F53E9A60B35CBEEBAE80D244E44489C6234F4F835464A48035D0DF398FF9F8AF63D0E6CC63039F212F8F9020C7D47C6792B21C5FE7403D62A1188E2E60C98D7234A5830286103A55745067B9D86B8A3CF9C7F90C11DE607
310
FB144396D7B6A82D282E9A152AD114D5EF2CB866EEE831B8EEA07A7BB5A8D7D61A2BAAEB7FD5F70921FF497D00504B0304140006080800CC70623B0D6EF93BFE000000A00100003B0000006662782F39464131463745442D413632322D343644302D413938332D3331353338454246344243312F7265736F75726365732F63
310
6F72652E786D6C8D50596E833010BD0A9ADFCA60B334011947A8694ED00B586642AC041B79A97AFC9A40A5F6AF3F33A3B7689E1E3F7DCD8FEC139DD7D6F4C0720A191A65476DA61E62B892236427C19DB5E1970C322367EC618541F0C9D9B8EC90B226A009093576C41D94DE63804C3DD2D18357379C652E63480A7FCF17A9
310
EE72C29CE5894E3AC17D702940B63D59270887DE46A7D0F36263058F518FBB468FE9A7BE6A7420864373B8D4873369AA8691FA421B3294352543C5CAF65C0F6FEF43CB8BD52C78D0F34F46E550061C419494B6843142CB0F5677F4B52BEB177AEC28E5C52AFF638ACBF84F53D42654E51E77B379102C05791282176B5F693D
310
CB4C7BED567C03504B010214000A0000080000CC70623B3DEE336E79000000790000001B00000000000000000000000000000000006175746F6465736B2D64657369676E2D7061636B6167652E786D6C504B01021400140006080800CC70623BD486FD9CA0000000F40000001300000000000000000000000000B20000005B
310
436F6E74656E745F54797065735D2E786D6C504B01021400140006080800CC70623B1EC5D7A3EB0000007C010000080000000000000000000000000083010000636F72652E786D6C504B01021400140006080800CC70623B55019EA25F0000007C000000070000000000000000000000000094020000636E782E786D6C504B
310
01021400140006080800CC70623B8C9102E971010000D40300000C00000000000000000000000000180300006662782F636F72652E786D6C504B01021400140006080800CC70623BFFEA85907E0000009D0000000B00000000000000000000000000B30400006662782F636E782E786D6C504B01021400140006080800CC70
310
623B4FEEA4082C0100001202000031000000000000000000000000005A0500006662782F39464131463745442D413632322D343644302D413938332D3331353338454246344243312F636F72652E786D6C504B01021400140006080800CC70623BAD7543B64E010000330300003000000000000000000000000000D5060000
310
6662782F39464131463745442D413632322D343644302D413938332D3331353338454246344243312F636E782E786D6C504B01021400140006080800CC70623B16AB87BA640500003C1000003400000000000000000000000000710800006662782F39464131463745442D413632322D343644302D413938332D3331353338
310
454246344243312F6F626A656374732E786D6C504B01021400140006080000CC70623B0000000000000000000000003500000000000000000000000000270E00006662782F39464131463745442D413632322D343644302D413938332D3331353338454246344243312F76657274696365732E62696E504B01021400140006
310
080800CC70623BF270F133060000000400000036000000000000000000000000007A0E00006662782F39464131463745442D413632322D343644302D413938332D3331353338454246344243312F747269616E676C65732E62696E504B01021400140006080000CC70623B0000000000000000000000003700000000000000
310
000000000000D40E00006662782F39464131463745442D413632322D343644302D413938332D3331353338454246344243312F617474726962757465732E62696E504B01021400140006080800CC70623B08DA0BD190000000410100003600000000000000000000000000290F00006662782F39464131463745442D413632
310
322D343644302D413938332D3331353338454246344243312F6469726563746F72792E786D6C504B01021400140006080800CC70623B0D6EF93BFE000000A00100003B000000000000000000000000000D1000006662782F39464131463745442D413632322D343644302D413938332D3331353338454246344243312F7265
310
736F75726365732F636F72652E786D6C504B0506000000000E000E0080040000641100000000
  0
XRECORD
  5
7C0F
102
{ACAD_REACTORS
330
173
102
}
330
173
100
AcDbXrecord
280
     1
102
MATERIAL
148
0.0
149
0.0
149
0.0
 93
        0
 94
       63
282
     0
 72
     1
 77
     1
171
     1
175
     1
179
     1
273
     0
  0
XRECORD
  5
175
102
{ACAD_REACTORS
330
173
102
}
330
173
100
AcDbXrecord
280
     1
270
     1
271
     1
  0
XRECORD
  5
174
102
{ACAD_REACTORS
330
173
102
}
330
173
100
AcDbXrecord
280
     1
270
     1
271
     1
  0
XRECORD
  5
1FB
102
{ACAD_REACTORS
330
173
102
}
330
173
100
AcDbXrecord
280
     1
 70
     0
 90
1673772943
  1
ECE7A1D2-D628-4531-984C-D00F80459256
310
504B03040A0000080000CC70623B3DEE336E79000000790000001B0000006175746F6465736B2D64657369676E2D7061636B6167652E786D6C3C3F786D6C2076657273696F6E3D22312E302220656E636F64696E673D227574662D3822203F3E3C666F726D6174733E3C666F726D61743E687474703A2F2F736368656D612E
310
6175746F6465736B2E636F6D2F64657369676E2D7061636B6167652F323030393C2F666F726D61743E3C2F666F726D6174733E504B0304140006080800CC70623BD486FD9CA0000000F4000000130000005B436F6E74656E745F54797065735D2E786D6C7D8EC10E82300C865F65E91D8A1E8C310C0EEA1BF002731658846E
310
D98AC1B77784ABF1D8FE5FBFBF75BBCE937A534CCEB38643598122B6FEE978D0B0485F9C41B54DDD7D022595594E1A469170414C76A4D9A4D207E29CF43ECE46F218070CC6BECC4078ACAA135ACF422C856C0E68EA1BF5669944DDD7BCDE7B1F8E415D77AECB980613C2E4AC91FC167A2B244592486606FC29C8FD7F045B9A
310
EF7053A7E60B504B0304140006080800CC70623BD9DDAED0EC0000007C01000008000000636F72652E786D6C8D90416EC3201045AF82665B61836D9CD8C2444DD39CA01740405C94182C03558F5F9C3852BBEB6A467FFE9B197D7EF89E6EE8CB2CC17A37002D0820E394D7D68D03A478C17B4007C117EFE32F1B20272733C0
310
2A83E0E3E2D3BC49CABB685CCCAAF3DA6CA20CC14440EA969B0182FA34932C648AD911AEC52CD5558EA6A0CF2EC329598D1E47ACCEFBECC59A050463A7EA5833865FEBDD0E37353BE3EE8DBDE3F6786A48D375FBF6CC78B9C282473B3DEFABC5C86834888A900E538A49F5419B9EB47DD5BC907D4F082F57FB1F28CDFA9F50
310
B22ED6D5F6EE030B20687EE43E10BC5CB3C8E51E54AE6B6EE207504B0304140006080800CC70623B55019EA25F0000007C00000007000000636E782E786D6C4DCB3B0E80201045D1AD90E915ED2CF8AC45050C11660C8261F98AB1B07AC9C97D42D718D865D3E909258CFD00CCE24AC6E326A164D74DC0B4128928FF326038
310
472BA13128B1252AC747C6BAB984FC68F0B87FE8960A5C09FE86CFB69FBA01504B0304140006080800CC70623BA24EB22D72010000D40300000C0000006662782F636F72652E786D6CC5535B6E833010BC8AE5DF0A6C5E49888CA3A6694ED00B38E05014B091B1518EDFE511A5A9D228FD2A1F60CDEC7A67C6986DCE4D8D7A
310
69BA4AAB0C073EC548AA5C17952A33ECECD15B61B4E1CC686DBF9561A44423333CC098B3D268D7CE50AE9595CA02AA74216750749DB418E5352C32DCE59FB211BE70162ABA93DF8AFC244AE9073ED050C759670D0840D390E18DF9F1706664C23973AE2A66B62A605A75ACA4C13C4976E1364A12EF355A2EBD384AF65EFA96
310
BC7B8BED2EA6719AAE16FB8491A199335B351775B991C2CA02F390D2D40B028F861F41BCA68B7518BFD0D59A524686F29B26D7164F36B94AD9289CE54E6D1DE6010819891F6E21228B3AD1831EC219194284CF98F06DD01008846CC5A1BEF83801D4CBDC6A1303536877A57A513B0953A94FC707FDBE6064EA84A9E3E6E0FA
310
EE8CF0E9198F7784A316AA0413C2C2F2E0ECA0934D1AE6D05A69BCDE9E91D2A611F573361E38FC1375157F5752AE6B6DFE4B11990F88CCBF0719EE23FF02504B0304140006080800CC70623B408A7D3B7C0000009D0000000B0000006662782F636E782E786D6C4DCCD10A83201886E15B91FFDC552A92A0064DBC8F581632
310
D3703A76F9ABD1C18E3E78F878E5F0D9027ABBFCF2292AE86E2D20171F69F6715550CB827B40839639A5F2770314A7CD293819B45C73AAFB45B35BA61ACAA1C1C7E7855C58C15BC331339661262CC762340413D68D77DA5B42298546CBE6573AF60CEB2F504B0304140006080800CC70623B449FB9BD290100001202000031
310
0000006662782F36394639363044362D344446342D343946362D394244322D3234314243333846323333332F636F72652E786D6C8D515B6EC32010BC0AE22B55850D98B871848994463E412FE002495162B07854397EA176A4F62F3F2C9A9D991D587EB84F37F0AD7D30CEF6905418026DA553C65E7A98E219ED203808EE9D
310
8B7F6810D871D23D2C3014FCE25D9A57483A1BB58D19B54EE9151C43D0110279CB971E06F9A5A7B11A53CC8C70ADE6515EC78BAE4895DB992778883E0700CB907242D17643D7E2538BD869608875438BBAE38922CAC8F1BDD90DB4691A5E2F42C153326A951B95E398B3D1FE599322163C9AE9115F7A3D46ADA0A018778810
310
84E907617BDCEE297BC5BB3DC6BC2EF47FA234AB2745C9D8D8D035EE220B50105E2F0DC1954B9FB747187D9F9D8FA0CCDB042D5FA0C015C65B42DF78BD10F3F3B363CB56C7109DCFDFBBB97E662ED92EB62D13BC2E1BCAE5777DB9966D8A1F504B0304140006080800CC70623BAD7543B64E01000033030000300000006662
310
782F36394639363044362D344446342D343946362D394244322D3234314243333846323333332F636E782E786D6CD593CD6EC32010845F0571AD6CE3D48AD20813A9873E410FBD12D82434182C7EAAE6EDBB2424CD25871E7B41D6EC30B3FA84F9E67BB2E40B4234DE8DB46F1925E094D7C6ED479AD3AE5951B2113C789FEE
310
6C943839C1488B4C05DF079FE72A69D8C96C13AAD6B8631503449F83828872B949AC57D26200B826A308D316B4064D6E46FCDA41C05550DC9E483A00797BFD207EFB092A45DE9514C1BBD22178396BD39D891265658C238DEA00936C654E5E433CB65A26D9F6EDB5EBC14EBF49A45CB856E66048291F6939A9A81BB5C89177
310
38143CA680F4AA299D66A042CEB3354A2684DC9D8D178FE0D9B8B41CAAD720F880EE7EF93C0C18769E099ECC04D5A102C8049A8A05632F4DDF376CF1DE0F6BB65C2F8627B65A33C6BB62177CEBBDAD973006829F89F22E814B54F4BC2BE347F8AA8F681390B50FA73F804400B5F542E796F19FF974E7F78DB802FE05E20750
310
4B0304140006080800CC70623B8D05915C650500003B100000340000006662782F36394639363044362D344446342D343946362D394244322D3234314243333846323333332F6F626A656374732E786D6CAD575B6FA33814FE2B887D06429276DA1565D4266D158D3A339A6846FB502932E050B66023DB74D2FDF5FB190C01
310
9276B2973C046C8ECFF53B17071F77456EBD502133CEAE6CDF9DD81665314F32965ED995DA3A17B6F5310C04E7AA47665B8C14F4CAD6DB7618A48257A5D94AE89654B91AEDDEDDFC61C998326A5B714EA4BCB265FC440BE2924AF184CA6737218AB8E976E7FA6E4338649B0A523E8D98964450A6A029F619B8588D52FE7039
310
B1BD30F0F4F730D0FF866AF6369557DB33949F31A9088B0F848DD8CCFCF9F2767A76E99CCDE733677E3EF59D9BBB9BA5E37F984D16E78BC5E5F5ED25044B25C0C96822E8D60EEFE11B91C581D77CEA34368A1F5329E68CD1B8B61F16D63A1B8E092D294B10C78C4A48EB593D192E7DED9BDEE7995E1B91FDEDD3ACEA9FE831
310
6A756F9F7D4D79F4274C90A7A04248AA51D5F8C718DAE06FB2F75AC4796EBE65D22A88A22223B995679120E2D50E41AA49C260C046A35368846B0BECD0DFF3EBEB8AD4F835768F69B9ADF25C43D30E6B646F807FAA64AD59F61715C7A54127C4AACA98BA3006A9D792DAE165E0D59B61A01FB3A9F9D838D2DAE62445C86166
310
F37564E842E7DE6A69879FEEA2DD5AE7E371E1A5E025154AC307D06A03D73EB5978C58FFA4C8E9033066E0F3BD53BEC1F39F91BE7B55103791EDE6BBB991A2046172CB4581D8B893FA674DDA17A77B3B7C413D1B511FD2743BFF8A38F03A658705E3ADF8015C3A3417FF3D7E439FF591DA0B5F18BC20C1B8981957AE6392A3
310
F43C640C01D1A0B4728E2DD4F26DB4B3C3152A252A3B4E913CEC1C72F012782FF88EFF8637AA552DBEF76408E8A8DE9E50F9E1CB3A2DA0DB1B6039A893B56063DC5B3E3FFB5F72E67AB9FEB4AEC496C4F4C1149625DD662C53E89D7BF0F6151A046260D1337DFDC94502430F83B0EE07A130A224BCAD7DAE1D9FB6CD422FF6
310
920702629C4BB9AE79C12F243C6432A6794E18E5552BA56B431AAB5D91317302B2B071E86C3A42B1A02F999E24061403B5D0EB639195DA655DD3EBEAB4FB862DDF579F014AD0E73C22F99E28DA57FB98E75C6CA2D74D53086D600F4786E0FE3144B771A8A7B900F03594DB8A633CBC49B2EDB69228BB479CF863B5E807AAAB
310
23872F6DFEB4129B949CA33823F58830E86D65621E10047D9DB34D862E8EAC3C2ABC2F7B2C40D67CDFE01F5545B92105AF983AC54D93D69E56FB8E797F88913F898A9FEC705D3F9D1B54EC8426FB500D40A03BD0119B06E1B95DDC7EB8F6975367793EBD70E66733DFB9BC982F9CE564727731999F5D4ECFCE3B8D6A4DC2A0
310
6D50FD148437D110834A64C6CDDF57FBACB5C307A2A477DFE4939736CFEF2B175371E0E10CF0DD1D5C15654E0BCA14D1E87DD02FF93782A162C0A3D95F1524A52770F972BF1EE9809D13CE7DD599467F8ECE9ADD85CE85A34CD45355448C64F9E8A031DC2D596ACC6E5DD93D9B82DE2EF5CAF81363A8E47996A0DE24564A79
310
4115AACE09C55E14540231FDA13C319787134EBF34E3A022514E5B4D9E0826E25C02D5805B15ABE1BEF51B26383D445DD9E875EE33FE4C22DA16427D65A3BCA92CA6D28DD01DF5DC53330704308475351050232CCD31583787BA75774AFB06E5070DD0C8EF484E19968C5D83BA5B90B244D31E54D55A372320FE4786B7EA58
310
44E135AA5467CB7EA333A61683CC6A8C3257034C10CF46F40EF9F5BE59BE5BD30C3C72D235E95D10345C1D45445A5F0BB47E46A5EBE5570F9380B5FA629579952296A773720405982B9DE04011506178964401AA8BDF1FBF0A8EAB6861DD6580C0E38217056766716DAEB2D6FA0917D3E4116581EADB879C4E7CFFB11EFACD
310
3D641311495D92C8676CB409A72D18610D803CE8A626049E8EC1887CB5B44CC39883690DDA8399B4B9855B481E7D71D4A9D22F96E5BB73BF5793020C02137BF837504B0304140006080000CC70623B000000000000000000000000350000006662782F36394639363044362D344446342D343946362D394244322D32343142
310
43333846323333332F76657274696365732E62696E504B0304140006080800CC70623BF270F1330600000004000000360000006662782F36394639363044362D344446342D343946362D394244322D3234314243333846323333332F747269616E676C65732E62696E636660600000504B0304140006080000CC70623B0000
310
00000000000000000000370000006662782F36394639363044362D344446342D343946362D394244322D3234314243333846323333332F617474726962757465732E62696E504B0304140006080800CC70623B08DA0BD19000000041010000360000006662782F36394639363044362D344446342D343946362D394244322D
310
3234314243333846323333332F6469726563746F72792E786D6C858F410AC3201045AF22B36F53E9A60B35CBEEBAE80D244E44489C6234F4F835464A48035D0DF398FF9F8AF63D0E6CC63039F212F8F9020C7D47C6792B21C5FE7403D62A1188E2E60C98D7234A5830286103A55745067B9D86B8A3CF9C7F90C11DE607FB14
310
4396D7B6A82D282E9A152AD114D5EF2CB866EEE831B8EEA07A7BB5A8D7D61A2BAAEB7FD5F70921FF497D00504B0304140006080800CC70623BCA768048FE000000A00100003B0000006662782F36394639363044362D344446342D343946362D394244322D3234314243333846323333332F7265736F75726365732F636F72
310
652E786D6C8D50596E833010BD0A9ADFCA60D600328E9AA639412F609909B1126CE4A5EAF16B0295DABFFECC8CDEA2797AECF8353F924FB44E193D409E5248504B332A3D0D10FC95B4901C39B3C6F85F3248B49871801506CE266BC2B243D2688FDA47549B11775038871E12F988C7004EDE7016A9083E2ADC3D5D84BC8B09
310
D33C8D74D471E6BC8D0192EDC93A815B742658898E651BCB59086ADC356A8C3FD555A1055ED7E7E254D615792D0F075295F585746FF53B694EE78A565DD736979A65AB9933AFE69F8CD2A2F038022F28ED489E135A7CE4554F9BBEA85E68DB53CAB255FEC71496F19FA6A0B42F8B3DEE6673C0F318E4497096AD7DC5F52C33
310
EEB55BFE0D504B010214000A0000080000CC70623B3DEE336E79000000790000001B00000000000000000000000000000000006175746F6465736B2D64657369676E2D7061636B6167652E786D6C504B01021400140006080800CC70623BD486FD9CA0000000F40000001300000000000000000000000000B20000005B436F
310
6E74656E745F54797065735D2E786D6C504B01021400140006080800CC70623BD9DDAED0EC0000007C010000080000000000000000000000000083010000636F72652E786D6C504B01021400140006080800CC70623B55019EA25F0000007C000000070000000000000000000000000095020000636E782E786D6C504B0102
310
1400140006080800CC70623BA24EB22D72010000D40300000C00000000000000000000000000190300006662782F636F72652E786D6C504B01021400140006080800CC70623B408A7D3B7C0000009D0000000B00000000000000000000000000B50400006662782F636E782E786D6C504B01021400140006080800CC70623B
310
449FB9BD290100001202000031000000000000000000000000005A0500006662782F36394639363044362D344446342D343946362D394244322D3234314243333846323333332F636F72652E786D6C504B01021400140006080800CC70623BAD7543B64E010000330300003000000000000000000000000000D20600006662
310
782F36394639363044362D344446342D343946362D394244322D3234314243333846323333332F636E782E786D6C504B01021400140006080800CC70623B8D05915C650500003B10000034000000000000000000000000006E0800006662782F36394639363044362D344446342D343946362D394244322D32343142433338
310
46323333332F6F626A656374732E786D6C504B01021400140006080000CC70623B0000000000000000000000003500000000000000000000000000250E00006662782F36394639363044362D344446342D343946362D394244322D3234314243333846323333332F76657274696365732E62696E504B010214001400060808
310
00CC70623BF270F13306000000040000003600000000000000000000000000780E00006662782F36394639363044362D344446342D343946362D394244322D3234314243333846323333332F747269616E676C65732E62696E504B01021400140006080000CC70623B00000000000000000000000037000000000000000000
310
00000000D20E00006662782F36394639363044362D344446342D343946362D394244322D3234314243333846323333332F617474726962757465732E62696E504B01021400140006080800CC70623B08DA0BD190000000410100003600000000000000000000000000270F00006662782F36394639363044362D344446342D
310
343946362D394244322D3234314243333846323333332F6469726563746F72792E786D6C504B01021400140006080800CC70623BCA768048FE000000A00100003B000000000000000000000000000B1000006662782F36394639363044362D344446342D343946362D394244322D3234314243333846323333332F7265736F
310
75726365732F636F72652E786D6C504B0506000000000E000E0080040000621100000000
  0
XRECORD
  5
176
102
{ACAD_REACTORS
330
173
102
}
330
173
100
AcDbXrecord
280
     1
270
     1
271
     1
  0
XRECORD
  5
177
102
{ACAD_REACTORS
330
173
102
}
330
173
100
AcDbXrecord
280
     1
270
     1
271
     1
  0
XRECORD
  5
7C31
102
{ACAD_REACTORS
330
7C30
102
}
330
7C30
100
AcDbXrecord
280
     1
102
ACAD_ROUNDTRIP_2012_MLEADER_STYLE
298
     1
  0
XRECORD
  5
7C43
102
{ACAD_REACTORS
330
7C42
102
}
330
7C42
100
AcDbXrecord
280
     1
102
DISPLAYNAME
  1
Metric50
102
FLAGS
 90
        0
  0
CELLSTYLEMAP
  5
7C03
102
{ACAD_REACTORS
330
162
102
}
330
162
100
AcDbCellStyleMap
 90
        3
300
CELLSTYLE
  1
TABLEFORMAT_BEGIN
 90
        5
170
     1
 91
        0
 92
    32768
 62
   257
 93
        1
300
CONTENTFORMAT
  1
CONTENTFORMAT_BEGIN
 90
        0
 91
        0
 92
      512
 93
        0
300

 40
0.0
140
1.0
 94
        5
 62
     0
340
11
144
6.0
309
CONTENTFORMAT_END
171
     1
301
MARGIN
  1
CELLMARGIN_BEGIN
 40
1.5
 40
1.5
 40
1.5
 40
1.5
 40
4.5
 40
4.5
309
CELLMARGIN_END
 94
        6
 95
        1
302
GRIDFORMAT
  1
GRIDFORMAT_BEGIN
 90
        0
 91
        1
 62
     0
 92
       -2
340
14
 93
        0
 40
1.125
309
GRIDFORMAT_END
 95
        2
302
GRIDFORMAT
  1
GRIDFORMAT_BEGIN
 90
        0
 91
        1
 62
     0
 92
       -2
340
14
 93
        0
 40
1.125
309
GRIDFORMAT_END
 95
        4
302
GRIDFORMAT
  1
GRIDFORMAT_BEGIN
 90
        0
 91
        1
 62
     0
 92
       -2
340
14
 93
        0
 40
1.125
309
GRIDFORMAT_END
 95
        8
302
GRIDFORMAT
  1
GRIDFORMAT_BEGIN
 90
        0
 91
        1
 62
     0
 92
       -2
340
14
 93
        0
 40
1.125
309
GRIDFORMAT_END
 95
       16
302
GRIDFORMAT
  1
GRIDFORMAT_BEGIN
 90
        0
 91
        1
 62
     0
 92
       -2
340
14
 93
        0
 40
1.125
309
GRIDFORMAT_END
 95
       32
302
GRIDFORMAT
  1
GRIDFORMAT_BEGIN
 90
        0
 91
        1
 62
     0
 92
       -2
340
14
 93
        0
 40
1.125
309
GRIDFORMAT_END
309
TABLEFORMAT_END
  1
CELLSTYLE_BEGIN
 90
        1
 91
        1
300
_TITLE
309
CELLSTYLE_END
300
CELLSTYLE
  1
TABLEFORMAT_BEGIN
 90
        5
170
     1
 91
        0
 92
        0
 62
   257
 93
        1
300
CONTENTFORMAT
  1
CONTENTFORMAT_BEGIN
 90
        0
 91
        0
 92
      512
 93
        0
300

 40
0.0
140
1.0
 94
        5
 62
     0
340
11
144
4.5
309
CONTENTFORMAT_END
171
     1
301
MARGIN
  1
CELLMARGIN_BEGIN
 40
1.5
 40
1.5
 40
1.5
 40
1.5
 40
4.5
 40
4.5
309
CELLMARGIN_END
 94
        6
 95
        1
302
GRIDFORMAT
  1
GRIDFORMAT_BEGIN
 90
        0
 91
        1
 62
     0
 92
       -2
340
14
 93
        0
 40
1.125
309
GRIDFORMAT_END
 95
        2
302
GRIDFORMAT
  1
GRIDFORMAT_BEGIN
 90
        0
 91
        1
 62
     0
 92
       -2
340
14
 93
        0
 40
1.125
309
GRIDFORMAT_END
 95
        4
302
GRIDFORMAT
  1
GRIDFORMAT_BEGIN
 90
        0
 91
        1
 62
     0
 92
       -2
340
14
 93
        0
 40
1.125
309
GRIDFORMAT_END
 95
        8
302
GRIDFORMAT
  1
GRIDFORMAT_BEGIN
 90
        0
 91
        1
 62
     0
 92
       -2
340
14
 93
        0
 40
1.125
309
GRIDFORMAT_END
 95
       16
302
GRIDFORMAT
  1
GRIDFORMAT_BEGIN
 90
        0
 91
        1
 62
     0
 92
       -2
340
14
 93
        0
 40
1.125
309
GRIDFORMAT_END
 95
       32
302
GRIDFORMAT
  1
GRIDFORMAT_BEGIN
 90
        0
 91
        1
 62
     0
 92
       -2
340
14
 93
        0
 40
1.125
309
GRIDFORMAT_END
309
TABLEFORMAT_END
  1
CELLSTYLE_BEGIN
 90
        2
 91
        1
300
_HEADER
309
CELLSTYLE_END
300
CELLSTYLE
  1
TABLEFORMAT_BEGIN
 90
        5
170
     1
 91
        0
 92
        0
 62
   257
 93
        1
300
CONTENTFORMAT
  1
CONTENTFORMAT_BEGIN
 90
        0
 91
        0
 92
      512
 93
        0
300

 40
0.0
140
1.0
 94
        2
 62
     0
340
11
144
4.5
309
CONTENTFORMAT_END
171
     1
301
MARGIN
  1
CELLMARGIN_BEGIN
 40
1.5
 40
1.5
 40
1.5
 40
1.5
 40
4.5
 40
4.5
309
CELLMARGIN_END
 94
        6
 95
        1
302
GRIDFORMAT
  1
GRIDFORMAT_BEGIN
 90
        0
 91
        1
 62
     0
 92
       -2
340
14
 93
        0
 40
1.125
309
GRIDFORMAT_END
 95
        2
302
GRIDFORMAT
  1
GRIDFORMAT_BEGIN
 90
        0
 91
        1
 62
     0
 92
       -2
340
14
 93
        0
 40
1.125
309
GRIDFORMAT_END
 95
        4
302
GRIDFORMAT
  1
GRIDFORMAT_BEGIN
 90
        0
 91
        1
 62
     0
 92
       -2
340
14
 93
        0
 40
1.125
309
GRIDFORMAT_END
 95
        8
302
GRIDFORMAT
  1
GRIDFORMAT_BEGIN
 90
        0
 91
        1
 62
     0
 92
       -2
340
14
 93
        0
 40
1.125
309
GRIDFORMAT_END
 95
       16
302
GRIDFORMAT
  1
GRIDFORMAT_BEGIN
 90
        0
 91
        1
 62
     0
 92
       -2
340
14
 93
        0
 40
1.125
309
GRIDFORMAT_END
 95
       32
302
GRIDFORMAT
  1
GRIDFORMAT_BEGIN
 90
        0
 91
        1
 62
     0
 92
       -2
340
14
 93
        0
 40
1.125
309
GRIDFORMAT_END
309
TABLEFORMAT_END
  1
CELLSTYLE_BEGIN
 90
        3
 91
        2
300
_DATA
309
CELLSTYLE_END
  0
XRECORD
  5
7C08
102
{ACAD_REACTORS
330
162
102
}
330
162
100
AcDbXrecord
280
     1
102
ACAD_ROUNDTRIP_PRE2007_TABLESTYLE
 90
      512
 91
        0
  1

 92
      512
 93
        0
  2

 94
      512
 95
        0
  3

  0
XRECORD
  5
7C1B
102
{ACAD_REACTORS
330
7C1A
102
}
330
7C1A
100
AcDbXrecord
280
     1
102
RTVSPost2010Prop28
280
     1
102
RTVSPost2010PropOp28
 70
     1
102
RTVSPost2010Prop29
280
     1
102
RTVSPost2010PropOp29
 70
     1
102
RTVSPost2010Prop30
280
     0
102
RTVSPost2010PropOp30
 70
     1
102
RTVSPost2010Prop31
280
     0
102
RTVSPost2010PropOp31
 70
     1
102
RTVSPost2010Prop32
280
     0
102
RTVSPost2010PropOp32
 70
     1
102
RTVSPost2010Prop33
280
     0
102
RTVSPost2010PropOp33
 70
     1
102
RTVSPost2010Prop34
280
     0
102
RTVSPost2010PropOp34
 70
     1
102
RTVSPost2010Prop35
280
     0
102
RTVSPost2010PropOp35
 70
     1
102
RTVSPost2010Prop36
280
     0
102
RTVSPost2010PropOp36
 70
     1
102
RTVSPost2010Prop37
 90
       50
102
RTVSPost2010PropOp37
 70
     1
102
RTVSPost2010Prop38
140
0.0
102
RTVSPost2010PropOp38
 70
     1
102
RTVSPost2010Prop39
140
1.0
102
RTVSPost2010PropOp39
 70
     1
102
RTVSPost2010Prop40
 90
        0
102
RTVSPost2010PropOp40
 70
     1
102
RTVSPost2010Prop41ColorIndex
 90
       18
102
RTVSPost2010Prop41ColorRGB
 90
        0
102
RTVSPost2010PropOp41
 70
     1
102
RTVSPost2010Prop42
 90
       50
102
RTVSPost2010PropOp42
 70
     1
102
RTVSPost2010Prop43
 90
        3
102
RTVSPost2010PropOp43
 70
     1
102
RTVSPost2010Prop44ColorIndex
 90
        5
102
RTVSPost2010Prop44ColorRGB
 90
      255
102
RTVSPost2010PropOp44
 70
     1
102
RTVSPost2010Prop45
280
     0
102
RTVSPost2010PropOp45
 70
     1
102
RTVSPost2010Prop46
 90
       50
102
RTVSPost2010PropOp46
 70
     1
102
RTVSPost2010Prop47
 90
       50
102
RTVSPost2010PropOp47
 70
     1
102
RTVSPost2010Prop48
 90
       50
102
RTVSPost2010PropOp48
 70
     1
102
RTVSPost2010Prop49
280
     0
102
RTVSPost2010PropOp49
 70
     1
102
RTVSPost2010Prop50
 90
       50
102
RTVSPost2010PropOp50
 70
     1
102
RTVSPost2010Prop51ColorIndex
 90
      256
102
RTVSPost2010Prop51ColorRGB
 90
-16777216
102
RTVSPost2010PropOp51
 70
     0
102
RTVSPost2010Prop52
140
1.0
102
RTVSPost2010PropOp52
 70
     0
102
RTVSPost2010Prop53
 90
        2
102
RTVSPost2010PropOp53
 70
     1
102
RTVSPost2010Prop54
  1
strokes_ogs.tif
102
RTVSPost2010PropOp54
 70
     1
102
RTVSPost2010Prop55
280
     0
102
RTVSPost2010PropOp55
 70
     1
102
RTVSPost2010Prop56
140
1.0
102
RTVSPost2010PropOp56
 70
     1
102
RTVSPost2010Prop57
140
1.0
102
RTVSPost2010PropOp57
 70
     1
102
RTVSPropertyOp0
 70
     1
102
RTVSPropertyOp1
 70
     1
102
RTVSPropertyOp2
 70
     1
102
RTVSPropertyOp3
 70
     1
102
RTVSPropertyOp4
 70
     1
102
RTVSPropertyOp5
 70
     1
102
RTVSPropertyOp6
 70
     1
102
RTVSPropertyOp7
 70
     1
102
RTVSPropertyOp8
 70
     1
102
RTVSPropertyOp9
 70
     1
102
RTVSPropertyOp10
 70
     1
102
RTVSPropertyOp11
 70
     1
102
RTVSPropertyOp12
 70
     1
102
RTVSPropertyOp13
 70
     1
102
RTVSPropertyOp14
 70
     1
102
RTVSPropertyOp15
 70
     1
102
RTVSPropertyOp16
 70
     1
102
RTVSPropertyOp17
 70
     1
102
RTVSPropertyOp18
 70
     1
102
RTVSPropertyOp19
 70
     1
102
RTVSPropertyOp20
 70
     1
102
RTVSPropertyOp21
 70
     1
102
RTVSPropertyOp22
 70
     1
102
RTVSPropertyOp23
 70
     1
102
RTVSPropertyOp24
 70
     1
102
RTVSPropertyOp25
 70
     1
102
RTVSPropertyOp26
 70
     1
102
RTVSPropertyOp27
 70
     1
102
RTVSPropertyOp28
 70
     1
102
RTVSPropertyOp29
 70
     1
102
RTVSPropertyOp30
 70
     1
102
RTVSPropertyOp31
 70
     1
102
RTVSPropertyOp32
 70
     1
102
RTVSPropertyOp33
 70
     1
102
RTVSPropertyOp34
 70
     1
102
RTVSPropertyOp35
 70
     1
102
RTVSPropertyOp36
 70
     1
102
RTVSPropertyOp37
 70
     1
102
RTVSPropertyOp38
 70
     1
102
RTVSPropertyOp39
 70
     1
102
RTVSPropertyOp40
 70
     1
102
RTVSPropertyOp41
 70
     1
102
RTVSPropertyOp42
 70
     1
102
RTVSPropertyOp43
 70
     1
102
RTVSPropertyOp44
 70
     1
102
RTVSPropertyOp45
 70
     1
102
RTVSPropertyOp46
 70
     1
102
RTVSPropertyOp47
 70
     1
102
RTVSPropertyOp48
 70
     1
102
RTVSPropertyOp49
 70
     1
102
RTVSPropertyOp50
 70
     1
102
RTVSPropertyOp51
 70
     0
102
RTVSPropertyOp52
 70
     0
102
RTVSPropertyOp53
 70
     1
102
RTVSPropertyOp54
 70
     1
102
RTVSPropertyOp55
 70
     1
102
RTVSPropertyOp56
 70
     1
102
RTVSPropertyOp57
 70
     1
102
RTVSPropertyOp58
 70
     1
102
RTVSPropertyOp59
 70
     1
102
RTVSPropertyOp60
 70
     1
102
RTVSPropertyOp61
 70
     1
102
RTVSPropertyOp62
 70
     1
  0
XRECORD
  5
7C19
102
{ACAD_REACTORS
330
7C18
102
}
330
7C18
100
AcDbXrecord
280
     1
102
RTVSPost2010Prop28
280
     0
102
RTVSPost2010PropOp28
 70
     1
102
RTVSPost2010Prop29
280
     1
102
RTVSPost2010PropOp29
 70
     1
102
RTVSPost2010Prop30
280
     1
102
RTVSPost2010PropOp30
 70
     1
102
RTVSPost2010Prop31
280
     0
102
RTVSPost2010PropOp31
 70
     1
102
RTVSPost2010Prop32
280
     0
102
RTVSPost2010PropOp32
 70
     1
102
RTVSPost2010Prop33
280
     0
102
RTVSPost2010PropOp33
 70
     1
102
RTVSPost2010Prop34
280
     0
102
RTVSPost2010PropOp34
 70
     1
102
RTVSPost2010Prop35
280
     0
102
RTVSPost2010PropOp35
 70
     1
102
RTVSPost2010Prop36
280
     0
102
RTVSPost2010PropOp36
 70
     1
102
RTVSPost2010Prop37
 90
       50
102
RTVSPost2010PropOp37
 70
     1
102
RTVSPost2010Prop38
140
0.0
102
RTVSPost2010PropOp38
 70
     1
102
RTVSPost2010Prop39
140
1.0
102
RTVSPost2010PropOp39
 70
     1
102
RTVSPost2010Prop40
 90
        0
102
RTVSPost2010PropOp40
 70
     1
102
RTVSPost2010Prop41ColorIndex
 90
       18
102
RTVSPost2010Prop41ColorRGB
 90
        0
102
RTVSPost2010PropOp41
 70
     1
102
RTVSPost2010Prop42
 90
       50
102
RTVSPost2010PropOp42
 70
     1
102
RTVSPost2010Prop43
 90
        3
102
RTVSPost2010PropOp43
 70
     1
102
RTVSPost2010Prop44ColorIndex
 90
        5
102
RTVSPost2010Prop44ColorRGB
 90
      255
102
RTVSPost2010PropOp44
 70
     1
102
RTVSPost2010Prop45
280
     0
102
RTVSPost2010PropOp45
 70
     1
102
RTVSPost2010Prop46
 90
       50
102
RTVSPost2010PropOp46
 70
     1
102
RTVSPost2010Prop47
 90
       50
102
RTVSPost2010PropOp47
 70
     1
102
RTVSPost2010Prop48
 90
       50
102
RTVSPost2010PropOp48
 70
     1
102
RTVSPost2010Prop49
280
     0
102
RTVSPost2010PropOp49
 70
     1
102
RTVSPost2010Prop50
 90
       50
102
RTVSPost2010PropOp50
 70
     1
102
RTVSPost2010Prop51ColorIndex
 90
      256
102
RTVSPost2010Prop51ColorRGB
 90
-16777216
102
RTVSPost2010PropOp51
 70
     0
102
RTVSPost2010Prop52
140
1.0
102
RTVSPost2010PropOp52
 70
     0
102
RTVSPost2010Prop53
 90
        2
102
RTVSPost2010PropOp53
 70
     1
102
RTVSPost2010Prop54
  1
strokes_ogs.tif
102
RTVSPost2010PropOp54
 70
     1
102
RTVSPost2010Prop55
280
     0
102
RTVSPost2010PropOp55
 70
     1
102
RTVSPost2010Prop56
140
1.0
102
RTVSPost2010PropOp56
 70
     1
102
RTVSPost2010Prop57
140
1.0
102
RTVSPost2010PropOp57
 70
     1
102
RTVSPropertyOp0
 70
     1
102
RTVSPropertyOp1
 70
     1
102
RTVSPropertyOp2
 70
     1
102
RTVSPropertyOp3
 70
     1
102
RTVSPropertyOp4
 70
     1
102
RTVSPropertyOp5
 70
     1
102
RTVSPropertyOp6
 70
     1
102
RTVSPropertyOp7
 70
     1
102
RTVSPropertyOp8
 70
     1
102
RTVSPropertyOp9
 70
     1
102
RTVSPropertyOp10
 70
     1
102
RTVSPropertyOp11
 70
     1
102
RTVSPropertyOp12
 70
     1
102
RTVSPropertyOp13
 70
     1
102
RTVSPropertyOp14
 70
     1
102
RTVSPropertyOp15
 70
     1
102
RTVSPropertyOp16
 70
     1
102
RTVSPropertyOp17
 70
     1
102
RTVSPropertyOp18
 70
     1
102
RTVSPropertyOp19
 70
     1
102
RTVSPropertyOp20
 70
     1
102
RTVSPropertyOp21
 70
     1
102
RTVSPropertyOp22
 70
     1
102
RTVSPropertyOp23
 70
     1
102
RTVSPropertyOp24
 70
     1
102
RTVSPropertyOp25
 70
     1
102
RTVSPropertyOp26
 70
     1
102
RTVSPropertyOp27
 70
     1
102
RTVSPropertyOp28
 70
     1
102
RTVSPropertyOp29
 70
     1
102
RTVSPropertyOp30
 70
     1
102
RTVSPropertyOp31
 70
     1
102
RTVSPropertyOp32
 70
     1
102
RTVSPropertyOp33
 70
     1
102
RTVSPropertyOp34
 70
     1
102
RTVSPropertyOp35
 70
     1
102
RTVSPropertyOp36
 70
     1
102
RTVSPropertyOp37
 70
     1
102
RTVSPropertyOp38
 70
     1
102
RTVSPropertyOp39
 70
     1
102
RTVSPropertyOp40
 70
     1
102
RTVSPropertyOp41
 70
     1
102
RTVSPropertyOp42
 70
     1
102
RTVSPropertyOp43
 70
     1
102
RTVSPropertyOp44
 70
     1
102
RTVSPropertyOp45
 70
     1
102
RTVSPropertyOp46
 70
     1
102
RTVSPropertyOp47
 70
     1
102
RTVSPropertyOp48
 70
     1
102
RTVSPropertyOp49
 70
     1
102
RTVSPropertyOp50
 70
     1
102
RTVSPropertyOp51
 70
     0
102
RTVSPropertyOp52
 70
     0
102
RTVSPropertyOp53
 70
     1
102
RTVSPropertyOp54
 70
     1
102
RTVSPropertyOp55
 70
     1
102
RTVSPropertyOp56
 70
     1
102
RTVSPropertyOp57
 70
     1
102
RTVSPropertyOp58
 70
     1
102
RTVSPropertyOp59
 70
     1
102
RTVSPropertyOp60
 70
     1
102
RTVSPropertyOp61
 70
     1
102
RTVSPropertyOp62
 70
     1
  0
XRECORD
  5
7C27
102
{ACAD_REACTORS
330
7C26
102
}
330
7C26
100
AcDbXrecord
280
     1
102
RTVSPost2010Prop28
280
     0
102
RTVSPost2010PropOp28
 70
     1
102
RTVSPost2010Prop29
280
     1
102
RTVSPost2010PropOp29
 70
     1
102
RTVSPost2010Prop30
280
     1
102
RTVSPost2010PropOp30
 70
     1
102
RTVSPost2010Prop31
280
     0
102
RTVSPost2010PropOp31
 70
     1
102
RTVSPost2010Prop32
280
     0
102
RTVSPost2010PropOp32
 70
     1
102
RTVSPost2010Prop33
280
     0
102
RTVSPost2010PropOp33
 70
     1
102
RTVSPost2010Prop34
280
     0
102
RTVSPost2010PropOp34
 70
     1
102
RTVSPost2010Prop35
280
     0
102
RTVSPost2010PropOp35
 70
     1
102
RTVSPost2010Prop36
280
     0
102
RTVSPost2010PropOp36
 70
     1
102
RTVSPost2010Prop37
 90
       50
102
RTVSPost2010PropOp37
 70
     1
102
RTVSPost2010Prop38
140
0.0
102
RTVSPost2010PropOp38
 70
     1
102
RTVSPost2010Prop39
140
1.0
102
RTVSPost2010PropOp39
 70
     1
102
RTVSPost2010Prop40
 90
        0
102
RTVSPost2010PropOp40
 70
     1
102
RTVSPost2010Prop41ColorIndex
 90
       18
102
RTVSPost2010Prop41ColorRGB
 90
        0
102
RTVSPost2010PropOp41
 70
     1
102
RTVSPost2010Prop42
 90
       50
102
RTVSPost2010PropOp42
 70
     1
102
RTVSPost2010Prop43
 90
        3
102
RTVSPost2010PropOp43
 70
     1
102
RTVSPost2010Prop44ColorIndex
 90
        5
102
RTVSPost2010Prop44ColorRGB
 90
      255
102
RTVSPost2010PropOp44
 70
     1
102
RTVSPost2010Prop45
280
     0
102
RTVSPost2010PropOp45
 70
     1
102
RTVSPost2010Prop46
 90
       50
102
RTVSPost2010PropOp46
 70
     1
102
RTVSPost2010Prop47
 90
       50
102
RTVSPost2010PropOp47
 70
     1
102
RTVSPost2010Prop48
 90
       50
102
RTVSPost2010PropOp48
 70
     1
102
RTVSPost2010Prop49
280
     0
102
RTVSPost2010PropOp49
 70
     1
102
RTVSPost2010Prop50
 90
       50
102
RTVSPost2010PropOp50
 70
     1
102
RTVSPost2010Prop51ColorIndex
 90
      256
102
RTVSPost2010Prop51ColorRGB
 90
-16777216
102
RTVSPost2010PropOp51
 70
     0
102
RTVSPost2010Prop52
140
1.0
102
RTVSPost2010PropOp52
 70
     0
102
RTVSPost2010Prop53
 90
        2
102
RTVSPost2010PropOp53
 70
     1
102
RTVSPost2010Prop54
  1
strokes_ogs.tif
102
RTVSPost2010PropOp54
 70
     1
102
RTVSPost2010Prop55
280
     0
102
RTVSPost2010PropOp55
 70
     1
102
RTVSPost2010Prop56
140
1.0
102
RTVSPost2010PropOp56
 70
     1
102
RTVSPost2010Prop57
140
1.0
102
RTVSPost2010PropOp57
 70
     1
102
RTVSPropertyOp0
 70
     1
102
RTVSPropertyOp1
 70
     1
102
RTVSPropertyOp2
 70
     1
102
RTVSPropertyOp3
 70
     1
102
RTVSPropertyOp4
 70
     1
102
RTVSPropertyOp5
 70
     1
102
RTVSPropertyOp6
 70
     1
102
RTVSPropertyOp7
 70
     1
102
RTVSPropertyOp8
 70
     1
102
RTVSPropertyOp9
 70
     1
102
RTVSPropertyOp10
 70
     1
102
RTVSPropertyOp11
 70
     1
102
RTVSPropertyOp12
 70
     1
102
RTVSPropertyOp13
 70
     1
102
RTVSPropertyOp14
 70
     1
102
RTVSPropertyOp15
 70
     1
102
RTVSPropertyOp16
 70
     1
102
RTVSPropertyOp17
 70
     1
102
RTVSPropertyOp18
 70
     1
102
RTVSPropertyOp19
 70
     1
102
RTVSPropertyOp20
 70
     1
102
RTVSPropertyOp21
 70
     1
102
RTVSPropertyOp22
 70
     1
102
RTVSPropertyOp23
 70
     1
102
RTVSPropertyOp24
 70
     1
102
RTVSPropertyOp25
 70
     1
102
RTVSPropertyOp26
 70
     1
102
RTVSPropertyOp27
 70
     1
102
RTVSPropertyOp28
 70
     1
102
RTVSPropertyOp29
 70
     1
102
RTVSPropertyOp30
 70
     1
102
RTVSPropertyOp31
 70
     1
102
RTVSPropertyOp32
 70
     1
102
RTVSPropertyOp33
 70
     1
102
RTVSPropertyOp34
 70
     1
102
RTVSPropertyOp35
 70
     1
102
RTVSPropertyOp36
 70
     1
102
RTVSPropertyOp37
 70
     1
102
RTVSPropertyOp38
 70
     1
102
RTVSPropertyOp39
 70
     1
102
RTVSPropertyOp40
 70
     1
102
RTVSPropertyOp41
 70
     1
102
RTVSPropertyOp42
 70
     1
102
RTVSPropertyOp43
 70
     1
102
RTVSPropertyOp44
 70
     1
102
RTVSPropertyOp45
 70
     1
102
RTVSPropertyOp46
 70
     1
102
RTVSPropertyOp47
 70
     1
102
RTVSPropertyOp48
 70
     1
102
RTVSPropertyOp49
 70
     1
102
RTVSPropertyOp50
 70
     1
102
RTVSPropertyOp51
 70
     0
102
RTVSPropertyOp52
 70
     0
102
RTVSPropertyOp53
 70
     1
102
RTVSPropertyOp54
 70
     1
102
RTVSPropertyOp55
 70
     1
102
RTVSPropertyOp56
 70
     1
102
RTVSPropertyOp57
 70
     1
102
RTVSPropertyOp58
 70
     1
102
RTVSPropertyOp59
 70
     1
102
RTVSPropertyOp60
 70
     1
102
RTVSPropertyOp61
 70
     1
102
RTVSPropertyOp62
 70
     1
  0
XRECORD
  5
7C2F
102
{ACAD_REACTORS
330
7C2E
102
}
330
7C2E
100
AcDbXrecord
280
     1
102
RTVSPost2010Prop28
280
     0
102
RTVSPost2010PropOp28
 70
     1
102
RTVSPost2010Prop29
280
     1
102
RTVSPost2010PropOp29
 70
     1
102
RTVSPost2010Prop30
280
     1
102
RTVSPost2010PropOp30
 70
     1
102
RTVSPost2010Prop31
280
     0
102
RTVSPost2010PropOp31
 70
     1
102
RTVSPost2010Prop32
280
     0
102
RTVSPost2010PropOp32
 70
     1
102
RTVSPost2010Prop33
280
     0
102
RTVSPost2010PropOp33
 70
     1
102
RTVSPost2010Prop34
280
     0
102
RTVSPost2010PropOp34
 70
     1
102
RTVSPost2010Prop35
280
     0
102
RTVSPost2010PropOp35
 70
     1
102
RTVSPost2010Prop36
280
     0
102
RTVSPost2010PropOp36
 70
     1
102
RTVSPost2010Prop37
 90
       50
102
RTVSPost2010PropOp37
 70
     1
102
RTVSPost2010Prop38
140
0.0
102
RTVSPost2010PropOp38
 70
     1
102
RTVSPost2010Prop39
140
1.0
102
RTVSPost2010PropOp39
 70
     1
102
RTVSPost2010Prop40
 90
        0
102
RTVSPost2010PropOp40
 70
     1
102
RTVSPost2010Prop41ColorIndex
 90
       18
102
RTVSPost2010Prop41ColorRGB
 90
        0
102
RTVSPost2010PropOp41
 70
     1
102
RTVSPost2010Prop42
 90
       50
102
RTVSPost2010PropOp42
 70
     1
102
RTVSPost2010Prop43
 90
        3
102
RTVSPost2010PropOp43
 70
     1
102
RTVSPost2010Prop44ColorIndex
 90
        5
102
RTVSPost2010Prop44ColorRGB
 90
      255
102
RTVSPost2010PropOp44
 70
     1
102
RTVSPost2010Prop45
280
     0
102
RTVSPost2010PropOp45
 70
     1
102
RTVSPost2010Prop46
 90
       50
102
RTVSPost2010PropOp46
 70
     1
102
RTVSPost2010Prop47
 90
       50
102
RTVSPost2010PropOp47
 70
     1
102
RTVSPost2010Prop48
 90
       50
102
RTVSPost2010PropOp48
 70
     1
102
RTVSPost2010Prop49
280
     0
102
RTVSPost2010PropOp49
 70
     1
102
RTVSPost2010Prop50
 90
       50
102
RTVSPost2010PropOp50
 70
     1
102
RTVSPost2010Prop51ColorIndex
 90
      256
102
RTVSPost2010Prop51ColorRGB
 90
-16777216
102
RTVSPost2010PropOp51
 70
     0
102
RTVSPost2010Prop52
140
1.0
102
RTVSPost2010PropOp52
 70
     0
102
RTVSPost2010Prop53
 90
        2
102
RTVSPost2010PropOp53
 70
     1
102
RTVSPost2010Prop54
  1
strokes_ogs.tif
102
RTVSPost2010PropOp54
 70
     1
102
RTVSPost2010Prop55
280
     0
102
RTVSPost2010PropOp55
 70
     1
102
RTVSPost2010Prop56
140
1.0
102
RTVSPost2010PropOp56
 70
     1
102
RTVSPost2010Prop57
140
1.0
102
RTVSPost2010PropOp57
 70
     1
102
RTVSPropertyOp0
 70
     1
102
RTVSPropertyOp1
 70
     1
102
RTVSPropertyOp2
 70
     1
102
RTVSPropertyOp3
 70
     1
102
RTVSPropertyOp4
 70
     1
102
RTVSPropertyOp5
 70
     1
102
RTVSPropertyOp6
 70
     1
102
RTVSPropertyOp7
 70
     1
102
RTVSPropertyOp8
 70
     1
102
RTVSPropertyOp9
 70
     1
102
RTVSPropertyOp10
 70
     1
102
RTVSPropertyOp11
 70
     1
102
RTVSPropertyOp12
 70
     1
102
RTVSPropertyOp13
 70
     1
102
RTVSPropertyOp14
 70
     1
102
RTVSPropertyOp15
 70
     1
102
RTVSPropertyOp16
 70
     1
102
RTVSPropertyOp17
 70
     1
102
RTVSPropertyOp18
 70
     1
102
RTVSPropertyOp19
 70
     1
102
RTVSPropertyOp20
 70
     1
102
RTVSPropertyOp21
 70
     1
102
RTVSPropertyOp22
 70
     1
102
RTVSPropertyOp23
 70
     1
102
RTVSPropertyOp24
 70
     1
102
RTVSPropertyOp25
 70
     1
102
RTVSPropertyOp26
 70
     1
102
RTVSPropertyOp27
 70
     1
102
RTVSPropertyOp28
 70
     1
102
RTVSPropertyOp29
 70
     1
102
RTVSPropertyOp30
 70
     1
102
RTVSPropertyOp31
 70
     1
102
RTVSPropertyOp32
 70
     1
102
RTVSPropertyOp33
 70
     1
102
RTVSPropertyOp34
 70
     1
102
RTVSPropertyOp35
 70
     1
102
RTVSPropertyOp36
 70
     1
102
RTVSPropertyOp37
 70
     1
102
RTVSPropertyOp38
 70
     1
102
RTVSPropertyOp39
 70
     1
102
RTVSPropertyOp40
 70
     1
102
RTVSPropertyOp41
 70
     1
102
RTVSPropertyOp42
 70
     1
102
RTVSPropertyOp43
 70
     1
102
RTVSPropertyOp44
 70
     1
102
RTVSPropertyOp45
 70
     1
102
RTVSPropertyOp46
 70
     1
102
RTVSPropertyOp47
 70
     1
102
RTVSPropertyOp48
 70
     1
102
RTVSPropertyOp49
 70
     1
102
RTVSPropertyOp50
 70
     1
102
RTVSPropertyOp51
 70
     0
102
RTVSPropertyOp52
 70
     0
102
RTVSPropertyOp53
 70
     1
102
RTVSPropertyOp54
 70
     1
102
RTVSPropertyOp55
 70
     1
102
RTVSPropertyOp56
 70
     1
102
RTVSPropertyOp57
 70
     1
102
RTVSPropertyOp58
 70
     1
102
RTVSPropertyOp59
 70
     1
102
RTVSPropertyOp60
 70
     1
102
RTVSPropertyOp61
 70
     1
102
RTVSPropertyOp62
 70
     1
  0
XRECORD
  5
7C21
102
{ACAD_REACTORS
330
7C20
102
}
330
7C20
100
AcDbXrecord
280
     1
102
RTVSPost2010Prop28
280
     0
102
RTVSPost2010PropOp28
 70
     1
102
RTVSPost2010Prop29
280
     1
102
RTVSPost2010PropOp29
 70
     1
102
RTVSPost2010Prop30
280
     1
102
RTVSPost2010PropOp30
 70
     1
102
RTVSPost2010Prop31
280
     0
102
RTVSPost2010PropOp31
 70
     1
102
RTVSPost2010Prop32
280
     0
102
RTVSPost2010PropOp32
 70
     1
102
RTVSPost2010Prop33
280
     0
102
RTVSPost2010PropOp33
 70
     1
102
RTVSPost2010Prop34
280
     0
102
RTVSPost2010PropOp34
 70
     1
102
RTVSPost2010Prop35
280
     0
102
RTVSPost2010PropOp35
 70
     1
102
RTVSPost2010Prop36
280
     0
102
RTVSPost2010PropOp36
 70
     1
102
RTVSPost2010Prop37
 90
       50
102
RTVSPost2010PropOp37
 70
     1
102
RTVSPost2010Prop38
140
0.0
102
RTVSPost2010PropOp38
 70
     1
102
RTVSPost2010Prop39
140
1.0
102
RTVSPost2010PropOp39
 70
     1
102
RTVSPost2010Prop40
 90
        0
102
RTVSPost2010PropOp40
 70
     1
102
RTVSPost2010Prop41ColorIndex
 90
       18
102
RTVSPost2010Prop41ColorRGB
 90
        0
102
RTVSPost2010PropOp41
 70
     1
102
RTVSPost2010Prop42
 90
       50
102
RTVSPost2010PropOp42
 70
     1
102
RTVSPost2010Prop43
 90
        3
102
RTVSPost2010PropOp43
 70
     1
102
RTVSPost2010Prop44ColorIndex
 90
        5
102
RTVSPost2010Prop44ColorRGB
 90
      255
102
RTVSPost2010PropOp44
 70
     1
102
RTVSPost2010Prop45
280
     0
102
RTVSPost2010PropOp45
 70
     1
102
RTVSPost2010Prop46
 90
       50
102
RTVSPost2010PropOp46
 70
     1
102
RTVSPost2010Prop47
 90
       50
102
RTVSPost2010PropOp47
 70
     1
102
RTVSPost2010Prop48
 90
       50
102
RTVSPost2010PropOp48
 70
     1
102
RTVSPost2010Prop49
280
     0
102
RTVSPost2010PropOp49
 70
     1
102
RTVSPost2010Prop50
 90
       50
102
RTVSPost2010PropOp50
 70
     1
102
RTVSPost2010Prop51ColorIndex
 90
      256
102
RTVSPost2010Prop51ColorRGB
 90
-16777216
102
RTVSPost2010PropOp51
 70
     0
102
RTVSPost2010Prop52
140
1.0
102
RTVSPost2010PropOp52
 70
     0
102
RTVSPost2010Prop53
 90
        2
102
RTVSPost2010PropOp53
 70
     1
102
RTVSPost2010Prop54
  1
strokes_ogs.tif
102
RTVSPost2010PropOp54
 70
     1
102
RTVSPost2010Prop55
280
     0
102
RTVSPost2010PropOp55
 70
     1
102
RTVSPost2010Prop56
140
1.0
102
RTVSPost2010PropOp56
 70
     1
102
RTVSPost2010Prop57
140
1.0
102
RTVSPost2010PropOp57
 70
     1
102
RTVSPropertyOp0
 70
     1
102
RTVSPropertyOp1
 70
     1
102
RTVSPropertyOp2
 70
     1
102
RTVSPropertyOp3
 70
     1
102
RTVSPropertyOp4
 70
     1
102
RTVSPropertyOp5
 70
     1
102
RTVSPropertyOp6
 70
     1
102
RTVSPropertyOp7
 70
     1
102
RTVSPropertyOp8
 70
     1
102
RTVSPropertyOp9
 70
     1
102
RTVSPropertyOp10
 70
     1
102
RTVSPropertyOp11
 70
     1
102
RTVSPropertyOp12
 70
     1
102
RTVSPropertyOp13
 70
     1
102
RTVSPropertyOp14
 70
     1
102
RTVSPropertyOp15
 70
     1
102
RTVSPropertyOp16
 70
     1
102
RTVSPropertyOp17
 70
     1
102
RTVSPropertyOp18
 70
     1
102
RTVSPropertyOp19
 70
     1
102
RTVSPropertyOp20
 70
     1
102
RTVSPropertyOp21
 70
     1
102
RTVSPropertyOp22
 70
     1
102
RTVSPropertyOp23
 70
     1
102
RTVSPropertyOp24
 70
     1
102
RTVSPropertyOp25
 70
     1
102
RTVSPropertyOp26
 70
     1
102
RTVSPropertyOp27
 70
     1
102
RTVSPropertyOp28
 70
     1
102
RTVSPropertyOp29
 70
     1
102
RTVSPropertyOp30
 70
     1
102
RTVSPropertyOp31
 70
     1
102
RTVSPropertyOp32
 70
     1
102
RTVSPropertyOp33
 70
     1
102
RTVSPropertyOp34
 70
     1
102
RTVSPropertyOp35
 70
     1
102
RTVSPropertyOp36
 70
     1
102
RTVSPropertyOp37
 70
     1
102
RTVSPropertyOp38
 70
     1
102
RTVSPropertyOp39
 70
     1
102
RTVSPropertyOp40
 70
     1
102
RTVSPropertyOp41
 70
     1
102
RTVSPropertyOp42
 70
     1
102
RTVSPropertyOp43
 70
     1
102
RTVSPropertyOp44
 70
     1
102
RTVSPropertyOp45
 70
     1
102
RTVSPropertyOp46
 70
     1
102
RTVSPropertyOp47
 70
     1
102
RTVSPropertyOp48
 70
     1
102
RTVSPropertyOp49
 70
     1
102
RTVSPropertyOp50
 70
     1
102
RTVSPropertyOp51
 70
     0
102
RTVSPropertyOp52
 70
     0
102
RTVSPropertyOp53
 70
     1
102
RTVSPropertyOp54
 70
     1
102
RTVSPropertyOp55
 70
     1
102
RTVSPropertyOp56
 70
     1
102
RTVSPropertyOp57
 70
     1
102
RTVSPropertyOp58
 70
     1
102
RTVSPropertyOp59
 70
     1
102
RTVSPropertyOp60
 70
     1
102
RTVSPropertyOp61
 70
     1
102
RTVSPropertyOp62
 70
     1
  0
XRECORD
  5
7C25
102
{ACAD_REACTORS
330
7C24
102
}
330
7C24
100
AcDbXrecord
280
     1
102
RTVSPost2010Prop28
280
     0
102
RTVSPost2010PropOp28
 70
     1
102
RTVSPost2010Prop29
280
     1
102
RTVSPost2010PropOp29
 70
     1
102
RTVSPost2010Prop30
280
     1
102
RTVSPost2010PropOp30
 70
     1
102
RTVSPost2010Prop31
280
     0
102
RTVSPost2010PropOp31
 70
     1
102
RTVSPost2010Prop32
280
     0
102
RTVSPost2010PropOp32
 70
     1
102
RTVSPost2010Prop33
280
     0
102
RTVSPost2010PropOp33
 70
     1
102
RTVSPost2010Prop34
280
     0
102
RTVSPost2010PropOp34
 70
     1
102
RTVSPost2010Prop35
280
     0
102
RTVSPost2010PropOp35
 70
     1
102
RTVSPost2010Prop36
280
     0
102
RTVSPost2010PropOp36
 70
     1
102
RTVSPost2010Prop37
 90
       50
102
RTVSPost2010PropOp37
 70
     1
102
RTVSPost2010Prop38
140
0.0
102
RTVSPost2010PropOp38
 70
     1
102
RTVSPost2010Prop39
140
1.0
102
RTVSPost2010PropOp39
 70
     1
102
RTVSPost2010Prop40
 90
        0
102
RTVSPost2010PropOp40
 70
     1
102
RTVSPost2010Prop41ColorIndex
 90
       18
102
RTVSPost2010Prop41ColorRGB
 90
        0
102
RTVSPost2010PropOp41
 70
     1
102
RTVSPost2010Prop42
 90
       50
102
RTVSPost2010PropOp42
 70
     1
102
RTVSPost2010Prop43
 90
        3
102
RTVSPost2010PropOp43
 70
     1
102
RTVSPost2010Prop44ColorIndex
 90
        5
102
RTVSPost2010Prop44ColorRGB
 90
      255
102
RTVSPost2010PropOp44
 70
     1
102
RTVSPost2010Prop45
280
     0
102
RTVSPost2010PropOp45
 70
     1
102
RTVSPost2010Prop46
 90
       50
102
RTVSPost2010PropOp46
 70
     1
102
RTVSPost2010Prop47
 90
       50
102
RTVSPost2010PropOp47
 70
     1
102
RTVSPost2010Prop48
 90
       50
102
RTVSPost2010PropOp48
 70
     1
102
RTVSPost2010Prop49
280
     0
102
RTVSPost2010PropOp49
 70
     1
102
RTVSPost2010Prop50
 90
       50
102
RTVSPost2010PropOp50
 70
     1
102
RTVSPost2010Prop51ColorIndex
 90
      256
102
RTVSPost2010Prop51ColorRGB
 90
-16777216
102
RTVSPost2010PropOp51
 70
     0
102
RTVSPost2010Prop52
140
1.0
102
RTVSPost2010PropOp52
 70
     0
102
RTVSPost2010Prop53
 90
        2
102
RTVSPost2010PropOp53
 70
     1
102
RTVSPost2010Prop54
  1
strokes_ogs.tif
102
RTVSPost2010PropOp54
 70
     1
102
RTVSPost2010Prop55
280
     0
102
RTVSPost2010PropOp55
 70
     1
102
RTVSPost2010Prop56
140
1.0
102
RTVSPost2010PropOp56
 70
     1
102
RTVSPost2010Prop57
140
1.0
102
RTVSPost2010PropOp57
 70
     1
102
RTVSPropertyOp0
 70
     1
102
RTVSPropertyOp1
 70
     1
102
RTVSPropertyOp2
 70
     1
102
RTVSPropertyOp3
 70
     1
102
RTVSPropertyOp4
 70
     1
102
RTVSPropertyOp5
 70
     1
102
RTVSPropertyOp6
 70
     1
102
RTVSPropertyOp7
 70
     1
102
RTVSPropertyOp8
 70
     1
102
RTVSPropertyOp9
 70
     1
102
RTVSPropertyOp10
 70
     1
102
RTVSPropertyOp11
 70
     1
102
RTVSPropertyOp12
 70
     1
102
RTVSPropertyOp13
 70
     1
102
RTVSPropertyOp14
 70
     1
102
RTVSPropertyOp15
 70
     1
102
RTVSPropertyOp16
 70
     1
102
RTVSPropertyOp17
 70
     1
102
RTVSPropertyOp18
 70
     1
102
RTVSPropertyOp19
 70
     1
102
RTVSPropertyOp20
 70
     1
102
RTVSPropertyOp21
 70
     1
102
RTVSPropertyOp22
 70
     1
102
RTVSPropertyOp23
 70
     1
102
RTVSPropertyOp24
 70
     1
102
RTVSPropertyOp25
 70
     1
102
RTVSPropertyOp26
 70
     1
102
RTVSPropertyOp27
 70
     1
102
RTVSPropertyOp28
 70
     1
102
RTVSPropertyOp29
 70
     1
102
RTVSPropertyOp30
 70
     1
102
RTVSPropertyOp31
 70
     1
102
RTVSPropertyOp32
 70
     1
102
RTVSPropertyOp33
 70
     1
102
RTVSPropertyOp34
 70
     1
102
RTVSPropertyOp35
 70
     1
102
RTVSPropertyOp36
 70
     1
102
RTVSPropertyOp37
 70
     1
102
RTVSPropertyOp38
 70
     1
102
RTVSPropertyOp39
 70
     1
102
RTVSPropertyOp40
 70
     1
102
RTVSPropertyOp41
 70
     1
102
RTVSPropertyOp42
 70
     1
102
RTVSPropertyOp43
 70
     1
102
RTVSPropertyOp44
 70
     1
102
RTVSPropertyOp45
 70
     1
102
RTVSPropertyOp46
 70
     1
102
RTVSPropertyOp47
 70
     1
102
RTVSPropertyOp48
 70
     1
102
RTVSPropertyOp49
 70
     1
102
RTVSPropertyOp50
 70
     1
102
RTVSPropertyOp51
 70
     0
102
RTVSPropertyOp52
 70
     0
102
RTVSPropertyOp53
 70
     1
102
RTVSPropertyOp54
 70
     1
102
RTVSPropertyOp55
 70
     1
102
RTVSPropertyOp56
 70
     1
102
RTVSPropertyOp57
 70
     1
102
RTVSPropertyOp58
 70
     1
102
RTVSPropertyOp59
 70
     1
102
RTVSPropertyOp60
 70
     1
102
RTVSPropertyOp61
 70
     1
102
RTVSPropertyOp62
 70
     1
  0
XRECORD
  5
7C37
102
{ACAD_REACTORS
330
7C36
102
}
330
7C36
100
AcDbXrecord
280
     1
102
RTVSPost2010Prop28
280
     0
102
RTVSPost2010PropOp28
 70
     1
102
RTVSPost2010Prop29
280
     1
102
RTVSPost2010PropOp29
 70
     1
102
RTVSPost2010Prop30
280
     1
102
RTVSPost2010PropOp30
 70
     1
102
RTVSPost2010Prop31
280
     0
102
RTVSPost2010PropOp31
 70
     1
102
RTVSPost2010Prop32
280
     0
102
RTVSPost2010PropOp32
 70
     1
102
RTVSPost2010Prop33
280
     0
102
RTVSPost2010PropOp33
 70
     1
102
RTVSPost2010Prop34
280
     0
102
RTVSPost2010PropOp34
 70
     1
102
RTVSPost2010Prop35
280
     0
102
RTVSPost2010PropOp35
 70
     1
102
RTVSPost2010Prop36
280
     0
102
RTVSPost2010PropOp36
 70
     1
102
RTVSPost2010Prop37
 90
       50
102
RTVSPost2010PropOp37
 70
     1
102
RTVSPost2010Prop38
140
0.0
102
RTVSPost2010PropOp38
 70
     1
102
RTVSPost2010Prop39
140
1.0
102
RTVSPost2010PropOp39
 70
     1
102
RTVSPost2010Prop40
 90
        0
102
RTVSPost2010PropOp40
 70
     1
102
RTVSPost2010Prop41ColorIndex
 90
       18
102
RTVSPost2010Prop41ColorRGB
 90
        0
102
RTVSPost2010PropOp41
 70
     1
102
RTVSPost2010Prop42
 90
       50
102
RTVSPost2010PropOp42
 70
     1
102
RTVSPost2010Prop43
 90
        3
102
RTVSPost2010PropOp43
 70
     1
102
RTVSPost2010Prop44ColorIndex
 90
        5
102
RTVSPost2010Prop44ColorRGB
 90
      255
102
RTVSPost2010PropOp44
 70
     1
102
RTVSPost2010Prop45
280
     0
102
RTVSPost2010PropOp45
 70
     1
102
RTVSPost2010Prop46
 90
       50
102
RTVSPost2010PropOp46
 70
     1
102
RTVSPost2010Prop47
 90
       50
102
RTVSPost2010PropOp47
 70
     1
102
RTVSPost2010Prop48
 90
       50
102
RTVSPost2010PropOp48
 70
     1
102
RTVSPost2010Prop49
280
     0
102
RTVSPost2010PropOp49
 70
     1
102
RTVSPost2010Prop50
 90
       50
102
RTVSPost2010PropOp50
 70
     1
102
RTVSPost2010Prop51ColorIndex
 90
      256
102
RTVSPost2010Prop51ColorRGB
 90
-16777216
102
RTVSPost2010PropOp51
 70
     0
102
RTVSPost2010Prop52
140
1.0
102
RTVSPost2010PropOp52
 70
     0
102
RTVSPost2010Prop53
 90
        2
102
RTVSPost2010PropOp53
 70
     1
102
RTVSPost2010Prop54
  1
strokes_ogs.tif
102
RTVSPost2010PropOp54
 70
     1
102
RTVSPost2010Prop55
280
     0
102
RTVSPost2010PropOp55
 70
     1
102
RTVSPost2010Prop56
140
1.0
102
RTVSPost2010PropOp56
 70
     1
102
RTVSPost2010Prop57
140
1.0
102
RTVSPost2010PropOp57
 70
     1
102
RTVSPropertyOp0
 70
     0
102
RTVSPropertyOp1
 70
     0
102
RTVSPropertyOp2
 70
     0
102
RTVSPropertyOp3
 70
     0
102
RTVSPropertyOp4
 70
     0
102
RTVSPropertyOp5
 70
     0
102
RTVSPropertyOp6
 70
     0
102
RTVSPropertyOp7
 70
     0
102
RTVSPropertyOp8
 70
     0
102
RTVSPropertyOp9
 70
     0
102
RTVSPropertyOp10
 70
     0
102
RTVSPropertyOp11
 70
     0
102
RTVSPropertyOp12
 70
     0
102
RTVSPropertyOp13
 70
     0
102
RTVSPropertyOp14
 70
     2
102
RTVSPropertyOp15
 70
     0
102
RTVSPropertyOp16
 70
     0
102
RTVSPropertyOp17
 70
     0
102
RTVSPropertyOp18
 70
     0
102
RTVSPropertyOp19
 70
     0
102
RTVSPropertyOp20
 70
     0
102
RTVSPropertyOp21
 70
     0
102
RTVSPropertyOp22
 70
     0
102
RTVSPropertyOp23
 70
     0
102
RTVSPropertyOp24
 70
     0
102
RTVSPropertyOp25
 70
     0
102
RTVSPropertyOp26
 70
     0
102
RTVSPropertyOp27
 70
     0
102
RTVSPropertyOp28
 70
     1
102
RTVSPropertyOp29
 70
     1
102
RTVSPropertyOp30
 70
     1
102
RTVSPropertyOp31
 70
     1
102
RTVSPropertyOp32
 70
     1
102
RTVSPropertyOp33
 70
     1
102
RTVSPropertyOp34
 70
     1
102
RTVSPropertyOp35
 70
     1
102
RTVSPropertyOp36
 70
     1
102
RTVSPropertyOp37
 70
     1
102
RTVSPropertyOp38
 70
     1
102
RTVSPropertyOp39
 70
     1
102
RTVSPropertyOp40
 70
     1
102
RTVSPropertyOp41
 70
     1
102
RTVSPropertyOp42
 70
     1
102
RTVSPropertyOp43
 70
     1
102
RTVSPropertyOp44
 70
     1
102
RTVSPropertyOp45
 70
     1
102
RTVSPropertyOp46
 70
     1
102
RTVSPropertyOp47
 70
     1
102
RTVSPropertyOp48
 70
     1
102
RTVSPropertyOp49
 70
     1
102
RTVSPropertyOp50
 70
     1
102
RTVSPropertyOp51
 70
     0
102
RTVSPropertyOp52
 70
     0
102
RTVSPropertyOp53
 70
     1
102
RTVSPropertyOp54
 70
     1
102
RTVSPropertyOp55
 70
     1
102
RTVSPropertyOp56
 70
     1
102
RTVSPropertyOp57
 70
     1
102
RTVSPropertyOp58
 70
     1
102
RTVSPropertyOp59
 70
     1
102
RTVSPropertyOp60
 70
     1
102
RTVSPropertyOp61
 70
     1
102
RTVSPropertyOp62
 70
     1
  0
XRECORD
  5
7C2D
102
{ACAD_REACTORS
330
7C2C
102
}
330
7C2C
100
AcDbXrecord
280
     1
102
RTVSPost2010Prop28
280
     0
102
RTVSPost2010PropOp28
 70
     1
102
RTVSPost2010Prop29
280
     1
102
RTVSPost2010PropOp29
 70
     1
102
RTVSPost2010Prop30
280
     1
102
RTVSPost2010PropOp30
 70
     1
102
RTVSPost2010Prop31
280
     0
102
RTVSPost2010PropOp31
 70
     1
102
RTVSPost2010Prop32
280
     0
102
RTVSPost2010PropOp32
 70
     1
102
RTVSPost2010Prop33
280
     0
102
RTVSPost2010PropOp33
 70
     1
102
RTVSPost2010Prop34
280
     0
102
RTVSPost2010PropOp34
 70
     1
102
RTVSPost2010Prop35
280
     0
102
RTVSPost2010PropOp35
 70
     1
102
RTVSPost2010Prop36
280
     0
102
RTVSPost2010PropOp36
 70
     1
102
RTVSPost2010Prop37
 90
       50
102
RTVSPost2010PropOp37
 70
     1
102
RTVSPost2010Prop38
140
0.0
102
RTVSPost2010PropOp38
 70
     1
102
RTVSPost2010Prop39
140
1.0
102
RTVSPost2010PropOp39
 70
     1
102
RTVSPost2010Prop40
 90
        0
102
RTVSPost2010PropOp40
 70
     1
102
RTVSPost2010Prop41ColorIndex
 90
       18
102
RTVSPost2010Prop41ColorRGB
 90
        0
102
RTVSPost2010PropOp41
 70
     1
102
RTVSPost2010Prop42
 90
       50
102
RTVSPost2010PropOp42
 70
     1
102
RTVSPost2010Prop43
 90
        3
102
RTVSPost2010PropOp43
 70
     1
102
RTVSPost2010Prop44ColorIndex
 90
        5
102
RTVSPost2010Prop44ColorRGB
 90
      255
102
RTVSPost2010PropOp44
 70
     1
102
RTVSPost2010Prop45
280
     0
102
RTVSPost2010PropOp45
 70
     1
102
RTVSPost2010Prop46
 90
       50
102
RTVSPost2010PropOp46
 70
     1
102
RTVSPost2010Prop47
 90
       50
102
RTVSPost2010PropOp47
 70
     1
102
RTVSPost2010Prop48
 90
       50
102
RTVSPost2010PropOp48
 70
     1
102
RTVSPost2010Prop49
280
     0
102
RTVSPost2010PropOp49
 70
     1
102
RTVSPost2010Prop50
 90
       50
102
RTVSPost2010PropOp50
 70
     1
102
RTVSPost2010Prop51ColorIndex
 90
      256
102
RTVSPost2010Prop51ColorRGB
 90
-16777216
102
RTVSPost2010PropOp51
 70
     0
102
RTVSPost2010Prop52
140
1.0
102
RTVSPost2010PropOp52
 70
     0
102
RTVSPost2010Prop53
 90
        2
102
RTVSPost2010PropOp53
 70
     1
102
RTVSPost2010Prop54
  1
strokes_ogs.tif
102
RTVSPost2010PropOp54
 70
     1
102
RTVSPost2010Prop55
280
     0
102
RTVSPost2010PropOp55
 70
     1
102
RTVSPost2010Prop56
140
1.0
102
RTVSPost2010PropOp56
 70
     1
102
RTVSPost2010Prop57
140
1.0
102
RTVSPost2010PropOp57
 70
     1
102
RTVSPropertyOp0
 70
     1
102
RTVSPropertyOp1
 70
     1
102
RTVSPropertyOp2
 70
     1
102
RTVSPropertyOp3
 70
     1
102
RTVSPropertyOp4
 70
     1
102
RTVSPropertyOp5
 70
     1
102
RTVSPropertyOp6
 70
     1
102
RTVSPropertyOp7
 70
     1
102
RTVSPropertyOp8
 70
     1
102
RTVSPropertyOp9
 70
     1
102
RTVSPropertyOp10
 70
     1
102
RTVSPropertyOp11
 70
     1
102
RTVSPropertyOp12
 70
     1
102
RTVSPropertyOp13
 70
     1
102
RTVSPropertyOp14
 70
     1
102
RTVSPropertyOp15
 70
     1
102
RTVSPropertyOp16
 70
     1
102
RTVSPropertyOp17
 70
     1
102
RTVSPropertyOp18
 70
     1
102
RTVSPropertyOp19
 70
     1
102
RTVSPropertyOp20
 70
     1
102
RTVSPropertyOp21
 70
     1
102
RTVSPropertyOp22
 70
     1
102
RTVSPropertyOp23
 70
     1
102
RTVSPropertyOp24
 70
     1
102
RTVSPropertyOp25
 70
     1
102
RTVSPropertyOp26
 70
     1
102
RTVSPropertyOp27
 70
     1
102
RTVSPropertyOp28
 70
     1
102
RTVSPropertyOp29
 70
     1
102
RTVSPropertyOp30
 70
     1
102
RTVSPropertyOp31
 70
     1
102
RTVSPropertyOp32
 70
     1
102
RTVSPropertyOp33
 70
     1
102
RTVSPropertyOp34
 70
     1
102
RTVSPropertyOp35
 70
     1
102
RTVSPropertyOp36
 70
     1
102
RTVSPropertyOp37
 70
     1
102
RTVSPropertyOp38
 70
     1
102
RTVSPropertyOp39
 70
     1
102
RTVSPropertyOp40
 70
     1
102
RTVSPropertyOp41
 70
     1
102
RTVSPropertyOp42
 70
     1
102
RTVSPropertyOp43
 70
     1
102
RTVSPropertyOp44
 70
     1
102
RTVSPropertyOp45
 70
     1
102
RTVSPropertyOp46
 70
     1
102
RTVSPropertyOp47
 70
     1
102
RTVSPropertyOp48
 70
     1
102
RTVSPropertyOp49
 70
     1
102
RTVSPropertyOp50
 70
     1
102
RTVSPropertyOp51
 70
     0
102
RTVSPropertyOp52
 70
     0
102
RTVSPropertyOp53
 70
     1
102
RTVSPropertyOp54
 70
     1
102
RTVSPropertyOp55
 70
     1
102
RTVSPropertyOp56
 70
     1
102
RTVSPropertyOp57
 70
     1
102
RTVSPropertyOp58
 70
     1
102
RTVSPropertyOp59
 70
     1
102
RTVSPropertyOp60
 70
     1
102
RTVSPropertyOp61
 70
     1
102
RTVSPropertyOp62
 70
     1
  0
XRECORD
  5
7C11
102
{ACAD_REACTORS
330
7C10
102
}
330
7C10
100
AcDbXrecord
280
     1
102
RTVSPost2010Prop28
280
     0
102
RTVSPost2010PropOp28
 70
     1
102
RTVSPost2010Prop29
280
     1
102
RTVSPost2010PropOp29
 70
     1
102
RTVSPost2010Prop30
280
     1
102
RTVSPost2010PropOp30
 70
     1
102
RTVSPost2010Prop31
280
     0
102
RTVSPost2010PropOp31
 70
     1
102
RTVSPost2010Prop32
280
     0
102
RTVSPost2010PropOp32
 70
     1
102
RTVSPost2010Prop33
280
     0
102
RTVSPost2010PropOp33
 70
     1
102
RTVSPost2010Prop34
280
     0
102
RTVSPost2010PropOp34
 70
     1
102
RTVSPost2010Prop35
280
     0
102
RTVSPost2010PropOp35
 70
     1
102
RTVSPost2010Prop36
280
     0
102
RTVSPost2010PropOp36
 70
     1
102
RTVSPost2010Prop37
 90
       50
102
RTVSPost2010PropOp37
 70
     1
102
RTVSPost2010Prop38
140
0.0
102
RTVSPost2010PropOp38
 70
     1
102
RTVSPost2010Prop39
140
1.0
102
RTVSPost2010PropOp39
 70
     1
102
RTVSPost2010Prop40
 90
        0
102
RTVSPost2010PropOp40
 70
     1
102
RTVSPost2010Prop41ColorIndex
 90
       18
102
RTVSPost2010Prop41ColorRGB
 90
        0
102
RTVSPost2010PropOp41
 70
     1
102
RTVSPost2010Prop42
 90
       50
102
RTVSPost2010PropOp42
 70
     1
102
RTVSPost2010Prop43
 90
        3
102
RTVSPost2010PropOp43
 70
     1
102
RTVSPost2010Prop44ColorIndex
 90
        5
102
RTVSPost2010Prop44ColorRGB
 90
      255
102
RTVSPost2010PropOp44
 70
     1
102
RTVSPost2010Prop45
280
     0
102
RTVSPost2010PropOp45
 70
     1
102
RTVSPost2010Prop46
 90
       50
102
RTVSPost2010PropOp46
 70
     1
102
RTVSPost2010Prop47
 90
       50
102
RTVSPost2010PropOp47
 70
     1
102
RTVSPost2010Prop48
 90
       50
102
RTVSPost2010PropOp48
 70
     1
102
RTVSPost2010Prop49
280
     0
102
RTVSPost2010PropOp49
 70
     1
102
RTVSPost2010Prop50
 90
       50
102
RTVSPost2010PropOp50
 70
     1
102
RTVSPost2010Prop51ColorIndex
 90
      256
102
RTVSPost2010Prop51ColorRGB
 90
-16777216
102
RTVSPost2010PropOp51
 70
     0
102
RTVSPost2010Prop52
140
1.0
102
RTVSPost2010PropOp52
 70
     0
102
RTVSPost2010Prop53
 90
        2
102
RTVSPost2010PropOp53
 70
     1
102
RTVSPost2010Prop54
  1
strokes_ogs.tif
102
RTVSPost2010PropOp54
 70
     1
102
RTVSPost2010Prop55
280
     0
102
RTVSPost2010PropOp55
 70
     1
102
RTVSPost2010Prop56
140
1.0
102
RTVSPost2010PropOp56
 70
     1
102
RTVSPost2010Prop57
140
1.0
102
RTVSPost2010PropOp57
 70
     1
102
RTVSPropertyOp0
 70
     1
102
RTVSPropertyOp1
 70
     1
102
RTVSPropertyOp2
 70
     1
102
RTVSPropertyOp3
 70
     1
102
RTVSPropertyOp4
 70
     1
102
RTVSPropertyOp5
 70
     1
102
RTVSPropertyOp6
 70
     1
102
RTVSPropertyOp7
 70
     1
102
RTVSPropertyOp8
 70
     1
102
RTVSPropertyOp9
 70
     1
102
RTVSPropertyOp10
 70
     1
102
RTVSPropertyOp11
 70
     1
102
RTVSPropertyOp12
 70
     1
102
RTVSPropertyOp13
 70
     1
102
RTVSPropertyOp14
 70
     1
102
RTVSPropertyOp15
 70
     1
102
RTVSPropertyOp16
 70
     1
102
RTVSPropertyOp17
 70
     1
102
RTVSPropertyOp18
 70
     1
102
RTVSPropertyOp19
 70
     1
102
RTVSPropertyOp20
 70
     1
102
RTVSPropertyOp21
 70
     1
102
RTVSPropertyOp22
 70
     1
102
RTVSPropertyOp23
 70
     1
102
RTVSPropertyOp24
 70
     1
102
RTVSPropertyOp25
 70
     1
102
RTVSPropertyOp26
 70
     1
102
RTVSPropertyOp27
 70
     1
102
RTVSPropertyOp28
 70
     1
102
RTVSPropertyOp29
 70
     1
102
RTVSPropertyOp30
 70
     1
102
RTVSPropertyOp31
 70
     1
102
RTVSPropertyOp32
 70
     1
102
RTVSPropertyOp33
 70
     1
102
RTVSPropertyOp34
 70
     1
102
RTVSPropertyOp35
 70
     1
102
RTVSPropertyOp36
 70
     1
102
RTVSPropertyOp37
 70
     1
102
RTVSPropertyOp38
 70
     1
102
RTVSPropertyOp39
 70
     1
102
RTVSPropertyOp40
 70
     1
102
RTVSPropertyOp41
 70
     1
102
RTVSPropertyOp42
 70
     1
102
RTVSPropertyOp43
 70
     1
102
RTVSPropertyOp44
 70
     1
102
RTVSPropertyOp45
 70
     1
102
RTVSPropertyOp46
 70
     1
102
RTVSPropertyOp47
 70
     1
102
RTVSPropertyOp48
 70
     1
102
RTVSPropertyOp49
 70
     1
102
RTVSPropertyOp50
 70
     1
102
RTVSPropertyOp51
 70
     0
102
RTVSPropertyOp52
 70
     0
102
RTVSPropertyOp53
 70
     1
102
RTVSPropertyOp54
 70
     1
102
RTVSPropertyOp55
 70
     1
102
RTVSPropertyOp56
 70
     1
102
RTVSPropertyOp57
 70
     1
102
RTVSPropertyOp58
 70
     1
102
RTVSPropertyOp59
 70
     1
102
RTVSPropertyOp60
 70
     1
102
RTVSPropertyOp61
 70
     1
102
RTVSPropertyOp62
 70
     1
  0
XRECORD
  5
7C13
102
{ACAD_REACTORS
330
7C12
102
}
330
7C12
100
AcDbXrecord
280
     1
102
RTVSPost2010Prop28
280
     0
102
RTVSPost2010PropOp28
 70
     1
102
RTVSPost2010Prop29
280
     1
102
RTVSPost2010PropOp29
 70
     1
102
RTVSPost2010Prop30
280
     1
102
RTVSPost2010PropOp30
 70
     1
102
RTVSPost2010Prop31
280
     0
102
RTVSPost2010PropOp31
 70
     1
102
RTVSPost2010Prop32
280
     0
102
RTVSPost2010PropOp32
 70
     1
102
RTVSPost2010Prop33
280
     0
102
RTVSPost2010PropOp33
 70
     1
102
RTVSPost2010Prop34
280
     0
102
RTVSPost2010PropOp34
 70
     1
102
RTVSPost2010Prop35
280
     0
102
RTVSPost2010PropOp35
 70
     1
102
RTVSPost2010Prop36
280
     0
102
RTVSPost2010PropOp36
 70
     1
102
RTVSPost2010Prop37
 90
       50
102
RTVSPost2010PropOp37
 70
     1
102
RTVSPost2010Prop38
140
0.0
102
RTVSPost2010PropOp38
 70
     1
102
RTVSPost2010Prop39
140
1.0
102
RTVSPost2010PropOp39
 70
     1
102
RTVSPost2010Prop40
 90
        0
102
RTVSPost2010PropOp40
 70
     1
102
RTVSPost2010Prop41ColorIndex
 90
       18
102
RTVSPost2010Prop41ColorRGB
 90
        0
102
RTVSPost2010PropOp41
 70
     1
102
RTVSPost2010Prop42
 90
       50
102
RTVSPost2010PropOp42
 70
     1
102
RTVSPost2010Prop43
 90
        3
102
RTVSPost2010PropOp43
 70
     1
102
RTVSPost2010Prop44ColorIndex
 90
        5
102
RTVSPost2010Prop44ColorRGB
 90
      255
102
RTVSPost2010PropOp44
 70
     1
102
RTVSPost2010Prop45
280
     0
102
RTVSPost2010PropOp45
 70
     1
102
RTVSPost2010Prop46
 90
       50
102
RTVSPost2010PropOp46
 70
     1
102
RTVSPost2010Prop47
 90
       50
102
RTVSPost2010PropOp47
 70
     1
102
RTVSPost2010Prop48
 90
       50
102
RTVSPost2010PropOp48
 70
     1
102
RTVSPost2010Prop49
280
     0
102
RTVSPost2010PropOp49
 70
     1
102
RTVSPost2010Prop50
 90
       50
102
RTVSPost2010PropOp50
 70
     1
102
RTVSPost2010Prop51ColorIndex
 90
      256
102
RTVSPost2010Prop51ColorRGB
 90
-16777216
102
RTVSPost2010PropOp51
 70
     0
102
RTVSPost2010Prop52
140
1.0
102
RTVSPost2010PropOp52
 70
     0
102
RTVSPost2010Prop53
 90
        2
102
RTVSPost2010PropOp53
 70
     1
102
RTVSPost2010Prop54
  1
strokes_ogs.tif
102
RTVSPost2010PropOp54
 70
     1
102
RTVSPost2010Prop55
280
     0
102
RTVSPost2010PropOp55
 70
     1
102
RTVSPost2010Prop56
140
1.0
102
RTVSPost2010PropOp56
 70
     1
102
RTVSPost2010Prop57
140
1.0
102
RTVSPost2010PropOp57
 70
     1
102
RTVSPropertyOp0
 70
     1
102
RTVSPropertyOp1
 70
     1
102
RTVSPropertyOp2
 70
     1
102
RTVSPropertyOp3
 70
     1
102
RTVSPropertyOp4
 70
     1
102
RTVSPropertyOp5
 70
     1
102
RTVSPropertyOp6
 70
     1
102
RTVSPropertyOp7
 70
     1
102
RTVSPropertyOp8
 70
     1
102
RTVSPropertyOp9
 70
     1
102
RTVSPropertyOp10
 70
     1
102
RTVSPropertyOp11
 70
     1
102
RTVSPropertyOp12
 70
     1
102
RTVSPropertyOp13
 70
     1
102
RTVSPropertyOp14
 70
     1
102
RTVSPropertyOp15
 70
     1
102
RTVSPropertyOp16
 70
     1
102
RTVSPropertyOp17
 70
     1
102
RTVSPropertyOp18
 70
     1
102
RTVSPropertyOp19
 70
     1
102
RTVSPropertyOp20
 70
     1
102
RTVSPropertyOp21
 70
     1
102
RTVSPropertyOp22
 70
     1
102
RTVSPropertyOp23
 70
     1
102
RTVSPropertyOp24
 70
     1
102
RTVSPropertyOp25
 70
     1
102
RTVSPropertyOp26
 70
     1
102
RTVSPropertyOp27
 70
     1
102
RTVSPropertyOp28
 70
     1
102
RTVSPropertyOp29
 70
     1
102
RTVSPropertyOp30
 70
     1
102
RTVSPropertyOp31
 70
     1
102
RTVSPropertyOp32
 70
     1
102
RTVSPropertyOp33
 70
     1
102
RTVSPropertyOp34
 70
     1
102
RTVSPropertyOp35
 70
     1
102
RTVSPropertyOp36
 70
     1
102
RTVSPropertyOp37
 70
     1
102
RTVSPropertyOp38
 70
     1
102
RTVSPropertyOp39
 70
     1
102
RTVSPropertyOp40
 70
     1
102
RTVSPropertyOp41
 70
     1
102
RTVSPropertyOp42
 70
     1
102
RTVSPropertyOp43
 70
     1
102
RTVSPropertyOp44
 70
     1
102
RTVSPropertyOp45
 70
     1
102
RTVSPropertyOp46
 70
     1
102
RTVSPropertyOp47
 70
     1
102
RTVSPropertyOp48
 70
     1
102
RTVSPropertyOp49
 70
     1
102
RTVSPropertyOp50
 70
     1
102
RTVSPropertyOp51
 70
     0
102
RTVSPropertyOp52
 70
     0
102
RTVSPropertyOp53
 70
     1
102
RTVSPropertyOp54
 70
     1
102
RTVSPropertyOp55
 70
     1
102
RTVSPropertyOp56
 70
     1
102
RTVSPropertyOp57
 70
     1
102
RTVSPropertyOp58
 70
     1
102
RTVSPropertyOp59
 70
     1
102
RTVSPropertyOp60
 70
     1
102
RTVSPropertyOp61
 70
     1
102
RTVSPropertyOp62
 70
     1
  0
XRECORD
  5
7C15
102
{ACAD_REACTORS
330
7C14
102
}
330
7C14
100
AcDbXrecord
280
     1
102
RTVSPost2010Prop28
280
     0
102
RTVSPost2010PropOp28
 70
     1
102
RTVSPost2010Prop29
280
     1
102
RTVSPost2010PropOp29
 70
     1
102
RTVSPost2010Prop30
280
     1
102
RTVSPost2010PropOp30
 70
     1
102
RTVSPost2010Prop31
280
     0
102
RTVSPost2010PropOp31
 70
     1
102
RTVSPost2010Prop32
280
     0
102
RTVSPost2010PropOp32
 70
     1
102
RTVSPost2010Prop33
280
     0
102
RTVSPost2010PropOp33
 70
     1
102
RTVSPost2010Prop34
280
     0
102
RTVSPost2010PropOp34
 70
     1
102
RTVSPost2010Prop35
280
     0
102
RTVSPost2010PropOp35
 70
     1
102
RTVSPost2010Prop36
280
     0
102
RTVSPost2010PropOp36
 70
     1
102
RTVSPost2010Prop37
 90
       50
102
RTVSPost2010PropOp37
 70
     1
102
RTVSPost2010Prop38
140
0.0
102
RTVSPost2010PropOp38
 70
     1
102
RTVSPost2010Prop39
140
1.0
102
RTVSPost2010PropOp39
 70
     1
102
RTVSPost2010Prop40
 90
        0
102
RTVSPost2010PropOp40
 70
     1
102
RTVSPost2010Prop41ColorIndex
 90
       18
102
RTVSPost2010Prop41ColorRGB
 90
        0
102
RTVSPost2010PropOp41
 70
     1
102
RTVSPost2010Prop42
 90
       50
102
RTVSPost2010PropOp42
 70
     1
102
RTVSPost2010Prop43
 90
        3
102
RTVSPost2010PropOp43
 70
     1
102
RTVSPost2010Prop44ColorIndex
 90
        5
102
RTVSPost2010Prop44ColorRGB
 90
      255
102
RTVSPost2010PropOp44
 70
     1
102
RTVSPost2010Prop45
280
     0
102
RTVSPost2010PropOp45
 70
     1
102
RTVSPost2010Prop46
 90
       50
102
RTVSPost2010PropOp46
 70
     1
102
RTVSPost2010Prop47
 90
       50
102
RTVSPost2010PropOp47
 70
     1
102
RTVSPost2010Prop48
 90
       50
102
RTVSPost2010PropOp48
 70
     1
102
RTVSPost2010Prop49
280
     0
102
RTVSPost2010PropOp49
 70
     1
102
RTVSPost2010Prop50
 90
       50
102
RTVSPost2010PropOp50
 70
     1
102
RTVSPost2010Prop51ColorIndex
 90
      256
102
RTVSPost2010Prop51ColorRGB
 90
-16777216
102
RTVSPost2010PropOp51
 70
     0
102
RTVSPost2010Prop52
140
1.0
102
RTVSPost2010PropOp52
 70
     0
102
RTVSPost2010Prop53
 90
        2
102
RTVSPost2010PropOp53
 70
     1
102
RTVSPost2010Prop54
  1
strokes_ogs.tif
102
RTVSPost2010PropOp54
 70
     1
102
RTVSPost2010Prop55
280
     0
102
RTVSPost2010PropOp55
 70
     1
102
RTVSPost2010Prop56
140
1.0
102
RTVSPost2010PropOp56
 70
     1
102
RTVSPost2010Prop57
140
1.0
102
RTVSPost2010PropOp57
 70
     1
102
RTVSPropertyOp0
 70
     1
102
RTVSPropertyOp1
 70
     1
102
RTVSPropertyOp2
 70
     1
102
RTVSPropertyOp3
 70
     1
102
RTVSPropertyOp4
 70
     1
102
RTVSPropertyOp5
 70
     1
102
RTVSPropertyOp6
 70
     1
102
RTVSPropertyOp7
 70
     1
102
RTVSPropertyOp8
 70
     1
102
RTVSPropertyOp9
 70
     1
102
RTVSPropertyOp10
 70
     1
102
RTVSPropertyOp11
 70
     1
102
RTVSPropertyOp12
 70
     1
102
RTVSPropertyOp13
 70
     1
102
RTVSPropertyOp14
 70
     1
102
RTVSPropertyOp15
 70
     1
102
RTVSPropertyOp16
 70
     1
102
RTVSPropertyOp17
 70
     1
102
RTVSPropertyOp18
 70
     1
102
RTVSPropertyOp19
 70
     1
102
RTVSPropertyOp20
 70
     1
102
RTVSPropertyOp21
 70
     1
102
RTVSPropertyOp22
 70
     1
102
RTVSPropertyOp23
 70
     1
102
RTVSPropertyOp24
 70
     1
102
RTVSPropertyOp25
 70
     1
102
RTVSPropertyOp26
 70
     1
102
RTVSPropertyOp27
 70
     1
102
RTVSPropertyOp28
 70
     1
102
RTVSPropertyOp29
 70
     1
102
RTVSPropertyOp30
 70
     1
102
RTVSPropertyOp31
 70
     1
102
RTVSPropertyOp32
 70
     1
102
RTVSPropertyOp33
 70
     1
102
RTVSPropertyOp34
 70
     1
102
RTVSPropertyOp35
 70
     1
102
RTVSPropertyOp36
 70
     1
102
RTVSPropertyOp37
 70
     1
102
RTVSPropertyOp38
 70
     1
102
RTVSPropertyOp39
 70
     1
102
RTVSPropertyOp40
 70
     1
102
RTVSPropertyOp41
 70
     1
102
RTVSPropertyOp42
 70
     1
102
RTVSPropertyOp43
 70
     1
102
RTVSPropertyOp44
 70
     1
102
RTVSPropertyOp45
 70
     1
102
RTVSPropertyOp46
 70
     1
102
RTVSPropertyOp47
 70
     1
102
RTVSPropertyOp48
 70
     1
102
RTVSPropertyOp49
 70
     1
102
RTVSPropertyOp50
 70
     1
102
RTVSPropertyOp51
 70
     0
102
RTVSPropertyOp52
 70
     0
102
RTVSPropertyOp53
 70
     1
102
RTVSPropertyOp54
 70
     1
102
RTVSPropertyOp55
 70
     1
102
RTVSPropertyOp56
 70
     1
102
RTVSPropertyOp57
 70
     1
102
RTVSPropertyOp58
 70
     1
102
RTVSPropertyOp59
 70
     1
102
RTVSPropertyOp60
 70
     1
102
RTVSPropertyOp61
 70
     1
102
RTVSPropertyOp62
 70
     1
  0
XRECORD
  5
7C17
102
{ACAD_REACTORS
330
7C16
102
}
330
7C16
100
AcDbXrecord
280
     1
102
RTVSPost2010Prop28
280
     0
102
RTVSPost2010PropOp28
 70
     1
102
RTVSPost2010Prop29
280
     1
102
RTVSPost2010PropOp29
 70
     1
102
RTVSPost2010Prop30
280
     1
102
RTVSPost2010PropOp30
 70
     1
102
RTVSPost2010Prop31
280
     0
102
RTVSPost2010PropOp31
 70
     1
102
RTVSPost2010Prop32
280
     0
102
RTVSPost2010PropOp32
 70
     1
102
RTVSPost2010Prop33
280
     0
102
RTVSPost2010PropOp33
 70
     1
102
RTVSPost2010Prop34
280
     0
102
RTVSPost2010PropOp34
 70
     1
102
RTVSPost2010Prop35
280
     0
102
RTVSPost2010PropOp35
 70
     1
102
RTVSPost2010Prop36
280
     0
102
RTVSPost2010PropOp36
 70
     1
102
RTVSPost2010Prop37
 90
       50
102
RTVSPost2010PropOp37
 70
     1
102
RTVSPost2010Prop38
140
0.0
102
RTVSPost2010PropOp38
 70
     1
102
RTVSPost2010Prop39
140
1.0
102
RTVSPost2010PropOp39
 70
     1
102
RTVSPost2010Prop40
 90
        0
102
RTVSPost2010PropOp40
 70
     1
102
RTVSPost2010Prop41ColorIndex
 90
       18
102
RTVSPost2010Prop41ColorRGB
 90
        0
102
RTVSPost2010PropOp41
 70
     1
102
RTVSPost2010Prop42
 90
       50
102
RTVSPost2010PropOp42
 70
     1
102
RTVSPost2010Prop43
 90
        3
102
RTVSPost2010PropOp43
 70
     1
102
RTVSPost2010Prop44ColorIndex
 90
        5
102
RTVSPost2010Prop44ColorRGB
 90
      255
102
RTVSPost2010PropOp44
 70
     1
102
RTVSPost2010Prop45
280
     0
102
RTVSPost2010PropOp45
 70
     1
102
RTVSPost2010Prop46
 90
       50
102
RTVSPost2010PropOp46
 70
     1
102
RTVSPost2010Prop47
 90
       50
102
RTVSPost2010PropOp47
 70
     1
102
RTVSPost2010Prop48
 90
       50
102
RTVSPost2010PropOp48
 70
     1
102
RTVSPost2010Prop49
280
     0
102
RTVSPost2010PropOp49
 70
     1
102
RTVSPost2010Prop50
 90
       50
102
RTVSPost2010PropOp50
 70
     1
102
RTVSPost2010Prop51ColorIndex
 90
      256
102
RTVSPost2010Prop51ColorRGB
 90
-16777216
102
RTVSPost2010PropOp51
 70
     0
102
RTVSPost2010Prop52
140
1.0
102
RTVSPost2010PropOp52
 70
     0
102
RTVSPost2010Prop53
 90
        2
102
RTVSPost2010PropOp53
 70
     1
102
RTVSPost2010Prop54
  1
strokes_ogs.tif
102
RTVSPost2010PropOp54
 70
     1
102
RTVSPost2010Prop55
280
     0
102
RTVSPost2010PropOp55
 70
     1
102
RTVSPost2010Prop56
140
1.0
102
RTVSPost2010PropOp56
 70
     1
102
RTVSPost2010Prop57
140
1.0
102
RTVSPost2010PropOp57
 70
     1
102
RTVSPropertyOp0
 70
     1
102
RTVSPropertyOp1
 70
     1
102
RTVSPropertyOp2
 70
     1
102
RTVSPropertyOp3
 70
     1
102
RTVSPropertyOp4
 70
     1
102
RTVSPropertyOp5
 70
     1
102
RTVSPropertyOp6
 70
     1
102
RTVSPropertyOp7
 70
     1
102
RTVSPropertyOp8
 70
     1
102
RTVSPropertyOp9
 70
     1
102
RTVSPropertyOp10
 70
     1
102
RTVSPropertyOp11
 70
     1
102
RTVSPropertyOp12
 70
     1
102
RTVSPropertyOp13
 70
     1
102
RTVSPropertyOp14
 70
     1
102
RTVSPropertyOp15
 70
     1
102
RTVSPropertyOp16
 70
     1
102
RTVSPropertyOp17
 70
     1
102
RTVSPropertyOp18
 70
     1
102
RTVSPropertyOp19
 70
     1
102
RTVSPropertyOp20
 70
     1
102
RTVSPropertyOp21
 70
     1
102
RTVSPropertyOp22
 70
     1
102
RTVSPropertyOp23
 70
     1
102
RTVSPropertyOp24
 70
     1
102
RTVSPropertyOp25
 70
     1
102
RTVSPropertyOp26
 70
     1
102
RTVSPropertyOp27
 70
     1
102
RTVSPropertyOp28
 70
     1
102
RTVSPropertyOp29
 70
     1
102
RTVSPropertyOp30
 70
     1
102
RTVSPropertyOp31
 70
     1
102
RTVSPropertyOp32
 70
     1
102
RTVSPropertyOp33
 70
     1
102
RTVSPropertyOp34
 70
     1
102
RTVSPropertyOp35
 70
     1
102
RTVSPropertyOp36
 70
     1
102
RTVSPropertyOp37
 70
     1
102
RTVSPropertyOp38
 70
     1
102
RTVSPropertyOp39
 70
     1
102
RTVSPropertyOp40
 70
     1
102
RTVSPropertyOp41
 70
     1
102
RTVSPropertyOp42
 70
     1
102
RTVSPropertyOp43
 70
     1
102
RTVSPropertyOp44
 70
     1
102
RTVSPropertyOp45
 70
     1
102
RTVSPropertyOp46
 70
     1
102
RTVSPropertyOp47
 70
     1
102
RTVSPropertyOp48
 70
     1
102
RTVSPropertyOp49
 70
     1
102
RTVSPropertyOp50
 70
     1
102
RTVSPropertyOp51
 70
     0
102
RTVSPropertyOp52
 70
     0
102
RTVSPropertyOp53
 70
     1
102
RTVSPropertyOp54
 70
     1
102
RTVSPropertyOp55
 70
     1
102
RTVSPropertyOp56
 70
     1
102
RTVSPropertyOp57
 70
     1
102
RTVSPropertyOp58
 70
     1
102
RTVSPropertyOp59
 70
     1
102
RTVSPropertyOp60
 70
     1
102
RTVSPropertyOp61
 70
     1
102
RTVSPropertyOp62
 70
     1
  0
XRECORD
  5
7C1F
102
{ACAD_REACTORS
330
7C1E
102
}
330
7C1E
100
AcDbXrecord
280
     1
102
RTVSPost2010Prop28
280
     0
102
RTVSPost2010PropOp28
 70
     1
102
RTVSPost2010Prop29
280
     1
102
RTVSPost2010PropOp29
 70
     1
102
RTVSPost2010Prop30
280
     1
102
RTVSPost2010PropOp30
 70
     1
102
RTVSPost2010Prop31
280
     0
102
RTVSPost2010PropOp31
 70
     1
102
RTVSPost2010Prop32
280
     0
102
RTVSPost2010PropOp32
 70
     1
102
RTVSPost2010Prop33
280
     0
102
RTVSPost2010PropOp33
 70
     1
102
RTVSPost2010Prop34
280
     0
102
RTVSPost2010PropOp34
 70
     1
102
RTVSPost2010Prop35
280
     0
102
RTVSPost2010PropOp35
 70
     1
102
RTVSPost2010Prop36
280
     0
102
RTVSPost2010PropOp36
 70
     1
102
RTVSPost2010Prop37
 90
       50
102
RTVSPost2010PropOp37
 70
     1
102
RTVSPost2010Prop38
140
0.0
102
RTVSPost2010PropOp38
 70
     1
102
RTVSPost2010Prop39
140
1.0
102
RTVSPost2010PropOp39
 70
     1
102
RTVSPost2010Prop40
 90
        0
102
RTVSPost2010PropOp40
 70
     1
102
RTVSPost2010Prop41ColorIndex
 90
       18
102
RTVSPost2010Prop41ColorRGB
 90
        0
102
RTVSPost2010PropOp41
 70
     1
102
RTVSPost2010Prop42
 90
       50
102
RTVSPost2010PropOp42
 70
     1
102
RTVSPost2010Prop43
 90
        3
102
RTVSPost2010PropOp43
 70
     1
102
RTVSPost2010Prop44ColorIndex
 90
        5
102
RTVSPost2010Prop44ColorRGB
 90
      255
102
RTVSPost2010PropOp44
 70
     1
102
RTVSPost2010Prop45
280
     0
102
RTVSPost2010PropOp45
 70
     1
102
RTVSPost2010Prop46
 90
       50
102
RTVSPost2010PropOp46
 70
     1
102
RTVSPost2010Prop47
 90
       50
102
RTVSPost2010PropOp47
 70
     1
102
RTVSPost2010Prop48
 90
       50
102
RTVSPost2010PropOp48
 70
     1
102
RTVSPost2010Prop49
280
     0
102
RTVSPost2010PropOp49
 70
     1
102
RTVSPost2010Prop50
 90
       50
102
RTVSPost2010PropOp50
 70
     1
102
RTVSPost2010Prop51ColorIndex
 90
      256
102
RTVSPost2010Prop51ColorRGB
 90
-16777216
102
RTVSPost2010PropOp51
 70
     0
102
RTVSPost2010Prop52
140
1.0
102
RTVSPost2010PropOp52
 70
     0
102
RTVSPost2010Prop53
 90
        2
102
RTVSPost2010PropOp53
 70
     1
102
RTVSPost2010Prop54
  1
strokes_ogs.tif
102
RTVSPost2010PropOp54
 70
     1
102
RTVSPost2010Prop55
280
     0
102
RTVSPost2010PropOp55
 70
     1
102
RTVSPost2010Prop56
140
1.0
102
RTVSPost2010PropOp56
 70
     1
102
RTVSPost2010Prop57
140
1.0
102
RTVSPost2010PropOp57
 70
     1
102
RTVSPropertyOp0
 70
     1
102
RTVSPropertyOp1
 70
     1
102
RTVSPropertyOp2
 70
     1
102
RTVSPropertyOp3
 70
     1
102
RTVSPropertyOp4
 70
     1
102
RTVSPropertyOp5
 70
     1
102
RTVSPropertyOp6
 70
     1
102
RTVSPropertyOp7
 70
     1
102
RTVSPropertyOp8
 70
     1
102
RTVSPropertyOp9
 70
     1
102
RTVSPropertyOp10
 70
     1
102
RTVSPropertyOp11
 70
     1
102
RTVSPropertyOp12
 70
     1
102
RTVSPropertyOp13
 70
     1
102
RTVSPropertyOp14
 70
     1
102
RTVSPropertyOp15
 70
     1
102
RTVSPropertyOp16
 70
     1
102
RTVSPropertyOp17
 70
     1
102
RTVSPropertyOp18
 70
     1
102
RTVSPropertyOp19
 70
     1
102
RTVSPropertyOp20
 70
     1
102
RTVSPropertyOp21
 70
     1
102
RTVSPropertyOp22
 70
     1
102
RTVSPropertyOp23
 70
     1
102
RTVSPropertyOp24
 70
     1
102
RTVSPropertyOp25
 70
     1
102
RTVSPropertyOp26
 70
     1
102
RTVSPropertyOp27
 70
     1
102
RTVSPropertyOp28
 70
     1
102
RTVSPropertyOp29
 70
     1
102
RTVSPropertyOp30
 70
     1
102
RTVSPropertyOp31
 70
     1
102
RTVSPropertyOp32
 70
     1
102
RTVSPropertyOp33
 70
     1
102
RTVSPropertyOp34
 70
     1
102
RTVSPropertyOp35
 70
     1
102
RTVSPropertyOp36
 70
     1
102
RTVSPropertyOp37
 70
     1
102
RTVSPropertyOp38
 70
     1
102
RTVSPropertyOp39
 70
     1
102
RTVSPropertyOp40
 70
     1
102
RTVSPropertyOp41
 70
     1
102
RTVSPropertyOp42
 70
     1
102
RTVSPropertyOp43
 70
     1
102
RTVSPropertyOp44
 70
     1
102
RTVSPropertyOp45
 70
     1
102
RTVSPropertyOp46
 70
     1
102
RTVSPropertyOp47
 70
     1
102
RTVSPropertyOp48
 70
     1
102
RTVSPropertyOp49
 70
     1
102
RTVSPropertyOp50
 70
     1
102
RTVSPropertyOp51
 70
     0
102
RTVSPropertyOp52
 70
     0
102
RTVSPropertyOp53
 70
     1
102
RTVSPropertyOp54
 70
     1
102
RTVSPropertyOp55
 70
     1
102
RTVSPropertyOp56
 70
     1
102
RTVSPropertyOp57
 70
     1
102
RTVSPropertyOp58
 70
     1
102
RTVSPropertyOp59
 70
     1
102
RTVSPropertyOp60
 70
     1
102
RTVSPropertyOp61
 70
     1
102
RTVSPropertyOp62
 70
     1
  0
XRECORD
  5
7C33
102
{ACAD_REACTORS
330
7C32
102
}
330
7C32
100
AcDbXrecord
280
     1
102
RTVSPost2010Prop28
280
     0
102
RTVSPost2010PropOp28
 70
     1
102
RTVSPost2010Prop29
280
     1
102
RTVSPost2010PropOp29
 70
     1
102
RTVSPost2010Prop30
280
     1
102
RTVSPost2010PropOp30
 70
     1
102
RTVSPost2010Prop31
280
     0
102
RTVSPost2010PropOp31
 70
     1
102
RTVSPost2010Prop32
280
     0
102
RTVSPost2010PropOp32
 70
     1
102
RTVSPost2010Prop33
280
     0
102
RTVSPost2010PropOp33
 70
     1
102
RTVSPost2010Prop34
280
     0
102
RTVSPost2010PropOp34
 70
     1
102
RTVSPost2010Prop35
280
     0
102
RTVSPost2010PropOp35
 70
     1
102
RTVSPost2010Prop36
280
     0
102
RTVSPost2010PropOp36
 70
     1
102
RTVSPost2010Prop37
 90
       50
102
RTVSPost2010PropOp37
 70
     1
102
RTVSPost2010Prop38
140
0.0
102
RTVSPost2010PropOp38
 70
     1
102
RTVSPost2010Prop39
140
1.0
102
RTVSPost2010PropOp39
 70
     1
102
RTVSPost2010Prop40
 90
        0
102
RTVSPost2010PropOp40
 70
     1
102
RTVSPost2010Prop41ColorIndex
 90
       18
102
RTVSPost2010Prop41ColorRGB
 90
        0
102
RTVSPost2010PropOp41
 70
     1
102
RTVSPost2010Prop42
 90
       50
102
RTVSPost2010PropOp42
 70
     1
102
RTVSPost2010Prop43
 90
        3
102
RTVSPost2010PropOp43
 70
     1
102
RTVSPost2010Prop44ColorIndex
 90
        5
102
RTVSPost2010Prop44ColorRGB
 90
      255
102
RTVSPost2010PropOp44
 70
     1
102
RTVSPost2010Prop45
280
     0
102
RTVSPost2010PropOp45
 70
     1
102
RTVSPost2010Prop46
 90
       50
102
RTVSPost2010PropOp46
 70
     1
102
RTVSPost2010Prop47
 90
       50
102
RTVSPost2010PropOp47
 70
     1
102
RTVSPost2010Prop48
 90
       50
102
RTVSPost2010PropOp48
 70
     1
102
RTVSPost2010Prop49
280
     0
102
RTVSPost2010PropOp49
 70
     1
102
RTVSPost2010Prop50
 90
       50
102
RTVSPost2010PropOp50
 70
     1
102
RTVSPost2010Prop51ColorIndex
 90
      256
102
RTVSPost2010Prop51ColorRGB
 90
-16777216
102
RTVSPost2010PropOp51
 70
     0
102
RTVSPost2010Prop52
140
1.0
102
RTVSPost2010PropOp52
 70
     0
102
RTVSPost2010Prop53
 90
        2
102
RTVSPost2010PropOp53
 70
     1
102
RTVSPost2010Prop54
  1
strokes_ogs.tif
102
RTVSPost2010PropOp54
 70
     1
102
RTVSPost2010Prop55
280
     0
102
RTVSPost2010PropOp55
 70
     1
102
RTVSPost2010Prop56
140
1.0
102
RTVSPost2010PropOp56
 70
     1
102
RTVSPost2010Prop57
140
1.0
102
RTVSPost2010PropOp57
 70
     1
102
RTVSPropertyOp0
 70
     0
102
RTVSPropertyOp1
 70
     0
102
RTVSPropertyOp2
 70
     0
102
RTVSPropertyOp3
 70
     0
102
RTVSPropertyOp4
 70
     0
102
RTVSPropertyOp5
 70
     0
102
RTVSPropertyOp6
 70
     0
102
RTVSPropertyOp7
 70
     0
102
RTVSPropertyOp8
 70
     0
102
RTVSPropertyOp9
 70
     0
102
RTVSPropertyOp10
 70
     0
102
RTVSPropertyOp11
 70
     0
102
RTVSPropertyOp12
 70
     0
102
RTVSPropertyOp13
 70
     0
102
RTVSPropertyOp14
 70
     2
102
RTVSPropertyOp15
 70
     0
102
RTVSPropertyOp16
 70
     0
102
RTVSPropertyOp17
 70
     0
102
RTVSPropertyOp18
 70
     0
102
RTVSPropertyOp19
 70
     0
102
RTVSPropertyOp20
 70
     0
102
RTVSPropertyOp21
 70
     0
102
RTVSPropertyOp22
 70
     0
102
RTVSPropertyOp23
 70
     0
102
RTVSPropertyOp24
 70
     0
102
RTVSPropertyOp25
 70
     0
102
RTVSPropertyOp26
 70
     0
102
RTVSPropertyOp27
 70
     0
102
RTVSPropertyOp28
 70
     1
102
RTVSPropertyOp29
 70
     1
102
RTVSPropertyOp30
 70
     1
102
RTVSPropertyOp31
 70
     1
102
RTVSPropertyOp32
 70
     1
102
RTVSPropertyOp33
 70
     1
102
RTVSPropertyOp34
 70
     1
102
RTVSPropertyOp35
 70
     1
102
RTVSPropertyOp36
 70
     1
102
RTVSPropertyOp37
 70
     1
102
RTVSPropertyOp38
 70
     1
102
RTVSPropertyOp39
 70
     1
102
RTVSPropertyOp40
 70
     1
102
RTVSPropertyOp41
 70
     1
102
RTVSPropertyOp42
 70
     1
102
RTVSPropertyOp43
 70
     1
102
RTVSPropertyOp44
 70
     1
102
RTVSPropertyOp45
 70
     1
102
RTVSPropertyOp46
 70
     1
102
RTVSPropertyOp47
 70
     1
102
RTVSPropertyOp48
 70
     1
102
RTVSPropertyOp49
 70
     1
102
RTVSPropertyOp50
 70
     1
102
RTVSPropertyOp51
 70
     0
102
RTVSPropertyOp52
 70
     0
102
RTVSPropertyOp53
 70
     1
102
RTVSPropertyOp54
 70
     1
102
RTVSPropertyOp55
 70
     1
102
RTVSPropertyOp56
 70
     1
102
RTVSPropertyOp57
 70
     1
102
RTVSPropertyOp58
 70
     1
102
RTVSPropertyOp59
 70
     1
102
RTVSPropertyOp60
 70
     1
102
RTVSPropertyOp61
 70
     1
102
RTVSPropertyOp62
 70
     1
  0
XRECORD
  5
7C2B
102
{ACAD_REACTORS
330
7C2A
102
}
330
7C2A
100
AcDbXrecord
280
     1
102
RTVSPost2010Prop28
280
     0
102
RTVSPost2010PropOp28
 70
     1
102
RTVSPost2010Prop29
280
     1
102
RTVSPost2010PropOp29
 70
     1
102
RTVSPost2010Prop30
280
     1
102
RTVSPost2010PropOp30
 70
     1
102
RTVSPost2010Prop31
280
     0
102
RTVSPost2010PropOp31
 70
     1
102
RTVSPost2010Prop32
280
     0
102
RTVSPost2010PropOp32
 70
     1
102
RTVSPost2010Prop33
280
     0
102
RTVSPost2010PropOp33
 70
     1
102
RTVSPost2010Prop34
280
     0
102
RTVSPost2010PropOp34
 70
     1
102
RTVSPost2010Prop35
280
     0
102
RTVSPost2010PropOp35
 70
     1
102
RTVSPost2010Prop36
280
     0
102
RTVSPost2010PropOp36
 70
     1
102
RTVSPost2010Prop37
 90
       50
102
RTVSPost2010PropOp37
 70
     1
102
RTVSPost2010Prop38
140
0.0
102
RTVSPost2010PropOp38
 70
     1
102
RTVSPost2010Prop39
140
1.0
102
RTVSPost2010PropOp39
 70
     1
102
RTVSPost2010Prop40
 90
        0
102
RTVSPost2010PropOp40
 70
     1
102
RTVSPost2010Prop41ColorIndex
 90
       18
102
RTVSPost2010Prop41ColorRGB
 90
        0
102
RTVSPost2010PropOp41
 70
     1
102
RTVSPost2010Prop42
 90
       50
102
RTVSPost2010PropOp42
 70
     1
102
RTVSPost2010Prop43
 90
        3
102
RTVSPost2010PropOp43
 70
     1
102
RTVSPost2010Prop44ColorIndex
 90
        5
102
RTVSPost2010Prop44ColorRGB
 90
      255
102
RTVSPost2010PropOp44
 70
     1
102
RTVSPost2010Prop45
280
     0
102
RTVSPost2010PropOp45
 70
     1
102
RTVSPost2010Prop46
 90
       50
102
RTVSPost2010PropOp46
 70
     1
102
RTVSPost2010Prop47
 90
       50
102
RTVSPost2010PropOp47
 70
     1
102
RTVSPost2010Prop48
 90
       50
102
RTVSPost2010PropOp48
 70
     1
102
RTVSPost2010Prop49
280
     0
102
RTVSPost2010PropOp49
 70
     1
102
RTVSPost2010Prop50
 90
       50
102
RTVSPost2010PropOp50
 70
     1
102
RTVSPost2010Prop51ColorIndex
 90
      256
102
RTVSPost2010Prop51ColorRGB
 90
-16777216
102
RTVSPost2010PropOp51
 70
     0
102
RTVSPost2010Prop52
140
1.0
102
RTVSPost2010PropOp52
 70
     0
102
RTVSPost2010Prop53
 90
        2
102
RTVSPost2010PropOp53
 70
     1
102
RTVSPost2010Prop54
  1
strokes_ogs.tif
102
RTVSPost2010PropOp54
 70
     1
102
RTVSPost2010Prop55
280
     0
102
RTVSPost2010PropOp55
 70
     1
102
RTVSPost2010Prop56
140
1.0
102
RTVSPost2010PropOp56
 70
     1
102
RTVSPost2010Prop57
140
1.0
102
RTVSPost2010PropOp57
 70
     1
102
RTVSPropertyOp0
 70
     1
102
RTVSPropertyOp1
 70
     1
102
RTVSPropertyOp2
 70
     1
102
RTVSPropertyOp3
 70
     1
102
RTVSPropertyOp4
 70
     1
102
RTVSPropertyOp5
 70
     1
102
RTVSPropertyOp6
 70
     1
102
RTVSPropertyOp7
 70
     1
102
RTVSPropertyOp8
 70
     1
102
RTVSPropertyOp9
 70
     1
102
RTVSPropertyOp10
 70
     1
102
RTVSPropertyOp11
 70
     1
102
RTVSPropertyOp12
 70
     1
102
RTVSPropertyOp13
 70
     1
102
RTVSPropertyOp14
 70
     1
102
RTVSPropertyOp15
 70
     1
102
RTVSPropertyOp16
 70
     1
102
RTVSPropertyOp17
 70
     1
102
RTVSPropertyOp18
 70
     1
102
RTVSPropertyOp19
 70
     1
102
RTVSPropertyOp20
 70
     1
102
RTVSPropertyOp21
 70
     1
102
RTVSPropertyOp22
 70
     1
102
RTVSPropertyOp23
 70
     1
102
RTVSPropertyOp24
 70
     1
102
RTVSPropertyOp25
 70
     1
102
RTVSPropertyOp26
 70
     1
102
RTVSPropertyOp27
 70
     1
102
RTVSPropertyOp28
 70
     1
102
RTVSPropertyOp29
 70
     1
102
RTVSPropertyOp30
 70
     1
102
RTVSPropertyOp31
 70
     1
102
RTVSPropertyOp32
 70
     1
102
RTVSPropertyOp33
 70
     1
102
RTVSPropertyOp34
 70
     1
102
RTVSPropertyOp35
 70
     1
102
RTVSPropertyOp36
 70
     1
102
RTVSPropertyOp37
 70
     1
102
RTVSPropertyOp38
 70
     1
102
RTVSPropertyOp39
 70
     1
102
RTVSPropertyOp40
 70
     1
102
RTVSPropertyOp41
 70
     1
102
RTVSPropertyOp42
 70
     1
102
RTVSPropertyOp43
 70
     1
102
RTVSPropertyOp44
 70
     1
102
RTVSPropertyOp45
 70
     1
102
RTVSPropertyOp46
 70
     1
102
RTVSPropertyOp47
 70
     1
102
RTVSPropertyOp48
 70
     1
102
RTVSPropertyOp49
 70
     1
102
RTVSPropertyOp50
 70
     1
102
RTVSPropertyOp51
 70
     0
102
RTVSPropertyOp52
 70
     0
102
RTVSPropertyOp53
 70
     1
102
RTVSPropertyOp54
 70
     1
102
RTVSPropertyOp55
 70
     1
102
RTVSPropertyOp56
 70
     1
102
RTVSPropertyOp57
 70
     1
102
RTVSPropertyOp58
 70
     1
102
RTVSPropertyOp59
 70
     1
102
RTVSPropertyOp60
 70
     1
102
RTVSPropertyOp61
 70
     1
102
RTVSPropertyOp62
 70
     1
  0
XRECORD
  5
7C35
102
{ACAD_REACTORS
330
7C34
102
}
330
7C34
100
AcDbXrecord
280
     1
102
RTVSPost2010Prop28
280
     0
102
RTVSPost2010PropOp28
 70
     1
102
RTVSPost2010Prop29
280
     1
102
RTVSPost2010PropOp29
 70
     1
102
RTVSPost2010Prop30
280
     1
102
RTVSPost2010PropOp30
 70
     1
102
RTVSPost2010Prop31
280
     0
102
RTVSPost2010PropOp31
 70
     1
102
RTVSPost2010Prop32
280
     0
102
RTVSPost2010PropOp32
 70
     1
102
RTVSPost2010Prop33
280
     0
102
RTVSPost2010PropOp33
 70
     1
102
RTVSPost2010Prop34
280
     0
102
RTVSPost2010PropOp34
 70
     1
102
RTVSPost2010Prop35
280
     0
102
RTVSPost2010PropOp35
 70
     1
102
RTVSPost2010Prop36
280
     0
102
RTVSPost2010PropOp36
 70
     1
102
RTVSPost2010Prop37
 90
       50
102
RTVSPost2010PropOp37
 70
     1
102
RTVSPost2010Prop38
140
0.0
102
RTVSPost2010PropOp38
 70
     1
102
RTVSPost2010Prop39
140
1.0
102
RTVSPost2010PropOp39
 70
     1
102
RTVSPost2010Prop40
 90
        0
102
RTVSPost2010PropOp40
 70
     1
102
RTVSPost2010Prop41ColorIndex
 90
       18
102
RTVSPost2010Prop41ColorRGB
 90
        0
102
RTVSPost2010PropOp41
 70
     1
102
RTVSPost2010Prop42
 90
       50
102
RTVSPost2010PropOp42
 70
     1
102
RTVSPost2010Prop43
 90
        3
102
RTVSPost2010PropOp43
 70
     1
102
RTVSPost2010Prop44ColorIndex
 90
        5
102
RTVSPost2010Prop44ColorRGB
 90
      255
102
RTVSPost2010PropOp44
 70
     1
102
RTVSPost2010Prop45
280
     0
102
RTVSPost2010PropOp45
 70
     1
102
RTVSPost2010Prop46
 90
       50
102
RTVSPost2010PropOp46
 70
     1
102
RTVSPost2010Prop47
 90
       50
102
RTVSPost2010PropOp47
 70
     1
102
RTVSPost2010Prop48
 90
       50
102
RTVSPost2010PropOp48
 70
     1
102
RTVSPost2010Prop49
280
     0
102
RTVSPost2010PropOp49
 70
     1
102
RTVSPost2010Prop50
 90
       50
102
RTVSPost2010PropOp50
 70
     1
102
RTVSPost2010Prop51ColorIndex
 90
      256
102
RTVSPost2010Prop51ColorRGB
 90
-16777216
102
RTVSPost2010PropOp51
 70
     0
102
RTVSPost2010Prop52
140
1.0
102
RTVSPost2010PropOp52
 70
     0
102
RTVSPost2010Prop53
 90
        2
102
RTVSPost2010PropOp53
 70
     1
102
RTVSPost2010Prop54
  1
strokes_ogs.tif
102
RTVSPost2010PropOp54
 70
     1
102
RTVSPost2010Prop55
280
     0
102
RTVSPost2010PropOp55
 70
     1
102
RTVSPost2010Prop56
140
1.0
102
RTVSPost2010PropOp56
 70
     1
102
RTVSPost2010Prop57
140
1.0
102
RTVSPost2010PropOp57
 70
     1
102
RTVSPropertyOp0
 70
     0
102
RTVSPropertyOp1
 70
     0
102
RTVSPropertyOp2
 70
     0
102
RTVSPropertyOp3
 70
     0
102
RTVSPropertyOp4
 70
     0
102
RTVSPropertyOp5
 70
     0
102
RTVSPropertyOp6
 70
     0
102
RTVSPropertyOp7
 70
     0
102
RTVSPropertyOp8
 70
     0
102
RTVSPropertyOp9
 70
     0
102
RTVSPropertyOp10
 70
     0
102
RTVSPropertyOp11
 70
     0
102
RTVSPropertyOp12
 70
     0
102
RTVSPropertyOp13
 70
     0
102
RTVSPropertyOp14
 70
     2
102
RTVSPropertyOp15
 70
     0
102
RTVSPropertyOp16
 70
     0
102
RTVSPropertyOp17
 70
     0
102
RTVSPropertyOp18
 70
     0
102
RTVSPropertyOp19
 70
     0
102
RTVSPropertyOp20
 70
     0
102
RTVSPropertyOp21
 70
     0
102
RTVSPropertyOp22
 70
     0
102
RTVSPropertyOp23
 70
     0
102
RTVSPropertyOp24
 70
     0
102
RTVSPropertyOp25
 70
     0
102
RTVSPropertyOp26
 70
     0
102
RTVSPropertyOp27
 70
     0
102
RTVSPropertyOp28
 70
     1
102
RTVSPropertyOp29
 70
     1
102
RTVSPropertyOp30
 70
     1
102
RTVSPropertyOp31
 70
     1
102
RTVSPropertyOp32
 70
     1
102
RTVSPropertyOp33
 70
     1
102
RTVSPropertyOp34
 70
     1
102
RTVSPropertyOp35
 70
     1
102
RTVSPropertyOp36
 70
     1
102
RTVSPropertyOp37
 70
     1
102
RTVSPropertyOp38
 70
     1
102
RTVSPropertyOp39
 70
     1
102
RTVSPropertyOp40
 70
     1
102
RTVSPropertyOp41
 70
     1
102
RTVSPropertyOp42
 70
     1
102
RTVSPropertyOp43
 70
     1
102
RTVSPropertyOp44
 70
     1
102
RTVSPropertyOp45
 70
     1
102
RTVSPropertyOp46
 70
     1
102
RTVSPropertyOp47
 70
     1
102
RTVSPropertyOp48
 70
     1
102
RTVSPropertyOp49
 70
     1
102
RTVSPropertyOp50
 70
     1
102
RTVSPropertyOp51
 70
     0
102
RTVSPropertyOp52
 70
     0
102
RTVSPropertyOp53
 70
     1
102
RTVSPropertyOp54
 70
     1
102
RTVSPropertyOp55
 70
     1
102
RTVSPropertyOp56
 70
     1
102
RTVSPropertyOp57
 70
     1
102
RTVSPropertyOp58
 70
     1
102
RTVSPropertyOp59
 70
     1
102
RTVSPropertyOp60
 70
     1
102
RTVSPropertyOp61
 70
     1
102
RTVSPropertyOp62
 70
     1
  0
XRECORD
  5
7C23
102
{ACAD_REACTORS
330
7C22
102
}
330
7C22
100
AcDbXrecord
280
     1
102
RTVSPost2010Prop28
280
     0
102
RTVSPost2010PropOp28
 70
     1
102
RTVSPost2010Prop29
280
     1
102
RTVSPost2010PropOp29
 70
     1
102
RTVSPost2010Prop30
280
     1
102
RTVSPost2010PropOp30
 70
     1
102
RTVSPost2010Prop31
280
     0
102
RTVSPost2010PropOp31
 70
     1
102
RTVSPost2010Prop32
280
     0
102
RTVSPost2010PropOp32
 70
     1
102
RTVSPost2010Prop33
280
     0
102
RTVSPost2010PropOp33
 70
     1
102
RTVSPost2010Prop34
280
     0
102
RTVSPost2010PropOp34
 70
     1
102
RTVSPost2010Prop35
280
     0
102
RTVSPost2010PropOp35
 70
     1
102
RTVSPost2010Prop36
280
     0
102
RTVSPost2010PropOp36
 70
     1
102
RTVSPost2010Prop37
 90
       50
102
RTVSPost2010PropOp37
 70
     1
102
RTVSPost2010Prop38
140
0.0
102
RTVSPost2010PropOp38
 70
     1
102
RTVSPost2010Prop39
140
1.0
102
RTVSPost2010PropOp39
 70
     1
102
RTVSPost2010Prop40
 90
        0
102
RTVSPost2010PropOp40
 70
     1
102
RTVSPost2010Prop41ColorIndex
 90
       18
102
RTVSPost2010Prop41ColorRGB
 90
        0
102
RTVSPost2010PropOp41
 70
     1
102
RTVSPost2010Prop42
 90
       50
102
RTVSPost2010PropOp42
 70
     1
102
RTVSPost2010Prop43
 90
        3
102
RTVSPost2010PropOp43
 70
     1
102
RTVSPost2010Prop44ColorIndex
 90
        5
102
RTVSPost2010Prop44ColorRGB
 90
      255
102
RTVSPost2010PropOp44
 70
     1
102
RTVSPost2010Prop45
280
     0
102
RTVSPost2010PropOp45
 70
     1
102
RTVSPost2010Prop46
 90
       50
102
RTVSPost2010PropOp46
 70
     1
102
RTVSPost2010Prop47
 90
       50
102
RTVSPost2010PropOp47
 70
     1
102
RTVSPost2010Prop48
 90
       50
102
RTVSPost2010PropOp48
 70
     1
102
RTVSPost2010Prop49
280
     0
102
RTVSPost2010PropOp49
 70
     1
102
RTVSPost2010Prop50
 90
       50
102
RTVSPost2010PropOp50
 70
     1
102
RTVSPost2010Prop51ColorIndex
 90
      256
102
RTVSPost2010Prop51ColorRGB
 90
-16777216
102
RTVSPost2010PropOp51
 70
     0
102
RTVSPost2010Prop52
140
1.0
102
RTVSPost2010PropOp52
 70
     0
102
RTVSPost2010Prop53
 90
        2
102
RTVSPost2010PropOp53
 70
     1
102
RTVSPost2010Prop54
  1
strokes_ogs.tif
102
RTVSPost2010PropOp54
 70
     1
102
RTVSPost2010Prop55
280
     0
102
RTVSPost2010PropOp55
 70
     1
102
RTVSPost2010Prop56
140
1.0
102
RTVSPost2010PropOp56
 70
     1
102
RTVSPost2010Prop57
140
1.0
102
RTVSPost2010PropOp57
 70
     1
102
RTVSPropertyOp0
 70
     1
102
RTVSPropertyOp1
 70
     1
102
RTVSPropertyOp2
 70
     1
102
RTVSPropertyOp3
 70
     1
102
RTVSPropertyOp4
 70
     1
102
RTVSPropertyOp5
 70
     1
102
RTVSPropertyOp6
 70
     1
102
RTVSPropertyOp7
 70
     1
102
RTVSPropertyOp8
 70
     1
102
RTVSPropertyOp9
 70
     1
102
RTVSPropertyOp10
 70
     1
102
RTVSPropertyOp11
 70
     1
102
RTVSPropertyOp12
 70
     1
102
RTVSPropertyOp13
 70
     1
102
RTVSPropertyOp14
 70
     1
102
RTVSPropertyOp15
 70
     1
102
RTVSPropertyOp16
 70
     1
102
RTVSPropertyOp17
 70
     1
102
RTVSPropertyOp18
 70
     1
102
RTVSPropertyOp19
 70
     1
102
RTVSPropertyOp20
 70
     1
102
RTVSPropertyOp21
 70
     1
102
RTVSPropertyOp22
 70
     1
102
RTVSPropertyOp23
 70
     1
102
RTVSPropertyOp24
 70
     1
102
RTVSPropertyOp25
 70
     1
102
RTVSPropertyOp26
 70
     1
102
RTVSPropertyOp27
 70
     1
102
RTVSPropertyOp28
 70
     1
102
RTVSPropertyOp29
 70
     1
102
RTVSPropertyOp30
 70
     1
102
RTVSPropertyOp31
 70
     1
102
RTVSPropertyOp32
 70
     1
102
RTVSPropertyOp33
 70
     1
102
RTVSPropertyOp34
 70
     1
102
RTVSPropertyOp35
 70
     1
102
RTVSPropertyOp36
 70
     1
102
RTVSPropertyOp37
 70
     1
102
RTVSPropertyOp38
 70
     1
102
RTVSPropertyOp39
 70
     1
102
RTVSPropertyOp40
 70
     1
102
RTVSPropertyOp41
 70
     1
102
RTVSPropertyOp42
 70
     1
102
RTVSPropertyOp43
 70
     1
102
RTVSPropertyOp44
 70
     1
102
RTVSPropertyOp45
 70
     1
102
RTVSPropertyOp46
 70
     1
102
RTVSPropertyOp47
 70
     1
102
RTVSPropertyOp48
 70
     1
102
RTVSPropertyOp49
 70
     1
102
RTVSPropertyOp50
 70
     1
102
RTVSPropertyOp51
 70
     0
102
RTVSPropertyOp52
 70
     0
102
RTVSPropertyOp53
 70
     1
102
RTVSPropertyOp54
 70
     1
102
RTVSPropertyOp55
 70
     1
102
RTVSPropertyOp56
 70
     1
102
RTVSPropertyOp57
 70
     1
102
RTVSPropertyOp58
 70
     1
102
RTVSPropertyOp59
 70
     1
102
RTVSPropertyOp60
 70
     1
102
RTVSPropertyOp61
 70
     1
102
RTVSPropertyOp62
 70
     1
  0
XRECORD
  5
7C41
102
{ACAD_REACTORS
330
7C40
102
}
330
7C40
100
AcDbXrecord
280
     1
102
RTVSPost2010Prop28
280
     0
102
RTVSPost2010PropOp28
 70
     1
102
RTVSPost2010Prop29
280
     1
102
RTVSPost2010PropOp29
 70
     1
102
RTVSPost2010Prop30
280
     1
102
RTVSPost2010PropOp30
 70
     1
102
RTVSPost2010Prop31
280
     0
102
RTVSPost2010PropOp31
 70
     1
102
RTVSPost2010Prop32
280
     0
102
RTVSPost2010PropOp32
 70
     1
102
RTVSPost2010Prop33
280
     0
102
RTVSPost2010PropOp33
 70
     1
102
RTVSPost2010Prop34
280
     0
102
RTVSPost2010PropOp34
 70
     1
102
RTVSPost2010Prop35
280
     0
102
RTVSPost2010PropOp35
 70
     1
102
RTVSPost2010Prop36
280
     0
102
RTVSPost2010PropOp36
 70
     1
102
RTVSPost2010Prop37
 90
       50
102
RTVSPost2010PropOp37
 70
     1
102
RTVSPost2010Prop38
140
0.0
102
RTVSPost2010PropOp38
 70
     1
102
RTVSPost2010Prop39
140
1.0
102
RTVSPost2010PropOp39
 70
     1
102
RTVSPost2010Prop40
 90
        0
102
RTVSPost2010PropOp40
 70
     1
102
RTVSPost2010Prop41ColorIndex
 90
       18
102
RTVSPost2010Prop41ColorRGB
 90
        0
102
RTVSPost2010PropOp41
 70
     1
102
RTVSPost2010Prop42
 90
       50
102
RTVSPost2010PropOp42
 70
     1
102
RTVSPost2010Prop43
 90
        3
102
RTVSPost2010PropOp43
 70
     1
102
RTVSPost2010Prop44ColorIndex
 90
        5
102
RTVSPost2010Prop44ColorRGB
 90
      255
102
RTVSPost2010PropOp44
 70
     1
102
RTVSPost2010Prop45
280
     0
102
RTVSPost2010PropOp45
 70
     1
102
RTVSPost2010Prop46
 90
       50
102
RTVSPost2010PropOp46
 70
     1
102
RTVSPost2010Prop47
 90
       50
102
RTVSPost2010PropOp47
 70
     1
102
RTVSPost2010Prop48
 90
       50
102
RTVSPost2010PropOp48
 70
     1
102
RTVSPost2010Prop49
280
     0
102
RTVSPost2010PropOp49
 70
     1
102
RTVSPost2010Prop50
 90
       50
102
RTVSPost2010PropOp50
 70
     1
102
RTVSPost2010Prop51ColorIndex
 90
      256
102
RTVSPost2010Prop51ColorRGB
 90
-16777216
102
RTVSPost2010PropOp51
 70
     0
102
RTVSPost2010Prop52
140
1.0
102
RTVSPost2010PropOp52
 70
     0
102
RTVSPost2010Prop53
 90
        2
102
RTVSPost2010PropOp53
 70
     1
102
RTVSPost2010Prop54
  1
strokes_ogs.tif
102
RTVSPost2010PropOp54
 70
     1
102
RTVSPost2010Prop55
280
     0
102
RTVSPost2010PropOp55
 70
     1
102
RTVSPost2010Prop56
140
1.0
102
RTVSPost2010PropOp56
 70
     1
102
RTVSPost2010Prop57
140
1.0
102
RTVSPost2010PropOp57
 70
     1
102
RTVSPropertyOp0
 70
     1
102
RTVSPropertyOp1
 70
     1
102
RTVSPropertyOp2
 70
     1
102
RTVSPropertyOp3
 70
     1
102
RTVSPropertyOp4
 70
     1
102
RTVSPropertyOp5
 70
     1
102
RTVSPropertyOp6
 70
     1
102
RTVSPropertyOp7
 70
     1
102
RTVSPropertyOp8
 70
     1
102
RTVSPropertyOp9
 70
     1
102
RTVSPropertyOp10
 70
     1
102
RTVSPropertyOp11
 70
     1
102
RTVSPropertyOp12
 70
     1
102
RTVSPropertyOp13
 70
     1
102
RTVSPropertyOp14
 70
     1
102
RTVSPropertyOp15
 70
     1
102
RTVSPropertyOp16
 70
     1
102
RTVSPropertyOp17
 70
     1
102
RTVSPropertyOp18
 70
     1
102
RTVSPropertyOp19
 70
     1
102
RTVSPropertyOp20
 70
     1
102
RTVSPropertyOp21
 70
     1
102
RTVSPropertyOp22
 70
     1
102
RTVSPropertyOp23
 70
     1
102
RTVSPropertyOp24
 70
     1
102
RTVSPropertyOp25
 70
     1
102
RTVSPropertyOp26
 70
     1
102
RTVSPropertyOp27
 70
     1
102
RTVSPropertyOp28
 70
     1
102
RTVSPropertyOp29
 70
     1
102
RTVSPropertyOp30
 70
     1
102
RTVSPropertyOp31
 70
     1
102
RTVSPropertyOp32
 70
     1
102
RTVSPropertyOp33
 70
     1
102
RTVSPropertyOp34
 70
     1
102
RTVSPropertyOp35
 70
     1
102
RTVSPropertyOp36
 70
     1
102
RTVSPropertyOp37
 70
     1
102
RTVSPropertyOp38
 70
     1
102
RTVSPropertyOp39
 70
     1
102
RTVSPropertyOp40
 70
     1
102
RTVSPropertyOp41
 70
     1
102
RTVSPropertyOp42
 70
     1
102
RTVSPropertyOp43
 70
     1
102
RTVSPropertyOp44
 70
     1
102
RTVSPropertyOp45
 70
     1
102
RTVSPropertyOp46
 70
     1
102
RTVSPropertyOp47
 70
     1
102
RTVSPropertyOp48
 70
     1
102
RTVSPropertyOp49
 70
     1
102
RTVSPropertyOp50
 70
     1
102
RTVSPropertyOp51
 70
     0
102
RTVSPropertyOp52
 70
     0
102
RTVSPropertyOp53
 70
     1
102
RTVSPropertyOp54
 70
     1
102
RTVSPropertyOp55
 70
     1
102
RTVSPropertyOp56
 70
     1
102
RTVSPropertyOp57
 70
     1
102
RTVSPropertyOp58
 70
     1
102
RTVSPropertyOp59
 70
     1
102
RTVSPropertyOp60
 70
     1
102
RTVSPropertyOp61
 70
     1
102
RTVSPropertyOp62
 70
     1
  0
XRECORD
  5
7C3F
102
{ACAD_REACTORS
330
7C3E
102
}
330
7C3E
100
AcDbXrecord
280
     1
102
RTVSPost2010Prop28
280
     0
102
RTVSPost2010PropOp28
 70
     1
102
RTVSPost2010Prop29
280
     1
102
RTVSPost2010PropOp29
 70
     1
102
RTVSPost2010Prop30
280
     1
102
RTVSPost2010PropOp30
 70
     1
102
RTVSPost2010Prop31
280
     0
102
RTVSPost2010PropOp31
 70
     1
102
RTVSPost2010Prop32
280
     0
102
RTVSPost2010PropOp32
 70
     1
102
RTVSPost2010Prop33
280
     0
102
RTVSPost2010PropOp33
 70
     1
102
RTVSPost2010Prop34
280
     0
102
RTVSPost2010PropOp34
 70
     1
102
RTVSPost2010Prop35
280
     0
102
RTVSPost2010PropOp35
 70
     1
102
RTVSPost2010Prop36
280
     0
102
RTVSPost2010PropOp36
 70
     1
102
RTVSPost2010Prop37
 90
       50
102
RTVSPost2010PropOp37
 70
     1
102
RTVSPost2010Prop38
140
0.0
102
RTVSPost2010PropOp38
 70
     1
102
RTVSPost2010Prop39
140
1.0
102
RTVSPost2010PropOp39
 70
     1
102
RTVSPost2010Prop40
 90
        0
102
RTVSPost2010PropOp40
 70
     1
102
RTVSPost2010Prop41ColorIndex
 90
       18
102
RTVSPost2010Prop41ColorRGB
 90
        0
102
RTVSPost2010PropOp41
 70
     1
102
RTVSPost2010Prop42
 90
       50
102
RTVSPost2010PropOp42
 70
     1
102
RTVSPost2010Prop43
 90
        3
102
RTVSPost2010PropOp43
 70
     1
102
RTVSPost2010Prop44ColorIndex
 90
        5
102
RTVSPost2010Prop44ColorRGB
 90
      255
102
RTVSPost2010PropOp44
 70
     1
102
RTVSPost2010Prop45
280
     0
102
RTVSPost2010PropOp45
 70
     1
102
RTVSPost2010Prop46
 90
       50
102
RTVSPost2010PropOp46
 70
     1
102
RTVSPost2010Prop47
 90
       50
102
RTVSPost2010PropOp47
 70
     1
102
RTVSPost2010Prop48
 90
       50
102
RTVSPost2010PropOp48
 70
     1
102
RTVSPost2010Prop49
280
     0
102
RTVSPost2010PropOp49
 70
     1
102
RTVSPost2010Prop50
 90
       50
102
RTVSPost2010PropOp50
 70
     1
102
RTVSPost2010Prop51ColorIndex
 90
      256
102
RTVSPost2010Prop51ColorRGB
 90
-16777216
102
RTVSPost2010PropOp51
 70
     0
102
RTVSPost2010Prop52
140
1.0
102
RTVSPost2010PropOp52
 70
     0
102
RTVSPost2010Prop53
 90
        2
102
RTVSPost2010PropOp53
 70
     1
102
RTVSPost2010Prop54
  1
strokes_ogs.tif
102
RTVSPost2010PropOp54
 70
     1
102
RTVSPost2010Prop55
280
     0
102
RTVSPost2010PropOp55
 70
     1
102
RTVSPost2010Prop56
140
1.0
102
RTVSPost2010PropOp56
 70
     1
102
RTVSPost2010Prop57
140
1.0
102
RTVSPost2010PropOp57
 70
     1
102
RTVSPropertyOp0
 70
     1
102
RTVSPropertyOp1
 70
     1
102
RTVSPropertyOp2
 70
     1
102
RTVSPropertyOp3
 70
     1
102
RTVSPropertyOp4
 70
     1
102
RTVSPropertyOp5
 70
     1
102
RTVSPropertyOp6
 70
     1
102
RTVSPropertyOp7
 70
     1
102
RTVSPropertyOp8
 70
     1
102
RTVSPropertyOp9
 70
     1
102
RTVSPropertyOp10
 70
     1
102
RTVSPropertyOp11
 70
     1
102
RTVSPropertyOp12
 70
     1
102
RTVSPropertyOp13
 70
     1
102
RTVSPropertyOp14
 70
     1
102
RTVSPropertyOp15
 70
     1
102
RTVSPropertyOp16
 70
     1
102
RTVSPropertyOp17
 70
     1
102
RTVSPropertyOp18
 70
     1
102
RTVSPropertyOp19
 70
     1
102
RTVSPropertyOp20
 70
     1
102
RTVSPropertyOp21
 70
     1
102
RTVSPropertyOp22
 70
     1
102
RTVSPropertyOp23
 70
     1
102
RTVSPropertyOp24
 70
     1
102
RTVSPropertyOp25
 70
     1
102
RTVSPropertyOp26
 70
     1
102
RTVSPropertyOp27
 70
     1
102
RTVSPropertyOp28
 70
     1
102
RTVSPropertyOp29
 70
     1
102
RTVSPropertyOp30
 70
     1
102
RTVSPropertyOp31
 70
     1
102
RTVSPropertyOp32
 70
     1
102
RTVSPropertyOp33
 70
     1
102
RTVSPropertyOp34
 70
     1
102
RTVSPropertyOp35
 70
     1
102
RTVSPropertyOp36
 70
     1
102
RTVSPropertyOp37
 70
     1
102
RTVSPropertyOp38
 70
     1
102
RTVSPropertyOp39
 70
     1
102
RTVSPropertyOp40
 70
     1
102
RTVSPropertyOp41
 70
     1
102
RTVSPropertyOp42
 70
     1
102
RTVSPropertyOp43
 70
     1
102
RTVSPropertyOp44
 70
     1
102
RTVSPropertyOp45
 70
     1
102
RTVSPropertyOp46
 70
     1
102
RTVSPropertyOp47
 70
     1
102
RTVSPropertyOp48
 70
     1
102
RTVSPropertyOp49
 70
     1
102
RTVSPropertyOp50
 70
     1
102
RTVSPropertyOp51
 70
     0
102
RTVSPropertyOp52
 70
     0
102
RTVSPropertyOp53
 70
     1
102
RTVSPropertyOp54
 70
     1
102
RTVSPropertyOp55
 70
     1
102
RTVSPropertyOp56
 70
     1
102
RTVSPropertyOp57
 70
     1
102
RTVSPropertyOp58
 70
     1
102
RTVSPropertyOp59
 70
     1
102
RTVSPropertyOp60
 70
     1
102
RTVSPropertyOp61
 70
     1
102
RTVSPropertyOp62
 70
     1
  0
XRECORD
  5
7C39
102
{ACAD_REACTORS
330
7C38
102
}
330
7C38
100
AcDbXrecord
280
     1
102
RTVSPost2010Prop28
280
     0
102
RTVSPost2010PropOp28
 70
     1
102
RTVSPost2010Prop29
280
     1
102
RTVSPost2010PropOp29
 70
     1
102
RTVSPost2010Prop30
280
     1
102
RTVSPost2010PropOp30
 70
     1
102
RTVSPost2010Prop31
280
     0
102
RTVSPost2010PropOp31
 70
     1
102
RTVSPost2010Prop32
280
     0
102
RTVSPost2010PropOp32
 70
     1
102
RTVSPost2010Prop33
280
     0
102
RTVSPost2010PropOp33
 70
     1
102
RTVSPost2010Prop34
280
     0
102
RTVSPost2010PropOp34
 70
     1
102
RTVSPost2010Prop35
280
     0
102
RTVSPost2010PropOp35
 70
     1
102
RTVSPost2010Prop36
280
     0
102
RTVSPost2010PropOp36
 70
     1
102
RTVSPost2010Prop37
 90
       50
102
RTVSPost2010PropOp37
 70
     1
102
RTVSPost2010Prop38
140
0.0
102
RTVSPost2010PropOp38
 70
     1
102
RTVSPost2010Prop39
140
1.0
102
RTVSPost2010PropOp39
 70
     1
102
RTVSPost2010Prop40
 90
        0
102
RTVSPost2010PropOp40
 70
     1
102
RTVSPost2010Prop41ColorIndex
 90
       18
102
RTVSPost2010Prop41ColorRGB
 90
        0
102
RTVSPost2010PropOp41
 70
     1
102
RTVSPost2010Prop42
 90
       50
102
RTVSPost2010PropOp42
 70
     1
102
RTVSPost2010Prop43
 90
        3
102
RTVSPost2010PropOp43
 70
     1
102
RTVSPost2010Prop44ColorIndex
 90
        5
102
RTVSPost2010Prop44ColorRGB
 90
      255
102
RTVSPost2010PropOp44
 70
     1
102
RTVSPost2010Prop45
280
     0
102
RTVSPost2010PropOp45
 70
     1
102
RTVSPost2010Prop46
 90
       50
102
RTVSPost2010PropOp46
 70
     1
102
RTVSPost2010Prop47
 90
       50
102
RTVSPost2010PropOp47
 70
     1
102
RTVSPost2010Prop48
 90
       50
102
RTVSPost2010PropOp48
 70
     1
102
RTVSPost2010Prop49
280
     0
102
RTVSPost2010PropOp49
 70
     1
102
RTVSPost2010Prop50
 90
       50
102
RTVSPost2010PropOp50
 70
     1
102
RTVSPost2010Prop51ColorIndex
 90
      256
102
RTVSPost2010Prop51ColorRGB
 90
-16777216
102
RTVSPost2010PropOp51
 70
     0
102
RTVSPost2010Prop52
140
1.0
102
RTVSPost2010PropOp52
 70
     0
102
RTVSPost2010Prop53
 90
        2
102
RTVSPost2010PropOp53
 70
     1
102
RTVSPost2010Prop54
  1
strokes_ogs.tif
102
RTVSPost2010PropOp54
 70
     1
102
RTVSPost2010Prop55
280
     0
102
RTVSPost2010PropOp55
 70
     1
102
RTVSPost2010Prop56
140
1.0
102
RTVSPost2010PropOp56
 70
     1
102
RTVSPost2010Prop57
140
1.0
102
RTVSPost2010PropOp57
 70
     1
102
RTVSPropertyOp0
 70
     1
102
RTVSPropertyOp1
 70
     1
102
RTVSPropertyOp2
 70
     1
102
RTVSPropertyOp3
 70
     1
102
RTVSPropertyOp4
 70
     1
102
RTVSPropertyOp5
 70
     1
102
RTVSPropertyOp6
 70
     1
102
RTVSPropertyOp7
 70
     1
102
RTVSPropertyOp8
 70
     1
102
RTVSPropertyOp9
 70
     1
102
RTVSPropertyOp10
 70
     1
102
RTVSPropertyOp11
 70
     1
102
RTVSPropertyOp12
 70
     1
102
RTVSPropertyOp13
 70
     1
102
RTVSPropertyOp14
 70
     1
102
RTVSPropertyOp15
 70
     1
102
RTVSPropertyOp16
 70
     1
102
RTVSPropertyOp17
 70
     1
102
RTVSPropertyOp18
 70
     1
102
RTVSPropertyOp19
 70
     1
102
RTVSPropertyOp20
 70
     1
102
RTVSPropertyOp21
 70
     1
102
RTVSPropertyOp22
 70
     1
102
RTVSPropertyOp23
 70
     1
102
RTVSPropertyOp24
 70
     1
102
RTVSPropertyOp25
 70
     1
102
RTVSPropertyOp26
 70
     1
102
RTVSPropertyOp27
 70
     1
102
RTVSPropertyOp28
 70
     1
102
RTVSPropertyOp29
 70
     1
102
RTVSPropertyOp30
 70
     1
102
RTVSPropertyOp31
 70
     1
102
RTVSPropertyOp32
 70
     1
102
RTVSPropertyOp33
 70
     1
102
RTVSPropertyOp34
 70
     1
102
RTVSPropertyOp35
 70
     1
102
RTVSPropertyOp36
 70
     1
102
RTVSPropertyOp37
 70
     1
102
RTVSPropertyOp38
 70
     1
102
RTVSPropertyOp39
 70
     1
102
RTVSPropertyOp40
 70
     1
102
RTVSPropertyOp41
 70
     1
102
RTVSPropertyOp42
 70
     1
102
RTVSPropertyOp43
 70
     1
102
RTVSPropertyOp44
 70
     1
102
RTVSPropertyOp45
 70
     1
102
RTVSPropertyOp46
 70
     1
102
RTVSPropertyOp47
 70
     1
102
RTVSPropertyOp48
 70
     1
102
RTVSPropertyOp49
 70
     1
102
RTVSPropertyOp50
 70
     1
102
RTVSPropertyOp51
 70
     0
102
RTVSPropertyOp52
 70
     0
102
RTVSPropertyOp53
 70
     1
102
RTVSPropertyOp54
 70
     1
102
RTVSPropertyOp55
 70
     1
102
RTVSPropertyOp56
 70
     1
102
RTVSPropertyOp57
 70
     1
102
RTVSPropertyOp58
 70
     1
102
RTVSPropertyOp59
 70
     1
102
RTVSPropertyOp60
 70
     1
102
RTVSPropertyOp61
 70
     1
102
RTVSPropertyOp62
 70
     1
  0
XRECORD
  5
7C3B
102
{ACAD_REACTORS
330
7C3A
102
}
330
7C3A
100
AcDbXrecord
280
     1
102
RTVSPost2010Prop28
280
     0
102
RTVSPost2010PropOp28
 70
     1
102
RTVSPost2010Prop29
280
     1
102
RTVSPost2010PropOp29
 70
     1
102
RTVSPost2010Prop30
280
     1
102
RTVSPost2010PropOp30
 70
     1
102
RTVSPost2010Prop31
280
     0
102
RTVSPost2010PropOp31
 70
     1
102
RTVSPost2010Prop32
280
     0
102
RTVSPost2010PropOp32
 70
     1
102
RTVSPost2010Prop33
280
     0
102
RTVSPost2010PropOp33
 70
     1
102
RTVSPost2010Prop34
280
     0
102
RTVSPost2010PropOp34
 70
     1
102
RTVSPost2010Prop35
280
     0
102
RTVSPost2010PropOp35
 70
     1
102
RTVSPost2010Prop36
280
     0
102
RTVSPost2010PropOp36
 70
     1
102
RTVSPost2010Prop37
 90
       50
102
RTVSPost2010PropOp37
 70
     1
102
RTVSPost2010Prop38
140
0.0
102
RTVSPost2010PropOp38
 70
     1
102
RTVSPost2010Prop39
140
1.0
102
RTVSPost2010PropOp39
 70
     1
102
RTVSPost2010Prop40
 90
        0
102
RTVSPost2010PropOp40
 70
     1
102
RTVSPost2010Prop41ColorIndex
 90
       18
102
RTVSPost2010Prop41ColorRGB
 90
        0
102
RTVSPost2010PropOp41
 70
     1
102
RTVSPost2010Prop42
 90
       50
102
RTVSPost2010PropOp42
 70
     1
102
RTVSPost2010Prop43
 90
        3
102
RTVSPost2010PropOp43
 70
     1
102
RTVSPost2010Prop44ColorIndex
 90
        5
102
RTVSPost2010Prop44ColorRGB
 90
      255
102
RTVSPost2010PropOp44
 70
     1
102
RTVSPost2010Prop45
280
     0
102
RTVSPost2010PropOp45
 70
     1
102
RTVSPost2010Prop46
 90
       50
102
RTVSPost2010PropOp46
 70
     1
102
RTVSPost2010Prop47
 90
       50
102
RTVSPost2010PropOp47
 70
     1
102
RTVSPost2010Prop48
 90
       50
102
RTVSPost2010PropOp48
 70
     1
102
RTVSPost2010Prop49
280
     0
102
RTVSPost2010PropOp49
 70
     1
102
RTVSPost2010Prop50
 90
       50
102
RTVSPost2010PropOp50
 70
     1
102
RTVSPost2010Prop51ColorIndex
 90
      256
102
RTVSPost2010Prop51ColorRGB
 90
-16777216
102
RTVSPost2010PropOp51
 70
     0
102
RTVSPost2010Prop52
140
1.0
102
RTVSPost2010PropOp52
 70
     0
102
RTVSPost2010Prop53
 90
        2
102
RTVSPost2010PropOp53
 70
     1
102
RTVSPost2010Prop54
  1
strokes_ogs.tif
102
RTVSPost2010PropOp54
 70
     1
102
RTVSPost2010Prop55
280
     0
102
RTVSPost2010PropOp55
 70
     1
102
RTVSPost2010Prop56
140
1.0
102
RTVSPost2010PropOp56
 70
     1
102
RTVSPost2010Prop57
140
1.0
102
RTVSPost2010PropOp57
 70
     1
102
RTVSPropertyOp0
 70
     1
102
RTVSPropertyOp1
 70
     1
102
RTVSPropertyOp2
 70
     1
102
RTVSPropertyOp3
 70
     1
102
RTVSPropertyOp4
 70
     1
102
RTVSPropertyOp5
 70
     1
102
RTVSPropertyOp6
 70
     1
102
RTVSPropertyOp7
 70
     1
102
RTVSPropertyOp8
 70
     1
102
RTVSPropertyOp9
 70
     1
102
RTVSPropertyOp10
 70
     1
102
RTVSPropertyOp11
 70
     1
102
RTVSPropertyOp12
 70
     1
102
RTVSPropertyOp13
 70
     1
102
RTVSPropertyOp14
 70
     1
102
RTVSPropertyOp15
 70
     1
102
RTVSPropertyOp16
 70
     1
102
RTVSPropertyOp17
 70
     1
102
RTVSPropertyOp18
 70
     1
102
RTVSPropertyOp19
 70
     1
102
RTVSPropertyOp20
 70
     1
102
RTVSPropertyOp21
 70
     1
102
RTVSPropertyOp22
 70
     1
102
RTVSPropertyOp23
 70
     1
102
RTVSPropertyOp24
 70
     1
102
RTVSPropertyOp25
 70
     1
102
RTVSPropertyOp26
 70
     1
102
RTVSPropertyOp27
 70
     1
102
RTVSPropertyOp28
 70
     1
102
RTVSPropertyOp29
 70
     1
102
RTVSPropertyOp30
 70
     1
102
RTVSPropertyOp31
 70
     1
102
RTVSPropertyOp32
 70
     1
102
RTVSPropertyOp33
 70
     1
102
RTVSPropertyOp34
 70
     1
102
RTVSPropertyOp35
 70
     1
102
RTVSPropertyOp36
 70
     1
102
RTVSPropertyOp37
 70
     1
102
RTVSPropertyOp38
 70
     1
102
RTVSPropertyOp39
 70
     1
102
RTVSPropertyOp40
 70
     1
102
RTVSPropertyOp41
 70
     1
102
RTVSPropertyOp42
 70
     1
102
RTVSPropertyOp43
 70
     1
102
RTVSPropertyOp44
 70
     1
102
RTVSPropertyOp45
 70
     1
102
RTVSPropertyOp46
 70
     1
102
RTVSPropertyOp47
 70
     1
102
RTVSPropertyOp48
 70
     1
102
RTVSPropertyOp49
 70
     1
102
RTVSPropertyOp50
 70
     1
102
RTVSPropertyOp51
 70
     0
102
RTVSPropertyOp52
 70
     0
102
RTVSPropertyOp53
 70
     1
102
RTVSPropertyOp54
 70
     1
102
RTVSPropertyOp55
 70
     1
102
RTVSPropertyOp56
 70
     1
102
RTVSPropertyOp57
 70
     1
102
RTVSPropertyOp58
 70
     1
102
RTVSPropertyOp59
 70
     1
102
RTVSPropertyOp60
 70
     1
102
RTVSPropertyOp61
 70
     1
102
RTVSPropertyOp62
 70
     1
  0
XRECORD
  5
7C29
102
{ACAD_REACTORS
330
7C28
102
}
330
7C28
100
AcDbXrecord
280
     1
102
RTVSPost2010Prop28
280
     0
102
RTVSPost2010PropOp28
 70
     1
102
RTVSPost2010Prop29
280
     1
102
RTVSPost2010PropOp29
 70
     1
102
RTVSPost2010Prop30
280
     1
102
RTVSPost2010PropOp30
 70
     1
102
RTVSPost2010Prop31
280
     0
102
RTVSPost2010PropOp31
 70
     1
102
RTVSPost2010Prop32
280
     0
102
RTVSPost2010PropOp32
 70
     1
102
RTVSPost2010Prop33
280
     0
102
RTVSPost2010PropOp33
 70
     1
102
RTVSPost2010Prop34
280
     0
102
RTVSPost2010PropOp34
 70
     1
102
RTVSPost2010Prop35
280
     0
102
RTVSPost2010PropOp35
 70
     1
102
RTVSPost2010Prop36
280
     0
102
RTVSPost2010PropOp36
 70
     1
102
RTVSPost2010Prop37
 90
       50
102
RTVSPost2010PropOp37
 70
     1
102
RTVSPost2010Prop38
140
0.0
102
RTVSPost2010PropOp38
 70
     1
102
RTVSPost2010Prop39
140
1.0
102
RTVSPost2010PropOp39
 70
     1
102
RTVSPost2010Prop40
 90
        0
102
RTVSPost2010PropOp40
 70
     1
102
RTVSPost2010Prop41ColorIndex
 90
       18
102
RTVSPost2010Prop41ColorRGB
 90
        0
102
RTVSPost2010PropOp41
 70
     1
102
RTVSPost2010Prop42
 90
       50
102
RTVSPost2010PropOp42
 70
     1
102
RTVSPost2010Prop43
 90
        3
102
RTVSPost2010PropOp43
 70
     1
102
RTVSPost2010Prop44ColorIndex
 90
        5
102
RTVSPost2010Prop44ColorRGB
 90
      255
102
RTVSPost2010PropOp44
 70
     1
102
RTVSPost2010Prop45
280
     0
102
RTVSPost2010PropOp45
 70
     1
102
RTVSPost2010Prop46
 90
       50
102
RTVSPost2010PropOp46
 70
     1
102
RTVSPost2010Prop47
 90
       50
102
RTVSPost2010PropOp47
 70
     1
102
RTVSPost2010Prop48
 90
       50
102
RTVSPost2010PropOp48
 70
     1
102
RTVSPost2010Prop49
280
     0
102
RTVSPost2010PropOp49
 70
     1
102
RTVSPost2010Prop50
 90
       50
102
RTVSPost2010PropOp50
 70
     1
102
RTVSPost2010Prop51ColorIndex
 90
      256
102
RTVSPost2010Prop51ColorRGB
 90
-16777216
102
RTVSPost2010PropOp51
 70
     0
102
RTVSPost2010Prop52
140
1.0
102
RTVSPost2010PropOp52
 70
     0
102
RTVSPost2010Prop53
 90
        2
102
RTVSPost2010PropOp53
 70
     1
102
RTVSPost2010Prop54
  1
strokes_ogs.tif
102
RTVSPost2010PropOp54
 70
     1
102
RTVSPost2010Prop55
280
     0
102
RTVSPost2010PropOp55
 70
     1
102
RTVSPost2010Prop56
140
1.0
102
RTVSPost2010PropOp56
 70
     1
102
RTVSPost2010Prop57
140
1.0
102
RTVSPost2010PropOp57
 70
     1
102
RTVSPropertyOp0
 70
     1
102
RTVSPropertyOp1
 70
     1
102
RTVSPropertyOp2
 70
     1
102
RTVSPropertyOp3
 70
     1
102
RTVSPropertyOp4
 70
     1
102
RTVSPropertyOp5
 70
     1
102
RTVSPropertyOp6
 70
     1
102
RTVSPropertyOp7
 70
     1
102
RTVSPropertyOp8
 70
     1
102
RTVSPropertyOp9
 70
     1
102
RTVSPropertyOp10
 70
     1
102
RTVSPropertyOp11
 70
     1
102
RTVSPropertyOp12
 70
     1
102
RTVSPropertyOp13
 70
     1
102
RTVSPropertyOp14
 70
     1
102
RTVSPropertyOp15
 70
     1
102
RTVSPropertyOp16
 70
     1
102
RTVSPropertyOp17
 70
     1
102
RTVSPropertyOp18
 70
     1
102
RTVSPropertyOp19
 70
     1
102
RTVSPropertyOp20
 70
     1
102
RTVSPropertyOp21
 70
     1
102
RTVSPropertyOp22
 70
     1
102
RTVSPropertyOp23
 70
     1
102
RTVSPropertyOp24
 70
     1
102
RTVSPropertyOp25
 70
     1
102
RTVSPropertyOp26
 70
     1
102
RTVSPropertyOp27
 70
     1
102
RTVSPropertyOp28
 70
     1
102
RTVSPropertyOp29
 70
     1
102
RTVSPropertyOp30
 70
     1
102
RTVSPropertyOp31
 70
     1
102
RTVSPropertyOp32
 70
     1
102
RTVSPropertyOp33
 70
     1
102
RTVSPropertyOp34
 70
     1
102
RTVSPropertyOp35
 70
     1
102
RTVSPropertyOp36
 70
     1
102
RTVSPropertyOp37
 70
     1
102
RTVSPropertyOp38
 70
     1
102
RTVSPropertyOp39
 70
     1
102
RTVSPropertyOp40
 70
     1
102
RTVSPropertyOp41
 70
     1
102
RTVSPropertyOp42
 70
     1
102
RTVSPropertyOp43
 70
     1
102
RTVSPropertyOp44
 70
     1
102
RTVSPropertyOp45
 70
     1
102
RTVSPropertyOp46
 70
     1
102
RTVSPropertyOp47
 70
     1
102
RTVSPropertyOp48
 70
     1
102
RTVSPropertyOp49
 70
     1
102
RTVSPropertyOp50
 70
     1
102
RTVSPropertyOp51
 70
     0
102
RTVSPropertyOp52
 70
     0
102
RTVSPropertyOp53
 70
     1
102
RTVSPropertyOp54
 70
     1
102
RTVSPropertyOp55
 70
     1
102
RTVSPropertyOp56
 70
     1
102
RTVSPropertyOp57
 70
     1
102
RTVSPropertyOp58
 70
     1
102
RTVSPropertyOp59
 70
     1
102
RTVSPropertyOp60
 70
     1
102
RTVSPropertyOp61
 70
     1
102
RTVSPropertyOp62
 70
     1
  0
XRECORD
  5
7C1D
102
{ACAD_REACTORS
330
7C1C
102
}
330
7C1C
100
AcDbXrecord
280
     1
102
RTVSPost2010Prop28
280
     0
102
RTVSPost2010PropOp28
 70
     1
102
RTVSPost2010Prop29
280
     1
102
RTVSPost2010PropOp29
 70
     1
102
RTVSPost2010Prop30
280
     1
102
RTVSPost2010PropOp30
 70
     1
102
RTVSPost2010Prop31
280
     0
102
RTVSPost2010PropOp31
 70
     1
102
RTVSPost2010Prop32
280
     0
102
RTVSPost2010PropOp32
 70
     1
102
RTVSPost2010Prop33
280
     0
102
RTVSPost2010PropOp33
 70
     1
102
RTVSPost2010Prop34
280
     0
102
RTVSPost2010PropOp34
 70
     1
102
RTVSPost2010Prop35
280
     0
102
RTVSPost2010PropOp35
 70
     1
102
RTVSPost2010Prop36
280
     0
102
RTVSPost2010PropOp36
 70
     1
102
RTVSPost2010Prop37
 90
       50
102
RTVSPost2010PropOp37
 70
     1
102
RTVSPost2010Prop38
140
0.0
102
RTVSPost2010PropOp38
 70
     1
102
RTVSPost2010Prop39
140
1.0
102
RTVSPost2010PropOp39
 70
     1
102
RTVSPost2010Prop40
 90
        0
102
RTVSPost2010PropOp40
 70
     1
102
RTVSPost2010Prop41ColorIndex
 90
       18
102
RTVSPost2010Prop41ColorRGB
 90
        0
102
RTVSPost2010PropOp41
 70
     1
102
RTVSPost2010Prop42
 90
       50
102
RTVSPost2010PropOp42
 70
     1
102
RTVSPost2010Prop43
 90
        3
102
RTVSPost2010PropOp43
 70
     1
102
RTVSPost2010Prop44ColorIndex
 90
        5
102
RTVSPost2010Prop44ColorRGB
 90
      255
102
RTVSPost2010PropOp44
 70
     1
102
RTVSPost2010Prop45
280
     0
102
RTVSPost2010PropOp45
 70
     1
102
RTVSPost2010Prop46
 90
       50
102
RTVSPost2010PropOp46
 70
     1
102
RTVSPost2010Prop47
 90
       50
102
RTVSPost2010PropOp47
 70
     1
102
RTVSPost2010Prop48
 90
       50
102
RTVSPost2010PropOp48
 70
     1
102
RTVSPost2010Prop49
280
     0
102
RTVSPost2010PropOp49
 70
     1
102
RTVSPost2010Prop50
 90
       50
102
RTVSPost2010PropOp50
 70
     1
102
RTVSPost2010Prop51ColorIndex
 90
      256
102
RTVSPost2010Prop51ColorRGB
 90
-16777216
102
RTVSPost2010PropOp51
 70
     0
102
RTVSPost2010Prop52
140
1.0
102
RTVSPost2010PropOp52
 70
     0
102
RTVSPost2010Prop53
 90
        2
102
RTVSPost2010PropOp53
 70
     1
102
RTVSPost2010Prop54
  1
strokes_ogs.tif
102
RTVSPost2010PropOp54
 70
     1
102
RTVSPost2010Prop55
280
     0
102
RTVSPost2010PropOp55
 70
     1
102
RTVSPost2010Prop56
140
1.0
102
RTVSPost2010PropOp56
 70
     1
102
RTVSPost2010Prop57
140
1.0
102
RTVSPost2010PropOp57
 70
     1
102
RTVSPropertyOp0
 70
     1
102
RTVSPropertyOp1
 70
     1
102
RTVSPropertyOp2
 70
     1
102
RTVSPropertyOp3
 70
     1
102
RTVSPropertyOp4
 70
     1
102
RTVSPropertyOp5
 70
     1
102
RTVSPropertyOp6
 70
     1
102
RTVSPropertyOp7
 70
     1
102
RTVSPropertyOp8
 70
     1
102
RTVSPropertyOp9
 70
     1
102
RTVSPropertyOp10
 70
     1
102
RTVSPropertyOp11
 70
     1
102
RTVSPropertyOp12
 70
     1
102
RTVSPropertyOp13
 70
     1
102
RTVSPropertyOp14
 70
     1
102
RTVSPropertyOp15
 70
     1
102
RTVSPropertyOp16
 70
     1
102
RTVSPropertyOp17
 70
     1
102
RTVSPropertyOp18
 70
     1
102
RTVSPropertyOp19
 70
     1
102
RTVSPropertyOp20
 70
     1
102
RTVSPropertyOp21
 70
     1
102
RTVSPropertyOp22
 70
     1
102
RTVSPropertyOp23
 70
     1
102
RTVSPropertyOp24
 70
     1
102
RTVSPropertyOp25
 70
     1
102
RTVSPropertyOp26
 70
     1
102
RTVSPropertyOp27
 70
     1
102
RTVSPropertyOp28
 70
     1
102
RTVSPropertyOp29
 70
     1
102
RTVSPropertyOp30
 70
     1
102
RTVSPropertyOp31
 70
     1
102
RTVSPropertyOp32
 70
     1
102
RTVSPropertyOp33
 70
     1
102
RTVSPropertyOp34
 70
     1
102
RTVSPropertyOp35
 70
     1
102
RTVSPropertyOp36
 70
     1
102
RTVSPropertyOp37
 70
     1
102
RTVSPropertyOp38
 70
     1
102
RTVSPropertyOp39
 70
     1
102
RTVSPropertyOp40
 70
     1
102
RTVSPropertyOp41
 70
     1
102
RTVSPropertyOp42
 70
     1
102
RTVSPropertyOp43
 70
     1
102
RTVSPropertyOp44
 70
     1
102
RTVSPropertyOp45
 70
     1
102
RTVSPropertyOp46
 70
     1
102
RTVSPropertyOp47
 70
     1
102
RTVSPropertyOp48
 70
     1
102
RTVSPropertyOp49
 70
     1
102
RTVSPropertyOp50
 70
     1
102
RTVSPropertyOp51
 70
     0
102
RTVSPropertyOp52
 70
     0
102
RTVSPropertyOp53
 70
     1
102
RTVSPropertyOp54
 70
     1
102
RTVSPropertyOp55
 70
     1
102
RTVSPropertyOp56
 70
     1
102
RTVSPropertyOp57
 70
     1
102
RTVSPropertyOp58
 70
     1
102
RTVSPropertyOp59
 70
     1
102
RTVSPropertyOp60
 70
     1
102
RTVSPropertyOp61
 70
     1
102
RTVSPropertyOp62
 70
     1
  0
XRECORD
  5
7C3D
102
{ACAD_REACTORS
330
7C3C
102
}
330
7C3C
100
AcDbXrecord
280
     1
102
RTVSPost2010Prop28
280
     0
102
RTVSPost2010PropOp28
 70
     1
102
RTVSPost2010Prop29
280
     1
102
RTVSPost2010PropOp29
 70
     1
102
RTVSPost2010Prop30
280
     1
102
RTVSPost2010PropOp30
 70
     1
102
RTVSPost2010Prop31
280
     0
102
RTVSPost2010PropOp31
 70
     1
102
RTVSPost2010Prop32
280
     0
102
RTVSPost2010PropOp32
 70
     1
102
RTVSPost2010Prop33
280
     0
102
RTVSPost2010PropOp33
 70
     1
102
RTVSPost2010Prop34
280
     0
102
RTVSPost2010PropOp34
 70
     1
102
RTVSPost2010Prop35
280
     0
102
RTVSPost2010PropOp35
 70
     1
102
RTVSPost2010Prop36
280
     0
102
RTVSPost2010PropOp36
 70
     1
102
RTVSPost2010Prop37
 90
       50
102
RTVSPost2010PropOp37
 70
     1
102
RTVSPost2010Prop38
140
0.0
102
RTVSPost2010PropOp38
 70
     1
102
RTVSPost2010Prop39
140
1.0
102
RTVSPost2010PropOp39
 70
     1
102
RTVSPost2010Prop40
 90
        0
102
RTVSPost2010PropOp40
 70
     1
102
RTVSPost2010Prop41ColorIndex
 90
       18
102
RTVSPost2010Prop41ColorRGB
 90
        0
102
RTVSPost2010PropOp41
 70
     1
102
RTVSPost2010Prop42
 90
       50
102
RTVSPost2010PropOp42
 70
     1
102
RTVSPost2010Prop43
 90
        3
102
RTVSPost2010PropOp43
 70
     1
102
RTVSPost2010Prop44ColorIndex
 90
        5
102
RTVSPost2010Prop44ColorRGB
 90
      255
102
RTVSPost2010PropOp44
 70
     1
102
RTVSPost2010Prop45
280
     0
102
RTVSPost2010PropOp45
 70
     1
102
RTVSPost2010Prop46
 90
       50
102
RTVSPost2010PropOp46
 70
     1
102
RTVSPost2010Prop47
 90
       50
102
RTVSPost2010PropOp47
 70
     1
102
RTVSPost2010Prop48
 90
       50
102
RTVSPost2010PropOp48
 70
     1
102
RTVSPost2010Prop49
280
     0
102
RTVSPost2010PropOp49
 70
     1
102
RTVSPost2010Prop50
 90
       50
102
RTVSPost2010PropOp50
 70
     1
102
RTVSPost2010Prop51ColorIndex
 90
      256
102
RTVSPost2010Prop51ColorRGB
 90
-16777216
102
RTVSPost2010PropOp51
 70
     0
102
RTVSPost2010Prop52
140
1.0
102
RTVSPost2010PropOp52
 70
     0
102
RTVSPost2010Prop53
 90
        2
102
RTVSPost2010PropOp53
 70
     1
102
RTVSPost2010Prop54
  1
strokes_ogs.tif
102
RTVSPost2010PropOp54
 70
     1
102
RTVSPost2010Prop55
280
     0
102
RTVSPost2010PropOp55
 70
     1
102
RTVSPost2010Prop56
140
1.0
102
RTVSPost2010PropOp56
 70
     1
102
RTVSPost2010Prop57
140
1.0
102
RTVSPost2010PropOp57
 70
     1
102
RTVSPropertyOp0
 70
     1
102
RTVSPropertyOp1
 70
     1
102
RTVSPropertyOp2
 70
     1
102
RTVSPropertyOp3
 70
     1
102
RTVSPropertyOp4
 70
     1
102
RTVSPropertyOp5
 70
     1
102
RTVSPropertyOp6
 70
     1
102
RTVSPropertyOp7
 70
     1
102
RTVSPropertyOp8
 70
     1
102
RTVSPropertyOp9
 70
     1
102
RTVSPropertyOp10
 70
     1
102
RTVSPropertyOp11
 70
     1
102
RTVSPropertyOp12
 70
     1
102
RTVSPropertyOp13
 70
     1
102
RTVSPropertyOp14
 70
     1
102
RTVSPropertyOp15
 70
     1
102
RTVSPropertyOp16
 70
     1
102
RTVSPropertyOp17
 70
     1
102
RTVSPropertyOp18
 70
     1
102
RTVSPropertyOp19
 70
     1
102
RTVSPropertyOp20
 70
     1
102
RTVSPropertyOp21
 70
     1
102
RTVSPropertyOp22
 70
     1
102
RTVSPropertyOp23
 70
     1
102
RTVSPropertyOp24
 70
     1
102
RTVSPropertyOp25
 70
     1
102
RTVSPropertyOp26
 70
     1
102
RTVSPropertyOp27
 70
     1
102
RTVSPropertyOp28
 70
     1
102
RTVSPropertyOp29
 70
     1
102
RTVSPropertyOp30
 70
     1
102
RTVSPropertyOp31
 70
     1
102
RTVSPropertyOp32
 70
     1
102
RTVSPropertyOp33
 70
     1
102
RTVSPropertyOp34
 70
     1
102
RTVSPropertyOp35
 70
     1
102
RTVSPropertyOp36
 70
     1
102
RTVSPropertyOp37
 70
     1
102
RTVSPropertyOp38
 70
     1
102
RTVSPropertyOp39
 70
     1
102
RTVSPropertyOp40
 70
     1
102
RTVSPropertyOp41
 70
     1
102
RTVSPropertyOp42
 70
     1
102
RTVSPropertyOp43
 70
     1
102
RTVSPropertyOp44
 70
     1
102
RTVSPropertyOp45
 70
     1
102
RTVSPropertyOp46
 70
     1
102
RTVSPropertyOp47
 70
     1
102
RTVSPropertyOp48
 70
     1
102
RTVSPropertyOp49
 70
     1
102
RTVSPropertyOp50
 70
     1
102
RTVSPropertyOp51
 70
     0
102
RTVSPropertyOp52
 70
     0
102
RTVSPropertyOp53
 70
     1
102
RTVSPropertyOp54
 70
     1
102
RTVSPropertyOp55
 70
     1
102
RTVSPropertyOp56
 70
     1
102
RTVSPropertyOp57
 70
     1
102
RTVSPropertyOp58
 70
     1
102
RTVSPropertyOp59
 70
     1
102
RTVSPropertyOp60
 70
     1
102
RTVSPropertyOp61
 70
     1
102
RTVSPropertyOp62
 70
     1
  0
ENDSEC
  0
EOF
