  0
SECTION
  2
HEADER
  9
$ACADVER
  1
AC1015
  9
$ACADMAINTVER
 70
    18
  9
$DWGCODEPAGE
  3
ANSI_1252
  9
$INSBASE
 10
0.0
 20
0.0
 30
0.0
  9
$EXTMIN
 10
-373.7500000000005
 20
-594.2800767238342
 30
0.0
  9
$EXTMAX
 10
546.3899166791084
 20
602.7500000000011
 30
0.0
  9
$LIMMIN
 10
0.0
 20
0.0
  9
$LIMMAX
 10
420.0
 20
297.0
  9
$ORTHOMODE
 70
     0
  9
$REGENMODE
 70
     1
  9
$FILLMODE
 70
     1
  9
$QTEXTMODE
 70
     0
  9
$MIRRTEXT
 70
     0
  9
$LTSCALE
 40
1.0
  9
$ATTMODE
 70
     1
  9
$TEXTSIZE
 40
2.5
  9
$TRACEWID
 40
1.0
  9
$TEXTSTYLE
  7
Standard
  9
$CLAYER
  8
0
  9
$CELTYPE
  6
ByLayer
  9
$CECOLOR
 62
   256
  9
$CELTSCALE
 40
1.0
  9
$DISPSILH
 70
     0
  9
$DIMSCALE
 40
1.0
  9
$DIMASZ
 40
2.5
  9
$DIMEXO
 40
0.625
  9
$DIMDLI
 40
3.75
  9
$DIMRND
 40
0.0
  9
$DIMDLE
 40
0.0
  9
$DIMEXE
 40
1.25
  9
$DIMTP
 40
0.0
  9
$DIMTM
 40
0.0
  9
$DIMTXT
 40
2.5
  9
$DIMCEN
 40
2.5
  9
$DIMTSZ
 40
0.0
  9
$DIMTOL
 70
     0
  9
$DIMLIM
 70
     0
  9
$DIMTIH
 70
     0
  9
$DIMTOH
 70
     0
  9
$DIMSE1
 70
     0
  9
$DIMSE2
 70
     0
  9
$DIMTAD
 70
     1
  9
$DIMZIN
 70
     8
  9
$DIMBLK
  1

  9
$DIMASO
 70
     1
  9
$DIMSHO
 70
     1
  9
$DIMPOST
  1

  9
$DIMAPOST
  1

  9
$DIMALT
 70
     0
  9
$DIMALTD
 70
     3
  9
$DIMALTF
 40
0.03937007874016
  9
$DIMLFAC
 40
1.0
  9
$DIMTOFL
 70
     1
  9
$DIMTVP
 40
0.0
  9
$DIMTIX
 70
     0
  9
$DIMSOXD
 70
     0
  9
$DIMSAH
 70
     0
  9
$DIMBLK1
  1

  9
$DIMBLK2
  1

  9
$DIMSTYLE
  2
ISO-25
  9
$DIMCLRD
 70
     0
  9
$DIMCLRE
 70
     0
  9
$DIMCLRT
 70
     0
  9
$DIMTFAC
 40
1.0
  9
$DIMGAP
 40
0.625
  9
$DIMJUST
 70
     0
  9
$DIMSD1
 70
     0
  9
$DIMSD2
 70
     0
  9
$DIMTOLJ
 70
     0
  9
$DIMTZIN
 70
     8
  9
$DIMALTZ
 70
     0
  9
$DIMALTTZ
 70
     0
  9
$DIMUPT
 70
     0
  9
$DIMDEC
 70
     2
  9
$DIMTDEC
 70
     2
  9
$DIMALTU
 70
     2
  9
$DIMALTTD
 70
     3
  9
$DIMTXSTY
  7
Standard
  9
$DIMAUNIT
 70
     0
  9
$DIMADEC
 70
     0
  9
$DIMALTRND
 40
0.0
  9
$DIMAZIN
 70
     0
  9
$DIMDSEP
 70
    44
  9
$DIMATFIT
 70
     3
  9
$DIMFRAC
 70
     0
  9
$DIMLDRBLK
  1

  9
$DIMLUNIT
 70
     2
  9
$DIMLWD
 70
    -2
  9
$DIMLWE
 70
    -2
  9
$DIMTMOVE
 70
     0
  9
$LUNITS
 70
     2
  9
$LUPREC
 70
     4
  9
$SKETCHINC
 40
1.0
  9
$FILLETRAD
 40
0.0
  9
$AUNITS
 70
     0
  9
$AUPREC
 70
     0
  9
$MENU
  1
.
  9
$ELEVATION
 40
0.0
  9
$PELEVATION
 40
0.0
  9
$THICKNESS
 40
0.0
  9
$LIMCHECK
 70
     0
  9
$CHAMFERA
 40
0.0
  9
$CHAMFERB
 40
0.0
  9
$CHAMFERC
 40
0.0
  9
$CHAMFERD
 40
0.0
  9
$SKPOLY
 70
     0
  9
$TDCREATE
 40
2460256.455682870
  9
$TDUCREATE
 40
2460256.164016204
  9
$TDUPDATE
 40
2460256.474409722
  9
$TDUUPDATE
 40
2460256.182743056
  9
$TDINDWG
 40
0.0086458333
  9
$TDUSRTIMER
 40
0.0086458333
  9
$USRTIMER
 70
     1
  9
$ANGBASE
 50
0.0
  9
$ANGDIR
 70
     0
  9
$PDMODE
 70
     0
  9
$PDSIZE
 40
0.0
  9
$PLINEWID
 40
0.0
  9
$SPLFRAME
 70
     0
  9
$SPLINETYPE
 70
     6
  9
$SPLINESEGS
 70
     8
  9
$HANDSEED
  5
C8F0
  9
$SURFTAB1
 70
     6
  9
$SURFTAB2
 70
     6
  9
$SURFTYPE
 70
     6
  9
$SURFU
 70
     6
  9
$SURFV
 70
     6
  9
$UCSBASE
  2

  9
$UCSNAME
  2

  9
$UCSORG
 10
0.0
 20
0.0
 30
0.0
  9
$UCSXDIR
 10
1.0
 20
0.0
 30
0.0
  9
$UCSYDIR
 10
0.0
 20
1.0
 30
0.0
  9
$UCSORTHOREF
  2

  9
$UCSORTHOVIEW
 70
     0
  9
$UCSORGTOP
 10
0.0
 20
0.0
 30
0.0
  9
$UCSORGBOTTOM
 10
0.0
 20
0.0
 30
0.0
  9
$UCSORGLEFT
 10
0.0
 20
0.0
 30
0.0
  9
$UCSORGRIGHT
 10
0.0
 20
0.0
 30
0.0
  9
$UCSORGFRONT
 10
0.0
 20
0.0
 30
0.0
  9
$UCSORGBACK
 10
0.0
 20
0.0
 30
0.0
  9
$PUCSBASE
  2

  9
$PUCSNAME
  2

  9
$PUCSORG
 10
0.0
 20
0.0
 30
0.0
  9
$PUCSXDIR
 10
1.0
 20
0.0
 30
0.0
  9
$PUCSYDIR
 10
0.0
 20
1.0
 30
0.0
  9
$PUCSORTHOREF
  2

  9
$PUCSORTHOVIEW
 70
     0
  9
$PUCSORGTOP
 10
0.0
 20
0.0
 30
0.0
  9
$PUCSORGBOTTOM
 10
0.0
 20
0.0
 30
0.0
  9
$PUCSORGLEFT
 10
0.0
 20
0.0
 30
0.0
  9
$PUCSORGRIGHT
 10
0.0
 20
0.0
 30
0.0
  9
$PUCSORGFRONT
 10
0.0
 20
0.0
 30
0.0
  9
$PUCSORGBACK
 10
0.0
 20
0.0
 30
0.0
  9
$USERI1
 70
     0
  9
$USERI2
 70
     0
  9
$USERI3
 70
     0
  9
$USERI4
 70
     0
  9
$USERI5
 70
     0
  9
$USERR1
 40
0.0
  9
$USERR2
 40
0.0
  9
$USERR3
 40
0.0
  9
$USERR4
 40
0.0
  9
$USERR5
 40
0.0
  9
$WORLDVIEW
 70
     1
  9
$SHADEDGE
 70
     3
  9
$SHADEDIF
 70
    70
  9
$TILEMODE
 70
     1
  9
$MAXACTVP
 70
    48
  9
$PINSBASE
 10
0.0
 20
0.0
 30
0.0
  9
$PLIMCHECK
 70
     0
  9
$PEXTMIN
 10
0.0
 20
0.0
 30
0.0
  9
$PEXTMAX
 10
0.0
 20
0.0
 30
0.0
  9
$PLIMMIN
 10
0.0
 20
0.0
  9
$PLIMMAX
 10
12.0
 20
9.0
  9
$UNITMODE
 70
     0
  9
$VISRETAIN
 70
     1
  9
$PLINEGEN
 70
     0
  9
$PSLTSCALE
 70
     1
  9
$TREEDEPTH
 70
  3020
  9
$CMLSTYLE
  2
Standard
  9
$CMLJUST
 70
     0
  9
$CMLSCALE
 40
20.0
  9
$PROXYGRAPHICS
 70
     1
  9
$MEASUREMENT
 70
     1
  9
$CELWEIGHT
370
    -1
  9
$ENDCAPS
280
     0
  9
$JOINSTYLE
280
     0
  9
$LWDISPLAY
290
     0
  9
$INSUNITS
 70
     4
  9
$HYPERLINKBASE
  1

  9
$STYLESHEET
  1

  9
$XEDIT
290
     1
  9
$CEPSNTYPE
380
     0
  9
$PSTYLEMODE
290
     1
  9
$FINGERPRINTGUID
  2
{C87446AF-CF6E-F546-A37B-8E334CFB4C3A}
  9
$VERSIONGUID
  2
{E63075AC-0022-6E47-8868-DE3761E710DD}
  9
$EXTNAMES
290
     1
  9
$PSVPSCALE
 40
0.0
  9
$OLESTARTUP
290
     0
  0
ENDSEC
  0
SECTION
  2
CLASSES
  0
CLASS
  1
ACDBDICTIONARYWDFLT
  2
AcDbDictionaryWithDefault
  3
ObjectDBX Classes
 90
        0
280
     0
281
     0
  0
CLASS
  1
ACDBPLACEHOLDER
  2
AcDbPlaceHolder
  3
ObjectDBX Classes
 90
        0
280
     0
281
     0
  0
CLASS
  1
LAYOUT
  2
AcDbLayout
  3
ObjectDBX Classes
 90
        0
280
     0
281
     0
  0
CLASS
  1
DICTIONARYVAR
  2
AcDbDictionaryVar
  3
ObjectDBX Classes
 90
        0
280
     0
281
     0
  0
CLASS
  1
TABLESTYLE
  2
AcDbTableStyle
  3
ObjectDBX Classes
 90
     4095
280
     0
281
     0
  0
CLASS
  1
MATERIAL
  2
AcDbMaterial
  3
ObjectDBX Classes
 90
     1153
280
     0
281
     0
  0
CLASS
  1
VISUALSTYLE
  2
AcDbVisualStyle
  3
ObjectDBX Classes
 90
     4095
280
     0
281
     0
  0
CLASS
  1
SCALE
  2
AcDbScale
  3
ObjectDBX Classes
 90
     1153
280
     0
281
     0
  0
CLASS
  1
MLEADERSTYLE
  2
AcDbMLeaderStyle
  3
ACDB_MLEADERSTYLE_CLASS
 90
     4095
280
     0
281
     0
  0
CLASS
  1
CELLSTYLEMAP
  2
AcDbCellStyleMap
  3
ObjectDBX Classes
 90
     1152
280
     0
281
     0
  0
CLASS
  1
EXACXREFPANELOBJECT
  2
ExAcXREFPanelObject
  3
EXAC_ESW
 90
    33793
280
     0
281
     0
  0
CLASS
  1
NPOCOLLECTION
  2
AcDbImpNonPersistentObjectsCollection
  3
ObjectDBX Classes
 90
    33921
280
     0
281
     0
  0
CLASS
  1
LAYER_INDEX
  2
AcDbLayerIndex
  3
ObjectDBX Classes
 90
    32768
280
     0
281
     0
  0
CLASS
  1
SPATIAL_INDEX
  2
AcDbSpatialIndex
  3
ObjectDBX Classes
 90
    32768
280
     0
281
     0
  0
CLASS
  1
IDBUFFER
  2
AcDbIdBuffer
  3
ObjectDBX Classes
 90
    32768
280
     0
281
     0
  0
CLASS
  1
ACDBSECTIONVIEWSTYLE
  2
AcDbSectionViewStyle
  3
ObjectDBX Classes
 90
     1025
280
     0
281
     0
  0
CLASS
  1
ACDBDETAILVIEWSTYLE
  2
AcDbDetailViewStyle
  3
ObjectDBX Classes
 90
     1025
280
     0
281
     0
  0
CLASS
  1
XRECORD
  2
AcDbXrecord
  3
ObjectDBX Classes
 90
        0
280
     0
281
     0
  0
ENDSEC
  0
SECTION
  2
TABLES
  0
TABLE
  2
VPORT
  5
8
102
{ACAD_XDICTIONARY
360
C7FE
102
}
330
0
100
AcDbSymbolTable
 70
     1
  0
VPORT
  5
EA
330
8
100
AcDbSymbolTableRecord
100
AcDbViewportTableRecord
  2
*Active
 70
     0
 10
0.0
 20
0.0
 11
1.0
 21
1.0
 12
86.31995833955398
 22
4.234961638083518
 13
0.0
 23
0.0
 14
10.0
 24
10.0
 15
10.0
 25
10.0
 16
0.0
 26
0.0
 36
1.0
 17
0.0
 27
0.0
 37
0.0
 40
1272.933007760932
 41
0.9846153846153846
 42
50.0
 43
0.0
 44
0.0
 50
0.0
 51
0.0
 71
     0
 72
  1000
 73
     1
 74
     3
 75
     0
 76
     1
 77
     0
 78
     0
281
     0
 65
     1
110
0.0
120
0.0
130
0.0
111
1.0
121
0.0
131
0.0
112
0.0
122
1.0
132
0.0
 79
     0
146
0.0
1001
ACAD_NAV_VCDISPLAY
1070
     3
  0
ENDTAB
  0
TABLE
  2
LTYPE
  5
5
330
0
100
AcDbSymbolTable
 70
     1
  0
LTYPE
  5
14
330
5
100
AcDbSymbolTableRecord
100
AcDbLinetypeTableRecord
  2
ByBlock
 70
     0
  3

 72
    65
 73
     0
 40
0.0
  0
LTYPE
  5
15
330
5
100
AcDbSymbolTableRecord
100
AcDbLinetypeTableRecord
  2
ByLayer
 70
     0
  3

 72
    65
 73
     0
 40
0.0
  0
LTYPE
  5
16
330
5
100
AcDbSymbolTableRecord
100
AcDbLinetypeTableRecord
  2
Continuous
 70
     0
  3
Solid line
 72
    65
 73
     0
 40
0.0
  0
ENDTAB
  0
TABLE
  2
LAYER
  5
2
102
{ACAD_XDICTIONARY
360
1FF
102
}
330
0
100
AcDbSymbolTable
 70
     1
  0
LAYER
  5
10
102
{ACAD_XDICTIONARY
360
13C
102
}
330
2
100
AcDbSymbolTableRecord
100
AcDbLayerTableRecord
  2
0
 70
     0
 62
     7
  6
Continuous
370
    -3
390
F
  0
ENDTAB
  0
TABLE
  2
STYLE
  5
3
330
0
100
AcDbSymbolTable
 70
     1
  0
STYLE
  5
11
330
3
100
AcDbSymbolTableRecord
100
AcDbTextStyleTableRecord
  2
Standard
 70
     0
 40
0.0
 41
1.0
 50
0.0
 71
     0
 42
2.5
  3
arial.ttf
  4

1001
ACAD
1000
Arial
1071
       34
  0
ENDTAB
  0
TABLE
  2
VIEW
  5
6
330
0
100
AcDbSymbolTable
 70
     0
  0
ENDTAB
  0
TABLE
  2
UCS
  5
7
330
0
100
AcDbSymbolTable
 70
     0
  0
ENDTAB
  0
TABLE
  2
APPID
  5
9
330
0
100
AcDbSymbolTable
 70
     8
  0
APPID
  5
12
330
9
100
AcDbSymbolTableRecord
100
AcDbRegAppTableRecord
  2
ACAD
 70
     0
  0
APPID
  5
9E
330
9
100
AcDbSymbolTableRecord
100
AcDbRegAppTableRecord
  2
ACAD_PSEXT
 70
     0
  0
APPID
  5
133
330
9
100
AcDbSymbolTableRecord
100
AcDbRegAppTableRecord
  2
AcadAnnoPO
 70
     0
  0
APPID
  5
134
330
9
100
AcDbSymbolTableRecord
100
AcDbRegAppTableRecord
  2
AcadAnnotative
 70
     0
  0
APPID
  5
135
330
9
100
AcDbSymbolTableRecord
100
AcDbRegAppTableRecord
  2
ACAD_DSTYLE_DIMJAG
 70
     0
  0
APPID
  5
136
330
9
100
AcDbSymbolTableRecord
100
AcDbRegAppTableRecord
  2
ACAD_DSTYLE_DIMTALN
 70
     0
  0
APPID
  5
165
330
9
100
AcDbSymbolTableRecord
100
AcDbRegAppTableRecord
  2
ACAD_MLEADERVER
 70
     0
  0
APPID
  5
217
330
9
100
AcDbSymbolTableRecord
100
AcDbRegAppTableRecord
  2
ACAD_NAV_VCDISPLAY
 70
     0
  0
ENDTAB
  0
TABLE
  2
DIMSTYLE
  5
A
330
0
100
AcDbSymbolTable
 70
     1
100
AcDbDimStyleTable
 71
     0
  0
DIMSTYLE
105
27
330
A
100
AcDbSymbolTableRecord
100
AcDbDimStyleTableRecord
  2
ISO-25
 70
     0
 41
2.5
 42
0.625
 43
3.75
 44
1.25
 73
     0
 74
     0
 77
     1
 78
     8
140
2.5
141
2.5
143
0.03937007874016
147
0.625
171
     3
172
     1
271
     2
272
     2
274
     3
278
    44
283
     0
284
     8
340
11
  0
ENDTAB
  0
TABLE
  2
BLOCK_RECORD
  5
1
330
0
100
AcDbSymbolTable
 70
     7
  0
BLOCK_RECORD
  5
1F
102
{ACAD_XDICTIONARY
360
1CE
102
}
330
1
100
AcDbSymbolTableRecord
100
AcDbBlockTableRecord
  2
*Model_Space
340
22
  0
BLOCK_RECORD
  5
D2
102
{ACAD_XDICTIONARY
360
C7AF
102
}
330
1
100
AcDbSymbolTableRecord
100
AcDbBlockTableRecord
  2
*Paper_Space
340
D3
  0
BLOCK_RECORD
  5
D6
102
{ACAD_XDICTIONARY
360
C7B1
102
}
330
1
100
AcDbSymbolTableRecord
100
AcDbBlockTableRecord
  2
*Paper_Space0
340
D7
  0
BLOCK_RECORD
  5
C59C
330
1
100
AcDbSymbolTableRecord
100
AcDbBlockTableRecord
  2
GLE1020_240_2.5-Front
340
0
102
{BLKREFS
331
C7A5
102
}
  0
BLOCK_RECORD
  5
C60F
330
1
100
AcDbSymbolTableRecord
100
AcDbBlockTableRecord
  2
GLE1020_240_2.5-Left
340
0
102
{BLKREFS
331
C7A6
102
}
  0
BLOCK_RECORD
  5
C63C
330
1
100
AcDbSymbolTableRecord
100
AcDbBlockTableRecord
  2
GLE1020_240_2.5-Right
340
0
102
{BLKREFS
331
C7A7
102
}
  0
BLOCK_RECORD
  5
C66A
330
1
100
AcDbSymbolTableRecord
100
AcDbBlockTableRecord
  2
GLE1020_240_2.5-Top
340
0
102
{BLKREFS
331
C7A8
102
}
  0
BLOCK_RECORD
  5
C691
330
1
100
AcDbSymbolTableRecord
100
AcDbBlockTableRecord
  2
GLE1020_240_2.5-Bottom
340
0
102
{BLKREFS
331
C7A9
102
}
  0
BLOCK_RECORD
  5
C6BA
330
1
100
AcDbSymbolTableRecord
100
AcDbBlockTableRecord
  2
GLE1020_240_2.5-ISO
340
0
102
{BLKREFS
331
C7AA
102
}
  0
ENDTAB
  0
ENDSEC
  0
SECTION
  2
BLOCKS
  0
BLOCK
  5
20
330
1F
100
AcDbEntity
  8
0
100
AcDbBlockBegin
  2
*Model_Space
 70
     0
 10
0.0
 20
0.0
 30
0.0
  3
*Model_Space
  1

  0
ENDBLK
  5
21
330
1F
100
AcDbEntity
  8
0
100
AcDbBlockEnd
  0
BLOCK
  5
D4
330
D2
100
AcDbEntity
 67
     1
  8
0
100
AcDbBlockBegin
  2
*Paper_Space
 70
     0
 10
0.0
 20
0.0
 30
0.0
  3
*Paper_Space
  1

  0
ENDBLK
  5
D5
330
D2
100
AcDbEntity
 67
     1
  8
0
100
AcDbBlockEnd
  0
BLOCK
  5
D8
330
D6
100
AcDbEntity
 67
     1
  8
0
100
AcDbBlockBegin
  2
*Paper_Space0
 70
     0
 10
0.0
 20
0.0
 30
0.0
  3
*Paper_Space0
  1

  0
ENDBLK
  5
D9
330
D6
100
AcDbEntity
 67
     1
  8
0
100
AcDbBlockEnd
  0
BLOCK
  5
C59D
330
C59C
100
AcDbEntity
  8
0
100
AcDbBlockBegin
  2
GLE1020_240_2.5-Front
 70
     0
 10
0.0
 20
0.0
 30
0.0
  3
GLE1020_240_2.5-Front
  1

  0
ARC
  5
C59F
330
C59C
100
AcDbEntity
  8
0
100
AcDbCircle
 10
-119.3999999999999
 20
0.6000000000000034
 30
0.0
 40
3.1
100
AcDbArc
 50
180.0
 51
270.0
  0
ARC
  5
C5A0
330
C59C
100
AcDbEntity
  8
0
100
AcDbCircle
 10
-119.3999999999999
 20
0.6000000000000034
 30
0.0
 40
0.6
100
AcDbArc
 50
180.0
 51
270.0
  0
LINE
  5
C5A1
330
C59C
100
AcDbEntity
  8
0
100
AcDbLine
 10
119.4
 20
0.0
 30
0.0
 11
-119.3999999999999
 21
0.0
 31
0.0
  0
LINE
  5
C5A2
330
C59C
100
AcDbEntity
  8
0
100
AcDbLine
 10
119.4
 20
-2.500000000000023
 30
0.0
 11
-119.3999999999999
 21
-2.499999999999996
 31
0.0
  0
LINE
  5
C5A3
330
C59C
100
AcDbEntity
  8
0
100
AcDbLine
 10
120.0
 20
10.40318114520582
 30
0.0
 11
120.0
 21
0.5999999999999817
 31
0.0
  0
LINE
  5
C5A4
330
C59C
100
AcDbEntity
  8
0
100
AcDbLine
 10
122.5
 20
10.40318114520581
 30
0.0
 11
122.5
 21
0.5999999999999817
 31
0.0
  0
LINE
  5
C5A5
330
C59C
100
AcDbEntity
  8
0
100
AcDbLine
 10
-143.8089863591974
 20
20.76000000000002
 30
0.0
 11
-123.0999999999999
 21
15.74996892898395
 31
0.0
  0
LINE
  5
C5A6
330
C59C
100
AcDbEntity
  8
0
100
AcDbLine
 10
-123.0999999999998
 20
390.0
 30
0.0
 11
-160.9999999999999
 21
390.0
 31
0.0
  0
LINE
  5
C5A7
330
C59C
100
AcDbEntity
  8
0
100
AcDbLine
 10
-160.9999999999999
 20
390.0
 30
0.0
 11
-160.9999999999999
 21
31.92397479309918
 31
0.0
  0
LINE
  5
C5A8
330
C59C
100
AcDbEntity
  8
0
100
AcDbLine
 10
-160.9999999999999
 20
31.92397479309918
 30
0.0
 11
-143.8089863591974
 21
20.76000000000002
 31
0.0
  0
LINE
  5
C5A9
330
C59C
100
AcDbEntity
  8
0
100
AcDbLine
 10
-119.9999999999999
 20
29.0
 30
0.0
 11
-119.9999999999998
 21
390.0
 31
0.0
  0
LINE
  5
C5AA
330
C59C
100
AcDbEntity
  8
0
100
AcDbLine
 10
-122.4999999999998
 20
390.0
 30
0.0
 11
-119.9999999999998
 21
390.0
 31
0.0
  0
LINE
  5
C5AB
330
C59C
100
AcDbEntity
  8
0
100
AcDbLine
 10
-122.4999999999999
 20
29.0
 30
0.0
 11
-122.4999999999998
 21
390.0
 31
0.0
  0
LINE
  5
C5AC
330
C59C
100
AcDbEntity
  8
0
100
AcDbLine
 10
-122.4999999999999
 20
29.0
 30
0.0
 11
-119.9999999999999
 21
29.0
 31
0.0
  0
LINE
  5
C5AD
330
C59C
100
AcDbEntity
  8
0
100
AcDbLine
 10
-119.9999999999999
 20
15.17
 30
0.0
 11
-119.9999999999999
 21
29.0
 31
0.0
  0
LINE
  5
C5AE
330
C59C
100
AcDbEntity
  8
0
100
AcDbLine
 10
-122.4999999999999
 20
15.17
 30
0.0
 11
-122.4999999999999
 21
29.0
 31
0.0
  0
LINE
  5
C5AF
330
C59C
100
AcDbEntity
  8
0
100
AcDbLine
 10
-122.4999999999999
 20
15.17
 30
0.0
 11
-119.9999999999999
 21
15.17
 31
0.0
  0
LINE
  5
C5B0
330
C59C
100
AcDbEntity
  8
0
100
AcDbLine
 10
-119.9999999999999
 20
10.40318114520584
 30
0.0
 11
-119.9999999999999
 21
15.17
 31
0.0
  0
LINE
  5
C5B1
330
C59C
100
AcDbEntity
  8
0
100
AcDbLine
 10
-122.4999999999999
 20
10.40318114520584
 30
0.0
 11
-122.4999999999999
 21
15.17
 31
0.0
  0
LINE
  5
C5B2
330
C59C
100
AcDbEntity
  8
0
100
AcDbLine
 10
-122.4999999999999
 20
10.40318114520584
 30
0.0
 11
-119.9999999999999
 21
10.40318114520584
 31
0.0
  0
LINE
  5
C5B3
330
C59C
100
AcDbEntity
  8
0
100
AcDbLine
 10
-119.9999999999999
 20
0.6000000000000086
 30
0.0
 11
-119.9999999999999
 21
10.40318114520584
 31
0.0
  0
LINE
  5
C5B4
330
C59C
100
AcDbEntity
  8
0
100
AcDbLine
 10
-122.4999999999999
 20
0.6000000000000087
 30
0.0
 11
-122.4999999999999
 21
10.40318114520584
 31
0.0
  0
ARC
  5
C5B5
330
C59C
100
AcDbEntity
  8
0
100
AcDbCircle
 10
119.4
 20
0.599999999999977
 30
0.0
 40
3.1
100
AcDbArc
 50
270.0
 51
0.0
  0
ARC
  5
C5B6
330
C59C
100
AcDbEntity
  8
0
100
AcDbCircle
 10
119.4
 20
0.599999999999977
 30
0.0
 40
0.6
100
AcDbArc
 50
270.0
 51
0.0
  0
CIRCLE
  5
C5B7
330
C59C
100
AcDbEntity
  8
0
100
AcDbCircle
 10
153.4999999999999
 20
52.49999999999999
 30
0.0
 40
2.5
  0
CIRCLE
  5
C5B8
330
C59C
100
AcDbEntity
  8
0
100
AcDbCircle
 10
153.4999999999999
 20
72.49999999999999
 30
0.0
 40
2.5
  0
CIRCLE
  5
C5B9
330
C59C
100
AcDbEntity
  8
0
100
AcDbCircle
 10
153.4999999999999
 20
92.49999999999998
 30
0.0
 40
2.5
  0
CIRCLE
  5
C5BA
330
C59C
100
AcDbEntity
  8
0
100
AcDbCircle
 10
153.4999999999999
 20
112.5
 30
0.0
 40
2.5
  0
CIRCLE
  5
C5BB
330
C59C
100
AcDbEntity
  8
0
100
AcDbCircle
 10
153.4999999999999
 20
132.4999999999999
 30
0.0
 40
2.5
  0
CIRCLE
  5
C5BC
330
C59C
100
AcDbEntity
  8
0
100
AcDbCircle
 10
153.4999999999998
 20
152.4999999999999
 30
0.0
 40
2.5
  0
CIRCLE
  5
C5BD
330
C59C
100
AcDbEntity
  8
0
100
AcDbCircle
 10
153.4999999999998
 20
172.5
 30
0.0
 40
2.5
  0
CIRCLE
  5
C5BE
330
C59C
100
AcDbEntity
  8
0
100
AcDbCircle
 10
153.4999999999998
 20
192.5
 30
0.0
 40
2.5
  0
CIRCLE
  5
C5BF
330
C59C
100
AcDbEntity
  8
0
100
AcDbCircle
 10
153.4999999999998
 20
212.5
 30
0.0
 40
2.5
  0
CIRCLE
  5
C5C0
330
C59C
100
AcDbEntity
  8
0
100
AcDbCircle
 10
153.4999999999998
 20
232.5
 30
0.0
 40
2.5
  0
CIRCLE
  5
C5C1
330
C59C
100
AcDbEntity
  8
0
100
AcDbCircle
 10
153.4999999999998
 20
252.5
 30
0.0
 40
2.5
  0
CIRCLE
  5
C5C2
330
C59C
100
AcDbEntity
  8
0
100
AcDbCircle
 10
153.4999999999998
 20
272.5
 30
0.0
 40
2.5
  0
CIRCLE
  5
C5C3
330
C59C
100
AcDbEntity
  8
0
100
AcDbCircle
 10
153.4999999999998
 20
292.5
 30
0.0
 40
2.5
  0
CIRCLE
  5
C5C4
330
C59C
100
AcDbEntity
  8
0
100
AcDbCircle
 10
153.4999999999998
 20
312.5
 30
0.0
 40
2.5
  0
CIRCLE
  5
C5C5
330
C59C
100
AcDbEntity
  8
0
100
AcDbCircle
 10
153.4999999999998
 20
332.5
 30
0.0
 40
2.5
  0
CIRCLE
  5
C5C6
330
C59C
100
AcDbEntity
  8
0
100
AcDbCircle
 10
153.4999999999998
 20
352.5
 30
0.0
 40
2.5
  0
CIRCLE
  5
C5C7
330
C59C
100
AcDbEntity
  8
0
100
AcDbCircle
 10
140.4999999999999
 20
42.49999999999999
 30
0.0
 40
7.0
  0
CIRCLE
  5
C5C8
330
C59C
100
AcDbEntity
  8
0
100
AcDbCircle
 10
140.4999999999998
 20
162.5
 30
0.0
 40
7.0
  0
CIRCLE
  5
C5C9
330
C59C
100
AcDbEntity
  8
0
100
AcDbCircle
 10
140.4999999999998
 20
262.5
 30
0.0
 40
7.0
  0
CIRCLE
  5
C5CA
330
C59C
100
AcDbEntity
  8
0
100
AcDbCircle
 10
140.4999999999998
 20
362.5
 30
0.0
 40
7.0
  0
CIRCLE
  5
C5CB
330
C59C
100
AcDbEntity
  8
0
100
AcDbCircle
 10
153.4999999999997
 20
372.5
 30
0.0
 40
2.5
  0
CIRCLE
  5
C5CC
330
C59C
100
AcDbEntity
  8
0
100
AcDbCircle
 10
135.4999999999997
 20
382.5
 30
0.0
 40
2.5
  0
LINE
  5
C5CD
330
C59C
100
AcDbEntity
  8
0
100
AcDbLine
 10
123.0999999999998
 20
390.0
 30
0.0
 11
160.9999999999997
 21
390.0
 31
0.0
  0
LINE
  5
C5CE
330
C59C
100
AcDbEntity
  8
0
100
AcDbLine
 10
160.9999999999997
 20
390.0
 30
0.0
 11
160.9999999999999
 21
31.92397479309918
 31
0.0
  0
LINE
  5
C5CF
330
C59C
100
AcDbEntity
  8
0
100
AcDbLine
 10
160.9999999999999
 20
31.92397479309914
 30
0.0
 11
143.8089863591974
 21
20.75999999999999
 31
0.0
  0
LINE
  5
C5D0
330
C59C
100
AcDbEntity
  8
0
100
AcDbLine
 10
143.8089863591974
 20
20.75999999999999
 30
0.0
 11
123.0999999999999
 21
15.74996892898391
 31
0.0
  0
LINE
  5
C5D1
330
C59C
100
AcDbEntity
  8
0
100
AcDbLine
 10
120.0
 20
28.99999999999997
 30
0.0
 11
120.0
 21
390.0
 31
0.0
  0
LINE
  5
C5D2
330
C59C
100
AcDbEntity
  8
0
100
AcDbLine
 10
122.5
 20
28.99999999999997
 30
0.0
 11
120.0
 21
28.99999999999997
 31
0.0
  0
LINE
  5
C5D3
330
C59C
100
AcDbEntity
  8
0
100
AcDbLine
 10
122.5
 20
28.99999999999997
 30
0.0
 11
122.5
 21
390.0
 31
0.0
  0
LINE
  5
C5D4
330
C59C
100
AcDbEntity
  8
0
100
AcDbLine
 10
122.5
 20
390.0
 30
0.0
 11
120.0
 21
390.0
 31
0.0
  0
LINE
  5
C5D5
330
C59C
100
AcDbEntity
  8
0
100
AcDbLine
 10
120.0
 20
15.16999999999997
 30
0.0
 11
120.0
 21
28.99999999999997
 31
0.0
  0
LINE
  5
C5D6
330
C59C
100
AcDbEntity
  8
0
100
AcDbLine
 10
122.5
 20
15.16999999999997
 30
0.0
 11
120.0
 21
15.16999999999997
 31
0.0
  0
LINE
  5
C5D7
330
C59C
100
AcDbEntity
  8
0
100
AcDbLine
 10
122.5
 20
15.16999999999997
 30
0.0
 11
122.5
 21
28.99999999999997
 31
0.0
  0
LINE
  5
C5D8
330
C59C
100
AcDbEntity
  8
0
100
AcDbLine
 10
120.0
 20
10.40318114520582
 30
0.0
 11
120.0
 21
15.16999999999997
 31
0.0
  0
LINE
  5
C5D9
330
C59C
100
AcDbEntity
  8
0
100
AcDbLine
 10
122.5
 20
10.40318114520581
 30
0.0
 11
120.0
 21
10.40318114520582
 31
0.0
  0
LINE
  5
C5DA
330
C59C
100
AcDbEntity
  8
0
100
AcDbLine
 10
122.5
 20
10.40318114520581
 30
0.0
 11
122.5
 21
15.16999999999997
 31
0.0
  0
CIRCLE
  5
C5DB
330
C59C
100
AcDbEntity
  8
0
100
AcDbCircle
 10
135.4999999999999
 20
62.49999999999999
 30
0.0
 40
2.5
  0
CIRCLE
  5
C5DC
330
C59C
100
AcDbEntity
  8
0
100
AcDbCircle
 10
135.4999999999999
 20
82.49999999999998
 30
0.0
 40
2.5
  0
CIRCLE
  5
C5DD
330
C59C
100
AcDbEntity
  8
0
100
AcDbCircle
 10
135.4999999999999
 20
102.5
 30
0.0
 40
2.5
  0
CIRCLE
  5
C5DE
330
C59C
100
AcDbEntity
  8
0
100
AcDbCircle
 10
135.4999999999999
 20
122.5
 30
0.0
 40
2.5
  0
CIRCLE
  5
C5DF
330
C59C
100
AcDbEntity
  8
0
100
AcDbCircle
 10
-135.4999999999999
 20
122.5
 30
0.0
 40
2.5
  0
CIRCLE
  5
C5E0
330
C59C
100
AcDbEntity
  8
0
100
AcDbCircle
 10
-135.4999999999999
 20
102.5
 30
0.0
 40
2.5
  0
CIRCLE
  5
C5E1
330
C59C
100
AcDbEntity
  8
0
100
AcDbCircle
 10
-135.4999999999999
 20
82.50000000000001
 30
0.0
 40
2.5
  0
CIRCLE
  5
C5E2
330
C59C
100
AcDbEntity
  8
0
100
AcDbCircle
 10
-135.4999999999999
 20
62.50000000000001
 30
0.0
 40
2.5
  0
CIRCLE
  5
C5E3
330
C59C
100
AcDbEntity
  8
0
100
AcDbCircle
 10
135.4999999999998
 20
182.5
 30
0.0
 40
2.5
  0
CIRCLE
  5
C5E4
330
C59C
100
AcDbEntity
  8
0
100
AcDbCircle
 10
135.4999999999998
 20
202.5
 30
0.0
 40
2.5
  0
CIRCLE
  5
C5E5
330
C59C
100
AcDbEntity
  8
0
100
AcDbCircle
 10
135.4999999999998
 20
222.5
 30
0.0
 40
2.5
  0
CIRCLE
  5
C5E6
330
C59C
100
AcDbEntity
  8
0
100
AcDbCircle
 10
-135.4999999999999
 20
222.5
 30
0.0
 40
2.5
  0
CIRCLE
  5
C5E7
330
C59C
100
AcDbEntity
  8
0
100
AcDbCircle
 10
-135.4999999999999
 20
202.5
 30
0.0
 40
2.5
  0
CIRCLE
  5
C5E8
330
C59C
100
AcDbEntity
  8
0
100
AcDbCircle
 10
-135.4999999999999
 20
182.5
 30
0.0
 40
2.5
  0
CIRCLE
  5
C5E9
330
C59C
100
AcDbEntity
  8
0
100
AcDbCircle
 10
135.4999999999998
 20
282.5
 30
0.0
 40
2.5
  0
CIRCLE
  5
C5EA
330
C59C
100
AcDbEntity
  8
0
100
AcDbCircle
 10
135.4999999999998
 20
302.5
 30
0.0
 40
2.5
  0
CIRCLE
  5
C5EB
330
C59C
100
AcDbEntity
  8
0
100
AcDbCircle
 10
135.4999999999998
 20
322.5
 30
0.0
 40
2.5
  0
CIRCLE
  5
C5EC
330
C59C
100
AcDbEntity
  8
0
100
AcDbCircle
 10
-135.4999999999998
 20
322.5
 30
0.0
 40
2.5
  0
CIRCLE
  5
C5ED
330
C59C
100
AcDbEntity
  8
0
100
AcDbCircle
 10
-135.4999999999998
 20
302.5
 30
0.0
 40
2.5
  0
CIRCLE
  5
C5EE
330
C59C
100
AcDbEntity
  8
0
100
AcDbCircle
 10
-135.4999999999998
 20
282.5
 30
0.0
 40
2.5
  0
CIRCLE
  5
C5EF
330
C59C
100
AcDbEntity
  8
0
100
AcDbCircle
 10
135.4999999999998
 20
142.5
 30
0.0
 40
2.5
  0
CIRCLE
  5
C5F0
330
C59C
100
AcDbEntity
  8
0
100
AcDbCircle
 10
-135.4999999999999
 20
142.5
 30
0.0
 40
2.5
  0
CIRCLE
  5
C5F1
330
C59C
100
AcDbEntity
  8
0
100
AcDbCircle
 10
135.4999999999998
 20
242.5
 30
0.0
 40
2.5
  0
CIRCLE
  5
C5F2
330
C59C
100
AcDbEntity
  8
0
100
AcDbCircle
 10
-135.4999999999998
 20
242.5
 30
0.0
 40
2.5
  0
CIRCLE
  5
C5F3
330
C59C
100
AcDbEntity
  8
0
100
AcDbCircle
 10
135.4999999999998
 20
342.5
 30
0.0
 40
2.5
  0
CIRCLE
  5
C5F4
330
C59C
100
AcDbEntity
  8
0
100
AcDbCircle
 10
-135.4999999999998
 20
342.5
 30
0.0
 40
2.5
  0
SPLINE
  5
C5F5
330
C59C
100
AcDbEntity
  8
0
100
AcDbSpline
210
0.0
220
0.0
230
1.0
 70
     8
 71
     3
 72
    14
 73
    10
 74
     0
 42
0.000000001
 43
0.0000000001
 40
0.0
 40
0.0
 40
0.0
 40
0.0
 40
0.0256821069351767
 40
0.0256821069351767
 40
0.0513523519076719
 40
0.0513523519076719
 40
0.0751435263771711
 40
0.0751435263771711
 40
0.0989346991640027
 40
0.0989346991640027
 40
0.0989346991640027
 40
0.0989346991640027
 10
122.5
 20
15.45965837582882
 30
0.0
 10
122.5
 20
15.48485876044373
 30
0.0
 10
122.5167337585016
 20
15.50980053596497
 30
0.0
 10
122.5815912029493
 20
15.56019085962637
 30
0.0
 10
122.629020953497
 20
15.58512068791945
 30
0.0
 10
122.7437004383141
 20
15.63365550369922
 30
0.0
 10
122.8082134169113
 20
15.65679398288067
 30
0.0
 10
122.9491018281388
 20
15.70348490744973
 30
0.0
 10
123.0242099955911
 20
15.72662401008195
 30
0.0
 10
123.1
 20
15.74996892898391
 30
0.0
  0
LINE
  5
C5F6
330
C59C
100
AcDbEntity
  8
0
100
AcDbLine
 10
123.0999999999999
 20
390.0000000000007
 30
0.0
 11
122.4999999999999
 21
390.0000000000003
 31
0.0
  0
LINE
  5
C5F7
330
C59C
100
AcDbEntity
  8
0
100
AcDbLine
 10
-122.4999999999998
 20
390.0000000000003
 30
0.0
 11
-123.0999999999994
 21
390.0000000000003
 31
0.0
  0
SPLINE
  5
C5F8
330
C59C
100
AcDbEntity
  8
0
100
AcDbSpline
210
0.0
220
0.0
230
1.0
 70
     8
 71
     3
 72
    14
 73
    10
 74
     0
 42
0.000000001
 43
0.0000000001
 40
0.0
 40
0.0
 40
0.0
 40
0.0
 40
0.0256821069351987
 40
0.0256821069351987
 40
0.051352351907695
 40
0.051352351907695
 40
0.075143526377183
 40
0.075143526377183
 40
0.0989346991640089
 40
0.0989346991640089
 40
0.0989346991640089
 40
0.0989346991640089
 10
-123.1
 20
15.74996892898399
 30
0.0
 10
-123.0181861685149
 20
15.72476854436899
 30
0.0
 10
-122.9372303267435
 20
15.69982676884778
 30
0.0
 10
-122.7870469484828
 20
15.64943644518635
 30
0.0
 10
-122.7193872951825
 20
15.62450661689325
 30
0.0
 10
-122.6113337295265
 20
15.57597180111354
 30
0.0
 10
-122.5702786657281
 20
15.55283332193214
 30
0.0
 10
-122.5143603130168
 20
15.50614239736304
 30
0.0
 10
-122.4999999999999
 20
15.48300329473089
 30
0.0
 10
-122.4999999999999
 20
15.45965837582885
 30
0.0
  0
CIRCLE
  5
C5F9
330
C59C
100
AcDbEntity
  8
0
100
AcDbCircle
 10
-135.4999999999998
 20
382.5
 30
0.0
 40
2.5
  0
CIRCLE
  5
C5FA
330
C59C
100
AcDbEntity
  8
0
100
AcDbCircle
 10
-153.4999999999999
 20
372.5
 30
0.0
 40
2.5
  0
CIRCLE
  5
C5FB
330
C59C
100
AcDbEntity
  8
0
100
AcDbCircle
 10
-140.4999999999998
 20
362.5
 30
0.0
 40
7.0
  0
CIRCLE
  5
C5FC
330
C59C
100
AcDbEntity
  8
0
100
AcDbCircle
 10
-140.4999999999998
 20
262.5
 30
0.0
 40
7.0
  0
CIRCLE
  5
C5FD
330
C59C
100
AcDbEntity
  8
0
100
AcDbCircle
 10
-140.4999999999999
 20
162.5
 30
0.0
 40
7.0
  0
CIRCLE
  5
C5FE
330
C59C
100
AcDbEntity
  8
0
100
AcDbCircle
 10
-140.4999999999999
 20
42.50000000000001
 30
0.0
 40
7.0
  0
CIRCLE
  5
C5FF
330
C59C
100
AcDbEntity
  8
0
100
AcDbCircle
 10
-153.4999999999999
 20
352.5
 30
0.0
 40
2.5
  0
CIRCLE
  5
C600
330
C59C
100
AcDbEntity
  8
0
100
AcDbCircle
 10
-153.4999999999999
 20
332.5
 30
0.0
 40
2.5
  0
CIRCLE
  5
C601
330
C59C
100
AcDbEntity
  8
0
100
AcDbCircle
 10
-153.4999999999999
 20
312.5
 30
0.0
 40
2.5
  0
CIRCLE
  5
C602
330
C59C
100
AcDbEntity
  8
0
100
AcDbCircle
 10
-153.4999999999999
 20
292.5
 30
0.0
 40
2.5
  0
CIRCLE
  5
C603
330
C59C
100
AcDbEntity
  8
0
100
AcDbCircle
 10
-153.4999999999999
 20
272.5
 30
0.0
 40
2.5
  0
CIRCLE
  5
C604
330
C59C
100
AcDbEntity
  8
0
100
AcDbCircle
 10
-153.4999999999999
 20
252.5
 30
0.0
 40
2.5
  0
CIRCLE
  5
C605
330
C59C
100
AcDbEntity
  8
0
100
AcDbCircle
 10
-153.4999999999999
 20
232.5
 30
0.0
 40
2.5
  0
CIRCLE
  5
C606
330
C59C
100
AcDbEntity
  8
0
100
AcDbCircle
 10
-153.4999999999999
 20
212.5
 30
0.0
 40
2.5
  0
CIRCLE
  5
C607
330
C59C
100
AcDbEntity
  8
0
100
AcDbCircle
 10
-153.4999999999999
 20
192.5
 30
0.0
 40
2.5
  0
CIRCLE
  5
C608
330
C59C
100
AcDbEntity
  8
0
100
AcDbCircle
 10
-153.4999999999999
 20
172.5
 30
0.0
 40
2.5
  0
CIRCLE
  5
C609
330
C59C
100
AcDbEntity
  8
0
100
AcDbCircle
 10
-153.4999999999999
 20
152.5
 30
0.0
 40
2.5
  0
CIRCLE
  5
C60A
330
C59C
100
AcDbEntity
  8
0
100
AcDbCircle
 10
-153.4999999999999
 20
132.5
 30
0.0
 40
2.5
  0
CIRCLE
  5
C60B
330
C59C
100
AcDbEntity
  8
0
100
AcDbCircle
 10
-153.4999999999999
 20
112.5
 30
0.0
 40
2.5
  0
CIRCLE
  5
C60C
330
C59C
100
AcDbEntity
  8
0
100
AcDbCircle
 10
-153.4999999999999
 20
92.50000000000001
 30
0.0
 40
2.5
  0
CIRCLE
  5
C60D
330
C59C
100
AcDbEntity
  8
0
100
AcDbCircle
 10
-153.4999999999999
 20
72.50000000000001
 30
0.0
 40
2.5
  0
CIRCLE
  5
C60E
330
C59C
100
AcDbEntity
  8
0
100
AcDbCircle
 10
-153.4999999999999
 20
52.50000000000001
 30
0.0
 40
2.5
  0
ENDBLK
  5
C59E
330
C59C
100
AcDbEntity
  8
0
100
AcDbBlockEnd
  0
BLOCK
  5
C610
330
C60F
100
AcDbEntity
  8
0
100
AcDbBlockBegin
  2
GLE1020_240_2.5-Left
 70
     0
 10
0.0
 20
0.0
 30
0.0
  3
GLE1020_240_2.5-Left
  1

  0
LINE
  5
C612
330
C60F
100
AcDbEntity
  8
0
100
AcDbLine
 10
-89.99994983788566
 20
-2.499999999999988
 30
0.0
 11
-89.99994983788566
 21
0.6000000000001049
 31
0.0
  0
LINE
  5
C613
330
C60F
100
AcDbEntity
  8
0
100
AcDbLine
 10
0.0000501621143968
 20
0.6000000000002601
 30
0.0
 11
0.0000501621143197
 21
-2.499999999999998
 31
0.0
  0
LINE
  5
C614
330
C60F
100
AcDbEntity
  8
0
100
AcDbLine
 10
0.0000501621143556
 20
-2.499999999999998
 30
0.0
 11
-89.99994983788566
 21
-2.499999999999988
 31
0.0
  0
LINE
  5
C615
330
C60F
100
AcDbEntity
  8
0
100
AcDbLine
 10
-94.99994983788569
 20
15.74996892898395
 30
0.0
 11
-92.66388057174882
 21
15.74996892898395
 31
0.0
  0
LINE
  5
C616
330
C60F
100
AcDbEntity
  8
0
100
AcDbLine
 10
-92.66388057174882
 20
15.74996892898395
 30
0.0
 11
-92.49994983788569
 21
15.74996892898395
 31
0.0
  0
SPLINE
  5
C617
330
C60F
100
AcDbEntity
  8
0
100
AcDbSpline
210
0.0
220
0.0
230
1.0
 70
     8
 71
     3
 72
    16
 73
    12
 74
     0
 42
0.000000001
 43
0.0000000001
 40
0.0
 40
0.0
 40
0.0
 40
0.0
 40
0.1215949558307314
 40
0.1215949558307314
 40
0.2431265849515063
 40
0.2431265849515063
 40
0.3646581810008176
 40
0.3646581810008176
 40
0.4268607865374414
 40
0.4268607865374414
 40
0.4890641182006846
 40
0.4890641182006846
 40
0.4890641182006846
 40
0.4890641182006846
 10
-91.8999498378856
 20
15.45965837582897
 30
0.0
 10
-92.30454796691374
 20
15.48377963024222
 30
0.0
 10
-92.70525998066966
 20
15.50767330388516
 30
0.0
 10
-93.45340201378993
 20
15.55590380227744
 30
0.0
 10
-93.7936813750236
 20
15.57978496477035
 30
0.0
 10
-94.36841017594757
 20
15.62800296069898
 30
0.0
 10
-94.5973452226579
 20
15.65188411372487
 30
0.0
 10
-94.83556963776996
 20
15.68833259232157
 30
0.0
 10
-94.89692749428749
 20
15.70064124048933
 30
0.0
 10
-94.97922107036332
 20
15.72532051794611
 30
0.0
 10
-94.99994983788562
 20
15.73762941722165
 30
0.0
 10
-94.9999498378856
 20
15.74996892898397
 30
0.0
  0
LINE
  5
C618
330
C60F
100
AcDbEntity
  8
0
100
AcDbLine
 10
-91.89994983788556
 20
390.0000000000003
 30
0.0
 11
-92.49994983788548
 21
390.0000000000003
 31
0.0
  0
SPLINE
  5
C619
330
C60F
100
AcDbEntity
  8
0
100
AcDbSpline
210
0.0
220
0.0
230
1.0
 70
     8
 71
     3
 72
    14
 73
    10
 74
     0
 42
0.000000001
 43
0.0000000001
 40
0.0
 40
0.0
 40
0.0
 40
0.0
 40
0.0256821069351987
 40
0.0256821069351987
 40
0.051352351907695
 40
0.051352351907695
 40
0.075143526377183
 40
0.075143526377183
 40
0.0989346991640089
 40
0.0989346991640089
 40
0.0989346991640089
 40
0.0989346991640089
 10
-92.4999498378856
 20
15.74996892898399
 30
0.0
 10
-92.49994983788562
 20
15.72476854436899
 30
0.0
 10
-92.48321607938398
 20
15.69982676884778
 30
0.0
 10
-92.41835863493625
 20
15.64943644518635
 30
0.0
 10
-92.37092888438855
 20
15.62450661689325
 30
0.0
 10
-92.25624939957141
 20
15.57597180111354
 30
0.0
 10
-92.19173642097429
 20
15.55283332193214
 30
0.0
 10
-92.05084800974686
 20
15.50614239736304
 30
0.0
 10
-91.97573984229451
 20
15.48300329473089
 30
0.0
 10
-91.89994983788567
 20
15.45965837582885
 30
0.0
  0
LINE
  5
C61A
330
C60F
100
AcDbEntity
  8
0
100
AcDbLine
 10
-92.49994983788569
 20
20.76000000000002
 30
0.0
 11
-92.49994983788569
 21
15.74996892898395
 31
0.0
  0
LINE
  5
C61B
330
C60F
100
AcDbEntity
  8
0
100
AcDbLine
 10
-92.49994983788569
 20
20.76000000000002
 30
0.0
 11
-94.99994983788569
 21
20.76000000000002
 31
0.0
  0
LINE
  5
C61C
330
C60F
100
AcDbEntity
  8
0
100
AcDbLine
 10
-94.99994983788569
 20
20.76000000000002
 30
0.0
 11
-94.99994983788569
 21
15.74996892898395
 31
0.0
  0
LINE
  5
C61D
330
C60F
100
AcDbEntity
  8
0
100
AcDbLine
 10
-92.49994983788555
 20
390.0
 30
0.0
 11
-94.99994983788555
 21
390.0
 31
0.0
  0
LINE
  5
C61E
330
C60F
100
AcDbEntity
  8
0
100
AcDbLine
 10
-92.49994983788555
 20
390.0
 30
0.0
 11
-92.49994983788567
 21
31.92397479309918
 31
0.0
  0
LINE
  5
C61F
330
C60F
100
AcDbEntity
  8
0
100
AcDbLine
 10
-92.49994983788567
 20
31.92397479309918
 30
0.0
 11
-92.49994983788569
 21
20.76000000000002
 31
0.0
  0
LINE
  5
C620
330
C60F
100
AcDbEntity
  8
0
100
AcDbLine
 10
-94.99994983788567
 20
31.92397479309918
 30
0.0
 11
-94.99994983788569
 21
20.76000000000002
 31
0.0
  0
LINE
  5
C621
330
C60F
100
AcDbEntity
  8
0
100
AcDbLine
 10
-94.99994983788555
 20
390.0
 30
0.0
 11
-94.99994983788567
 21
31.92397479309918
 31
0.0
  0
LINE
  5
C622
330
C60F
100
AcDbEntity
  8
0
100
AcDbLine
 10
-92.49994983788567
 20
31.92397479309918
 30
0.0
 11
-94.99994983788567
 21
31.92397479309918
 31
0.0
  0
LINE
  5
C623
330
C60F
100
AcDbEntity
  8
0
100
AcDbLine
 10
-40.99994983788564
 20
28.99999999999999
 30
0.0
 11
-40.99994983788561
 21
390.0
 31
0.0
  0
LINE
  5
C624
330
C60F
100
AcDbEntity
  8
0
100
AcDbLine
 10
-19.70361738832997
 20
15.17
 30
0.0
 11
-40.99994983788564
 21
28.99999999999999
 31
0.0
  0
LINE
  5
C625
330
C60F
100
AcDbEntity
  8
0
100
AcDbLine
 10
0.0000501621143556
 20
10.40318114520584
 30
0.0
 11
-19.70361738832997
 21
15.17
 31
0.0
  0
LINE
  5
C626
330
C60F
100
AcDbEntity
  8
0
100
AcDbLine
 10
-40.99994983788561
 20
390.0
 30
0.0
 11
-91.89994983788558
 21
390.0
 31
0.0
  0
LINE
  5
C627
330
C60F
100
AcDbEntity
  8
0
100
AcDbLine
 10
-91.89994983788571
 20
15.45965837582889
 30
0.0
 11
-89.99994983788566
 21
15.00000000000001
 31
0.0
  0
LINE
  5
C628
330
C60F
100
AcDbEntity
  8
0
100
AcDbLine
 10
0.0000501621143556
 20
0.6000000000000071
 30
0.0
 11
0.0000501621143556
 21
10.40318114520584
 31
0.0
  0
LINE
  5
C629
330
C60F
100
AcDbEntity
  8
0
100
AcDbLine
 10
-89.99994983788566
 20
15.00000000000001
 30
0.0
 11
-89.99994983788566
 21
0.6000000000000339
 31
0.0
  0
CIRCLE
  5
C62A
330
C60F
100
AcDbEntity
  8
0
100
AcDbCircle
 10
-48.9999498378856
 20
372.5
 30
0.0
 40
2.5
  0
CIRCLE
  5
C62B
330
C60F
100
AcDbEntity
  8
0
100
AcDbCircle
 10
-48.99994983788561
 20
352.5
 30
0.0
 40
2.5
  0
CIRCLE
  5
C62C
330
C60F
100
AcDbEntity
  8
0
100
AcDbCircle
 10
-48.99994983788561
 20
332.5
 30
0.0
 40
2.5
  0
CIRCLE
  5
C62D
330
C60F
100
AcDbEntity
  8
0
100
AcDbCircle
 10
-48.99994983788561
 20
312.5
 30
0.0
 40
2.5
  0
CIRCLE
  5
C62E
330
C60F
100
AcDbEntity
  8
0
100
AcDbCircle
 10
-48.99994983788561
 20
292.5
 30
0.0
 40
2.5
  0
CIRCLE
  5
C62F
330
C60F
100
AcDbEntity
  8
0
100
AcDbCircle
 10
-48.99994983788563
 20
272.5
 30
0.0
 40
2.5
  0
CIRCLE
  5
C630
330
C60F
100
AcDbEntity
  8
0
100
AcDbCircle
 10
-48.99994983788563
 20
252.5
 30
0.0
 40
2.5
  0
CIRCLE
  5
C631
330
C60F
100
AcDbEntity
  8
0
100
AcDbCircle
 10
-48.99994983788563
 20
232.5
 30
0.0
 40
2.5
  0
CIRCLE
  5
C632
330
C60F
100
AcDbEntity
  8
0
100
AcDbCircle
 10
-48.99994983788563
 20
212.5
 30
0.0
 40
2.5
  0
CIRCLE
  5
C633
330
C60F
100
AcDbEntity
  8
0
100
AcDbCircle
 10
-48.99994983788563
 20
192.5
 30
0.0
 40
2.5
  0
CIRCLE
  5
C634
330
C60F
100
AcDbEntity
  8
0
100
AcDbCircle
 10
-48.99994983788563
 20
172.5
 30
0.0
 40
2.5
  0
CIRCLE
  5
C635
330
C60F
100
AcDbEntity
  8
0
100
AcDbCircle
 10
-48.99994983788563
 20
152.5
 30
0.0
 40
2.5
  0
CIRCLE
  5
C636
330
C60F
100
AcDbEntity
  8
0
100
AcDbCircle
 10
-48.99994983788563
 20
132.5
 30
0.0
 40
2.5
  0
CIRCLE
  5
C637
330
C60F
100
AcDbEntity
  8
0
100
AcDbCircle
 10
-48.99994983788563
 20
112.5
 30
0.0
 40
2.5
  0
CIRCLE
  5
C638
330
C60F
100
AcDbEntity
  8
0
100
AcDbCircle
 10
-48.99994983788563
 20
92.5
 30
0.0
 40
2.5
  0
CIRCLE
  5
C639
330
C60F
100
AcDbEntity
  8
0
100
AcDbCircle
 10
-48.99994983788563
 20
72.50000000000001
 30
0.0
 40
2.5
  0
CIRCLE
  5
C63A
330
C60F
100
AcDbEntity
  8
0
100
AcDbCircle
 10
-48.99994983788563
 20
52.5
 30
0.0
 40
2.5
  0
CIRCLE
  5
C63B
330
C60F
100
AcDbEntity
  8
0
100
AcDbCircle
 10
-48.99994983788565
 20
32.50000000000001
 30
0.0
 40
2.5
  0
ENDBLK
  5
C611
330
C60F
100
AcDbEntity
  8
0
100
AcDbBlockEnd
  0
BLOCK
  5
C63D
330
C63C
100
AcDbEntity
  8
0
100
AcDbBlockBegin
  2
GLE1020_240_2.5-Right
 70
     0
 10
0.0
 20
0.0
 30
0.0
  3
GLE1020_240_2.5-Right
  1

  0
LINE
  5
C63F
330
C63C
100
AcDbEntity
  8
0
100
AcDbLine
 10
-0.0000501621144938
 20
-2.500000000000022
 30
0.0
 11
-0.0000501621142483
 21
0.5999999999999934
 31
0.0
  0
LINE
  5
C640
330
C63C
100
AcDbEntity
  8
0
100
AcDbLine
 10
89.99994983788571
 20
0.6000000000000031
 30
0.0
 11
89.99994983788571
 21
-2.500000000000013
 31
0.0
  0
LINE
  5
C641
330
C63C
100
AcDbEntity
  8
0
100
AcDbLine
 10
89.99994983788571
 20
-2.500000000000012
 30
0.0
 11
-0.0000501621142845
 21
-2.500000000000022
 31
0.0
  0
LINE
  5
C642
330
C63C
100
AcDbEntity
  8
0
100
AcDbLine
 10
94.99994983788587
 20
390.0
 30
0.0
 11
94.99994983788582
 21
31.92397479309918
 31
0.0
  0
LINE
  5
C643
330
C63C
100
AcDbEntity
  8
0
100
AcDbLine
 10
94.99994983788582
 20
31.92397479309914
 30
0.0
 11
94.99994983788582
 21
20.75999999999999
 31
0.0
  0
LINE
  5
C644
330
C63C
100
AcDbEntity
  8
0
100
AcDbLine
 10
94.99994983788582
 20
20.75999999999999
 30
0.0
 11
94.99994983788582
 21
15.74996892898391
 31
0.0
  0
LINE
  5
C645
330
C63C
100
AcDbEntity
  8
0
100
AcDbLine
 10
92.49994983788587
 20
390.0
 30
0.0
 11
94.99994983788587
 21
390.0
 31
0.0
  0
LINE
  5
C646
330
C63C
100
AcDbEntity
  8
0
100
AcDbLine
 10
92.49994983788587
 20
390.0
 30
0.0
 11
92.49994983788582
 21
31.92397479309918
 31
0.0
  0
LINE
  5
C647
330
C63C
100
AcDbEntity
  8
0
100
AcDbLine
 10
92.49994983788582
 20
31.92397479309914
 30
0.0
 11
94.99994983788582
 21
31.92397479309914
 31
0.0
  0
LINE
  5
C648
330
C63C
100
AcDbEntity
  8
0
100
AcDbLine
 10
92.49994983788582
 20
31.92397479309914
 30
0.0
 11
92.49994983788582
 21
20.75999999999999
 31
0.0
  0
LINE
  5
C649
330
C63C
100
AcDbEntity
  8
0
100
AcDbLine
 10
92.49994983788582
 20
20.75999999999999
 30
0.0
 11
94.99994983788582
 21
20.75999999999999
 31
0.0
  0
LINE
  5
C64A
330
C63C
100
AcDbEntity
  8
0
100
AcDbLine
 10
92.49994983788582
 20
20.75999999999999
 30
0.0
 11
92.49994983788582
 21
15.74996892898391
 31
0.0
  0
LINE
  5
C64B
330
C63C
100
AcDbEntity
  8
0
100
AcDbLine
 10
40.9999498378857
 20
28.99999999999997
 30
0.0
 11
40.99994983788565
 21
390.0
 31
0.0
  0
LINE
  5
C64C
330
C63C
100
AcDbEntity
  8
0
100
AcDbLine
 10
19.70361738833002
 20
15.16999999999997
 30
0.0
 11
40.9999498378857
 21
28.99999999999997
 31
0.0
  0
LINE
  5
C64D
330
C63C
100
AcDbEntity
  8
0
100
AcDbLine
 10
-0.0000501621142845
 20
10.40318114520582
 30
0.0
 11
19.70361738833002
 21
15.16999999999997
 31
0.0
  0
LINE
  5
C64E
330
C63C
100
AcDbEntity
  8
0
100
AcDbLine
 10
40.99994983788565
 20
390.0
 30
0.0
 11
91.89994983788578
 21
390.0
 31
0.0
  0
LINE
  5
C64F
330
C63C
100
AcDbEntity
  8
0
100
AcDbLine
 10
91.89994983788571
 20
15.45965837582884
 30
0.0
 11
89.99994983788569
 21
14.99999999999998
 31
0.0
  0
LINE
  5
C650
330
C63C
100
AcDbEntity
  8
0
100
AcDbLine
 10
92.49994983788582
 20
15.74996892898391
 30
0.0
 11
92.66388057175284
 21
15.74996892898385
 31
0.0
  0
LINE
  5
C651
330
C63C
100
AcDbEntity
  8
0
100
AcDbLine
 10
92.66388057175284
 20
15.74996892898385
 30
0.0
 11
94.99994983788582
 21
15.74996892898391
 31
0.0
  0
SPLINE
  5
C652
330
C63C
100
AcDbEntity
  8
0
100
AcDbSpline
210
0.0
220
0.0
230
1.0
 70
     8
 71
     3
 72
    16
 73
    12
 74
     0
 42
0.000000001
 43
0.0000000001
 40
0.0
 40
0.0
 40
0.0
 40
0.0
 40
0.1215949558307451
 40
0.1215949558307451
 40
0.2431265849515185
 40
0.2431265849515185
 40
0.3646581810008272
 40
0.3646581810008272
 40
0.4268607865374423
 40
0.4268607865374423
 40
0.4890641182006818
 40
0.4890641182006818
 40
0.4890641182006818
 40
0.4890641182006818
 10
94.99994983788569
 20
15.74996892898403
 30
0.0
 10
94.99994983788569
 20
15.72584767457031
 30
0.0
 10
94.92074033167943
 20
15.70195400092779
 30
0.0
 10
94.61293997892061
 20
15.65372350253586
 30
0.0
 10
94.3873802453271
 20
15.62984234004233
 30
0.0
 10
93.81834308147018
 20
15.58162434411395
 30
0.0
 10
93.4803254948474
 20
15.5577431910878
 30
0.0
 10
92.91728696971313
 20
15.52129471249137
 30
0.0
 10
92.71907337860092
 20
15.50898606432359
 30
0.0
 10
92.31338438521161
 20
15.48430678686677
 30
0.0
 10
92.10692677559467
 20
15.47199788759127
 30
0.0
 10
91.89994983788571
 20
15.45965837582895
 30
0.0
  0
SPLINE
  5
C653
330
C63C
100
AcDbEntity
  8
0
100
AcDbSpline
210
0.0
220
0.0
230
1.0
 70
     8
 71
     3
 72
    14
 73
    10
 74
     0
 42
0.000000001
 43
0.0000000001
 40
0.0
 40
0.0
 40
0.0
 40
0.0
 40
0.0256821069351767
 40
0.0256821069351767
 40
0.0513523519076719
 40
0.0513523519076719
 40
0.0751435263771711
 40
0.0751435263771711
 40
0.0989346991640027
 40
0.0989346991640027
 40
0.0989346991640027
 40
0.0989346991640027
 10
91.89994983788571
 20
15.45965837582882
 30
0.0
 10
91.98176366937074
 20
15.48485876044373
 30
0.0
 10
92.06271951114201
 20
15.50980053596497
 30
0.0
 10
92.21290288940274
 20
15.56019085962637
 30
0.0
 10
92.28056254270297
 20
15.58512068791945
 30
0.0
 10
92.38861610835911
 20
15.63365550369922
 30
0.0
 10
92.4296711721575
 20
15.65679398288067
 30
0.0
 10
92.48558952486886
 20
15.70348490744973
 30
0.0
 10
92.49994983788569
 20
15.72662401008195
 30
0.0
 10
92.49994983788569
 20
15.74996892898391
 30
0.0
  0
LINE
  5
C654
330
C63C
100
AcDbEntity
  8
0
100
AcDbLine
 10
92.49994983788575
 20
390.0000000000007
 30
0.0
 11
91.89994983788574
 21
390.0000000000003
 31
0.0
  0
CIRCLE
  5
C655
330
C63C
100
AcDbEntity
  8
0
100
AcDbCircle
 10
48.99994983788566
 20
382.5
 30
0.0
 40
2.5
  0
CIRCLE
  5
C656
330
C63C
100
AcDbEntity
  8
0
100
AcDbCircle
 10
48.99994983788566
 20
362.5
 30
0.0
 40
2.5
  0
CIRCLE
  5
C657
330
C63C
100
AcDbEntity
  8
0
100
AcDbCircle
 10
48.99994983788566
 20
342.5
 30
0.0
 40
2.5
  0
CIRCLE
  5
C658
330
C63C
100
AcDbEntity
  8
0
100
AcDbCircle
 10
48.99994983788566
 20
322.5
 30
0.0
 40
2.5
  0
CIRCLE
  5
C659
330
C63C
100
AcDbEntity
  8
0
100
AcDbCircle
 10
48.99994983788566
 20
302.5
 30
0.0
 40
2.5
  0
CIRCLE
  5
C65A
330
C63C
100
AcDbEntity
  8
0
100
AcDbCircle
 10
48.99994983788566
 20
282.5
 30
0.0
 40
2.5
  0
CIRCLE
  5
C65B
330
C63C
100
AcDbEntity
  8
0
100
AcDbCircle
 10
48.99994983788567
 20
262.5
 30
0.0
 40
2.5
  0
CIRCLE
  5
C65C
330
C63C
100
AcDbEntity
  8
0
100
AcDbCircle
 10
48.99994983788567
 20
242.5
 30
0.0
 40
2.5
  0
CIRCLE
  5
C65D
330
C63C
100
AcDbEntity
  8
0
100
AcDbCircle
 10
48.99994983788567
 20
222.5
 30
0.0
 40
2.5
  0
CIRCLE
  5
C65E
330
C63C
100
AcDbEntity
  8
0
100
AcDbCircle
 10
48.99994983788567
 20
202.5
 30
0.0
 40
2.5
  0
CIRCLE
  5
C65F
330
C63C
100
AcDbEntity
  8
0
100
AcDbCircle
 10
48.99994983788568
 20
182.5
 30
0.0
 40
2.5
  0
CIRCLE
  5
C660
330
C63C
100
AcDbEntity
  8
0
100
AcDbCircle
 10
48.99994983788568
 20
162.5
 30
0.0
 40
2.5
  0
CIRCLE
  5
C661
330
C63C
100
AcDbEntity
  8
0
100
AcDbCircle
 10
48.99994983788568
 20
142.5
 30
0.0
 40
2.5
  0
CIRCLE
  5
C662
330
C63C
100
AcDbEntity
  8
0
100
AcDbCircle
 10
48.99994983788568
 20
122.5
 30
0.0
 40
2.5
  0
CIRCLE
  5
C663
330
C63C
100
AcDbEntity
  8
0
100
AcDbCircle
 10
48.9999498378857
 20
102.5
 30
0.0
 40
2.5
  0
CIRCLE
  5
C664
330
C63C
100
AcDbEntity
  8
0
100
AcDbCircle
 10
48.9999498378857
 20
82.49999999999998
 30
0.0
 40
2.5
  0
CIRCLE
  5
C665
330
C63C
100
AcDbEntity
  8
0
100
AcDbCircle
 10
48.9999498378857
 20
62.49999999999999
 30
0.0
 40
2.5
  0
CIRCLE
  5
C666
330
C63C
100
AcDbEntity
  8
0
100
AcDbCircle
 10
48.9999498378857
 20
42.49999999999999
 30
0.0
 40
2.5
  0
CIRCLE
  5
C667
330
C63C
100
AcDbEntity
  8
0
100
AcDbCircle
 10
48.9999498378857
 20
22.49999999999998
 30
0.0
 40
2.5
  0
LINE
  5
C668
330
C63C
100
AcDbEntity
  8
0
100
AcDbLine
 10
89.99994983788571
 20
0.5999999999999918
 30
0.0
 11
89.99994983788569
 21
14.99999999999998
 31
0.0
  0
LINE
  5
C669
330
C63C
100
AcDbEntity
  8
0
100
AcDbLine
 10
-0.0000501621142845
 20
10.40318114520582
 30
0.0
 11
-0.0000501621142845
 21
0.5999999999999817
 31
0.0
  0
ENDBLK
  5
C63E
330
C63C
100
AcDbEntity
  8
0
100
AcDbBlockEnd
  0
BLOCK
  5
C66B
330
C66A
100
AcDbEntity
  8
0
100
AcDbBlockBegin
  2
GLE1020_240_2.5-Top
 70
     0
 10
0.0
 20
0.0
 30
0.0
  3
GLE1020_240_2.5-Top
  1

  0
LINE
  5
C66D
330
C66A
100
AcDbEntity
  8
0
100
AcDbLine
 10
-119.3999999999999
 20
89.99994983788566
 30
0.0
 11
-119.9999999999999
 21
89.99994983788566
 31
0.0
  0
LINE
  5
C66E
330
C66A
100
AcDbEntity
  8
0
100
AcDbLine
 10
-119.9999999999999
 20
-0.0000501621143202
 30
0.0
 11
-119.3999999999999
 21
-0.0000501621143045
 31
0.0
  0
LINE
  5
C66F
330
C66A
100
AcDbEntity
  8
0
100
AcDbLine
 10
119.4
 20
89.99994983788571
 30
0.0
 11
-119.3999999999999
 21
89.99994983788566
 31
0.0
  0
LINE
  5
C670
330
C66A
100
AcDbEntity
  8
0
100
AcDbLine
 10
119.4
 20
-0.0000501621143023
 30
0.0
 11
-119.3999999999999
 21
-0.0000501621143378
 31
0.0
  0
LINE
  5
C671
330
C66A
100
AcDbEntity
  8
0
100
AcDbLine
 10
-123.0999999999998
 20
94.99994983788557
 30
0.0
 11
-160.9999999999999
 21
94.99994983788555
 31
0.0
  0
LINE
  5
C672
330
C66A
100
AcDbEntity
  8
0
100
AcDbLine
 10
-160.9999999999999
 20
92.49994983788555
 30
0.0
 11
-160.9999999999999
 21
94.99994983788555
 31
0.0
  0
LINE
  5
C673
330
C66A
100
AcDbEntity
  8
0
100
AcDbLine
 10
-123.0999999999998
 20
92.49994983788557
 30
0.0
 11
-160.9999999999999
 21
92.49994983788555
 31
0.0
  0
LINE
  5
C674
330
C66A
100
AcDbEntity
  8
0
100
AcDbLine
 10
-122.4999999999998
 20
40.99994983788561
 30
0.0
 11
-119.9999999999998
 21
40.99994983788561
 31
0.0
  0
LINE
  5
C675
330
C66A
100
AcDbEntity
  8
0
100
AcDbLine
 10
-119.9999999999999
 20
19.70361738832997
 30
0.0
 11
-119.9999999999999
 21
40.99994983788564
 31
0.0
  0
LINE
  5
C676
330
C66A
100
AcDbEntity
  8
0
100
AcDbLine
 10
-122.4999999999999
 20
19.70361738832997
 30
0.0
 11
-122.4999999999999
 21
40.99994983788564
 31
0.0
  0
LINE
  5
C677
330
C66A
100
AcDbEntity
  8
0
100
AcDbLine
 10
-122.4999999999999
 20
19.70361738832997
 30
0.0
 11
-119.9999999999999
 21
19.70361738832997
 31
0.0
  0
LINE
  5
C678
330
C66A
100
AcDbEntity
  8
0
100
AcDbLine
 10
-119.9999999999999
 20
-0.0000501621143378
 30
0.0
 11
-119.9999999999999
 21
19.70361738832997
 31
0.0
  0
LINE
  5
C679
330
C66A
100
AcDbEntity
  8
0
100
AcDbLine
 10
-122.4999999999999
 20
-0.0000501621143556
 30
0.0
 11
-122.4999999999999
 21
19.70361738832997
 31
0.0
  0
LINE
  5
C67A
330
C66A
100
AcDbEntity
  8
0
100
AcDbLine
 10
-122.4999999999999
 20
-0.0000501621143556
 30
0.0
 11
-119.9999999999999
 21
-0.0000501621143378
 31
0.0
  0
LINE
  5
C67B
330
C66A
100
AcDbEntity
  8
0
100
AcDbLine
 10
-122.4999999999998
 20
40.99994983788561
 30
0.0
 11
-122.4999999999998
 21
91.89994983788558
 31
0.0
  0
LINE
  5
C67C
330
C66A
100
AcDbEntity
  8
0
100
AcDbLine
 10
-119.9999999999998
 20
40.99994983788561
 30
0.0
 11
-119.9999999999998
 21
91.89994983788558
 31
0.0
  0
CIRCLE
  5
C67D
330
C66A
100
AcDbEntity
  8
0
100
AcDbCircle
 10
0.0000000000000468
 20
59.99994983788567
 30
0.0
 40
2.5
  0
CIRCLE
  5
C67E
330
C66A
100
AcDbEntity
  8
0
100
AcDbCircle
 10
0.0000000000000556
 20
19.99994983788568
 30
0.0
 40
2.5
  0
LINE
  5
C67F
330
C66A
100
AcDbEntity
  8
0
100
AcDbLine
 10
119.4
 20
-0.000050162114249
 30
0.0
 11
120.0
 21
-0.0000501621142535
 31
0.0
  0
LINE
  5
C680
330
C66A
100
AcDbEntity
  8
0
100
AcDbLine
 10
120.0
 20
89.99994983788571
 30
0.0
 11
119.4
 21
89.99994983788571
 31
0.0
  0
LINE
  5
C681
330
C66A
100
AcDbEntity
  8
0
100
AcDbLine
 10
123.0999999999998
 20
94.99994983788587
 30
0.0
 11
160.9999999999997
 21
94.99994983788587
 31
0.0
  0
LINE
  5
C682
330
C66A
100
AcDbEntity
  8
0
100
AcDbLine
 10
123.0999999999998
 20
92.49994983788587
 30
0.0
 11
160.9999999999997
 21
92.49994983788587
 31
0.0
  0
LINE
  5
C683
330
C66A
100
AcDbEntity
  8
0
100
AcDbLine
 10
160.9999999999997
 20
92.49994983788587
 30
0.0
 11
160.9999999999997
 21
94.99994983788587
 31
0.0
  0
LINE
  5
C684
330
C66A
100
AcDbEntity
  8
0
100
AcDbLine
 10
122.5
 20
40.99994983788565
 30
0.0
 11
120.0
 21
40.99994983788565
 31
0.0
  0
LINE
  5
C685
330
C66A
100
AcDbEntity
  8
0
100
AcDbLine
 10
120.0
 20
19.70361738833002
 30
0.0
 11
120.0
 21
40.9999498378857
 31
0.0
  0
LINE
  5
C686
330
C66A
100
AcDbEntity
  8
0
100
AcDbLine
 10
122.5
 20
19.70361738833002
 30
0.0
 11
120.0
 21
19.70361738833002
 31
0.0
  0
LINE
  5
C687
330
C66A
100
AcDbEntity
  8
0
100
AcDbLine
 10
122.5
 20
19.70361738833002
 30
0.0
 11
122.5
 21
40.9999498378857
 31
0.0
  0
LINE
  5
C688
330
C66A
100
AcDbEntity
  8
0
100
AcDbLine
 10
120.0
 20
-0.0000501621143023
 30
0.0
 11
120.0
 21
19.70361738833002
 31
0.0
  0
LINE
  5
C689
330
C66A
100
AcDbEntity
  8
0
100
AcDbLine
 10
122.5
 20
-0.0000501621142845
 30
0.0
 11
120.0
 21
-0.0000501621143023
 31
0.0
  0
LINE
  5
C68A
330
C66A
100
AcDbEntity
  8
0
100
AcDbLine
 10
122.5
 20
-0.0000501621142845
 30
0.0
 11
122.5
 21
19.70361738833002
 31
0.0
  0
LINE
  5
C68B
330
C66A
100
AcDbEntity
  8
0
100
AcDbLine
 10
120.0
 20
40.99994983788565
 30
0.0
 11
120.0
 21
91.89994983788578
 31
0.0
  0
LINE
  5
C68C
330
C66A
100
AcDbEntity
  8
0
100
AcDbLine
 10
122.5
 20
40.99994983788565
 30
0.0
 11
122.5
 21
91.89994983788578
 31
0.0
  0
ARC
  5
C68D
330
C66A
100
AcDbEntity
  8
0
100
AcDbCircle
 10
123.0999999999999
 20
91.89994983788574
 30
0.0
 40
3.1
100
AcDbArc
 50
90.00000000000067
 51
180.0
  0
ARC
  5
C68E
330
C66A
100
AcDbEntity
  8
0
100
AcDbCircle
 10
123.0999999999999
 20
91.89994983788574
 30
0.0
 40
0.6
100
AcDbArc
 50
90.0
 51
180.0
  0
ARC
  5
C68F
330
C66A
100
AcDbEntity
  8
0
100
AcDbCircle
 10
-123.0999999999998
 20
91.89994983788549
 30
0.0
 40
3.1
100
AcDbArc
 50
0.0
 51
89.99999999999573
  0
ARC
  5
C690
330
C66A
100
AcDbEntity
  8
0
100
AcDbCircle
 10
-123.0999999999998
 20
91.89994983788549
 30
0.0
 40
0.6
100
AcDbArc
 50
0.0
 51
89.99999999996438
  0
ENDBLK
  5
C66C
330
C66A
100
AcDbEntity
  8
0
100
AcDbBlockEnd
  0
BLOCK
  5
C692
330
C691
100
AcDbEntity
  8
0
100
AcDbBlockBegin
  2
GLE1020_240_2.5-Bottom
 70
     0
 10
0.0
 20
0.0
 30
0.0
  3
GLE1020_240_2.5-Bottom
  1

  0
LINE
  5
C694
330
C691
100
AcDbEntity
  8
0
100
AcDbLine
 10
-119.3999999999999
 20
-89.99994983788566
 30
0.0
 11
-122.4999999999999
 21
-89.99994983788566
 31
0.0
  0
LINE
  5
C695
330
C691
100
AcDbEntity
  8
0
100
AcDbLine
 10
-122.4999999999999
 20
0.000050162114379
 30
0.0
 11
-119.3999999999999
 21
0.000050162114302
 31
0.0
  0
LINE
  5
C696
330
C691
100
AcDbEntity
  8
0
100
AcDbLine
 10
-122.4999999999999
 20
-89.99994983788566
 30
0.0
 11
-122.4999999999999
 21
0.0000501621143556
 31
0.0
  0
LINE
  5
C697
330
C691
100
AcDbEntity
  8
0
100
AcDbLine
 10
-119.3999999999999
 20
-89.99994983788566
 30
0.0
 11
119.4
 21
-89.99994983788571
 31
0.0
  0
LINE
  5
C698
330
C691
100
AcDbEntity
  8
0
100
AcDbLine
 10
119.4
 20
0.0000501621143023
 30
0.0
 11
-119.3999999999999
 21
0.0000501621143378
 31
0.0
  0
LINE
  5
C699
330
C691
100
AcDbEntity
  8
0
100
AcDbLine
 10
-143.8089863591974
 20
-92.49994983788569
 30
0.0
 11
-123.0999999999999
 21
-92.49994983788569
 31
0.0
  0
LINE
  5
C69A
330
C691
100
AcDbEntity
  8
0
100
AcDbLine
 10
-143.8089863591974
 20
-92.49994983788569
 30
0.0
 11
-143.8089863591974
 21
-94.99994983788569
 31
0.0
  0
LINE
  5
C69B
330
C691
100
AcDbEntity
  8
0
100
AcDbLine
 10
-143.8089863591974
 20
-94.99994983788569
 30
0.0
 11
-123.0999999999999
 21
-94.99994983788569
 31
0.0
  0
LINE
  5
C69C
330
C691
100
AcDbEntity
  8
0
100
AcDbLine
 10
-160.9999999999999
 20
-92.49994983788567
 30
0.0
 11
-143.8089863591974
 21
-92.49994983788569
 31
0.0
  0
LINE
  5
C69D
330
C691
100
AcDbEntity
  8
0
100
AcDbLine
 10
-160.9999999999999
 20
-94.99994983788567
 30
0.0
 11
-143.8089863591974
 21
-94.99994983788569
 31
0.0
  0
LINE
  5
C69E
330
C691
100
AcDbEntity
  8
0
100
AcDbLine
 10
-160.9999999999999
 20
-92.49994983788567
 30
0.0
 11
-160.9999999999999
 21
-94.99994983788567
 31
0.0
  0
LINE
  5
C69F
330
C691
100
AcDbEntity
  8
0
100
AcDbLine
 10
-119.9999999999999
 20
-91.89994983788571
 30
0.0
 11
-119.9999999999999
 21
-89.99994983788566
 31
0.0
  0
LINE
  5
C6A0
330
C691
100
AcDbEntity
  8
0
100
AcDbLine
 10
-122.4999999999999
 20
-91.89994983788571
 30
0.0
 11
-122.4999999999999
 21
-89.99994983788566
 31
0.0
  0
LINE
  5
C6A1
330
C691
100
AcDbEntity
  8
0
100
AcDbLine
 10
119.4
 20
0.0000501621145115
 30
0.0
 11
122.5
 21
0.0000501621142661
 31
0.0
  0
LINE
  5
C6A2
330
C691
100
AcDbEntity
  8
0
100
AcDbLine
 10
122.5
 20
-89.99994983788571
 30
0.0
 11
119.4
 21
-89.99994983788571
 31
0.0
  0
LINE
  5
C6A3
330
C691
100
AcDbEntity
  8
0
100
AcDbLine
 10
122.5
 20
0.0000501621142845
 30
0.0
 11
122.5
 21
-89.99994983788571
 31
0.0
  0
CIRCLE
  5
C6A4
330
C691
100
AcDbEntity
  8
0
100
AcDbCircle
 10
0.0000000000000465
 20
-59.99994983788567
 30
0.0
 40
2.5
  0
CIRCLE
  5
C6A5
330
C691
100
AcDbEntity
  8
0
100
AcDbCircle
 10
0.0000000000000554
 20
-19.99994983788568
 30
0.0
 40
2.5
  0
LINE
  5
C6A6
330
C691
100
AcDbEntity
  8
0
100
AcDbLine
 10
160.9999999999999
 20
-94.99994983788582
 30
0.0
 11
143.8089863591974
 21
-94.99994983788582
 31
0.0
  0
LINE
  5
C6A7
330
C691
100
AcDbEntity
  8
0
100
AcDbLine
 10
143.8089863591974
 20
-94.99994983788582
 30
0.0
 11
123.0999999999999
 21
-94.99994983788582
 31
0.0
  0
LINE
  5
C6A8
330
C691
100
AcDbEntity
  8
0
100
AcDbLine
 10
160.9999999999999
 20
-92.49994983788582
 30
0.0
 11
160.9999999999999
 21
-94.99994983788582
 31
0.0
  0
LINE
  5
C6A9
330
C691
100
AcDbEntity
  8
0
100
AcDbLine
 10
160.9999999999999
 20
-92.49994983788582
 30
0.0
 11
143.8089863591974
 21
-92.49994983788582
 31
0.0
  0
LINE
  5
C6AA
330
C691
100
AcDbEntity
  8
0
100
AcDbLine
 10
143.8089863591974
 20
-92.49994983788582
 30
0.0
 11
143.8089863591974
 21
-94.99994983788582
 31
0.0
  0
LINE
  5
C6AB
330
C691
100
AcDbEntity
  8
0
100
AcDbLine
 10
143.8089863591974
 20
-92.49994983788582
 30
0.0
 11
123.0999999999999
 21
-92.49994983788582
 31
0.0
  0
LINE
  5
C6AC
330
C691
100
AcDbEntity
  8
0
100
AcDbLine
 10
122.5
 20
-91.89994983788571
 30
0.0
 11
122.5
 21
-89.99994983788569
 31
0.0
  0
LINE
  5
C6AD
330
C691
100
AcDbEntity
  8
0
100
AcDbLine
 10
120.0
 20
-91.89994983788571
 30
0.0
 11
120.0
 21
-89.99994983788569
 31
0.0
  0
LINE
  5
C6AE
330
C691
100
AcDbEntity
  8
0
100
AcDbLine
 10
123.0999999999999
 20
-92.49994983788582
 30
0.0
 11
123.0999999999999
 21
-92.66388057175284
 31
0.0
  0
LINE
  5
C6AF
330
C691
100
AcDbEntity
  8
0
100
AcDbLine
 10
123.0999999999999
 20
-92.66388057175284
 30
0.0
 11
123.0999999999999
 21
-94.99994983788582
 31
0.0
  0
LINE
  5
C6B0
330
C691
100
AcDbEntity
  8
0
100
AcDbLine
 10
120.0
 20
-91.89994983788571
 30
0.0
 11
122.3360692661371
 21
-91.89994983788571
 31
0.0
  0
LINE
  5
C6B1
330
C691
100
AcDbEntity
  8
0
100
AcDbLine
 10
122.3360692661371
 20
-91.89994983788571
 30
0.0
 11
122.5
 21
-91.89994983788571
 31
0.0
  0
SPLINE
  5
C6B2
330
C691
100
AcDbEntity
  8
0
100
AcDbSpline
210
0.0
220
0.0
230
1.0
 70
     8
 71
     3
 72
    16
 73
    12
 74
     0
 42
0.000000001
 43
0.0000000001
 40
0.0
 40
0.0
 40
0.0
 40
0.0
 40
0.1215949558307451
 40
0.1215949558307451
 40
0.2431265849515185
 40
0.2431265849515185
 40
0.3646581810008272
 40
0.3646581810008272
 40
0.4268607865374423
 40
0.4268607865374423
 40
0.4890641182006818
 40
0.4890641182006818
 40
0.4890641182006818
 40
0.4890641182006818
 10
123.1
 20
-94.99994983788569
 30
0.0
 10
122.6954018709719
 20
-94.99994983788569
 30
0.0
 10
122.2946898572159
 20
-94.92074033167943
 30
0.0
 10
121.5465478240956
 20
-94.61293997892061
 30
0.0
 10
121.2062684628619
 20
-94.3873802453271
 30
0.0
 10
120.631539661938
 20
-93.81834308147018
 30
0.0
 10
120.4026046152277
 20
-93.4803254948474
 30
0.0
 10
120.1643802001156
 20
-92.91728696971313
 30
0.0
 10
120.1030223435981
 20
-92.71907337860092
 30
0.0
 10
120.0207287675223
 20
-92.31338438521161
 30
0.0
 10
120.0
 20
-92.10692677559467
 30
0.0
 10
120.0
 20
-91.89994983788571
 30
0.0
  0
SPLINE
  5
C6B3
330
C691
100
AcDbEntity
  8
0
100
AcDbSpline
210
0.0
220
0.0
230
1.0
 70
     8
 71
     3
 72
    14
 73
    10
 74
     0
 42
0.000000001
 43
0.0000000001
 40
0.0
 40
0.0
 40
0.0
 40
0.0
 40
0.0256821069351767
 40
0.0256821069351767
 40
0.0513523519076719
 40
0.0513523519076719
 40
0.0751435263771711
 40
0.0751435263771711
 40
0.0989346991640027
 40
0.0989346991640027
 40
0.0989346991640027
 40
0.0989346991640027
 10
122.5
 20
-91.89994983788571
 30
0.0
 10
122.5
 20
-91.98176366937074
 30
0.0
 10
122.5167337585016
 20
-92.06271951114201
 30
0.0
 10
122.5815912029493
 20
-92.21290288940274
 30
0.0
 10
122.629020953497
 20
-92.28056254270297
 30
0.0
 10
122.7437004383141
 20
-92.38861610835911
 30
0.0
 10
122.8082134169113
 20
-92.4296711721575
 30
0.0
 10
122.9491018281388
 20
-92.48558952486886
 30
0.0
 10
123.0242099955911
 20
-92.49994983788569
 30
0.0
 10
123.1
 20
-92.49994983788569
 30
0.0
  0
LINE
  5
C6B4
330
C691
100
AcDbEntity
  8
0
100
AcDbLine
 10
-123.0999999999999
 20
-94.99994983788569
 30
0.0
 11
-123.0999999999999
 21
-92.66388057174882
 31
0.0
  0
LINE
  5
C6B5
330
C691
100
AcDbEntity
  8
0
100
AcDbLine
 10
-123.0999999999999
 20
-92.66388057174882
 30
0.0
 11
-123.0999999999999
 21
-92.49994983788569
 31
0.0
  0
LINE
  5
C6B6
330
C691
100
AcDbEntity
  8
0
100
AcDbLine
 10
-122.4999999999999
 20
-91.89994983788571
 30
0.0
 11
-122.3360692661311
 21
-91.89994983788571
 31
0.0
  0
LINE
  5
C6B7
330
C691
100
AcDbEntity
  8
0
100
AcDbLine
 10
-122.3360692661311
 20
-91.89994983788571
 30
0.0
 11
-119.9999999999999
 21
-91.89994983788571
 31
0.0
  0
SPLINE
  5
C6B8
330
C691
100
AcDbEntity
  8
0
100
AcDbSpline
210
0.0
220
0.0
230
1.0
 70
     8
 71
     3
 72
    16
 73
    12
 74
     0
 42
0.000000001
 43
0.0000000001
 40
0.0
 40
0.0
 40
0.0
 40
0.0
 40
0.1215949558307314
 40
0.1215949558307314
 40
0.2431265849515063
 40
0.2431265849515063
 40
0.3646581810008176
 40
0.3646581810008176
 40
0.4268607865374414
 40
0.4268607865374414
 40
0.4890641182006846
 40
0.4890641182006846
 40
0.4890641182006846
 40
0.4890641182006846
 10
-119.9999999999999
 20
-91.8999498378856
 30
0.0
 10
-119.9999999999999
 20
-92.30454796691374
 30
0.0
 10
-120.0792095062062
 20
-92.7052599806697
 30
0.0
 10
-120.387009858965
 20
-93.45340201378993
 30
0.0
 10
-120.6125695925585
 20
-93.7936813750236
 30
0.0
 10
-121.1816067564154
 20
-94.36841017594757
 30
0.0
 10
-121.5196243430382
 20
-94.5973452226579
 30
0.0
 10
-122.0826628681725
 20
-94.83556963776996
 30
0.0
 10
-122.2808764592847
 20
-94.89692749428749
 30
0.0
 10
-122.6865654526741
 20
-94.97922107036332
 30
0.0
 10
-122.8930230622911
 20
-94.99994983788562
 30
0.0
 10
-123.1000000000001
 20
-94.9999498378856
 30
0.0
  0
SPLINE
  5
C6B9
330
C691
100
AcDbEntity
  8
0
100
AcDbSpline
210
0.0
220
0.0
230
1.0
 70
     8
 71
     3
 72
    14
 73
    10
 74
     0
 42
0.000000001
 43
0.0000000001
 40
0.0
 40
0.0
 40
0.0
 40
0.0
 40
0.0256821069351987
 40
0.0256821069351987
 40
0.051352351907695
 40
0.051352351907695
 40
0.075143526377183
 40
0.075143526377183
 40
0.0989346991640089
 40
0.0989346991640089
 40
0.0989346991640089
 40
0.0989346991640089
 10
-123.1
 20
-92.4999498378856
 30
0.0
 10
-123.0181861685149
 20
-92.49994983788562
 30
0.0
 10
-122.9372303267435
 20
-92.48321607938398
 30
0.0
 10
-122.7870469484828
 20
-92.41835863493625
 30
0.0
 10
-122.7193872951825
 20
-92.37092888438855
 30
0.0
 10
-122.6113337295265
 20
-92.25624939957141
 30
0.0
 10
-122.5702786657281
 20
-92.19173642097429
 30
0.0
 10
-122.5143603130168
 20
-92.05084800974686
 30
0.0
 10
-122.4999999999999
 20
-91.97573984229451
 30
0.0
 10
-122.4999999999999
 20
-91.89994983788567
 30
0.0
  0
ENDBLK
  5
C693
330
C691
100
AcDbEntity
  8
0
100
AcDbBlockEnd
  0
BLOCK
  5
C6BB
330
C6BA
100
AcDbEntity
  8
0
100
AcDbBlockBegin
  2
GLE1020_240_2.5-ISO
 70
     0
 10
0.0
 20
0.0
 30
0.0
  3
GLE1020_240_2.5-ISO
  1

  0
ELLIPSE
  5
C6BD
330
C6BA
100
AcDbEntity
  8
0
100
AcDbEllipse
 10
-54.37652920823111
 20
-91.61092661939022
 30
0.0
 11
-0.2999999999999694
 21
0.5196152422706809
 31
0.0
210
0.0
220
0.0
230
1.0
 40
0.5773502691896262
 41
0.785398163397689
 42
2.35619449019258
  0
ELLIPSE
  5
C6BE
330
C6BA
100
AcDbEntity
  8
0
100
AcDbEllipse
 10
-118.0161395150203
 20
-128.3532727611379
 30
0.0
 11
-1.549999999999897
 21
2.684678751731819
 31
0.0
210
0.0
220
0.0
230
1.0
 40
0.5773502691896399
 41
0.7853981633975984
 42
2.356194490192569
  0
LINE
  5
C6BF
330
C6BA
100
AcDbEntity
  8
0
100
AcDbLine
 10
-118.0161395150204
 20
-128.8431707096945
 30
0.0
 11
-118.0161395150204
 21
-130.8844121620138
 31
0.0
  0
ELLIPSE
  5
C6C0
330
C6BA
100
AcDbEntity
  8
0
100
AcDbEllipse
 10
-118.0161395150203
 20
-128.3532727611379
 30
0.0
 11
0.3000000000000428
 21
-0.5196152422706387
 31
0.0
210
0.0
220
0.0
230
1.0
 40
0.577350269189645
 41
3.92699081698668
 42
5.497787143781872
  0
LINE
  5
C6C1
330
C6BA
100
AcDbEntity
  8
0
100
AcDbLine
 10
-120.2081705366986
 20
-127.0877030606999
 30
0.0
 11
-118.4404035837323
 21
-128.1083237868596
 31
0.0
  0
LINE
  5
C6C2
330
C6BA
100
AcDbEntity
  8
0
100
AcDbLine
 10
-54.37652920823111
 20
-92.10082456794687
 30
0.0
 11
-118.0161395150204
 21
-128.8431707096945
 31
0.0
  0
LINE
  5
C6C3
330
C6BA
100
AcDbEntity
  8
0
100
AcDbLine
 10
-118.4404035837323
 20
-128.1083237868596
 30
0.0
 11
-54.80079327694304
 21
-91.36597764511188
 31
0.0
  0
LINE
  5
C6C4
330
C6BA
100
AcDbEntity
  8
0
100
AcDbLine
 10
86.51504923555721
 20
-173.4446153090193
 30
0.0
 11
86.01896990398925
 21
-173.1582037733991
 31
0.0
  0
LINE
  5
C6C5
330
C6BA
100
AcDbEntity
  8
0
100
AcDbLine
 10
80.25660192968755
 20
-169.8312990722664
 30
0.0
 11
-54.37652920823111
 21
-92.10082456794687
 31
0.0
  0
LINE
  5
C6C6
330
C6BA
100
AcDbEntity
  8
0
100
AcDbLine
 10
50.8409598323272
 20
-226.3328624724651
 30
0.0
 11
-118.0161395150204
 21
-128.8431707096945
 31
0.0
  0
LINE
  5
C6C7
330
C6BA
100
AcDbEntity
  8
0
100
AcDbLine
 10
50.8409598323272
 20
-228.3741039247844
 30
0.0
 11
-118.0161395150204
 21
-130.8844121620138
 31
0.0
  0
LINE
  5
C6C8
330
C6BA
100
AcDbEntity
  8
0
100
AcDbLine
 10
51.26522390103911
 20
-218.083649610911
 30
0.0
 11
51.26522390103911
 21
-226.0879134981867
 31
0.0
  0
LINE
  5
C6C9
330
C6BA
100
AcDbEntity
  8
0
100
AcDbLine
 10
116.6726011607947
 20
-190.3661880825987
 30
0.0
 11
116.6726011607947
 21
-178.6086373172394
 31
0.0
  0
LINE
  5
C6CA
330
C6BA
100
AcDbEntity
  8
0
100
AcDbLine
 10
53.03299085400547
 20
-219.1042703370706
 30
0.0
 11
53.03299085400547
 21
-227.1085342243464
 31
0.0
  0
LINE
  5
C6CB
330
C6BA
100
AcDbEntity
  8
0
100
AcDbLine
 10
-53.45729039268857
 20
229.8846021209019
 30
0.0
 11
-80.25663739965878
 21
245.3572123294823
 31
0.0
  0
LINE
  5
C6CC
330
C6BA
100
AcDbEntity
  8
0
100
AcDbLine
 10
-82.02440435262515
 20
244.3365916033226
 30
0.0
 11
-80.25663739965878
 21
245.3572123294823
 31
0.0
  0
LINE
  5
C6CD
330
C6BA
100
AcDbEntity
  8
0
100
AcDbLine
 10
-55.22505734565495
 20
228.8639813947423
 30
0.0
 11
-82.02440435262515
 21
244.3365916033226
 31
0.0
  0
LINE
  5
C6CE
330
C6BA
100
AcDbEntity
  8
0
100
AcDbLine
 10
-82.02440435262515
 20
244.3365916033226
 30
0.0
 11
-82.02440435262515
 21
212.9014732376051
 31
0.0
  0
LINE
  5
C6CF
330
C6BA
100
AcDbEntity
  8
0
100
AcDbLine
 10
-89.44902555508386
 20
-88.18164097949381
 30
0.0
 11
-89.44902555508383
 21
206.5736247354153
 31
0.0
  0
LINE
  5
C6D0
330
C6BA
100
AcDbEntity
  8
0
100
AcDbLine
 10
-91.21679250805019
 20
207.594245461575
 30
0.0
 11
-89.44902555508383
 21
206.5736247354153
 31
0.0
  0
LINE
  5
C6D1
330
C6BA
100
AcDbEntity
  8
0
100
AcDbLine
 10
-91.21679250805023
 20
-87.16102025333414
 30
0.0
 11
-91.21679250805019
 21
207.594245461575
 31
0.0
  0
LINE
  5
C6D2
330
C6BA
100
AcDbEntity
  8
0
100
AcDbLine
 10
-91.21679250805023
 20
-87.16102025333414
 30
0.0
 11
-89.44902555508386
 21
-88.18164097949381
 31
0.0
  0
LINE
  5
C6D3
330
C6BA
100
AcDbEntity
  8
0
100
AcDbLine
 10
-104.5078066445678
 20
-108.1679800094054
 30
0.0
 11
-89.44902555508386
 21
-88.18164097949381
 31
0.0
  0
LINE
  5
C6D4
330
C6BA
100
AcDbEntity
  8
0
100
AcDbLine
 10
-106.2755735975341
 20
-107.1473592832458
 30
0.0
 11
-91.21679250805023
 21
-87.16102025333414
 31
0.0
  0
LINE
  5
C6D5
330
C6BA
100
AcDbEntity
  8
0
100
AcDbLine
 10
-106.2755735975341
 20
-107.1473592832458
 30
0.0
 11
-104.5078066445678
 21
-108.1679800094054
 31
0.0
  0
LINE
  5
C6D6
330
C6BA
100
AcDbEntity
  8
0
100
AcDbLine
 10
-118.4404035837323
 20
-120.1040598995839
 30
0.0
 11
-104.5078066445678
 21
-108.1679800094054
 31
0.0
  0
LINE
  5
C6D7
330
C6BA
100
AcDbEntity
  8
0
100
AcDbLine
 10
-120.2081705366986
 20
-119.0834391734242
 30
0.0
 11
-106.2755735975341
 21
-107.1473592832458
 31
0.0
  0
LINE
  5
C6D8
330
C6BA
100
AcDbEntity
  8
0
100
AcDbLine
 10
-120.2081705366986
 20
-119.0834391734242
 30
0.0
 11
-118.4404035837323
 21
-120.1040598995839
 31
0.0
  0
LINE
  5
C6D9
330
C6BA
100
AcDbEntity
  8
0
100
AcDbLine
 10
-91.21679250805019
 20
207.594245461575
 30
0.0
 11
-55.22505734565495
 21
228.3740834461856
 31
0.0
  0
LINE
  5
C6DA
330
C6BA
100
AcDbEntity
  8
0
100
AcDbLine
 10
-89.44902555508383
 20
206.5736247354153
 30
0.0
 11
-53.45729039268859
 21
227.3534627200259
 31
0.0
  0
LINE
  5
C6DB
330
C6BA
100
AcDbEntity
  8
0
100
AcDbLine
 10
-53.45729039268857
 20
-78.45744563561223
 30
0.0
 11
-54.80079327694304
 21
-79.60842687975265
 31
0.0
  0
LINE
  5
C6DC
330
C6BA
100
AcDbEntity
  8
0
100
AcDbLine
 10
-54.80079327694304
 20
-91.36597764511188
 30
0.0
 11
-54.80079327694304
 21
-79.60842687975265
 31
0.0
  0
LINE
  5
C6DD
330
C6BA
100
AcDbEntity
  8
0
100
AcDbLine
 10
-118.4404035837323
 20
-128.1083237868596
 30
0.0
 11
-118.4404035837323
 21
-120.1040598995839
 31
0.0
  0
LINE
  5
C6DE
330
C6BA
100
AcDbEntity
  8
0
100
AcDbLine
 10
-120.2081705366986
 20
-127.0877030606999
 30
0.0
 11
-120.2081705366986
 21
-119.0834391734242
 31
0.0
  0
LINE
  5
C6DF
330
C6BA
100
AcDbEntity
  8
0
100
AcDbLine
 10
50.8409598323272
 20
-226.3328624724651
 30
0.0
 11
51.26522390103914
 21
-226.0879134981867
 31
0.0
  0
LINE
  5
C6E0
330
C6BA
100
AcDbEntity
  8
0
100
AcDbLine
 10
50.8409598323272
 20
-228.3741039247844
 30
0.0
 11
50.8409598323272
 21
-226.3328624724651
 31
0.0
  0
ELLIPSE
  5
C6E1
330
C6BA
100
AcDbEntity
  8
0
100
AcDbEllipse
 10
50.84095983232723
 20
-225.8429645239084
 30
0.0
 11
1.54999999999979
 21
-2.684678751731881
 31
0.0
210
0.0
220
0.0
230
1.0
 40
0.5773502691896714
 41
5.497787143782179
 42
7.068583470577083
  0
LINE
  5
C6E2
330
C6BA
100
AcDbEntity
  8
0
100
AcDbLine
 10
51.26522390103911
 20
-226.0879134981867
 30
0.0
 11
53.03299085400547
 21
-227.1085342243464
 31
0.0
  0
ELLIPSE
  5
C6E3
330
C6BA
100
AcDbEntity
  8
0
100
AcDbEllipse
 10
50.84095983232723
 20
-225.8429645239084
 30
0.0
 11
0.2999999999999968
 21
-0.5196152422706653
 31
0.0
210
0.0
220
0.0
230
0.9999999999999998
 40
0.5773502691896213
 41
5.497787143782141
 42
7.068583470577031
  0
ELLIPSE
  5
C6E4
330
C6BA
100
AcDbEntity
  8
0
100
AcDbEllipse
 10
114.4805701391164
 20
-189.1006183821607
 30
0.0
 11
1.550000000000001
 21
-2.684678751731759
 31
0.0
210
0.0
220
0.0
230
0.9999999999999998
 40
0.5773502691896271
 41
0.0
 42
0.7853981633974474
  0
LINE
  5
C6E5
330
C6BA
100
AcDbEntity
  8
0
100
AcDbLine
 10
53.03299085400547
 20
-227.1085342243464
 30
0.0
 11
116.6726011607947
 21
-190.3661880825987
 31
0.0
  0
LINE
  5
C6E6
330
C6BA
100
AcDbEntity
  8
0
100
AcDbLine
 10
116.0305701391164
 20
-191.7852971338925
 30
0.0
 11
52.39095983232708
 21
-228.5276432756402
 31
0.0
  0
ELLIPSE
  5
C6E7
330
C6BA
100
AcDbEntity
  8
0
100
AcDbEllipse
 10
8.838817029846254
 20
-153.093119163248
 30
0.0
 11
2.5
 21
-0.0000000000001496
 31
0.0
210
0.0
220
0.0
230
1.0
 40
0.577350269189626
 41
0.0
 42
6.283185307179586
  0
ELLIPSE
  5
C6E8
330
C6BA
100
AcDbEntity
  8
0
100
AcDbEllipse
 10
-19.44545421761564
 20
-169.4230507818025
 30
0.0
 11
2.5
 21
-0.0000000000001496
 31
0.0
210
0.0
220
0.0
230
1.0
 40
0.577350269189626
 41
0.0
 42
6.283185307179586
  0
ELLIPSE
  5
C6E9
330
C6BA
100
AcDbEntity
  8
0
100
AcDbEllipse
 10
8.838817029846254
 20
-155.1343606155673
 30
0.0
 11
-2.5
 21
-0.0000000000001493
 31
0.0
210
0.0
220
0.0
230
1.0
 40
0.577350269189626
 41
3.926990816986991
 42
5.49778714378189
  0
ELLIPSE
  5
C6EA
330
C6BA
100
AcDbEntity
  8
0
100
AcDbEllipse
 10
-19.44545421761564
 20
-171.4642922341218
 30
0.0
 11
-2.5
 21
-0.0000000000001493
 31
0.0
210
0.0
220
0.0
230
1.0
 40
0.577350269189626
 41
3.926990816986991
 42
5.497787143781897
  0
LINE
  5
C6EB
330
C6BA
100
AcDbEntity
  8
0
100
AcDbLine
 10
120.6323991354394
 20
129.373873008699
 30
0.0
 11
147.4317461424095
 21
113.9012628001186
 31
0.0
  0
LINE
  5
C6EC
330
C6BA
100
AcDbEntity
  8
0
100
AcDbLine
 10
147.4317461424095
 20
113.9012628001186
 30
0.0
 11
147.4317461424096
 21
-178.4665874935063
 31
0.0
  0
ELLIPSE
  5
C6ED
330
C6BA
100
AcDbEntity
  8
0
100
AcDbEllipse
 10
129.4005232221525
 20
118.1878698499891
 30
0.0
 11
1.250000000000129
 21
-2.165063509461022
 31
0.0
210
0.0
220
0.0
230
1.0
 40
0.5773502691896259
 41
3.926990816986998
 42
5.497787143781895
  0
ELLIPSE
  5
C6EE
330
C6BA
100
AcDbEntity
  8
0
100
AcDbEllipse
 10
142.1284452835104
 20
102.6744348123623
 30
0.0
 11
1.250000000000129
 21
-2.165063509461022
 31
0.0
210
0.0
220
0.0
230
1.0
 40
0.5773502691896259
 41
3.926990816986998
 42
5.497787143781895
  0
ELLIPSE
  5
C6EF
330
C6BA
100
AcDbEntity
  8
0
100
AcDbEllipse
 10
132.9360571280853
 20
99.81669677911533
 30
0.0
 11
-3.499999999999998
 21
6.062177826491072
 31
0.0
210
0.0
220
0.0
230
1.0
 40
0.5773502691896259
 41
0.2553025216024094
 42
2.886290131987383
  0
ELLIPSE
  5
C6F0
330
C6BA
100
AcDbEntity
  8
0
100
AcDbEllipse
 10
132.9360571280853
 20
18.1670386863427
 30
0.0
 11
-3.499999999999998
 21
6.062177826491072
 31
0.0
210
0.0
220
0.0
230
1.0
 40
0.5773502691896259
 41
0.2553025216024121
 42
2.886290131987387
  0
ELLIPSE
  5
C6F1
330
C6BA
100
AcDbEntity
  8
0
100
AcDbEllipse
 10
132.9360571280853
 20
-63.48261940642992
 30
0.0
 11
-3.499999999999998
 21
6.062177826491072
 31
0.0
210
0.0
220
0.0
230
1.0
 40
0.5773502691896259
 41
0.2553025216024121
 42
2.886290131987387
  0
ELLIPSE
  5
C6F2
330
C6BA
100
AcDbEntity
  8
0
100
AcDbEllipse
 10
132.9360571280853
 20
-161.4622091177571
 30
0.0
 11
-3.499999999999998
 21
6.062177826491072
 31
0.0
210
0.0
220
0.0
230
1.0
 40
0.5773502691896259
 41
0.2553025216024094
 42
2.886290131987383
  0
ELLIPSE
  5
C6F3
330
C6BA
100
AcDbEntity
  8
0
100
AcDbEllipse
 10
142.1284452835104
 20
86.34450319380782
 30
0.0
 11
1.250000000000129
 21
-2.165063509461022
 31
0.0
210
0.0
220
0.0
230
1.0
 40
0.5773502691896259
 41
3.926990816986998
 42
5.497787143781895
  0
ELLIPSE
  5
C6F4
330
C6BA
100
AcDbEntity
  8
0
100
AcDbEllipse
 10
142.1284452835104
 20
70.01457157525329
 30
0.0
 11
1.250000000000129
 21
-2.165063509461022
 31
0.0
210
0.0
220
0.0
230
1.0
 40
0.5773502691896259
 41
3.926990816986993
 42
5.497787143781895
  0
ELLIPSE
  5
C6F5
330
C6BA
100
AcDbEntity
  8
0
100
AcDbEllipse
 10
142.1284452835104
 20
53.6846399566988
 30
0.0
 11
1.250000000000129
 21
-2.165063509461022
 31
0.0
210
0.0
220
0.0
230
1.0
 40
0.5773502691896259
 41
3.926990816986993
 42
5.497787143781895
  0
ELLIPSE
  5
C6F6
330
C6BA
100
AcDbEntity
  8
0
100
AcDbEllipse
 10
142.1284452835104
 20
37.35470833814428
 30
0.0
 11
1.250000000000129
 21
-2.165063509461022
 31
0.0
210
0.0
220
0.0
230
1.0
 40
0.5773502691896259
 41
3.926990816986998
 42
5.497787143781895
  0
ELLIPSE
  5
C6F7
330
C6BA
100
AcDbEntity
  8
0
100
AcDbEllipse
 10
142.1284452835104
 20
21.02477671958974
 30
0.0
 11
1.250000000000129
 21
-2.165063509461022
 31
0.0
210
0.0
220
0.0
230
1.0
 40
0.5773502691896259
 41
3.926990816986998
 42
5.497787143781895
  0
ELLIPSE
  5
C6F8
330
C6BA
100
AcDbEntity
  8
0
100
AcDbEllipse
 10
142.1284452835104
 20
4.694845101035216
 30
0.0
 11
1.250000000000129
 21
-2.165063509461022
 31
0.0
210
0.0
220
0.0
230
1.0
 40
0.5773502691896259
 41
3.926990816986997
 42
5.497787143781895
  0
ELLIPSE
  5
C6F9
330
C6BA
100
AcDbEntity
  8
0
100
AcDbEllipse
 10
142.1284452835104
 20
-11.63508651751932
 30
0.0
 11
1.250000000000129
 21
-2.165063509461022
 31
0.0
210
0.0
220
0.0
230
1.0
 40
0.5773502691896259
 41
3.926990816986997
 42
5.497787143781895
  0
ELLIPSE
  5
C6FA
330
C6BA
100
AcDbEntity
  8
0
100
AcDbEllipse
 10
142.1284452835104
 20
-27.96501813607385
 30
0.0
 11
1.250000000000129
 21
-2.165063509461022
 31
0.0
210
0.0
220
0.0
230
1.0
 40
0.5773502691896259
 41
3.926990816986998
 42
5.497787143781895
  0
ELLIPSE
  5
C6FB
330
C6BA
100
AcDbEntity
  8
0
100
AcDbEllipse
 10
142.1284452835104
 20
-44.29494975462836
 30
0.0
 11
1.250000000000129
 21
-2.165063509461022
 31
0.0
210
0.0
220
0.0
230
1.0
 40
0.5773502691896259
 41
3.926990816986993
 42
5.497787143781895
  0
ELLIPSE
  5
C6FC
330
C6BA
100
AcDbEntity
  8
0
100
AcDbEllipse
 10
142.1284452835104
 20
-60.62488137318289
 30
0.0
 11
1.250000000000129
 21
-2.165063509461022
 31
0.0
210
0.0
220
0.0
230
1.0
 40
0.5773502691896259
 41
3.926990816986993
 42
5.497787143781895
  0
ELLIPSE
  5
C6FD
330
C6BA
100
AcDbEntity
  8
0
100
AcDbEllipse
 10
142.1284452835104
 20
-76.95481299173741
 30
0.0
 11
1.250000000000129
 21
-2.165063509461022
 31
0.0
210
0.0
220
0.0
230
1.0
 40
0.5773502691896259
 41
3.926990816986993
 42
5.497787143781895
  0
ELLIPSE
  5
C6FE
330
C6BA
100
AcDbEntity
  8
0
100
AcDbEllipse
 10
142.1284452835104
 20
-93.28474461029195
 30
0.0
 11
1.250000000000129
 21
-2.165063509461022
 31
0.0
210
0.0
220
0.0
230
1.0
 40
0.5773502691896259
 41
3.926990816986998
 42
5.497787143781895
  0
ELLIPSE
  5
C6FF
330
C6BA
100
AcDbEntity
  8
0
100
AcDbEllipse
 10
142.1284452835104
 20
-109.6146762288465
 30
0.0
 11
1.250000000000129
 21
-2.165063509461022
 31
0.0
210
0.0
220
0.0
230
1.0
 40
0.5773502691896259
 41
3.926990816986998
 42
5.497787143781895
  0
ELLIPSE
  5
C700
330
C6BA
100
AcDbEntity
  8
0
100
AcDbEllipse
 10
142.1284452835104
 20
-125.944607847401
 30
0.0
 11
1.250000000000129
 21
-2.165063509461022
 31
0.0
210
0.0
220
0.0
230
1.0
 40
0.5773502691896259
 41
3.926990816986998
 42
5.497787143781895
  0
ELLIPSE
  5
C701
330
C6BA
100
AcDbEntity
  8
0
100
AcDbEllipse
 10
142.1284452835104
 20
-142.2745394659555
 30
0.0
 11
1.250000000000129
 21
-2.165063509461022
 31
0.0
210
0.0
220
0.0
230
1.0
 40
0.5773502691896259
 41
3.926990816986998
 42
5.497787143781895
  0
ELLIPSE
  5
C702
330
C6BA
100
AcDbEntity
  8
0
100
AcDbEllipse
 10
142.1284452835104
 20
-158.6044710845101
 30
0.0
 11
1.250000000000129
 21
-2.165063509461022
 31
0.0
210
0.0
220
0.0
230
1.0
 40
0.5773502691896259
 41
3.926990816986998
 42
5.497787143781895
  0
ELLIPSE
  5
C703
330
C6BA
100
AcDbEntity
  8
0
100
AcDbEllipse
 10
140.3606783305441
 20
-159.6250918106697
 30
0.0
 11
1.24999999999987
 21
-2.165063509461171
 31
0.0
210
0.0
220
0.0
230
1.0
 40
0.5773502691896259
 41
0.0
 42
6.283185307179586
  0
ELLIPSE
  5
C704
330
C6BA
100
AcDbEntity
  8
0
100
AcDbEllipse
 10
140.3606783305441
 20
-143.2951601921152
 30
0.0
 11
1.24999999999987
 21
-2.165063509461171
 31
0.0
210
0.0
220
0.0
230
1.0
 40
0.5773502691896259
 41
0.0
 42
6.283185307179586
  0
ELLIPSE
  5
C705
330
C6BA
100
AcDbEntity
  8
0
100
AcDbEllipse
 10
140.3606783305441
 20
-126.9652285735606
 30
0.0
 11
1.24999999999987
 21
-2.165063509461171
 31
0.0
210
0.0
220
0.0
230
1.0
 40
0.5773502691896259
 41
0.0
 42
6.283185307179586
  0
ELLIPSE
  5
C706
330
C6BA
100
AcDbEntity
  8
0
100
AcDbEllipse
 10
140.3606783305441
 20
-110.6352969550061
 30
0.0
 11
1.24999999999987
 21
-2.165063509461171
 31
0.0
210
0.0
220
0.0
230
1.0
 40
0.5773502691896259
 41
0.0
 42
6.283185307179586
  0
ELLIPSE
  5
C707
330
C6BA
100
AcDbEntity
  8
0
100
AcDbEllipse
 10
140.360678330544
 20
-94.3053653364516
 30
0.0
 11
1.24999999999987
 21
-2.165063509461171
 31
0.0
210
0.0
220
0.0
230
1.0
 40
0.5773502691896259
 41
0.0
 42
6.283185307179586
  0
ELLIPSE
  5
C708
330
C6BA
100
AcDbEntity
  8
0
100
AcDbEllipse
 10
140.3606783305441
 20
-77.97543371789706
 30
0.0
 11
1.24999999999987
 21
-2.165063509461171
 31
0.0
210
0.0
220
0.0
230
1.0
 40
0.5773502691896259
 41
0.0
 42
6.283185307179586
  0
ELLIPSE
  5
C709
330
C6BA
100
AcDbEntity
  8
0
100
AcDbEllipse
 10
140.3606783305441
 20
-61.64550209934255
 30
0.0
 11
1.24999999999987
 21
-2.165063509461171
 31
0.0
210
0.0
220
0.0
230
1.0
 40
0.5773502691896259
 41
0.0
 42
6.283185307179586
  0
ELLIPSE
  5
C70A
330
C6BA
100
AcDbEntity
  8
0
100
AcDbEllipse
 10
140.3606783305441
 20
-45.31557048078802
 30
0.0
 11
1.24999999999987
 21
-2.165063509461171
 31
0.0
210
0.0
220
0.0
230
1.0
 40
0.5773502691896259
 41
0.0
 42
6.283185307179586
  0
ELLIPSE
  5
C70B
330
C6BA
100
AcDbEntity
  8
0
100
AcDbEllipse
 10
140.360678330544
 20
-28.9856388622335
 30
0.0
 11
1.24999999999987
 21
-2.165063509461171
 31
0.0
210
0.0
220
0.0
230
1.0
 40
0.5773502691896259
 41
0.0
 42
6.283185307179586
  0
ELLIPSE
  5
C70C
330
C6BA
100
AcDbEntity
  8
0
100
AcDbEllipse
 10
140.360678330544
 20
-12.65570724367897
 30
0.0
 11
1.24999999999987
 21
-2.165063509461171
 31
0.0
210
0.0
220
0.0
230
1.0
 40
0.5773502691896259
 41
0.0
 42
6.283185307179586
  0
ELLIPSE
  5
C70D
330
C6BA
100
AcDbEntity
  8
0
100
AcDbEllipse
 10
140.360678330544
 20
3.674224374875549
 30
0.0
 11
1.24999999999987
 21
-2.165063509461171
 31
0.0
210
0.0
220
0.0
230
1.0
 40
0.5773502691896259
 41
0.0
 42
6.283185307179586
  0
ELLIPSE
  5
C70E
330
C6BA
100
AcDbEntity
  8
0
100
AcDbEllipse
 10
140.360678330544
 20
20.00415599343007
 30
0.0
 11
1.24999999999987
 21
-2.165063509461171
 31
0.0
210
0.0
220
0.0
230
1.0
 40
0.5773502691896259
 41
0.0
 42
6.283185307179586
  0
ELLIPSE
  5
C70F
330
C6BA
100
AcDbEntity
  8
0
100
AcDbEllipse
 10
140.360678330544
 20
36.3340876119846
 30
0.0
 11
1.24999999999987
 21
-2.165063509461171
 31
0.0
210
0.0
220
0.0
230
1.0
 40
0.5773502691896259
 41
0.0
 42
6.283185307179586
  0
ELLIPSE
  5
C710
330
C6BA
100
AcDbEntity
  8
0
100
AcDbEllipse
 10
140.360678330544
 20
52.66401923053916
 30
0.0
 11
1.24999999999987
 21
-2.165063509461171
 31
0.0
210
0.0
220
0.0
230
1.0
 40
0.5773502691896259
 41
0.0
 42
6.283185307179586
  0
ELLIPSE
  5
C711
330
C6BA
100
AcDbEntity
  8
0
100
AcDbEllipse
 10
140.360678330544
 20
68.99395084909365
 30
0.0
 11
1.24999999999987
 21
-2.165063509461171
 31
0.0
210
0.0
220
0.0
230
1.0
 40
0.5773502691896259
 41
0.0
 42
6.283185307179586
  0
ELLIPSE
  5
C712
330
C6BA
100
AcDbEntity
  8
0
100
AcDbEllipse
 10
140.360678330544
 20
85.32388246764817
 30
0.0
 11
1.24999999999987
 21
-2.165063509461171
 31
0.0
210
0.0
220
0.0
230
1.0
 40
0.5773502691896259
 41
0.0
 42
6.283185307179586
  0
ELLIPSE
  5
C713
330
C6BA
100
AcDbEntity
  8
0
100
AcDbEllipse
 10
131.168290175119
 20
-162.4828298439167
 30
0.0
 11
3.499999999999637
 21
-6.062177826491282
 31
0.0
210
0.0
220
0.0
230
1.0
 40
0.5773502691896258
 41
0.0
 42
6.283185307179586
  0
ELLIPSE
  5
C714
330
C6BA
100
AcDbEntity
  8
0
100
AcDbEllipse
 10
131.1682901751189
 20
-64.50324013258958
 30
0.0
 11
3.499999999999637
 21
-6.062177826491282
 31
0.0
210
0.0
220
0.0
230
1.0
 40
0.5773502691896258
 41
0.0
 42
6.283185307179586
  0
ELLIPSE
  5
C715
330
C6BA
100
AcDbEntity
  8
0
100
AcDbEllipse
 10
131.1682901751189
 20
17.14641796018305
 30
0.0
 11
3.499999999999637
 21
-6.062177826491282
 31
0.0
210
0.0
220
0.0
230
1.0
 40
0.5773502691896258
 41
0.0
 42
6.283185307179586
  0
ELLIPSE
  5
C716
330
C6BA
100
AcDbEntity
  8
0
100
AcDbEllipse
 10
131.1682901751189
 20
98.79607605295568
 30
0.0
 11
3.499999999999637
 21
-6.062177826491282
 31
0.0
210
0.0
220
0.0
230
1.0
 40
0.5773502691896258
 41
0.0
 42
6.283185307179586
  0
ELLIPSE
  5
C717
330
C6BA
100
AcDbEntity
  8
0
100
AcDbEllipse
 10
140.360678330544
 20
101.6538140862027
 30
0.0
 11
1.24999999999987
 21
-2.165063509461171
 31
0.0
210
0.0
220
0.0
230
1.0
 40
0.5773502691896259
 41
0.0
 42
6.283185307179586
  0
ELLIPSE
  5
C718
330
C6BA
100
AcDbEntity
  8
0
100
AcDbEllipse
 10
127.6327562691861
 20
117.1672491238295
 30
0.0
 11
1.24999999999987
 21
-2.165063509461171
 31
0.0
210
0.0
220
0.0
230
1.0
 40
0.5773502691896259
 41
0.0
 42
6.283185307179586
  0
LINE
  5
C719
330
C6BA
100
AcDbEntity
  8
0
100
AcDbLine
 10
118.864632182473
 20
128.3532522825393
 30
0.0
 11
145.6639791894431
 21
112.880642073959
 31
0.0
  0
LINE
  5
C71A
330
C6BA
100
AcDbEntity
  8
0
100
AcDbLine
 10
145.6639791894431
 20
112.880642073959
 30
0.0
 11
147.4317461424095
 21
113.9012628001186
 31
0.0
  0
LINE
  5
C71B
330
C6BA
100
AcDbEntity
  8
0
100
AcDbLine
 10
145.6639791894431
 20
112.880642073959
 30
0.0
 11
145.6639791894432
 21
-179.4872082196659
 31
0.0
  0
LINE
  5
C71C
330
C6BA
100
AcDbEntity
  8
0
100
AcDbLine
 10
145.6639791894432
 20
-179.4872082196659
 30
0.0
 11
147.4317461424096
 21
-178.4665874935063
 31
0.0
  0
LINE
  5
C71D
330
C6BA
100
AcDbEntity
  8
0
100
AcDbLine
 10
145.6639791894432
 20
-179.4872082196659
 30
0.0
 11
133.5080968685612
 21
-181.5843535375961
 31
0.0
  0
LINE
  5
C71E
330
C6BA
100
AcDbEntity
  8
0
100
AcDbLine
 10
133.5080968685612
 20
-181.5843535375961
 30
0.0
 11
118.864632182473
 21
-177.2206184990406
 31
0.0
  0
LINE
  5
C71F
330
C6BA
100
AcDbEntity
  8
0
100
AcDbLine
 10
80.25660192968755
 20
-186.1612306908209
 30
0.0
 11
80.2566019296875
 21
108.5940350240882
 31
0.0
  0
LINE
  5
C720
330
C6BA
100
AcDbEntity
  8
0
100
AcDbLine
 10
82.02436888265394
 20
-187.1818514169806
 30
0.0
 11
80.25660192968755
 21
-186.1612306908209
 31
0.0
  0
LINE
  5
C721
330
C6BA
100
AcDbEntity
  8
0
100
AcDbLine
 10
82.02436888265394
 20
-187.1818514169806
 30
0.0
 11
82.02436888265387
 21
107.5734142979286
 31
0.0
  0
LINE
  5
C722
330
C6BA
100
AcDbEntity
  8
0
100
AcDbLine
 10
82.02436888265387
 20
107.5734142979286
 30
0.0
 11
80.2566019296875
 21
108.5940350240882
 31
0.0
  0
LINE
  5
C723
330
C6BA
100
AcDbEntity
  8
0
100
AcDbLine
 10
65.19782084020362
 20
-206.1475697207326
 30
0.0
 11
80.25660192968755
 21
-186.1612306908209
 31
0.0
  0
LINE
  5
C724
330
C6BA
100
AcDbEntity
  8
0
100
AcDbLine
 10
66.96558779316998
 20
-207.1681904468923
 30
0.0
 11
65.19782084020362
 21
-206.1475697207326
 31
0.0
  0
LINE
  5
C725
330
C6BA
100
AcDbEntity
  8
0
100
AcDbLine
 10
66.96558779316998
 20
-207.1681904468923
 30
0.0
 11
82.02436888265394
 21
-187.1818514169806
 31
0.0
  0
LINE
  5
C726
330
C6BA
100
AcDbEntity
  8
0
100
AcDbLine
 10
51.26522390103911
 20
-218.083649610911
 30
0.0
 11
65.19782084020362
 21
-206.1475697207326
 31
0.0
  0
LINE
  5
C727
330
C6BA
100
AcDbEntity
  8
0
100
AcDbLine
 10
53.03299085400547
 20
-219.1042703370706
 30
0.0
 11
51.26522390103911
 21
-218.083649610911
 31
0.0
  0
LINE
  5
C728
330
C6BA
100
AcDbEntity
  8
0
100
AcDbLine
 10
53.03299085400547
 20
-219.1042703370706
 30
0.0
 11
66.96558779316998
 21
-207.1681904468923
 31
0.0
  0
LINE
  5
C729
330
C6BA
100
AcDbEntity
  8
0
100
AcDbLine
 10
80.2566019296875
 20
108.5940350240882
 30
0.0
 11
116.2483370920828
 21
129.3738730086989
 31
0.0
  0
LINE
  5
C72A
330
C6BA
100
AcDbEntity
  8
0
100
AcDbLine
 10
82.02436888265387
 20
107.5734142979286
 30
0.0
 11
118.0161040450492
 21
128.3532522825392
 31
0.0
  0
LINE
  5
C72B
330
C6BA
100
AcDbEntity
  8
0
100
AcDbLine
 10
118.0161040450492
 20
-177.457656073099
 30
0.0
 11
116.6726011607947
 21
-178.6086373172394
 31
0.0
  0
ELLIPSE
  5
C72C
330
C6BA
100
AcDbEntity
  8
0
100
AcDbEllipse
 10
129.4005232221525
 20
85.5280066128801
 30
0.0
 11
1.250000000000129
 21
-2.165063509461022
 31
0.0
210
0.0
220
0.0
230
1.0
 40
0.5773502691896259
 41
3.926990816986998
 42
5.497787143781895
  0
ELLIPSE
  5
C72D
330
C6BA
100
AcDbEntity
  8
0
100
AcDbEllipse
 10
127.6327562691861
 20
84.50738588672045
 30
0.0
 11
1.24999999999987
 21
-2.165063509461171
 31
0.0
210
0.0
220
0.0
230
1.0
 40
0.5773502691896259
 41
0.0
 42
6.283185307179586
  0
ELLIPSE
  5
C72E
330
C6BA
100
AcDbEntity
  8
0
100
AcDbEllipse
 10
129.4005232221525
 20
3.878348520107497
 30
0.0
 11
1.250000000000129
 21
-2.165063509461022
 31
0.0
210
0.0
220
0.0
230
1.0
 40
0.5773502691896259
 41
3.926990816986997
 42
5.497787143781895
  0
ELLIPSE
  5
C72F
330
C6BA
100
AcDbEntity
  8
0
100
AcDbEllipse
 10
127.6327562691862
 20
2.85772779394783
 30
0.0
 11
1.24999999999987
 21
-2.165063509461171
 31
0.0
210
0.0
220
0.0
230
1.0
 40
0.5773502691896259
 41
0.0
 42
6.283185307179586
  0
ELLIPSE
  5
C730
330
C6BA
100
AcDbEntity
  8
0
100
AcDbEllipse
 10
129.4005232221525
 20
-77.77130957266514
 30
0.0
 11
1.250000000000129
 21
-2.165063509461022
 31
0.0
210
0.0
220
0.0
230
1.0
 40
0.5773502691896259
 41
3.926990816986993
 42
5.497787143781895
  0
ELLIPSE
  5
C731
330
C6BA
100
AcDbEntity
  8
0
100
AcDbEllipse
 10
127.6327562691862
 20
-78.79193029882481
 30
0.0
 11
1.24999999999987
 21
-2.165063509461171
 31
0.0
210
0.0
220
0.0
230
1.0
 40
0.5773502691896259
 41
0.0
 42
6.283185307179586
  0
ELLIPSE
  5
C732
330
C6BA
100
AcDbEntity
  8
0
100
AcDbEllipse
 10
129.4005232221525
 20
69.19807499432558
 30
0.0
 11
1.250000000000129
 21
-2.165063509461022
 31
0.0
210
0.0
220
0.0
230
1.0
 40
0.5773502691896259
 41
3.926990816986993
 42
5.497787143781895
  0
ELLIPSE
  5
C733
330
C6BA
100
AcDbEntity
  8
0
100
AcDbEllipse
 10
129.4005232221525
 20
52.86814337577109
 30
0.0
 11
1.250000000000129
 21
-2.165063509461022
 31
0.0
210
0.0
220
0.0
230
1.0
 40
0.5773502691896259
 41
3.926990816986993
 42
5.497787143781895
  0
ELLIPSE
  5
C734
330
C6BA
100
AcDbEntity
  8
0
100
AcDbEllipse
 10
129.4005232221525
 20
36.53821175721656
 30
0.0
 11
1.250000000000129
 21
-2.165063509461022
 31
0.0
210
0.0
220
0.0
230
1.0
 40
0.5773502691896259
 41
3.926990816986998
 42
5.497787143781895
  0
ELLIPSE
  5
C735
330
C6BA
100
AcDbEntity
  8
0
100
AcDbEllipse
 10
127.6327562691862
 20
35.51759103105688
 30
0.0
 11
1.24999999999987
 21
-2.165063509461171
 31
0.0
210
0.0
220
0.0
230
1.0
 40
0.5773502691896259
 41
0.0
 42
6.283185307179586
  0
ELLIPSE
  5
C736
330
C6BA
100
AcDbEntity
  8
0
100
AcDbEllipse
 10
127.6327562691862
 20
51.8475226496114
 30
0.0
 11
1.24999999999987
 21
-2.165063509461171
 31
0.0
210
0.0
220
0.0
230
1.0
 40
0.5773502691896259
 41
0.0
 42
6.283185307179586
  0
ELLIPSE
  5
C737
330
C6BA
100
AcDbEntity
  8
0
100
AcDbEllipse
 10
127.6327562691861
 20
68.17745426816593
 30
0.0
 11
1.24999999999987
 21
-2.165063509461171
 31
0.0
210
0.0
220
0.0
230
1.0
 40
0.5773502691896259
 41
0.0
 42
6.283185307179586
  0
ELLIPSE
  5
C738
330
C6BA
100
AcDbEntity
  8
0
100
AcDbEllipse
 10
129.4005232221525
 20
-12.45158309844704
 30
0.0
 11
1.250000000000129
 21
-2.165063509461022
 31
0.0
210
0.0
220
0.0
230
1.0
 40
0.5773502691896259
 41
3.926990816986997
 42
5.497787143781895
  0
ELLIPSE
  5
C739
330
C6BA
100
AcDbEntity
  8
0
100
AcDbEllipse
 10
129.4005232221525
 20
-28.78151471700157
 30
0.0
 11
1.250000000000129
 21
-2.165063509461022
 31
0.0
210
0.0
220
0.0
230
1.0
 40
0.5773502691896259
 41
3.926990816986998
 42
5.497787143781895
  0
ELLIPSE
  5
C73A
330
C6BA
100
AcDbEntity
  8
0
100
AcDbEllipse
 10
129.4005232221525
 20
-45.11144633555609
 30
0.0
 11
1.250000000000129
 21
-2.165063509461022
 31
0.0
210
0.0
220
0.0
230
1.0
 40
0.5773502691896259
 41
3.926990816986993
 42
5.497787143781895
  0
ELLIPSE
  5
C73B
330
C6BA
100
AcDbEntity
  8
0
100
AcDbEllipse
 10
127.6327562691862
 20
-46.13206706171574
 30
0.0
 11
1.24999999999987
 21
-2.165063509461171
 31
0.0
210
0.0
220
0.0
230
1.0
 40
0.5773502691896259
 41
0.0
 42
6.283185307179586
  0
ELLIPSE
  5
C73C
330
C6BA
100
AcDbEntity
  8
0
100
AcDbEllipse
 10
127.6327562691862
 20
-29.80213544316124
 30
0.0
 11
1.24999999999987
 21
-2.165063509461171
 31
0.0
210
0.0
220
0.0
230
1.0
 40
0.5773502691896259
 41
0.0
 42
6.283185307179586
  0
ELLIPSE
  5
C73D
330
C6BA
100
AcDbEntity
  8
0
100
AcDbEllipse
 10
127.6327562691862
 20
-13.47220382460669
 30
0.0
 11
1.24999999999987
 21
-2.165063509461171
 31
0.0
210
0.0
220
0.0
230
1.0
 40
0.5773502691896259
 41
0.0
 42
6.283185307179586
  0
ELLIPSE
  5
C73E
330
C6BA
100
AcDbEntity
  8
0
100
AcDbEllipse
 10
129.4005232221526
 20
-94.10124119121968
 30
0.0
 11
1.250000000000129
 21
-2.165063509461022
 31
0.0
210
0.0
220
0.0
230
1.0
 40
0.5773502691896259
 41
3.926990816986998
 42
5.497787143781895
  0
ELLIPSE
  5
C73F
330
C6BA
100
AcDbEntity
  8
0
100
AcDbEllipse
 10
129.4005232221525
 20
-110.4311728097742
 30
0.0
 11
1.250000000000129
 21
-2.165063509461022
 31
0.0
210
0.0
220
0.0
230
1.0
 40
0.5773502691896259
 41
3.926990816986998
 42
5.497787143781895
  0
ELLIPSE
  5
C740
330
C6BA
100
AcDbEntity
  8
0
100
AcDbEllipse
 10
129.4005232221525
 20
-126.7611044283287
 30
0.0
 11
1.250000000000129
 21
-2.165063509461022
 31
0.0
210
0.0
220
0.0
230
1.0
 40
0.5773502691896259
 41
3.926990816986998
 42
5.497787143781895
  0
ELLIPSE
  5
C741
330
C6BA
100
AcDbEntity
  8
0
100
AcDbEllipse
 10
129.4005232221526
 20
-143.0910360468832
 30
0.0
 11
1.250000000000129
 21
-2.165063509461022
 31
0.0
210
0.0
220
0.0
230
1.0
 40
0.5773502691896259
 41
3.926990816986998
 42
5.497787143781895
  0
ELLIPSE
  5
C742
330
C6BA
100
AcDbEntity
  8
0
100
AcDbEllipse
 10
127.6327562691862
 20
-144.1116567730429
 30
0.0
 11
1.24999999999987
 21
-2.165063509461171
 31
0.0
210
0.0
220
0.0
230
1.0
 40
0.5773502691896259
 41
0.0
 42
6.283185307179586
  0
ELLIPSE
  5
C743
330
C6BA
100
AcDbEntity
  8
0
100
AcDbEllipse
 10
127.6327562691862
 20
-127.7817251544884
 30
0.0
 11
1.24999999999987
 21
-2.165063509461171
 31
0.0
210
0.0
220
0.0
230
1.0
 40
0.5773502691896259
 41
0.0
 42
6.283185307179586
  0
ELLIPSE
  5
C744
330
C6BA
100
AcDbEntity
  8
0
100
AcDbEllipse
 10
127.6327562691862
 20
-111.4517935359338
 30
0.0
 11
1.24999999999987
 21
-2.165063509461171
 31
0.0
210
0.0
220
0.0
230
1.0
 40
0.5773502691896259
 41
0.0
 42
6.283185307179586
  0
ELLIPSE
  5
C745
330
C6BA
100
AcDbEntity
  8
0
100
AcDbEllipse
 10
127.6327562691862
 20
-95.12186191737937
 30
0.0
 11
1.24999999999987
 21
-2.165063509461171
 31
0.0
210
0.0
220
0.0
230
1.0
 40
0.5773502691896259
 41
0.0
 42
6.283185307179586
  0
LINE
  5
C746
330
C6BA
100
AcDbEntity
  8
0
100
AcDbLine
 10
120.6323991354394
 20
129.373873008699
 30
0.0
 11
118.864632182473
 21
128.3532522825393
 31
0.0
  0
LINE
  5
C747
330
C6BA
100
AcDbEntity
  8
0
100
AcDbLine
 10
118.864632182473
 20
128.3532522825393
 30
0.0
 11
118.864632182473
 21
-177.2206184990406
 31
0.0
  0
LINE
  5
C748
330
C6BA
100
AcDbEntity
  8
0
100
AcDbLine
 10
118.0161040450492
 20
128.3532522825392
 30
0.0
 11
116.2483370920828
 21
129.3738730086989
 31
0.0
  0
ELLIPSE
  5
C749
330
C6BA
100
AcDbEntity
  8
0
100
AcDbEllipse
 10
118.4403681137611
 20
128.1083033082612
 30
0.0
 11
3.1
 21
0.0000000000009287
 31
0.0
210
0.0
220
0.0
230
1.0
 40
0.5773502691898653
 41
0.7853981633974883
 42
2.356194490192383
  0
SPLINE
  5
C74A
330
C6BA
100
AcDbEntity
  8
0
100
AcDbSpline
210
0.0
220
0.0
230
1.0
 70
     8
 71
     3
 72
    14
 73
    10
 74
     0
 42
0.000000001
 43
0.0000000001
 40
0.0
 40
0.0
 40
0.0
 40
0.0
 40
0.0256821069351767
 40
0.0256821069351767
 40
0.0513523519076719
 40
0.0513523519076719
 40
0.0751435263771711
 40
0.0751435263771711
 40
0.0989346991640027
 40
0.0989346991640027
 40
0.0989346991640027
 40
0.0989346991640027
 10
118.0161040450492
 20
-177.457656073099
 30
0.0
 10
118.0739551600871
 20
-177.4036796883828
 30
0.0
 10
118.1430321388915
 20
-177.3570962582426
 30
0.0
 10
118.2950889628605
 20
-177.2811185646498
 30
0.0
 10
118.3764694607641
 20
-177.2525046218704
 30
0.0
 10
118.5339655111481
 20
-177.2155811309005
 30
0.0
 10
118.6086133898026
 20
-177.2062652953755
 30
0.0
 10
118.7477767871671
 20
-177.2028311962343
 30
0.0
 10
118.8110405564094
 20
-177.208738405772
 30
0.0
 10
118.864632182473
 20
-177.2206184990407
 30
0.0
  0
ELLIPSE
  5
C74B
330
C6BA
100
AcDbEntity
  8
0
100
AcDbEllipse
 10
118.4403681137611
 20
128.1083033082612
 30
0.0
 11
-0.6
 21
-0.0000000000003143
 31
0.0
210
0.0
220
0.0
230
1.0
 40
0.5773502691898634
 41
3.926990816986744
 42
5.497787143781663
  0
LINE
  5
C74C
330
C6BA
100
AcDbEntity
  8
0
100
AcDbLine
 10
118.0161040450492
 20
-177.457656073099
 30
0.0
 11
118.0161040450492
 21
128.3532522825392
 31
0.0
  0
LINE
  5
C74D
330
C6BA
100
AcDbEntity
  8
0
100
AcDbLine
 10
-55.22505734565495
 20
228.8639813947423
 30
0.0
 11
-53.45729039268857
 21
229.8846021209019
 31
0.0
  0
LINE
  5
C74E
330
C6BA
100
AcDbEntity
  8
0
100
AcDbLine
 10
-55.22505734565495
 20
228.3740834461855
 30
0.0
 11
-55.22505734565495
 21
228.8639813947423
 31
0.0
  0
LINE
  5
C74F
330
C6BA
100
AcDbEntity
  8
0
100
AcDbLine
 10
-53.45729039268859
 20
227.3534627200259
 30
0.0
 11
-55.22505734565495
 21
228.3740834461856
 31
0.0
  0
ELLIPSE
  5
C750
330
C6BA
100
AcDbEntity
  8
0
100
AcDbEllipse
 10
-55.64932141436694
 20
228.6190324204641
 30
0.0
 11
3.1
 21
-0.0000000000000722
 31
0.0
210
0.0
220
0.0
230
1.0
 40
0.5773502691896678
 41
5.497787143782189
 42
7.068583470576972
  0
LINE
  5
C751
330
C6BA
100
AcDbEntity
  8
0
100
AcDbLine
 10
-53.45729039268857
 20
-78.45744563561223
 30
0.0
 11
-53.45729039268859
 21
227.3534627200259
 31
0.0
  0
SPLINE
  5
C752
330
C6BA
100
AcDbEntity
  8
0
100
AcDbSpline
210
0.0
220
0.0
230
1.0
 70
     8
 71
     3
 72
    12
 73
     8
 74
     0
 42
0.000000001
 43
0.0000000001
 40
0.0
 40
0.0
 40
0.0
 40
0.0
 40
0.1215949558307314
 40
0.1215949558307314
 40
0.2431265849515063
 40
0.2431265849515063
 40
0.2446721279881464
 40
0.2446721279881464
 40
0.2446721279881464
 40
0.2446721279881464
 10
-53.45729039268864
 20
-78.4574456356122
 30
0.0
 10
-53.17119631199744
 20
-78.27257421935549
 30
0.0
 10
-52.94385970874059
 20
-78.05713797643882
 30
0.0
 10
-52.63249112051791
 20
-77.58667126554164
 30
0.0
 10
-52.55137209387836
 20
-77.33616953487677
 30
0.0
 10
-52.54933420521059
 20
-77.07979490873596
 30
0.0
 10
-52.54932141436928
 20
-77.07657583696093
 30
0.0
 10
-52.54932141453671
 20
-77.07335714691753
 30
0.0
  0
ELLIPSE
  5
C753
330
C6BA
100
AcDbEntity
  8
0
100
AcDbEllipse
 10
-55.64932141436694
 20
228.6190324204641
 30
0.0
 11
0.6000000000000001
 21
0.0000000000000117
 31
0.0
210
0.0
220
0.0
230
1.0
 40
0.5773502691896388
 41
5.497787143782258
 42
7.06858347057641
  0
LINE
  5
C754
330
C6BA
100
AcDbEntity
  8
0
100
AcDbLine
 10
-52.54932141436691
 20
-77.07335714814504
 30
0.0
 11
-52.54932141436696
 21
228.6190324204641
 31
0.0
  0
ELLIPSE
  5
C755
330
C6BA
100
AcDbEntity
  8
0
100
AcDbEllipse
 10
85.91345617917987
 20
105.7362969908411
 30
0.0
 11
1.24999999999987
 21
2.165063509461171
 31
0.0
210
0.0
220
0.0
230
1.0
 40
0.5773502691896257
 41
3.926990816986998
 42
5.4977871437819
  0
ELLIPSE
  5
C756
330
C6BA
100
AcDbEntity
  8
0
100
AcDbEllipse
 10
87.68122313214623
 20
104.7156762646815
 30
0.0
 11
-1.249999999999999
 21
-2.165063509461097
 31
0.0
210
0.0
220
0.0
230
1.0
 40
0.5773502691896258
 41
0.0
 42
6.283185307179586
  0
ELLIPSE
  5
C757
330
C6BA
100
AcDbEntity
  8
0
100
AcDbEllipse
 10
85.91345617917987
 20
89.40636537228662
 30
0.0
 11
1.24999999999987
 21
2.165063509461171
 31
0.0
210
0.0
220
0.0
230
1.0
 40
0.5773502691896257
 41
3.926990816986998
 42
5.4977871437819
  0
ELLIPSE
  5
C758
330
C6BA
100
AcDbEntity
  8
0
100
AcDbEllipse
 10
87.68122313214623
 20
88.38574464612698
 30
0.0
 11
-1.249999999999999
 21
-2.165063509461097
 31
0.0
210
0.0
220
0.0
230
1.0
 40
0.5773502691896258
 41
0.0
 42
6.283185307179586
  0
ELLIPSE
  5
C759
330
C6BA
100
AcDbEntity
  8
0
100
AcDbEllipse
 10
85.91345617917987
 20
73.0764337537321
 30
0.0
 11
1.24999999999987
 21
2.165063509461171
 31
0.0
210
0.0
220
0.0
230
1.0
 40
0.5773502691896257
 41
3.926990816986998
 42
5.497787143781897
  0
ELLIPSE
  5
C75A
330
C6BA
100
AcDbEntity
  8
0
100
AcDbEllipse
 10
87.68122313214623
 20
72.05581302757245
 30
0.0
 11
-1.249999999999999
 21
-2.165063509461097
 31
0.0
210
0.0
220
0.0
230
1.0
 40
0.5773502691896258
 41
0.0
 42
6.283185307179586
  0
ELLIPSE
  5
C75B
330
C6BA
100
AcDbEntity
  8
0
100
AcDbEllipse
 10
85.91345617917987
 20
56.74650213517757
 30
0.0
 11
1.24999999999987
 21
2.165063509461171
 31
0.0
210
0.0
220
0.0
230
1.0
 40
0.5773502691896257
 41
3.926990816986998
 42
5.497787143781897
  0
ELLIPSE
  5
C75C
330
C6BA
100
AcDbEntity
  8
0
100
AcDbEllipse
 10
87.68122313214623
 20
55.72588140901792
 30
0.0
 11
-1.249999999999999
 21
-2.165063509461097
 31
0.0
210
0.0
220
0.0
230
1.0
 40
0.5773502691896258
 41
0.0
 42
6.283185307179586
  0
ELLIPSE
  5
C75D
330
C6BA
100
AcDbEntity
  8
0
100
AcDbEllipse
 10
85.91345617917989
 20
40.41657051662308
 30
0.0
 11
1.24999999999987
 21
2.165063509461171
 31
0.0
210
0.0
220
0.0
230
1.0
 40
0.5773502691896257
 41
3.926990816986998
 42
5.497787143781897
  0
ELLIPSE
  5
C75E
330
C6BA
100
AcDbEntity
  8
0
100
AcDbEllipse
 10
87.68122313214625
 20
39.39594979046344
 30
0.0
 11
-1.249999999999999
 21
-2.165063509461097
 31
0.0
210
0.0
220
0.0
230
1.0
 40
0.5773502691896258
 41
0.0
 42
6.283185307179586
  0
ELLIPSE
  5
C75F
330
C6BA
100
AcDbEntity
  8
0
100
AcDbEllipse
 10
85.91345617917989
 20
24.08663889806856
 30
0.0
 11
1.24999999999987
 21
2.165063509461171
 31
0.0
210
0.0
220
0.0
230
1.0
 40
0.5773502691896257
 41
3.926990816986998
 42
5.497787143781897
  0
ELLIPSE
  5
C760
330
C6BA
100
AcDbEntity
  8
0
100
AcDbEllipse
 10
87.68122313214625
 20
23.06601817190891
 30
0.0
 11
-1.249999999999999
 21
-2.165063509461097
 31
0.0
210
0.0
220
0.0
230
1.0
 40
0.5773502691896258
 41
0.0
 42
6.283185307179586
  0
ELLIPSE
  5
C761
330
C6BA
100
AcDbEntity
  8
0
100
AcDbEllipse
 10
85.91345617917989
 20
7.756707279514039
 30
0.0
 11
1.24999999999987
 21
2.165063509461171
 31
0.0
210
0.0
220
0.0
230
1.0
 40
0.5773502691896257
 41
3.926990816986998
 42
5.497787143781898
  0
ELLIPSE
  5
C762
330
C6BA
100
AcDbEntity
  8
0
100
AcDbEllipse
 10
87.68122313214625
 20
6.73608655335439
 30
0.0
 11
-1.249999999999999
 21
-2.165063509461097
 31
0.0
210
0.0
220
0.0
230
1.0
 40
0.5773502691896258
 41
0.0
 42
6.283185307179586
  0
ELLIPSE
  5
C763
330
C6BA
100
AcDbEntity
  8
0
100
AcDbEllipse
 10
85.91345617917989
 20
-8.573224339040486
 30
0.0
 11
1.24999999999987
 21
2.165063509461171
 31
0.0
210
0.0
220
0.0
230
1.0
 40
0.5773502691896257
 41
3.926990816986998
 42
5.497787143781898
  0
ELLIPSE
  5
C764
330
C6BA
100
AcDbEntity
  8
0
100
AcDbEllipse
 10
87.68122313214625
 20
-9.593845065200135
 30
0.0
 11
-1.249999999999999
 21
-2.165063509461097
 31
0.0
210
0.0
220
0.0
230
1.0
 40
0.5773502691896258
 41
0.0
 42
6.283185307179586
  0
ELLIPSE
  5
C765
330
C6BA
100
AcDbEntity
  8
0
100
AcDbEllipse
 10
85.91345617917989
 20
-24.90315595759501
 30
0.0
 11
1.24999999999987
 21
2.165063509461171
 31
0.0
210
0.0
220
0.0
230
1.0
 40
0.5773502691896257
 41
3.926990816986998
 42
5.497787143781897
  0
ELLIPSE
  5
C766
330
C6BA
100
AcDbEntity
  8
0
100
AcDbEllipse
 10
87.68122313214627
 20
-25.92377668375466
 30
0.0
 11
-1.249999999999999
 21
-2.165063509461097
 31
0.0
210
0.0
220
0.0
230
1.0
 40
0.5773502691896258
 41
0.0
 42
6.283185307179586
  0
ELLIPSE
  5
C767
330
C6BA
100
AcDbEntity
  8
0
100
AcDbEllipse
 10
85.91345617917989
 20
-41.23308757614953
 30
0.0
 11
1.24999999999987
 21
2.165063509461171
 31
0.0
210
0.0
220
0.0
230
1.0
 40
0.5773502691896257
 41
3.926990816986998
 42
5.497787143781897
  0
ELLIPSE
  5
C768
330
C6BA
100
AcDbEntity
  8
0
100
AcDbEllipse
 10
87.68122313214627
 20
-42.25370830230918
 30
0.0
 11
-1.249999999999999
 21
-2.165063509461097
 31
0.0
210
0.0
220
0.0
230
1.0
 40
0.5773502691896258
 41
0.0
 42
6.283185307179586
  0
ELLIPSE
  5
C769
330
C6BA
100
AcDbEntity
  8
0
100
AcDbEllipse
 10
85.91345617917989
 20
-57.56301919470404
 30
0.0
 11
1.24999999999987
 21
2.165063509461171
 31
0.0
210
0.0
220
0.0
230
1.0
 40
0.5773502691896257
 41
3.926990816986998
 42
5.497787143781897
  0
ELLIPSE
  5
C76A
330
C6BA
100
AcDbEntity
  8
0
100
AcDbEllipse
 10
87.68122313214627
 20
-58.58363992086371
 30
0.0
 11
-1.249999999999999
 21
-2.165063509461097
 31
0.0
210
0.0
220
0.0
230
1.0
 40
0.5773502691896258
 41
0.0
 42
6.283185307179586
  0
ELLIPSE
  5
C76B
330
C6BA
100
AcDbEntity
  8
0
100
AcDbEllipse
 10
85.91345617917989
 20
-73.89295081325856
 30
0.0
 11
1.24999999999987
 21
2.165063509461171
 31
0.0
210
0.0
220
0.0
230
1.0
 40
0.5773502691896257
 41
3.926990816986998
 42
5.497787143781897
  0
ELLIPSE
  5
C76C
330
C6BA
100
AcDbEntity
  8
0
100
AcDbEllipse
 10
87.68122313214627
 20
-74.91357153941823
 30
0.0
 11
-1.249999999999999
 21
-2.165063509461097
 31
0.0
210
0.0
220
0.0
230
1.0
 40
0.5773502691896258
 41
0.0
 42
6.283185307179586
  0
ELLIPSE
  5
C76D
330
C6BA
100
AcDbEntity
  8
0
100
AcDbEllipse
 10
85.91345617917992
 20
-90.22288243181311
 30
0.0
 11
1.24999999999987
 21
2.165063509461171
 31
0.0
210
0.0
220
0.0
230
1.0
 40
0.5773502691896257
 41
3.926990816986998
 42
5.4977871437819
  0
ELLIPSE
  5
C76E
330
C6BA
100
AcDbEntity
  8
0
100
AcDbEllipse
 10
87.68122313214627
 20
-91.24350315797276
 30
0.0
 11
-1.249999999999999
 21
-2.165063509461097
 31
0.0
210
0.0
220
0.0
230
1.0
 40
0.5773502691896258
 41
0.0
 42
6.283185307179586
  0
ELLIPSE
  5
C76F
330
C6BA
100
AcDbEntity
  8
0
100
AcDbEllipse
 10
85.91345617917992
 20
-106.5528140503676
 30
0.0
 11
1.24999999999987
 21
2.165063509461171
 31
0.0
210
0.0
220
0.0
230
1.0
 40
0.5773502691896257
 41
3.926990816986998
 42
5.4977871437819
  0
ELLIPSE
  5
C770
330
C6BA
100
AcDbEntity
  8
0
100
AcDbEllipse
 10
87.68122313214627
 20
-107.5734347765272
 30
0.0
 11
-1.249999999999999
 21
-2.165063509461097
 31
0.0
210
0.0
220
0.0
230
1.0
 40
0.5773502691896258
 41
0.0
 42
6.283185307179586
  0
ELLIPSE
  5
C771
330
C6BA
100
AcDbEntity
  8
0
100
AcDbEllipse
 10
85.91345617917992
 20
-122.8827456689221
 30
0.0
 11
1.24999999999987
 21
2.165063509461171
 31
0.0
210
0.0
220
0.0
230
1.0
 40
0.5773502691896257
 41
3.926990816986998
 42
5.4977871437819
  0
ELLIPSE
  5
C772
330
C6BA
100
AcDbEntity
  8
0
100
AcDbEllipse
 10
87.68122313214627
 20
-123.9033663950818
 30
0.0
 11
-1.249999999999999
 21
-2.165063509461097
 31
0.0
210
0.0
220
0.0
230
1.0
 40
0.5773502691896258
 41
0.0
 42
6.283185307179586
  0
ELLIPSE
  5
C773
330
C6BA
100
AcDbEntity
  8
0
100
AcDbEllipse
 10
85.91345617917992
 20
-139.2126772874766
 30
0.0
 11
1.24999999999987
 21
2.165063509461171
 31
0.0
210
0.0
220
0.0
230
1.0
 40
0.5773502691896257
 41
3.926990816986998
 42
5.4977871437819
  0
ELLIPSE
  5
C774
330
C6BA
100
AcDbEntity
  8
0
100
AcDbEllipse
 10
87.68122313214627
 20
-140.2332980136363
 30
0.0
 11
-1.249999999999999
 21
-2.165063509461097
 31
0.0
210
0.0
220
0.0
230
1.0
 40
0.5773502691896258
 41
0.0
 42
6.283185307179586
  0
ELLIPSE
  5
C775
330
C6BA
100
AcDbEntity
  8
0
100
AcDbEllipse
 10
85.91345617917992
 20
-155.5426089060311
 30
0.0
 11
1.24999999999987
 21
2.165063509461171
 31
0.0
210
0.0
220
0.0
230
1.0
 40
0.5773502691896257
 41
3.926990816986998
 42
5.4977871437819
  0
ELLIPSE
  5
C776
330
C6BA
100
AcDbEntity
  8
0
100
AcDbEllipse
 10
87.68122313214631
 20
-156.5632296321908
 30
0.0
 11
-1.249999999999999
 21
-2.165063509461097
 31
0.0
210
0.0
220
0.0
230
1.0
 40
0.5773502691896258
 41
0.0
 42
6.283185307179586
  0
ELLIPSE
  5
C777
330
C6BA
100
AcDbEntity
  8
0
100
AcDbEllipse
 10
85.91345617917992
 20
-171.8725405245857
 30
0.0
 11
1.24999999999987
 21
2.165063509461171
 31
0.0
210
0.0
220
0.0
230
1.0
 40
0.5773502691896257
 41
3.926990816986998
 42
5.497787143781892
  0
ELLIPSE
  5
C778
330
C6BA
100
AcDbEntity
  8
0
100
AcDbEllipse
 10
87.68122313214631
 20
-172.8931612507453
 30
0.0
 11
-1.249999999999999
 21
-2.165063509461097
 31
0.0
210
0.0
220
0.0
230
1.0
 40
0.5773502691896258
 41
0.0
 42
6.283185307179586
  0
ELLIPSE
  5
C779
330
C6BA
100
AcDbEntity
  8
0
100
AcDbEllipse
 10
85.91345617917992
 20
-188.2024721431402
 30
0.0
 11
1.24999999999987
 21
2.165063509461171
 31
0.0
210
0.0
220
0.0
230
1.0
 40
0.5773502691896257
 41
3.926990816986998
 42
5.497787143781892
  0
ELLIPSE
  5
C77A
330
C6BA
100
AcDbEntity
  8
0
100
AcDbEllipse
 10
87.68122313214631
 20
-189.2230928692999
 30
0.0
 11
-1.249999999999999
 21
-2.165063509461097
 31
0.0
210
0.0
220
0.0
230
1.0
 40
0.5773502691896258
 41
0.0
 42
6.283185307179586
  0
ELLIPSE
  5
C77B
330
C6BA
100
AcDbEntity
  8
0
100
AcDbEllipse
 10
-63.99318143236818
 20
227.8025358395362
 30
0.0
 11
1.249999999999872
 21
-2.16506350946117
 31
0.0
210
0.0
220
0.0
230
1.0
 40
0.5773502691896258
 41
0.0
 42
6.283185307179586
  0
ELLIPSE
  5
C77C
330
C6BA
100
AcDbEntity
  8
0
100
AcDbEllipse
 10
-62.22541447940179
 20
228.8231565656958
 30
0.0
 11
1.25000000000013
 21
-2.165063509461021
 31
0.0
210
0.0
220
0.0
230
1.0
 40
0.5773502691896259
 41
3.926990816987004
 42
5.497787143781899
  0
ELLIPSE
  5
C77D
330
C6BA
100
AcDbEntity
  8
0
100
AcDbEllipse
 10
-76.72110349372603
 20
226.9860392586084
 30
0.0
 11
1.249999999999872
 21
-2.16506350946117
 31
0.0
210
0.0
220
0.0
230
1.0
 40
0.5773502691896258
 41
0.0
 42
6.283185307179586
  0
ELLIPSE
  5
C77E
330
C6BA
100
AcDbEntity
  8
0
100
AcDbEllipse
 10
-74.95333654075967
 20
228.0066599847681
 30
0.0
 11
1.25000000000013
 21
-2.165063509461021
 31
0.0
210
0.0
220
0.0
230
1.0
 40
0.5773502691896259
 41
3.926990816987004
 42
5.497787143781899
  0
ELLIPSE
  5
C77F
330
C6BA
100
AcDbEntity
  8
0
100
AcDbEllipse
 10
-67.5287153383009
 20
213.5138456733009
 30
0.0
 11
-3.500000000000005
 21
6.062177826491068
 31
0.0
210
0.0
220
0.0
230
1.0
 40
0.5773502691896257
 41
5.998125790232584
 42
6.568244824126573
  0
ELLIPSE
  5
C780
330
C6BA
100
AcDbEntity
  8
0
100
AcDbEllipse
 10
-65.76094838533453
 20
214.5344663994606
 30
0.0
 11
-3.500000000000005
 21
6.062177826491069
 31
0.0
210
0.0
220
0.0
230
1.0
 40
0.5773502691896258
 41
0.2553025216024064
 42
0.2850595169469876
  0
ELLIPSE
  5
C781
330
C6BA
100
AcDbEntity
  8
0
100
AcDbEllipse
 10
-83.79217130559146
 20
195.550920892891
 30
0.0
 11
1.25
 21
2.165063509461096
 31
0.0
210
0.0
220
0.0
230
1.0
 40
0.5773502691896255
 41
0.0
 42
6.283185307179586
  0
ELLIPSE
  5
C782
330
C6BA
100
AcDbEntity
  8
0
100
AcDbEllipse
 10
-85.55993825855782
 20
196.5715416190506
 30
0.0
 11
1.24999999999987
 21
2.165063509461171
 31
0.0
210
0.0
220
0.0
230
1.0
 40
0.5773502691896257
 41
3.926990816986998
 42
5.497787143781892
  0
ELLIPSE
  5
C783
330
C6BA
100
AcDbEntity
  8
0
100
AcDbEllipse
 10
-83.79217130559146
 20
179.2209892743364
 30
0.0
 11
1.25
 21
2.165063509461096
 31
0.0
210
0.0
220
0.0
230
1.0
 40
0.5773502691896255
 41
0.0
 42
6.283185307179586
  0
ELLIPSE
  5
C784
330
C6BA
100
AcDbEntity
  8
0
100
AcDbEllipse
 10
-85.55993825855782
 20
180.2416100004961
 30
0.0
 11
1.24999999999987
 21
2.165063509461171
 31
0.0
210
0.0
220
0.0
230
1.0
 40
0.5773502691896257
 41
3.926990816986998
 42
5.497787143781892
  0
ELLIPSE
  5
C785
330
C6BA
100
AcDbEntity
  8
0
100
AcDbEllipse
 10
-83.79217130559146
 20
162.8910576557819
 30
0.0
 11
1.25
 21
2.165063509461096
 31
0.0
210
0.0
220
0.0
230
1.0
 40
0.5773502691896255
 41
0.0
 42
6.283185307179586
  0
ELLIPSE
  5
C786
330
C6BA
100
AcDbEntity
  8
0
100
AcDbEllipse
 10
-85.55993825855782
 20
163.9116783819415
 30
0.0
 11
1.24999999999987
 21
2.165063509461171
 31
0.0
210
0.0
220
0.0
230
1.0
 40
0.5773502691896257
 41
3.926990816986998
 42
5.497787143781892
  0
ELLIPSE
  5
C787
330
C6BA
100
AcDbEntity
  8
0
100
AcDbEllipse
 10
-83.79217130559146
 20
146.5611260372274
 30
0.0
 11
1.25
 21
2.165063509461096
 31
0.0
210
0.0
220
0.0
230
1.0
 40
0.5773502691896255
 41
0.0
 42
6.283185307179586
  0
ELLIPSE
  5
C788
330
C6BA
100
AcDbEntity
  8
0
100
AcDbEllipse
 10
-85.55993825855782
 20
147.5817467633871
 30
0.0
 11
1.24999999999987
 21
2.165063509461171
 31
0.0
210
0.0
220
0.0
230
1.0
 40
0.5773502691896257
 41
3.926990816986998
 42
5.4977871437819
  0
ELLIPSE
  5
C789
330
C6BA
100
AcDbEntity
  8
0
100
AcDbEllipse
 10
-83.79217130559146
 20
130.2311944186729
 30
0.0
 11
1.25
 21
2.165063509461096
 31
0.0
210
0.0
220
0.0
230
1.0
 40
0.5773502691896255
 41
0.0
 42
6.283185307179586
  0
ELLIPSE
  5
C78A
330
C6BA
100
AcDbEntity
  8
0
100
AcDbEllipse
 10
-85.55993825855782
 20
131.2518151448326
 30
0.0
 11
1.24999999999987
 21
2.165063509461171
 31
0.0
210
0.0
220
0.0
230
1.0
 40
0.5773502691896257
 41
3.926990816986998
 42
5.4977871437819
  0
ELLIPSE
  5
C78B
330
C6BA
100
AcDbEntity
  8
0
100
AcDbEllipse
 10
-83.79217130559146
 20
113.9012628001184
 30
0.0
 11
1.25
 21
2.165063509461096
 31
0.0
210
0.0
220
0.0
230
1.0
 40
0.5773502691896255
 41
0.0
 42
6.283185307179586
  0
ELLIPSE
  5
C78C
330
C6BA
100
AcDbEntity
  8
0
100
AcDbEllipse
 10
-85.55993825855782
 20
114.9218835262781
 30
0.0
 11
1.24999999999987
 21
2.165063509461171
 31
0.0
210
0.0
220
0.0
230
1.0
 40
0.5773502691896257
 41
3.926990816986998
 42
5.4977871437819
  0
ELLIPSE
  5
C78D
330
C6BA
100
AcDbEntity
  8
0
100
AcDbEllipse
 10
-83.79217130559146
 20
97.57133118156387
 30
0.0
 11
1.25
 21
2.165063509461096
 31
0.0
210
0.0
220
0.0
230
1.0
 40
0.5773502691896255
 41
0.0
 42
6.283185307179586
  0
ELLIPSE
  5
C78E
330
C6BA
100
AcDbEntity
  8
0
100
AcDbEllipse
 10
-85.55993825855782
 20
98.59195190772354
 30
0.0
 11
1.24999999999987
 21
2.165063509461171
 31
0.0
210
0.0
220
0.0
230
1.0
 40
0.5773502691896257
 41
3.926990816986998
 42
5.4977871437819
  0
ELLIPSE
  5
C78F
330
C6BA
100
AcDbEntity
  8
0
100
AcDbEllipse
 10
-83.79217130559146
 20
81.24139956300936
 30
0.0
 11
1.25
 21
2.165063509461096
 31
0.0
210
0.0
220
0.0
230
1.0
 40
0.5773502691896255
 41
0.0
 42
6.283185307179586
  0
ELLIPSE
  5
C790
330
C6BA
100
AcDbEntity
  8
0
100
AcDbEllipse
 10
-85.55993825855784
 20
82.26202028916901
 30
0.0
 11
1.24999999999987
 21
2.165063509461171
 31
0.0
210
0.0
220
0.0
230
1.0
 40
0.5773502691896257
 41
3.926990816986998
 42
5.4977871437819
  0
ELLIPSE
  5
C791
330
C6BA
100
AcDbEntity
  8
0
100
AcDbEllipse
 10
-83.79217130559146
 20
64.91146794445484
 30
0.0
 11
1.25
 21
2.165063509461096
 31
0.0
210
0.0
220
0.0
230
1.0
 40
0.5773502691896255
 41
0.0
 42
6.283185307179586
  0
ELLIPSE
  5
C792
330
C6BA
100
AcDbEntity
  8
0
100
AcDbEllipse
 10
-85.55993825855784
 20
65.93208867061449
 30
0.0
 11
1.24999999999987
 21
2.165063509461171
 31
0.0
210
0.0
220
0.0
230
1.0
 40
0.5773502691896257
 41
3.926990816986998
 42
5.497787143781897
  0
ELLIPSE
  5
C793
330
C6BA
100
AcDbEntity
  8
0
100
AcDbEllipse
 10
-83.79217130559146
 20
48.58153632590031
 30
0.0
 11
1.25
 21
2.165063509461096
 31
0.0
210
0.0
220
0.0
230
1.0
 40
0.5773502691896255
 41
0.0
 42
6.283185307179586
  0
ELLIPSE
  5
C794
330
C6BA
100
AcDbEntity
  8
0
100
AcDbEllipse
 10
-85.55993825855784
 20
49.60215705205996
 30
0.0
 11
1.24999999999987
 21
2.165063509461171
 31
0.0
210
0.0
220
0.0
230
1.0
 40
0.5773502691896257
 41
3.926990816986998
 42
5.497787143781897
  0
ELLIPSE
  5
C795
330
C6BA
100
AcDbEntity
  8
0
100
AcDbEllipse
 10
-83.79217130559146
 20
32.25160470734579
 30
0.0
 11
1.25
 21
2.165063509461096
 31
0.0
210
0.0
220
0.0
230
1.0
 40
0.5773502691896255
 41
0.0
 42
6.283185307179586
  0
ELLIPSE
  5
C796
330
C6BA
100
AcDbEntity
  8
0
100
AcDbEllipse
 10
-85.55993825855784
 20
33.27222543350544
 30
0.0
 11
1.24999999999987
 21
2.165063509461171
 31
0.0
210
0.0
220
0.0
230
1.0
 40
0.5773502691896257
 41
3.926990816986998
 42
5.497787143781897
  0
ELLIPSE
  5
C797
330
C6BA
100
AcDbEntity
  8
0
100
AcDbEllipse
 10
-83.79217130559148
 20
15.92167308879126
 30
0.0
 11
1.25
 21
2.165063509461096
 31
0.0
210
0.0
220
0.0
230
1.0
 40
0.5773502691896255
 41
0.0
 42
6.283185307179586
  0
ELLIPSE
  5
C798
330
C6BA
100
AcDbEntity
  8
0
100
AcDbEllipse
 10
-85.55993825855784
 20
16.94229381495093
 30
0.0
 11
1.24999999999987
 21
2.165063509461171
 31
0.0
210
0.0
220
0.0
230
1.0
 40
0.5773502691896257
 41
3.926990816986998
 42
5.497787143781898
  0
ELLIPSE
  5
C799
330
C6BA
100
AcDbEntity
  8
0
100
AcDbEllipse
 10
-83.79217130559148
 20
-0.4082585297632591
 30
0.0
 11
1.25
 21
2.165063509461096
 31
0.0
210
0.0
220
0.0
230
1.0
 40
0.5773502691896255
 41
0.0
 42
6.283185307179586
  0
ELLIPSE
  5
C79A
330
C6BA
100
AcDbEntity
  8
0
100
AcDbEllipse
 10
-85.55993825855784
 20
0.6123621963964077
 30
0.0
 11
1.24999999999987
 21
2.165063509461171
 31
0.0
210
0.0
220
0.0
230
1.0
 40
0.5773502691896257
 41
3.926990816986998
 42
5.497787143781897
  0
ELLIPSE
  5
C79B
330
C6BA
100
AcDbEntity
  8
0
100
AcDbEllipse
 10
-83.79217130559148
 20
-16.73819014831775
 30
0.0
 11
1.25
 21
2.165063509461096
 31
0.0
210
0.0
220
0.0
230
1.0
 40
0.5773502691896255
 41
0.0
 42
6.283185307179586
  0
ELLIPSE
  5
C79C
330
C6BA
100
AcDbEntity
  8
0
100
AcDbEllipse
 10
-85.55993825855784
 20
-15.7175694221581
 30
0.0
 11
1.24999999999987
 21
2.165063509461171
 31
0.0
210
0.0
220
0.0
230
1.0
 40
0.5773502691896257
 41
3.926990816986998
 42
5.497787143781898
  0
ELLIPSE
  5
C79D
330
C6BA
100
AcDbEntity
  8
0
100
AcDbEllipse
 10
-83.79217130559148
 20
-33.06812176687227
 30
0.0
 11
1.25
 21
2.165063509461096
 31
0.0
210
0.0
220
0.0
230
1.0
 40
0.5773502691896255
 41
0.0
 42
6.283185307179586
  0
ELLIPSE
  5
C79E
330
C6BA
100
AcDbEntity
  8
0
100
AcDbEllipse
 10
-85.55993825855784
 20
-32.04750104071262
 30
0.0
 11
1.24999999999987
 21
2.165063509461171
 31
0.0
210
0.0
220
0.0
230
1.0
 40
0.5773502691896257
 41
3.926990816986998
 42
5.497787143781897
  0
ELLIPSE
  5
C79F
330
C6BA
100
AcDbEntity
  8
0
100
AcDbEllipse
 10
-83.79217130559149
 20
-49.39805338542679
 30
0.0
 11
1.25
 21
2.165063509461096
 31
0.0
210
0.0
220
0.0
230
1.0
 40
0.5773502691896255
 41
0.0
 42
6.283185307179586
  0
ELLIPSE
  5
C7A0
330
C6BA
100
AcDbEntity
  8
0
100
AcDbEllipse
 10
-85.55993825855786
 20
-48.37743265926714
 30
0.0
 11
1.24999999999987
 21
2.165063509461171
 31
0.0
210
0.0
220
0.0
230
1.0
 40
0.5773502691896257
 41
3.926990816986998
 42
5.497787143781897
  0
ELLIPSE
  5
C7A1
330
C6BA
100
AcDbEntity
  8
0
100
AcDbEllipse
 10
-83.79217130559149
 20
-65.72798500398133
 30
0.0
 11
1.25
 21
2.165063509461096
 31
0.0
210
0.0
220
0.0
230
1.0
 40
0.5773502691896255
 41
0.0
 42
6.283185307179586
  0
ELLIPSE
  5
C7A2
330
C6BA
100
AcDbEntity
  8
0
100
AcDbEllipse
 10
-85.55993825855786
 20
-64.70736427782167
 30
0.0
 11
1.24999999999987
 21
2.165063509461171
 31
0.0
210
0.0
220
0.0
230
1.0
 40
0.5773502691896257
 41
3.926990816986998
 42
5.497787143781897
  0
ELLIPSE
  5
C7A3
330
C6BA
100
AcDbEntity
  8
0
100
AcDbEllipse
 10
-83.79217130559149
 20
-82.05791662253586
 30
0.0
 11
1.25
 21
2.165063509461096
 31
0.0
210
0.0
220
0.0
230
1.0
 40
0.5773502691896255
 41
0.0
 42
6.283185307179586
  0
ELLIPSE
  5
C7A4
330
C6BA
100
AcDbEntity
  8
0
100
AcDbEllipse
 10
-85.55993825855786
 20
-81.03729589637621
 30
0.0
 11
1.24999999999987
 21
2.165063509461171
 31
0.0
210
0.0
220
0.0
230
1.0
 40
0.5773502691896257
 41
3.926990816986998
 42
5.4977871437819
  0
ENDBLK
  5
C6BC
330
C6BA
100
AcDbEntity
  8
0
100
AcDbBlockEnd
  0
ENDSEC
  0
SECTION
  2
ENTITIES
  0
INSERT
  5
C7A5
330
1F
100
AcDbEntity
  8
0
100
AcDbBlockReference
  2
GLE1020_240_2.5-Front
 10
0.0
 20
0.0
 30
0.0
  0
INSERT
  5
C7A6
330
1F
100
AcDbEntity
  8
0
100
AcDbBlockReference
  2
GLE1020_240_2.5-Left
 10
373.7499498378858
 20
0.0
 30
0.0
  0
INSERT
  5
C7A7
330
1F
100
AcDbEntity
  8
0
100
AcDbBlockReference
  2
GLE1020_240_2.5-Right
 10
-373.749949837886
 20
0.0
 30
0.0
  0
INSERT
  5
C7A8
330
1F
100
AcDbEntity
  8
0
100
AcDbBlockReference
  2
GLE1020_240_2.5-Top
 10
0.0
 20
-215.2499498378861
 30
0.0
  0
INSERT
  5
C7A9
330
1F
100
AcDbEntity
  8
0
100
AcDbBlockReference
  2
GLE1020_240_2.5-Bottom
 10
0.0
 20
602.7499498378866
 30
0.0
  0
INSERT
  5
C7AA
330
1F
100
AcDbEntity
  8
0
100
AcDbBlockReference
  2
GLE1020_240_2.5-ISO
 10
398.9581705366988
 20
-365.6072123294824
 30
0.0
  0
MTEXT
  5
C7AB
330
1F
100
AcDbEntity
  8
0
100
AcDbMText
 10
0.0
 20
-333.0000000000006
 30
0.0
 40
25.3409090909091
 41
0.0
 71
     5
 72
     5
  1
GLE1020/240/2.5
 73
     1
 44
1.0
1001
ACAD
1000
MTEXTBEGIN
1070
    73
1070
     1
1070
    44
1040
1.0
1070
    74
1070
     0
1000
MTEXTEND
  0
ENDSEC
  0
SECTION
  2
OBJECTS
  0
DICTIONARY
  5
C
330
0
100
AcDbDictionary
281
     1
  3
ACAD_CIP_PREVIOUS_PRODUCT_INFO
350
216
  3
ACAD_COLOR
350
6B
  3
ACAD_DETAILVIEWSTYLE
350
21B
  3
ACAD_GROUP
350
D
  3
ACAD_LAYOUT
350
1A
  3
ACAD_MATERIAL
350
6A
  3
ACAD_MLEADERSTYLE
350
12D
  3
ACAD_MLINESTYLE
350
17
  3
ACAD_PLOTSETTINGS
350
19
  3
ACAD_PLOTSTYLENAME
350
E
  3
ACAD_SCALELIST
350
10C
  3
ACAD_SECTIONVIEWSTYLE
350
219
  3
ACAD_TABLESTYLE
350
7E
  3
ACAD_VISUALSTYLE
350
EF
  3
ACDB_RECOMPOSE_DATA
350
C8AE
  3
AcDbVariableDictionary
350
5E
  3
DWGPROPS
350
C8AF
  0
DICTIONARY
  5
C7FE
330
8
100
AcDbDictionary
280
     1
281
     1
  0
DICTIONARY
  5
1FF
330
2
100
AcDbDictionary
280
     1
281
     1
  3
ACAD_LAYERSTATES
360
200
  0
DICTIONARY
  5
13C
330
10
100
AcDbDictionary
280
     1
281
     1
  0
DICTIONARY
  5
1CE
330
1F
100
AcDbDictionary
280
     1
281
     1
  3
ACAD_LAYOUTSELFREF
360
C806
  0
DICTIONARY
  5
C7AF
330
D2
100
AcDbDictionary
280
     1
281
     1
  3
ACAD_LAYOUTSELFREF
360
C80F
  0
DICTIONARY
  5
C7B1
330
D6
100
AcDbDictionary
280
     1
281
     1
  3
ACAD_LAYOUTSELFREF
360
C812
  0
XRECORD
  5
216
102
{ACAD_REACTORS
330
C
102
}
330
C
100
AcDbXrecord
280
     1
300
ACD
300
2021
300

  0
DICTIONARY
  5
6B
102
{ACAD_REACTORS
330
C
102
}
330
C
100
AcDbDictionary
281
     1
  0
DICTIONARY
  5
21B
102
{ACAD_REACTORS
330
C
102
}
330
C
100
AcDbDictionary
281
     1
  3
Metric50
350
21C
  0
DICTIONARY
  5
D
102
{ACAD_REACTORS
330
C
102
}
330
C
100
AcDbDictionary
281
     1
  0
DICTIONARY
  5
1A
102
{ACAD_REACTORS
330
C
102
}
330
C
100
AcDbDictionary
281
     1
  3
Layout1
350
D3
  3
Layout2
350
D7
  3
Model
350
22
  0
DICTIONARY
  5
6A
102
{ACAD_REACTORS
330
C
102
}
330
C
100
AcDbDictionary
281
     1
  3
ByBlock
350
ED
  3
ByLayer
350
EC
  3
Global
350
EE
  0
DICTIONARY
  5
12D
102
{ACAD_REACTORS
330
C
102
}
330
C
100
AcDbDictionary
281
     1
  3
Standard
350
12E
  0
DICTIONARY
  5
17
102
{ACAD_REACTORS
330
C
102
}
330
C
100
AcDbDictionary
281
     1
  3
Standard
350
18
  0
DICTIONARY
  5
19
102
{ACAD_REACTORS
330
C
102
}
330
C
100
AcDbDictionary
281
     1
  0
ACDBDICTIONARYWDFLT
  5
E
102
{ACAD_REACTORS
330
C
102
}
330
C
100
AcDbDictionary
281
     1
  3
Normal
350
F
100
AcDbDictionaryWithDefault
340
F
  0
DICTIONARY
  5
10C
102
{ACAD_REACTORS
330
C
102
}
330
C
100
AcDbDictionary
281
     1
  3
A0
350
10D
  3
A1
350
1BE
  3
A2
350
1BF
  3
A3
350
1C0
  3
A4
350
1C1
  3
A5
350
1C2
  3
A6
350
1C3
  3
A7
350
1C4
  3
A8
350
1C5
  3
A9
350
1C6
  3
B0
350
1C7
  3
B1
350
1C8
  3
B2
350
1C9
  3
B3
350
1CA
  3
B4
350
1CB
  3
B5
350
1CC
  3
B6
350
1CD
  0
DICTIONARY
  5
219
102
{ACAD_REACTORS
330
C
102
}
330
C
100
AcDbDictionary
281
     1
  3
Metric50
350
21A
  0
DICTIONARY
  5
7E
102
{ACAD_REACTORS
330
C
102
}
330
C
100
AcDbDictionary
281
     1
  3
Standard
350
7F
  0
DICTIONARY
  5
EF
102
{ACAD_REACTORS
330
C
102
}
330
C
100
AcDbDictionary
281
     1
  3
2dWireframe
350
F5
  3
Basic
350
F4
  3
Brighten
350
FB
  3
ColorChange
350
FF
  3
Conceptual
350
F8
  3
Dim
350
FA
  3
EdgeColorOff
350
1E6
  3
Facepattern
350
FE
  3
Flat
350
F0
  3
FlatWithEdges
350
F1
  3
Gouraud
350
F2
  3
GouraudWithEdges
350
F3
  3
Hidden
350
F7
  3
JitterOff
350
1E4
  3
Linepattern
350
FD
  3
OverhangOff
350
1E5
  3
Realistic
350
F9
  3
Shaded
350
1F3
  3
Shaded with edges
350
1F2
  3
Shades of Gray
350
1EF
  3
Sketchy
350
1F0
  3
Thicken
350
FC
  3
Wireframe
350
F6
  3
X-Ray
350
1F1
  0
XRECORD
  5
C8AE
102
{ACAD_REACTORS
330
C
102
}
330
C
100
AcDbXrecord
280
     1
 90
        1
330
7F
  0
DICTIONARY
  5
5E
102
{ACAD_REACTORS
330
C
102
}
330
C
100
AcDbDictionary
281
     1
  3
CANNOSCALE
350
146
  3
CENTEREXE
350
259
  3
CENTERLTYPEFILE
350
25A
  3
CMLEADERSTYLE
350
145
  3
CTABLESTYLE
350
84
  3
CVIEWDETAILSTYLE
350
227
  3
CVIEWSECTIONSTYLE
350
228
  3
DIMASSOC
350
5F
  3
HIDETEXT
350
63
  3
INDEXCTL
350
C85B
  3
LAYEREVAL
350
1AE
  3
LAYERNOTIFY
350
1AF
  3
LIGHTINGUNITS
350
C859
  3
MSLTSCALE
350
C858
  3
PSOLHEIGHT
350
C8AB
  3
PSOLWIDTH
350
C8AA
  3
SORTENTS
350
C85A
  3
XCLIPFRAME
350
C8AC
  0
XRECORD
  5
C8AF
102
{ACAD_REACTORS
330
C
102
}
330
C
100
AcDbXrecord
280
     1
  1
DWGPROPS COOKIE
  2

  3

  4

  6

  7

  8
tronnguyen
  9

300
=
301
=
302
=
303
=
304
=
305
=
306
=
307
=
308
=
309
=
 40
0.0086458333333333
 41
2460256.45568287
 42
2460256.474409722
  1

 90
        0
  0
DICTIONARY
  5
200
102
{ACAD_REACTORS
330
1FF
102
}
330
1FF
100
AcDbDictionary
281
     1
  0
XRECORD
  5
C806
102
{ACAD_REACTORS
330
1CE
102
}
330
1CE
100
AcDbXrecord
280
     1
340
1F
  0
XRECORD
  5
C80F
102
{ACAD_REACTORS
330
C7AF
102
}
330
C7AF
100
AcDbXrecord
280
     1
340
D2
  0
XRECORD
  5
C812
102
{ACAD_REACTORS
330
C7B1
102
}
330
C7B1
100
AcDbXrecord
280
     1
340
D6
  0
ACDBDETAILVIEWSTYLE
  5
21C
102
{ACAD_XDICTIONARY
360
C8EE
102
}
102
{ACAD_REACTORS
330
21B
102
}
330
21B
100
AcDbModelDocViewStyle
 70
     0
  3
Metric50
290
     0
100
AcDbDetailViewStyle
 70
     0
 71
     0
 90
        3
 71
     1
340
11
 40
5.0
340
0
 40
5.0
300

 40
0.0
280
     1
 71
     2
340
16
 90
       25
 71
     3
340
11
 40
5.0
 90
        0
 40
15.0
 90
        1
300
%<\AcVar ViewDetailId>% (%<\AcVar ViewScale \f "%sn">%)
 71
     4
340
16
 90
       25
340
16
 90
       25
280
     0
  0
LAYOUT
  5
D3
102
{ACAD_XDICTIONARY
360
C8B3
102
}
102
{ACAD_REACTORS
330
1A
102
}
330
1A
100
AcDbPlotSettings
  1

  2
C:\Documents and Settings\basas\Application Data\Autodesk\AutoCAD 2005\R16.1\enu\plotters\Default Windows System Printer.pc3
  4

  6

 40
0.0
 41
0.0
 42
0.0
 43
0.0
 44
0.0
 45
0.0
 46
0.0
 47
0.0
 48
0.0
 49
0.0
140
0.0
141
0.0
142
1.0
143
1.0
 70
   688
 72
     0
 73
     0
 74
     5
  7

 75
    16
147
1.0
148
0.0
149
0.0
100
AcDbLayout
  1
Layout1
 70
     1
 71
     1
 10
0.0
 20
0.0
 11
12.0
 21
9.0
 12
0.0
 22
0.0
 32
0.0
 14
0.0
 24
0.0
 34
0.0
 15
0.0
 25
0.0
 35
0.0
146
0.0
 13
0.0
 23
0.0
 33
0.0
 16
1.0
 26
0.0
 36
0.0
 17
0.0
 27
1.0
 37
0.0
 76
     0
330
D2
  0
LAYOUT
  5
D7
102
{ACAD_XDICTIONARY
360
C8B5
102
}
102
{ACAD_REACTORS
330
1A
102
}
330
1A
100
AcDbPlotSettings
  1

  2
C:\Documents and Settings\basas\Application Data\Autodesk\AutoCAD 2005\R16.1\enu\plotters\Default Windows System Printer.pc3
  4

  6

 40
0.0
 41
0.0
 42
0.0
 43
0.0
 44
0.0
 45
0.0
 46
0.0
 47
0.0
 48
0.0
 49
0.0
140
0.0
141
0.0
142
1.0
143
1.0
 70
   688
 72
     0
 73
     0
 74
     5
  7

 75
    16
147
1.0
148
0.0
149
0.0
100
AcDbLayout
  1
Layout2
 70
     1
 71
     2
 10
0.0
 20
0.0
 11
12.0
 21
9.0
 12
0.0
 22
0.0
 32
0.0
 14
0.0
 24
0.0
 34
0.0
 15
0.0
 25
0.0
 35
0.0
146
0.0
 13
0.0
 23
0.0
 33
0.0
 16
1.0
 26
0.0
 36
0.0
 17
0.0
 27
1.0
 37
0.0
 76
     0
330
D6
  0
LAYOUT
  5
22
102
{ACAD_XDICTIONARY
360
C8B0
102
}
102
{ACAD_REACTORS
330
1A
102
}
330
1A
100
AcDbPlotSettings
  1

  2
none_device
  4
ISO_A4_(210.00_x_297.00_MM)
  6

 40
7.5
 41
20.0
 42
7.5
 43
20.0
 44
210.0
 45
297.0
 46
11.54999923706054
 47
-13.65000009536743
 48
0.0
 49
0.0
140
0.0
141
0.0
142
1.0
143
8.704084754739808
 70
 11952
 72
     1
 73
     0
 74
     0
  7

 75
     0
147
0.1148885871608098
148
0.0
149
0.0
100
AcDbLayout
  1
Model
 70
     1
 71
     0
 10
0.0
 20
0.0
 11
12.0
 21
9.0
 12
0.0
 22
0.0
 32
0.0
 14
0.0
 24
0.0
 34
0.0
 15
0.0
 25
0.0
 35
0.0
146
0.0
 13
0.0
 23
0.0
 33
0.0
 16
1.0
 26
0.0
 36
0.0
 17
0.0
 27
1.0
 37
0.0
 76
     0
330
1F
331
EA
1001
ACAD_PSEXT
1000
None
1000
None
1000
Not applicable
1000
The layout will not be plotted unless a new plotter configuration name is selected.
1070
     0
  0
MATERIAL
  5
ED
102
{ACAD_XDICTIONARY
360
1F9
102
}
102
{ACAD_REACTORS
330
6A
102
}
330
6A
100
AcDbMaterial
  1
ByBlock
  0
MATERIAL
  5
EC
102
{ACAD_XDICTIONARY
360
1F7
102
}
102
{ACAD_REACTORS
330
6A
102
}
330
6A
100
AcDbMaterial
  1
ByLayer
  0
MATERIAL
  5
EE
102
{ACAD_XDICTIONARY
360
173
102
}
102
{ACAD_REACTORS
330
6A
102
}
330
6A
100
AcDbMaterial
  1
Global
 43
0.0007999999797903
 43
0.0
 43
0.0
 43
0.0
 43
0.0
 43
0.0007999999797903
 43
0.0
 43
0.0
 43
0.0
 43
0.0
 43
1.0
 43
0.0
 43
0.0
 43
0.0
 43
0.0
 43
1.0
 49
0.0007999999797903
 49
0.0
 49
0.0
 49
0.0
 49
0.0
 49
0.0007999999797903
 49
0.0
 49
0.0
 49
0.0
 49
0.0
 49
1.0
 49
0.0
 49
0.0
 49
0.0
 49
0.0
 49
1.0
142
0.0007999999797903
142
0.0
142
0.0
142
0.0
142
0.0
142
0.0007999999797903
142
0.0
142
0.0
142
0.0
142
0.0
142
1.0
142
0.0
142
0.0
142
0.0
142
0.0
142
1.0
144
0.0007999999797903
144
0.0
144
0.0
144
0.0
144
0.0
144
0.0007999999797903
144
0.0
144
0.0
144
0.0
144
0.0
144
1.0
144
0.0
144
0.0
144
0.0
144
0.0
144
1.0
1001
ACAD
1070
    -1
1070
     3
1070
     0
1000

1071
        0
1070
     0
  0
MLEADERSTYLE
  5
12E
102
{ACAD_XDICTIONARY
360
C8DA
102
}
102
{ACAD_REACTORS
330
12D
102
}
330
12D
100
AcDbMLeaderStyle
170
     2
171
     1
172
     0
 90
        2
 40
0.0
 41
0.0
173
     1
 91
-1056964608
340
14
 92
       -2
290
     1
 42
2.0
291
     1
 43
8.0
  3
Standard
 44
4.0
300

342
11
174
     1
178
     1
175
     1
176
     0
 93
-1056964608
 45
4.0
292
     0
297
     0
 46
4.0
 94
-1056964608
 47
1.0
 49
1.0
140
1.0
293
     1
141
0.0
294
     1
177
     0
142
1.0
295
     0
296
     0
143
3.75
1001
ACAD_MLEADERVER
1070
     2
  0
MLINESTYLE
  5
18
102
{ACAD_REACTORS
330
17
102
}
330
17
100
AcDbMlineStyle
  2
STANDARD
 70
     0
  3

 62
   256
 51
90.0
 52
90.0
 71
     2
 49
0.5
 62
   256
  6
BYLAYER
 49
-0.5
 62
   256
  6
BYLAYER
  0
ACDBPLACEHOLDER
  5
F
102
{ACAD_REACTORS
330
E
102
}
330
E
  0
SCALE
  5
10D
102
{ACAD_REACTORS
330
10C
102
}
330
10C
100
AcDbScale
 70
     0
300
1:1
140
1.0
141
1.0
290
     1
  0
SCALE
  5
1BE
102
{ACAD_REACTORS
330
10C
102
}
330
10C
100
AcDbScale
 70
     0
300
1:2
140
1.0
141
2.0
290
     0
  0
SCALE
  5
1BF
102
{ACAD_REACTORS
330
10C
102
}
330
10C
100
AcDbScale
 70
     0
300
1:4
140
1.0
141
4.0
290
     0
  0
SCALE
  5
1C0
102
{ACAD_REACTORS
330
10C
102
}
330
10C
100
AcDbScale
 70
     0
300
1:5
140
1.0
141
5.0
290
     0
  0
SCALE
  5
1C1
102
{ACAD_REACTORS
330
10C
102
}
330
10C
100
AcDbScale
 70
     0
300
1:8
140
1.0
141
8.0
290
     0
  0
SCALE
  5
1C2
102
{ACAD_REACTORS
330
10C
102
}
330
10C
100
AcDbScale
 70
     0
300
1:10
140
1.0
141
10.0
290
     0
  0
SCALE
  5
1C3
102
{ACAD_REACTORS
330
10C
102
}
330
10C
100
AcDbScale
 70
     0
300
1:16
140
1.0
141
16.0
290
     0
  0
SCALE
  5
1C4
102
{ACAD_REACTORS
330
10C
102
}
330
10C
100
AcDbScale
 70
     0
300
1:20
140
1.0
141
20.0
290
     0
  0
SCALE
  5
1C5
102
{ACAD_REACTORS
330
10C
102
}
330
10C
100
AcDbScale
 70
     0
300
1:30
140
1.0
141
30.0
290
     0
  0
SCALE
  5
1C6
102
{ACAD_REACTORS
330
10C
102
}
330
10C
100
AcDbScale
 70
     0
300
1:40
140
1.0
141
40.0
290
     0
  0
SCALE
  5
1C7
102
{ACAD_REACTORS
330
10C
102
}
330
10C
100
AcDbScale
 70
     0
300
1:50
140
1.0
141
50.0
290
     0
  0
SCALE
  5
1C8
102
{ACAD_REACTORS
330
10C
102
}
330
10C
100
AcDbScale
 70
     0
300
1:100
140
1.0
141
100.0
290
     0
  0
SCALE
  5
1C9
102
{ACAD_REACTORS
330
10C
102
}
330
10C
100
AcDbScale
 70
     0
300
2:1
140
2.0
141
1.0
290
     0
  0
SCALE
  5
1CA
102
{ACAD_REACTORS
330
10C
102
}
330
10C
100
AcDbScale
 70
     0
300
4:1
140
4.0
141
1.0
290
     0
  0
SCALE
  5
1CB
102
{ACAD_REACTORS
330
10C
102
}
330
10C
100
AcDbScale
 70
     0
300
8:1
140
8.0
141
1.0
290
     0
  0
SCALE
  5
1CC
102
{ACAD_REACTORS
330
10C
102
}
330
10C
100
AcDbScale
 70
     0
300
10:1
140
10.0
141
1.0
290
     0
  0
SCALE
  5
1CD
102
{ACAD_REACTORS
330
10C
102
}
330
10C
100
AcDbScale
 70
     0
300
100:1
140
100.0
141
1.0
290
     0
  0
ACDBSECTIONVIEWSTYLE
  5
21A
102
{ACAD_XDICTIONARY
360
C8EC
102
}
102
{ACAD_REACTORS
330
219
102
}
330
219
100
AcDbModelDocViewStyle
 70
     0
  3
Metric50
290
     0
100
AcDbSectionViewStyle
 70
     0
 71
     0
 90
      102
 71
     1
340
11
 40
5.0
340
0
340
0
 40
5.0
300
I, O, Q, S, X, Z
 40
10.0
 90
        0
 40
2.5
 90
        0
 71
     2
340
16
 90
       25
340
16
 90
       50
 40
5.0
 40
2.5
 40
5.0
 71
     3
340
11
 40
5.0
 90
        0
 40
15.0
 90
        1
300
%<\AcVar ViewSectionStartId>%-%<\AcVar ViewSectionEndId>% (%<\AcVar ViewScale \f "%sn">%)
 71
     4
300
ANSI31
 40
1.0
 90
        0
290
     0
290
     0
 90
        6
 40
0.0
 40
1.570796326794896
 40
0.2617993877991494
 40
1.308996938995747
 40
-0.2617993877991494
 40
1.832595714594046
  0
TABLESTYLE
  5
7F
102
{ACAD_XDICTIONARY
360
162
102
}
102
{ACAD_REACTORS
330
7E
102
}
330
7E
100
AcDbTableStyle
  3
Standard
 70
     0
 71
     0
 40
1.5
 41
1.5
280
     0
281
     0
  7
Standard
140
4.5
170
     2
 62
     0
 63
     7
283
     0
274
    -2
284
     1
 64
     0
275
    -2
285
     1
 65
     0
276
    -2
286
     1
 66
     0
277
    -2
287
     1
 67
     0
278
    -2
288
     1
 68
     0
279
    -2
289
     1
 69
     0
  7
Standard
140
6.0
170
     5
 62
     0
 63
     7
283
     0
274
    -2
284
     1
 64
     0
275
    -2
285
     1
 65
     0
276
    -2
286
     1
 66
     0
277
    -2
287
     1
 67
     0
278
    -2
288
     1
 68
     0
279
    -2
289
     1
 69
     0
  7
Standard
140
4.5
170
     5
 62
     0
 63
     7
283
     0
274
    -2
284
     1
 64
     0
275
    -2
285
     1
 65
     0
276
    -2
286
     1
 66
     0
277
    -2
287
     1
 67
     0
278
    -2
288
     1
 68
     0
279
    -2
289
     1
 69
     0
  0
VISUALSTYLE
  5
F5
102
{ACAD_XDICTIONARY
360
C8C4
102
}
102
{ACAD_REACTORS
330
EF
102
}
330
EF
100
AcDbVisualStyle
  2
2dWireframe
 70
     4
 71
     0
 72
     2
 73
     1
 90
        0
 40
-0.6
 41
-30.0
 62
     5
 63
     7
 74
     1
 91
        4
 64
     7
 65
   257
 75
     1
175
     1
 42
1.0
 92
        0
 66
   257
 43
1.0
 76
     1
 77
     6
 78
     2
 67
     7
 79
     5
170
     0
171
     0
290
     0
174
     0
 93
        1
 44
0.0
173
     0
291
     0
 45
0.0
1001
ACAD
1000
AcDbSavedByObjectVersion
1070
     0
  0
VISUALSTYLE
  5
F4
102
{ACAD_XDICTIONARY
360
C8C2
102
}
102
{ACAD_REACTORS
330
EF
102
}
330
EF
100
AcDbVisualStyle
  2
Basic
 70
     7
 71
     1
 72
     0
 73
     1
 90
        0
 40
-0.6
 41
-30.0
 62
     5
 63
     7
 74
     0
 91
        4
 64
     7
 65
   257
 75
     1
175
     1
 42
1.0
 92
        8
 66
     7
 43
1.0
 76
     1
 77
     6
 78
     2
 67
     7
 79
     5
170
     0
171
     0
290
     0
174
     0
 93
        1
 44
0.0
173
     0
291
     1
 45
0.0
1001
ACAD
1000
AcDbSavedByObjectVersion
1070
     0
  0
VISUALSTYLE
  5
FB
102
{ACAD_XDICTIONARY
360
C8D0
102
}
102
{ACAD_REACTORS
330
EF
102
}
330
EF
100
AcDbVisualStyle
  2
Brighten
 70
    12
 71
     2
 72
     2
 73
     1
 90
        0
 40
-0.6
 41
-30.0
 62
     5
 63
     7
 74
     1
 91
        4
 64
     7
 65
   257
 75
     1
175
     1
 42
1.0
 92
        8
 66
     7
 43
1.0
 76
     1
 77
     6
 78
     2
 67
     7
 79
     5
170
     0
171
     0
290
     0
174
     0
 93
        1
 44
50.0
173
     0
291
     1
 45
0.0
1001
ACAD
1000
AcDbSavedByObjectVersion
1070
     0
  0
VISUALSTYLE
  5
FF
102
{ACAD_XDICTIONARY
360
C8D8
102
}
102
{ACAD_REACTORS
330
EF
102
}
330
EF
100
AcDbVisualStyle
  2
ColorChange
 70
    16
 71
     2
 72
     2
 73
     3
 90
        0
 40
-0.6
 41
-30.0
 62
     5
 63
     8
 74
     1
 91
        4
 64
     7
 65
   257
 75
     1
175
     1
 42
1.0
 92
        8
 66
     8
 43
1.0
 76
     1
 77
     6
 78
     2
 67
     7
 79
     5
170
     0
171
     0
290
     0
174
     0
 93
        1
 44
0.0
173
     0
291
     1
 45
0.0
1001
ACAD
1000
AcDbSavedByObjectVersion
1070
     0
  0
VISUALSTYLE
  5
F8
102
{ACAD_XDICTIONARY
360
C8CA
102
}
102
{ACAD_REACTORS
330
EF
102
}
330
EF
100
AcDbVisualStyle
  2
Conceptual
 70
     9
 71
     3
 72
     2
 73
     1
 90
        0
 40
-0.6
 41
-30.0
 62
     5
 63
     7
 74
     2
 91
        2
 64
     7
 65
   257
 75
     1
175
     1
 42
40.0
 92
        8
 66
     7
 43
1.0
 76
     1
 77
     6
 78
     2
 67
     7
 79
     3
170
     0
171
     0
290
     0
174
     0
 93
        1
 44
0.0
173
     0
291
     0
 45
0.0
1001
ACAD
1000
AcDbSavedByObjectVersion
1070
     0
  0
VISUALSTYLE
  5
FA
102
{ACAD_XDICTIONARY
360
C8CE
102
}
102
{ACAD_REACTORS
330
EF
102
}
330
EF
100
AcDbVisualStyle
  2
Dim
 70
    11
 71
     2
 72
     2
 73
     1
 90
        0
 40
-0.6
 41
-30.0
 62
     5
 63
     7
 74
     1
 91
        4
 64
     7
 65
   257
 75
     1
175
     1
 42
1.0
 92
        8
 66
     7
 43
1.0
 76
     1
 77
     6
 78
     2
 67
     7
 79
     5
170
     0
171
     0
290
     0
174
     0
 93
        1
 44
-50.0
173
     0
291
     1
 45
0.0
1001
ACAD
1000
AcDbSavedByObjectVersion
1070
     0
  0
VISUALSTYLE
  5
1E6
102
{ACAD_XDICTIONARY
360
C8E0
102
}
102
{ACAD_REACTORS
330
EF
102
}
330
EF
100
AcDbVisualStyle
  2
EdgeColorOff
 70
    22
 71
     2
 72
     2
 73
     0
 90
        0
 40
-0.6
 41
-30.0
 62
     5
 63
     7
 74
     1
 91
        4
 64
     7
 65
   257
 75
     1
175
     1
 42
1.0
 92
        8
 66
     7
 43
1.0
 76
     1
 77
     6
 78
     2
 67
     7
 79
     5
170
     0
171
     0
290
     0
174
     0
 93
        1
 44
0.0
173
     0
291
     1
 45
0.0
1001
ACAD
1000
AcDbSavedByObjectVersion
1070
     0
  0
VISUALSTYLE
  5
FE
102
{ACAD_XDICTIONARY
360
C8D6
102
}
102
{ACAD_REACTORS
330
EF
102
}
330
EF
100
AcDbVisualStyle
  2
Facepattern
 70
    15
 71
     2
 72
     2
 73
     1
 90
        0
 40
-0.6
 41
-30.0
 62
     5
 63
     7
 74
     1
 91
        4
 64
     7
 65
   257
 75
     1
175
     1
 42
1.0
 92
        8
 66
     7
 43
1.0
 76
     1
 77
     6
 78
     2
 67
     7
 79
     5
170
     0
171
     0
290
     0
174
     0
 93
        1
 44
0.0
173
     0
291
     1
 45
0.0
1001
ACAD
1000
AcDbSavedByObjectVersion
1070
     0
  0
VISUALSTYLE
  5
F0
102
{ACAD_XDICTIONARY
360
C8BA
102
}
102
{ACAD_REACTORS
330
EF
102
}
330
EF
100
AcDbVisualStyle
  2
Flat
 70
     0
 71
     2
 72
     1
 73
     1
 90
        2
 40
-0.6
 41
30.0
 62
     5
 63
     7
 74
     0
 91
        0
 64
     7
 65
   257
 75
     1
175
     1
 42
1.0
 92
        8
 66
     7
 43
1.0
 76
     1
 77
     6
 78
     2
 67
     7
 79
     5
170
     0
171
     0
290
     0
174
     0
 93
       13
 44
0.0
173
     0
291
     1
 45
0.0
1001
ACAD
1000
AcDbSavedByObjectVersion
1070
     0
  0
VISUALSTYLE
  5
F1
102
{ACAD_XDICTIONARY
360
C8BC
102
}
102
{ACAD_REACTORS
330
EF
102
}
330
EF
100
AcDbVisualStyle
  2
FlatWithEdges
 70
     1
 71
     2
 72
     1
 73
     1
 90
        2
 40
-0.6
 41
30.0
 62
     5
 63
     7
 74
     1
 91
        0
 64
     7
 65
   257
 75
     1
175
     1
 42
1.0
 92
        0
 66
   257
 43
1.0
 76
     1
 77
     6
 78
     2
 67
     7
 79
     5
170
     0
171
     0
290
     0
174
     0
 93
       13
 44
0.0
173
     0
291
     1
 45
0.0
1001
ACAD
1000
AcDbSavedByObjectVersion
1070
     0
  0
VISUALSTYLE
  5
F2
102
{ACAD_XDICTIONARY
360
C8BE
102
}
102
{ACAD_REACTORS
330
EF
102
}
330
EF
100
AcDbVisualStyle
  2
Gouraud
 70
     2
 71
     2
 72
     2
 73
     1
 90
        2
 40
-0.6
 41
30.0
 62
     5
 63
     7
 74
     0
 91
        0
 64
     7
 65
   257
 75
     1
175
     1
 42
1.0
 92
        0
 66
     7
 43
1.0
 76
     1
 77
     6
 78
     2
 67
     7
 79
     5
170
     0
171
     0
290
     0
174
     0
 93
       13
 44
0.0
173
     0
291
     1
 45
0.0
1001
ACAD
1000
AcDbSavedByObjectVersion
1070
     0
  0
VISUALSTYLE
  5
F3
102
{ACAD_XDICTIONARY
360
C8C0
102
}
102
{ACAD_REACTORS
330
EF
102
}
330
EF
100
AcDbVisualStyle
  2
GouraudWithEdges
 70
     3
 71
     2
 72
     2
 73
     1
 90
        2
 40
-0.6
 41
30.0
 62
     5
 63
     7
 74
     1
 91
        0
 64
     7
 65
   257
 75
     1
175
     1
 42
1.0
 92
        0
 66
   257
 43
1.0
 76
     1
 77
     6
 78
     2
 67
     7
 79
     5
170
     0
171
     0
290
     0
174
     0
 93
       13
 44
0.0
173
     0
291
     1
 45
0.0
1001
ACAD
1000
AcDbSavedByObjectVersion
1070
     0
  0
VISUALSTYLE
  5
F7
102
{ACAD_XDICTIONARY
360
C8C8
102
}
102
{ACAD_REACTORS
330
EF
102
}
330
EF
100
AcDbVisualStyle
  2
Hidden
 70
     6
 71
     1
 72
     2
 73
     2
 90
        0
 40
-0.6
 41
-30.0
 62
     5
 63
     7
 74
     2
 91
        2
 64
     7
 65
   257
 75
     2
175
     1
 42
40.0
 92
        0
 66
   257
 43
1.0
 76
     1
 77
     6
 78
     2
 67
     7
 79
     3
170
     0
171
     0
290
     0
174
     0
 93
        1
 44
0.0
173
     0
291
     0
 45
0.0
1001
ACAD
1000
AcDbSavedByObjectVersion
1070
     0
  0
VISUALSTYLE
  5
1E4
102
{ACAD_XDICTIONARY
360
C8DC
102
}
102
{ACAD_REACTORS
330
EF
102
}
330
EF
100
AcDbVisualStyle
  2
JitterOff
 70
    20
 71
     2
 72
     2
 73
     0
 90
        0
 40
-0.6
 41
-30.0
 62
     5
 63
     7
 74
     1
 91
        4
 64
     7
 65
   257
 75
     1
175
     1
 42
1.0
 92
       10
 66
     7
 43
1.0
 76
     1
 77
     6
 78
     2
 67
     7
 79
     5
170
     0
171
     0
290
     0
174
     0
 93
        1
 44
0.0
173
     0
291
     1
 45
0.0
1001
ACAD
1000
AcDbSavedByObjectVersion
1070
     0
  0
VISUALSTYLE
  5
FD
102
{ACAD_XDICTIONARY
360
C8D4
102
}
102
{ACAD_REACTORS
330
EF
102
}
330
EF
100
AcDbVisualStyle
  2
Linepattern
 70
    14
 71
     2
 72
     2
 73
     1
 90
        0
 40
-0.6
 41
-30.0
 62
     5
 63
     7
 74
     1
 91
        4
 64
     7
 65
   257
 75
     7
175
     7
 42
1.0
 92
        8
 66
     7
 43
1.0
 76
     1
 77
     6
 78
     2
 67
     7
 79
     5
170
     0
171
     0
290
     0
174
     0
 93
        1
 44
0.0
173
     0
291
     1
 45
0.0
1001
ACAD
1000
AcDbSavedByObjectVersion
1070
     0
  0
VISUALSTYLE
  5
1E5
102
{ACAD_XDICTIONARY
360
C8DE
102
}
102
{ACAD_REACTORS
330
EF
102
}
330
EF
100
AcDbVisualStyle
  2
OverhangOff
 70
    21
 71
     2
 72
     2
 73
     0
 90
        0
 40
-0.6
 41
-30.0
 62
     5
 63
     7
 74
     1
 91
        4
 64
     7
 65
   257
 75
     1
175
     1
 42
1.0
 92
        9
 66
     7
 43
1.0
 76
     1
 77
     6
 78
     2
 67
     7
 79
     5
170
     0
171
     0
290
     0
174
     0
 93
        1
 44
0.0
173
     0
291
     1
 45
0.0
1001
ACAD
1000
AcDbSavedByObjectVersion
1070
     0
  0
VISUALSTYLE
  5
F9
102
{ACAD_XDICTIONARY
360
C8CC
102
}
102
{ACAD_REACTORS
330
EF
102
}
330
EF
100
AcDbVisualStyle
  2
Realistic
 70
     8
 71
     2
 72
     2
 73
     0
 90
        2
 40
-0.6
 41
30.0
 62
     5
 63
     7
 74
     0
 91
        0
 64
     7
 65
   257
 75
     1
175
     1
 42
1.0
 92
        8
 66
   257
 43
1.0
 76
     1
 77
     6
 78
     2
 67
     7
 79
     3
170
     0
171
     0
290
     0
174
     0
 93
       13
 44
0.0
173
     0
291
     0
 45
0.0
1001
ACAD
1000
AcDbSavedByObjectVersion
1070
     0
  0
VISUALSTYLE
  5
1F3
102
{ACAD_XDICTIONARY
360
C8EA
102
}
102
{ACAD_REACTORS
330
EF
102
}
330
EF
100
AcDbVisualStyle
  2
Shaded
 70
    27
 71
     2
 72
     2
 73
     1
 90
        2
 40
-0.6
 41
30.0
 62
     5
 63
     7
 74
     0
 91
        4
 64
     7
 65
   257
 75
     1
175
     1
 42
1.0
 92
        8
 66
   257
 43
1.0
 76
     1
 77
     6
 78
     2
 67
     8
 79
     3
170
     0
171
     0
290
     0
174
     0
 93
        5
 44
0.0
173
     0
291
     0
 45
0.0
1001
ACAD
1000
AcDbSavedByObjectVersion
1070
     0
  0
VISUALSTYLE
  5
1F2
102
{ACAD_XDICTIONARY
360
C8E8
102
}
102
{ACAD_REACTORS
330
EF
102
}
330
EF
100
AcDbVisualStyle
  2
Shaded with edges
 70
    26
 71
     2
 72
     2
 73
     1
 90
        2
 40
-0.6
 41
30.0
 62
     5
 63
     7
 74
     1
 91
        2
 64
     7
 65
   257
 75
     2
175
     1
 42
1.0
 92
        8
 66
   257
 43
1.0
 76
     1
 77
     6
 78
     2
 67
     7
 79
     3
170
     0
171
     0
290
     0
174
     0
 93
        5
 44
0.0
173
     0
291
     0
 45
0.0
1001
ACAD
1000
AcDbSavedByObjectVersion
1070
     0
  0
VISUALSTYLE
  5
1EF
102
{ACAD_XDICTIONARY
360
C8E2
102
}
102
{ACAD_REACTORS
330
EF
102
}
330
EF
100
AcDbVisualStyle
  2
Shades of Gray
 70
    23
 71
     2
 72
     2
 73
     3
 90
        0
 40
-0.6
 41
-30.0
 62
     5
 63
     7
 74
     2
 91
        2
 64
     7
 65
     7
 75
     1
175
     1
 42
40.0
 92
        8
 66
     7
 43
1.0
 76
     1
 77
     6
 78
     2
 67
     7
 79
     3
170
     0
171
     0
290
     0
174
     0
 93
        1
 44
0.0
173
     0
291
     0
 45
0.0
1001
ACAD
1000
AcDbSavedByObjectVersion
1070
     0
  0
VISUALSTYLE
  5
1F0
102
{ACAD_XDICTIONARY
360
C8E4
102
}
102
{ACAD_REACTORS
330
EF
102
}
330
EF
100
AcDbVisualStyle
  2
Sketchy
 70
    24
 71
     1
 72
     2
 73
     2
 90
        0
 40
-0.6
 41
-30.0
 62
     5
 63
     7
 74
     2
 91
        2
 64
     7
 65
     7
 75
     1
175
     1
 42
40.0
 92
       11
 66
     7
 43
1.0
 76
     1
 77
     6
 78
     2
 67
     7
 79
     6
170
     0
171
     0
290
     0
174
     0
 93
        1
 44
0.0
173
     0
291
     0
 45
0.0
1001
ACAD
1000
AcDbSavedByObjectVersion
1070
     0
  0
VISUALSTYLE
  5
FC
102
{ACAD_XDICTIONARY
360
C8D2
102
}
102
{ACAD_REACTORS
330
EF
102
}
330
EF
100
AcDbVisualStyle
  2
Thicken
 70
    13
 71
     2
 72
     2
 73
     1
 90
        0
 40
-0.6
 41
-30.0
 62
     5
 63
     7
 74
     1
 91
        4
 64
     7
 65
   257
 75
     1
175
     1
 42
1.0
 92
       12
 66
     7
 43
1.0
 76
     1
 77
     6
 78
     2
 67
     7
 79
     5
170
     0
171
     0
290
     0
174
     0
 93
        1
 44
0.0
173
     0
291
     1
 45
0.0
1001
ACAD
1000
AcDbSavedByObjectVersion
1070
     0
  0
VISUALSTYLE
  5
F6
102
{ACAD_XDICTIONARY
360
C8C6
102
}
102
{ACAD_REACTORS
330
EF
102
}
330
EF
100
AcDbVisualStyle
  2
Wireframe
 70
     5
 71
     0
 72
     2
 73
     0
 90
        0
 40
-0.6
 41
-30.0
 62
     5
 63
     7
 74
     1
 91
        4
 64
     7
 65
   257
 75
     1
175
     1
 42
1.0
 92
        0
 66
   257
 43
1.0
 76
     1
 77
     6
 78
     2
 67
     7
 79
     3
170
     0
171
     0
290
     0
174
     0
 93
        1
 44
0.0
173
     0
291
     0
 45
0.0
1001
ACAD
1000
AcDbSavedByObjectVersion
1070
     0
  0
VISUALSTYLE
  5
1F1
102
{ACAD_XDICTIONARY
360
C8E6
102
}
102
{ACAD_REACTORS
330
EF
102
}
330
EF
100
AcDbVisualStyle
  2
X-Ray
 70
    25
 71
     2
 72
     2
 73
     1
 90
        1
 40
0.5
 41
-30.0
 62
     5
 63
     7
 74
     1
 91
        0
 64
     7
 65
   257
 75
     1
175
     1
 42
1.0
 92
        8
 66
     7
 43
1.0
 76
     1
 77
     6
 78
     2
 67
     7
 79
     3
170
     0
171
     0
290
     0
174
     0
 93
       13
 44
0.0
173
     0
291
     0
 45
0.0
1001
ACAD
1000
AcDbSavedByObjectVersion
1070
     0
  0
DICTIONARYVAR
  5
146
102
{ACAD_REACTORS
330
5E
102
}
330
5E
100
DictionaryVariables
280
     0
  1
1:1
  0
DICTIONARYVAR
  5
259
102
{ACAD_REACTORS
330
5E
102
}
330
5E
100
DictionaryVariables
280
     0
  1
3.500000
  0
DICTIONARYVAR
  5
25A
102
{ACAD_REACTORS
330
5E
102
}
330
5E
100
DictionaryVariables
280
     0
  1
acadiso.lin
  0
DICTIONARYVAR
  5
145
102
{ACAD_REACTORS
330
5E
102
}
330
5E
100
DictionaryVariables
280
     0
  1
STANDARD
  0
DICTIONARYVAR
  5
84
102
{ACAD_REACTORS
330
5E
102
}
330
5E
100
DictionaryVariables
280
     0
  1
STANDARD
  0
DICTIONARYVAR
  5
227
102
{ACAD_REACTORS
330
5E
102
}
330
5E
100
DictionaryVariables
280
     0
  1
Metric50
  0
DICTIONARYVAR
  5
228
102
{ACAD_REACTORS
330
5E
102
}
330
5E
100
DictionaryVariables
280
     0
  1
Metric50
  0
DICTIONARYVAR
  5
5F
102
{ACAD_REACTORS
330
5E
102
}
330
5E
100
DictionaryVariables
280
     0
  1
2
  0
DICTIONARYVAR
  5
63
102
{ACAD_REACTORS
330
5E
102
}
330
5E
100
DictionaryVariables
280
     0
  1
1
  0
DICTIONARYVAR
  5
C85B
102
{ACAD_REACTORS
330
5E
102
}
330
5E
100
DictionaryVariables
280
     0
  1
0
  0
DICTIONARYVAR
  5
1AE
102
{ACAD_REACTORS
330
5E
102
}
330
5E
100
DictionaryVariables
280
     0
  1
0
  0
DICTIONARYVAR
  5
1AF
102
{ACAD_REACTORS
330
5E
102
}
330
5E
100
DictionaryVariables
280
     0
  1
0
  0
DICTIONARYVAR
  5
C859
102
{ACAD_REACTORS
330
5E
102
}
330
5E
100
DictionaryVariables
280
     0
  1
2
  0
DICTIONARYVAR
  5
C858
102
{ACAD_REACTORS
330
5E
102
}
330
5E
100
DictionaryVariables
280
     0
  1
1
  0
DICTIONARYVAR
  5
C8AB
102
{ACAD_REACTORS
330
5E
102
}
330
5E
100
DictionaryVariables
280
     0
  1
80.000000
  0
DICTIONARYVAR
  5
C8AA
102
{ACAD_REACTORS
330
5E
102
}
330
5E
100
DictionaryVariables
280
     0
  1
5.000000
  0
DICTIONARYVAR
  5
C85A
102
{ACAD_REACTORS
330
5E
102
}
330
5E
100
DictionaryVariables
280
     0
  1
127
  0
DICTIONARYVAR
  5
C8AC
102
{ACAD_REACTORS
330
5E
102
}
330
5E
100
DictionaryVariables
280
     0
  1
2
  0
DICTIONARY
  5
C8EE
330
21C
100
AcDbDictionary
280
     1
281
     1
  3
ACAD_XREC_ROUNDTRIP
360
C8EF
  0
DICTIONARY
  5
C8B3
330
D3
100
AcDbDictionary
280
     1
281
     1
  3
ACAD_XREC_ROUNDTRIP
360
C8B4
  0
DICTIONARY
  5
C8B5
330
D7
100
AcDbDictionary
280
     1
281
     1
  3
ACAD_XREC_ROUNDTRIP
360
C8B6
  0
DICTIONARY
  5
C8B0
330
22
100
AcDbDictionary
280
     1
281
     1
  3
ACAD_XREC_ROUNDTRIP
360
C8B1
  0
DICTIONARY
  5
1F9
330
ED
100
AcDbDictionary
280
     1
281
     1
  3
ACAD_XREC_ROUNDTRIP
360
C8B8
  3
FBXASSET
360
1FA
  0
DICTIONARY
  5
1F7
330
EC
100
AcDbDictionary
280
     1
281
     1
  3
ACAD_XREC_ROUNDTRIP
360
C8B7
  3
FBXASSET
360
1F8
  0
DICTIONARY
  5
173
330
EE
100
AcDbDictionary
280
     1
281
     1
  3
ACAD_XREC_ROUNDTRIP
360
C8B9
  3
BUMPTILE
360
175
  3
DIFFUSETILE
360
174
  3
FBXASSET
360
1FB
  3
OPACITYTILE
360
176
  3
REFLECTIONTILE
360
177
  0
DICTIONARY
  5
C8DA
330
12E
100
AcDbDictionary
280
     1
281
     1
  3
ACAD_XREC_ROUNDTRIP
360
C8DB
  0
DICTIONARY
  5
C8EC
330
21A
100
AcDbDictionary
280
     1
281
     1
  3
ACAD_XREC_ROUNDTRIP
360
C8ED
  0
DICTIONARY
  5
162
330
7F
100
AcDbDictionary
280
     1
281
     1
  3
ACAD_ROUNDTRIP_2008_TABLESTYLE_CELLSTYLEMAP
360
C8AD
  3
ACAD_XREC_ROUNDTRIP
360
C8B2
  0
DICTIONARY
  5
C8C4
330
F5
100
AcDbDictionary
280
     1
281
     1
  3
ACAD_XREC_ROUNDTRIP
360
C8C5
  0
DICTIONARY
  5
C8C2
330
F4
100
AcDbDictionary
280
     1
281
     1
  3
ACAD_XREC_ROUNDTRIP
360
C8C3
  0
DICTIONARY
  5
C8D0
330
FB
100
AcDbDictionary
280
     1
281
     1
  3
ACAD_XREC_ROUNDTRIP
360
C8D1
  0
DICTIONARY
  5
C8D8
330
FF
100
AcDbDictionary
280
     1
281
     1
  3
ACAD_XREC_ROUNDTRIP
360
C8D9
  0
DICTIONARY
  5
C8CA
330
F8
100
AcDbDictionary
280
     1
281
     1
  3
ACAD_XREC_ROUNDTRIP
360
C8CB
  0
DICTIONARY
  5
C8CE
330
FA
100
AcDbDictionary
280
     1
281
     1
  3
ACAD_XREC_ROUNDTRIP
360
C8CF
  0
DICTIONARY
  5
C8E0
330
1E6
100
AcDbDictionary
280
     1
281
     1
  3
ACAD_XREC_ROUNDTRIP
360
C8E1
  0
DICTIONARY
  5
C8D6
330
FE
100
AcDbDictionary
280
     1
281
     1
  3
ACAD_XREC_ROUNDTRIP
360
C8D7
  0
DICTIONARY
  5
C8BA
330
F0
100
AcDbDictionary
280
     1
281
     1
  3
ACAD_XREC_ROUNDTRIP
360
C8BB
  0
DICTIONARY
  5
C8BC
330
F1
100
AcDbDictionary
280
     1
281
     1
  3
ACAD_XREC_ROUNDTRIP
360
C8BD
  0
DICTIONARY
  5
C8BE
330
F2
100
AcDbDictionary
280
     1
281
     1
  3
ACAD_XREC_ROUNDTRIP
360
C8BF
  0
DICTIONARY
  5
C8C0
330
F3
100
AcDbDictionary
280
     1
281
     1
  3
ACAD_XREC_ROUNDTRIP
360
C8C1
  0
DICTIONARY
  5
C8C8
330
F7
100
AcDbDictionary
280
     1
281
     1
  3
ACAD_XREC_ROUNDTRIP
360
C8C9
  0
DICTIONARY
  5
C8DC
330
1E4
100
AcDbDictionary
280
     1
281
     1
  3
ACAD_XREC_ROUNDTRIP
360
C8DD
  0
DICTIONARY
  5
C8D4
330
FD
100
AcDbDictionary
280
     1
281
     1
  3
ACAD_XREC_ROUNDTRIP
360
C8D5
  0
DICTIONARY
  5
C8DE
330
1E5
100
AcDbDictionary
280
     1
281
     1
  3
ACAD_XREC_ROUNDTRIP
360
C8DF
  0
DICTIONARY
  5
C8CC
330
F9
100
AcDbDictionary
280
     1
281
     1
  3
ACAD_XREC_ROUNDTRIP
360
C8CD
  0
DICTIONARY
  5
C8EA
330
1F3
100
AcDbDictionary
280
     1
281
     1
  3
ACAD_XREC_ROUNDTRIP
360
C8EB
  0
DICTIONARY
  5
C8E8
330
1F2
100
AcDbDictionary
280
     1
281
     1
  3
ACAD_XREC_ROUNDTRIP
360
C8E9
  0
DICTIONARY
  5
C8E2
330
1EF
100
AcDbDictionary
280
     1
281
     1
  3
ACAD_XREC_ROUNDTRIP
360
C8E3
  0
DICTIONARY
  5
C8E4
330
1F0
100
AcDbDictionary
280
     1
281
     1
  3
ACAD_XREC_ROUNDTRIP
360
C8E5
  0
DICTIONARY
  5
C8D2
330
FC
100
AcDbDictionary
280
     1
281
     1
  3
ACAD_XREC_ROUNDTRIP
360
C8D3
  0
DICTIONARY
  5
C8C6
330
F6
100
AcDbDictionary
280
     1
281
     1
  3
ACAD_XREC_ROUNDTRIP
360
C8C7
  0
DICTIONARY
  5
C8E6
330
1F1
100
AcDbDictionary
280
     1
281
     1
  3
ACAD_XREC_ROUNDTRIP
360
C8E7
  0
XRECORD
  5
C8EF
102
{ACAD_REACTORS
330
C8EE
102
}
330
C8EE
100
AcDbXrecord
280
     1
102
DISPLAYNAME
  1
Metric50
102
FLAGS
 90
        0
  0
XRECORD
  5
C8B4
102
{ACAD_REACTORS
330
C8B3
102
}
330
C8B3
100
AcDbXrecord
280
     1
102
SHADEPLOT
 70
     0
102
SHADEPLOTRESLEVEL
 70
     2
102
SHADEPLOTCUSTOMDPI
 70
   300
  0
XRECORD
  5
C8B6
102
{ACAD_REACTORS
330
C8B5
102
}
330
C8B5
100
AcDbXrecord
280
     1
102
SHADEPLOT
 70
     0
102
SHADEPLOTRESLEVEL
 70
     2
102
SHADEPLOTCUSTOMDPI
 70
   300
  0
XRECORD
  5
C8B1
102
{ACAD_REACTORS
330
C8B0
102
}
330
C8B0
100
AcDbXrecord
280
     1
102
SHADEPLOT
 70
     0
102
SHADEPLOTRESLEVEL
 70
     2
102
SHADEPLOTCUSTOMDPI
 70
   300
  0
XRECORD
  5
C8B8
102
{ACAD_REACTORS
330
1F9
102
}
330
1F9
100
AcDbXrecord
280
     1
102
MATERIAL
148
0.0
149
0.0
149
0.0
 93
        0
 94
       63
282
     0
 72
     1
 77
     1
171
     1
175
     1
179
     1
273
     0
  0
XRECORD
  5
1FA
102
{ACAD_REACTORS
330
1F9
102
}
330
1F9
100
AcDbXrecord
280
     1
 70
     1
 90
429727718
  1
D62C5603-E3A1-4AEA-B7FB-FE5D8D0755AF
310
504B03040A0000080000CC70623B3DEE336E79000000790000001B0000006175746F6465736B2D64657369676E2D7061636B6167652E786D6C3C3F786D6C2076657273696F6E3D22312E302220656E636F64696E673D227574662D3822203F3E3C666F726D6174733E3C666F726D61743E687474703A2F2F736368656D612E
310
6175746F6465736B2E636F6D2F64657369676E2D7061636B6167652F323030393C2F666F726D61743E3C2F666F726D6174733E504B0304140006080800CC70623BD486FD9CA0000000F4000000130000005B436F6E74656E745F54797065735D2E786D6C7D8EC10E82300C865F65E91D8A1E8C310C0EEA1BF002731658846E
310
D98AC1B77784ABF1D8FE5FBFBF75BBCE937A534CCEB38643598122B6FEE978D0B0485F9C41B54DDD7D022595594E1A469170414C76A4D9A4D207E29CF43ECE46F218070CC6BECC4078ACAA135ACF422C856C0E68EA1BF5669944DDD7BCDE7B1F8E415D77AECB980613C2E4AC91FC167A2B244592486606FC29C8FD7F045B9A
310
EF7053A7E60B504B0304140006080800CC70623B853B8169EB0000007C01000008000000636F72652E786D6C8D90416EC3201045AF62CDB6C206821CC7C244919D9CA01740401C94182C03558F5F9C3852BBEB6A467FFE9B197D7EFC9E1EC5975982F5AE035262288C535E5B377690E21535501C055FBC8FBF6C503839990E
310
5619041F179FE64D52DE45E362569DD7661365082642A11EB9E920A89B99642953CC8E702F67A9EE7234257977194EC9EAE275C4EABCCF5EAD5940D4AC6F0E35A568B8F43562CD7046CD199FD07E60174276A7BE677B5EADB0E0D14EEFFB6A31321A0D82627C4084204C3F096B71DD52F6819B16635EADF63F509AF53FA164
310
5DDCD1EDDD17164090FCC8732078B56691CB33A85CD7DCC40F504B0304140006080800CC70623B55019EA25F0000007C00000007000000636E782E786D6C4DCB3B0E80201045D1AD90E915ED2CF8AC45050C11660C8261F98AB1B07AC9C97D42D718D865D3E909258CFD00CCE24AC6E326A164D74DC0B4128928FF32603847
310
2BA13128B1252AC747C6BAB984FC68F0B87FE8960A5C09FE86CFB69FBA01504B0304140006080800CC70623BDBABAAF470010000D40300000C0000006662782F636F72652E786D6CC553D16E823014FD95A6AF4B694182CC941A83FA05FB810A9511A125A5257EFE2E82712ECEB8A7F100CD39F7F69E734AF9FADC366850B6
310
AF8DCE7018308C942E4C59EB2AC3DE1D498AD15A706B8CFB56869196ADCAF00863C12B6B7C374385D14E6907A836A59A41D9F7CA615434B0C8705F7CAA5606D23BA8E84F41278B93AC54100640439DE0BDB320004D43C63716C7C399D30917DCFBBA9CD9BA8469F5B156168B24CED3F7248AC8769F27244EB73B92EED8862C
310
B7F13E0C179B3C8F979C8ECD82BBBABDAA2BAC924E9558448CBD9330242CFA08E3154B5651FCC6D215639C8EE5774DBE2B5F6CF2B5768B68963BB5F5588420E442FC700B1139D4CB01F450C1E918227C2E09DF070D8140C84E1E9AAB8F1340832A9CB13130A5F1376A908D57309505ECF2A0DF179C4E9D30F5B239B87E3823
310
7A79C6F31DE1A8A5AEC08474B03C7837EAE4938639B44E5932B833D2C6B6B279CDC613877FA26EE21F4A2A4C63EC7F29A2F301D1F9F7A0E37D145F504B0304140006080800CC70623B9C113CC27E0000009D0000000B0000006662782F636E782E786D6C4DCCDF0A83201C86E15B91DFB94BFB330DD428C8FB886521330DA7
310
6397BF1A1DECE883878F57749FCDA1B7892F1BBC047A23808C7F84D9FA55424E0BE6803A256208E9EF06C84F9B91703228B1C690F78B66B34CD9A5439DF5CF0BFBF65E35BCA1B8D6A5C6F540381E886698B5741C695F9503EBA150A2F8958E3DC3EA0B504B0304140006080800CC70623B7DF2F77C2A010000120200003100
310
00006662782F41393633353835312D344632462D344230382D423046372D3739314545314133324237412F636F72652E786D6C8D51DB8EC22014FC15C2939B0D2DB4B45643319AE817EC0F6041255A68B86CFCFC856D4D76DF7CE190393373060EDB3DC707F856CE6B6B7A480A0C81328395DA5C7B18C3057510EC3873D686
310
3F34088C18550F330C39BB3A1BA7051AAC09CA84841A2BD5020AEF55806078A44B0FFD7053A328440C89E1EFC52486BBB8AA8214A99D789CF9E05200300FC927E4FB4D5B375D43103D5527440FB843077C5AA3F5861C8F645F5787F59E95B390B318B55CE45AA638FAA2957BD7248B390B7A7CC51F9C124149C82B8C378810
310
84AB2F42B7B8DD56F413775B8C5999E9FF4471926F8AA236A1AE96B8B3CC434E5839373893369E1FAF30EA395917409EB7F26AF8801C171837A4A6AC9C89E9F9C9B1A58BA30FD6A5EF5DDDCF894B9AD9B6A59C957943A9FCAE2FD5BC4DFE03504B0304140006080800CC70623BAD7543B64E01000033030000300000006662
310
782F41393633353835312D344632462D344230382D423046372D3739314545314133324237412F636E782E786D6CD593CD6EC32010845F0571AD6CE3D48AD20813A9873E410FBD12D82434182C7EAAE6EDBB2424CD25871E7B41D6EC30B3FA84F9E67BB2E40B4234DE8DB46F1925E094D7C6ED479AD3AE5951B2113C789FEE
310
6C943839C1488B4C05DF079FE72A69D8C96C13AAD6B8631503449F83828872B949AC57D26200B826A308D316B4064D6E46FCDA41C05550DC9E483A00797BFD207EFB092A45DE9514C1BBD22178396BD39D891265658C238DEA00936C654E5E433CB65A26D9F6EDB5EBC14EBF49A45CB856E66048291F6939A9A81BB5C89177
310
38143CA680F4AA299D66A042CEB3354A2684DC9D8D178FE0D9B8B41CAAD720F880EE7EF93C0C18769E099ECC04D5A102C8049A8A05632F4DDF376CF1DE0F6BB65C2F8627B65A33C6BB62177CEBBDAD973006829F89F22E814B54F4BC2BE347F8AA8F681390B50FA73F804400B5F542E796F19FF974E7F78DB802FE05E20750
310
4B0304140006080800CC70623BE75B7789680500003C100000340000006662782F41393633353835312D344632462D344230382D423046372D3739314545314133324237412F6F626A656374732E786D6CAD575B8F9B3818FD2B887D06C22499CB8AA1CA655245D5B455A356FB305264C061D8018C6C3393D95FBFC7600890
310
A4CD5EF210B0B1BFEBF98E3F7B1FF6596ABC522E1296DF9BAE3D320D9A872C4AF2F8DE2CE5CEBA358D0FBEC719939D65A691938CDE9B6ADAF4BD98B3B2D05311DD91329583D9D5FC0F438434A7A611A644887B5384CF34233629258BA878B12322891DEFF6B66BD70BFB62634E8AE781D082709A4B588AF91C528CDA28B73F
310
1C998EEF39EABBEFA97FBD6A7C7E9553F9D3D79FE442923C3C523610337627CB87ABE99D359D4CC6D6E4FACAB5E6ABF9D2726FC6A3C5F56271377BB88362213924694B38DD99FE47C48627A1E7D49F5A8BB5E1A74C0A599ED3B0F21F1E56366B89112D681E218F0915D0D6F17AD41FBA2A369DCF6335D62ABBD39779D5DDD1
310
11D4D8DE3CBB96B2E04FB8202E41051754A1AA8E8F76B4C6DFE810B580B1547F4B84911149794252234D024EF8BBE963A95AE27B3D310A9D5C215C7960FAEE415ED75694C6AFB17BCACA5D99A60A9AA65F217B0BFC53292ACB92BF283FAD0D3621576592CB5BED907C2FA8E9DF794E35E97BEA31BED21FEB401ABB94C44839
310
DCACBF0E1C5DA8DA5B2F4DFFD32AD86F543D9E565E7056502E157C00AD2671CD534549AB752FCA9CDA00677A313F04E51B22FF19E57B300579E3C97EB29F682D92935CEC18CF901B7B54FD8C51F362B56FC72FE0B3C1EAE335EDCCBF5AEC39ADB17DC238973F804BA5E6F6BFE7AF1FB32E523BE9F3BD571418E3631DCA4D48
310
5250CF639223210A9446CA30052EDF057BD35F8329C1ECD84552BF0DC8D18BE7BCE23BFE6BD960AB4A7DE79923A103BEBD80F911CBAA2C60DB19B01CF164A5583B772EE6D3FFA56666CBCDA74DC97724A48F9A58967497E489C4D979006FD7A05E227A1EBDD0F737C623387A9C844D3709995625106D157315F8B8392CD4E0
310
A0B9A720C4BE9829CEF37EA1E13111214D53925356365ADA634861B52519DD27A00AEB808EAF0628E6F435519D446F45CF2C9CF5214F0A15B2F6D06B79DA3EE3CBF7F56780D2F4E7EF73A0F5E5B02A38D07DC852C6B7C1FBB6664213E0C39E3EBA7FF4E1AD23EA2829407C85E586727488B751B2DB9502BC7B228A3FD68B6E
310
A65A22397E690AA8D158D7E404EC8CDA235CC3B7D1898680131CEC2CDF2638C65196279577750F15884AEE19F94199155B92B13297978469D4F8D358DF0AEF7631E28DC8F0D9F437D5D39A83B2231A1D52D543813A824EF8D44BCFF2FA6A31BD1E8DAD87F1CCB526B3879935BF59CDADD5C37479BB1CDD4CA7B3556B516589
310
EF352754B706114D9C885EC9131DE6EFEB43D99AFE2391C2F958179413D7CFEF6B1B6DB1E7600F00DE6E5C67454A339A4BA2E0FBA85ED26F045D454F463DBFCE484C2F90F2E5E3666003662ED8F755951A7D1BECD5B30B550B2785C8E7320B7292A4838DDA71BBC863ED7613CAF659337A3354231D4FF4A182A54904C2898C
310
98B28C4AD0CE056CCF332A80986E571EE9DBC305BB5FEB7E509220A58D25CF042D712A806AC0AD0C657FDEF80D2D9CEAA2EE4D1C76F60BFE74219A06527D6F82DF6412526107381E55E353090704D085B52408A8913C4ED159D79BDA71BB4BC506F4831350EB6F975CD22D69BF7AC49B91A2C0A9DDA3D5CA36AD20FC478E37
310
E61844E2352865EBCB61A275A65283CAAA9DD27703B4102F5AF51EF5F573B75CBB5AD38BC845F7A49F82A0966A49C2E3EA5EA0ECD326CD965F1DB402C6FA8B51A4658C5C5E2EC9E214602E55810345408596591009A82E7E7FFACA19EEA299B14A0081A705CB3296EBC14CDF658DCD336EA6D1136881AAEB87B81AB9EE53D5
310
F5EB8BC8362082DA24122F98680A4E7930C01A0079749CEA14382A0783E5EBA5A10F8C098456A03D6A4AEB6BB881E2513747552A5DB22C7EDAF83BD5528081A365F7FF06504B0304140006080000CC70623B000000000000000000000000350000006662782F41393633353835312D344632462D344230382D423046372D37
310
39314545314133324237412F76657274696365732E62696E504B0304140006080800CC70623BF270F1330600000004000000360000006662782F41393633353835312D344632462D344230382D423046372D3739314545314133324237412F747269616E676C65732E62696E636660600000504B0304140006080000CC7062
310
3B000000000000000000000000370000006662782F41393633353835312D344632462D344230382D423046372D3739314545314133324237412F617474726962757465732E62696E504B0304140006080800CC70623B08DA0BD19000000041010000360000006662782F41393633353835312D344632462D344230382D4230
310
46372D3739314545314133324237412F6469726563746F72792E786D6C858F410AC3201045AF22B36F53E9A60B35CBEEBAE80D244E44489C6234F4F835464A48035D0DF398FF9F8AF63D0E6CC63039F212F8F9020C7D47C6792B21C5FE7403D62A1188E2E60C98D7234A5830286103A55745067B9D86B8A3CF9C7F90C11DE6
310
07FB144396D7B6A82D282E9A152AD114D5EF2CB866EEE831B8EEA07A7BB5A8D7D61A2BAAEB7FD5F70921FF497D00504B0304140006080800CC70623BEDD1DC58FD000000A00100003B0000006662782F41393633353835312D344632462D344230382D423046372D3739314545314133324237412F7265736F75726365732F
310
636F72652E786D6C8D504B6E833010BD0A9A6D65B00922041947112427E8052C33A156828DFCA97AFC9A40A576D7CDCCE87D344F8F9FBFE667F689CE6B6B3A6039850C8DB2A336530731DC4903D95970676DF82583CCC8193B5861107C72362E3BA4AC096842428D1D7107A5F7182053CF7474E0D507CE32973124857FE48B
310
540F3961CEF244279DE03EB81420DB9EAC1384436FA353E879B1B182C7A8C75DA3C7F453DF353A1075D537A7BA6464B8F535A99AE14A9A2BBD90E350DD183B5CFABE3AF262350B1EF4FC9351399401471025A527C218A1E53BAB5A5AB765F5469B96525EACF23FA6B88CFF34456DC2A1DCE36E360F82A5202F42F062ED2BAD
310
579969AFDD8A6F504B010214000A0000080000CC70623B3DEE336E79000000790000001B00000000000000000000000000000000006175746F6465736B2D64657369676E2D7061636B6167652E786D6C504B01021400140006080800CC70623BD486FD9CA0000000F40000001300000000000000000000000000B20000005B
310
436F6E74656E745F54797065735D2E786D6C504B01021400140006080800CC70623B853B8169EB0000007C010000080000000000000000000000000083010000636F72652E786D6C504B01021400140006080800CC70623B55019EA25F0000007C000000070000000000000000000000000094020000636E782E786D6C504B
310
01021400140006080800CC70623BDBABAAF470010000D40300000C00000000000000000000000000180300006662782F636F72652E786D6C504B01021400140006080800CC70623B9C113CC27E0000009D0000000B00000000000000000000000000B20400006662782F636E782E786D6C504B01021400140006080800CC70
310
623B7DF2F77C2A010000120200003100000000000000000000000000590500006662782F41393633353835312D344632462D344230382D423046372D3739314545314133324237412F636F72652E786D6C504B01021400140006080800CC70623BAD7543B64E010000330300003000000000000000000000000000D2060000
310
6662782F41393633353835312D344632462D344230382D423046372D3739314545314133324237412F636E782E786D6C504B01021400140006080800CC70623BE75B7789680500003C10000034000000000000000000000000006E0800006662782F41393633353835312D344632462D344230382D423046372D3739314545
310
314133324237412F6F626A656374732E786D6C504B01021400140006080000CC70623B0000000000000000000000003500000000000000000000000000280E00006662782F41393633353835312D344632462D344230382D423046372D3739314545314133324237412F76657274696365732E62696E504B01021400140006
310
080800CC70623BF270F133060000000400000036000000000000000000000000007B0E00006662782F41393633353835312D344632462D344230382D423046372D3739314545314133324237412F747269616E676C65732E62696E504B01021400140006080000CC70623B0000000000000000000000003700000000000000
310
000000000000D50E00006662782F41393633353835312D344632462D344230382D423046372D3739314545314133324237412F617474726962757465732E62696E504B01021400140006080800CC70623B08DA0BD1900000004101000036000000000000000000000000002A0F00006662782F41393633353835312D344632
310
462D344230382D423046372D3739314545314133324237412F6469726563746F72792E786D6C504B01021400140006080800CC70623BEDD1DC58FD000000A00100003B000000000000000000000000000E1000006662782F41393633353835312D344632462D344230382D423046372D3739314545314133324237412F7265
310
736F75726365732F636F72652E786D6C504B0506000000000E000E0080040000641100000000
  0
XRECORD
  5
C8B7
102
{ACAD_REACTORS
330
1F7
102
}
330
1F7
100
AcDbXrecord
280
     1
102
MATERIAL
148
0.0
149
0.0
149
0.0
 93
        0
 94
       63
282
     0
 72
     1
 77
     1
171
     1
175
     1
179
     1
273
     0
  0
XRECORD
  5
1F8
102
{ACAD_REACTORS
330
1F7
102
}
330
1F7
100
AcDbXrecord
280
     1
 70
     1
 90
429727718
  1
30362254-06B7-45E0-A893-8CFA70E3D6BC
310
504B03040A0000080000CC70623B3DEE336E79000000790000001B0000006175746F6465736B2D64657369676E2D7061636B6167652E786D6C3C3F786D6C2076657273696F6E3D22312E302220656E636F64696E673D227574662D3822203F3E3C666F726D6174733E3C666F726D61743E687474703A2F2F736368656D612E
310
6175746F6465736B2E636F6D2F64657369676E2D7061636B6167652F323030393C2F666F726D61743E3C2F666F726D6174733E504B0304140006080800CC70623BD486FD9CA0000000F4000000130000005B436F6E74656E745F54797065735D2E786D6C7D8EC10E82300C865F65E91D8A1E8C310C0EEA1BF002731658846E
310
D98AC1B77784ABF1D8FE5FBFBF75BBCE937A534CCEB38643598122B6FEE978D0B0485F9C41B54DDD7D022595594E1A469170414C76A4D9A4D207E29CF43ECE46F218070CC6BECC4078ACAA135ACF422C856C0E68EA1BF5669944DDD7BCDE7B1F8E415D77AECB980613C2E4AC91FC167A2B244592486606FC29C8FD7F045B9A
310
EF7053A7E60B504B0304140006080800CC70623B1EC5D7A3EB0000007C01000008000000636F72652E786D6C8D90416EC3201045AF82665B6103C6756C6122AB4D4ED00B204C5C94182C03558F5F9C3852BBEB6A467FFE9B197D71FC9E6FE8CBACC17AD7032D0820E3B41FAD9B7A48F1820F808E52ACDEC75F36404ECDA687
310
4D0629A6D5A76597B477D1B89855E747B38B2A041301E95B6E7A08FAD3CCAA50296647B8168BD2573599823EBB0CA76447F43862C7BCCF5EAC59410E4DDD9C7973C2755553CCCFA4C603E3040F1565ED3B1FDE4E432BCA0D9622DAF9795FAF464533826484B498524CD807E51D79ED187F21878E10516EF63F505AC67F42C9
310
BA58B1FDDD071640D2FCC87D2045B96591CB3DA85CB7DCE40F504B0304140006080800CC70623B55019EA25F0000007C00000007000000636E782E786D6C4DCB3B0E80201045D1AD90E915ED2CF8AC45050C11660C8261F98AB1B07AC9C97D42D718D865D3E909258CFD00CCE24AC6E326A164D74DC0B4128928FF32603847
310
2BA13128B1252AC747C6BAB984FC68F0B87FE8960A5C09FE86CFB69FBA01504B0304140006080800CC70623B8C9102E971010000D40300000C0000006662782F636F72652E786D6CC5535B6E833010BC8AE5DF0A6C08340F1947A84D4ED00B38C6A128602363A31CBFCB234A53A551FA553EC09AD9F5CE8C31DB9E9B1AF5CA
310
7695D1198E428A91D2D214952E33ECDD315861B4E5CC1AE3BE9561A445A3323CC098B3D21ADFCE9034DA29ED00D5A6503328BA4E398C640D8B0C77F253352214DE4145770A5B214FA2546114020D759C75CE8200340D19DE981F0F6746269C33EFAB6266AB02A655C74A59CCF365BADC27CB5D902ED22848F6340DF238A141
310
BE88E2F57B92BFEDF23523433367AE6A2EEAA455C2A902F398D2751045018D3FA264435F3771F242571B4A1919CA6F9A7C5B3CD9E42BED16F12C776AEB308F40C848FC700B1139D4891EF410CEC810227CC6846F8386402064270EF5C5C709A05E49676C024C61FC95EA45ED154CA5211D1FF4FB8291A913A68E9B83EBBB33
310
E2A7673CDE118E5AE8124C0807CB8377834E366998436B950D7A7746DAD846D4CFD978E0F04FD455FC5D49D2D4C6FE9722321F10997F0F32DC47FE05504B0304140006080800CC70623BFFEA85907E0000009D0000000B0000006662782F636E782E786D6C4DCCD10A83201886E15B91FFDC95D95A811AB6F23E625948A6C3
310
E9D8E5AF46073BFAE0E1E365ED67B3E8ADC3CB78C7815C7240DA3DFC64DCC221C519D7805AC182F7F1EF06C88D9BE6703008B6049F9E274D7A1E938DBB5AE3D6131B2589BA0D3D965551E0B2EA732C9B9A624AAEB41E3A557677029960D9AFB4EF11165F504B0304140006080800CC70623B4FEEA4082C0100001202000031
310
0000006662782F39464131463745442D413632322D343644302D413938332D3331353338454246344243312F636F72652E786D6C8D515B6EC32010BC0AE2AB55850DD871ED0813254D72825EC00192A2C460F1A872FC42ED48ED5F7E00CDCECCCEB26C731F6FE05B39AFADE921293004CA082BB5B9F43086336A21D870E6AC
310
0D7F68109861543DCC30E4ECE26C9C164858139409093556AA051CBC570102714B8F1E7AF1A5C6A11862480C7F2DA6415C878B2A4891CA89C7990F2E050073937C42DE1DB7E4F87ED8A36D4329AA9B3D46DBAEAD504556557BD81DEBDD0761E52CE42C462D17B996298E3E6BE59E35C962CE821E1FF18553435012728A7187
310
0841987E927A8D9B35ADDF70BBC6989599FE4F1427F9A4286A132ABAC49D651EF234CD5CE04CDA78BA3DC2A8FB645D00B9DF8B57E215725C60BCA2A463E54C4CE327C7A65E1C7DB02E7DEFCBF594B864C5CA6CDBD49C957943E9FA5D5FBAF336F90F504B0304140006080800CC70623BAD7543B64E01000033030000300000
310
006662782F39464131463745442D413632322D343644302D413938332D3331353338454246344243312F636E782E786D6CD593CD6EC32010845F0571AD6CE3D48AD20813A9873E410FBD12D82434182C7EAAE6EDBB2424CD25871E7B41D6EC30B3FA84F9E67BB2E40B4234DE8DB46F1925E094D7C6ED479AD3AE5951B2113C
310
789FEE6C943839C1488B4C05DF079FE72A69D8C96C13AAD6B8631503449F83828872B949AC57D26200B826A308D316B4064D6E46FCDA41C05550DC9E483A00797BFD207EFB092A45DE9514C1BBD22178396BD39D891265658C238DEA00936C654E5E433CB65A26D9F6EDB5EBC14EBF49A45CB856E66048291F6939A9A81BB5
310
C8917738143CA680F4AA299D66A042CEB3354A2684DC9D8D178FE0D9B8B41CAAD720F880EE7EF93C0C18769E099ECC04D5A102C8049A8A05632F4DDF376CF1DE0F6BB65C2F8627B65A33C6BB62177CEBBDAD973006829F89F22E814B54F4BC2BE347F8AA8F681390B50FA73F804400B5F542E796F19FF974E7F78DB802FE05
310
E207504B0304140006080800CC70623B16AB87BA640500003C100000340000006662782F39464131463745442D413632322D343644302D413938332D3331353338454246344243312F6F626A656374732E786D6CAD575B6FA33818FD2B887DE6924B3BED8A326A92B68A663B534DD4D13E548A0C38942D60649B369D5FBFC7
310
600890A493BDE42160637FD7F31D7FF63E6FB3D478A55C242CBF3247B66B1A340F5994E4F19559CA8D75611A9F7D8F33263BCB4C232719BD32D5B4E97B316765A1A722BA21652A07B3B7B33F0D11D29C9A46981221AE4C113ED38CD8A4942CA2E2C58E882476BCD9DA23BB5ED8171B73523C0F841684D35CC252CCE79062D4
310
468DFA43D7747CCF51DF7D4FFDEB5593E3AB9CCA9FBEFE241792E4E19EB28198C968BAB8199F5D5A67D3E9C49A9E8F47D6EC76B6B0469F26EEFC7C3EBFBCBEB98462213924694B38DD98FE1D62C393D073EA4FADC5DAF04326852CCF6958F90F0F2B9BB5C48816348F90C7840A68EB78EDF68723159BCEE7891A6B95DDE9D3
310
BCEAEEE8086A6C6F9E5D4B59F0175C10A7A0820BAA5055C7473B5AE3CFDD452D602CD5DF12616444529E90D448938013FE6EFA58AA96F85E4F8C42275708571E98FE6827AF6B2B4AE3D7D83D64E5A64C53054DD3AF90BD06FEA9149565C94FCA0F6B834DC85599E4F2423B24DF0B6AFA979E534DFA9E7A4CC6FA631D486393
310
921829879BF5D781A373557BCB85E97FB90DB62B558F8795179C15944B051F40AB495CF35451D26A4727654E6D8033BD98EF82F21D91FF8AF2DD9982BCF1643BDD4EB516C9492E368C67C88DED563FC36D5EACF66DFF057C3658BDBFA69DF9578B3DA735B64F18C7F20770A9D45CFCF7FCF563D6456A277DBEF78A02637CA2
310
43B90A490AEAB94F72244481D24819A6C0E59B606BFA4B3025981DBB48EAB701D97BF19C577CC77F2D1B6C55A9EF3C732474C0B727303F625995056C3B02963D9EAC146BE78EC5FCEC7FA999EBC5EACBAAE41B12D27B4D2C0BBA49F244E2ECDC81B76B502F113D8F5EE8FB1BE3111CDD4FC2AA9B844CAB1288B68AB90A7CDC
310
1C166AB0D3DC5310625FCC14E779BFD0709F8890A629C9292B1B2DED31A4B0DA928CEE135085754027E3018A397D4D5427D15BD1330B677DC8934285AC3DF45A9EB68FF8F2B8FC0A509AFEECFD0FF2DE25CC6047F7214B195F07EFEB9A094D800F7BFAE8FED187B78EA8A3A400F115961BCAD1215E47C966530AF0EE8128FE
310
58CEBB996A8964FFA529A046635D9353B0336A8F700DDF46271A024E70B0B37C9DE01847591E54DED53D54202AB947E4076556AC49C6CA5C9E1226B7F1A7B1BE15DEED62C41B91E1B3E9AFAAA735036547343A925075041DF0A9979E893B391F8FCFA6967B3EFB644DCF6E5CEBFAE272625DCC6FAF3FB93793C5F90CE1EF57
310
407342756B10D1C489E8953CD1617E5CEECAD6F4EF8914CE5D5D504E5C3F1F9736DA62CFC11E00BCDDB8CC8A9466349744C1F75EBDA4DF09BA8A9E8C7A7E9991989E20E5DBDD6A6003664ED8F7A04A8DBE0DF6EAD9B9AA858342E47399053949D2C146EDB85DE4B176BB0965FBAC19BD19AA918E27FA50C1D22402E144464C
310
59462568E704B6E71915404CB72B8FF4EDE184DDAF753F284990D2C6926782963815403548A70C657FDEF80D2D9CEAA2AE4C1C76F60BFE74219A06527D6582DF6412526107381E55E353090704D085B52408D0933C4ED159D79BDA71BB4BC506F4831350EB6F979CD22D69BF7AC49B91A2C0A9DDA3D5CA36AD20FC478E37E6
310
1844E2352865EBCB6EA275A652E3836BE04EFB400BF1A2556F515F1FBB35B2AB35BD889C744FFA1004B5544B121E57F70215746DD2F5E2C1412B602CBF19455AC6C8E5E9922C4E01E65215385004546899059180EAFCF7A707CE7017CD8CDB0410789AB32C63B91E5CEBBBACB17AC6CD347A022D5075FD106377347AAABA7E
310
7D11590744509B44E205134DC1290F06580320F78E537D3D73540E06CB970B431F185308AD40BBD794D6D77003C5A36E8EAA54BA64597CD8F83BD552A080A365F7FF06504B0304140006080000CC70623B000000000000000000000000350000006662782F39464131463745442D413632322D343644302D413938332D3331
310
353338454246344243312F76657274696365732E62696E504B0304140006080800CC70623BF270F1330600000004000000360000006662782F39464131463745442D413632322D343644302D413938332D3331353338454246344243312F747269616E676C65732E62696E636660600000504B0304140006080000CC70623B
310
000000000000000000000000370000006662782F39464131463745442D413632322D343644302D413938332D3331353338454246344243312F617474726962757465732E62696E504B0304140006080800CC70623B08DA0BD19000000041010000360000006662782F39464131463745442D413632322D343644302D413938
310
332D3331353338454246344243312F6469726563746F72792E786D6C858F410AC3201045AF22B36F53E9A60B35CBEEBAE80D244E44489C6234F4F835464A48035D0DF398FF9F8AF63D0E6CC63039F212F8F9020C7D47C6792B21C5FE7403D62A1188E2E60C98D7234A5830286103A55745067B9D86B8A3CF9C7F90C11DE607
310
FB144396D7B6A82D282E9A152AD114D5EF2CB866EEE831B8EEA07A7BB5A8D7D61A2BAAEB7FD5F70921FF497D00504B0304140006080800CC70623B0D6EF93BFE000000A00100003B0000006662782F39464131463745442D413632322D343644302D413938332D3331353338454246344243312F7265736F75726365732F63
310
6F72652E786D6C8D50596E833010BD0A9ADFCA60B334011947A8694ED00B586642AC041B79A97AFC9A40A5F6AF3F33A3B7689E1E3F7DCD8FEC139DD7D6F4C0720A191A65476DA61E62B892236427C19DB5E1970C322367EC618541F0C9D9B8EC90B226A009093576C41D94DE63804C3DD2D18357379C652E63480A7FCF17A9
310
EE72C29CE5894E3AC17D702940B63D59270887DE46A7D0F36263058F518FBB468FE9A7BE6A7420864373B8D4873369AA8691FA421B3294352543C5CAF65C0F6FEF43CB8BD52C78D0F34F46E550061C419494B6843142CB0F5677F4B52BEB177AEC28E5C52AFF638ACBF84F53D42654E51E77B379102C05791282176B5F693D
310
CB4C7BED567C03504B010214000A0000080000CC70623B3DEE336E79000000790000001B00000000000000000000000000000000006175746F6465736B2D64657369676E2D7061636B6167652E786D6C504B01021400140006080800CC70623BD486FD9CA0000000F40000001300000000000000000000000000B20000005B
310
436F6E74656E745F54797065735D2E786D6C504B01021400140006080800CC70623B1EC5D7A3EB0000007C010000080000000000000000000000000083010000636F72652E786D6C504B01021400140006080800CC70623B55019EA25F0000007C000000070000000000000000000000000094020000636E782E786D6C504B
310
01021400140006080800CC70623B8C9102E971010000D40300000C00000000000000000000000000180300006662782F636F72652E786D6C504B01021400140006080800CC70623BFFEA85907E0000009D0000000B00000000000000000000000000B30400006662782F636E782E786D6C504B01021400140006080800CC70
310
623B4FEEA4082C0100001202000031000000000000000000000000005A0500006662782F39464131463745442D413632322D343644302D413938332D3331353338454246344243312F636F72652E786D6C504B01021400140006080800CC70623BAD7543B64E010000330300003000000000000000000000000000D5060000
310
6662782F39464131463745442D413632322D343644302D413938332D3331353338454246344243312F636E782E786D6C504B01021400140006080800CC70623B16AB87BA640500003C1000003400000000000000000000000000710800006662782F39464131463745442D413632322D343644302D413938332D3331353338
310
454246344243312F6F626A656374732E786D6C504B01021400140006080000CC70623B0000000000000000000000003500000000000000000000000000270E00006662782F39464131463745442D413632322D343644302D413938332D3331353338454246344243312F76657274696365732E62696E504B01021400140006
310
080800CC70623BF270F133060000000400000036000000000000000000000000007A0E00006662782F39464131463745442D413632322D343644302D413938332D3331353338454246344243312F747269616E676C65732E62696E504B01021400140006080000CC70623B0000000000000000000000003700000000000000
310
000000000000D40E00006662782F39464131463745442D413632322D343644302D413938332D3331353338454246344243312F617474726962757465732E62696E504B01021400140006080800CC70623B08DA0BD190000000410100003600000000000000000000000000290F00006662782F39464131463745442D413632
310
322D343644302D413938332D3331353338454246344243312F6469726563746F72792E786D6C504B01021400140006080800CC70623B0D6EF93BFE000000A00100003B000000000000000000000000000D1000006662782F39464131463745442D413632322D343644302D413938332D3331353338454246344243312F7265
310
736F75726365732F636F72652E786D6C504B0506000000000E000E0080040000641100000000
  0
XRECORD
  5
C8B9
102
{ACAD_REACTORS
330
173
102
}
330
173
100
AcDbXrecord
280
     1
102
MATERIAL
148
0.0
149
0.0
149
0.0
 93
        0
 94
       63
282
     0
 72
     1
 77
     1
171
     1
175
     1
179
     1
273
     0
  0
XRECORD
  5
175
102
{ACAD_REACTORS
330
173
102
}
330
173
100
AcDbXrecord
280
     1
270
     1
271
     1
  0
XRECORD
  5
174
102
{ACAD_REACTORS
330
173
102
}
330
173
100
AcDbXrecord
280
     1
270
     1
271
     1
  0
XRECORD
  5
1FB
102
{ACAD_REACTORS
330
173
102
}
330
173
100
AcDbXrecord
280
     1
 70
     0
 90
1673772943
  1
ECE7A1D2-D628-4531-984C-D00F80459256
310
504B03040A0000080000CC70623B3DEE336E79000000790000001B0000006175746F6465736B2D64657369676E2D7061636B6167652E786D6C3C3F786D6C2076657273696F6E3D22312E302220656E636F64696E673D227574662D3822203F3E3C666F726D6174733E3C666F726D61743E687474703A2F2F736368656D612E
310
6175746F6465736B2E636F6D2F64657369676E2D7061636B6167652F323030393C2F666F726D61743E3C2F666F726D6174733E504B0304140006080800CC70623BD486FD9CA0000000F4000000130000005B436F6E74656E745F54797065735D2E786D6C7D8EC10E82300C865F65E91D8A1E8C310C0EEA1BF002731658846E
310
D98AC1B77784ABF1D8FE5FBFBF75BBCE937A534CCEB38643598122B6FEE978D0B0485F9C41B54DDD7D022595594E1A469170414C76A4D9A4D207E29CF43ECE46F218070CC6BECC4078ACAA135ACF422C856C0E68EA1BF5669944DDD7BCDE7B1F8E415D77AECB980613C2E4AC91FC167A2B244592486606FC29C8FD7F045B9A
310
EF7053A7E60B504B0304140006080800CC70623BD9DDAED0EC0000007C01000008000000636F72652E786D6C8D90416EC3201045AF82665B61836D9CD8C2444DD39CA01740405C94182C03558F5F9C3852BBEB6A467FFE9B197D7EF89E6EE8CB2CC17A37002D0820E394D7D68D03A478C17B4007C117EFE32F1B20272733C0
310
2A83E0E3E2D3BC49CABB685CCCAAF3DA6CA20CC14440EA969B0182FA34932C648AD911AEC52CD5558EA6A0CF2EC329598D1E47ACCEFBECC59A050463A7EA5833865FEBDD0E37353BE3EE8DBDE3F6786A48D375FBF6CC78B9C282473B3DEFABC5C86834888A900E538A49F5419B9EB47DD5BC907D4F082F57FB1F28CDFA9F50
310
B22ED6D5F6EE030B20687EE43E10BC5CB3C8E51E54AE6B6EE207504B0304140006080800CC70623B55019EA25F0000007C00000007000000636E782E786D6C4DCB3B0E80201045D1AD90E915ED2CF8AC45050C11660C8261F98AB1B07AC9C97D42D718D865D3E909258CFD00CCE24AC6E326A164D74DC0B4128928FF326038
310
472BA13128B1252AC747C6BAB984FC68F0B87FE8960A5C09FE86CFB69FBA01504B0304140006080800CC70623BA24EB22D72010000D40300000C0000006662782F636F72652E786D6CC5535B6E833010BC8AE5DF0A6C5E49888CA3A6694ED00B38E05014B091B1518EDFE511A5A9D228FD2A1F60CDEC7A67C6986DCE4D8D7A
310
69BA4AAB0C073EC548AA5C17952A33ECECD15B61B4E1CC686DBF9561A44423333CC098B3D268D7CE50AE9595CA02AA74216750749DB418E5352C32DCE59FB211BE70162ABA93DF8AFC244AE9073ED050C759670D0840D390E18DF9F1706664C23973AE2A66B62A605A75ACA4C13C4976E1364A12EF355A2EBD384AF65EFA96
310
BC7B8BED2EA6719AAE16FB8491A199335B351775B991C2CA02F390D2D40B028F861F41BCA68B7518BFD0D59A524686F29B26D7164F36B94AD9289CE54E6D1DE6010819891F6E21228B3AD1831EC219194284CF98F06DD01008846CC5A1BEF83801D4CBDC6A1303536877A57A513B0953A94FC707FDBE6064EA84A9E3E6E0FA
310
EE8CF0E9198F7784A316AA0413C2C2F2E0ECA0934D1AE6D05A69BCDE9E91D2A611F573361E38FC1375157F5752AE6B6DFE4B11990F88CCBF0719EE23FF02504B0304140006080800CC70623B408A7D3B7C0000009D0000000B0000006662782F636E782E786D6C4DCCD10A83201886E15B91FFDC552A92A0064DBC8F581632
310
D3703A76F9ABD1C18E3E78F878E5F0D9027ABBFCF2292AE86E2D20171F69F6715550CB827B40839639A5F2770314A7CD293819B45C73AAFB45B35BA61ACAA1C1C7E7855C58C15BC331339661262CC762340413D68D77DA5B42298546CBE6573AF60CEB2F504B0304140006080800CC70623B449FB9BD290100001202000031
310
0000006662782F36394639363044362D344446342D343946362D394244322D3234314243333846323333332F636F72652E786D6C8D515B6EC32010BC0AE22B55850D98B871848994463E412FE002495162B07854397EA176A4F62F3F2C9A9D991D587EB84F37F0AD7D30CEF6905418026DA553C65E7A98E219ED203808EE9D
310
8B7F6810D871D23D2C3014FCE25D9A57483A1BB58D19B54EE9151C43D0110279CB971E06F9A5A7B11A53CC8C70ADE6515EC78BAE4895DB992778883E0700CB907242D17643D7E2538BD869608875438BBAE38922CAC8F1BDD90DB4691A5E2F42C153326A951B95E398B3D1FE599322163C9AE9115F7A3D46ADA0A018778810
310
84E907617BDCEE297BC5BB3DC6BC2EF47FA234AB2745C9D8D8D035EE220B50105E2F0DC1954B9FB747187D9F9D8FA0CCDB042D5FA0C015C65B42DF78BD10F3F3B363CB56C7109DCFDFBBB97E662ED92EB62D13BC2E1BCAE5777DB9966D8A1F504B0304140006080800CC70623BAD7543B64E01000033030000300000006662
310
782F36394639363044362D344446342D343946362D394244322D3234314243333846323333332F636E782E786D6CD593CD6EC32010845F0571AD6CE3D48AD20813A9873E410FBD12D82434182C7EAAE6EDBB2424CD25871E7B41D6EC30B3FA84F9E67BB2E40B4234DE8DB46F1925E094D7C6ED479AD3AE5951B2113C789FEE
310
6C943839C1488B4C05DF079FE72A69D8C96C13AAD6B8631503449F83828872B949AC57D26200B826A308D316B4064D6E46FCDA41C05550DC9E483A00797BFD207EFB092A45DE9514C1BBD22178396BD39D891265658C238DEA00936C654E5E433CB65A26D9F6EDB5EBC14EBF49A45CB856E66048291F6939A9A81BB5C89177
310
38143CA680F4AA299D66A042CEB3354A2684DC9D8D178FE0D9B8B41CAAD720F880EE7EF93C0C18769E099ECC04D5A102C8049A8A05632F4DDF376CF1DE0F6BB65C2F8627B65A33C6BB62177CEBBDAD973006829F89F22E814B54F4BC2BE347F8AA8F681390B50FA73F804400B5F542E796F19FF974E7F78DB802FE05E20750
310
4B0304140006080800CC70623B8D05915C650500003B100000340000006662782F36394639363044362D344446342D343946362D394244322D3234314243333846323333332F6F626A656374732E786D6CAD575B6FA33814FE2B887D06429276DA1565D4266D158D3A339A6846FB502932E050B66023DB74D2FDF5FB190C01
310
9276B2973C046C8ECFF53B17071F77456EBD502133CEAE6CDF9DD81665314F32965ED995DA3A17B6F5310C04E7AA47665B8C14F4CAD6DB7618A48257A5D94AE89654B91AEDDEDDFC61C998326A5B714EA4BCB265FC440BE2924AF184CA6737218AB8E976E7FA6E4338649B0A523E8D98964450A6A029F619B8588D52FE7039
310
B1BD30F0F4F730D0FF866AF6369557DB33949F31A9088B0F848DD8CCFCF9F2767A76E99CCDE733677E3EF59D9BBB9BA5E37F984D16E78BC5E5F5ED25044B25C0C96822E8D60EEFE11B91C581D77CEA34368A1F5329E68CD1B8B61F16D63A1B8E092D294B10C78C4A48EB593D192E7DED9BDEE7995E1B91FDEDD3ACEA9FE831
310
6A756F9F7D4D79F4274C90A7A04248AA51D5F8C718DAE06FB2F75AC4796EBE65D22A88A22223B995679120E2D50E41AA49C260C046A35368846B0BECD0DFF3EBEB8AD4F835768F69B9ADF25C43D30E6B646F807FAA64AD59F61715C7A54127C4AACA98BA3006A9D792DAE165E0D59B61A01FB3A9F9D838D2DAE62445C86166
310
F37564E842E7DE6A69879FEEA2DD5AE7E371E1A5E025154AC307D06A03D73EB5978C58FFA4C8E9033066E0F3BD53BEC1F39F91BE7B55103791EDE6BBB991A2046172CB4581D8B893FA674DDA17A77B3B7C413D1B511FD2743BFF8A38F03A658705E3ADF8015C3A3417FF3D7E439FF591DA0B5F18BC20C1B8981957AE6392A3
310
F43C640C01D1A0B4728E2DD4F26DB4B3C3152A252A3B4E913CEC1C72F012782FF88EFF8637AA552DBEF76408E8A8DE9E50F9E1CB3A2DA0DB1B6039A893B56063DC5B3E3FFB5F72E67AB9FEB4AEC496C4F4C1149625DD662C53E89D7BF0F6151A046260D1337DFDC94502430F83B0EE07A130A224BCAD7DAE1D9FB6CD422FF6
310
920702629C4BB9AE79C12F243C6432A6794E18E5552BA56B431AAB5D91317302B2B071E86C3A42B1A02F999E24061403B5D0EB639195DA655DD3EBEAB4FB862DDF579F014AD0E73C22F99E28DA57FB98E75C6CA2D74D53086D600F4786E0FE3144B771A8A7B900F03594DB8A633CBC49B2EDB69228BB479CF863B5E807AAAB
310
23872F6DFEB4129B949CA33823F58830E86D65621E10047D9DB34D862E8EAC3C2ABC2F7B2C40D67CDFE01F5545B92105AF983AC54D93D69E56FB8E797F88913F898A9FEC705D3F9D1B54EC8426FB500D40A03BD0119B06E1B95DDC7EB8F6975367793EBD70E66733DFB9BC982F9CE564727731999F5D4ECFCE3B8D6A4DC2A0
310
6D50FD148437D110834A64C6CDDF57FBACB5C307A2A477DFE4939736CFEF2B175371E0E10CF0DD1D5C15654E0BCA14D1E87DD02FF93782A162C0A3D95F1524A52770F972BF1EE9809D13CE7DD599467F8ECE9ADD85CE85A34CD45355448C64F9E8A031DC2D596ACC6E5DD93D9B82DE2EF5CAF81363A8E47996A0DE24564A79
310
4115AACE09C55E14540231FDA13C319787134EBF34E3A022514E5B4D9E0826E25C02D5805B15ABE1BEF51B26383D445DD9E875EE33FE4C22DA16427D65A3BCA92CA6D28DD01DF5DC53330704308475351050232CCD31583787BA75774AFB06E5070DD0C8EF484E19968C5D83BA5B90B244D31E54D55A372320FE4786B7EA58
310
44E135AA5467CB7EA333A61683CC6A8C3257034C10CF46F40EF9F5BE59BE5BD30C3C72D235E95D10345C1D45445A5F0BB47E46A5EBE5570F9380B5FA629579952296A773720405982B9DE04011506178964401AA8BDF1FBF0A8EAB6861DD6580C0E38217056766716DAEB2D6FA0917D3E4116581EADB879C4E7CFFB11EFACD
310
3D641311495D92C8676CB409A72D18610D803CE8A626049E8EC1887CB5B44CC39883690DDA8399B4B9855B481E7D71D4A9D22F96E5BB73BF5793020C02137BF837504B0304140006080000CC70623B000000000000000000000000350000006662782F36394639363044362D344446342D343946362D394244322D32343142
310
43333846323333332F76657274696365732E62696E504B0304140006080800CC70623BF270F1330600000004000000360000006662782F36394639363044362D344446342D343946362D394244322D3234314243333846323333332F747269616E676C65732E62696E636660600000504B0304140006080000CC70623B0000
310
00000000000000000000370000006662782F36394639363044362D344446342D343946362D394244322D3234314243333846323333332F617474726962757465732E62696E504B0304140006080800CC70623B08DA0BD19000000041010000360000006662782F36394639363044362D344446342D343946362D394244322D
310
3234314243333846323333332F6469726563746F72792E786D6C858F410AC3201045AF22B36F53E9A60B35CBEEBAE80D244E44489C6234F4F835464A48035D0DF398FF9F8AF63D0E6CC63039F212F8F9020C7D47C6792B21C5FE7403D62A1188E2E60C98D7234A5830286103A55745067B9D86B8A3CF9C7F90C11DE607FB14
310
4396D7B6A82D282E9A152AD114D5EF2CB866EEE831B8EEA07A7BB5A8D7D61A2BAAEB7FD5F70921FF497D00504B0304140006080800CC70623BCA768048FE000000A00100003B0000006662782F36394639363044362D344446342D343946362D394244322D3234314243333846323333332F7265736F75726365732F636F72
310
652E786D6C8D50596E833010BD0A9ADFCA60D600328E9AA639412F609909B1126CE4A5EAF16B0295DABFFECC8CDEA2797AECF8353F924FB44E193D409E5248504B332A3D0D10FC95B4901C39B3C6F85F3248B49871801506CE266BC2B243D2688FDA47549B11775038871E12F988C7004EDE7016A9083E2ADC3D5D84BC8B09
310
D33C8D74D471E6BC8D0192EDC93A815B742658898E651BCB59086ADC356A8C3FD555A1055ED7E7E254D615792D0F075295F585746FF53B694EE78A565DD736979A65AB9933AFE69F8CD2A2F038022F28ED489E135A7CE4554F9BBEA85E68DB53CAB255FEC71496F19FA6A0B42F8B3DEE6673C0F318E4497096AD7DC5F52C33
310
EEB55BFE0D504B010214000A0000080000CC70623B3DEE336E79000000790000001B00000000000000000000000000000000006175746F6465736B2D64657369676E2D7061636B6167652E786D6C504B01021400140006080800CC70623BD486FD9CA0000000F40000001300000000000000000000000000B20000005B436F
310
6E74656E745F54797065735D2E786D6C504B01021400140006080800CC70623BD9DDAED0EC0000007C010000080000000000000000000000000083010000636F72652E786D6C504B01021400140006080800CC70623B55019EA25F0000007C000000070000000000000000000000000095020000636E782E786D6C504B0102
310
1400140006080800CC70623BA24EB22D72010000D40300000C00000000000000000000000000190300006662782F636F72652E786D6C504B01021400140006080800CC70623B408A7D3B7C0000009D0000000B00000000000000000000000000B50400006662782F636E782E786D6C504B01021400140006080800CC70623B
310
449FB9BD290100001202000031000000000000000000000000005A0500006662782F36394639363044362D344446342D343946362D394244322D3234314243333846323333332F636F72652E786D6C504B01021400140006080800CC70623BAD7543B64E010000330300003000000000000000000000000000D20600006662
310
782F36394639363044362D344446342D343946362D394244322D3234314243333846323333332F636E782E786D6C504B01021400140006080800CC70623B8D05915C650500003B10000034000000000000000000000000006E0800006662782F36394639363044362D344446342D343946362D394244322D32343142433338
310
46323333332F6F626A656374732E786D6C504B01021400140006080000CC70623B0000000000000000000000003500000000000000000000000000250E00006662782F36394639363044362D344446342D343946362D394244322D3234314243333846323333332F76657274696365732E62696E504B010214001400060808
310
00CC70623BF270F13306000000040000003600000000000000000000000000780E00006662782F36394639363044362D344446342D343946362D394244322D3234314243333846323333332F747269616E676C65732E62696E504B01021400140006080000CC70623B00000000000000000000000037000000000000000000
310
00000000D20E00006662782F36394639363044362D344446342D343946362D394244322D3234314243333846323333332F617474726962757465732E62696E504B01021400140006080800CC70623B08DA0BD190000000410100003600000000000000000000000000270F00006662782F36394639363044362D344446342D
310
343946362D394244322D3234314243333846323333332F6469726563746F72792E786D6C504B01021400140006080800CC70623BCA768048FE000000A00100003B000000000000000000000000000B1000006662782F36394639363044362D344446342D343946362D394244322D3234314243333846323333332F7265736F
310
75726365732F636F72652E786D6C504B0506000000000E000E0080040000621100000000
  0
XRECORD
  5
176
102
{ACAD_REACTORS
330
173
102
}
330
173
100
AcDbXrecord
280
     1
270
     1
271
     1
  0
XRECORD
  5
177
102
{ACAD_REACTORS
330
173
102
}
330
173
100
AcDbXrecord
280
     1
270
     1
271
     1
  0
XRECORD
  5
C8DB
102
{ACAD_REACTORS
330
C8DA
102
}
330
C8DA
100
AcDbXrecord
280
     1
102
ACAD_ROUNDTRIP_2012_MLEADER_STYLE
298
     1
  0
XRECORD
  5
C8ED
102
{ACAD_REACTORS
330
C8EC
102
}
330
C8EC
100
AcDbXrecord
280
     1
102
DISPLAYNAME
  1
Metric50
102
FLAGS
 90
        0
  0
CELLSTYLEMAP
  5
C8AD
102
{ACAD_REACTORS
330
162
102
}
330
162
100
AcDbCellStyleMap
 90
        3
300
CELLSTYLE
  1
TABLEFORMAT_BEGIN
 90
        5
170
     1
 91
        0
 92
    32768
 62
   257
 93
        1
300
CONTENTFORMAT
  1
CONTENTFORMAT_BEGIN
 90
        0
 91
        0
 92
      512
 93
        0
300

 40
0.0
140
1.0
 94
        5
 62
     0
340
11
144
6.0
309
CONTENTFORMAT_END
171
     1
301
MARGIN
  1
CELLMARGIN_BEGIN
 40
1.5
 40
1.5
 40
1.5
 40
1.5
 40
4.5
 40
4.5
309
CELLMARGIN_END
 94
        6
 95
        1
302
GRIDFORMAT
  1
GRIDFORMAT_BEGIN
 90
        0
 91
        1
 62
     0
 92
       -2
340
14
 93
        0
 40
1.125
309
GRIDFORMAT_END
 95
        2
302
GRIDFORMAT
  1
GRIDFORMAT_BEGIN
 90
        0
 91
        1
 62
     0
 92
       -2
340
14
 93
        0
 40
1.125
309
GRIDFORMAT_END
 95
        4
302
GRIDFORMAT
  1
GRIDFORMAT_BEGIN
 90
        0
 91
        1
 62
     0
 92
       -2
340
14
 93
        0
 40
1.125
309
GRIDFORMAT_END
 95
        8
302
GRIDFORMAT
  1
GRIDFORMAT_BEGIN
 90
        0
 91
        1
 62
     0
 92
       -2
340
14
 93
        0
 40
1.125
309
GRIDFORMAT_END
 95
       16
302
GRIDFORMAT
  1
GRIDFORMAT_BEGIN
 90
        0
 91
        1
 62
     0
 92
       -2
340
14
 93
        0
 40
1.125
309
GRIDFORMAT_END
 95
       32
302
GRIDFORMAT
  1
GRIDFORMAT_BEGIN
 90
        0
 91
        1
 62
     0
 92
       -2
340
14
 93
        0
 40
1.125
309
GRIDFORMAT_END
309
TABLEFORMAT_END
  1
CELLSTYLE_BEGIN
 90
        1
 91
        1
300
_TITLE
309
CELLSTYLE_END
300
CELLSTYLE
  1
TABLEFORMAT_BEGIN
 90
        5
170
     1
 91
        0
 92
        0
 62
   257
 93
        1
300
CONTENTFORMAT
  1
CONTENTFORMAT_BEGIN
 90
        0
 91
        0
 92
      512
 93
        0
300

 40
0.0
140
1.0
 94
        5
 62
     0
340
11
144
4.5
309
CONTENTFORMAT_END
171
     1
301
MARGIN
  1
CELLMARGIN_BEGIN
 40
1.5
 40
1.5
 40
1.5
 40
1.5
 40
4.5
 40
4.5
309
CELLMARGIN_END
 94
        6
 95
        1
302
GRIDFORMAT
  1
GRIDFORMAT_BEGIN
 90
        0
 91
        1
 62
     0
 92
       -2
340
14
 93
        0
 40
1.125
309
GRIDFORMAT_END
 95
        2
302
GRIDFORMAT
  1
GRIDFORMAT_BEGIN
 90
        0
 91
        1
 62
     0
 92
       -2
340
14
 93
        0
 40
1.125
309
GRIDFORMAT_END
 95
        4
302
GRIDFORMAT
  1
GRIDFORMAT_BEGIN
 90
        0
 91
        1
 62
     0
 92
       -2
340
14
 93
        0
 40
1.125
309
GRIDFORMAT_END
 95
        8
302
GRIDFORMAT
  1
GRIDFORMAT_BEGIN
 90
        0
 91
        1
 62
     0
 92
       -2
340
14
 93
        0
 40
1.125
309
GRIDFORMAT_END
 95
       16
302
GRIDFORMAT
  1
GRIDFORMAT_BEGIN
 90
        0
 91
        1
 62
     0
 92
       -2
340
14
 93
        0
 40
1.125
309
GRIDFORMAT_END
 95
       32
302
GRIDFORMAT
  1
GRIDFORMAT_BEGIN
 90
        0
 91
        1
 62
     0
 92
       -2
340
14
 93
        0
 40
1.125
309
GRIDFORMAT_END
309
TABLEFORMAT_END
  1
CELLSTYLE_BEGIN
 90
        2
 91
        1
300
_HEADER
309
CELLSTYLE_END
300
CELLSTYLE
  1
TABLEFORMAT_BEGIN
 90
        5
170
     1
 91
        0
 92
        0
 62
   257
 93
        1
300
CONTENTFORMAT
  1
CONTENTFORMAT_BEGIN
 90
        0
 91
        0
 92
      512
 93
        0
300

 40
0.0
140
1.0
 94
        2
 62
     0
340
11
144
4.5
309
CONTENTFORMAT_END
171
     1
301
MARGIN
  1
CELLMARGIN_BEGIN
 40
1.5
 40
1.5
 40
1.5
 40
1.5
 40
4.5
 40
4.5
309
CELLMARGIN_END
 94
        6
 95
        1
302
GRIDFORMAT
  1
GRIDFORMAT_BEGIN
 90
        0
 91
        1
 62
     0
 92
       -2
340
14
 93
        0
 40
1.125
309
GRIDFORMAT_END
 95
        2
302
GRIDFORMAT
  1
GRIDFORMAT_BEGIN
 90
        0
 91
        1
 62
     0
 92
       -2
340
14
 93
        0
 40
1.125
309
GRIDFORMAT_END
 95
        4
302
GRIDFORMAT
  1
GRIDFORMAT_BEGIN
 90
        0
 91
        1
 62
     0
 92
       -2
340
14
 93
        0
 40
1.125
309
GRIDFORMAT_END
 95
        8
302
GRIDFORMAT
  1
GRIDFORMAT_BEGIN
 90
        0
 91
        1
 62
     0
 92
       -2
340
14
 93
        0
 40
1.125
309
GRIDFORMAT_END
 95
       16
302
GRIDFORMAT
  1
GRIDFORMAT_BEGIN
 90
        0
 91
        1
 62
     0
 92
       -2
340
14
 93
        0
 40
1.125
309
GRIDFORMAT_END
 95
       32
302
GRIDFORMAT
  1
GRIDFORMAT_BEGIN
 90
        0
 91
        1
 62
     0
 92
       -2
340
14
 93
        0
 40
1.125
309
GRIDFORMAT_END
309
TABLEFORMAT_END
  1
CELLSTYLE_BEGIN
 90
        3
 91
        2
300
_DATA
309
CELLSTYLE_END
  0
XRECORD
  5
C8B2
102
{ACAD_REACTORS
330
162
102
}
330
162
100
AcDbXrecord
280
     1
102
ACAD_ROUNDTRIP_PRE2007_TABLESTYLE
 90
      512
 91
        0
  1

 92
      512
 93
        0
  2

 94
      512
 95
        0
  3

  0
XRECORD
  5
C8C5
102
{ACAD_REACTORS
330
C8C4
102
}
330
C8C4
100
AcDbXrecord
280
     1
102
RTVSPost2010Prop28
280
     1
102
RTVSPost2010PropOp28
 70
     1
102
RTVSPost2010Prop29
280
     1
102
RTVSPost2010PropOp29
 70
     1
102
RTVSPost2010Prop30
280
     0
102
RTVSPost2010PropOp30
 70
     1
102
RTVSPost2010Prop31
280
     0
102
RTVSPost2010PropOp31
 70
     1
102
RTVSPost2010Prop32
280
     0
102
RTVSPost2010PropOp32
 70
     1
102
RTVSPost2010Prop33
280
     0
102
RTVSPost2010PropOp33
 70
     1
102
RTVSPost2010Prop34
280
     0
102
RTVSPost2010PropOp34
 70
     1
102
RTVSPost2010Prop35
280
     0
102
RTVSPost2010PropOp35
 70
     1
102
RTVSPost2010Prop36
280
     0
102
RTVSPost2010PropOp36
 70
     1
102
RTVSPost2010Prop37
 90
       50
102
RTVSPost2010PropOp37
 70
     1
102
RTVSPost2010Prop38
140
0.0
102
RTVSPost2010PropOp38
 70
     1
102
RTVSPost2010Prop39
140
1.0
102
RTVSPost2010PropOp39
 70
     1
102
RTVSPost2010Prop40
 90
        0
102
RTVSPost2010PropOp40
 70
     1
102
RTVSPost2010Prop41ColorIndex
 90
       18
102
RTVSPost2010Prop41ColorRGB
 90
        0
102
RTVSPost2010PropOp41
 70
     1
102
RTVSPost2010Prop42
 90
       50
102
RTVSPost2010PropOp42
 70
     1
102
RTVSPost2010Prop43
 90
        3
102
RTVSPost2010PropOp43
 70
     1
102
RTVSPost2010Prop44ColorIndex
 90
        5
102
RTVSPost2010Prop44ColorRGB
 90
      255
102
RTVSPost2010PropOp44
 70
     1
102
RTVSPost2010Prop45
280
     0
102
RTVSPost2010PropOp45
 70
     1
102
RTVSPost2010Prop46
 90
       50
102
RTVSPost2010PropOp46
 70
     1
102
RTVSPost2010Prop47
 90
       50
102
RTVSPost2010PropOp47
 70
     1
102
RTVSPost2010Prop48
 90
       50
102
RTVSPost2010PropOp48
 70
     1
102
RTVSPost2010Prop49
280
     0
102
RTVSPost2010PropOp49
 70
     1
102
RTVSPost2010Prop50
 90
       50
102
RTVSPost2010PropOp50
 70
     1
102
RTVSPost2010Prop51ColorIndex
 90
      256
102
RTVSPost2010Prop51ColorRGB
 90
-16777216
102
RTVSPost2010PropOp51
 70
     0
102
RTVSPost2010Prop52
140
1.0
102
RTVSPost2010PropOp52
 70
     0
102
RTVSPost2010Prop53
 90
        2
102
RTVSPost2010PropOp53
 70
     1
102
RTVSPost2010Prop54
  1
strokes_ogs.tif
102
RTVSPost2010PropOp54
 70
     1
102
RTVSPost2010Prop55
280
     0
102
RTVSPost2010PropOp55
 70
     1
102
RTVSPost2010Prop56
140
1.0
102
RTVSPost2010PropOp56
 70
     1
102
RTVSPost2010Prop57
140
1.0
102
RTVSPost2010PropOp57
 70
     1
102
RTVSPropertyOp0
 70
     1
102
RTVSPropertyOp1
 70
     1
102
RTVSPropertyOp2
 70
     1
102
RTVSPropertyOp3
 70
     1
102
RTVSPropertyOp4
 70
     1
102
RTVSPropertyOp5
 70
     1
102
RTVSPropertyOp6
 70
     1
102
RTVSPropertyOp7
 70
     1
102
RTVSPropertyOp8
 70
     1
102
RTVSPropertyOp9
 70
     1
102
RTVSPropertyOp10
 70
     1
102
RTVSPropertyOp11
 70
     1
102
RTVSPropertyOp12
 70
     1
102
RTVSPropertyOp13
 70
     1
102
RTVSPropertyOp14
 70
     1
102
RTVSPropertyOp15
 70
     1
102
RTVSPropertyOp16
 70
     1
102
RTVSPropertyOp17
 70
     1
102
RTVSPropertyOp18
 70
     1
102
RTVSPropertyOp19
 70
     1
102
RTVSPropertyOp20
 70
     1
102
RTVSPropertyOp21
 70
     1
102
RTVSPropertyOp22
 70
     1
102
RTVSPropertyOp23
 70
     1
102
RTVSPropertyOp24
 70
     1
102
RTVSPropertyOp25
 70
     1
102
RTVSPropertyOp26
 70
     1
102
RTVSPropertyOp27
 70
     1
102
RTVSPropertyOp28
 70
     1
102
RTVSPropertyOp29
 70
     1
102
RTVSPropertyOp30
 70
     1
102
RTVSPropertyOp31
 70
     1
102
RTVSPropertyOp32
 70
     1
102
RTVSPropertyOp33
 70
     1
102
RTVSPropertyOp34
 70
     1
102
RTVSPropertyOp35
 70
     1
102
RTVSPropertyOp36
 70
     1
102
RTVSPropertyOp37
 70
     1
102
RTVSPropertyOp38
 70
     1
102
RTVSPropertyOp39
 70
     1
102
RTVSPropertyOp40
 70
     1
102
RTVSPropertyOp41
 70
     1
102
RTVSPropertyOp42
 70
     1
102
RTVSPropertyOp43
 70
     1
102
RTVSPropertyOp44
 70
     1
102
RTVSPropertyOp45
 70
     1
102
RTVSPropertyOp46
 70
     1
102
RTVSPropertyOp47
 70
     1
102
RTVSPropertyOp48
 70
     1
102
RTVSPropertyOp49
 70
     1
102
RTVSPropertyOp50
 70
     1
102
RTVSPropertyOp51
 70
     0
102
RTVSPropertyOp52
 70
     0
102
RTVSPropertyOp53
 70
     1
102
RTVSPropertyOp54
 70
     1
102
RTVSPropertyOp55
 70
     1
102
RTVSPropertyOp56
 70
     1
102
RTVSPropertyOp57
 70
     1
102
RTVSPropertyOp58
 70
     1
102
RTVSPropertyOp59
 70
     1
102
RTVSPropertyOp60
 70
     1
102
RTVSPropertyOp61
 70
     1
102
RTVSPropertyOp62
 70
     1
  0
XRECORD
  5
C8C3
102
{ACAD_REACTORS
330
C8C2
102
}
330
C8C2
100
AcDbXrecord
280
     1
102
RTVSPost2010Prop28
280
     0
102
RTVSPost2010PropOp28
 70
     1
102
RTVSPost2010Prop29
280
     1
102
RTVSPost2010PropOp29
 70
     1
102
RTVSPost2010Prop30
280
     1
102
RTVSPost2010PropOp30
 70
     1
102
RTVSPost2010Prop31
280
     0
102
RTVSPost2010PropOp31
 70
     1
102
RTVSPost2010Prop32
280
     0
102
RTVSPost2010PropOp32
 70
     1
102
RTVSPost2010Prop33
280
     0
102
RTVSPost2010PropOp33
 70
     1
102
RTVSPost2010Prop34
280
     0
102
RTVSPost2010PropOp34
 70
     1
102
RTVSPost2010Prop35
280
     0
102
RTVSPost2010PropOp35
 70
     1
102
RTVSPost2010Prop36
280
     0
102
RTVSPost2010PropOp36
 70
     1
102
RTVSPost2010Prop37
 90
       50
102
RTVSPost2010PropOp37
 70
     1
102
RTVSPost2010Prop38
140
0.0
102
RTVSPost2010PropOp38
 70
     1
102
RTVSPost2010Prop39
140
1.0
102
RTVSPost2010PropOp39
 70
     1
102
RTVSPost2010Prop40
 90
        0
102
RTVSPost2010PropOp40
 70
     1
102
RTVSPost2010Prop41ColorIndex
 90
       18
102
RTVSPost2010Prop41ColorRGB
 90
        0
102
RTVSPost2010PropOp41
 70
     1
102
RTVSPost2010Prop42
 90
       50
102
RTVSPost2010PropOp42
 70
     1
102
RTVSPost2010Prop43
 90
        3
102
RTVSPost2010PropOp43
 70
     1
102
RTVSPost2010Prop44ColorIndex
 90
        5
102
RTVSPost2010Prop44ColorRGB
 90
      255
102
RTVSPost2010PropOp44
 70
     1
102
RTVSPost2010Prop45
280
     0
102
RTVSPost2010PropOp45
 70
     1
102
RTVSPost2010Prop46
 90
       50
102
RTVSPost2010PropOp46
 70
     1
102
RTVSPost2010Prop47
 90
       50
102
RTVSPost2010PropOp47
 70
     1
102
RTVSPost2010Prop48
 90
       50
102
RTVSPost2010PropOp48
 70
     1
102
RTVSPost2010Prop49
280
     0
102
RTVSPost2010PropOp49
 70
     1
102
RTVSPost2010Prop50
 90
       50
102
RTVSPost2010PropOp50
 70
     1
102
RTVSPost2010Prop51ColorIndex
 90
      256
102
RTVSPost2010Prop51ColorRGB
 90
-16777216
102
RTVSPost2010PropOp51
 70
     0
102
RTVSPost2010Prop52
140
1.0
102
RTVSPost2010PropOp52
 70
     0
102
RTVSPost2010Prop53
 90
        2
102
RTVSPost2010PropOp53
 70
     1
102
RTVSPost2010Prop54
  1
strokes_ogs.tif
102
RTVSPost2010PropOp54
 70
     1
102
RTVSPost2010Prop55
280
     0
102
RTVSPost2010PropOp55
 70
     1
102
RTVSPost2010Prop56
140
1.0
102
RTVSPost2010PropOp56
 70
     1
102
RTVSPost2010Prop57
140
1.0
102
RTVSPost2010PropOp57
 70
     1
102
RTVSPropertyOp0
 70
     1
102
RTVSPropertyOp1
 70
     1
102
RTVSPropertyOp2
 70
     1
102
RTVSPropertyOp3
 70
     1
102
RTVSPropertyOp4
 70
     1
102
RTVSPropertyOp5
 70
     1
102
RTVSPropertyOp6
 70
     1
102
RTVSPropertyOp7
 70
     1
102
RTVSPropertyOp8
 70
     1
102
RTVSPropertyOp9
 70
     1
102
RTVSPropertyOp10
 70
     1
102
RTVSPropertyOp11
 70
     1
102
RTVSPropertyOp12
 70
     1
102
RTVSPropertyOp13
 70
     1
102
RTVSPropertyOp14
 70
     1
102
RTVSPropertyOp15
 70
     1
102
RTVSPropertyOp16
 70
     1
102
RTVSPropertyOp17
 70
     1
102
RTVSPropertyOp18
 70
     1
102
RTVSPropertyOp19
 70
     1
102
RTVSPropertyOp20
 70
     1
102
RTVSPropertyOp21
 70
     1
102
RTVSPropertyOp22
 70
     1
102
RTVSPropertyOp23
 70
     1
102
RTVSPropertyOp24
 70
     1
102
RTVSPropertyOp25
 70
     1
102
RTVSPropertyOp26
 70
     1
102
RTVSPropertyOp27
 70
     1
102
RTVSPropertyOp28
 70
     1
102
RTVSPropertyOp29
 70
     1
102
RTVSPropertyOp30
 70
     1
102
RTVSPropertyOp31
 70
     1
102
RTVSPropertyOp32
 70
     1
102
RTVSPropertyOp33
 70
     1
102
RTVSPropertyOp34
 70
     1
102
RTVSPropertyOp35
 70
     1
102
RTVSPropertyOp36
 70
     1
102
RTVSPropertyOp37
 70
     1
102
RTVSPropertyOp38
 70
     1
102
RTVSPropertyOp39
 70
     1
102
RTVSPropertyOp40
 70
     1
102
RTVSPropertyOp41
 70
     1
102
RTVSPropertyOp42
 70
     1
102
RTVSPropertyOp43
 70
     1
102
RTVSPropertyOp44
 70
     1
102
RTVSPropertyOp45
 70
     1
102
RTVSPropertyOp46
 70
     1
102
RTVSPropertyOp47
 70
     1
102
RTVSPropertyOp48
 70
     1
102
RTVSPropertyOp49
 70
     1
102
RTVSPropertyOp50
 70
     1
102
RTVSPropertyOp51
 70
     0
102
RTVSPropertyOp52
 70
     0
102
RTVSPropertyOp53
 70
     1
102
RTVSPropertyOp54
 70
     1
102
RTVSPropertyOp55
 70
     1
102
RTVSPropertyOp56
 70
     1
102
RTVSPropertyOp57
 70
     1
102
RTVSPropertyOp58
 70
     1
102
RTVSPropertyOp59
 70
     1
102
RTVSPropertyOp60
 70
     1
102
RTVSPropertyOp61
 70
     1
102
RTVSPropertyOp62
 70
     1
  0
XRECORD
  5
C8D1
102
{ACAD_REACTORS
330
C8D0
102
}
330
C8D0
100
AcDbXrecord
280
     1
102
RTVSPost2010Prop28
280
     0
102
RTVSPost2010PropOp28
 70
     1
102
RTVSPost2010Prop29
280
     1
102
RTVSPost2010PropOp29
 70
     1
102
RTVSPost2010Prop30
280
     1
102
RTVSPost2010PropOp30
 70
     1
102
RTVSPost2010Prop31
280
     0
102
RTVSPost2010PropOp31
 70
     1
102
RTVSPost2010Prop32
280
     0
102
RTVSPost2010PropOp32
 70
     1
102
RTVSPost2010Prop33
280
     0
102
RTVSPost2010PropOp33
 70
     1
102
RTVSPost2010Prop34
280
     0
102
RTVSPost2010PropOp34
 70
     1
102
RTVSPost2010Prop35
280
     0
102
RTVSPost2010PropOp35
 70
     1
102
RTVSPost2010Prop36
280
     0
102
RTVSPost2010PropOp36
 70
     1
102
RTVSPost2010Prop37
 90
       50
102
RTVSPost2010PropOp37
 70
     1
102
RTVSPost2010Prop38
140
0.0
102
RTVSPost2010PropOp38
 70
     1
102
RTVSPost2010Prop39
140
1.0
102
RTVSPost2010PropOp39
 70
     1
102
RTVSPost2010Prop40
 90
        0
102
RTVSPost2010PropOp40
 70
     1
102
RTVSPost2010Prop41ColorIndex
 90
       18
102
RTVSPost2010Prop41ColorRGB
 90
        0
102
RTVSPost2010PropOp41
 70
     1
102
RTVSPost2010Prop42
 90
       50
102
RTVSPost2010PropOp42
 70
     1
102
RTVSPost2010Prop43
 90
        3
102
RTVSPost2010PropOp43
 70
     1
102
RTVSPost2010Prop44ColorIndex
 90
        5
102
RTVSPost2010Prop44ColorRGB
 90
      255
102
RTVSPost2010PropOp44
 70
     1
102
RTVSPost2010Prop45
280
     0
102
RTVSPost2010PropOp45
 70
     1
102
RTVSPost2010Prop46
 90
       50
102
RTVSPost2010PropOp46
 70
     1
102
RTVSPost2010Prop47
 90
       50
102
RTVSPost2010PropOp47
 70
     1
102
RTVSPost2010Prop48
 90
       50
102
RTVSPost2010PropOp48
 70
     1
102
RTVSPost2010Prop49
280
     0
102
RTVSPost2010PropOp49
 70
     1
102
RTVSPost2010Prop50
 90
       50
102
RTVSPost2010PropOp50
 70
     1
102
RTVSPost2010Prop51ColorIndex
 90
      256
102
RTVSPost2010Prop51ColorRGB
 90
-16777216
102
RTVSPost2010PropOp51
 70
     0
102
RTVSPost2010Prop52
140
1.0
102
RTVSPost2010PropOp52
 70
     0
102
RTVSPost2010Prop53
 90
        2
102
RTVSPost2010PropOp53
 70
     1
102
RTVSPost2010Prop54
  1
strokes_ogs.tif
102
RTVSPost2010PropOp54
 70
     1
102
RTVSPost2010Prop55
280
     0
102
RTVSPost2010PropOp55
 70
     1
102
RTVSPost2010Prop56
140
1.0
102
RTVSPost2010PropOp56
 70
     1
102
RTVSPost2010Prop57
140
1.0
102
RTVSPost2010PropOp57
 70
     1
102
RTVSPropertyOp0
 70
     1
102
RTVSPropertyOp1
 70
     1
102
RTVSPropertyOp2
 70
     1
102
RTVSPropertyOp3
 70
     1
102
RTVSPropertyOp4
 70
     1
102
RTVSPropertyOp5
 70
     1
102
RTVSPropertyOp6
 70
     1
102
RTVSPropertyOp7
 70
     1
102
RTVSPropertyOp8
 70
     1
102
RTVSPropertyOp9
 70
     1
102
RTVSPropertyOp10
 70
     1
102
RTVSPropertyOp11
 70
     1
102
RTVSPropertyOp12
 70
     1
102
RTVSPropertyOp13
 70
     1
102
RTVSPropertyOp14
 70
     1
102
RTVSPropertyOp15
 70
     1
102
RTVSPropertyOp16
 70
     1
102
RTVSPropertyOp17
 70
     1
102
RTVSPropertyOp18
 70
     1
102
RTVSPropertyOp19
 70
     1
102
RTVSPropertyOp20
 70
     1
102
RTVSPropertyOp21
 70
     1
102
RTVSPropertyOp22
 70
     1
102
RTVSPropertyOp23
 70
     1
102
RTVSPropertyOp24
 70
     1
102
RTVSPropertyOp25
 70
     1
102
RTVSPropertyOp26
 70
     1
102
RTVSPropertyOp27
 70
     1
102
RTVSPropertyOp28
 70
     1
102
RTVSPropertyOp29
 70
     1
102
RTVSPropertyOp30
 70
     1
102
RTVSPropertyOp31
 70
     1
102
RTVSPropertyOp32
 70
     1
102
RTVSPropertyOp33
 70
     1
102
RTVSPropertyOp34
 70
     1
102
RTVSPropertyOp35
 70
     1
102
RTVSPropertyOp36
 70
     1
102
RTVSPropertyOp37
 70
     1
102
RTVSPropertyOp38
 70
     1
102
RTVSPropertyOp39
 70
     1
102
RTVSPropertyOp40
 70
     1
102
RTVSPropertyOp41
 70
     1
102
RTVSPropertyOp42
 70
     1
102
RTVSPropertyOp43
 70
     1
102
RTVSPropertyOp44
 70
     1
102
RTVSPropertyOp45
 70
     1
102
RTVSPropertyOp46
 70
     1
102
RTVSPropertyOp47
 70
     1
102
RTVSPropertyOp48
 70
     1
102
RTVSPropertyOp49
 70
     1
102
RTVSPropertyOp50
 70
     1
102
RTVSPropertyOp51
 70
     0
102
RTVSPropertyOp52
 70
     0
102
RTVSPropertyOp53
 70
     1
102
RTVSPropertyOp54
 70
     1
102
RTVSPropertyOp55
 70
     1
102
RTVSPropertyOp56
 70
     1
102
RTVSPropertyOp57
 70
     1
102
RTVSPropertyOp58
 70
     1
102
RTVSPropertyOp59
 70
     1
102
RTVSPropertyOp60
 70
     1
102
RTVSPropertyOp61
 70
     1
102
RTVSPropertyOp62
 70
     1
  0
XRECORD
  5
C8D9
102
{ACAD_REACTORS
330
C8D8
102
}
330
C8D8
100
AcDbXrecord
280
     1
102
RTVSPost2010Prop28
280
     0
102
RTVSPost2010PropOp28
 70
     1
102
RTVSPost2010Prop29
280
     1
102
RTVSPost2010PropOp29
 70
     1
102
RTVSPost2010Prop30
280
     1
102
RTVSPost2010PropOp30
 70
     1
102
RTVSPost2010Prop31
280
     0
102
RTVSPost2010PropOp31
 70
     1
102
RTVSPost2010Prop32
280
     0
102
RTVSPost2010PropOp32
 70
     1
102
RTVSPost2010Prop33
280
     0
102
RTVSPost2010PropOp33
 70
     1
102
RTVSPost2010Prop34
280
     0
102
RTVSPost2010PropOp34
 70
     1
102
RTVSPost2010Prop35
280
     0
102
RTVSPost2010PropOp35
 70
     1
102
RTVSPost2010Prop36
280
     0
102
RTVSPost2010PropOp36
 70
     1
102
RTVSPost2010Prop37
 90
       50
102
RTVSPost2010PropOp37
 70
     1
102
RTVSPost2010Prop38
140
0.0
102
RTVSPost2010PropOp38
 70
     1
102
RTVSPost2010Prop39
140
1.0
102
RTVSPost2010PropOp39
 70
     1
102
RTVSPost2010Prop40
 90
        0
102
RTVSPost2010PropOp40
 70
     1
102
RTVSPost2010Prop41ColorIndex
 90
       18
102
RTVSPost2010Prop41ColorRGB
 90
        0
102
RTVSPost2010PropOp41
 70
     1
102
RTVSPost2010Prop42
 90
       50
102
RTVSPost2010PropOp42
 70
     1
102
RTVSPost2010Prop43
 90
        3
102
RTVSPost2010PropOp43
 70
     1
102
RTVSPost2010Prop44ColorIndex
 90
        5
102
RTVSPost2010Prop44ColorRGB
 90
      255
102
RTVSPost2010PropOp44
 70
     1
102
RTVSPost2010Prop45
280
     0
102
RTVSPost2010PropOp45
 70
     1
102
RTVSPost2010Prop46
 90
       50
102
RTVSPost2010PropOp46
 70
     1
102
RTVSPost2010Prop47
 90
       50
102
RTVSPost2010PropOp47
 70
     1
102
RTVSPost2010Prop48
 90
       50
102
RTVSPost2010PropOp48
 70
     1
102
RTVSPost2010Prop49
280
     0
102
RTVSPost2010PropOp49
 70
     1
102
RTVSPost2010Prop50
 90
       50
102
RTVSPost2010PropOp50
 70
     1
102
RTVSPost2010Prop51ColorIndex
 90
      256
102
RTVSPost2010Prop51ColorRGB
 90
-16777216
102
RTVSPost2010PropOp51
 70
     0
102
RTVSPost2010Prop52
140
1.0
102
RTVSPost2010PropOp52
 70
     0
102
RTVSPost2010Prop53
 90
        2
102
RTVSPost2010PropOp53
 70
     1
102
RTVSPost2010Prop54
  1
strokes_ogs.tif
102
RTVSPost2010PropOp54
 70
     1
102
RTVSPost2010Prop55
280
     0
102
RTVSPost2010PropOp55
 70
     1
102
RTVSPost2010Prop56
140
1.0
102
RTVSPost2010PropOp56
 70
     1
102
RTVSPost2010Prop57
140
1.0
102
RTVSPost2010PropOp57
 70
     1
102
RTVSPropertyOp0
 70
     1
102
RTVSPropertyOp1
 70
     1
102
RTVSPropertyOp2
 70
     1
102
RTVSPropertyOp3
 70
     1
102
RTVSPropertyOp4
 70
     1
102
RTVSPropertyOp5
 70
     1
102
RTVSPropertyOp6
 70
     1
102
RTVSPropertyOp7
 70
     1
102
RTVSPropertyOp8
 70
     1
102
RTVSPropertyOp9
 70
     1
102
RTVSPropertyOp10
 70
     1
102
RTVSPropertyOp11
 70
     1
102
RTVSPropertyOp12
 70
     1
102
RTVSPropertyOp13
 70
     1
102
RTVSPropertyOp14
 70
     1
102
RTVSPropertyOp15
 70
     1
102
RTVSPropertyOp16
 70
     1
102
RTVSPropertyOp17
 70
     1
102
RTVSPropertyOp18
 70
     1
102
RTVSPropertyOp19
 70
     1
102
RTVSPropertyOp20
 70
     1
102
RTVSPropertyOp21
 70
     1
102
RTVSPropertyOp22
 70
     1
102
RTVSPropertyOp23
 70
     1
102
RTVSPropertyOp24
 70
     1
102
RTVSPropertyOp25
 70
     1
102
RTVSPropertyOp26
 70
     1
102
RTVSPropertyOp27
 70
     1
102
RTVSPropertyOp28
 70
     1
102
RTVSPropertyOp29
 70
     1
102
RTVSPropertyOp30
 70
     1
102
RTVSPropertyOp31
 70
     1
102
RTVSPropertyOp32
 70
     1
102
RTVSPropertyOp33
 70
     1
102
RTVSPropertyOp34
 70
     1
102
RTVSPropertyOp35
 70
     1
102
RTVSPropertyOp36
 70
     1
102
RTVSPropertyOp37
 70
     1
102
RTVSPropertyOp38
 70
     1
102
RTVSPropertyOp39
 70
     1
102
RTVSPropertyOp40
 70
     1
102
RTVSPropertyOp41
 70
     1
102
RTVSPropertyOp42
 70
     1
102
RTVSPropertyOp43
 70
     1
102
RTVSPropertyOp44
 70
     1
102
RTVSPropertyOp45
 70
     1
102
RTVSPropertyOp46
 70
     1
102
RTVSPropertyOp47
 70
     1
102
RTVSPropertyOp48
 70
     1
102
RTVSPropertyOp49
 70
     1
102
RTVSPropertyOp50
 70
     1
102
RTVSPropertyOp51
 70
     0
102
RTVSPropertyOp52
 70
     0
102
RTVSPropertyOp53
 70
     1
102
RTVSPropertyOp54
 70
     1
102
RTVSPropertyOp55
 70
     1
102
RTVSPropertyOp56
 70
     1
102
RTVSPropertyOp57
 70
     1
102
RTVSPropertyOp58
 70
     1
102
RTVSPropertyOp59
 70
     1
102
RTVSPropertyOp60
 70
     1
102
RTVSPropertyOp61
 70
     1
102
RTVSPropertyOp62
 70
     1
  0
XRECORD
  5
C8CB
102
{ACAD_REACTORS
330
C8CA
102
}
330
C8CA
100
AcDbXrecord
280
     1
102
RTVSPost2010Prop28
280
     0
102
RTVSPost2010PropOp28
 70
     1
102
RTVSPost2010Prop29
280
     1
102
RTVSPost2010PropOp29
 70
     1
102
RTVSPost2010Prop30
280
     1
102
RTVSPost2010PropOp30
 70
     1
102
RTVSPost2010Prop31
280
     0
102
RTVSPost2010PropOp31
 70
     1
102
RTVSPost2010Prop32
280
     0
102
RTVSPost2010PropOp32
 70
     1
102
RTVSPost2010Prop33
280
     0
102
RTVSPost2010PropOp33
 70
     1
102
RTVSPost2010Prop34
280
     0
102
RTVSPost2010PropOp34
 70
     1
102
RTVSPost2010Prop35
280
     0
102
RTVSPost2010PropOp35
 70
     1
102
RTVSPost2010Prop36
280
     0
102
RTVSPost2010PropOp36
 70
     1
102
RTVSPost2010Prop37
 90
       50
102
RTVSPost2010PropOp37
 70
     1
102
RTVSPost2010Prop38
140
0.0
102
RTVSPost2010PropOp38
 70
     1
102
RTVSPost2010Prop39
140
1.0
102
RTVSPost2010PropOp39
 70
     1
102
RTVSPost2010Prop40
 90
        0
102
RTVSPost2010PropOp40
 70
     1
102
RTVSPost2010Prop41ColorIndex
 90
       18
102
RTVSPost2010Prop41ColorRGB
 90
        0
102
RTVSPost2010PropOp41
 70
     1
102
RTVSPost2010Prop42
 90
       50
102
RTVSPost2010PropOp42
 70
     1
102
RTVSPost2010Prop43
 90
        3
102
RTVSPost2010PropOp43
 70
     1
102
RTVSPost2010Prop44ColorIndex
 90
        5
102
RTVSPost2010Prop44ColorRGB
 90
      255
102
RTVSPost2010PropOp44
 70
     1
102
RTVSPost2010Prop45
280
     0
102
RTVSPost2010PropOp45
 70
     1
102
RTVSPost2010Prop46
 90
       50
102
RTVSPost2010PropOp46
 70
     1
102
RTVSPost2010Prop47
 90
       50
102
RTVSPost2010PropOp47
 70
     1
102
RTVSPost2010Prop48
 90
       50
102
RTVSPost2010PropOp48
 70
     1
102
RTVSPost2010Prop49
280
     0
102
RTVSPost2010PropOp49
 70
     1
102
RTVSPost2010Prop50
 90
       50
102
RTVSPost2010PropOp50
 70
     1
102
RTVSPost2010Prop51ColorIndex
 90
      256
102
RTVSPost2010Prop51ColorRGB
 90
-16777216
102
RTVSPost2010PropOp51
 70
     0
102
RTVSPost2010Prop52
140
1.0
102
RTVSPost2010PropOp52
 70
     0
102
RTVSPost2010Prop53
 90
        2
102
RTVSPost2010PropOp53
 70
     1
102
RTVSPost2010Prop54
  1
strokes_ogs.tif
102
RTVSPost2010PropOp54
 70
     1
102
RTVSPost2010Prop55
280
     0
102
RTVSPost2010PropOp55
 70
     1
102
RTVSPost2010Prop56
140
1.0
102
RTVSPost2010PropOp56
 70
     1
102
RTVSPost2010Prop57
140
1.0
102
RTVSPost2010PropOp57
 70
     1
102
RTVSPropertyOp0
 70
     1
102
RTVSPropertyOp1
 70
     1
102
RTVSPropertyOp2
 70
     1
102
RTVSPropertyOp3
 70
     1
102
RTVSPropertyOp4
 70
     1
102
RTVSPropertyOp5
 70
     1
102
RTVSPropertyOp6
 70
     1
102
RTVSPropertyOp7
 70
     1
102
RTVSPropertyOp8
 70
     1
102
RTVSPropertyOp9
 70
     1
102
RTVSPropertyOp10
 70
     1
102
RTVSPropertyOp11
 70
     1
102
RTVSPropertyOp12
 70
     1
102
RTVSPropertyOp13
 70
     1
102
RTVSPropertyOp14
 70
     1
102
RTVSPropertyOp15
 70
     1
102
RTVSPropertyOp16
 70
     1
102
RTVSPropertyOp17
 70
     1
102
RTVSPropertyOp18
 70
     1
102
RTVSPropertyOp19
 70
     1
102
RTVSPropertyOp20
 70
     1
102
RTVSPropertyOp21
 70
     1
102
RTVSPropertyOp22
 70
     1
102
RTVSPropertyOp23
 70
     1
102
RTVSPropertyOp24
 70
     1
102
RTVSPropertyOp25
 70
     1
102
RTVSPropertyOp26
 70
     1
102
RTVSPropertyOp27
 70
     1
102
RTVSPropertyOp28
 70
     1
102
RTVSPropertyOp29
 70
     1
102
RTVSPropertyOp30
 70
     1
102
RTVSPropertyOp31
 70
     1
102
RTVSPropertyOp32
 70
     1
102
RTVSPropertyOp33
 70
     1
102
RTVSPropertyOp34
 70
     1
102
RTVSPropertyOp35
 70
     1
102
RTVSPropertyOp36
 70
     1
102
RTVSPropertyOp37
 70
     1
102
RTVSPropertyOp38
 70
     1
102
RTVSPropertyOp39
 70
     1
102
RTVSPropertyOp40
 70
     1
102
RTVSPropertyOp41
 70
     1
102
RTVSPropertyOp42
 70
     1
102
RTVSPropertyOp43
 70
     1
102
RTVSPropertyOp44
 70
     1
102
RTVSPropertyOp45
 70
     1
102
RTVSPropertyOp46
 70
     1
102
RTVSPropertyOp47
 70
     1
102
RTVSPropertyOp48
 70
     1
102
RTVSPropertyOp49
 70
     1
102
RTVSPropertyOp50
 70
     1
102
RTVSPropertyOp51
 70
     0
102
RTVSPropertyOp52
 70
     0
102
RTVSPropertyOp53
 70
     1
102
RTVSPropertyOp54
 70
     1
102
RTVSPropertyOp55
 70
     1
102
RTVSPropertyOp56
 70
     1
102
RTVSPropertyOp57
 70
     1
102
RTVSPropertyOp58
 70
     1
102
RTVSPropertyOp59
 70
     1
102
RTVSPropertyOp60
 70
     1
102
RTVSPropertyOp61
 70
     1
102
RTVSPropertyOp62
 70
     1
  0
XRECORD
  5
C8CF
102
{ACAD_REACTORS
330
C8CE
102
}
330
C8CE
100
AcDbXrecord
280
     1
102
RTVSPost2010Prop28
280
     0
102
RTVSPost2010PropOp28
 70
     1
102
RTVSPost2010Prop29
280
     1
102
RTVSPost2010PropOp29
 70
     1
102
RTVSPost2010Prop30
280
     1
102
RTVSPost2010PropOp30
 70
     1
102
RTVSPost2010Prop31
280
     0
102
RTVSPost2010PropOp31
 70
     1
102
RTVSPost2010Prop32
280
     0
102
RTVSPost2010PropOp32
 70
     1
102
RTVSPost2010Prop33
280
     0
102
RTVSPost2010PropOp33
 70
     1
102
RTVSPost2010Prop34
280
     0
102
RTVSPost2010PropOp34
 70
     1
102
RTVSPost2010Prop35
280
     0
102
RTVSPost2010PropOp35
 70
     1
102
RTVSPost2010Prop36
280
     0
102
RTVSPost2010PropOp36
 70
     1
102
RTVSPost2010Prop37
 90
       50
102
RTVSPost2010PropOp37
 70
     1
102
RTVSPost2010Prop38
140
0.0
102
RTVSPost2010PropOp38
 70
     1
102
RTVSPost2010Prop39
140
1.0
102
RTVSPost2010PropOp39
 70
     1
102
RTVSPost2010Prop40
 90
        0
102
RTVSPost2010PropOp40
 70
     1
102
RTVSPost2010Prop41ColorIndex
 90
       18
102
RTVSPost2010Prop41ColorRGB
 90
        0
102
RTVSPost2010PropOp41
 70
     1
102
RTVSPost2010Prop42
 90
       50
102
RTVSPost2010PropOp42
 70
     1
102
RTVSPost2010Prop43
 90
        3
102
RTVSPost2010PropOp43
 70
     1
102
RTVSPost2010Prop44ColorIndex
 90
        5
102
RTVSPost2010Prop44ColorRGB
 90
      255
102
RTVSPost2010PropOp44
 70
     1
102
RTVSPost2010Prop45
280
     0
102
RTVSPost2010PropOp45
 70
     1
102
RTVSPost2010Prop46
 90
       50
102
RTVSPost2010PropOp46
 70
     1
102
RTVSPost2010Prop47
 90
       50
102
RTVSPost2010PropOp47
 70
     1
102
RTVSPost2010Prop48
 90
       50
102
RTVSPost2010PropOp48
 70
     1
102
RTVSPost2010Prop49
280
     0
102
RTVSPost2010PropOp49
 70
     1
102
RTVSPost2010Prop50
 90
       50
102
RTVSPost2010PropOp50
 70
     1
102
RTVSPost2010Prop51ColorIndex
 90
      256
102
RTVSPost2010Prop51ColorRGB
 90
-16777216
102
RTVSPost2010PropOp51
 70
     0
102
RTVSPost2010Prop52
140
1.0
102
RTVSPost2010PropOp52
 70
     0
102
RTVSPost2010Prop53
 90
        2
102
RTVSPost2010PropOp53
 70
     1
102
RTVSPost2010Prop54
  1
strokes_ogs.tif
102
RTVSPost2010PropOp54
 70
     1
102
RTVSPost2010Prop55
280
     0
102
RTVSPost2010PropOp55
 70
     1
102
RTVSPost2010Prop56
140
1.0
102
RTVSPost2010PropOp56
 70
     1
102
RTVSPost2010Prop57
140
1.0
102
RTVSPost2010PropOp57
 70
     1
102
RTVSPropertyOp0
 70
     1
102
RTVSPropertyOp1
 70
     1
102
RTVSPropertyOp2
 70
     1
102
RTVSPropertyOp3
 70
     1
102
RTVSPropertyOp4
 70
     1
102
RTVSPropertyOp5
 70
     1
102
RTVSPropertyOp6
 70
     1
102
RTVSPropertyOp7
 70
     1
102
RTVSPropertyOp8
 70
     1
102
RTVSPropertyOp9
 70
     1
102
RTVSPropertyOp10
 70
     1
102
RTVSPropertyOp11
 70
     1
102
RTVSPropertyOp12
 70
     1
102
RTVSPropertyOp13
 70
     1
102
RTVSPropertyOp14
 70
     1
102
RTVSPropertyOp15
 70
     1
102
RTVSPropertyOp16
 70
     1
102
RTVSPropertyOp17
 70
     1
102
RTVSPropertyOp18
 70
     1
102
RTVSPropertyOp19
 70
     1
102
RTVSPropertyOp20
 70
     1
102
RTVSPropertyOp21
 70
     1
102
RTVSPropertyOp22
 70
     1
102
RTVSPropertyOp23
 70
     1
102
RTVSPropertyOp24
 70
     1
102
RTVSPropertyOp25
 70
     1
102
RTVSPropertyOp26
 70
     1
102
RTVSPropertyOp27
 70
     1
102
RTVSPropertyOp28
 70
     1
102
RTVSPropertyOp29
 70
     1
102
RTVSPropertyOp30
 70
     1
102
RTVSPropertyOp31
 70
     1
102
RTVSPropertyOp32
 70
     1
102
RTVSPropertyOp33
 70
     1
102
RTVSPropertyOp34
 70
     1
102
RTVSPropertyOp35
 70
     1
102
RTVSPropertyOp36
 70
     1
102
RTVSPropertyOp37
 70
     1
102
RTVSPropertyOp38
 70
     1
102
RTVSPropertyOp39
 70
     1
102
RTVSPropertyOp40
 70
     1
102
RTVSPropertyOp41
 70
     1
102
RTVSPropertyOp42
 70
     1
102
RTVSPropertyOp43
 70
     1
102
RTVSPropertyOp44
 70
     1
102
RTVSPropertyOp45
 70
     1
102
RTVSPropertyOp46
 70
     1
102
RTVSPropertyOp47
 70
     1
102
RTVSPropertyOp48
 70
     1
102
RTVSPropertyOp49
 70
     1
102
RTVSPropertyOp50
 70
     1
102
RTVSPropertyOp51
 70
     0
102
RTVSPropertyOp52
 70
     0
102
RTVSPropertyOp53
 70
     1
102
RTVSPropertyOp54
 70
     1
102
RTVSPropertyOp55
 70
     1
102
RTVSPropertyOp56
 70
     1
102
RTVSPropertyOp57
 70
     1
102
RTVSPropertyOp58
 70
     1
102
RTVSPropertyOp59
 70
     1
102
RTVSPropertyOp60
 70
     1
102
RTVSPropertyOp61
 70
     1
102
RTVSPropertyOp62
 70
     1
  0
XRECORD
  5
C8E1
102
{ACAD_REACTORS
330
C8E0
102
}
330
C8E0
100
AcDbXrecord
280
     1
102
RTVSPost2010Prop28
280
     0
102
RTVSPost2010PropOp28
 70
     1
102
RTVSPost2010Prop29
280
     1
102
RTVSPost2010PropOp29
 70
     1
102
RTVSPost2010Prop30
280
     1
102
RTVSPost2010PropOp30
 70
     1
102
RTVSPost2010Prop31
280
     0
102
RTVSPost2010PropOp31
 70
     1
102
RTVSPost2010Prop32
280
     0
102
RTVSPost2010PropOp32
 70
     1
102
RTVSPost2010Prop33
280
     0
102
RTVSPost2010PropOp33
 70
     1
102
RTVSPost2010Prop34
280
     0
102
RTVSPost2010PropOp34
 70
     1
102
RTVSPost2010Prop35
280
     0
102
RTVSPost2010PropOp35
 70
     1
102
RTVSPost2010Prop36
280
     0
102
RTVSPost2010PropOp36
 70
     1
102
RTVSPost2010Prop37
 90
       50
102
RTVSPost2010PropOp37
 70
     1
102
RTVSPost2010Prop38
140
0.0
102
RTVSPost2010PropOp38
 70
     1
102
RTVSPost2010Prop39
140
1.0
102
RTVSPost2010PropOp39
 70
     1
102
RTVSPost2010Prop40
 90
        0
102
RTVSPost2010PropOp40
 70
     1
102
RTVSPost2010Prop41ColorIndex
 90
       18
102
RTVSPost2010Prop41ColorRGB
 90
        0
102
RTVSPost2010PropOp41
 70
     1
102
RTVSPost2010Prop42
 90
       50
102
RTVSPost2010PropOp42
 70
     1
102
RTVSPost2010Prop43
 90
        3
102
RTVSPost2010PropOp43
 70
     1
102
RTVSPost2010Prop44ColorIndex
 90
        5
102
RTVSPost2010Prop44ColorRGB
 90
      255
102
RTVSPost2010PropOp44
 70
     1
102
RTVSPost2010Prop45
280
     0
102
RTVSPost2010PropOp45
 70
     1
102
RTVSPost2010Prop46
 90
       50
102
RTVSPost2010PropOp46
 70
     1
102
RTVSPost2010Prop47
 90
       50
102
RTVSPost2010PropOp47
 70
     1
102
RTVSPost2010Prop48
 90
       50
102
RTVSPost2010PropOp48
 70
     1
102
RTVSPost2010Prop49
280
     0
102
RTVSPost2010PropOp49
 70
     1
102
RTVSPost2010Prop50
 90
       50
102
RTVSPost2010PropOp50
 70
     1
102
RTVSPost2010Prop51ColorIndex
 90
      256
102
RTVSPost2010Prop51ColorRGB
 90
-16777216
102
RTVSPost2010PropOp51
 70
     0
102
RTVSPost2010Prop52
140
1.0
102
RTVSPost2010PropOp52
 70
     0
102
RTVSPost2010Prop53
 90
        2
102
RTVSPost2010PropOp53
 70
     1
102
RTVSPost2010Prop54
  1
strokes_ogs.tif
102
RTVSPost2010PropOp54
 70
     1
102
RTVSPost2010Prop55
280
     0
102
RTVSPost2010PropOp55
 70
     1
102
RTVSPost2010Prop56
140
1.0
102
RTVSPost2010PropOp56
 70
     1
102
RTVSPost2010Prop57
140
1.0
102
RTVSPost2010PropOp57
 70
     1
102
RTVSPropertyOp0
 70
     0
102
RTVSPropertyOp1
 70
     0
102
RTVSPropertyOp2
 70
     0
102
RTVSPropertyOp3
 70
     0
102
RTVSPropertyOp4
 70
     0
102
RTVSPropertyOp5
 70
     0
102
RTVSPropertyOp6
 70
     0
102
RTVSPropertyOp7
 70
     0
102
RTVSPropertyOp8
 70
     0
102
RTVSPropertyOp9
 70
     0
102
RTVSPropertyOp10
 70
     0
102
RTVSPropertyOp11
 70
     0
102
RTVSPropertyOp12
 70
     0
102
RTVSPropertyOp13
 70
     0
102
RTVSPropertyOp14
 70
     2
102
RTVSPropertyOp15
 70
     0
102
RTVSPropertyOp16
 70
     0
102
RTVSPropertyOp17
 70
     0
102
RTVSPropertyOp18
 70
     0
102
RTVSPropertyOp19
 70
     0
102
RTVSPropertyOp20
 70
     0
102
RTVSPropertyOp21
 70
     0
102
RTVSPropertyOp22
 70
     0
102
RTVSPropertyOp23
 70
     0
102
RTVSPropertyOp24
 70
     0
102
RTVSPropertyOp25
 70
     0
102
RTVSPropertyOp26
 70
     0
102
RTVSPropertyOp27
 70
     0
102
RTVSPropertyOp28
 70
     1
102
RTVSPropertyOp29
 70
     1
102
RTVSPropertyOp30
 70
     1
102
RTVSPropertyOp31
 70
     1
102
RTVSPropertyOp32
 70
     1
102
RTVSPropertyOp33
 70
     1
102
RTVSPropertyOp34
 70
     1
102
RTVSPropertyOp35
 70
     1
102
RTVSPropertyOp36
 70
     1
102
RTVSPropertyOp37
 70
     1
102
RTVSPropertyOp38
 70
     1
102
RTVSPropertyOp39
 70
     1
102
RTVSPropertyOp40
 70
     1
102
RTVSPropertyOp41
 70
     1
102
RTVSPropertyOp42
 70
     1
102
RTVSPropertyOp43
 70
     1
102
RTVSPropertyOp44
 70
     1
102
RTVSPropertyOp45
 70
     1
102
RTVSPropertyOp46
 70
     1
102
RTVSPropertyOp47
 70
     1
102
RTVSPropertyOp48
 70
     1
102
RTVSPropertyOp49
 70
     1
102
RTVSPropertyOp50
 70
     1
102
RTVSPropertyOp51
 70
     0
102
RTVSPropertyOp52
 70
     0
102
RTVSPropertyOp53
 70
     1
102
RTVSPropertyOp54
 70
     1
102
RTVSPropertyOp55
 70
     1
102
RTVSPropertyOp56
 70
     1
102
RTVSPropertyOp57
 70
     1
102
RTVSPropertyOp58
 70
     1
102
RTVSPropertyOp59
 70
     1
102
RTVSPropertyOp60
 70
     1
102
RTVSPropertyOp61
 70
     1
102
RTVSPropertyOp62
 70
     1
  0
XRECORD
  5
C8D7
102
{ACAD_REACTORS
330
C8D6
102
}
330
C8D6
100
AcDbXrecord
280
     1
102
RTVSPost2010Prop28
280
     0
102
RTVSPost2010PropOp28
 70
     1
102
RTVSPost2010Prop29
280
     1
102
RTVSPost2010PropOp29
 70
     1
102
RTVSPost2010Prop30
280
     1
102
RTVSPost2010PropOp30
 70
     1
102
RTVSPost2010Prop31
280
     0
102
RTVSPost2010PropOp31
 70
     1
102
RTVSPost2010Prop32
280
     0
102
RTVSPost2010PropOp32
 70
     1
102
RTVSPost2010Prop33
280
     0
102
RTVSPost2010PropOp33
 70
     1
102
RTVSPost2010Prop34
280
     0
102
RTVSPost2010PropOp34
 70
     1
102
RTVSPost2010Prop35
280
     0
102
RTVSPost2010PropOp35
 70
     1
102
RTVSPost2010Prop36
280
     0
102
RTVSPost2010PropOp36
 70
     1
102
RTVSPost2010Prop37
 90
       50
102
RTVSPost2010PropOp37
 70
     1
102
RTVSPost2010Prop38
140
0.0
102
RTVSPost2010PropOp38
 70
     1
102
RTVSPost2010Prop39
140
1.0
102
RTVSPost2010PropOp39
 70
     1
102
RTVSPost2010Prop40
 90
        0
102
RTVSPost2010PropOp40
 70
     1
102
RTVSPost2010Prop41ColorIndex
 90
       18
102
RTVSPost2010Prop41ColorRGB
 90
        0
102
RTVSPost2010PropOp41
 70
     1
102
RTVSPost2010Prop42
 90
       50
102
RTVSPost2010PropOp42
 70
     1
102
RTVSPost2010Prop43
 90
        3
102
RTVSPost2010PropOp43
 70
     1
102
RTVSPost2010Prop44ColorIndex
 90
        5
102
RTVSPost2010Prop44ColorRGB
 90
      255
102
RTVSPost2010PropOp44
 70
     1
102
RTVSPost2010Prop45
280
     0
102
RTVSPost2010PropOp45
 70
     1
102
RTVSPost2010Prop46
 90
       50
102
RTVSPost2010PropOp46
 70
     1
102
RTVSPost2010Prop47
 90
       50
102
RTVSPost2010PropOp47
 70
     1
102
RTVSPost2010Prop48
 90
       50
102
RTVSPost2010PropOp48
 70
     1
102
RTVSPost2010Prop49
280
     0
102
RTVSPost2010PropOp49
 70
     1
102
RTVSPost2010Prop50
 90
       50
102
RTVSPost2010PropOp50
 70
     1
102
RTVSPost2010Prop51ColorIndex
 90
      256
102
RTVSPost2010Prop51ColorRGB
 90
-16777216
102
RTVSPost2010PropOp51
 70
     0
102
RTVSPost2010Prop52
140
1.0
102
RTVSPost2010PropOp52
 70
     0
102
RTVSPost2010Prop53
 90
        2
102
RTVSPost2010PropOp53
 70
     1
102
RTVSPost2010Prop54
  1
strokes_ogs.tif
102
RTVSPost2010PropOp54
 70
     1
102
RTVSPost2010Prop55
280
     0
102
RTVSPost2010PropOp55
 70
     1
102
RTVSPost2010Prop56
140
1.0
102
RTVSPost2010PropOp56
 70
     1
102
RTVSPost2010Prop57
140
1.0
102
RTVSPost2010PropOp57
 70
     1
102
RTVSPropertyOp0
 70
     1
102
RTVSPropertyOp1
 70
     1
102
RTVSPropertyOp2
 70
     1
102
RTVSPropertyOp3
 70
     1
102
RTVSPropertyOp4
 70
     1
102
RTVSPropertyOp5
 70
     1
102
RTVSPropertyOp6
 70
     1
102
RTVSPropertyOp7
 70
     1
102
RTVSPropertyOp8
 70
     1
102
RTVSPropertyOp9
 70
     1
102
RTVSPropertyOp10
 70
     1
102
RTVSPropertyOp11
 70
     1
102
RTVSPropertyOp12
 70
     1
102
RTVSPropertyOp13
 70
     1
102
RTVSPropertyOp14
 70
     1
102
RTVSPropertyOp15
 70
     1
102
RTVSPropertyOp16
 70
     1
102
RTVSPropertyOp17
 70
     1
102
RTVSPropertyOp18
 70
     1
102
RTVSPropertyOp19
 70
     1
102
RTVSPropertyOp20
 70
     1
102
RTVSPropertyOp21
 70
     1
102
RTVSPropertyOp22
 70
     1
102
RTVSPropertyOp23
 70
     1
102
RTVSPropertyOp24
 70
     1
102
RTVSPropertyOp25
 70
     1
102
RTVSPropertyOp26
 70
     1
102
RTVSPropertyOp27
 70
     1
102
RTVSPropertyOp28
 70
     1
102
RTVSPropertyOp29
 70
     1
102
RTVSPropertyOp30
 70
     1
102
RTVSPropertyOp31
 70
     1
102
RTVSPropertyOp32
 70
     1
102
RTVSPropertyOp33
 70
     1
102
RTVSPropertyOp34
 70
     1
102
RTVSPropertyOp35
 70
     1
102
RTVSPropertyOp36
 70
     1
102
RTVSPropertyOp37
 70
     1
102
RTVSPropertyOp38
 70
     1
102
RTVSPropertyOp39
 70
     1
102
RTVSPropertyOp40
 70
     1
102
RTVSPropertyOp41
 70
     1
102
RTVSPropertyOp42
 70
     1
102
RTVSPropertyOp43
 70
     1
102
RTVSPropertyOp44
 70
     1
102
RTVSPropertyOp45
 70
     1
102
RTVSPropertyOp46
 70
     1
102
RTVSPropertyOp47
 70
     1
102
RTVSPropertyOp48
 70
     1
102
RTVSPropertyOp49
 70
     1
102
RTVSPropertyOp50
 70
     1
102
RTVSPropertyOp51
 70
     0
102
RTVSPropertyOp52
 70
     0
102
RTVSPropertyOp53
 70
     1
102
RTVSPropertyOp54
 70
     1
102
RTVSPropertyOp55
 70
     1
102
RTVSPropertyOp56
 70
     1
102
RTVSPropertyOp57
 70
     1
102
RTVSPropertyOp58
 70
     1
102
RTVSPropertyOp59
 70
     1
102
RTVSPropertyOp60
 70
     1
102
RTVSPropertyOp61
 70
     1
102
RTVSPropertyOp62
 70
     1
  0
XRECORD
  5
C8BB
102
{ACAD_REACTORS
330
C8BA
102
}
330
C8BA
100
AcDbXrecord
280
     1
102
RTVSPost2010Prop28
280
     0
102
RTVSPost2010PropOp28
 70
     1
102
RTVSPost2010Prop29
280
     1
102
RTVSPost2010PropOp29
 70
     1
102
RTVSPost2010Prop30
280
     1
102
RTVSPost2010PropOp30
 70
     1
102
RTVSPost2010Prop31
280
     0
102
RTVSPost2010PropOp31
 70
     1
102
RTVSPost2010Prop32
280
     0
102
RTVSPost2010PropOp32
 70
     1
102
RTVSPost2010Prop33
280
     0
102
RTVSPost2010PropOp33
 70
     1
102
RTVSPost2010Prop34
280
     0
102
RTVSPost2010PropOp34
 70
     1
102
RTVSPost2010Prop35
280
     0
102
RTVSPost2010PropOp35
 70
     1
102
RTVSPost2010Prop36
280
     0
102
RTVSPost2010PropOp36
 70
     1
102
RTVSPost2010Prop37
 90
       50
102
RTVSPost2010PropOp37
 70
     1
102
RTVSPost2010Prop38
140
0.0
102
RTVSPost2010PropOp38
 70
     1
102
RTVSPost2010Prop39
140
1.0
102
RTVSPost2010PropOp39
 70
     1
102
RTVSPost2010Prop40
 90
        0
102
RTVSPost2010PropOp40
 70
     1
102
RTVSPost2010Prop41ColorIndex
 90
       18
102
RTVSPost2010Prop41ColorRGB
 90
        0
102
RTVSPost2010PropOp41
 70
     1
102
RTVSPost2010Prop42
 90
       50
102
RTVSPost2010PropOp42
 70
     1
102
RTVSPost2010Prop43
 90
        3
102
RTVSPost2010PropOp43
 70
     1
102
RTVSPost2010Prop44ColorIndex
 90
        5
102
RTVSPost2010Prop44ColorRGB
 90
      255
102
RTVSPost2010PropOp44
 70
     1
102
RTVSPost2010Prop45
280
     0
102
RTVSPost2010PropOp45
 70
     1
102
RTVSPost2010Prop46
 90
       50
102
RTVSPost2010PropOp46
 70
     1
102
RTVSPost2010Prop47
 90
       50
102
RTVSPost2010PropOp47
 70
     1
102
RTVSPost2010Prop48
 90
       50
102
RTVSPost2010PropOp48
 70
     1
102
RTVSPost2010Prop49
280
     0
102
RTVSPost2010PropOp49
 70
     1
102
RTVSPost2010Prop50
 90
       50
102
RTVSPost2010PropOp50
 70
     1
102
RTVSPost2010Prop51ColorIndex
 90
      256
102
RTVSPost2010Prop51ColorRGB
 90
-16777216
102
RTVSPost2010PropOp51
 70
     0
102
RTVSPost2010Prop52
140
1.0
102
RTVSPost2010PropOp52
 70
     0
102
RTVSPost2010Prop53
 90
        2
102
RTVSPost2010PropOp53
 70
     1
102
RTVSPost2010Prop54
  1
strokes_ogs.tif
102
RTVSPost2010PropOp54
 70
     1
102
RTVSPost2010Prop55
280
     0
102
RTVSPost2010PropOp55
 70
     1
102
RTVSPost2010Prop56
140
1.0
102
RTVSPost2010PropOp56
 70
     1
102
RTVSPost2010Prop57
140
1.0
102
RTVSPost2010PropOp57
 70
     1
102
RTVSPropertyOp0
 70
     1
102
RTVSPropertyOp1
 70
     1
102
RTVSPropertyOp2
 70
     1
102
RTVSPropertyOp3
 70
     1
102
RTVSPropertyOp4
 70
     1
102
RTVSPropertyOp5
 70
     1
102
RTVSPropertyOp6
 70
     1
102
RTVSPropertyOp7
 70
     1
102
RTVSPropertyOp8
 70
     1
102
RTVSPropertyOp9
 70
     1
102
RTVSPropertyOp10
 70
     1
102
RTVSPropertyOp11
 70
     1
102
RTVSPropertyOp12
 70
     1
102
RTVSPropertyOp13
 70
     1
102
RTVSPropertyOp14
 70
     1
102
RTVSPropertyOp15
 70
     1
102
RTVSPropertyOp16
 70
     1
102
RTVSPropertyOp17
 70
     1
102
RTVSPropertyOp18
 70
     1
102
RTVSPropertyOp19
 70
     1
102
RTVSPropertyOp20
 70
     1
102
RTVSPropertyOp21
 70
     1
102
RTVSPropertyOp22
 70
     1
102
RTVSPropertyOp23
 70
     1
102
RTVSPropertyOp24
 70
     1
102
RTVSPropertyOp25
 70
     1
102
RTVSPropertyOp26
 70
     1
102
RTVSPropertyOp27
 70
     1
102
RTVSPropertyOp28
 70
     1
102
RTVSPropertyOp29
 70
     1
102
RTVSPropertyOp30
 70
     1
102
RTVSPropertyOp31
 70
     1
102
RTVSPropertyOp32
 70
     1
102
RTVSPropertyOp33
 70
     1
102
RTVSPropertyOp34
 70
     1
102
RTVSPropertyOp35
 70
     1
102
RTVSPropertyOp36
 70
     1
102
RTVSPropertyOp37
 70
     1
102
RTVSPropertyOp38
 70
     1
102
RTVSPropertyOp39
 70
     1
102
RTVSPropertyOp40
 70
     1
102
RTVSPropertyOp41
 70
     1
102
RTVSPropertyOp42
 70
     1
102
RTVSPropertyOp43
 70
     1
102
RTVSPropertyOp44
 70
     1
102
RTVSPropertyOp45
 70
     1
102
RTVSPropertyOp46
 70
     1
102
RTVSPropertyOp47
 70
     1
102
RTVSPropertyOp48
 70
     1
102
RTVSPropertyOp49
 70
     1
102
RTVSPropertyOp50
 70
     1
102
RTVSPropertyOp51
 70
     0
102
RTVSPropertyOp52
 70
     0
102
RTVSPropertyOp53
 70
     1
102
RTVSPropertyOp54
 70
     1
102
RTVSPropertyOp55
 70
     1
102
RTVSPropertyOp56
 70
     1
102
RTVSPropertyOp57
 70
     1
102
RTVSPropertyOp58
 70
     1
102
RTVSPropertyOp59
 70
     1
102
RTVSPropertyOp60
 70
     1
102
RTVSPropertyOp61
 70
     1
102
RTVSPropertyOp62
 70
     1
  0
XRECORD
  5
C8BD
102
{ACAD_REACTORS
330
C8BC
102
}
330
C8BC
100
AcDbXrecord
280
     1
102
RTVSPost2010Prop28
280
     0
102
RTVSPost2010PropOp28
 70
     1
102
RTVSPost2010Prop29
280
     1
102
RTVSPost2010PropOp29
 70
     1
102
RTVSPost2010Prop30
280
     1
102
RTVSPost2010PropOp30
 70
     1
102
RTVSPost2010Prop31
280
     0
102
RTVSPost2010PropOp31
 70
     1
102
RTVSPost2010Prop32
280
     0
102
RTVSPost2010PropOp32
 70
     1
102
RTVSPost2010Prop33
280
     0
102
RTVSPost2010PropOp33
 70
     1
102
RTVSPost2010Prop34
280
     0
102
RTVSPost2010PropOp34
 70
     1
102
RTVSPost2010Prop35
280
     0
102
RTVSPost2010PropOp35
 70
     1
102
RTVSPost2010Prop36
280
     0
102
RTVSPost2010PropOp36
 70
     1
102
RTVSPost2010Prop37
 90
       50
102
RTVSPost2010PropOp37
 70
     1
102
RTVSPost2010Prop38
140
0.0
102
RTVSPost2010PropOp38
 70
     1
102
RTVSPost2010Prop39
140
1.0
102
RTVSPost2010PropOp39
 70
     1
102
RTVSPost2010Prop40
 90
        0
102
RTVSPost2010PropOp40
 70
     1
102
RTVSPost2010Prop41ColorIndex
 90
       18
102
RTVSPost2010Prop41ColorRGB
 90
        0
102
RTVSPost2010PropOp41
 70
     1
102
RTVSPost2010Prop42
 90
       50
102
RTVSPost2010PropOp42
 70
     1
102
RTVSPost2010Prop43
 90
        3
102
RTVSPost2010PropOp43
 70
     1
102
RTVSPost2010Prop44ColorIndex
 90
        5
102
RTVSPost2010Prop44ColorRGB
 90
      255
102
RTVSPost2010PropOp44
 70
     1
102
RTVSPost2010Prop45
280
     0
102
RTVSPost2010PropOp45
 70
     1
102
RTVSPost2010Prop46
 90
       50
102
RTVSPost2010PropOp46
 70
     1
102
RTVSPost2010Prop47
 90
       50
102
RTVSPost2010PropOp47
 70
     1
102
RTVSPost2010Prop48
 90
       50
102
RTVSPost2010PropOp48
 70
     1
102
RTVSPost2010Prop49
280
     0
102
RTVSPost2010PropOp49
 70
     1
102
RTVSPost2010Prop50
 90
       50
102
RTVSPost2010PropOp50
 70
     1
102
RTVSPost2010Prop51ColorIndex
 90
      256
102
RTVSPost2010Prop51ColorRGB
 90
-16777216
102
RTVSPost2010PropOp51
 70
     0
102
RTVSPost2010Prop52
140
1.0
102
RTVSPost2010PropOp52
 70
     0
102
RTVSPost2010Prop53
 90
        2
102
RTVSPost2010PropOp53
 70
     1
102
RTVSPost2010Prop54
  1
strokes_ogs.tif
102
RTVSPost2010PropOp54
 70
     1
102
RTVSPost2010Prop55
280
     0
102
RTVSPost2010PropOp55
 70
     1
102
RTVSPost2010Prop56
140
1.0
102
RTVSPost2010PropOp56
 70
     1
102
RTVSPost2010Prop57
140
1.0
102
RTVSPost2010PropOp57
 70
     1
102
RTVSPropertyOp0
 70
     1
102
RTVSPropertyOp1
 70
     1
102
RTVSPropertyOp2
 70
     1
102
RTVSPropertyOp3
 70
     1
102
RTVSPropertyOp4
 70
     1
102
RTVSPropertyOp5
 70
     1
102
RTVSPropertyOp6
 70
     1
102
RTVSPropertyOp7
 70
     1
102
RTVSPropertyOp8
 70
     1
102
RTVSPropertyOp9
 70
     1
102
RTVSPropertyOp10
 70
     1
102
RTVSPropertyOp11
 70
     1
102
RTVSPropertyOp12
 70
     1
102
RTVSPropertyOp13
 70
     1
102
RTVSPropertyOp14
 70
     1
102
RTVSPropertyOp15
 70
     1
102
RTVSPropertyOp16
 70
     1
102
RTVSPropertyOp17
 70
     1
102
RTVSPropertyOp18
 70
     1
102
RTVSPropertyOp19
 70
     1
102
RTVSPropertyOp20
 70
     1
102
RTVSPropertyOp21
 70
     1
102
RTVSPropertyOp22
 70
     1
102
RTVSPropertyOp23
 70
     1
102
RTVSPropertyOp24
 70
     1
102
RTVSPropertyOp25
 70
     1
102
RTVSPropertyOp26
 70
     1
102
RTVSPropertyOp27
 70
     1
102
RTVSPropertyOp28
 70
     1
102
RTVSPropertyOp29
 70
     1
102
RTVSPropertyOp30
 70
     1
102
RTVSPropertyOp31
 70
     1
102
RTVSPropertyOp32
 70
     1
102
RTVSPropertyOp33
 70
     1
102
RTVSPropertyOp34
 70
     1
102
RTVSPropertyOp35
 70
     1
102
RTVSPropertyOp36
 70
     1
102
RTVSPropertyOp37
 70
     1
102
RTVSPropertyOp38
 70
     1
102
RTVSPropertyOp39
 70
     1
102
RTVSPropertyOp40
 70
     1
102
RTVSPropertyOp41
 70
     1
102
RTVSPropertyOp42
 70
     1
102
RTVSPropertyOp43
 70
     1
102
RTVSPropertyOp44
 70
     1
102
RTVSPropertyOp45
 70
     1
102
RTVSPropertyOp46
 70
     1
102
RTVSPropertyOp47
 70
     1
102
RTVSPropertyOp48
 70
     1
102
RTVSPropertyOp49
 70
     1
102
RTVSPropertyOp50
 70
     1
102
RTVSPropertyOp51
 70
     0
102
RTVSPropertyOp52
 70
     0
102
RTVSPropertyOp53
 70
     1
102
RTVSPropertyOp54
 70
     1
102
RTVSPropertyOp55
 70
     1
102
RTVSPropertyOp56
 70
     1
102
RTVSPropertyOp57
 70
     1
102
RTVSPropertyOp58
 70
     1
102
RTVSPropertyOp59
 70
     1
102
RTVSPropertyOp60
 70
     1
102
RTVSPropertyOp61
 70
     1
102
RTVSPropertyOp62
 70
     1
  0
XRECORD
  5
C8BF
102
{ACAD_REACTORS
330
C8BE
102
}
330
C8BE
100
AcDbXrecord
280
     1
102
RTVSPost2010Prop28
280
     0
102
RTVSPost2010PropOp28
 70
     1
102
RTVSPost2010Prop29
280
     1
102
RTVSPost2010PropOp29
 70
     1
102
RTVSPost2010Prop30
280
     1
102
RTVSPost2010PropOp30
 70
     1
102
RTVSPost2010Prop31
280
     0
102
RTVSPost2010PropOp31
 70
     1
102
RTVSPost2010Prop32
280
     0
102
RTVSPost2010PropOp32
 70
     1
102
RTVSPost2010Prop33
280
     0
102
RTVSPost2010PropOp33
 70
     1
102
RTVSPost2010Prop34
280
     0
102
RTVSPost2010PropOp34
 70
     1
102
RTVSPost2010Prop35
280
     0
102
RTVSPost2010PropOp35
 70
     1
102
RTVSPost2010Prop36
280
     0
102
RTVSPost2010PropOp36
 70
     1
102
RTVSPost2010Prop37
 90
       50
102
RTVSPost2010PropOp37
 70
     1
102
RTVSPost2010Prop38
140
0.0
102
RTVSPost2010PropOp38
 70
     1
102
RTVSPost2010Prop39
140
1.0
102
RTVSPost2010PropOp39
 70
     1
102
RTVSPost2010Prop40
 90
        0
102
RTVSPost2010PropOp40
 70
     1
102
RTVSPost2010Prop41ColorIndex
 90
       18
102
RTVSPost2010Prop41ColorRGB
 90
        0
102
RTVSPost2010PropOp41
 70
     1
102
RTVSPost2010Prop42
 90
       50
102
RTVSPost2010PropOp42
 70
     1
102
RTVSPost2010Prop43
 90
        3
102
RTVSPost2010PropOp43
 70
     1
102
RTVSPost2010Prop44ColorIndex
 90
        5
102
RTVSPost2010Prop44ColorRGB
 90
      255
102
RTVSPost2010PropOp44
 70
     1
102
RTVSPost2010Prop45
280
     0
102
RTVSPost2010PropOp45
 70
     1
102
RTVSPost2010Prop46
 90
       50
102
RTVSPost2010PropOp46
 70
     1
102
RTVSPost2010Prop47
 90
       50
102
RTVSPost2010PropOp47
 70
     1
102
RTVSPost2010Prop48
 90
       50
102
RTVSPost2010PropOp48
 70
     1
102
RTVSPost2010Prop49
280
     0
102
RTVSPost2010PropOp49
 70
     1
102
RTVSPost2010Prop50
 90
       50
102
RTVSPost2010PropOp50
 70
     1
102
RTVSPost2010Prop51ColorIndex
 90
      256
102
RTVSPost2010Prop51ColorRGB
 90
-16777216
102
RTVSPost2010PropOp51
 70
     0
102
RTVSPost2010Prop52
140
1.0
102
RTVSPost2010PropOp52
 70
     0
102
RTVSPost2010Prop53
 90
        2
102
RTVSPost2010PropOp53
 70
     1
102
RTVSPost2010Prop54
  1
strokes_ogs.tif
102
RTVSPost2010PropOp54
 70
     1
102
RTVSPost2010Prop55
280
     0
102
RTVSPost2010PropOp55
 70
     1
102
RTVSPost2010Prop56
140
1.0
102
RTVSPost2010PropOp56
 70
     1
102
RTVSPost2010Prop57
140
1.0
102
RTVSPost2010PropOp57
 70
     1
102
RTVSPropertyOp0
 70
     1
102
RTVSPropertyOp1
 70
     1
102
RTVSPropertyOp2
 70
     1
102
RTVSPropertyOp3
 70
     1
102
RTVSPropertyOp4
 70
     1
102
RTVSPropertyOp5
 70
     1
102
RTVSPropertyOp6
 70
     1
102
RTVSPropertyOp7
 70
     1
102
RTVSPropertyOp8
 70
     1
102
RTVSPropertyOp9
 70
     1
102
RTVSPropertyOp10
 70
     1
102
RTVSPropertyOp11
 70
     1
102
RTVSPropertyOp12
 70
     1
102
RTVSPropertyOp13
 70
     1
102
RTVSPropertyOp14
 70
     1
102
RTVSPropertyOp15
 70
     1
102
RTVSPropertyOp16
 70
     1
102
RTVSPropertyOp17
 70
     1
102
RTVSPropertyOp18
 70
     1
102
RTVSPropertyOp19
 70
     1
102
RTVSPropertyOp20
 70
     1
102
RTVSPropertyOp21
 70
     1
102
RTVSPropertyOp22
 70
     1
102
RTVSPropertyOp23
 70
     1
102
RTVSPropertyOp24
 70
     1
102
RTVSPropertyOp25
 70
     1
102
RTVSPropertyOp26
 70
     1
102
RTVSPropertyOp27
 70
     1
102
RTVSPropertyOp28
 70
     1
102
RTVSPropertyOp29
 70
     1
102
RTVSPropertyOp30
 70
     1
102
RTVSPropertyOp31
 70
     1
102
RTVSPropertyOp32
 70
     1
102
RTVSPropertyOp33
 70
     1
102
RTVSPropertyOp34
 70
     1
102
RTVSPropertyOp35
 70
     1
102
RTVSPropertyOp36
 70
     1
102
RTVSPropertyOp37
 70
     1
102
RTVSPropertyOp38
 70
     1
102
RTVSPropertyOp39
 70
     1
102
RTVSPropertyOp40
 70
     1
102
RTVSPropertyOp41
 70
     1
102
RTVSPropertyOp42
 70
     1
102
RTVSPropertyOp43
 70
     1
102
RTVSPropertyOp44
 70
     1
102
RTVSPropertyOp45
 70
     1
102
RTVSPropertyOp46
 70
     1
102
RTVSPropertyOp47
 70
     1
102
RTVSPropertyOp48
 70
     1
102
RTVSPropertyOp49
 70
     1
102
RTVSPropertyOp50
 70
     1
102
RTVSPropertyOp51
 70
     0
102
RTVSPropertyOp52
 70
     0
102
RTVSPropertyOp53
 70
     1
102
RTVSPropertyOp54
 70
     1
102
RTVSPropertyOp55
 70
     1
102
RTVSPropertyOp56
 70
     1
102
RTVSPropertyOp57
 70
     1
102
RTVSPropertyOp58
 70
     1
102
RTVSPropertyOp59
 70
     1
102
RTVSPropertyOp60
 70
     1
102
RTVSPropertyOp61
 70
     1
102
RTVSPropertyOp62
 70
     1
  0
XRECORD
  5
C8C1
102
{ACAD_REACTORS
330
C8C0
102
}
330
C8C0
100
AcDbXrecord
280
     1
102
RTVSPost2010Prop28
280
     0
102
RTVSPost2010PropOp28
 70
     1
102
RTVSPost2010Prop29
280
     1
102
RTVSPost2010PropOp29
 70
     1
102
RTVSPost2010Prop30
280
     1
102
RTVSPost2010PropOp30
 70
     1
102
RTVSPost2010Prop31
280
     0
102
RTVSPost2010PropOp31
 70
     1
102
RTVSPost2010Prop32
280
     0
102
RTVSPost2010PropOp32
 70
     1
102
RTVSPost2010Prop33
280
     0
102
RTVSPost2010PropOp33
 70
     1
102
RTVSPost2010Prop34
280
     0
102
RTVSPost2010PropOp34
 70
     1
102
RTVSPost2010Prop35
280
     0
102
RTVSPost2010PropOp35
 70
     1
102
RTVSPost2010Prop36
280
     0
102
RTVSPost2010PropOp36
 70
     1
102
RTVSPost2010Prop37
 90
       50
102
RTVSPost2010PropOp37
 70
     1
102
RTVSPost2010Prop38
140
0.0
102
RTVSPost2010PropOp38
 70
     1
102
RTVSPost2010Prop39
140
1.0
102
RTVSPost2010PropOp39
 70
     1
102
RTVSPost2010Prop40
 90
        0
102
RTVSPost2010PropOp40
 70
     1
102
RTVSPost2010Prop41ColorIndex
 90
       18
102
RTVSPost2010Prop41ColorRGB
 90
        0
102
RTVSPost2010PropOp41
 70
     1
102
RTVSPost2010Prop42
 90
       50
102
RTVSPost2010PropOp42
 70
     1
102
RTVSPost2010Prop43
 90
        3
102
RTVSPost2010PropOp43
 70
     1
102
RTVSPost2010Prop44ColorIndex
 90
        5
102
RTVSPost2010Prop44ColorRGB
 90
      255
102
RTVSPost2010PropOp44
 70
     1
102
RTVSPost2010Prop45
280
     0
102
RTVSPost2010PropOp45
 70
     1
102
RTVSPost2010Prop46
 90
       50
102
RTVSPost2010PropOp46
 70
     1
102
RTVSPost2010Prop47
 90
       50
102
RTVSPost2010PropOp47
 70
     1
102
RTVSPost2010Prop48
 90
       50
102
RTVSPost2010PropOp48
 70
     1
102
RTVSPost2010Prop49
280
     0
102
RTVSPost2010PropOp49
 70
     1
102
RTVSPost2010Prop50
 90
       50
102
RTVSPost2010PropOp50
 70
     1
102
RTVSPost2010Prop51ColorIndex
 90
      256
102
RTVSPost2010Prop51ColorRGB
 90
-16777216
102
RTVSPost2010PropOp51
 70
     0
102
RTVSPost2010Prop52
140
1.0
102
RTVSPost2010PropOp52
 70
     0
102
RTVSPost2010Prop53
 90
        2
102
RTVSPost2010PropOp53
 70
     1
102
RTVSPost2010Prop54
  1
strokes_ogs.tif
102
RTVSPost2010PropOp54
 70
     1
102
RTVSPost2010Prop55
280
     0
102
RTVSPost2010PropOp55
 70
     1
102
RTVSPost2010Prop56
140
1.0
102
RTVSPost2010PropOp56
 70
     1
102
RTVSPost2010Prop57
140
1.0
102
RTVSPost2010PropOp57
 70
     1
102
RTVSPropertyOp0
 70
     1
102
RTVSPropertyOp1
 70
     1
102
RTVSPropertyOp2
 70
     1
102
RTVSPropertyOp3
 70
     1
102
RTVSPropertyOp4
 70
     1
102
RTVSPropertyOp5
 70
     1
102
RTVSPropertyOp6
 70
     1
102
RTVSPropertyOp7
 70
     1
102
RTVSPropertyOp8
 70
     1
102
RTVSPropertyOp9
 70
     1
102
RTVSPropertyOp10
 70
     1
102
RTVSPropertyOp11
 70
     1
102
RTVSPropertyOp12
 70
     1
102
RTVSPropertyOp13
 70
     1
102
RTVSPropertyOp14
 70
     1
102
RTVSPropertyOp15
 70
     1
102
RTVSPropertyOp16
 70
     1
102
RTVSPropertyOp17
 70
     1
102
RTVSPropertyOp18
 70
     1
102
RTVSPropertyOp19
 70
     1
102
RTVSPropertyOp20
 70
     1
102
RTVSPropertyOp21
 70
     1
102
RTVSPropertyOp22
 70
     1
102
RTVSPropertyOp23
 70
     1
102
RTVSPropertyOp24
 70
     1
102
RTVSPropertyOp25
 70
     1
102
RTVSPropertyOp26
 70
     1
102
RTVSPropertyOp27
 70
     1
102
RTVSPropertyOp28
 70
     1
102
RTVSPropertyOp29
 70
     1
102
RTVSPropertyOp30
 70
     1
102
RTVSPropertyOp31
 70
     1
102
RTVSPropertyOp32
 70
     1
102
RTVSPropertyOp33
 70
     1
102
RTVSPropertyOp34
 70
     1
102
RTVSPropertyOp35
 70
     1
102
RTVSPropertyOp36
 70
     1
102
RTVSPropertyOp37
 70
     1
102
RTVSPropertyOp38
 70
     1
102
RTVSPropertyOp39
 70
     1
102
RTVSPropertyOp40
 70
     1
102
RTVSPropertyOp41
 70
     1
102
RTVSPropertyOp42
 70
     1
102
RTVSPropertyOp43
 70
     1
102
RTVSPropertyOp44
 70
     1
102
RTVSPropertyOp45
 70
     1
102
RTVSPropertyOp46
 70
     1
102
RTVSPropertyOp47
 70
     1
102
RTVSPropertyOp48
 70
     1
102
RTVSPropertyOp49
 70
     1
102
RTVSPropertyOp50
 70
     1
102
RTVSPropertyOp51
 70
     0
102
RTVSPropertyOp52
 70
     0
102
RTVSPropertyOp53
 70
     1
102
RTVSPropertyOp54
 70
     1
102
RTVSPropertyOp55
 70
     1
102
RTVSPropertyOp56
 70
     1
102
RTVSPropertyOp57
 70
     1
102
RTVSPropertyOp58
 70
     1
102
RTVSPropertyOp59
 70
     1
102
RTVSPropertyOp60
 70
     1
102
RTVSPropertyOp61
 70
     1
102
RTVSPropertyOp62
 70
     1
  0
XRECORD
  5
C8C9
102
{ACAD_REACTORS
330
C8C8
102
}
330
C8C8
100
AcDbXrecord
280
     1
102
RTVSPost2010Prop28
280
     0
102
RTVSPost2010PropOp28
 70
     1
102
RTVSPost2010Prop29
280
     1
102
RTVSPost2010PropOp29
 70
     1
102
RTVSPost2010Prop30
280
     1
102
RTVSPost2010PropOp30
 70
     1
102
RTVSPost2010Prop31
280
     0
102
RTVSPost2010PropOp31
 70
     1
102
RTVSPost2010Prop32
280
     0
102
RTVSPost2010PropOp32
 70
     1
102
RTVSPost2010Prop33
280
     0
102
RTVSPost2010PropOp33
 70
     1
102
RTVSPost2010Prop34
280
     0
102
RTVSPost2010PropOp34
 70
     1
102
RTVSPost2010Prop35
280
     0
102
RTVSPost2010PropOp35
 70
     1
102
RTVSPost2010Prop36
280
     0
102
RTVSPost2010PropOp36
 70
     1
102
RTVSPost2010Prop37
 90
       50
102
RTVSPost2010PropOp37
 70
     1
102
RTVSPost2010Prop38
140
0.0
102
RTVSPost2010PropOp38
 70
     1
102
RTVSPost2010Prop39
140
1.0
102
RTVSPost2010PropOp39
 70
     1
102
RTVSPost2010Prop40
 90
        0
102
RTVSPost2010PropOp40
 70
     1
102
RTVSPost2010Prop41ColorIndex
 90
       18
102
RTVSPost2010Prop41ColorRGB
 90
        0
102
RTVSPost2010PropOp41
 70
     1
102
RTVSPost2010Prop42
 90
       50
102
RTVSPost2010PropOp42
 70
     1
102
RTVSPost2010Prop43
 90
        3
102
RTVSPost2010PropOp43
 70
     1
102
RTVSPost2010Prop44ColorIndex
 90
        5
102
RTVSPost2010Prop44ColorRGB
 90
      255
102
RTVSPost2010PropOp44
 70
     1
102
RTVSPost2010Prop45
280
     0
102
RTVSPost2010PropOp45
 70
     1
102
RTVSPost2010Prop46
 90
       50
102
RTVSPost2010PropOp46
 70
     1
102
RTVSPost2010Prop47
 90
       50
102
RTVSPost2010PropOp47
 70
     1
102
RTVSPost2010Prop48
 90
       50
102
RTVSPost2010PropOp48
 70
     1
102
RTVSPost2010Prop49
280
     0
102
RTVSPost2010PropOp49
 70
     1
102
RTVSPost2010Prop50
 90
       50
102
RTVSPost2010PropOp50
 70
     1
102
RTVSPost2010Prop51ColorIndex
 90
      256
102
RTVSPost2010Prop51ColorRGB
 90
-16777216
102
RTVSPost2010PropOp51
 70
     0
102
RTVSPost2010Prop52
140
1.0
102
RTVSPost2010PropOp52
 70
     0
102
RTVSPost2010Prop53
 90
        2
102
RTVSPost2010PropOp53
 70
     1
102
RTVSPost2010Prop54
  1
strokes_ogs.tif
102
RTVSPost2010PropOp54
 70
     1
102
RTVSPost2010Prop55
280
     0
102
RTVSPost2010PropOp55
 70
     1
102
RTVSPost2010Prop56
140
1.0
102
RTVSPost2010PropOp56
 70
     1
102
RTVSPost2010Prop57
140
1.0
102
RTVSPost2010PropOp57
 70
     1
102
RTVSPropertyOp0
 70
     1
102
RTVSPropertyOp1
 70
     1
102
RTVSPropertyOp2
 70
     1
102
RTVSPropertyOp3
 70
     1
102
RTVSPropertyOp4
 70
     1
102
RTVSPropertyOp5
 70
     1
102
RTVSPropertyOp6
 70
     1
102
RTVSPropertyOp7
 70
     1
102
RTVSPropertyOp8
 70
     1
102
RTVSPropertyOp9
 70
     1
102
RTVSPropertyOp10
 70
     1
102
RTVSPropertyOp11
 70
     1
102
RTVSPropertyOp12
 70
     1
102
RTVSPropertyOp13
 70
     1
102
RTVSPropertyOp14
 70
     1
102
RTVSPropertyOp15
 70
     1
102
RTVSPropertyOp16
 70
     1
102
RTVSPropertyOp17
 70
     1
102
RTVSPropertyOp18
 70
     1
102
RTVSPropertyOp19
 70
     1
102
RTVSPropertyOp20
 70
     1
102
RTVSPropertyOp21
 70
     1
102
RTVSPropertyOp22
 70
     1
102
RTVSPropertyOp23
 70
     1
102
RTVSPropertyOp24
 70
     1
102
RTVSPropertyOp25
 70
     1
102
RTVSPropertyOp26
 70
     1
102
RTVSPropertyOp27
 70
     1
102
RTVSPropertyOp28
 70
     1
102
RTVSPropertyOp29
 70
     1
102
RTVSPropertyOp30
 70
     1
102
RTVSPropertyOp31
 70
     1
102
RTVSPropertyOp32
 70
     1
102
RTVSPropertyOp33
 70
     1
102
RTVSPropertyOp34
 70
     1
102
RTVSPropertyOp35
 70
     1
102
RTVSPropertyOp36
 70
     1
102
RTVSPropertyOp37
 70
     1
102
RTVSPropertyOp38
 70
     1
102
RTVSPropertyOp39
 70
     1
102
RTVSPropertyOp40
 70
     1
102
RTVSPropertyOp41
 70
     1
102
RTVSPropertyOp42
 70
     1
102
RTVSPropertyOp43
 70
     1
102
RTVSPropertyOp44
 70
     1
102
RTVSPropertyOp45
 70
     1
102
RTVSPropertyOp46
 70
     1
102
RTVSPropertyOp47
 70
     1
102
RTVSPropertyOp48
 70
     1
102
RTVSPropertyOp49
 70
     1
102
RTVSPropertyOp50
 70
     1
102
RTVSPropertyOp51
 70
     0
102
RTVSPropertyOp52
 70
     0
102
RTVSPropertyOp53
 70
     1
102
RTVSPropertyOp54
 70
     1
102
RTVSPropertyOp55
 70
     1
102
RTVSPropertyOp56
 70
     1
102
RTVSPropertyOp57
 70
     1
102
RTVSPropertyOp58
 70
     1
102
RTVSPropertyOp59
 70
     1
102
RTVSPropertyOp60
 70
     1
102
RTVSPropertyOp61
 70
     1
102
RTVSPropertyOp62
 70
     1
  0
XRECORD
  5
C8DD
102
{ACAD_REACTORS
330
C8DC
102
}
330
C8DC
100
AcDbXrecord
280
     1
102
RTVSPost2010Prop28
280
     0
102
RTVSPost2010PropOp28
 70
     1
102
RTVSPost2010Prop29
280
     1
102
RTVSPost2010PropOp29
 70
     1
102
RTVSPost2010Prop30
280
     1
102
RTVSPost2010PropOp30
 70
     1
102
RTVSPost2010Prop31
280
     0
102
RTVSPost2010PropOp31
 70
     1
102
RTVSPost2010Prop32
280
     0
102
RTVSPost2010PropOp32
 70
     1
102
RTVSPost2010Prop33
280
     0
102
RTVSPost2010PropOp33
 70
     1
102
RTVSPost2010Prop34
280
     0
102
RTVSPost2010PropOp34
 70
     1
102
RTVSPost2010Prop35
280
     0
102
RTVSPost2010PropOp35
 70
     1
102
RTVSPost2010Prop36
280
     0
102
RTVSPost2010PropOp36
 70
     1
102
RTVSPost2010Prop37
 90
       50
102
RTVSPost2010PropOp37
 70
     1
102
RTVSPost2010Prop38
140
0.0
102
RTVSPost2010PropOp38
 70
     1
102
RTVSPost2010Prop39
140
1.0
102
RTVSPost2010PropOp39
 70
     1
102
RTVSPost2010Prop40
 90
        0
102
RTVSPost2010PropOp40
 70
     1
102
RTVSPost2010Prop41ColorIndex
 90
       18
102
RTVSPost2010Prop41ColorRGB
 90
        0
102
RTVSPost2010PropOp41
 70
     1
102
RTVSPost2010Prop42
 90
       50
102
RTVSPost2010PropOp42
 70
     1
102
RTVSPost2010Prop43
 90
        3
102
RTVSPost2010PropOp43
 70
     1
102
RTVSPost2010Prop44ColorIndex
 90
        5
102
RTVSPost2010Prop44ColorRGB
 90
      255
102
RTVSPost2010PropOp44
 70
     1
102
RTVSPost2010Prop45
280
     0
102
RTVSPost2010PropOp45
 70
     1
102
RTVSPost2010Prop46
 90
       50
102
RTVSPost2010PropOp46
 70
     1
102
RTVSPost2010Prop47
 90
       50
102
RTVSPost2010PropOp47
 70
     1
102
RTVSPost2010Prop48
 90
       50
102
RTVSPost2010PropOp48
 70
     1
102
RTVSPost2010Prop49
280
     0
102
RTVSPost2010PropOp49
 70
     1
102
RTVSPost2010Prop50
 90
       50
102
RTVSPost2010PropOp50
 70
     1
102
RTVSPost2010Prop51ColorIndex
 90
      256
102
RTVSPost2010Prop51ColorRGB
 90
-16777216
102
RTVSPost2010PropOp51
 70
     0
102
RTVSPost2010Prop52
140
1.0
102
RTVSPost2010PropOp52
 70
     0
102
RTVSPost2010Prop53
 90
        2
102
RTVSPost2010PropOp53
 70
     1
102
RTVSPost2010Prop54
  1
strokes_ogs.tif
102
RTVSPost2010PropOp54
 70
     1
102
RTVSPost2010Prop55
280
     0
102
RTVSPost2010PropOp55
 70
     1
102
RTVSPost2010Prop56
140
1.0
102
RTVSPost2010PropOp56
 70
     1
102
RTVSPost2010Prop57
140
1.0
102
RTVSPost2010PropOp57
 70
     1
102
RTVSPropertyOp0
 70
     0
102
RTVSPropertyOp1
 70
     0
102
RTVSPropertyOp2
 70
     0
102
RTVSPropertyOp3
 70
     0
102
RTVSPropertyOp4
 70
     0
102
RTVSPropertyOp5
 70
     0
102
RTVSPropertyOp6
 70
     0
102
RTVSPropertyOp7
 70
     0
102
RTVSPropertyOp8
 70
     0
102
RTVSPropertyOp9
 70
     0
102
RTVSPropertyOp10
 70
     0
102
RTVSPropertyOp11
 70
     0
102
RTVSPropertyOp12
 70
     0
102
RTVSPropertyOp13
 70
     0
102
RTVSPropertyOp14
 70
     2
102
RTVSPropertyOp15
 70
     0
102
RTVSPropertyOp16
 70
     0
102
RTVSPropertyOp17
 70
     0
102
RTVSPropertyOp18
 70
     0
102
RTVSPropertyOp19
 70
     0
102
RTVSPropertyOp20
 70
     0
102
RTVSPropertyOp21
 70
     0
102
RTVSPropertyOp22
 70
     0
102
RTVSPropertyOp23
 70
     0
102
RTVSPropertyOp24
 70
     0
102
RTVSPropertyOp25
 70
     0
102
RTVSPropertyOp26
 70
     0
102
RTVSPropertyOp27
 70
     0
102
RTVSPropertyOp28
 70
     1
102
RTVSPropertyOp29
 70
     1
102
RTVSPropertyOp30
 70
     1
102
RTVSPropertyOp31
 70
     1
102
RTVSPropertyOp32
 70
     1
102
RTVSPropertyOp33
 70
     1
102
RTVSPropertyOp34
 70
     1
102
RTVSPropertyOp35
 70
     1
102
RTVSPropertyOp36
 70
     1
102
RTVSPropertyOp37
 70
     1
102
RTVSPropertyOp38
 70
     1
102
RTVSPropertyOp39
 70
     1
102
RTVSPropertyOp40
 70
     1
102
RTVSPropertyOp41
 70
     1
102
RTVSPropertyOp42
 70
     1
102
RTVSPropertyOp43
 70
     1
102
RTVSPropertyOp44
 70
     1
102
RTVSPropertyOp45
 70
     1
102
RTVSPropertyOp46
 70
     1
102
RTVSPropertyOp47
 70
     1
102
RTVSPropertyOp48
 70
     1
102
RTVSPropertyOp49
 70
     1
102
RTVSPropertyOp50
 70
     1
102
RTVSPropertyOp51
 70
     0
102
RTVSPropertyOp52
 70
     0
102
RTVSPropertyOp53
 70
     1
102
RTVSPropertyOp54
 70
     1
102
RTVSPropertyOp55
 70
     1
102
RTVSPropertyOp56
 70
     1
102
RTVSPropertyOp57
 70
     1
102
RTVSPropertyOp58
 70
     1
102
RTVSPropertyOp59
 70
     1
102
RTVSPropertyOp60
 70
     1
102
RTVSPropertyOp61
 70
     1
102
RTVSPropertyOp62
 70
     1
  0
XRECORD
  5
C8D5
102
{ACAD_REACTORS
330
C8D4
102
}
330
C8D4
100
AcDbXrecord
280
     1
102
RTVSPost2010Prop28
280
     0
102
RTVSPost2010PropOp28
 70
     1
102
RTVSPost2010Prop29
280
     1
102
RTVSPost2010PropOp29
 70
     1
102
RTVSPost2010Prop30
280
     1
102
RTVSPost2010PropOp30
 70
     1
102
RTVSPost2010Prop31
280
     0
102
RTVSPost2010PropOp31
 70
     1
102
RTVSPost2010Prop32
280
     0
102
RTVSPost2010PropOp32
 70
     1
102
RTVSPost2010Prop33
280
     0
102
RTVSPost2010PropOp33
 70
     1
102
RTVSPost2010Prop34
280
     0
102
RTVSPost2010PropOp34
 70
     1
102
RTVSPost2010Prop35
280
     0
102
RTVSPost2010PropOp35
 70
     1
102
RTVSPost2010Prop36
280
     0
102
RTVSPost2010PropOp36
 70
     1
102
RTVSPost2010Prop37
 90
       50
102
RTVSPost2010PropOp37
 70
     1
102
RTVSPost2010Prop38
140
0.0
102
RTVSPost2010PropOp38
 70
     1
102
RTVSPost2010Prop39
140
1.0
102
RTVSPost2010PropOp39
 70
     1
102
RTVSPost2010Prop40
 90
        0
102
RTVSPost2010PropOp40
 70
     1
102
RTVSPost2010Prop41ColorIndex
 90
       18
102
RTVSPost2010Prop41ColorRGB
 90
        0
102
RTVSPost2010PropOp41
 70
     1
102
RTVSPost2010Prop42
 90
       50
102
RTVSPost2010PropOp42
 70
     1
102
RTVSPost2010Prop43
 90
        3
102
RTVSPost2010PropOp43
 70
     1
102
RTVSPost2010Prop44ColorIndex
 90
        5
102
RTVSPost2010Prop44ColorRGB
 90
      255
102
RTVSPost2010PropOp44
 70
     1
102
RTVSPost2010Prop45
280
     0
102
RTVSPost2010PropOp45
 70
     1
102
RTVSPost2010Prop46
 90
       50
102
RTVSPost2010PropOp46
 70
     1
102
RTVSPost2010Prop47
 90
       50
102
RTVSPost2010PropOp47
 70
     1
102
RTVSPost2010Prop48
 90
       50
102
RTVSPost2010PropOp48
 70
     1
102
RTVSPost2010Prop49
280
     0
102
RTVSPost2010PropOp49
 70
     1
102
RTVSPost2010Prop50
 90
       50
102
RTVSPost2010PropOp50
 70
     1
102
RTVSPost2010Prop51ColorIndex
 90
      256
102
RTVSPost2010Prop51ColorRGB
 90
-16777216
102
RTVSPost2010PropOp51
 70
     0
102
RTVSPost2010Prop52
140
1.0
102
RTVSPost2010PropOp52
 70
     0
102
RTVSPost2010Prop53
 90
        2
102
RTVSPost2010PropOp53
 70
     1
102
RTVSPost2010Prop54
  1
strokes_ogs.tif
102
RTVSPost2010PropOp54
 70
     1
102
RTVSPost2010Prop55
280
     0
102
RTVSPost2010PropOp55
 70
     1
102
RTVSPost2010Prop56
140
1.0
102
RTVSPost2010PropOp56
 70
     1
102
RTVSPost2010Prop57
140
1.0
102
RTVSPost2010PropOp57
 70
     1
102
RTVSPropertyOp0
 70
     1
102
RTVSPropertyOp1
 70
     1
102
RTVSPropertyOp2
 70
     1
102
RTVSPropertyOp3
 70
     1
102
RTVSPropertyOp4
 70
     1
102
RTVSPropertyOp5
 70
     1
102
RTVSPropertyOp6
 70
     1
102
RTVSPropertyOp7
 70
     1
102
RTVSPropertyOp8
 70
     1
102
RTVSPropertyOp9
 70
     1
102
RTVSPropertyOp10
 70
     1
102
RTVSPropertyOp11
 70
     1
102
RTVSPropertyOp12
 70
     1
102
RTVSPropertyOp13
 70
     1
102
RTVSPropertyOp14
 70
     1
102
RTVSPropertyOp15
 70
     1
102
RTVSPropertyOp16
 70
     1
102
RTVSPropertyOp17
 70
     1
102
RTVSPropertyOp18
 70
     1
102
RTVSPropertyOp19
 70
     1
102
RTVSPropertyOp20
 70
     1
102
RTVSPropertyOp21
 70
     1
102
RTVSPropertyOp22
 70
     1
102
RTVSPropertyOp23
 70
     1
102
RTVSPropertyOp24
 70
     1
102
RTVSPropertyOp25
 70
     1
102
RTVSPropertyOp26
 70
     1
102
RTVSPropertyOp27
 70
     1
102
RTVSPropertyOp28
 70
     1
102
RTVSPropertyOp29
 70
     1
102
RTVSPropertyOp30
 70
     1
102
RTVSPropertyOp31
 70
     1
102
RTVSPropertyOp32
 70
     1
102
RTVSPropertyOp33
 70
     1
102
RTVSPropertyOp34
 70
     1
102
RTVSPropertyOp35
 70
     1
102
RTVSPropertyOp36
 70
     1
102
RTVSPropertyOp37
 70
     1
102
RTVSPropertyOp38
 70
     1
102
RTVSPropertyOp39
 70
     1
102
RTVSPropertyOp40
 70
     1
102
RTVSPropertyOp41
 70
     1
102
RTVSPropertyOp42
 70
     1
102
RTVSPropertyOp43
 70
     1
102
RTVSPropertyOp44
 70
     1
102
RTVSPropertyOp45
 70
     1
102
RTVSPropertyOp46
 70
     1
102
RTVSPropertyOp47
 70
     1
102
RTVSPropertyOp48
 70
     1
102
RTVSPropertyOp49
 70
     1
102
RTVSPropertyOp50
 70
     1
102
RTVSPropertyOp51
 70
     0
102
RTVSPropertyOp52
 70
     0
102
RTVSPropertyOp53
 70
     1
102
RTVSPropertyOp54
 70
     1
102
RTVSPropertyOp55
 70
     1
102
RTVSPropertyOp56
 70
     1
102
RTVSPropertyOp57
 70
     1
102
RTVSPropertyOp58
 70
     1
102
RTVSPropertyOp59
 70
     1
102
RTVSPropertyOp60
 70
     1
102
RTVSPropertyOp61
 70
     1
102
RTVSPropertyOp62
 70
     1
  0
XRECORD
  5
C8DF
102
{ACAD_REACTORS
330
C8DE
102
}
330
C8DE
100
AcDbXrecord
280
     1
102
RTVSPost2010Prop28
280
     0
102
RTVSPost2010PropOp28
 70
     1
102
RTVSPost2010Prop29
280
     1
102
RTVSPost2010PropOp29
 70
     1
102
RTVSPost2010Prop30
280
     1
102
RTVSPost2010PropOp30
 70
     1
102
RTVSPost2010Prop31
280
     0
102
RTVSPost2010PropOp31
 70
     1
102
RTVSPost2010Prop32
280
     0
102
RTVSPost2010PropOp32
 70
     1
102
RTVSPost2010Prop33
280
     0
102
RTVSPost2010PropOp33
 70
     1
102
RTVSPost2010Prop34
280
     0
102
RTVSPost2010PropOp34
 70
     1
102
RTVSPost2010Prop35
280
     0
102
RTVSPost2010PropOp35
 70
     1
102
RTVSPost2010Prop36
280
     0
102
RTVSPost2010PropOp36
 70
     1
102
RTVSPost2010Prop37
 90
       50
102
RTVSPost2010PropOp37
 70
     1
102
RTVSPost2010Prop38
140
0.0
102
RTVSPost2010PropOp38
 70
     1
102
RTVSPost2010Prop39
140
1.0
102
RTVSPost2010PropOp39
 70
     1
102
RTVSPost2010Prop40
 90
        0
102
RTVSPost2010PropOp40
 70
     1
102
RTVSPost2010Prop41ColorIndex
 90
       18
102
RTVSPost2010Prop41ColorRGB
 90
        0
102
RTVSPost2010PropOp41
 70
     1
102
RTVSPost2010Prop42
 90
       50
102
RTVSPost2010PropOp42
 70
     1
102
RTVSPost2010Prop43
 90
        3
102
RTVSPost2010PropOp43
 70
     1
102
RTVSPost2010Prop44ColorIndex
 90
        5
102
RTVSPost2010Prop44ColorRGB
 90
      255
102
RTVSPost2010PropOp44
 70
     1
102
RTVSPost2010Prop45
280
     0
102
RTVSPost2010PropOp45
 70
     1
102
RTVSPost2010Prop46
 90
       50
102
RTVSPost2010PropOp46
 70
     1
102
RTVSPost2010Prop47
 90
       50
102
RTVSPost2010PropOp47
 70
     1
102
RTVSPost2010Prop48
 90
       50
102
RTVSPost2010PropOp48
 70
     1
102
RTVSPost2010Prop49
280
     0
102
RTVSPost2010PropOp49
 70
     1
102
RTVSPost2010Prop50
 90
       50
102
RTVSPost2010PropOp50
 70
     1
102
RTVSPost2010Prop51ColorIndex
 90
      256
102
RTVSPost2010Prop51ColorRGB
 90
-16777216
102
RTVSPost2010PropOp51
 70
     0
102
RTVSPost2010Prop52
140
1.0
102
RTVSPost2010PropOp52
 70
     0
102
RTVSPost2010Prop53
 90
        2
102
RTVSPost2010PropOp53
 70
     1
102
RTVSPost2010Prop54
  1
strokes_ogs.tif
102
RTVSPost2010PropOp54
 70
     1
102
RTVSPost2010Prop55
280
     0
102
RTVSPost2010PropOp55
 70
     1
102
RTVSPost2010Prop56
140
1.0
102
RTVSPost2010PropOp56
 70
     1
102
RTVSPost2010Prop57
140
1.0
102
RTVSPost2010PropOp57
 70
     1
102
RTVSPropertyOp0
 70
     0
102
RTVSPropertyOp1
 70
     0
102
RTVSPropertyOp2
 70
     0
102
RTVSPropertyOp3
 70
     0
102
RTVSPropertyOp4
 70
     0
102
RTVSPropertyOp5
 70
     0
102
RTVSPropertyOp6
 70
     0
102
RTVSPropertyOp7
 70
     0
102
RTVSPropertyOp8
 70
     0
102
RTVSPropertyOp9
 70
     0
102
RTVSPropertyOp10
 70
     0
102
RTVSPropertyOp11
 70
     0
102
RTVSPropertyOp12
 70
     0
102
RTVSPropertyOp13
 70
     0
102
RTVSPropertyOp14
 70
     2
102
RTVSPropertyOp15
 70
     0
102
RTVSPropertyOp16
 70
     0
102
RTVSPropertyOp17
 70
     0
102
RTVSPropertyOp18
 70
     0
102
RTVSPropertyOp19
 70
     0
102
RTVSPropertyOp20
 70
     0
102
RTVSPropertyOp21
 70
     0
102
RTVSPropertyOp22
 70
     0
102
RTVSPropertyOp23
 70
     0
102
RTVSPropertyOp24
 70
     0
102
RTVSPropertyOp25
 70
     0
102
RTVSPropertyOp26
 70
     0
102
RTVSPropertyOp27
 70
     0
102
RTVSPropertyOp28
 70
     1
102
RTVSPropertyOp29
 70
     1
102
RTVSPropertyOp30
 70
     1
102
RTVSPropertyOp31
 70
     1
102
RTVSPropertyOp32
 70
     1
102
RTVSPropertyOp33
 70
     1
102
RTVSPropertyOp34
 70
     1
102
RTVSPropertyOp35
 70
     1
102
RTVSPropertyOp36
 70
     1
102
RTVSPropertyOp37
 70
     1
102
RTVSPropertyOp38
 70
     1
102
RTVSPropertyOp39
 70
     1
102
RTVSPropertyOp40
 70
     1
102
RTVSPropertyOp41
 70
     1
102
RTVSPropertyOp42
 70
     1
102
RTVSPropertyOp43
 70
     1
102
RTVSPropertyOp44
 70
     1
102
RTVSPropertyOp45
 70
     1
102
RTVSPropertyOp46
 70
     1
102
RTVSPropertyOp47
 70
     1
102
RTVSPropertyOp48
 70
     1
102
RTVSPropertyOp49
 70
     1
102
RTVSPropertyOp50
 70
     1
102
RTVSPropertyOp51
 70
     0
102
RTVSPropertyOp52
 70
     0
102
RTVSPropertyOp53
 70
     1
102
RTVSPropertyOp54
 70
     1
102
RTVSPropertyOp55
 70
     1
102
RTVSPropertyOp56
 70
     1
102
RTVSPropertyOp57
 70
     1
102
RTVSPropertyOp58
 70
     1
102
RTVSPropertyOp59
 70
     1
102
RTVSPropertyOp60
 70
     1
102
RTVSPropertyOp61
 70
     1
102
RTVSPropertyOp62
 70
     1
  0
XRECORD
  5
C8CD
102
{ACAD_REACTORS
330
C8CC
102
}
330
C8CC
100
AcDbXrecord
280
     1
102
RTVSPost2010Prop28
280
     0
102
RTVSPost2010PropOp28
 70
     1
102
RTVSPost2010Prop29
280
     1
102
RTVSPost2010PropOp29
 70
     1
102
RTVSPost2010Prop30
280
     1
102
RTVSPost2010PropOp30
 70
     1
102
RTVSPost2010Prop31
280
     0
102
RTVSPost2010PropOp31
 70
     1
102
RTVSPost2010Prop32
280
     0
102
RTVSPost2010PropOp32
 70
     1
102
RTVSPost2010Prop33
280
     0
102
RTVSPost2010PropOp33
 70
     1
102
RTVSPost2010Prop34
280
     0
102
RTVSPost2010PropOp34
 70
     1
102
RTVSPost2010Prop35
280
     0
102
RTVSPost2010PropOp35
 70
     1
102
RTVSPost2010Prop36
280
     0
102
RTVSPost2010PropOp36
 70
     1
102
RTVSPost2010Prop37
 90
       50
102
RTVSPost2010PropOp37
 70
     1
102
RTVSPost2010Prop38
140
0.0
102
RTVSPost2010PropOp38
 70
     1
102
RTVSPost2010Prop39
140
1.0
102
RTVSPost2010PropOp39
 70
     1
102
RTVSPost2010Prop40
 90
        0
102
RTVSPost2010PropOp40
 70
     1
102
RTVSPost2010Prop41ColorIndex
 90
       18
102
RTVSPost2010Prop41ColorRGB
 90
        0
102
RTVSPost2010PropOp41
 70
     1
102
RTVSPost2010Prop42
 90
       50
102
RTVSPost2010PropOp42
 70
     1
102
RTVSPost2010Prop43
 90
        3
102
RTVSPost2010PropOp43
 70
     1
102
RTVSPost2010Prop44ColorIndex
 90
        5
102
RTVSPost2010Prop44ColorRGB
 90
      255
102
RTVSPost2010PropOp44
 70
     1
102
RTVSPost2010Prop45
280
     0
102
RTVSPost2010PropOp45
 70
     1
102
RTVSPost2010Prop46
 90
       50
102
RTVSPost2010PropOp46
 70
     1
102
RTVSPost2010Prop47
 90
       50
102
RTVSPost2010PropOp47
 70
     1
102
RTVSPost2010Prop48
 90
       50
102
RTVSPost2010PropOp48
 70
     1
102
RTVSPost2010Prop49
280
     0
102
RTVSPost2010PropOp49
 70
     1
102
RTVSPost2010Prop50
 90
       50
102
RTVSPost2010PropOp50
 70
     1
102
RTVSPost2010Prop51ColorIndex
 90
      256
102
RTVSPost2010Prop51ColorRGB
 90
-16777216
102
RTVSPost2010PropOp51
 70
     0
102
RTVSPost2010Prop52
140
1.0
102
RTVSPost2010PropOp52
 70
     0
102
RTVSPost2010Prop53
 90
        2
102
RTVSPost2010PropOp53
 70
     1
102
RTVSPost2010Prop54
  1
strokes_ogs.tif
102
RTVSPost2010PropOp54
 70
     1
102
RTVSPost2010Prop55
280
     0
102
RTVSPost2010PropOp55
 70
     1
102
RTVSPost2010Prop56
140
1.0
102
RTVSPost2010PropOp56
 70
     1
102
RTVSPost2010Prop57
140
1.0
102
RTVSPost2010PropOp57
 70
     1
102
RTVSPropertyOp0
 70
     1
102
RTVSPropertyOp1
 70
     1
102
RTVSPropertyOp2
 70
     1
102
RTVSPropertyOp3
 70
     1
102
RTVSPropertyOp4
 70
     1
102
RTVSPropertyOp5
 70
     1
102
RTVSPropertyOp6
 70
     1
102
RTVSPropertyOp7
 70
     1
102
RTVSPropertyOp8
 70
     1
102
RTVSPropertyOp9
 70
     1
102
RTVSPropertyOp10
 70
     1
102
RTVSPropertyOp11
 70
     1
102
RTVSPropertyOp12
 70
     1
102
RTVSPropertyOp13
 70
     1
102
RTVSPropertyOp14
 70
     1
102
RTVSPropertyOp15
 70
     1
102
RTVSPropertyOp16
 70
     1
102
RTVSPropertyOp17
 70
     1
102
RTVSPropertyOp18
 70
     1
102
RTVSPropertyOp19
 70
     1
102
RTVSPropertyOp20
 70
     1
102
RTVSPropertyOp21
 70
     1
102
RTVSPropertyOp22
 70
     1
102
RTVSPropertyOp23
 70
     1
102
RTVSPropertyOp24
 70
     1
102
RTVSPropertyOp25
 70
     1
102
RTVSPropertyOp26
 70
     1
102
RTVSPropertyOp27
 70
     1
102
RTVSPropertyOp28
 70
     1
102
RTVSPropertyOp29
 70
     1
102
RTVSPropertyOp30
 70
     1
102
RTVSPropertyOp31
 70
     1
102
RTVSPropertyOp32
 70
     1
102
RTVSPropertyOp33
 70
     1
102
RTVSPropertyOp34
 70
     1
102
RTVSPropertyOp35
 70
     1
102
RTVSPropertyOp36
 70
     1
102
RTVSPropertyOp37
 70
     1
102
RTVSPropertyOp38
 70
     1
102
RTVSPropertyOp39
 70
     1
102
RTVSPropertyOp40
 70
     1
102
RTVSPropertyOp41
 70
     1
102
RTVSPropertyOp42
 70
     1
102
RTVSPropertyOp43
 70
     1
102
RTVSPropertyOp44
 70
     1
102
RTVSPropertyOp45
 70
     1
102
RTVSPropertyOp46
 70
     1
102
RTVSPropertyOp47
 70
     1
102
RTVSPropertyOp48
 70
     1
102
RTVSPropertyOp49
 70
     1
102
RTVSPropertyOp50
 70
     1
102
RTVSPropertyOp51
 70
     0
102
RTVSPropertyOp52
 70
     0
102
RTVSPropertyOp53
 70
     1
102
RTVSPropertyOp54
 70
     1
102
RTVSPropertyOp55
 70
     1
102
RTVSPropertyOp56
 70
     1
102
RTVSPropertyOp57
 70
     1
102
RTVSPropertyOp58
 70
     1
102
RTVSPropertyOp59
 70
     1
102
RTVSPropertyOp60
 70
     1
102
RTVSPropertyOp61
 70
     1
102
RTVSPropertyOp62
 70
     1
  0
XRECORD
  5
C8EB
102
{ACAD_REACTORS
330
C8EA
102
}
330
C8EA
100
AcDbXrecord
280
     1
102
RTVSPost2010Prop28
280
     0
102
RTVSPost2010PropOp28
 70
     1
102
RTVSPost2010Prop29
280
     1
102
RTVSPost2010PropOp29
 70
     1
102
RTVSPost2010Prop30
280
     1
102
RTVSPost2010PropOp30
 70
     1
102
RTVSPost2010Prop31
280
     0
102
RTVSPost2010PropOp31
 70
     1
102
RTVSPost2010Prop32
280
     0
102
RTVSPost2010PropOp32
 70
     1
102
RTVSPost2010Prop33
280
     0
102
RTVSPost2010PropOp33
 70
     1
102
RTVSPost2010Prop34
280
     0
102
RTVSPost2010PropOp34
 70
     1
102
RTVSPost2010Prop35
280
     0
102
RTVSPost2010PropOp35
 70
     1
102
RTVSPost2010Prop36
280
     0
102
RTVSPost2010PropOp36
 70
     1
102
RTVSPost2010Prop37
 90
       50
102
RTVSPost2010PropOp37
 70
     1
102
RTVSPost2010Prop38
140
0.0
102
RTVSPost2010PropOp38
 70
     1
102
RTVSPost2010Prop39
140
1.0
102
RTVSPost2010PropOp39
 70
     1
102
RTVSPost2010Prop40
 90
        0
102
RTVSPost2010PropOp40
 70
     1
102
RTVSPost2010Prop41ColorIndex
 90
       18
102
RTVSPost2010Prop41ColorRGB
 90
        0
102
RTVSPost2010PropOp41
 70
     1
102
RTVSPost2010Prop42
 90
       50
102
RTVSPost2010PropOp42
 70
     1
102
RTVSPost2010Prop43
 90
        3
102
RTVSPost2010PropOp43
 70
     1
102
RTVSPost2010Prop44ColorIndex
 90
        5
102
RTVSPost2010Prop44ColorRGB
 90
      255
102
RTVSPost2010PropOp44
 70
     1
102
RTVSPost2010Prop45
280
     0
102
RTVSPost2010PropOp45
 70
     1
102
RTVSPost2010Prop46
 90
       50
102
RTVSPost2010PropOp46
 70
     1
102
RTVSPost2010Prop47
 90
       50
102
RTVSPost2010PropOp47
 70
     1
102
RTVSPost2010Prop48
 90
       50
102
RTVSPost2010PropOp48
 70
     1
102
RTVSPost2010Prop49
280
     0
102
RTVSPost2010PropOp49
 70
     1
102
RTVSPost2010Prop50
 90
       50
102
RTVSPost2010PropOp50
 70
     1
102
RTVSPost2010Prop51ColorIndex
 90
      256
102
RTVSPost2010Prop51ColorRGB
 90
-16777216
102
RTVSPost2010PropOp51
 70
     0
102
RTVSPost2010Prop52
140
1.0
102
RTVSPost2010PropOp52
 70
     0
102
RTVSPost2010Prop53
 90
        2
102
RTVSPost2010PropOp53
 70
     1
102
RTVSPost2010Prop54
  1
strokes_ogs.tif
102
RTVSPost2010PropOp54
 70
     1
102
RTVSPost2010Prop55
280
     0
102
RTVSPost2010PropOp55
 70
     1
102
RTVSPost2010Prop56
140
1.0
102
RTVSPost2010PropOp56
 70
     1
102
RTVSPost2010Prop57
140
1.0
102
RTVSPost2010PropOp57
 70
     1
102
RTVSPropertyOp0
 70
     1
102
RTVSPropertyOp1
 70
     1
102
RTVSPropertyOp2
 70
     1
102
RTVSPropertyOp3
 70
     1
102
RTVSPropertyOp4
 70
     1
102
RTVSPropertyOp5
 70
     1
102
RTVSPropertyOp6
 70
     1
102
RTVSPropertyOp7
 70
     1
102
RTVSPropertyOp8
 70
     1
102
RTVSPropertyOp9
 70
     1
102
RTVSPropertyOp10
 70
     1
102
RTVSPropertyOp11
 70
     1
102
RTVSPropertyOp12
 70
     1
102
RTVSPropertyOp13
 70
     1
102
RTVSPropertyOp14
 70
     1
102
RTVSPropertyOp15
 70
     1
102
RTVSPropertyOp16
 70
     1
102
RTVSPropertyOp17
 70
     1
102
RTVSPropertyOp18
 70
     1
102
RTVSPropertyOp19
 70
     1
102
RTVSPropertyOp20
 70
     1
102
RTVSPropertyOp21
 70
     1
102
RTVSPropertyOp22
 70
     1
102
RTVSPropertyOp23
 70
     1
102
RTVSPropertyOp24
 70
     1
102
RTVSPropertyOp25
 70
     1
102
RTVSPropertyOp26
 70
     1
102
RTVSPropertyOp27
 70
     1
102
RTVSPropertyOp28
 70
     1
102
RTVSPropertyOp29
 70
     1
102
RTVSPropertyOp30
 70
     1
102
RTVSPropertyOp31
 70
     1
102
RTVSPropertyOp32
 70
     1
102
RTVSPropertyOp33
 70
     1
102
RTVSPropertyOp34
 70
     1
102
RTVSPropertyOp35
 70
     1
102
RTVSPropertyOp36
 70
     1
102
RTVSPropertyOp37
 70
     1
102
RTVSPropertyOp38
 70
     1
102
RTVSPropertyOp39
 70
     1
102
RTVSPropertyOp40
 70
     1
102
RTVSPropertyOp41
 70
     1
102
RTVSPropertyOp42
 70
     1
102
RTVSPropertyOp43
 70
     1
102
RTVSPropertyOp44
 70
     1
102
RTVSPropertyOp45
 70
     1
102
RTVSPropertyOp46
 70
     1
102
RTVSPropertyOp47
 70
     1
102
RTVSPropertyOp48
 70
     1
102
RTVSPropertyOp49
 70
     1
102
RTVSPropertyOp50
 70
     1
102
RTVSPropertyOp51
 70
     0
102
RTVSPropertyOp52
 70
     0
102
RTVSPropertyOp53
 70
     1
102
RTVSPropertyOp54
 70
     1
102
RTVSPropertyOp55
 70
     1
102
RTVSPropertyOp56
 70
     1
102
RTVSPropertyOp57
 70
     1
102
RTVSPropertyOp58
 70
     1
102
RTVSPropertyOp59
 70
     1
102
RTVSPropertyOp60
 70
     1
102
RTVSPropertyOp61
 70
     1
102
RTVSPropertyOp62
 70
     1
  0
XRECORD
  5
C8E9
102
{ACAD_REACTORS
330
C8E8
102
}
330
C8E8
100
AcDbXrecord
280
     1
102
RTVSPost2010Prop28
280
     0
102
RTVSPost2010PropOp28
 70
     1
102
RTVSPost2010Prop29
280
     1
102
RTVSPost2010PropOp29
 70
     1
102
RTVSPost2010Prop30
280
     1
102
RTVSPost2010PropOp30
 70
     1
102
RTVSPost2010Prop31
280
     0
102
RTVSPost2010PropOp31
 70
     1
102
RTVSPost2010Prop32
280
     0
102
RTVSPost2010PropOp32
 70
     1
102
RTVSPost2010Prop33
280
     0
102
RTVSPost2010PropOp33
 70
     1
102
RTVSPost2010Prop34
280
     0
102
RTVSPost2010PropOp34
 70
     1
102
RTVSPost2010Prop35
280
     0
102
RTVSPost2010PropOp35
 70
     1
102
RTVSPost2010Prop36
280
     0
102
RTVSPost2010PropOp36
 70
     1
102
RTVSPost2010Prop37
 90
       50
102
RTVSPost2010PropOp37
 70
     1
102
RTVSPost2010Prop38
140
0.0
102
RTVSPost2010PropOp38
 70
     1
102
RTVSPost2010Prop39
140
1.0
102
RTVSPost2010PropOp39
 70
     1
102
RTVSPost2010Prop40
 90
        0
102
RTVSPost2010PropOp40
 70
     1
102
RTVSPost2010Prop41ColorIndex
 90
       18
102
RTVSPost2010Prop41ColorRGB
 90
        0
102
RTVSPost2010PropOp41
 70
     1
102
RTVSPost2010Prop42
 90
       50
102
RTVSPost2010PropOp42
 70
     1
102
RTVSPost2010Prop43
 90
        3
102
RTVSPost2010PropOp43
 70
     1
102
RTVSPost2010Prop44ColorIndex
 90
        5
102
RTVSPost2010Prop44ColorRGB
 90
      255
102
RTVSPost2010PropOp44
 70
     1
102
RTVSPost2010Prop45
280
     0
102
RTVSPost2010PropOp45
 70
     1
102
RTVSPost2010Prop46
 90
       50
102
RTVSPost2010PropOp46
 70
     1
102
RTVSPost2010Prop47
 90
       50
102
RTVSPost2010PropOp47
 70
     1
102
RTVSPost2010Prop48
 90
       50
102
RTVSPost2010PropOp48
 70
     1
102
RTVSPost2010Prop49
280
     0
102
RTVSPost2010PropOp49
 70
     1
102
RTVSPost2010Prop50
 90
       50
102
RTVSPost2010PropOp50
 70
     1
102
RTVSPost2010Prop51ColorIndex
 90
      256
102
RTVSPost2010Prop51ColorRGB
 90
-16777216
102
RTVSPost2010PropOp51
 70
     0
102
RTVSPost2010Prop52
140
1.0
102
RTVSPost2010PropOp52
 70
     0
102
RTVSPost2010Prop53
 90
        2
102
RTVSPost2010PropOp53
 70
     1
102
RTVSPost2010Prop54
  1
strokes_ogs.tif
102
RTVSPost2010PropOp54
 70
     1
102
RTVSPost2010Prop55
280
     0
102
RTVSPost2010PropOp55
 70
     1
102
RTVSPost2010Prop56
140
1.0
102
RTVSPost2010PropOp56
 70
     1
102
RTVSPost2010Prop57
140
1.0
102
RTVSPost2010PropOp57
 70
     1
102
RTVSPropertyOp0
 70
     1
102
RTVSPropertyOp1
 70
     1
102
RTVSPropertyOp2
 70
     1
102
RTVSPropertyOp3
 70
     1
102
RTVSPropertyOp4
 70
     1
102
RTVSPropertyOp5
 70
     1
102
RTVSPropertyOp6
 70
     1
102
RTVSPropertyOp7
 70
     1
102
RTVSPropertyOp8
 70
     1
102
RTVSPropertyOp9
 70
     1
102
RTVSPropertyOp10
 70
     1
102
RTVSPropertyOp11
 70
     1
102
RTVSPropertyOp12
 70
     1
102
RTVSPropertyOp13
 70
     1
102
RTVSPropertyOp14
 70
     1
102
RTVSPropertyOp15
 70
     1
102
RTVSPropertyOp16
 70
     1
102
RTVSPropertyOp17
 70
     1
102
RTVSPropertyOp18
 70
     1
102
RTVSPropertyOp19
 70
     1
102
RTVSPropertyOp20
 70
     1
102
RTVSPropertyOp21
 70
     1
102
RTVSPropertyOp22
 70
     1
102
RTVSPropertyOp23
 70
     1
102
RTVSPropertyOp24
 70
     1
102
RTVSPropertyOp25
 70
     1
102
RTVSPropertyOp26
 70
     1
102
RTVSPropertyOp27
 70
     1
102
RTVSPropertyOp28
 70
     1
102
RTVSPropertyOp29
 70
     1
102
RTVSPropertyOp30
 70
     1
102
RTVSPropertyOp31
 70
     1
102
RTVSPropertyOp32
 70
     1
102
RTVSPropertyOp33
 70
     1
102
RTVSPropertyOp34
 70
     1
102
RTVSPropertyOp35
 70
     1
102
RTVSPropertyOp36
 70
     1
102
RTVSPropertyOp37
 70
     1
102
RTVSPropertyOp38
 70
     1
102
RTVSPropertyOp39
 70
     1
102
RTVSPropertyOp40
 70
     1
102
RTVSPropertyOp41
 70
     1
102
RTVSPropertyOp42
 70
     1
102
RTVSPropertyOp43
 70
     1
102
RTVSPropertyOp44
 70
     1
102
RTVSPropertyOp45
 70
     1
102
RTVSPropertyOp46
 70
     1
102
RTVSPropertyOp47
 70
     1
102
RTVSPropertyOp48
 70
     1
102
RTVSPropertyOp49
 70
     1
102
RTVSPropertyOp50
 70
     1
102
RTVSPropertyOp51
 70
     0
102
RTVSPropertyOp52
 70
     0
102
RTVSPropertyOp53
 70
     1
102
RTVSPropertyOp54
 70
     1
102
RTVSPropertyOp55
 70
     1
102
RTVSPropertyOp56
 70
     1
102
RTVSPropertyOp57
 70
     1
102
RTVSPropertyOp58
 70
     1
102
RTVSPropertyOp59
 70
     1
102
RTVSPropertyOp60
 70
     1
102
RTVSPropertyOp61
 70
     1
102
RTVSPropertyOp62
 70
     1
  0
XRECORD
  5
C8E3
102
{ACAD_REACTORS
330
C8E2
102
}
330
C8E2
100
AcDbXrecord
280
     1
102
RTVSPost2010Prop28
280
     0
102
RTVSPost2010PropOp28
 70
     1
102
RTVSPost2010Prop29
280
     1
102
RTVSPost2010PropOp29
 70
     1
102
RTVSPost2010Prop30
280
     1
102
RTVSPost2010PropOp30
 70
     1
102
RTVSPost2010Prop31
280
     0
102
RTVSPost2010PropOp31
 70
     1
102
RTVSPost2010Prop32
280
     0
102
RTVSPost2010PropOp32
 70
     1
102
RTVSPost2010Prop33
280
     0
102
RTVSPost2010PropOp33
 70
     1
102
RTVSPost2010Prop34
280
     0
102
RTVSPost2010PropOp34
 70
     1
102
RTVSPost2010Prop35
280
     0
102
RTVSPost2010PropOp35
 70
     1
102
RTVSPost2010Prop36
280
     0
102
RTVSPost2010PropOp36
 70
     1
102
RTVSPost2010Prop37
 90
       50
102
RTVSPost2010PropOp37
 70
     1
102
RTVSPost2010Prop38
140
0.0
102
RTVSPost2010PropOp38
 70
     1
102
RTVSPost2010Prop39
140
1.0
102
RTVSPost2010PropOp39
 70
     1
102
RTVSPost2010Prop40
 90
        0
102
RTVSPost2010PropOp40
 70
     1
102
RTVSPost2010Prop41ColorIndex
 90
       18
102
RTVSPost2010Prop41ColorRGB
 90
        0
102
RTVSPost2010PropOp41
 70
     1
102
RTVSPost2010Prop42
 90
       50
102
RTVSPost2010PropOp42
 70
     1
102
RTVSPost2010Prop43
 90
        3
102
RTVSPost2010PropOp43
 70
     1
102
RTVSPost2010Prop44ColorIndex
 90
        5
102
RTVSPost2010Prop44ColorRGB
 90
      255
102
RTVSPost2010PropOp44
 70
     1
102
RTVSPost2010Prop45
280
     0
102
RTVSPost2010PropOp45
 70
     1
102
RTVSPost2010Prop46
 90
       50
102
RTVSPost2010PropOp46
 70
     1
102
RTVSPost2010Prop47
 90
       50
102
RTVSPost2010PropOp47
 70
     1
102
RTVSPost2010Prop48
 90
       50
102
RTVSPost2010PropOp48
 70
     1
102
RTVSPost2010Prop49
280
     0
102
RTVSPost2010PropOp49
 70
     1
102
RTVSPost2010Prop50
 90
       50
102
RTVSPost2010PropOp50
 70
     1
102
RTVSPost2010Prop51ColorIndex
 90
      256
102
RTVSPost2010Prop51ColorRGB
 90
-16777216
102
RTVSPost2010PropOp51
 70
     0
102
RTVSPost2010Prop52
140
1.0
102
RTVSPost2010PropOp52
 70
     0
102
RTVSPost2010Prop53
 90
        2
102
RTVSPost2010PropOp53
 70
     1
102
RTVSPost2010Prop54
  1
strokes_ogs.tif
102
RTVSPost2010PropOp54
 70
     1
102
RTVSPost2010Prop55
280
     0
102
RTVSPost2010PropOp55
 70
     1
102
RTVSPost2010Prop56
140
1.0
102
RTVSPost2010PropOp56
 70
     1
102
RTVSPost2010Prop57
140
1.0
102
RTVSPost2010PropOp57
 70
     1
102
RTVSPropertyOp0
 70
     1
102
RTVSPropertyOp1
 70
     1
102
RTVSPropertyOp2
 70
     1
102
RTVSPropertyOp3
 70
     1
102
RTVSPropertyOp4
 70
     1
102
RTVSPropertyOp5
 70
     1
102
RTVSPropertyOp6
 70
     1
102
RTVSPropertyOp7
 70
     1
102
RTVSPropertyOp8
 70
     1
102
RTVSPropertyOp9
 70
     1
102
RTVSPropertyOp10
 70
     1
102
RTVSPropertyOp11
 70
     1
102
RTVSPropertyOp12
 70
     1
102
RTVSPropertyOp13
 70
     1
102
RTVSPropertyOp14
 70
     1
102
RTVSPropertyOp15
 70
     1
102
RTVSPropertyOp16
 70
     1
102
RTVSPropertyOp17
 70
     1
102
RTVSPropertyOp18
 70
     1
102
RTVSPropertyOp19
 70
     1
102
RTVSPropertyOp20
 70
     1
102
RTVSPropertyOp21
 70
     1
102
RTVSPropertyOp22
 70
     1
102
RTVSPropertyOp23
 70
     1
102
RTVSPropertyOp24
 70
     1
102
RTVSPropertyOp25
 70
     1
102
RTVSPropertyOp26
 70
     1
102
RTVSPropertyOp27
 70
     1
102
RTVSPropertyOp28
 70
     1
102
RTVSPropertyOp29
 70
     1
102
RTVSPropertyOp30
 70
     1
102
RTVSPropertyOp31
 70
     1
102
RTVSPropertyOp32
 70
     1
102
RTVSPropertyOp33
 70
     1
102
RTVSPropertyOp34
 70
     1
102
RTVSPropertyOp35
 70
     1
102
RTVSPropertyOp36
 70
     1
102
RTVSPropertyOp37
 70
     1
102
RTVSPropertyOp38
 70
     1
102
RTVSPropertyOp39
 70
     1
102
RTVSPropertyOp40
 70
     1
102
RTVSPropertyOp41
 70
     1
102
RTVSPropertyOp42
 70
     1
102
RTVSPropertyOp43
 70
     1
102
RTVSPropertyOp44
 70
     1
102
RTVSPropertyOp45
 70
     1
102
RTVSPropertyOp46
 70
     1
102
RTVSPropertyOp47
 70
     1
102
RTVSPropertyOp48
 70
     1
102
RTVSPropertyOp49
 70
     1
102
RTVSPropertyOp50
 70
     1
102
RTVSPropertyOp51
 70
     0
102
RTVSPropertyOp52
 70
     0
102
RTVSPropertyOp53
 70
     1
102
RTVSPropertyOp54
 70
     1
102
RTVSPropertyOp55
 70
     1
102
RTVSPropertyOp56
 70
     1
102
RTVSPropertyOp57
 70
     1
102
RTVSPropertyOp58
 70
     1
102
RTVSPropertyOp59
 70
     1
102
RTVSPropertyOp60
 70
     1
102
RTVSPropertyOp61
 70
     1
102
RTVSPropertyOp62
 70
     1
  0
XRECORD
  5
C8E5
102
{ACAD_REACTORS
330
C8E4
102
}
330
C8E4
100
AcDbXrecord
280
     1
102
RTVSPost2010Prop28
280
     0
102
RTVSPost2010PropOp28
 70
     1
102
RTVSPost2010Prop29
280
     1
102
RTVSPost2010PropOp29
 70
     1
102
RTVSPost2010Prop30
280
     1
102
RTVSPost2010PropOp30
 70
     1
102
RTVSPost2010Prop31
280
     0
102
RTVSPost2010PropOp31
 70
     1
102
RTVSPost2010Prop32
280
     0
102
RTVSPost2010PropOp32
 70
     1
102
RTVSPost2010Prop33
280
     0
102
RTVSPost2010PropOp33
 70
     1
102
RTVSPost2010Prop34
280
     0
102
RTVSPost2010PropOp34
 70
     1
102
RTVSPost2010Prop35
280
     0
102
RTVSPost2010PropOp35
 70
     1
102
RTVSPost2010Prop36
280
     0
102
RTVSPost2010PropOp36
 70
     1
102
RTVSPost2010Prop37
 90
       50
102
RTVSPost2010PropOp37
 70
     1
102
RTVSPost2010Prop38
140
0.0
102
RTVSPost2010PropOp38
 70
     1
102
RTVSPost2010Prop39
140
1.0
102
RTVSPost2010PropOp39
 70
     1
102
RTVSPost2010Prop40
 90
        0
102
RTVSPost2010PropOp40
 70
     1
102
RTVSPost2010Prop41ColorIndex
 90
       18
102
RTVSPost2010Prop41ColorRGB
 90
        0
102
RTVSPost2010PropOp41
 70
     1
102
RTVSPost2010Prop42
 90
       50
102
RTVSPost2010PropOp42
 70
     1
102
RTVSPost2010Prop43
 90
        3
102
RTVSPost2010PropOp43
 70
     1
102
RTVSPost2010Prop44ColorIndex
 90
        5
102
RTVSPost2010Prop44ColorRGB
 90
      255
102
RTVSPost2010PropOp44
 70
     1
102
RTVSPost2010Prop45
280
     0
102
RTVSPost2010PropOp45
 70
     1
102
RTVSPost2010Prop46
 90
       50
102
RTVSPost2010PropOp46
 70
     1
102
RTVSPost2010Prop47
 90
       50
102
RTVSPost2010PropOp47
 70
     1
102
RTVSPost2010Prop48
 90
       50
102
RTVSPost2010PropOp48
 70
     1
102
RTVSPost2010Prop49
280
     0
102
RTVSPost2010PropOp49
 70
     1
102
RTVSPost2010Prop50
 90
       50
102
RTVSPost2010PropOp50
 70
     1
102
RTVSPost2010Prop51ColorIndex
 90
      256
102
RTVSPost2010Prop51ColorRGB
 90
-16777216
102
RTVSPost2010PropOp51
 70
     0
102
RTVSPost2010Prop52
140
1.0
102
RTVSPost2010PropOp52
 70
     0
102
RTVSPost2010Prop53
 90
        2
102
RTVSPost2010PropOp53
 70
     1
102
RTVSPost2010Prop54
  1
strokes_ogs.tif
102
RTVSPost2010PropOp54
 70
     1
102
RTVSPost2010Prop55
280
     0
102
RTVSPost2010PropOp55
 70
     1
102
RTVSPost2010Prop56
140
1.0
102
RTVSPost2010PropOp56
 70
     1
102
RTVSPost2010Prop57
140
1.0
102
RTVSPost2010PropOp57
 70
     1
102
RTVSPropertyOp0
 70
     1
102
RTVSPropertyOp1
 70
     1
102
RTVSPropertyOp2
 70
     1
102
RTVSPropertyOp3
 70
     1
102
RTVSPropertyOp4
 70
     1
102
RTVSPropertyOp5
 70
     1
102
RTVSPropertyOp6
 70
     1
102
RTVSPropertyOp7
 70
     1
102
RTVSPropertyOp8
 70
     1
102
RTVSPropertyOp9
 70
     1
102
RTVSPropertyOp10
 70
     1
102
RTVSPropertyOp11
 70
     1
102
RTVSPropertyOp12
 70
     1
102
RTVSPropertyOp13
 70
     1
102
RTVSPropertyOp14
 70
     1
102
RTVSPropertyOp15
 70
     1
102
RTVSPropertyOp16
 70
     1
102
RTVSPropertyOp17
 70
     1
102
RTVSPropertyOp18
 70
     1
102
RTVSPropertyOp19
 70
     1
102
RTVSPropertyOp20
 70
     1
102
RTVSPropertyOp21
 70
     1
102
RTVSPropertyOp22
 70
     1
102
RTVSPropertyOp23
 70
     1
102
RTVSPropertyOp24
 70
     1
102
RTVSPropertyOp25
 70
     1
102
RTVSPropertyOp26
 70
     1
102
RTVSPropertyOp27
 70
     1
102
RTVSPropertyOp28
 70
     1
102
RTVSPropertyOp29
 70
     1
102
RTVSPropertyOp30
 70
     1
102
RTVSPropertyOp31
 70
     1
102
RTVSPropertyOp32
 70
     1
102
RTVSPropertyOp33
 70
     1
102
RTVSPropertyOp34
 70
     1
102
RTVSPropertyOp35
 70
     1
102
RTVSPropertyOp36
 70
     1
102
RTVSPropertyOp37
 70
     1
102
RTVSPropertyOp38
 70
     1
102
RTVSPropertyOp39
 70
     1
102
RTVSPropertyOp40
 70
     1
102
RTVSPropertyOp41
 70
     1
102
RTVSPropertyOp42
 70
     1
102
RTVSPropertyOp43
 70
     1
102
RTVSPropertyOp44
 70
     1
102
RTVSPropertyOp45
 70
     1
102
RTVSPropertyOp46
 70
     1
102
RTVSPropertyOp47
 70
     1
102
RTVSPropertyOp48
 70
     1
102
RTVSPropertyOp49
 70
     1
102
RTVSPropertyOp50
 70
     1
102
RTVSPropertyOp51
 70
     0
102
RTVSPropertyOp52
 70
     0
102
RTVSPropertyOp53
 70
     1
102
RTVSPropertyOp54
 70
     1
102
RTVSPropertyOp55
 70
     1
102
RTVSPropertyOp56
 70
     1
102
RTVSPropertyOp57
 70
     1
102
RTVSPropertyOp58
 70
     1
102
RTVSPropertyOp59
 70
     1
102
RTVSPropertyOp60
 70
     1
102
RTVSPropertyOp61
 70
     1
102
RTVSPropertyOp62
 70
     1
  0
XRECORD
  5
C8D3
102
{ACAD_REACTORS
330
C8D2
102
}
330
C8D2
100
AcDbXrecord
280
     1
102
RTVSPost2010Prop28
280
     0
102
RTVSPost2010PropOp28
 70
     1
102
RTVSPost2010Prop29
280
     1
102
RTVSPost2010PropOp29
 70
     1
102
RTVSPost2010Prop30
280
     1
102
RTVSPost2010PropOp30
 70
     1
102
RTVSPost2010Prop31
280
     0
102
RTVSPost2010PropOp31
 70
     1
102
RTVSPost2010Prop32
280
     0
102
RTVSPost2010PropOp32
 70
     1
102
RTVSPost2010Prop33
280
     0
102
RTVSPost2010PropOp33
 70
     1
102
RTVSPost2010Prop34
280
     0
102
RTVSPost2010PropOp34
 70
     1
102
RTVSPost2010Prop35
280
     0
102
RTVSPost2010PropOp35
 70
     1
102
RTVSPost2010Prop36
280
     0
102
RTVSPost2010PropOp36
 70
     1
102
RTVSPost2010Prop37
 90
       50
102
RTVSPost2010PropOp37
 70
     1
102
RTVSPost2010Prop38
140
0.0
102
RTVSPost2010PropOp38
 70
     1
102
RTVSPost2010Prop39
140
1.0
102
RTVSPost2010PropOp39
 70
     1
102
RTVSPost2010Prop40
 90
        0
102
RTVSPost2010PropOp40
 70
     1
102
RTVSPost2010Prop41ColorIndex
 90
       18
102
RTVSPost2010Prop41ColorRGB
 90
        0
102
RTVSPost2010PropOp41
 70
     1
102
RTVSPost2010Prop42
 90
       50
102
RTVSPost2010PropOp42
 70
     1
102
RTVSPost2010Prop43
 90
        3
102
RTVSPost2010PropOp43
 70
     1
102
RTVSPost2010Prop44ColorIndex
 90
        5
102
RTVSPost2010Prop44ColorRGB
 90
      255
102
RTVSPost2010PropOp44
 70
     1
102
RTVSPost2010Prop45
280
     0
102
RTVSPost2010PropOp45
 70
     1
102
RTVSPost2010Prop46
 90
       50
102
RTVSPost2010PropOp46
 70
     1
102
RTVSPost2010Prop47
 90
       50
102
RTVSPost2010PropOp47
 70
     1
102
RTVSPost2010Prop48
 90
       50
102
RTVSPost2010PropOp48
 70
     1
102
RTVSPost2010Prop49
280
     0
102
RTVSPost2010PropOp49
 70
     1
102
RTVSPost2010Prop50
 90
       50
102
RTVSPost2010PropOp50
 70
     1
102
RTVSPost2010Prop51ColorIndex
 90
      256
102
RTVSPost2010Prop51ColorRGB
 90
-16777216
102
RTVSPost2010PropOp51
 70
     0
102
RTVSPost2010Prop52
140
1.0
102
RTVSPost2010PropOp52
 70
     0
102
RTVSPost2010Prop53
 90
        2
102
RTVSPost2010PropOp53
 70
     1
102
RTVSPost2010Prop54
  1
strokes_ogs.tif
102
RTVSPost2010PropOp54
 70
     1
102
RTVSPost2010Prop55
280
     0
102
RTVSPost2010PropOp55
 70
     1
102
RTVSPost2010Prop56
140
1.0
102
RTVSPost2010PropOp56
 70
     1
102
RTVSPost2010Prop57
140
1.0
102
RTVSPost2010PropOp57
 70
     1
102
RTVSPropertyOp0
 70
     1
102
RTVSPropertyOp1
 70
     1
102
RTVSPropertyOp2
 70
     1
102
RTVSPropertyOp3
 70
     1
102
RTVSPropertyOp4
 70
     1
102
RTVSPropertyOp5
 70
     1
102
RTVSPropertyOp6
 70
     1
102
RTVSPropertyOp7
 70
     1
102
RTVSPropertyOp8
 70
     1
102
RTVSPropertyOp9
 70
     1
102
RTVSPropertyOp10
 70
     1
102
RTVSPropertyOp11
 70
     1
102
RTVSPropertyOp12
 70
     1
102
RTVSPropertyOp13
 70
     1
102
RTVSPropertyOp14
 70
     1
102
RTVSPropertyOp15
 70
     1
102
RTVSPropertyOp16
 70
     1
102
RTVSPropertyOp17
 70
     1
102
RTVSPropertyOp18
 70
     1
102
RTVSPropertyOp19
 70
     1
102
RTVSPropertyOp20
 70
     1
102
RTVSPropertyOp21
 70
     1
102
RTVSPropertyOp22
 70
     1
102
RTVSPropertyOp23
 70
     1
102
RTVSPropertyOp24
 70
     1
102
RTVSPropertyOp25
 70
     1
102
RTVSPropertyOp26
 70
     1
102
RTVSPropertyOp27
 70
     1
102
RTVSPropertyOp28
 70
     1
102
RTVSPropertyOp29
 70
     1
102
RTVSPropertyOp30
 70
     1
102
RTVSPropertyOp31
 70
     1
102
RTVSPropertyOp32
 70
     1
102
RTVSPropertyOp33
 70
     1
102
RTVSPropertyOp34
 70
     1
102
RTVSPropertyOp35
 70
     1
102
RTVSPropertyOp36
 70
     1
102
RTVSPropertyOp37
 70
     1
102
RTVSPropertyOp38
 70
     1
102
RTVSPropertyOp39
 70
     1
102
RTVSPropertyOp40
 70
     1
102
RTVSPropertyOp41
 70
     1
102
RTVSPropertyOp42
 70
     1
102
RTVSPropertyOp43
 70
     1
102
RTVSPropertyOp44
 70
     1
102
RTVSPropertyOp45
 70
     1
102
RTVSPropertyOp46
 70
     1
102
RTVSPropertyOp47
 70
     1
102
RTVSPropertyOp48
 70
     1
102
RTVSPropertyOp49
 70
     1
102
RTVSPropertyOp50
 70
     1
102
RTVSPropertyOp51
 70
     0
102
RTVSPropertyOp52
 70
     0
102
RTVSPropertyOp53
 70
     1
102
RTVSPropertyOp54
 70
     1
102
RTVSPropertyOp55
 70
     1
102
RTVSPropertyOp56
 70
     1
102
RTVSPropertyOp57
 70
     1
102
RTVSPropertyOp58
 70
     1
102
RTVSPropertyOp59
 70
     1
102
RTVSPropertyOp60
 70
     1
102
RTVSPropertyOp61
 70
     1
102
RTVSPropertyOp62
 70
     1
  0
XRECORD
  5
C8C7
102
{ACAD_REACTORS
330
C8C6
102
}
330
C8C6
100
AcDbXrecord
280
     1
102
RTVSPost2010Prop28
280
     0
102
RTVSPost2010PropOp28
 70
     1
102
RTVSPost2010Prop29
280
     1
102
RTVSPost2010PropOp29
 70
     1
102
RTVSPost2010Prop30
280
     1
102
RTVSPost2010PropOp30
 70
     1
102
RTVSPost2010Prop31
280
     0
102
RTVSPost2010PropOp31
 70
     1
102
RTVSPost2010Prop32
280
     0
102
RTVSPost2010PropOp32
 70
     1
102
RTVSPost2010Prop33
280
     0
102
RTVSPost2010PropOp33
 70
     1
102
RTVSPost2010Prop34
280
     0
102
RTVSPost2010PropOp34
 70
     1
102
RTVSPost2010Prop35
280
     0
102
RTVSPost2010PropOp35
 70
     1
102
RTVSPost2010Prop36
280
     0
102
RTVSPost2010PropOp36
 70
     1
102
RTVSPost2010Prop37
 90
       50
102
RTVSPost2010PropOp37
 70
     1
102
RTVSPost2010Prop38
140
0.0
102
RTVSPost2010PropOp38
 70
     1
102
RTVSPost2010Prop39
140
1.0
102
RTVSPost2010PropOp39
 70
     1
102
RTVSPost2010Prop40
 90
        0
102
RTVSPost2010PropOp40
 70
     1
102
RTVSPost2010Prop41ColorIndex
 90
       18
102
RTVSPost2010Prop41ColorRGB
 90
        0
102
RTVSPost2010PropOp41
 70
     1
102
RTVSPost2010Prop42
 90
       50
102
RTVSPost2010PropOp42
 70
     1
102
RTVSPost2010Prop43
 90
        3
102
RTVSPost2010PropOp43
 70
     1
102
RTVSPost2010Prop44ColorIndex
 90
        5
102
RTVSPost2010Prop44ColorRGB
 90
      255
102
RTVSPost2010PropOp44
 70
     1
102
RTVSPost2010Prop45
280
     0
102
RTVSPost2010PropOp45
 70
     1
102
RTVSPost2010Prop46
 90
       50
102
RTVSPost2010PropOp46
 70
     1
102
RTVSPost2010Prop47
 90
       50
102
RTVSPost2010PropOp47
 70
     1
102
RTVSPost2010Prop48
 90
       50
102
RTVSPost2010PropOp48
 70
     1
102
RTVSPost2010Prop49
280
     0
102
RTVSPost2010PropOp49
 70
     1
102
RTVSPost2010Prop50
 90
       50
102
RTVSPost2010PropOp50
 70
     1
102
RTVSPost2010Prop51ColorIndex
 90
      256
102
RTVSPost2010Prop51ColorRGB
 90
-16777216
102
RTVSPost2010PropOp51
 70
     0
102
RTVSPost2010Prop52
140
1.0
102
RTVSPost2010PropOp52
 70
     0
102
RTVSPost2010Prop53
 90
        2
102
RTVSPost2010PropOp53
 70
     1
102
RTVSPost2010Prop54
  1
strokes_ogs.tif
102
RTVSPost2010PropOp54
 70
     1
102
RTVSPost2010Prop55
280
     0
102
RTVSPost2010PropOp55
 70
     1
102
RTVSPost2010Prop56
140
1.0
102
RTVSPost2010PropOp56
 70
     1
102
RTVSPost2010Prop57
140
1.0
102
RTVSPost2010PropOp57
 70
     1
102
RTVSPropertyOp0
 70
     1
102
RTVSPropertyOp1
 70
     1
102
RTVSPropertyOp2
 70
     1
102
RTVSPropertyOp3
 70
     1
102
RTVSPropertyOp4
 70
     1
102
RTVSPropertyOp5
 70
     1
102
RTVSPropertyOp6
 70
     1
102
RTVSPropertyOp7
 70
     1
102
RTVSPropertyOp8
 70
     1
102
RTVSPropertyOp9
 70
     1
102
RTVSPropertyOp10
 70
     1
102
RTVSPropertyOp11
 70
     1
102
RTVSPropertyOp12
 70
     1
102
RTVSPropertyOp13
 70
     1
102
RTVSPropertyOp14
 70
     1
102
RTVSPropertyOp15
 70
     1
102
RTVSPropertyOp16
 70
     1
102
RTVSPropertyOp17
 70
     1
102
RTVSPropertyOp18
 70
     1
102
RTVSPropertyOp19
 70
     1
102
RTVSPropertyOp20
 70
     1
102
RTVSPropertyOp21
 70
     1
102
RTVSPropertyOp22
 70
     1
102
RTVSPropertyOp23
 70
     1
102
RTVSPropertyOp24
 70
     1
102
RTVSPropertyOp25
 70
     1
102
RTVSPropertyOp26
 70
     1
102
RTVSPropertyOp27
 70
     1
102
RTVSPropertyOp28
 70
     1
102
RTVSPropertyOp29
 70
     1
102
RTVSPropertyOp30
 70
     1
102
RTVSPropertyOp31
 70
     1
102
RTVSPropertyOp32
 70
     1
102
RTVSPropertyOp33
 70
     1
102
RTVSPropertyOp34
 70
     1
102
RTVSPropertyOp35
 70
     1
102
RTVSPropertyOp36
 70
     1
102
RTVSPropertyOp37
 70
     1
102
RTVSPropertyOp38
 70
     1
102
RTVSPropertyOp39
 70
     1
102
RTVSPropertyOp40
 70
     1
102
RTVSPropertyOp41
 70
     1
102
RTVSPropertyOp42
 70
     1
102
RTVSPropertyOp43
 70
     1
102
RTVSPropertyOp44
 70
     1
102
RTVSPropertyOp45
 70
     1
102
RTVSPropertyOp46
 70
     1
102
RTVSPropertyOp47
 70
     1
102
RTVSPropertyOp48
 70
     1
102
RTVSPropertyOp49
 70
     1
102
RTVSPropertyOp50
 70
     1
102
RTVSPropertyOp51
 70
     0
102
RTVSPropertyOp52
 70
     0
102
RTVSPropertyOp53
 70
     1
102
RTVSPropertyOp54
 70
     1
102
RTVSPropertyOp55
 70
     1
102
RTVSPropertyOp56
 70
     1
102
RTVSPropertyOp57
 70
     1
102
RTVSPropertyOp58
 70
     1
102
RTVSPropertyOp59
 70
     1
102
RTVSPropertyOp60
 70
     1
102
RTVSPropertyOp61
 70
     1
102
RTVSPropertyOp62
 70
     1
  0
XRECORD
  5
C8E7
102
{ACAD_REACTORS
330
C8E6
102
}
330
C8E6
100
AcDbXrecord
280
     1
102
RTVSPost2010Prop28
280
     0
102
RTVSPost2010PropOp28
 70
     1
102
RTVSPost2010Prop29
280
     1
102
RTVSPost2010PropOp29
 70
     1
102
RTVSPost2010Prop30
280
     1
102
RTVSPost2010PropOp30
 70
     1
102
RTVSPost2010Prop31
280
     0
102
RTVSPost2010PropOp31
 70
     1
102
RTVSPost2010Prop32
280
     0
102
RTVSPost2010PropOp32
 70
     1
102
RTVSPost2010Prop33
280
     0
102
RTVSPost2010PropOp33
 70
     1
102
RTVSPost2010Prop34
280
     0
102
RTVSPost2010PropOp34
 70
     1
102
RTVSPost2010Prop35
280
     0
102
RTVSPost2010PropOp35
 70
     1
102
RTVSPost2010Prop36
280
     0
102
RTVSPost2010PropOp36
 70
     1
102
RTVSPost2010Prop37
 90
       50
102
RTVSPost2010PropOp37
 70
     1
102
RTVSPost2010Prop38
140
0.0
102
RTVSPost2010PropOp38
 70
     1
102
RTVSPost2010Prop39
140
1.0
102
RTVSPost2010PropOp39
 70
     1
102
RTVSPost2010Prop40
 90
        0
102
RTVSPost2010PropOp40
 70
     1
102
RTVSPost2010Prop41ColorIndex
 90
       18
102
RTVSPost2010Prop41ColorRGB
 90
        0
102
RTVSPost2010PropOp41
 70
     1
102
RTVSPost2010Prop42
 90
       50
102
RTVSPost2010PropOp42
 70
     1
102
RTVSPost2010Prop43
 90
        3
102
RTVSPost2010PropOp43
 70
     1
102
RTVSPost2010Prop44ColorIndex
 90
        5
102
RTVSPost2010Prop44ColorRGB
 90
      255
102
RTVSPost2010PropOp44
 70
     1
102
RTVSPost2010Prop45
280
     0
102
RTVSPost2010PropOp45
 70
     1
102
RTVSPost2010Prop46
 90
       50
102
RTVSPost2010PropOp46
 70
     1
102
RTVSPost2010Prop47
 90
       50
102
RTVSPost2010PropOp47
 70
     1
102
RTVSPost2010Prop48
 90
       50
102
RTVSPost2010PropOp48
 70
     1
102
RTVSPost2010Prop49
280
     0
102
RTVSPost2010PropOp49
 70
     1
102
RTVSPost2010Prop50
 90
       50
102
RTVSPost2010PropOp50
 70
     1
102
RTVSPost2010Prop51ColorIndex
 90
      256
102
RTVSPost2010Prop51ColorRGB
 90
-16777216
102
RTVSPost2010PropOp51
 70
     0
102
RTVSPost2010Prop52
140
1.0
102
RTVSPost2010PropOp52
 70
     0
102
RTVSPost2010Prop53
 90
        2
102
RTVSPost2010PropOp53
 70
     1
102
RTVSPost2010Prop54
  1
strokes_ogs.tif
102
RTVSPost2010PropOp54
 70
     1
102
RTVSPost2010Prop55
280
     0
102
RTVSPost2010PropOp55
 70
     1
102
RTVSPost2010Prop56
140
1.0
102
RTVSPost2010PropOp56
 70
     1
102
RTVSPost2010Prop57
140
1.0
102
RTVSPost2010PropOp57
 70
     1
102
RTVSPropertyOp0
 70
     1
102
RTVSPropertyOp1
 70
     1
102
RTVSPropertyOp2
 70
     1
102
RTVSPropertyOp3
 70
     1
102
RTVSPropertyOp4
 70
     1
102
RTVSPropertyOp5
 70
     1
102
RTVSPropertyOp6
 70
     1
102
RTVSPropertyOp7
 70
     1
102
RTVSPropertyOp8
 70
     1
102
RTVSPropertyOp9
 70
     1
102
RTVSPropertyOp10
 70
     1
102
RTVSPropertyOp11
 70
     1
102
RTVSPropertyOp12
 70
     1
102
RTVSPropertyOp13
 70
     1
102
RTVSPropertyOp14
 70
     1
102
RTVSPropertyOp15
 70
     1
102
RTVSPropertyOp16
 70
     1
102
RTVSPropertyOp17
 70
     1
102
RTVSPropertyOp18
 70
     1
102
RTVSPropertyOp19
 70
     1
102
RTVSPropertyOp20
 70
     1
102
RTVSPropertyOp21
 70
     1
102
RTVSPropertyOp22
 70
     1
102
RTVSPropertyOp23
 70
     1
102
RTVSPropertyOp24
 70
     1
102
RTVSPropertyOp25
 70
     1
102
RTVSPropertyOp26
 70
     1
102
RTVSPropertyOp27
 70
     1
102
RTVSPropertyOp28
 70
     1
102
RTVSPropertyOp29
 70
     1
102
RTVSPropertyOp30
 70
     1
102
RTVSPropertyOp31
 70
     1
102
RTVSPropertyOp32
 70
     1
102
RTVSPropertyOp33
 70
     1
102
RTVSPropertyOp34
 70
     1
102
RTVSPropertyOp35
 70
     1
102
RTVSPropertyOp36
 70
     1
102
RTVSPropertyOp37
 70
     1
102
RTVSPropertyOp38
 70
     1
102
RTVSPropertyOp39
 70
     1
102
RTVSPropertyOp40
 70
     1
102
RTVSPropertyOp41
 70
     1
102
RTVSPropertyOp42
 70
     1
102
RTVSPropertyOp43
 70
     1
102
RTVSPropertyOp44
 70
     1
102
RTVSPropertyOp45
 70
     1
102
RTVSPropertyOp46
 70
     1
102
RTVSPropertyOp47
 70
     1
102
RTVSPropertyOp48
 70
     1
102
RTVSPropertyOp49
 70
     1
102
RTVSPropertyOp50
 70
     1
102
RTVSPropertyOp51
 70
     0
102
RTVSPropertyOp52
 70
     0
102
RTVSPropertyOp53
 70
     1
102
RTVSPropertyOp54
 70
     1
102
RTVSPropertyOp55
 70
     1
102
RTVSPropertyOp56
 70
     1
102
RTVSPropertyOp57
 70
     1
102
RTVSPropertyOp58
 70
     1
102
RTVSPropertyOp59
 70
     1
102
RTVSPropertyOp60
 70
     1
102
RTVSPropertyOp61
 70
     1
102
RTVSPropertyOp62
 70
     1
  0
ENDSEC
  0
EOF
