  0
SECTION
  2
HEADER
  9
$ACADVER
  1
AC1015
  9
$ACADMAINTVER
 70
    18
  9
$DWGCODEPAGE
  3
ANSI_1252
  9
$INSBASE
 10
0.0
 20
0.0
 30
0.0
  9
$EXTMIN
 10
-195.0292961241553
 20
-169.4100031678216
 30
-0.0015258207003583
  9
$EXTMAX
 10
250.0863655261769
 20
183.5086217752059
 30
0.0000000349246037
  9
$LIMMIN
 10
0.0
 20
0.0
  9
$LIMMAX
 10
420.0
 20
297.0
  9
$ORTHOMODE
 70
     0
  9
$REGENMODE
 70
     1
  9
$FILLMODE
 70
     1
  9
$QTEXTMODE
 70
     0
  9
$MIRRTEXT
 70
     0
  9
$LTSCALE
 40
1.0
  9
$ATTMODE
 70
     1
  9
$TEXTSIZE
 40
2.5
  9
$TRACEWID
 40
1.0
  9
$TEXTSTYLE
  7
Standard
  9
$CLAYER
  8
0
  9
$CELTYPE
  6
ByLayer
  9
$CECOLOR
 62
   256
  9
$CELTSCALE
 40
1.0
  9
$DISPSILH
 70
     0
  9
$DIMSCALE
 40
1.0
  9
$DIMASZ
 40
2.5
  9
$DIMEXO
 40
0.625
  9
$DIMDLI
 40
3.75
  9
$DIMRND
 40
0.0
  9
$DIMDLE
 40
0.0
  9
$DIMEXE
 40
1.25
  9
$DIMTP
 40
0.0
  9
$DIMTM
 40
0.0
  9
$DIMTXT
 40
2.5
  9
$DIMCEN
 40
2.5
  9
$DIMTSZ
 40
0.0
  9
$DIMTOL
 70
     0
  9
$DIMLIM
 70
     0
  9
$DIMTIH
 70
     0
  9
$DIMTOH
 70
     0
  9
$DIMSE1
 70
     0
  9
$DIMSE2
 70
     0
  9
$DIMTAD
 70
     1
  9
$DIMZIN
 70
     8
  9
$DIMBLK
  1

  9
$DIMASO
 70
     1
  9
$DIMSHO
 70
     1
  9
$DIMPOST
  1

  9
$DIMAPOST
  1

  9
$DIMALT
 70
     0
  9
$DIMALTD
 70
     3
  9
$DIMALTF
 40
0.03937007874016
  9
$DIMLFAC
 40
1.0
  9
$DIMTOFL
 70
     1
  9
$DIMTVP
 40
0.0
  9
$DIMTIX
 70
     0
  9
$DIMSOXD
 70
     0
  9
$DIMSAH
 70
     0
  9
$DIMBLK1
  1

  9
$DIMBLK2
  1

  9
$DIMSTYLE
  2
ISO-25
  9
$DIMCLRD
 70
     0
  9
$DIMCLRE
 70
     0
  9
$DIMCLRT
 70
     0
  9
$DIMTFAC
 40
1.0
  9
$DIMGAP
 40
0.625
  9
$DIMJUST
 70
     0
  9
$DIMSD1
 70
     0
  9
$DIMSD2
 70
     0
  9
$DIMTOLJ
 70
     0
  9
$DIMTZIN
 70
     8
  9
$DIMALTZ
 70
     0
  9
$DIMALTTZ
 70
     0
  9
$DIMUPT
 70
     0
  9
$DIMDEC
 70
     2
  9
$DIMTDEC
 70
     2
  9
$DIMALTU
 70
     2
  9
$DIMALTTD
 70
     3
  9
$DIMTXSTY
  7
Standard
  9
$DIMAUNIT
 70
     0
  9
$DIMADEC
 70
     0
  9
$DIMALTRND
 40
0.0
  9
$DIMAZIN
 70
     0
  9
$DIMDSEP
 70
    44
  9
$DIMATFIT
 70
     3
  9
$DIMFRAC
 70
     0
  9
$DIMLDRBLK
  1

  9
$DIMLUNIT
 70
     2
  9
$DIMLWD
 70
    -2
  9
$DIMLWE
 70
    -2
  9
$DIMTMOVE
 70
     0
  9
$LUNITS
 70
     2
  9
$LUPREC
 70
     4
  9
$SKETCHINC
 40
1.0
  9
$FILLETRAD
 40
0.0
  9
$AUNITS
 70
     0
  9
$AUPREC
 70
     0
  9
$MENU
  1
.
  9
$ELEVATION
 40
0.0
  9
$PELEVATION
 40
0.0
  9
$THICKNESS
 40
0.0
  9
$LIMCHECK
 70
     0
  9
$CHAMFERA
 40
0.0
  9
$CHAMFERB
 40
0.0
  9
$CHAMFERC
 40
0.0
  9
$CHAMFERD
 40
0.0
  9
$SKPOLY
 70
     0
  9
$TDCREATE
 40
2460398.356956019
  9
$TDUCREATE
 40
2460398.065289352
  9
$TDUPDATE
 40
2460398.371145834
  9
$TDUUPDATE
 40
2460398.079479167
  9
$TDINDWG
 40
0.0068750000
  9
$TDUSRTIMER
 40
0.0068750000
  9
$USRTIMER
 70
     1
  9
$ANGBASE
 50
0.0
  9
$ANGDIR
 70
     0
  9
$PDMODE
 70
     0
  9
$PDSIZE
 40
0.0
  9
$PLINEWID
 40
0.0
  9
$SPLFRAME
 70
     0
  9
$SPLINETYPE
 70
     6
  9
$SPLINESEGS
 70
     8
  9
$HANDSEED
  5
3216
  9
$SURFTAB1
 70
     6
  9
$SURFTAB2
 70
     6
  9
$SURFTYPE
 70
     6
  9
$SURFU
 70
     6
  9
$SURFV
 70
     6
  9
$UCSBASE
  2

  9
$UCSNAME
  2

  9
$UCSORG
 10
0.0
 20
0.0
 30
0.0
  9
$UCSXDIR
 10
1.0
 20
0.0
 30
0.0
  9
$UCSYDIR
 10
0.0
 20
1.0
 30
0.0
  9
$UCSORTHOREF
  2

  9
$UCSORTHOVIEW
 70
     0
  9
$UCSORGTOP
 10
0.0
 20
0.0
 30
0.0
  9
$UCSORGBOTTOM
 10
0.0
 20
0.0
 30
0.0
  9
$UCSORGLEFT
 10
0.0
 20
0.0
 30
0.0
  9
$UCSORGRIGHT
 10
0.0
 20
0.0
 30
0.0
  9
$UCSORGFRONT
 10
0.0
 20
0.0
 30
0.0
  9
$UCSORGBACK
 10
0.0
 20
0.0
 30
0.0
  9
$PUCSBASE
  2

  9
$PUCSNAME
  2

  9
$PUCSORG
 10
0.0
 20
0.0
 30
0.0
  9
$PUCSXDIR
 10
1.0
 20
0.0
 30
0.0
  9
$PUCSYDIR
 10
0.0
 20
1.0
 30
0.0
  9
$PUCSORTHOREF
  2

  9
$PUCSORTHOVIEW
 70
     0
  9
$PUCSORGTOP
 10
0.0
 20
0.0
 30
0.0
  9
$PUCSORGBOTTOM
 10
0.0
 20
0.0
 30
0.0
  9
$PUCSORGLEFT
 10
0.0
 20
0.0
 30
0.0
  9
$PUCSORGRIGHT
 10
0.0
 20
0.0
 30
0.0
  9
$PUCSORGFRONT
 10
0.0
 20
0.0
 30
0.0
  9
$PUCSORGBACK
 10
0.0
 20
0.0
 30
0.0
  9
$USERI1
 70
     0
  9
$USERI2
 70
     0
  9
$USERI3
 70
     0
  9
$USERI4
 70
     0
  9
$USERI5
 70
     0
  9
$USERR1
 40
0.0
  9
$USERR2
 40
0.0
  9
$USERR3
 40
0.0
  9
$USERR4
 40
0.0
  9
$USERR5
 40
0.0
  9
$WORLDVIEW
 70
     1
  9
$SHADEDGE
 70
     3
  9
$SHADEDIF
 70
    70
  9
$TILEMODE
 70
     1
  9
$MAXACTVP
 70
    48
  9
$PINSBASE
 10
0.0
 20
0.0
 30
0.0
  9
$PLIMCHECK
 70
     0
  9
$PEXTMIN
 10
0.0
 20
0.0
 30
0.0
  9
$PEXTMAX
 10
0.0
 20
0.0
 30
0.0
  9
$PLIMMIN
 10
0.0
 20
0.0
  9
$PLIMMAX
 10
12.0
 20
9.0
  9
$UNITMODE
 70
     0
  9
$VISRETAIN
 70
     1
  9
$PLINEGEN
 70
     0
  9
$PSLTSCALE
 70
     1
  9
$TREEDEPTH
 70
  3020
  9
$CMLSTYLE
  2
Standard
  9
$CMLJUST
 70
     0
  9
$CMLSCALE
 40
20.0
  9
$PROXYGRAPHICS
 70
     1
  9
$MEASUREMENT
 70
     1
  9
$CELWEIGHT
370
    -1
  9
$ENDCAPS
280
     0
  9
$JOINSTYLE
280
     0
  9
$LWDISPLAY
290
     0
  9
$INSUNITS
 70
     4
  9
$HYPERLINKBASE
  1

  9
$STYLESHEET
  1

  9
$XEDIT
290
     1
  9
$CEPSNTYPE
380
     0
  9
$PSTYLEMODE
290
     1
  9
$FINGERPRINTGUID
  2
{6C1266EE-7BC1-BF4A-B059-A6E7702B10CE}
  9
$VERSIONGUID
  2
{B8A777E1-59B9-2F4D-BAEE-9D052D1BCBD1}
  9
$EXTNAMES
290
     1
  9
$PSVPSCALE
 40
0.0
  9
$OLESTARTUP
290
     0
  0
ENDSEC
  0
SECTION
  2
CLASSES
  0
CLASS
  1
ACDBDICTIONARYWDFLT
  2
AcDbDictionaryWithDefault
  3
ObjectDBX Classes
 90
        0
280
     0
281
     0
  0
CLASS
  1
ACDBPLACEHOLDER
  2
AcDbPlaceHolder
  3
ObjectDBX Classes
 90
        0
280
     0
281
     0
  0
CLASS
  1
LAYOUT
  2
AcDbLayout
  3
ObjectDBX Classes
 90
        0
280
     0
281
     0
  0
CLASS
  1
DICTIONARYVAR
  2
AcDbDictionaryVar
  3
ObjectDBX Classes
 90
        0
280
     0
281
     0
  0
CLASS
  1
TABLESTYLE
  2
AcDbTableStyle
  3
ObjectDBX Classes
 90
     4095
280
     0
281
     0
  0
CLASS
  1
MATERIAL
  2
AcDbMaterial
  3
ObjectDBX Classes
 90
     1153
280
     0
281
     0
  0
CLASS
  1
VISUALSTYLE
  2
AcDbVisualStyle
  3
ObjectDBX Classes
 90
     4095
280
     0
281
     0
  0
CLASS
  1
SCALE
  2
AcDbScale
  3
ObjectDBX Classes
 90
     1153
280
     0
281
     0
  0
CLASS
  1
MLEADERSTYLE
  2
AcDbMLeaderStyle
  3
ACDB_MLEADERSTYLE_CLASS
 90
     4095
280
     0
281
     0
  0
CLASS
  1
CELLSTYLEMAP
  2
AcDbCellStyleMap
  3
ObjectDBX Classes
 90
     1152
280
     0
281
     0
  0
CLASS
  1
EXACXREFPANELOBJECT
  2
ExAcXREFPanelObject
  3
EXAC_ESW
 90
    33793
280
     0
281
     0
  0
CLASS
  1
NPOCOLLECTION
  2
AcDbImpNonPersistentObjectsCollection
  3
ObjectDBX Classes
 90
    33921
280
     0
281
     0
  0
CLASS
  1
LAYER_INDEX
  2
AcDbLayerIndex
  3
ObjectDBX Classes
 90
    32768
280
     0
281
     0
  0
CLASS
  1
SPATIAL_INDEX
  2
AcDbSpatialIndex
  3
ObjectDBX Classes
 90
    32768
280
     0
281
     0
  0
CLASS
  1
IDBUFFER
  2
AcDbIdBuffer
  3
ObjectDBX Classes
 90
    32768
280
     0
281
     0
  0
CLASS
  1
ACDBSECTIONVIEWSTYLE
  2
AcDbSectionViewStyle
  3
ObjectDBX Classes
 90
     1025
280
     0
281
     0
  0
CLASS
  1
ACDBDETAILVIEWSTYLE
  2
AcDbDetailViewStyle
  3
ObjectDBX Classes
 90
     1025
280
     0
281
     0
  0
CLASS
  1
XRECORD
  2
AcDbXrecord
  3
ObjectDBX Classes
 90
        0
280
     0
281
     0
  0
ENDSEC
  0
SECTION
  2
TABLES
  0
TABLE
  2
VPORT
  5
8
102
{ACAD_XDICTIONARY
360
3124
102
}
330
0
100
AcDbSymbolTable
 70
     1
  0
VPORT
  5
EA
330
8
100
AcDbSymbolTableRecord
100
AcDbViewportTableRecord
  2
*Active
 70
     0
 10
0.0
 20
0.0
 11
1.0
 21
1.0
 12
27.52853470101082
 22
7.049309303692183
 13
0.0
 23
0.0
 14
10.0
 24
10.0
 15
10.0
 25
10.0
 16
0.0
 26
0.0
 36
1.0
 17
0.0
 27
0.0
 37
0.0
 40
480.8122385224303
 41
0.9846153846153846
 42
50.0
 43
0.0
 44
0.0
 50
0.0
 51
0.0
 71
     0
 72
  1000
 73
     1
 74
     3
 75
     0
 76
     1
 77
     0
 78
     0
281
     0
 65
     1
110
0.0
120
0.0
130
0.0
111
1.0
121
0.0
131
0.0
112
0.0
122
1.0
132
0.0
 79
     0
146
0.0
1001
ACAD_NAV_VCDISPLAY
1070
     3
  0
ENDTAB
  0
TABLE
  2
LTYPE
  5
5
330
0
100
AcDbSymbolTable
 70
     1
  0
LTYPE
  5
14
330
5
100
AcDbSymbolTableRecord
100
AcDbLinetypeTableRecord
  2
ByBlock
 70
     0
  3

 72
    65
 73
     0
 40
0.0
  0
LTYPE
  5
15
330
5
100
AcDbSymbolTableRecord
100
AcDbLinetypeTableRecord
  2
ByLayer
 70
     0
  3

 72
    65
 73
     0
 40
0.0
  0
LTYPE
  5
16
330
5
100
AcDbSymbolTableRecord
100
AcDbLinetypeTableRecord
  2
Continuous
 70
     0
  3
Solid line
 72
    65
 73
     0
 40
0.0
  0
ENDTAB
  0
TABLE
  2
LAYER
  5
2
102
{ACAD_XDICTIONARY
360
1FF
102
}
330
0
100
AcDbSymbolTable
 70
     1
  0
LAYER
  5
10
102
{ACAD_XDICTIONARY
360
13C
102
}
330
2
100
AcDbSymbolTableRecord
100
AcDbLayerTableRecord
  2
0
 70
     0
 62
     7
  6
Continuous
370
    -3
390
F
  0
ENDTAB
  0
TABLE
  2
STYLE
  5
3
330
0
100
AcDbSymbolTable
 70
     1
  0
STYLE
  5
11
330
3
100
AcDbSymbolTableRecord
100
AcDbTextStyleTableRecord
  2
Standard
 70
     0
 40
0.0
 41
1.0
 50
0.0
 71
     0
 42
2.5
  3
arial.ttf
  4

1001
ACAD
1000
Arial
1071
       34
  0
ENDTAB
  0
TABLE
  2
VIEW
  5
6
330
0
100
AcDbSymbolTable
 70
     0
  0
ENDTAB
  0
TABLE
  2
UCS
  5
7
330
0
100
AcDbSymbolTable
 70
     0
  0
ENDTAB
  0
TABLE
  2
APPID
  5
9
330
0
100
AcDbSymbolTable
 70
     8
  0
APPID
  5
12
330
9
100
AcDbSymbolTableRecord
100
AcDbRegAppTableRecord
  2
ACAD
 70
     0
  0
APPID
  5
9E
330
9
100
AcDbSymbolTableRecord
100
AcDbRegAppTableRecord
  2
ACAD_PSEXT
 70
     0
  0
APPID
  5
133
330
9
100
AcDbSymbolTableRecord
100
AcDbRegAppTableRecord
  2
AcadAnnoPO
 70
     0
  0
APPID
  5
134
330
9
100
AcDbSymbolTableRecord
100
AcDbRegAppTableRecord
  2
AcadAnnotative
 70
     0
  0
APPID
  5
135
330
9
100
AcDbSymbolTableRecord
100
AcDbRegAppTableRecord
  2
ACAD_DSTYLE_DIMJAG
 70
     0
  0
APPID
  5
136
330
9
100
AcDbSymbolTableRecord
100
AcDbRegAppTableRecord
  2
ACAD_DSTYLE_DIMTALN
 70
     0
  0
APPID
  5
165
330
9
100
AcDbSymbolTableRecord
100
AcDbRegAppTableRecord
  2
ACAD_MLEADERVER
 70
     0
  0
APPID
  5
217
330
9
100
AcDbSymbolTableRecord
100
AcDbRegAppTableRecord
  2
ACAD_NAV_VCDISPLAY
 70
     0
  0
ENDTAB
  0
TABLE
  2
DIMSTYLE
  5
A
330
0
100
AcDbSymbolTable
 70
     1
100
AcDbDimStyleTable
 71
     0
  0
DIMSTYLE
105
27
330
A
100
AcDbSymbolTableRecord
100
AcDbDimStyleTableRecord
  2
ISO-25
 70
     0
 41
2.5
 42
0.625
 43
3.75
 44
1.25
 73
     0
 74
     0
 77
     1
 78
     8
140
2.5
141
2.5
143
0.03937007874016
147
0.625
171
     3
172
     1
271
     2
272
     2
274
     3
278
    44
283
     0
284
     8
340
11
  0
ENDTAB
  0
TABLE
  2
BLOCK_RECORD
  5
1
330
0
100
AcDbSymbolTable
 70
     7
  0
BLOCK_RECORD
  5
1F
102
{ACAD_XDICTIONARY
360
1CE
102
}
330
1
100
AcDbSymbolTableRecord
100
AcDbBlockTableRecord
  2
*Model_Space
340
22
  0
BLOCK_RECORD
  5
D2
102
{ACAD_XDICTIONARY
360
30D7
102
}
330
1
100
AcDbSymbolTableRecord
100
AcDbBlockTableRecord
  2
*Paper_Space
340
D3
  0
BLOCK_RECORD
  5
D6
102
{ACAD_XDICTIONARY
360
30D9
102
}
330
1
100
AcDbSymbolTableRecord
100
AcDbBlockTableRecord
  2
*Paper_Space0
340
D7
  0
BLOCK_RECORD
  5
2F86
330
1
100
AcDbSymbolTableRecord
100
AcDbBlockTableRecord
  2
SAE200_70_2-Front
340
0
102
{BLKREFS
331
30CD
102
}
  0
BLOCK_RECORD
  5
2FCA
330
1
100
AcDbSymbolTableRecord
100
AcDbBlockTableRecord
  2
SAE200_70_2-Left
340
0
102
{BLKREFS
331
30CE
102
}
  0
BLOCK_RECORD
  5
2FEC
330
1
100
AcDbSymbolTableRecord
100
AcDbBlockTableRecord
  2
SAE200_70_2-Right
340
0
102
{BLKREFS
331
30CF
102
}
  0
BLOCK_RECORD
  5
300A
330
1
100
AcDbSymbolTableRecord
100
AcDbBlockTableRecord
  2
SAE200_70_2-Top
340
0
102
{BLKREFS
331
30D0
102
}
  0
BLOCK_RECORD
  5
303A
330
1
100
AcDbSymbolTableRecord
100
AcDbBlockTableRecord
  2
SAE200_70_2-Bottom
340
0
102
{BLKREFS
331
30D1
102
}
  0
BLOCK_RECORD
  5
305D
330
1
100
AcDbSymbolTableRecord
100
AcDbBlockTableRecord
  2
SAE200_70_2-ISO
340
0
102
{BLKREFS
331
30D2
102
}
  0
ENDTAB
  0
ENDSEC
  0
SECTION
  2
BLOCKS
  0
BLOCK
  5
20
330
1F
100
AcDbEntity
  8
0
100
AcDbBlockBegin
  2
*Model_Space
 70
     0
 10
0.0
 20
0.0
 30
0.0
  3
*Model_Space
  1

  0
ENDBLK
  5
21
330
1F
100
AcDbEntity
  8
0
100
AcDbBlockEnd
  0
BLOCK
  5
D4
330
D2
100
AcDbEntity
 67
     1
  8
0
100
AcDbBlockBegin
  2
*Paper_Space
 70
     0
 10
0.0
 20
0.0
 30
0.0
  3
*Paper_Space
  1

  0
ENDBLK
  5
D5
330
D2
100
AcDbEntity
 67
     1
  8
0
100
AcDbBlockEnd
  0
BLOCK
  5
D8
330
D6
100
AcDbEntity
 67
     1
  8
0
100
AcDbBlockBegin
  2
*Paper_Space0
 70
     0
 10
0.0
 20
0.0
 30
0.0
  3
*Paper_Space0
  1

  0
ENDBLK
  5
D9
330
D6
100
AcDbEntity
 67
     1
  8
0
100
AcDbBlockEnd
  0
BLOCK
  5
2F87
330
2F86
100
AcDbEntity
  8
0
100
AcDbBlockBegin
  2
SAE200_70_2-Front
 70
     0
 10
0.0
 20
0.0
 30
0.0
  3
SAE200_70_2-Front
  1

  0
SPLINE
  5
2F89
330
2F86
100
AcDbEntity
  8
0
100
AcDbSpline
210
0.0
220
0.0
230
1.0
 70
     8
 71
     3
 72
    14
 73
    10
 74
     0
 42
0.000000001
 43
0.0000000001
 40
0.0
 40
0.0
 40
0.0
 40
0.0
 40
0.3939117749908468
 40
0.3939117749908468
 40
0.3939117749908468
 40
0.8234586028756446
 40
0.8234586028756446
 40
0.8234586028756446
 40
0.934543606271265
 40
0.934543606271265
 40
0.934543606271265
 40
0.934543606271265
 10
39.59587679528183
 20
7.033763830000003
 30
0.0
 10
39.27465662943977
 20
6.764228107315247
 30
0.0
 10
38.79061451995987
 20
6.583602376762498
 30
0.0
 10
38.33845224745619
 20
6.398286604405784
 30
0.0
 10
37.84538531680236
 20
6.196206323422316
 30
0.0
 10
37.37933635266814
 20
5.974689697681467
 30
0.0
 10
37.14927169069983
 20
5.583751931423519
 30
0.0
 10
37.08977472297268
 20
5.482651608308371
 30
0.0
 10
37.04691483109342
 20
5.368560745290398
 30
0.0
 10
37.02276810129435
 20
5.240656876199873
 30
0.0
  0
SPLINE
  5
2F8A
330
2F86
100
AcDbEntity
  8
0
100
AcDbSpline
210
0.0
220
0.0
230
1.0
 70
     8
 71
     3
 72
     8
 73
     4
 74
     0
 42
0.000000001
 43
0.0000000001
 40
0.0
 40
0.0
 40
0.0
 40
0.0
 40
0.0005498572942472
 40
0.0005498572942472
 40
0.0005498572942472
 40
0.0005498572942472
 10
39.59592718450066
 20
7.033774759306958
 30
0.0
 10
39.59568847222156
 20
7.033584729236675
 30
0.0
 10
39.59544399119278
 20
7.033390109992176
 30
0.0
 10
39.59519496804012
 20
7.033191881244706
 30
0.0
  0
LINE
  5
2F8B
330
2F86
100
AcDbEntity
  8
0
100
AcDbLine
 10
39.59590086489567
 20
7.03375282884888
 30
0.0
 11
39.59515465380491
 21
7.033158074604333
 31
0.0
  0
SPLINE
  5
2F8C
330
2F86
100
AcDbEntity
  8
0
100
AcDbSpline
210
0.0
220
0.0
230
1.0
 70
     8
 71
     3
 72
     8
 73
     4
 74
     0
 42
0.000000001
 43
0.0000000001
 40
0.0
 40
0.0
 40
0.0
 40
0.0
 40
0.0001997764571661
 40
0.0001997764571661
 40
0.0001997764571661
 40
0.0001997764571661
 10
34.99946465643211
 20
5.000000470577694
 30
0.0
 10
34.9994643075272
 20
5.000594634636823
 30
0.0
 10
34.99946396178581
 20
5.0011874369831
 30
0.0
 10
34.99946361850537
 20
5.001778755786156
 30
0.0
  0
SPLINE
  5
2F8D
330
2F86
100
AcDbEntity
  8
0
100
AcDbSpline
210
0.0
220
0.0
230
1.0
 70
     8
 71
     3
 72
    34
 73
    30
 74
     0
 42
0.000000001
 43
0.0000000001
 40
0.0
 40
0.0
 40
0.0
 40
0.0
 40
0.0047537467855468
 40
0.0047537467855468
 40
0.0069954008345641
 40
0.0069954008345641
 40
0.0086237940010433
 40
0.0086237940010433
 40
0.0107600472797216
 40
0.0107600472797216
 40
0.0126650622306443
 40
0.0126650622306443
 40
0.0152311381548785
 40
0.0152311381548785
 40
0.0200449030999717
 40
0.0200449030999717
 40
0.0322633536833649
 40
0.0322633536833649
 40
0.0451655578047026
 40
0.0451655578047026
 40
0.0610234333602127
 40
0.0610234333602127
 40
0.1085847417398436
 40
0.1085847417398436
 40
0.1639607787286359
 40
0.1639607787286359
 40
0.2169018825812288
 40
0.2169018825812288
 40
0.2556832977840704
 40
0.2556832977840704
 40
0.2556832977840704
 40
0.2556832977840704
 10
34.99949288290158
 20
4.99999171063313
 30
0.0
 10
34.99925004879112
 20
5.014833339823056
 30
0.0
 10
34.99899766420889
 20
5.029915821574073
 30
0.0
 10
34.99860177932234
 20
5.052822054059362
 30
0.0
 10
34.99847004697985
 20
5.060340682009711
 30
0.0
 10
34.99824173341543
 20
5.073231672399901
 30
0.0
 10
34.99814437500994
 20
5.078686826934481
 30
0.0
 10
34.99792806843615
 20
5.090746562331772
 30
0.0
 10
34.99780963238652
 20
5.097304725715892
 30
0.0
 10
34.99761321934263
 20
5.108144957644492
 30
0.0
 10
34.99752987809761
 20
5.112727478010102
 30
0.0
 10
34.99735514426174
 20
5.122311519399715
 30
0.0
 10
34.99726918984573
 20
5.127005097250471
 30
0.0
 10
34.9970416434734
 20
5.139408523208896
 30
0.0
 10
34.99690571710008
 20
5.146813412945169
 30
0.0
 10
34.9965006715619
 20
5.169045481492967
 30
0.0
 10
34.99632812406405
 20
5.178510056214293
 30
0.0
 10
34.99580350914035
 20
5.208729365071103
 30
0.0
 10
34.99539530042686
 20
5.2335314814084
 30
0.0
 10
34.99467557618883
 20
5.289707424425895
 30
0.0
 10
34.99440968254577
 20
5.320184837851225
 30
0.0
 10
34.99376885678286
 20
5.434173615732882
 30
0.0
 10
34.99396617868219
 20
5.507715690056915
 30
0.0
 10
34.99504926829231
 20
5.719454916226474
 30
0.0
 10
34.99634662379527
 20
5.862440580634658
 30
0.0
 10
34.99859732660832
 20
6.165912597296886
 30
0.0
 10
34.99939863759155
 20
6.330002457410257
 30
0.0
 10
34.99994622262298
 20
6.624064877906413
 30
0.0
 10
35.00004059265489
 20
6.753541181874046
 30
0.0
 10
34.99999774075099
 20
6.879640179955273
 30
0.0
  0
SPLINE
  5
2F8E
330
2F86
100
AcDbEntity
  8
0
100
AcDbSpline
210
0.0
220
0.0
230
1.0
 70
     8
 71
     3
 72
    12
 73
     8
 74
     0
 42
0.000000001
 43
0.0000000001
 40
0.0024519588122889
 40
0.0024519588122889
 40
0.0024519588122889
 40
0.0024519588122889
 40
0.0068277319945847
 40
0.0068277319945847
 40
0.0119472666260676
 40
0.0119472666260676
 40
0.012130626964434
 40
0.012130626964434
 40
0.012130626964434
 40
0.012130626964434
 10
34.99993954760603
 20
5.003384707712688
 30
0.0
 10
34.99989686890209
 20
5.005732984994098
 30
0.0
 10
34.99984417251482
 20
5.008586487396132
 30
0.0
 10
34.99973211459789
 20
5.01453460041236
 30
0.0
 10
34.99966448301709
 20
5.018036726774158
 30
0.0
 10
34.99965819955467
 20
5.018360537432489
 30
0.0
 10
34.99965808455565
 20
5.018366460389388
 30
0.0
 10
34.99965808455475
 20
5.018366460435588
 30
0.0
  0
SPLINE
  5
2F8F
330
2F86
100
AcDbEntity
  8
0
100
AcDbSpline
210
0.0
220
0.0
230
1.0
 70
     8
 71
     3
 72
    12
 73
     8
 74
     0
 42
0.000000001
 43
0.0000000001
 40
0.0
 40
0.0
 40
0.0
 40
0.0
 40
0.0033102220663517
 40
0.0033102220663517
 40
0.0063144420645079
 40
0.0063144420645079
 40
0.0077666053336798
 40
0.0077666053336798
 40
0.0077666053336798
 40
0.0077666053336798
 10
34.99994521058036
 20
4.999999995373963
 30
0.0
 10
34.99993241910884
 20
5.008071161813385
 30
0.0
 10
34.99991993962758
 20
5.01500746480278
 30
0.0
 10
34.99990042462117
 20
5.02450739245266
 30
0.0
 10
34.9998928951352
 20
5.027526738024671
 30
0.0
 10
34.99988732429903
 20
5.02961326767767
 30
0.0
 10
34.99988635506765
 20
5.029937287594878
 30
0.0
 10
34.99988635508515
 20
5.029937281729994
 30
0.0
  0
SPLINE
  5
2F90
330
2F86
100
AcDbEntity
  8
0
100
AcDbSpline
210
0.0
220
0.0
230
1.0
 70
     8
 71
     3
 72
    38
 73
    34
 74
     0
 42
0.000000001
 43
0.0000000001
 40
0.0593708994331594
 40
0.0593708994331594
 40
0.0593708994331594
 40
0.0593708994331594
 40
0.0615288133991685
 40
0.0615288133991685
 40
0.0664736417685008
 40
0.0664736417685008
 40
0.0714203183290631
 40
0.0714203183290631
 40
0.0804566072549599
 40
0.0804566072549599
 40
0.0967347736156357
 40
0.0967347736156357
 40
0.1109784633917682
 40
0.1109784633917682
 40
0.1185242898045709
 40
0.1185242898045709
 40
0.1213534326286638
 40
0.1213534326286638
 40
0.1234779166671593
 40
0.1234779166671593
 40
0.1237828181313649
 40
0.1237828181313649
 40
0.1240902017622379
 40
0.1240902017622379
 40
0.1242438865472817
 40
0.1242438865472817
 40
0.1243979877507905
 40
0.1243979877507905
 40
0.1247096214031119
 40
0.1247096214031119
 40
0.1259516550410135
 40
0.1259516550410135
 40
0.1263475062469359
 40
0.1263475062469359
 40
0.1263475062469359
 40
0.1263475062469359
 10
37.07794550624004
 20
5.492298672871912
 30
0.0
 10
37.07794550624524
 20
5.492298672887007
 30
0.0
 10
37.07767964533645
 20
5.491527869636745
 30
0.0
 10
37.07613923963751
 20
5.4869733076883
 30
0.0
 10
37.07401358708981
 20
5.480585297112794
 30
0.0
 10
37.06909490652252
 20
5.464936456350949
 30
0.0
 10
37.06625838204637
 20
5.455546593960157
 30
0.0
 10
37.05807288698909
 20
5.426840606977072
 30
0.0
 10
37.05253889956843
 20
5.405552932550562
 30
0.0
 10
37.03803437353412
 20
5.342811354598747
 30
0.0
 10
37.0297065552211
 20
5.298260268030282
 30
0.0
 10
37.01700510756845
 20
5.211609074444304
 30
0.0
 10
37.01218425992555
 20
5.169620761627014
 30
0.0
 10
37.00637738376303
 20
5.104164933070328
 30
0.0
 10
37.00464821516386
 20
5.08125145484125
 30
0.0
 10
37.00261420736465
 20
5.049350437118422
 30
0.0
 10
37.00209461032921
 20
5.040611255175201
 30
0.0
 10
37.00123931538697
 20
5.025145965601587
 30
0.0
 10
37.00089081604386
 20
5.018482867268843
 30
0.0
 10
37.00049944064717
 20
5.010521333835036
 30
0.0
 10
37.00045020710276
 20
5.009510749893689
 30
0.0
 10
37.00035189726293
 20
5.007473980814872
 30
0.0
 10
37.00030161466858
 20
5.006422081467526
 30
0.0
 10
37.00023188992631
 20
5.004950279361458
 30
0.0
 10
37.00020935744536
 20
5.004472324019819
 30
0.0
 10
37.00016908831101
 20
5.003614926900828
 30
0.0
 10
37.00015103334781
 20
5.003228770518603
 30
0.0
 10
37.000105373357
 20
5.00224967235753
 30
0.0
 10
37.00008537084559
 20
5.001817361440163
 30
0.0
 10
37.00001295479447
 20
5.00025071891817
 30
0.0
 10
37.00001280928579
 20
5.000242375709731
 30
0.0
 10
37.0000077484117
 20
5.000131849706078
 30
0.0
 10
37.00000727888169
 20
5.000121585690397
 30
0.0
 10
37.00000727888889
 20
5.000121585847631
 30
0.0
  0
SPLINE
  5
2F91
330
2F86
100
AcDbEntity
  8
0
100
AcDbSpline
210
0.0
220
0.0
230
1.0
 70
     8
 71
     3
 72
     8
 73
     4
 74
     0
 42
0.000000001
 43
0.0000000001
 40
0.135228626354471
 40
0.135228626354471
 40
0.135228626354471
 40
0.135228626354471
 40
0.1408488060453392
 40
0.1408488060453392
 40
0.1408488060453392
 40
0.1408488060453392
 10
37.00011666263871
 20
5.002518397090357
 30
0.0
 10
37.00011666264091
 20
5.002518397139298
 30
0.0
 10
37.00008512698528
 20
5.001836459496776
 30
0.0
 10
37.0000074643635
 20
4.999999683958295
 30
0.0
  0
SPLINE
  5
2F92
330
2F86
100
AcDbEntity
  8
0
100
AcDbSpline
210
0.0
220
0.0
230
1.0
 70
     8
 71
     3
 72
     8
 73
     4
 74
     0
 42
0.000000001
 43
0.0000000001
 40
0.0092981039389323
 40
0.0092981039389323
 40
0.0092981039389323
 40
0.0092981039389323
 40
0.0098062870806068
 40
0.0098062870806068
 40
0.0098062870806068
 40
0.0098062870806068
 10
37.00009592926517
 20
5.002044844570503
 30
0.0
 10
37.00007639951064
 20
5.001384657532913
 30
0.0
 10
37.00005649616159
 20
5.000700130126928
 30
0.0
 10
37.00003649630438
 20
4.999998988014345
 30
0.0
  0
SPLINE
  5
2F93
330
2F86
100
AcDbEntity
  8
0
100
AcDbSpline
210
0.0
220
0.0
230
1.0
 70
     8
 71
     3
 72
     8
 73
     4
 74
     0
 42
0.000000001
 43
0.0000000001
 40
0.0068364584275754
 40
0.0068364584275754
 40
0.0068364584275754
 40
0.0068364584275754
 40
0.0117998210873681
 40
0.0117998210873681
 40
0.0117998210873681
 40
0.0117998210873681
 10
37.00002078545591
 20
5.002664271807708
 30
0.0
 10
37.00002078543548
 20
5.002664268529997
 30
0.0
 10
37.00001529160346
 20
5.0017921358017
 30
0.0
 10
37.00000782338698
 20
4.999999966851996
 30
0.0
  0
SPLINE
  5
2F94
330
2F86
100
AcDbEntity
  8
0
100
AcDbSpline
210
0.0
220
0.0
230
1.0
 70
     8
 71
     3
 72
    17
 73
    13
 74
     0
 42
0.000000001
 43
0.0000000001
 40
0.0
 40
0.0
 40
0.0
 40
0.0
 40
0.3443116748352013
 40
0.3443116748352013
 40
0.3443116748352013
 40
0.7099962075909417
 40
0.7099962075909417
 40
0.7099962075909417
 40
0.9541078706403901
 40
0.9541078706403901
 40
0.9541078706403901
 40
0.9569521682055105
 40
0.9569521682055105
 40
0.9569521682055105
 40
0.9569521682055105
 10
-39.59587679528183
 20
7.03376382999998
 30
0.0
 10
-39.30373217601408
 20
6.794654155010666
 30
0.0
 10
-38.9070074108311
 20
6.628311309691859
 30
0.0
 10
-38.50910566121665
 20
6.467535650390663
 30
0.0
 10
-38.08650449481678
 20
6.296779977124008
 30
0.0
 10
-37.66971752072263
 20
6.129674012245434
 30
0.0
 10
-37.37948720168215
 20
5.862626688203881
 30
0.0
 10
-37.18574478300658
 20
5.684360011477273
 30
0.0
 10
-37.0484483511028
 20
5.464120407885941
 30
0.0
 10
-37.01042520648905
 20
5.174377168802722
 30
0.0
 10
-37.00998217506527
 20
5.171001189223788
 30
0.0
 10
-37.00955400738116
 20
5.167616348570451
 30
0.0
 10
-37.00914056320085
 20
5.164221683929241
 30
0.0
  0
LINE
  5
2F95
330
2F86
100
AcDbEntity
  8
0
100
AcDbLine
 10
-38.90450298162759
 20
7.033763830000001
 30
0.0
 11
-37.00000000000001
 21
7.033763830000001
 31
0.0
  0
LINE
  5
2F96
330
2F86
100
AcDbEntity
  8
0
100
AcDbLine
 10
-39.0
 20
7.033763830000001
 30
0.0
 11
-38.90450298162759
 21
7.033763830000001
 31
0.0
  0
LINE
  5
2F97
330
2F86
100
AcDbEntity
  8
0
100
AcDbLine
 10
-39.53889719891733
 20
7.033763830000001
 30
0.0
 11
-39.0
 21
7.033763830000001
 31
0.0
  0
SPLINE
  5
2F98
330
2F86
100
AcDbEntity
  8
0
100
AcDbSpline
210
0.0
220
0.0
230
1.0
 70
     8
 71
     3
 72
    36
 73
    32
 74
     0
 42
0.000000001
 43
0.0000000001
 40
0.0086994413621126
 40
0.0086994413621126
 40
0.0086994413621126
 40
0.0086994413621126
 40
0.0163393911318041
 40
0.0163393911318041
 40
0.0430257899796979
 40
0.0430257899796979
 40
0.1146905186241618
 40
0.1146905186241618
 40
0.1750225531375198
 40
0.1750225531375198
 40
0.205093726196599
 40
0.205093726196599
 40
0.2149284107165347
 40
0.2149284107165347
 40
0.2168948278946759
 40
0.2168948278946759
 40
0.2181268760472864
 40
0.2181268760472864
 40
0.2196919268203033
 40
0.2196919268203033
 40
0.2209340132697707
 40
0.2209340132697707
 40
0.2224991649085091
 40
0.2224991649085091
 40
0.2251959067275056
 40
0.2251959067275056
 40
0.231968185140198
 40
0.231968185140198
 40
0.2411318918458065
 40
0.2411318918458065
 40
0.2483718026626884
 40
0.2483718026626884
 40
0.2483718026626884
 40
0.2483718026626884
 10
-35.0
 20
6.802136469463395
 30
0.0
 10
-34.9999863965551
 20
6.777038457128599
 30
0.0
 10
-34.99996578680037
 20
6.75185432272146
 30
0.0
 10
-34.99987440441309
 20
6.639239722053773
 30
0.0
 10
-34.99980595365903
 20
6.552564985947874
 30
0.0
 10
-34.99907913612073
 20
6.23928569569733
 30
0.0
 10
-34.99749299210262
 20
6.022359238414056
 30
0.0
 10
-34.99480670233689
 20
5.679555238641733
 30
0.0
 10
-34.99401385864354
 20
5.546529525225728
 30
0.0
 10
-34.99414175122936
 20
5.382181809550584
 30
0.0
 10
-34.99430754577669
 20
5.331579229603766
 30
0.0
 10
-34.99533041833225
 20
5.244186396260142
 30
0.0
 10
-34.99565466353163
 20
5.220678183339223
 30
0.0
 10
-34.99626797986439
 20
5.185353102148165
 30
0.0
 10
-34.99637967951409
 20
5.179127374694797
 30
0.0
 10
-34.99657345720306
 20
5.168679575371788
 30
0.0
 10
-34.99665202430095
 20
5.16452415068214
 30
0.0
 10
-34.99683108376695
 20
5.155216510224768
 30
0.0
 10
-34.99693433809521
 20
5.149967893329079
 30
0.0
 10
-34.99710214519735
 20
5.141561340471021
 30
0.0
 10
-34.99717206650217
 20
5.13810232820554
 30
0.0
 10
-34.99731685561147
 20
5.130990636639127
 30
0.0
 10
-34.99738983996497
 20
5.127443691849026
 30
0.0
 10
-34.99757414299247
 20
5.118531731290232
 30
0.0
 10
-34.99767703200594
 20
5.113608705804399
 30
0.0
 10
-34.99802343160374
 20
5.097083312496499
 30
0.0
 10
-34.99824986115799
 20
5.086379997340814
 30
0.0
 10
-34.99879367327532
 20
5.060452002678363
 30
0.0
 10
-34.99911046250028
 20
5.045163708424454
 30
0.0
 10
-34.99960544647113
 20
5.020554059351288
 30
0.0
 10
-34.99979874134583
 20
5.010594835572636
 30
0.0
 10
-34.99991786077142
 20
5.004348427403795
 30
0.0
  0
SPLINE
  5
2F99
330
2F86
100
AcDbEntity
  8
0
100
AcDbSpline
210
0.0
220
0.0
230
1.0
 70
     8
 71
     3
 72
     8
 73
     4
 74
     0
 42
0.000000001
 43
0.0000000001
 40
0.0170983496439186
 40
0.0170983496439186
 40
0.0170983496439186
 40
0.0170983496439186
 40
0.0181641856220559
 40
0.0181641856220559
 40
0.0181641856220559
 40
0.0181641856220559
 10
-34.99971779456919
 20
5.008139457983959
 30
0.0
 10
-34.9997224431189
 20
5.00550007945351
 30
0.0
 10
-34.99972626269026
 20
5.002782682786475
 30
0.0
 10
-34.99972919115858
 20
4.99999870996115
 30
0.0
  0
SPLINE
  5
2F9A
330
2F86
100
AcDbEntity
  8
0
100
AcDbSpline
210
0.0
220
0.0
230
1.0
 70
     8
 71
     3
 72
    22
 73
    18
 74
     0
 42
0.000000001
 43
0.0000000001
 40
0.0210490666666216
 40
0.0210490666666216
 40
0.0210490666666216
 40
0.0210490666666216
 40
0.0236205911577495
 40
0.0236205911577495
 40
0.027448507834993
 40
0.027448507834993
 40
0.0311151732771973
 40
0.0311151732771973
 40
0.0336655704035464
 40
0.0336655704035464
 40
0.0353480408731455
 40
0.0353480408731455
 40
0.0379437650991517
 40
0.0379437650991517
 40
0.0402548264014065
 40
0.0402548264014065
 40
0.0424263699934643
 40
0.0424263699934643
 40
0.0424263699934643
 40
0.0424263699934643
 10
-34.99762693043398
 20
5.11684064715714
 30
0.0
 10
-34.99762693043292
 20
5.116840647209873
 30
0.0
 10
-34.99763587744647
 20
5.116397493619928
 30
0.0
 10
-34.99767859377324
 20
5.114250793603734
 30
0.0
 10
-34.99772256374599
 20
5.112026527535901
 30
0.0
 10
-34.99785188622264
 20
5.105405858584134
 30
0.0
 10
-34.99793615633611
 20
5.101065977862681
 30
0.0
 10
-34.99812778428249
 20
5.091159916132275
 30
0.0
 10
-34.99822159572599
 20
5.086303680243093
 30
0.0
 10
-34.99840552457668
 20
5.076784148410168
 30
0.0
 10
-34.99848681757338
 20
5.072577453414054
 30
0.0
 10
-34.99871096819751
 20
5.060975212116773
 30
0.0
 10
-34.99886739301454
 20
5.052878411183845
 30
0.0
 10
-34.99917140190747
 20
5.037050623358273
 30
0.0
 10
-34.99932074208383
 20
5.029233420722775
 30
0.0
 10
-34.99960301547681
 20
5.014298778676767
 30
0.0
 10
-34.99973844124974
 20
5.007059297123478
 30
0.0
 10
-34.99986900811273
 20
4.999997717265095
 30
0.0
  0
SPLINE
  5
2F9B
330
2F86
100
AcDbEntity
  8
0
100
AcDbSpline
210
0.0
220
0.0
230
1.0
 70
     8
 71
     3
 72
    12
 73
     8
 74
     0
 42
0.000000001
 43
0.0000000001
 40
0.0424597177092031
 40
0.0424597177092031
 40
0.0424597177092031
 40
0.0424597177092031
 40
0.0436464868228792
 40
0.0436464868228792
 40
0.0469140091726245
 40
0.0469140091726245
 40
0.0503789986937232
 40
0.0503789986937232
 40
0.0503789986937232
 40
0.0503789986937232
 10
-34.99987638719163
 20
5.019197934423226
 30
0.0
 10
-34.99987638718943
 20
5.019197935010426
 30
0.0
 10
-34.99987677096306
 20
5.019095927985603
 30
0.0
 10
-34.99987972609118
 20
5.018252068277764
 30
0.0
 10
-34.99988505448874
 20
5.016679741137536
 30
0.0
 10
-34.99990194805953
 20
5.010749543148676
 30
0.0
 10
-34.99991396743368
 20
5.006141569638789
 30
0.0
 10
-34.99992814339408
 20
4.999999826439234
 30
0.0
  0
SPLINE
  5
2F9C
330
2F86
100
AcDbEntity
  8
0
100
AcDbSpline
210
0.0
220
0.0
230
1.0
 70
     8
 71
     3
 72
     8
 73
     4
 74
     0
 42
0.000000001
 43
0.0000000001
 40
0.0
 40
0.0
 40
0.0
 40
0.0
 40
0.0008406185781713
 40
0.0008406185781713
 40
0.0008406185781713
 40
0.0008406185781713
 10
-37.00019788308928
 20
4.999998843619747
 30
0.0
 10
-37.00021339103829
 20
5.002646583918878
 30
0.0
 10
-37.00023187527877
 20
5.005284780655219
 30
0.0
 10
-37.00025344541786
 20
5.007901722518281
 30
0.0
  0
SPLINE
  5
2F9D
330
2F86
100
AcDbEntity
  8
0
100
AcDbSpline
210
0.0
220
0.0
230
1.0
 70
     8
 71
     3
 72
     8
 73
     4
 74
     0
 42
0.000000001
 43
0.0000000001
 40
0.0
 40
0.0
 40
0.0
 40
0.0
 40
0.0006857132817699
 40
0.0006857132817699
 40
0.0006857132817699
 40
0.0006857132817699
 10
-37.00003652532544
 20
4.999999774953868
 30
0.0
 10
-37.00006281283064
 20
5.001219146919886
 30
0.0
 10
-37.00008950282784
 20
5.002414814784947
 30
0.0
 10
-37.00011597905402
 20
5.003564751166848
 30
0.0
  0
SPLINE
  5
2F9E
330
2F86
100
AcDbEntity
  8
0
100
AcDbSpline
210
0.0
220
0.0
230
1.0
 70
     8
 71
     3
 72
    34
 73
    30
 74
     0
 42
0.000000001
 43
0.0000000001
 40
0.0
 40
0.0
 40
0.0
 40
0.0
 40
0.0021627981157337
 40
0.0021627981157337
 40
0.0029856920984569
 40
0.0029856920984569
 40
0.0034188863575646
 40
0.0034188863575646
 40
0.0039934485916374
 40
0.0039934485916374
 40
0.0045983254436443
 40
0.0045983254436443
 40
0.0055396792914945
 40
0.0055396792914945
 40
0.007404572889551
 40
0.007404572889551
 40
0.0122289895824811
 40
0.0122289895824811
 40
0.0267326635990113
 40
0.0267326635990113
 40
0.0398394080354814
 40
0.0398394080354814
 40
0.044707437482284
 40
0.044707437482284
 40
0.0498214364591908
 40
0.0498214364591908
 40
0.0524583420119365
 40
0.0524583420119365
 40
0.0531223408813973
 40
0.0531223408813973
 40
0.0531223408813973
 40
0.0531223408813973
 10
-37.00000747689374
 20
4.999999946650703
 30
0.0
 10
-37.00007173179574
 20
5.002152452038942
 30
0.0
 10
-37.00013685929214
 20
5.004295655212784
 30
0.0
 10
-37.00029211883238
 20
5.009098012967061
 30
0.0
 10
-37.00034397715752
 20
5.010680501696914
 30
0.0
 10
-37.0004461869229
 20
5.013703380327879
 30
0.0
 10
-37.00048610526404
 20
5.01486923409229
 30
0.0
 10
-37.00058759317432
 20
5.017781043247211
 30
0.0
 10
-37.00065303946523
 20
5.019620959023637
 30
0.0
 10
-37.00079293149982
 20
5.023456057052443
 30
0.0
 10
-37.00086873580602
 20
5.025484664217435
 30
0.0
 10
-37.0010660496233
 20
5.030634502926072
 30
0.0
 10
-37.00119099565269
 20
5.03377587184694
 30
0.0
 10
-37.00157223504908
 20
5.043020559655171
 30
0.0
 10
-37.00183976548267
 20
5.049075145645148
 30
0.0
 10
-37.00285112619937
 20
5.070535566721282
 30
0.0
 10
-37.00368297773125
 20
5.085669616480213
 30
0.0
 10
-37.00746964358149
 20
5.14552837018145
 30
0.0
 10
-37.01138249957431
 20
5.189020792795164
 30
0.0
 10
-37.02093252324244
 20
5.267232280826129
 30
0.0
 10
-37.02647086945977
 20
5.30286363855834
 30
0.0
 10
-37.03460650075976
 20
5.345911739849958
 30
0.0
 10
-37.03686145432555
 20
5.35698812521712
 30
0.0
 10
-37.04120846674423
 20
5.377132787178105
 30
0.0
 10
-37.04335025020254
 20
5.386320429850196
 30
0.0
 10
-37.04547496009421
 20
5.395129219520137
 30
0.0
 10
-37.04599663531036
 20
5.397224010845232
 30
0.0
 10
-37.04621690373769
 20
5.398105614566699
 30
0.0
 10
-37.04623985746238
 20
5.398196990162539
 30
0.0
 10
-37.04623985747364
 20
5.398196990207426
 30
0.0
  0
LINE
  5
2F9F
330
2F86
100
AcDbEntity
  8
0
100
AcDbLine
 10
-39.59515475306293
 20
7.033158153748766
 30
0.0
 11
-39.59590086489581
 21
7.033752828848831
 31
0.0
  0
LINE
  5
2FA0
330
2F86
100
AcDbEntity
  8
0
100
AcDbLine
 10
32.99999999999999
 20
-2.0
 30
0.0
 11
-32.99999999999999
 21
-2.000000000000007
 31
0.0
  0
LINE
  5
2FA1
330
2F86
100
AcDbEntity
  8
0
100
AcDbLine
 10
-32.99999999999999
 20
0.0
 30
0.0
 11
32.99999999999999
 21
0.0
 31
0.0
  0
ARC
  5
2FA2
330
2F86
100
AcDbEntity
  8
0
100
AcDbCircle
 10
-32.99999999999999
 20
2.0
 30
0.0
 40
4.000000000000007
100
AcDbArc
 50
180.0
 51
270.0
  0
ARC
  5
2FA3
330
2F86
100
AcDbEntity
  8
0
100
AcDbCircle
 10
-32.99999999999999
 20
2.0
 30
0.0
 40
2.000000000000006
100
AcDbArc
 50
180.0
 51
270.0
  0
ARC
  5
2FA4
330
2F86
100
AcDbEntity
  8
0
100
AcDbCircle
 10
32.99999999999999
 20
2.0
 30
0.0
 40
4.000000000000007
100
AcDbArc
 50
270.0
 51
0.0
  0
LINE
  5
2FA5
330
2F86
100
AcDbEntity
  8
0
100
AcDbLine
 10
39.5958767952818
 20
7.033763830000005
 30
0.0
 11
76.50000000000009
 21
37.99999999999999
 31
0.0
  0
LINE
  5
2FA6
330
2F86
100
AcDbEntity
  8
0
100
AcDbLine
 10
34.99999999999999
 20
4.436014752908805
 30
0.0
 11
35.0
 21
37.99999999999999
 31
0.0
  0
LINE
  5
2FA7
330
2F86
100
AcDbEntity
  8
0
100
AcDbLine
 10
36.99999999999999
 20
4.436014752908805
 30
0.0
 11
34.99999999999999
 21
4.436014752908805
 31
0.0
  0
LINE
  5
2FA8
330
2F86
100
AcDbEntity
  8
0
100
AcDbLine
 10
37.0
 20
37.99999999999999
 30
0.0
 11
36.99999999999999
 21
4.436014752908805
 31
0.0
  0
LINE
  5
2FA9
330
2F86
100
AcDbEntity
  8
0
100
AcDbLine
 10
37.0
 20
37.99999999999999
 30
0.0
 11
35.0
 21
37.99999999999999
 31
0.0
  0
LINE
  5
2FAA
330
2F86
100
AcDbEntity
  8
0
100
AcDbLine
 10
35.0
 20
37.99999999999999
 30
0.0
 11
35.0
 21
64.99999999999999
 31
0.0
  0
LINE
  5
2FAB
330
2F86
100
AcDbEntity
  8
0
100
AcDbLine
 10
37.0
 20
64.99999999999999
 30
0.0
 11
37.0
 21
37.99999999999999
 31
0.0
  0
LINE
  5
2FAC
330
2F86
100
AcDbEntity
  8
0
100
AcDbLine
 10
35.0
 20
64.99999999999999
 30
0.0
 11
37.0
 21
64.99999999999999
 31
0.0
  0
LINE
  5
2FAD
330
2F86
100
AcDbEntity
  8
0
100
AcDbLine
 10
36.99999999999999
 20
4.436014752908805
 30
0.0
 11
36.99999999999999
 21
2.0
 31
0.0
  0
LINE
  5
2FAE
330
2F86
100
AcDbEntity
  8
0
100
AcDbLine
 10
34.99999999999999
 20
2.0
 30
0.0
 11
34.99999999999999
 21
4.436014752908805
 31
0.0
  0
ARC
  5
2FAF
330
2F86
100
AcDbEntity
  8
0
100
AcDbCircle
 10
32.99999999999999
 20
2.0
 30
0.0
 40
2.000000000000006
100
AcDbArc
 50
270.0
 51
0.0
  0
LINE
  5
2FB0
330
2F86
100
AcDbEntity
  8
0
100
AcDbLine
 10
39.0
 20
65.0
 30
0.0
 11
37.0
 21
65.0
 31
0.0
  0
LINE
  5
2FB1
330
2F86
100
AcDbEntity
  8
0
100
AcDbLine
 10
76.50000000000009
 20
37.99999999999999
 30
0.0
 11
76.5
 21
65.0
 31
0.0
  0
LINE
  5
2FB2
330
2F86
100
AcDbEntity
  8
0
100
AcDbLine
 10
76.5
 20
65.0
 30
0.0
 11
39.0
 21
65.0
 31
0.0
  0
CIRCLE
  5
2FB3
330
2F86
100
AcDbEntity
  8
0
100
AcDbCircle
 10
57.0
 20
45.0
 30
0.0
 40
5.5
  0
CIRCLE
  5
2FB4
330
2F86
100
AcDbEntity
  8
0
100
AcDbCircle
 10
68.0
 20
40.0
 30
0.0
 40
2.5
  0
CIRCLE
  5
2FB5
330
2F86
100
AcDbEntity
  8
0
100
AcDbCircle
 10
46.0
 20
30.0
 30
0.0
 40
2.5
  0
CIRCLE
  5
2FB6
330
2F86
100
AcDbEntity
  8
0
100
AcDbCircle
 10
46.0
 20
50.0
 30
0.0
 40
2.5
  0
CIRCLE
  5
2FB7
330
2F86
100
AcDbEntity
  8
0
100
AcDbCircle
 10
68.0
 20
60.0
 30
0.0
 40
2.5
  0
LINE
  5
2FB8
330
2F86
100
AcDbEntity
  8
0
100
AcDbLine
 10
-76.50000000000009
 20
37.99999999999999
 30
0.0
 11
-39.5958767952818
 21
7.033763830000006
 31
0.0
  0
LINE
  5
2FB9
330
2F86
100
AcDbEntity
  8
0
100
AcDbLine
 10
-35.0
 20
37.99999999999999
 30
0.0
 11
-34.99999999999999
 21
4.436014752908805
 31
0.0
  0
LINE
  5
2FBA
330
2F86
100
AcDbEntity
  8
0
100
AcDbLine
 10
-37.0
 20
37.99999999999999
 30
0.0
 11
-35.0
 21
37.99999999999999
 31
0.0
  0
LINE
  5
2FBB
330
2F86
100
AcDbEntity
  8
0
100
AcDbLine
 10
-36.99999999999999
 20
4.436014752908805
 30
0.0
 11
-37.0
 21
37.99999999999999
 31
0.0
  0
LINE
  5
2FBC
330
2F86
100
AcDbEntity
  8
0
100
AcDbLine
 10
-34.99999999999999
 20
4.436014752908805
 30
0.0
 11
-36.99999999999999
 21
4.436014752908805
 31
0.0
  0
LINE
  5
2FBD
330
2F86
100
AcDbEntity
  8
0
100
AcDbLine
 10
-35.0
 20
64.99999999999999
 30
0.0
 11
-35.0
 21
37.99999999999999
 31
0.0
  0
LINE
  5
2FBE
330
2F86
100
AcDbEntity
  8
0
100
AcDbLine
 10
-37.0
 20
64.99999999999999
 30
0.0
 11
-35.0
 21
64.99999999999999
 31
0.0
  0
LINE
  5
2FBF
330
2F86
100
AcDbEntity
  8
0
100
AcDbLine
 10
-37.0
 20
37.99999999999999
 30
0.0
 11
-37.0
 21
64.99999999999999
 31
0.0
  0
CIRCLE
  5
2FC0
330
2F86
100
AcDbEntity
  8
0
100
AcDbCircle
 10
-57.0
 20
45.0
 30
0.0
 40
5.5
  0
CIRCLE
  5
2FC1
330
2F86
100
AcDbEntity
  8
0
100
AcDbCircle
 10
-68.0
 20
40.0
 30
0.0
 40
2.5
  0
CIRCLE
  5
2FC2
330
2F86
100
AcDbEntity
  8
0
100
AcDbCircle
 10
-68.0
 20
60.0
 30
0.0
 40
2.5
  0
CIRCLE
  5
2FC3
330
2F86
100
AcDbEntity
  8
0
100
AcDbCircle
 10
-46.0
 20
50.0
 30
0.0
 40
2.5
  0
CIRCLE
  5
2FC4
330
2F86
100
AcDbEntity
  8
0
100
AcDbCircle
 10
-46.0
 20
30.0
 30
0.0
 40
2.5
  0
LINE
  5
2FC5
330
2F86
100
AcDbEntity
  8
0
100
AcDbLine
 10
-76.5
 20
65.0
 30
0.0
 11
-39.0
 21
65.0
 31
0.0
  0
LINE
  5
2FC6
330
2F86
100
AcDbEntity
  8
0
100
AcDbLine
 10
-76.50000000000009
 20
37.99999999999999
 30
0.0
 11
-76.5
 21
65.0
 31
0.0
  0
LINE
  5
2FC7
330
2F86
100
AcDbEntity
  8
0
100
AcDbLine
 10
-34.99999999999999
 20
2.0
 30
0.0
 11
-34.99999999999999
 21
4.436014752908805
 31
0.0
  0
LINE
  5
2FC8
330
2F86
100
AcDbEntity
  8
0
100
AcDbLine
 10
-36.99999999999999
 20
4.436014752908805
 30
0.0
 11
-36.99999999999999
 21
2.0
 31
0.0
  0
LINE
  5
2FC9
330
2F86
100
AcDbEntity
  8
0
100
AcDbLine
 10
-39.0
 20
65.0
 30
0.0
 11
-37.0
 21
65.0
 31
0.0
  0
ENDBLK
  5
2F88
330
2F86
100
AcDbEntity
  8
0
100
AcDbBlockEnd
  0
BLOCK
  5
2FCB
330
2FCA
100
AcDbEntity
  8
0
100
AcDbBlockBegin
  2
SAE200_70_2-Left
 70
     0
 10
0.0
 20
0.0
 30
0.0
  3
SAE200_70_2-Left
  1

  0
SPLINE
  5
2FCD
330
2FCA
100
AcDbEntity
  8
0
100
AcDbSpline
210
0.0
220
0.0
230
1.0
 70
     8
 71
     3
 72
    11
 73
     7
 74
     0
 42
0.000000001
 43
0.0000000001
 40
-0.8681067313319154
 40
-0.8681067313319154
 40
-0.8681067313319154
 40
-0.8681067313319154
 40
-0.8089862893287579
 40
-0.8089862893287579
 40
-0.8089862893287579
 40
-0.7744808842636984
 40
-0.7744808842636984
 40
-0.7744808842636984
 40
-0.7744808842636984
 10
1.904022921268527
 20
5.747167947050063
 30
0.0
 10
1.876829527185519
 20
5.832546369849785
 30
0.0
 10
1.84455184079537
 20
5.907465661838648
 30
0.0
 10
1.808100235851549
 20
5.973689547380703
 30
0.0
 10
1.786825405162852
 20
6.012340848321395
 30
0.0
 10
1.764079690897526
 20
6.047785800252234
 30
0.0
 10
1.740026448469715
 20
6.080309836215677
 30
0.0
  0
SPLINE
  5
2FCE
330
2FCA
100
AcDbEntity
  8
0
100
AcDbSpline
210
0.0
220
0.0
230
1.0
 70
     8
 71
     3
 72
     8
 73
     4
 74
     0
 42
0.000000001
 43
0.0000000001
 40
-0.7468742936683057
 40
-0.7468742936683057
 40
-0.7468742936683057
 40
-0.7468742936683057
 40
-0.4152724343383736
 40
-0.4152724343383736
 40
-0.4152724343383736
 40
-0.4152724343383736
 10
1.679866718943419
 20
6.152911029781061
 30
0.0
 10
1.429610011018536
 20
6.422311133901281
 30
0.0
 10
1.07066707192208
 20
6.44304114473566
 30
0.0
 10
0.7480228819927771
 20
6.468435206518704
 30
0.0
  0
SPLINE
  5
2FCF
330
2FCA
100
AcDbEntity
  8
0
100
AcDbSpline
210
0.0
220
0.0
230
1.0
 70
     8
 71
     3
 72
     8
 73
     4
 74
     0
 42
0.000000001
 43
0.0000000001
 40
-0.2420057694563606
 40
-0.2420057694563606
 40
-0.2420057694563606
 40
-0.2420057694563606
 40
-0.1302444742192123
 40
-0.1302444742192123
 40
-0.1302444742192123
 40
-0.1302444742192123
 10
0.2943671077626437
 20
6.53976157858051
 30
0.0
 10
0.2124882519064958
 20
6.569374677474234
 30
0.0
 10
0.1434837046278349
 20
6.613501196825819
 30
0.0
 10
0.0926996972499234
 20
6.682491892866149
 30
0.0
  0
SPLINE
  5
2FD0
330
2FCA
100
AcDbEntity
  8
0
100
AcDbSpline
210
0.0
220
0.0
230
1.0
 70
     8
 71
     3
 72
    22
 73
    18
 74
     0
 42
0.000000001
 43
0.0000000001
 40
0.0013646742188117
 40
0.0013646742188117
 40
0.0013646742188117
 40
0.0013646742188117
 40
0.0035354371535394
 40
0.0035354371535394
 40
0.0094920220635196
 40
0.0094920220635196
 40
0.0139944159745696
 40
0.0139944159745696
 40
0.0162157829350255
 40
0.0162157829350255
 40
0.0191301678892389
 40
0.0191301678892389
 40
0.0227357056098866
 40
0.0227357056098866
 40
0.0287828282385071
 40
0.0287828282385071
 40
0.0410844892186017
 40
0.0410844892186017
 40
0.0410844892186017
 40
0.0410844892186017
 10
1.999906041376039
 20
5.007033656826759
 30
0.0
 10
1.999850977445698
 20
5.011085626193217
 30
0.0
 10
1.999786032106113
 20
5.015536668943585
 30
0.0
 10
1.999515970358472
 20
5.032412716648828
 30
0.0
 10
1.999268567567688
 20
5.045276151331943
 30
0.0
 10
1.998693884360453
 20
5.069724298344745
 30
0.0
 10
1.9983901547684
 20
5.08135329064387
 30
0.0
 10
1.997782577096401
 20
5.101331180646099
 30
0.0
 10
1.99755462791961
 20
5.10839719123811
 30
0.0
 10
1.996980088685666
 20
5.125074310615636
 30
0.0
 10
1.996613979393505
 20
5.134920711062447
 30
0.0
 10
1.995744567938533
 20
5.156624980804251
 30
0.0
 10
1.995222647184533
 20
5.168597310734743
 30
0.0
 10
1.993748535246242
 20
5.199943453302893
 30
0.0
 10
1.992734989163208
 20
5.219081935996893
 30
0.0
 10
1.989394046486701
 20
5.275965899782666
 30
0.0
 10
1.986772974696688
 20
5.312961344429197
 30
0.0
 10
1.983648960572749
 20
5.349788786993602
 30
0.0
  0
SPLINE
  5
2FD1
330
2FCA
100
AcDbEntity
  8
0
100
AcDbSpline
210
0.0
220
0.0
230
1.0
 70
     8
 71
     3
 72
    11
 73
     7
 74
     0
 42
0.000000001
 43
0.0000000001
 40
-0.9452661420125165
 40
-0.9452661420125165
 40
-0.9452661420125165
 40
-0.9452661420125165
 40
-0.7876460908025395
 40
-0.7876460908025395
 40
-0.7876460908025395
 40
-0.466809779758367
 40
-0.466809779758367
 40
-0.466809779758367
 40
-0.466809779758367
 10
1.981330216309704
 20
5.348269554823749
 30
0.0
 10
1.948041729091434
 20
5.655292325527505
 30
0.0
 10
1.872080266199151
 20
5.884437465270321
 30
0.0
 10
1.767098264705564
 20
6.041782918131772
 30
0.0
 10
1.553406936561239
 20
6.362060283023577
 30
0.0
 10
1.219466683258255
 20
6.427341438815881
 30
0.0
 10
0.9005342115956063
 20
6.456253009554201
 30
0.0
  0
SPLINE
  5
2FD2
330
2FCA
100
AcDbEntity
  8
0
100
AcDbSpline
210
0.0
220
0.0
230
1.0
 70
     8
 71
     3
 72
    14
 73
    10
 74
     0
 42
0.000000001
 43
0.0000000001
 40
-0.4568499296963749
 40
-0.4568499296963749
 40
-0.4568499296963749
 40
-0.4568499296963749
 40
-0.3898693216151075
 40
-0.3898693216151075
 40
-0.3898693216151075
 40
-0.1107861306159875
 40
-0.1107861306159875
 40
-0.1107861306159875
 40
0.0
 40
0.0
 40
0.0
 40
0.0
 10
0.870879401403393
 20
6.458846943140507
 30
0.0
 10
0.8045179953770775
 20
6.464455347225063
 30
0.0
 10
0.7389936980508871
 20
6.468774408120573
 30
0.0
 10
0.6755372188436577
 20
6.473793423450708
 30
0.0
 10
0.4111377573571948
 20
6.494705786806803
 30
0.0
 10
0.1774240933315982
 20
6.531043279815611
 30
0.0
 10
0.067130112112178
 20
6.721167768943257
 30
0.0
 10
0.0233473125613068
 20
6.796640449366565
 30
0.0
 10
0.000022362707313
 20
6.899333154672317
 30
0.0
 10
0.0000000000000006
 20
7.033763830000033
 30
0.0
  0
SPLINE
  5
2FD3
330
2FCA
100
AcDbEntity
  8
0
100
AcDbSpline
210
0.0
220
0.0
230
1.0
 70
     8
 71
     3
 72
    17
 73
    13
 74
     0
 42
0.000000001
 43
0.0000000001
 40
0.0
 40
0.0
 40
0.0
 40
0.0
 40
0.3443116748352013
 40
0.3443116748352013
 40
0.3443116748352013
 40
0.7099962075909417
 40
0.7099962075909417
 40
0.7099962075909417
 40
0.9541078706403901
 40
0.9541078706403901
 40
0.9541078706403901
 40
1.0
 40
1.0
 40
1.0
 40
1.0
 10
2.000000000000023
 20
7.03376382999998
 30
0.0
 10
2.000011831211416
 20
6.794654155010666
 30
0.0
 10
2.000611229801094
 20
6.628311309691859
 30
0.0
 10
1.999884666144994
 20
6.467535650390663
 30
0.0
 10
1.999113001660408
 20
6.296779977124008
 30
0.0
 10
2.000051922159253
 20
6.129674012245434
 30
0.0
 10
2.000275297337442
 20
5.862626688203881
 30
0.0
 10
2.000424410798218
 20
5.684360011477273
 30
0.0
 10
1.999680762370519
 20
5.464120407885941
 30
0.0
 10
2.000067321969366
 20
5.174377168802722
 30
0.0
 10
2.000139993806893
 20
5.119906464523484
 30
0.0
 10
2.000438493525211
 20
5.063128945373902
 30
0.0
 10
2.000000000000666
 20
4.999999999961254
 30
0.0
  0
LINE
  5
2FD4
330
2FCA
100
AcDbEntity
  8
0
100
AcDbLine
 10
2.000000000000011
 20
7.033763830000001
 30
0.0
 11
2.002281221121968
 21
7.033763830000001
 31
0.0
  0
LINE
  5
2FD5
330
2FCA
100
AcDbEntity
  8
0
100
AcDbLine
 10
0.0
 20
7.033763830000003
 30
0.0
 11
2.00000000000001
 21
7.033763830000003
 31
0.0
  0
SPLINE
  5
2FD6
330
2FCA
100
AcDbEntity
  8
0
100
AcDbSpline
210
0.0
220
0.0
230
1.0
 70
     8
 71
     3
 72
    12
 73
     8
 74
     0
 42
0.000000001
 43
0.0000000001
 40
0.0
 40
0.0
 40
0.0
 40
0.0
 40
0.0025388457038145
 40
0.0025388457038145
 40
0.0056097743065544
 40
0.0056097743065544
 40
0.0066515443240178
 40
0.0066515443240178
 40
0.0066515443240178
 40
0.0066515443240178
 10
0.9000209077624944
 20
6.456386242274014
 30
0.0
 10
0.8985981873605044
 20
6.456514058283822
 30
0.0
 10
0.8957325821046822
 20
6.456770680184708
 30
0.0
 10
0.8879221814186548
 20
6.457458713082314
 30
0.0
 10
0.8825801634622976
 20
6.457923123329099
 30
0.0
 10
0.8746809134348108
 20
6.458594345060546
 30
0.0
 10
0.872609272890012
 20
6.458769219417069
 30
0.0
 10
0.8704776314126414
 20
6.458947846686954
 30
0.0
  0
SPLINE
  5
2FD7
330
2FCA
100
AcDbEntity
  8
0
100
AcDbSpline
210
0.0
220
0.0
230
1.0
 70
     8
 71
     3
 72
    10
 73
     6
 74
     0
 42
0.000000001
 43
0.0000000001
 40
0.0
 40
0.0
 40
0.0
 40
0.0
 40
0.005211913872732
 40
0.005211913872732
 40
0.0083783202512427
 40
0.0083783202512427
 40
0.0083783202512427
 40
0.0083783202512427
 10
1.99989732203287
 20
5.000000209903897
 30
0.0
 10
1.99991874785437
 20
5.009099782491603
 30
0.0
 10
1.999895969841418
 20
5.015852736902219
 30
0.0
 10
1.999866122596614
 20
5.021955806772564
 30
0.0
 10
1.999856226889651
 20
5.023212992686119
 30
0.0
 10
1.999856226889743
 20
5.023212992674002
 30
0.0
  0
SPLINE
  5
2FD8
330
2FCA
100
AcDbEntity
  8
0
100
AcDbSpline
210
0.0
220
0.0
230
1.0
 70
     8
 71
     3
 72
    10
 73
     6
 74
     0
 42
0.000000001
 43
0.0000000001
 40
0.0024803130650129
 40
0.0024803130650129
 40
0.0024803130650129
 40
0.0024803130650129
 40
0.0072111180524125
 40
0.0072111180524125
 40
0.0087011136737704
 40
0.0087011136737704
 40
0.0087011136737704
 40
0.0087011136737704
 10
1.999904773614942
 20
5.007293640903403
 30
0.0
 10
1.999850250407927
 20
5.011767413263083
 30
0.0
 10
1.999794882077488
 20
5.015679170226375
 30
0.0
 10
1.99976212431442
 20
5.017885318524126
 30
0.0
 10
1.999757527420117
 20
5.018187269821057
 30
0.0
 10
1.999757527415347
 20
5.018187270135512
 30
0.0
  0
SPLINE
  5
2FD9
330
2FCA
100
AcDbEntity
  8
0
100
AcDbSpline
210
0.0
220
0.0
230
1.0
 70
     8
 71
     3
 72
    34
 73
    30
 74
     0
 42
0.000000001
 43
0.0000000001
 40
0.0013652387643064
 40
0.0013652387643064
 40
0.0013652387643064
 40
0.0013652387643064
 40
0.0035347522839759
 40
0.0035347522839759
 40
0.0094890059826599
 40
0.0094890059826599
 40
0.01398951256125
 40
0.01398951256125
 40
0.0162132793483868
 40
0.0162132793483868
 40
0.0191276178044369
 40
0.0191276178044369
 40
0.0227315881028621
 40
0.0227315881028621
 40
0.0287748274669204
 40
0.0287748274669204
 40
0.0416597407784655
 40
0.0416597407784655
 40
0.0803210683747511
 40
0.0803210683747511
 40
0.0924387382942638
 40
0.0924387382942638
 40
0.1009329416459979
 40
0.1009329416459979
 40
0.1074073337766248
 40
0.1074073337766248
 40
0.1104090949808071
 40
0.1104090949808071
 40
0.1145172642497523
 40
0.1145172642497523
 40
0.1145172642497523
 40
0.1145172642497523
 10
1.999906036993094
 20
5.007034019741326
 30
0.0
 10
1.999851004588925
 20
5.011083669202449
 30
0.0
 10
1.999786106185609
 20
5.015531628405907
 30
0.0
 10
1.999516196895866
 20
5.032399688040309
 30
0.0
 10
1.999268921379461
 20
5.045258204186704
 30
0.0
 10
1.998694661479888
 20
5.069693421988345
 30
0.0
 10
1.998391235680012
 20
5.081313533027414
 30
0.0
 10
1.997783986217755
 20
5.101286918570582
 30
0.0
 10
1.997555883713849
 20
5.108359504797874
 30
0.0
 10
1.996981222472816
 20
5.125043012196788
 30
0.0
 10
1.996615182393042
 20
5.134889194018744
 30
0.0
 10
1.99574611252975
 20
5.156588252100378
 30
0.0
 10
1.99522449183513
 20
5.168555814840722
 30
0.0
 10
1.993751436092911
 20
5.199885563698192
 30
0.0
 10
1.992738724908866
 20
5.219012927957246
 30
0.0
 10
1.989293111565697
 20
5.277695931878016
 30
0.0
 10
1.986529109173432
 20
5.316407687100558
 30
0.0
 10
1.973242643012778
 20
5.470580852035707
 30
0.0
 10
1.958401082646658
 20
5.585537299472989
 30
0.0
 10
1.924752277372598
 20
5.73223642399529
 30
0.0
 10
1.915610584304655
 20
5.766846764498091
 30
0.0
 10
1.89868642246028
 20
5.822391791372957
 30
0.0
 10
1.891216237826354
 20
5.844548353002886
 30
0.0
 10
1.878906787272818
 20
5.878225737442598
 30
0.0
 10
1.873809640982296
 20
5.891168794508296
 30
0.0
 10
1.868518351724547
 20
5.904166094645434
 30
0.0
 10
1.867146512148941
 20
5.907458835630619
 30
0.0
 10
1.864808239104681
 20
5.913026787996744
 30
0.0
 10
1.864166357692152
 20
5.914515610209938
 30
0.0
 10
1.864166358510018
 20
5.914515608298448
 30
0.0
  0
LINE
  5
2FDA
330
2FCA
100
AcDbEntity
  8
0
100
AcDbLine
 10
2.000000000000001
 20
-2.0
 30
0.0
 11
86.0
 21
-2.000000000000007
 31
0.0
  0
LINE
  5
2FDB
330
2FCA
100
AcDbEntity
  8
0
100
AcDbLine
 10
2.000000000000002
 20
2.000000000000071
 30
0.0
 11
2.000000000000001
 21
-2.000000000000001
 31
0.0
  0
LINE
  5
2FDC
330
2FCA
100
AcDbEntity
  8
0
100
AcDbLine
 10
86.0
 20
-2.000000000000007
 30
0.0
 11
86.0
 21
2.0
 31
0.0
  0
LINE
  5
2FDD
330
2FCA
100
AcDbEntity
  8
0
100
AcDbLine
 10
2.000000000000002
 20
2.000000000000071
 30
0.0
 11
2.000000000000002
 21
5.0
 31
0.0
  0
LINE
  5
2FDE
330
2FCA
100
AcDbEntity
  8
0
100
AcDbLine
 10
2.000000000000001
 20
37.99999999999999
 30
0.0
 11
2.00000000000001
 21
7.033763830000006
 31
0.0
  0
LINE
  5
2FDF
330
2FCA
100
AcDbEntity
  8
0
100
AcDbLine
 10
0.0
 20
37.99999999999999
 30
0.0
 11
2.000000000000001
 21
37.99999999999999
 31
0.0
  0
LINE
  5
2FE0
330
2FCA
100
AcDbEntity
  8
0
100
AcDbLine
 10
0.0
 20
7.03376383000001
 30
0.0
 11
0.0
 21
37.99999999999999
 31
0.0
  0
LINE
  5
2FE1
330
2FCA
100
AcDbEntity
  8
0
100
AcDbLine
 10
86.0
 20
4.436014752908805
 30
0.0
 11
46.0
 21
37.99999999999999
 31
0.0
  0
LINE
  5
2FE2
330
2FCA
100
AcDbEntity
  8
0
100
AcDbLine
 10
46.0
 20
37.99999999999999
 30
0.0
 11
46.0
 21
64.99999999999999
 31
0.0
  0
LINE
  5
2FE3
330
2FCA
100
AcDbEntity
  8
0
100
AcDbLine
 10
2.000000000000001
 20
37.99999999999999
 30
0.0
 11
2.000000000000015
 21
65.0
 31
0.0
  0
LINE
  5
2FE4
330
2FCA
100
AcDbEntity
  8
0
100
AcDbLine
 10
86.0
 20
4.436014752908805
 30
0.0
 11
86.0
 21
2.0
 31
0.0
  0
LINE
  5
2FE5
330
2FCA
100
AcDbEntity
  8
0
100
AcDbLine
 10
4.000000000000003
 20
65.0
 30
0.0
 11
46.0
 21
64.99999999999999
 31
0.0
  0
LINE
  5
2FE6
330
2FCA
100
AcDbEntity
  8
0
100
AcDbLine
 10
0.0
 20
65.0
 30
0.0
 11
2.000000000000015
 21
65.0
 31
0.0
  0
LINE
  5
2FE7
330
2FCA
100
AcDbEntity
  8
0
100
AcDbLine
 10
0.0
 20
37.99999999999999
 30
0.0
 11
0.0
 21
65.0
 31
0.0
  0
LINE
  5
2FE8
330
2FCA
100
AcDbEntity
  8
0
100
AcDbLine
 10
2.000000000000006
 20
65.0
 30
0.0
 11
4.000000000000003
 21
65.0
 31
0.0
  0
CIRCLE
  5
2FE9
330
2FCA
100
AcDbEntity
  8
0
100
AcDbCircle
 10
38.49999999999999
 20
39.99999999999999
 30
0.0
 40
2.5
  0
CIRCLE
  5
2FEA
330
2FCA
100
AcDbEntity
  8
0
100
AcDbCircle
 10
38.49999999999999
 20
59.99999999999999
 30
0.0
 40
2.5
  0
CIRCLE
  5
2FEB
330
2FCA
100
AcDbEntity
  8
0
100
AcDbCircle
 10
38.49999999999998
 20
19.99999999999998
 30
0.0
 40
2.5
  0
ENDBLK
  5
2FCC
330
2FCA
100
AcDbEntity
  8
0
100
AcDbBlockEnd
  0
BLOCK
  5
2FED
330
2FEC
100
AcDbEntity
  8
0
100
AcDbBlockBegin
  2
SAE200_70_2-Right
 70
     0
 10
0.0
 20
0.0
 30
0.0
  3
SAE200_70_2-Right
  1

  0
LINE
  5
2FEF
330
2FEC
100
AcDbEntity
  8
0
100
AcDbLine
 10
-2.00000000000001
 20
7.033763830000003
 30
0.0
 11
0.0
 21
7.033763830000003
 31
0.0
  0
SPLINE
  5
2FF0
330
2FEC
100
AcDbEntity
  8
0
100
AcDbSpline
210
0.0
220
0.0
230
1.0
 70
     8
 71
     3
 72
    14
 73
    10
 74
     0
 42
0.000000001
 43
0.0000000001
 40
0.0
 40
0.0
 40
0.0
 40
0.0
 40
0.3939117749908468
 40
0.3939117749908468
 40
0.3939117749908468
 40
0.8234586028756446
 40
0.8234586028756446
 40
0.8234586028756446
 40
1.0
 40
1.0
 40
1.0
 40
1.0
 10
-1.999999999999955
 20
7.033763830000003
 30
0.0
 10
-1.999999999999961
 20
6.764228107315247
 30
0.0
 10
-1.999645951700365
 20
6.583602376762498
 30
0.0
 10
-2.000159229357957
 20
6.398286604405784
 30
0.0
 10
-2.000718940449731
 20
6.196206323422316
 30
0.0
 10
-1.997110336094296
 20
5.974689697681467
 30
0.0
 10
-2.000014851537153
 20
5.583751931423519
 30
0.0
 10
-2.001208591499746
 20
5.423078647479812
 30
0.0
 10
-2.000076166330458
 20
5.229595119967478
 30
0.0
 10
-2.000000000000004
 20
4.999999999999988
 30
0.0
  0
SPLINE
  5
2FF1
330
2FEC
100
AcDbEntity
  8
0
100
AcDbSpline
210
0.0
220
0.0
230
1.0
 70
     8
 71
     3
 72
    11
 73
     7
 74
     0
 42
0.000000001
 43
0.0000000001
 40
-0.9459392754593526
 40
-0.9459392754593526
 40
-0.9459392754593526
 40
-0.9459392754593526
 40
-0.8089862893287579
 40
-0.8089862893287579
 40
-0.8089862893287579
 40
-0.4664413289898928
 40
-0.4664413289898928
 40
-0.4664413289898928
 40
-0.4664413289898928
 10
-1.98291044826802
 20
5.351556275053482
 30
0.0
 10
-1.954582992559113
 20
5.620211827942868
 30
0.0
 10
-1.892540676030303
 20
5.820281376351287
 30
0.0
 10
-1.808100235851549
 20
5.973689547380703
 30
0.0
 10
-1.596898946640917
 20
6.357391994078872
 30
0.0
 10
-1.240740653704656
 20
6.425105634625754
 30
0.0
 10
-0.8994430621254242
 20
6.456082026362302
 30
0.0
  0
SPLINE
  5
2FF2
330
2FEC
100
AcDbEntity
  8
0
100
AcDbSpline
210
0.0
220
0.0
230
1.0
 70
     8
 71
     3
 72
    14
 73
    10
 74
     0
 42
0.000000001
 43
0.0000000001
 40
-0.4574714009129936
 40
-0.4574714009129936
 40
-0.4574714009129936
 40
-0.4574714009129936
 40
-0.3890757933219952
 40
-0.3890757933219952
 40
-0.3890757933219952
 40
-0.0951690515596435
 40
-0.0951690515596435
 40
-0.0951690515596435
 40
0.0
 40
0.0
 40
0.0
 40
0.0
 10
-0.8726647094608262
 20
6.4584449227557
 30
0.0
 10
-0.804695444400677
 20
6.464284015920945
 30
0.0
 10
-0.7374854880938054
 20
6.468950012559057
 30
0.0
 10
-0.6723070446048036
 20
6.474665851399564
 30
0.0
 10
-0.3922249657445928
 20
6.499227714788485
 30
0.0
 10
-0.1525239672465168
 20
6.529962197431579
 30
0.0
 10
-0.0504344579333472
 20
6.755115598282345
 30
0.0
 10
-0.017377163237536
 20
6.828021838833034
 30
0.0
 10
-0.0022300043415045
 20
6.921705262131768
 30
0.0
 10
-0.0000000000000442
 20
7.033763830000001
 30
0.0
  0
SPLINE
  5
2FF3
330
2FEC
100
AcDbEntity
  8
0
100
AcDbSpline
210
0.0
220
0.0
230
1.0
 70
     8
 71
     3
 72
    34
 73
    30
 74
     0
 42
0.000000001
 43
0.0000000001
 40
0.1258506492734704
 40
0.1258506492734704
 40
0.1258506492734704
 40
0.1258506492734704
 40
0.1283603069951433
 40
0.1283603069951433
 40
0.1341394935556477
 40
0.1341394935556477
 40
0.1388868001133185
 40
0.1388868001133185
 40
0.14507932008084
 40
0.14507932008084
 40
0.1559226021272333
 40
0.1559226021272333
 40
0.1812383146962726
 40
0.1812383146962726
 40
0.2050164419299103
 40
0.2050164419299103
 40
0.2173059244983297
 40
0.2173059244983297
 40
0.2211659709192264
 40
0.2211659709192264
 40
0.2243036591793014
 40
0.2243036591793014
 40
0.2279454258410692
 40
0.2279454258410692
 40
0.2309457858633091
 40
0.2309457858633091
 40
0.2365125837216117
 40
0.2365125837216117
 40
0.2390416474796484
 40
0.2390416474796484
 40
0.2390416474796484
 40
0.2390416474796484
 10
-1.864164916268006
 20
5.914519000379455
 30
0.0
 10
-1.864164916254671
 20
5.914519000410619
 30
0.0
 10
-1.864398829844347
 20
5.913973819015133
 30
0.0
 10
-1.866026798077288
 20
5.910137865442852
 30
0.0
 10
-1.868683618868095
 20
5.90386447556526
 30
0.0
 10
-1.875354917191931
 20
5.887208563840932
 30
0.0
 10
-1.879033917233855
 20
5.877747819018766
 30
0.0
 10
-1.887924390256621
 20
5.85367976913983
 30
0.0
 10
-1.893305346173765
 20
5.838257696986966
 30
0.0
 10
-1.907667938451423
 20
5.794029367423084
 30
0.0
 10
-1.91640348863777
 20
5.763637553644667
 30
0.0
 10
-1.942463388613129
 20
5.660666187171999
 30
0.0
 10
-1.955998905781715
 20
5.585353607020554
 30
0.0
 10
-1.975717225822904
 20
5.440383460135454
 30
0.0
 10
-1.982509407829588
 20
5.3700613371507
 30
0.0
 10
-1.990371545636915
 20
5.261029362515902
 30
0.0
 10
-1.992624462289082
 20
5.223290758446018
 30
0.0
 10
-1.995116615070718
 20
5.1709983604674
 30
0.0
 10
-1.995679781117425
 20
5.158195949175977
 30
0.0
 10
-1.996616012942194
 20
5.134905343198006
 30
0.0
 10
-1.997010309223161
 20
5.124275420369515
 30
0.0
 10
-1.997759539520999
 20
5.102344974997827
 30
0.0
 10
-1.998103772371886
 20
5.091036125602974
 30
0.0
 10
-1.998602813740422
 20
5.073074493820694
 30
0.0
 10
-1.998789366043556
 20
5.065690484292645
 30
0.0
 10
-1.999256963500477
 20
5.045714544570303
 30
0.0
 10
-1.999490927224653
 20
5.03368241991045
 30
0.0
 10
-1.999768365577799
 20
5.01674100985896
 30
0.0
 10
-1.999845512368796
 20
5.011497788369416
 30
0.0
 10
-1.999909210352518
 20
5.006795771602119
 30
0.0
  0
SPLINE
  5
2FF4
330
2FEC
100
AcDbEntity
  8
0
100
AcDbSpline
210
0.0
220
0.0
230
1.0
 70
     8
 71
     3
 72
    10
 73
     6
 74
     0
 42
0.000000001
 43
0.0000000001
 40
0.0068768143321269
 40
0.0068768143321269
 40
0.0068768143321269
 40
0.0068768143321269
 40
0.0093296737755399
 40
0.0093296737755399
 40
0.01319078283612
 40
0.01319078283612
 40
0.01319078283612
 40
0.01319078283612
 10
-1.999757527415239
 20
5.018187270138017
 30
0.0
 10
-1.999757527413398
 20
5.018187270259362
 30
0.0
 10
-1.999769939863643
 20
5.01737527387506
 30
0.0
 10
-1.999818914552733
 20
5.013992867781984
 30
0.0
 10
-1.999864766629957
 20
5.0106779680211
 30
0.0
 10
-1.999909095020995
 20
5.007020362920097
 30
0.0
  0
SPLINE
  5
2FF5
330
2FEC
100
AcDbEntity
  8
0
100
AcDbSpline
210
0.0
220
0.0
230
1.0
 70
     8
 71
     3
 72
    12
 73
     8
 74
     0
 42
0.000000001
 43
0.0000000001
 40
0.0088485650358541
 40
0.0088485650358541
 40
0.0088485650358541
 40
0.0088485650358541
 40
0.0112389130424247
 40
0.0112389130424247
 40
0.0154525475829894
 40
0.0154525475829894
 40
0.016747523393551
 40
0.016747523393551
 40
0.016747523393551
 40
0.016747523393551
 10
-1.999865520263477
 20
5.022806167352436
 30
0.0
 10
-1.999865520263014
 20
5.022806167417211
 30
0.0
 10
-1.999871105615497
 20
5.022046553622672
 30
0.0
 10
-1.999891989754917
 20
5.017997849083811
 30
0.0
 10
-1.999911474876308
 20
5.013182506199873
 30
0.0
 10
-1.999908258747531
 20
5.004616038191898
 30
0.0
 10
-1.999905394690427
 20
5.00242232893806
 30
0.0
 10
-1.999899651454592
 20
5.000082964873115
 30
0.0
  0
SPLINE
  5
2FF6
330
2FEC
100
AcDbEntity
  8
0
100
AcDbSpline
210
0.0
220
0.0
230
1.0
 70
     8
 71
     3
 72
    10
 73
     6
 74
     0
 42
0.000000001
 43
0.0000000001
 40
0.0
 40
0.0
 40
0.0
 40
0.0
 40
0.0029464770362215
 40
0.0029464770362215
 40
0.0060074650077983
 40
0.0060074650077983
 40
0.0060074650077983
 40
0.0060074650077983
 10
-0.8727659825657083
 20
6.458755597359486
 30
0.0
 10
-0.8786674631972045
 20
6.45825853257241
 30
0.0
 10
-0.8840952752657022
 20
6.457791179779902
 30
0.0
 10
-0.8934643834217187
 20
6.45697269504693
 30
0.0
 10
-0.8974517447348116
 20
6.45661677028298
 30
0.0
 10
-0.8995265421459276
 20
6.456430625312757
 30
0.0
  0
SPLINE
  5
2FF7
330
2FEC
100
AcDbEntity
  8
0
100
AcDbSpline
210
0.0
220
0.0
230
1.0
 70
     8
 71
     3
 72
     8
 73
     4
 74
     0
 42
0.000000001
 43
0.0000000001
 40
-0.6642941394519673
 40
-0.6642941394519673
 40
-0.6642941394519673
 40
-0.6642941394519673
 40
-0.4576225529805455
 40
-0.4576225529805455
 40
-0.4576225529805455
 40
-0.4576225529805455
 10
-1.47498674945508
 20
6.310540422024661
 30
0.0
 10
-1.290650968495685
 20
6.411363442612728
 30
0.0
 10
-1.077996270709373
 20
6.441254773886702
 30
0.0
 10
-0.8731761759745227
 20
6.458652346101077
 30
0.0
  0
SPLINE
  5
2FF8
330
2FEC
100
AcDbEntity
  8
0
100
AcDbSpline
210
0.0
220
0.0
230
1.0
 70
     8
 71
     3
 72
    22
 73
    18
 74
     0
 42
0.000000001
 43
0.0000000001
 40
0.199178856428211
 40
0.199178856428211
 40
0.199178856428211
 40
0.199178856428211
 40
0.2050289285428655
 40
0.2050289285428655
 40
0.2173123724923921
 40
0.2173123724923921
 40
0.2211716091557667
 40
0.2211716091557667
 40
0.2243056636649237
 40
0.2243056636649237
 40
0.2279450581787605
 40
0.2279450581787605
 40
0.2309456416474765
 40
0.2309456416474765
 40
0.2365133624027516
 40
0.2365133624027516
 40
0.2390408233687101
 40
0.2390408233687101
 40
0.2390408233687101
 40
0.2390408233687101
 10
-1.983567881009701
 20
5.350853319647027
 30
0.0
 10
-1.985058000646579
 20
5.333342827827252
 30
0.0
 10
-1.986426607793423
 20
5.31574459675137
 30
0.0
 10
-1.990377986621348
 20
5.260925450805662
 30
0.0
 10
-1.99262922667969
 20
5.22320255046107
 30
0.0
 10
-1.995119746782303
 20
5.170928938943451
 30
0.0
 10
-1.995682664804326
 20
5.158128240574551
 30
0.0
 10
-1.996618024191265
 20
5.134852019108107
 30
0.0
 10
-1.99701174539155
 20
5.124234980837223
 30
0.0
 10
-1.997760137405828
 20
5.102325614078329
 30
0.0
 10
-1.998104068121456
 20
5.091025735812824
 30
0.0
 10
-1.998602921320978
 20
5.073070411505292
 30
0.0
 10
-1.998789475373987
 20
5.065686089556233
 30
0.0
 10
-1.99925710605044
 20
5.045707942578304
 30
0.0
 10
-1.999491089308056
 20
5.033673868272897
 30
0.0
 10
-1.999768462247214
 20
5.016734495118011
 30
0.0
 10
-1.999845547703905
 20
5.01149522338683
 30
0.0
 10
-1.99990920554019
 20
5.0067961701974
 30
0.0
  0
LINE
  5
2FF9
330
2FEC
100
AcDbEntity
  8
0
100
AcDbLine
 10
-1.999999999999976
 20
-2.000000000000008
 30
0.0
 11
-86.00000000000001
 21
-2.0
 31
0.0
  0
LINE
  5
2FFA
330
2FEC
100
AcDbEntity
  8
0
100
AcDbLine
 10
-1.999999999999974
 20
4.999999999999994
 30
0.0
 11
-1.999999999999974
 21
1.999999999999999
 31
0.0
  0
LINE
  5
2FFB
330
2FEC
100
AcDbEntity
  8
0
100
AcDbLine
 10
-1.999999999999976
 20
-2.000000000000008
 30
0.0
 11
-1.999999999999974
 21
1.999999999999999
 31
0.0
  0
LINE
  5
2FFC
330
2FEC
100
AcDbEntity
  8
0
100
AcDbLine
 10
-86.0
 20
-2.000000000000007
 30
0.0
 11
-86.0
 21
2.0
 31
0.0
  0
LINE
  5
2FFD
330
2FEC
100
AcDbEntity
  8
0
100
AcDbLine
 10
0.0
 20
37.99999999999999
 30
0.0
 11
0.0
 21
7.03376383000001
 31
0.0
  0
LINE
  5
2FFE
330
2FEC
100
AcDbEntity
  8
0
100
AcDbLine
 10
-2.000000000000001
 20
37.99999999999999
 30
0.0
 11
0.0
 21
37.99999999999999
 31
0.0
  0
LINE
  5
2FFF
330
2FEC
100
AcDbEntity
  8
0
100
AcDbLine
 10
-2.00000000000001
 20
7.033763830000005
 30
0.0
 11
-2.000000000000001
 21
37.99999999999999
 31
0.0
  0
LINE
  5
3000
330
2FEC
100
AcDbEntity
  8
0
100
AcDbLine
 10
0.0
 20
37.99999999999999
 30
0.0
 11
0.0
 21
65.0
 31
0.0
  0
CIRCLE
  5
3001
330
2FEC
100
AcDbEntity
  8
0
100
AcDbCircle
 10
-38.50000000000001
 20
49.99999999999999
 30
0.0
 40
2.5
  0
CIRCLE
  5
3002
330
2FEC
100
AcDbEntity
  8
0
100
AcDbCircle
 10
-38.50000000000001
 20
29.99999999999998
 30
0.0
 40
2.5
  0
LINE
  5
3003
330
2FEC
100
AcDbEntity
  8
0
100
AcDbLine
 10
-46.0
 20
37.99999999999999
 30
0.0
 11
-86.0
 21
4.436014752908805
 31
0.0
  0
LINE
  5
3004
330
2FEC
100
AcDbEntity
  8
0
100
AcDbLine
 10
-46.0
 20
64.99999999999999
 30
0.0
 11
-46.0
 21
37.99999999999999
 31
0.0
  0
LINE
  5
3005
330
2FEC
100
AcDbEntity
  8
0
100
AcDbLine
 10
-86.0
 20
4.436014752908805
 30
0.0
 11
-86.0
 21
2.0
 31
0.0
  0
LINE
  5
3006
330
2FEC
100
AcDbEntity
  8
0
100
AcDbLine
 10
-4.000000000000003
 20
65.0
 30
0.0
 11
-46.0
 21
64.99999999999999
 31
0.0
  0
LINE
  5
3007
330
2FEC
100
AcDbEntity
  8
0
100
AcDbLine
 10
-2.000000000000006
 20
65.0
 30
0.0
 11
-4.000000000000003
 21
65.0
 31
0.0
  0
LINE
  5
3008
330
2FEC
100
AcDbEntity
  8
0
100
AcDbLine
 10
0.0
 20
65.0
 30
0.0
 11
-2.000000000000015
 21
65.0
 31
0.0
  0
LINE
  5
3009
330
2FEC
100
AcDbEntity
  8
0
100
AcDbLine
 10
-2.000000000000001
 20
37.99999999999999
 30
0.0
 11
-2.000000000000015
 21
65.0
 31
0.0
  0
ENDBLK
  5
2FEE
330
2FEC
100
AcDbEntity
  8
0
100
AcDbBlockEnd
  0
BLOCK
  5
300B
330
300A
100
AcDbEntity
  8
0
100
AcDbBlockBegin
  2
SAE200_70_2-Top
 70
     0
 10
0.0
 20
0.0
 30
0.0
  3
SAE200_70_2-Top
  1

  0
SPLINE
  5
300D
330
300A
100
AcDbEntity
  8
0
100
AcDbSpline
210
0.0
220
0.0
230
1.0
 70
     8
 71
     3
 72
    11
 73
     7
 74
     0
 42
0.000000001
 43
0.0000000001
 40
-1.0
 40
-1.0
 40
-1.0
 40
-1.0
 40
-0.8089862893287579
 40
-0.8089862893287579
 40
-0.8089862893287579
 40
-0.6568668258376929
 40
-0.6568668258376929
 40
-0.6568668258376929
 40
-0.6568668258376929
 10
34.99999999999996
 20
-1.999999999999987
 30
0.0
 10
35.00351742120331
 20
-2.000074016909939
 30
0.0
 10
35.11463907168
 20
-1.925872635453529
 30
0.0
 10
35.31096267662528
 20
-1.808100235851549
 30
0.0
 10
35.46731083273387
 20
-1.714308674091131
 30
0.0
 10
35.67470866193817
 20
-1.591929781421885
 30
0.0
 10
35.91620561914783
 20
-1.45496028503922
 30
0.0
  0
LINE
  5
300E
330
300A
100
AcDbEntity
  8
0
100
AcDbLine
 10
35.0
 20
-1.999999999999975
 30
0.0
 11
35.0
 21
-2.052717451098127
 31
0.0
  0
SPLINE
  5
300F
330
300A
100
AcDbEntity
  8
0
100
AcDbSpline
210
0.0
220
0.0
230
1.0
 70
     8
 71
     3
 72
    18
 73
    14
 74
     0
 42
0.000000001
 43
0.0000000001
 40
0.0174954286616619
 40
0.0174954286616619
 40
0.0174954286616619
 40
0.0174954286616619
 40
0.0578454443169599
 40
0.0578454443169599
 40
0.1560193900033732
 40
0.1560193900033732
 40
0.1933560421823885
 40
0.1933560421823885
 40
0.2057866430304592
 40
0.2057866430304592
 40
0.2198155176380248
 40
0.2198155176380248
 40
0.2302895339394994
 40
0.2302895339394994
 40
0.2302895339394994
 40
0.2302895339394994
 10
34.99997563445928
 20
-3.997301932394053
 30
0.0
 10
34.99798867794702
 20
-3.872330338551009
 30
0.0
 10
34.99650582817668
 20
-3.74723465081372
 30
0.0
 10
34.99346140655809
 20
-3.326208050906345
 30
0.0
 10
34.99353964945505
 20
-3.013601861637582
 30
0.0
 10
34.99514197151677
 20
-2.578100014317237
 30
0.0
 10
34.995769103706
 20
-2.459396480045847
 30
0.0
 10
34.99733982532205
 20
-2.305980816591845
 30
0.0
 10
34.9978156046016
 20
-2.267370410936232
 30
0.0
 10
34.99878716735254
 20
-2.18783285145174
 30
0.0
 10
34.99919256804003
 20
-2.148204450031596
 30
0.0
 10
34.99944560392639
 20
-2.091420512669119
 30
0.0
 10
34.99944649216657
 20
-2.070290702317696
 30
0.0
 10
34.99946745439721
 20
-2.052717451098127
 30
0.0
  0
SPLINE
  5
3010
330
300A
100
AcDbEntity
  8
0
100
AcDbSpline
210
0.0
220
0.0
230
1.0
 70
     8
 71
     3
 72
     8
 73
     4
 74
     0
 42
0.000000001
 43
0.0000000001
 40
0.0
 40
0.0
 40
0.0
 40
0.0
 40
0.0076917848184998
 40
0.0076917848184998
 40
0.0076917848184998
 40
0.0076917848184998
 10
34.99999271052464
 20
-4.000000046651206
 30
0.0
 10
34.9999837792012
 20
-3.997780515984779
 30
0.0
 10
34.99997804555069
 20
-3.996625647977055
 30
0.0
 10
34.99997804552086
 20
-3.996625642208829
 30
0.0
  0
SPLINE
  5
3011
330
300A
100
AcDbEntity
  8
0
100
AcDbSpline
210
0.0
220
0.0
230
1.0
 70
     8
 71
     3
 72
     8
 73
     4
 74
     0
 42
0.000000001
 43
0.0000000001
 40
0.000535245451702
 40
0.000535245451702
 40
0.000535245451702
 40
0.000535245451702
 40
0.0008633767561302
 40
0.0008633767561302
 40
0.0008633767561302
 40
0.0008633767561302
 10
34.99998158227658
 20
-3.99839289757085
 30
0.0
 10
34.9999806652782
 20
-3.998085644257088
 30
0.0
 10
34.9999797815848
 20
-3.997791187380028
 30
0.0
 10
34.99997893036169
 20
-3.997509202246439
 30
0.0
  0
SPLINE
  5
3012
330
300A
100
AcDbEntity
  8
0
100
AcDbSpline
210
0.0
220
0.0
230
1.0
 70
     8
 71
     3
 72
    10
 73
     6
 74
     0
 42
0.000000001
 43
0.0000000001
 40
0.0011307827011447
 40
0.0011307827011447
 40
0.0011307827011447
 40
0.0011307827011447
 40
0.0042522293454859
 40
0.0042522293454859
 40
0.0056445566260276
 40
0.0056445566260276
 40
0.0056445566260276
 40
0.0056445566260276
 10
34.99997691351506
 20
-3.996844438256152
 30
0.0
 10
34.99996931450115
 20
-3.994353023994845
 30
0.0
 10
34.99996456488764
 20
-3.992969306503259
 30
0.0
 10
34.99996137191538
 20
-3.992083515847471
 30
0.0
 10
34.99996089044189
 20
-3.991961350444584
 30
0.0
 10
34.99996089044175
 20
-3.991961350409773
 30
0.0
  0
SPLINE
  5
3013
330
300A
100
AcDbEntity
  8
0
100
AcDbSpline
210
0.0
220
0.0
230
1.0
 70
     8
 71
     3
 72
    10
 73
     6
 74
     0
 42
0.000000001
 43
0.0000000001
 40
0.0
 40
0.0
 40
0.0
 40
0.0
 40
0.0076234285978867
 40
0.0076234285978867
 40
0.0083785901296908
 40
0.0083785901296908
 40
0.0083785901296908
 40
0.0083785901296908
 10
34.99996800365931
 20
-3.999990945362634
 30
0.0
 10
34.99999072118781
 20
-3.992090653215572
 30
0.0
 10
35.00000824383864
 20
-3.984999295388615
 30
0.0
 10
35.00001113432051
 20
-3.983659709760367
 30
0.0
 10
35.00001125836238
 20
-3.983597844124954
 30
0.0
 10
35.0000112583624
 20
-3.983597844114179
 30
0.0
  0
LINE
  5
3014
330
300A
100
AcDbEntity
  8
0
100
AcDbLine
 10
-35.00000000000001
 20
-2.000000000000002
 30
0.0
 11
-35.00000000000001
 21
-2.076612484590196
 31
0.0
  0
SPLINE
  5
3015
330
300A
100
AcDbEntity
  8
0
100
AcDbSpline
210
0.0
220
0.0
230
1.0
 70
     8
 71
     3
 72
    11
 73
     7
 74
     0
 42
0.000000001
 43
0.0000000001
 40
-1.0
 40
-1.0
 40
-1.0
 40
-1.0
 40
-0.7876460908025395
 40
-0.7876460908025395
 40
-0.7876460908025395
 40
-0.6572006592360382
 40
-0.6572006592360382
 40
-0.6572006592360382
 40
-0.6572006592360382
 10
-34.99999999999995
 20
-2.000000000000046
 30
0.0
 10
-35.00001709889693
 20
-1.997297840947453
 30
0.0
 10
-35.14189898355534
 20
-1.908535462837408
 30
0.0
 10
-35.37943622833659
 20
-1.767098264705564
 30
0.0
 10
-35.52535135900553
 20
-1.680215774905438
 30
0.0
 10
-35.70707075922688
 20
-1.573455320059698
 30
0.0
 10
-35.91389394572009
 20
-1.455907549142823
 30
0.0
  0
SPLINE
  5
3016
330
300A
100
AcDbEntity
  8
0
100
AcDbSpline
210
0.0
220
0.0
230
1.0
 70
     8
 71
     3
 72
    12
 73
     8
 74
     0
 42
0.000000001
 43
0.0000000001
 40
0.00750187047431
 40
0.00750187047431
 40
0.00750187047431
 40
0.00750187047431
 40
0.0075629319109986
 40
0.0075629319109986
 40
0.0117951973758092
 40
0.0117951973758092
 40
0.0156712301065975
 40
0.0156712301065975
 40
0.0156712301065975
 40
0.0156712301065975
 10
-35.00002724265574
 20
-3.976577054349997
 30
0.0
 10
-35.0000272426563
 20
-3.976577054128582
 30
0.0
 10
-35.00002724105054
 20
-3.976577674568664
 30
0.0
 10
-35.00002701440716
 20
-3.976664669614828
 30
0.0
 10
-35.00001788225033
 20
-3.979788907098839
 30
0.0
 10
-34.99999048153684
 20
-3.988581041583658
 30
0.0
 10
-34.9999735342846
 20
-3.994042064967327
 30
0.0
 10
-34.99995556655662
 20
-3.999999793529998
 30
0.0
  0
SPLINE
  5
3017
330
300A
100
AcDbEntity
  8
0
100
AcDbSpline
210
0.0
220
0.0
230
1.0
 70
     8
 71
     3
 72
     8
 73
     4
 74
     0
 42
0.000000001
 43
0.0000000001
 40
0.0087080057525134
 40
0.0087080057525134
 40
0.0087080057525134
 40
0.0087080057525134
 40
0.0133652389559671
 40
0.0133652389559671
 40
0.0133652389559671
 40
0.0133652389559671
 10
-34.99995461823149
 20
-3.992564528745974
 30
0.0
 10
-34.99995461823149
 20
-3.99256452874479
 30
0.0
 10
-34.9999596794094
 20
-3.993669772641534
 30
0.0
 10
-34.99996859261358
 20
-3.995767160734579
 30
0.0
  0
SPLINE
  5
3018
330
300A
100
AcDbEntity
  8
0
100
AcDbSpline
210
0.0
220
0.0
230
1.0
 70
     8
 71
     3
 72
    42
 73
    38
 74
     0
 42
0.000000001
 43
0.0000000001
 40
0.0
 40
0.0
 40
0.0
 40
0.0
 40
0.0050651856727412
 40
0.0050651856727412
 40
0.0109781190373119
 40
0.0109781190373119
 40
0.0187873006664077
 40
0.0187873006664077
 40
0.0296180822432802
 40
0.0296180822432802
 40
0.0532987525149326
 40
0.0532987525149326
 40
0.1243110830159809
 40
0.1243110830159809
 40
0.1547063549664755
 40
0.1547063549664755
 40
0.1941217801193426
 40
0.1941217801193426
 40
0.2038224787938029
 40
0.2038224787938029
 40
0.2074601971134595
 40
0.2074601971134595
 40
0.2101896422395123
 40
0.2101896422395123
 40
0.2109223915928006
 40
0.2109223915928006
 40
0.2110708148352302
 40
0.2110708148352302
 40
0.2111975389908444
 40
0.2111975389908444
 40
0.2113240629268265
 40
0.2113240629268265
 40
0.2115783000687366
 40
0.2115783000687366
 40
0.211852445096436
 40
0.211852445096436
 40
0.2118687638961475
 40
0.2118687638961475
 40
0.2118687638961475
 40
0.2118687638961475
 10
-34.9997340918318
 20
-2.076612484590196
 30
0.0
 10
-34.99972726810923
 20
-2.081529967834155
 30
0.0
 10
-34.99970501406906
 20
-2.089087316782742
 30
0.0
 10
-34.99960330467129
 20
-2.108800785665086
 30
0.0
 10
-34.99951407687234
 20
-2.121685174822326
 30
0.0
 10
-34.99923603872159
 20
-2.154851999550142
 30
0.0
 10
-34.99902695957668
 20
-2.176422774829691
 30
0.0
 10
-34.99847547665256
 20
-2.230037351670573
 30
0.0
 10
-34.99808998780159
 20
-2.263608599108822
 30
0.0
 10
-34.99697866001739
 20
-2.369605114193307
 30
0.0
 10
-34.99640145625607
 20
-2.443362784607257
 30
0.0
 10
-34.9945338645978
 20
-2.743041939662397
 30
0.0
 10
-34.9939809432307
 20
-2.975465985209319
 30
0.0
 10
-34.99416289690326
 20
-3.292367500384246
 30
0.0
 10
-34.99435808243397
 20
-3.385923538399708
 30
0.0
 10
-34.99531084803374
 20
-3.598141249328803
 30
0.0
 10
-34.99623441731412
 20
-3.716189438127047
 30
0.0
 10
-34.99807255771328
 20
-3.866333526365091
 30
0.0
 10
-34.99846679069027
 20
-3.8960828290574
 30
0.0
 10
-34.9990504711644
 20
-3.937201830862464
 30
0.0
 10
-34.9992138832644
 20
-3.948437106432972
 30
0.0
 10
-34.99950821449706
 20
-3.968212191833865
 30
0.0
 10
-34.99963609526373
 20
-3.976663561015706
 30
0.0
 10
-34.99980764673308
 20
-3.987812410291509
 30
0.0
 10
-34.9998460134611
 20
-3.990294832034403
 30
0.0
 10
-34.99989120411303
 20
-3.993205535856399
 30
0.0
 10
-34.99989881170267
 20
-3.993695078227642
 30
0.0
 10
-34.99991190143511
 20
-3.994536718865144
 30
0.0
 10
-34.99991761457677
 20
-3.994903780182832
 30
0.0
 10
-34.99992758388254
 20
-3.995543959886456
 30
0.0
 10
-34.99993193971801
 20
-3.995823490240425
 30
0.0
 10
-34.99994306296971
 20
-3.996537066621359
 30
0.0
 10
-34.99994814962676
 20
-3.996863048550633
 30
0.0
 10
-34.99995637200419
 20
-3.997389896350731
 30
0.0
 10
-34.99995939640688
 20
-3.997583580557519
 30
0.0
 10
-34.99996202249157
 20
-3.997751738037309
 30
0.0
 10
-34.99996216822339
 20
-3.997761069678791
 30
0.0
 10
-34.99996231218376
 20
-3.997770287810029
 30
0.0
  0
SPLINE
  5
3019
330
300A
100
AcDbEntity
  8
0
100
AcDbSpline
210
0.0
220
0.0
230
1.0
 70
     8
 71
     3
 72
    10
 73
     6
 74
     0
 42
0.000000001
 43
0.0000000001
 40
0.0
 40
0.0
 40
0.0
 40
0.0
 40
0.0028864108892452
 40
0.0028864108892452
 40
0.0031465003698792
 40
0.0031465003698792
 40
0.0031465003698792
 40
0.0031465003698792
 10
-37.00000404666764
 20
-3.99999992249467
 30
0.0
 10
-37.00003417055638
 20
-3.992750187716762
 30
0.0
 10
-37.00008326775303
 20
-3.984400654819113
 30
0.0
 10
-37.00015799935329
 20
-3.975358295188937
 30
0.0
 10
-37.0001643378115
 20
-3.974609469753935
 30
0.0
 10
-37.00017083642591
 20
-3.973859676387906
 30
0.0
  0
SPLINE
  5
301A
330
300A
100
AcDbEntity
  8
0
100
AcDbSpline
210
0.0
220
0.0
230
1.0
 70
     8
 71
     3
 72
     8
 73
     4
 74
     0
 42
0.000000001
 43
0.0000000001
 40
0.0
 40
0.0
 40
0.0
 40
0.0
 40
0.0028903881957821
 40
0.0028903881957821
 40
0.0028903881957821
 40
0.0028903881957821
 10
-37.00001917853223
 20
-3.999999820529854
 30
0.0
 10
-37.00005182236778
 20
-3.99102112750916
 30
0.0
 10
-37.00010522679064
 20
-3.982025049702934
 30
0.0
 10
-37.00018241838328
 20
-3.972988145992041
 30
0.0
  0
SPLINE
  5
301B
330
300A
100
AcDbEntity
  8
0
100
AcDbSpline
210
0.0
220
0.0
230
1.0
 70
     8
 71
     3
 72
    12
 73
     8
 74
     0
 42
0.000000001
 43
0.0000000001
 40
0.0938011411158982
 40
0.0938011411158982
 40
0.0938011411158982
 40
0.0938011411158982
 40
0.1091524333907789
 40
0.1091524333907789
 40
0.1623308451366421
 40
0.1623308451366421
 40
0.1947447653429563
 40
0.1947447653429563
 40
0.1947447653429563
 40
0.1947447653429563
 10
-38.6331633459306
 20
-2.033930095538019
 30
0.0
 10
-38.68335297305339
 20
-2.028719270193131
 30
0.0
 10
-38.73330658953914
 20
-2.024486674921812
 30
0.0
 10
-38.95432806584634
 20
-2.008778122601186
 30
0.0
 10
-39.12142539535988
 20
-2.004592891151387
 30
0.0
 10
-39.38526467039311
 20
-2.000711331857532
 30
0.0
 10
-39.4838415817618
 20
-2.000187367509412
 30
0.0
 10
-39.5800058553703
 20
-2.000034403260874
 30
0.0
  0
LINE
  5
301C
330
300A
100
AcDbEntity
  8
0
100
AcDbLine
 10
-33.00000000000001
 20
-2.000000000000001
 30
0.0
 11
33.0
 21
-1.999999999999976
 31
0.0
  0
LINE
  5
301D
330
300A
100
AcDbEntity
  8
0
100
AcDbLine
 10
-32.99999999999999
 20
-86.0
 30
0.0
 11
32.99999999999999
 21
-86.00000000000001
 31
0.0
  0
CIRCLE
  5
301E
330
300A
100
AcDbEntity
  8
0
100
AcDbCircle
 10
0.0
 20
-48.0
 30
0.0
 40
2.5
  0
CIRCLE
  5
301F
330
300A
100
AcDbEntity
  8
0
100
AcDbCircle
 10
0.0
 20
-68.0
 30
0.0
 40
2.5
  0
LINE
  5
3020
330
300A
100
AcDbEntity
  8
0
100
AcDbLine
 10
33.0
 20
-1.999999999999976
 30
0.0
 11
35.0
 21
-1.999999999999975
 31
0.0
  0
LINE
  5
3021
330
300A
100
AcDbEntity
  8
0
100
AcDbLine
 10
39.0
 20
0.0
 30
0.0
 11
76.5
 21
0.0
 31
0.0
  0
ARC
  5
3022
330
300A
100
AcDbEntity
  8
0
100
AcDbCircle
 10
39.0
 20
-4.000000000000004
 30
0.0
 40
3.999999999999999
100
AcDbArc
 50
90.00000000000012
 51
180.0
  0
LINE
  5
3023
330
300A
100
AcDbEntity
  8
0
100
AcDbLine
 10
34.99999999999999
 20
-86.0
 30
0.0
 11
35.0
 21
-46.0
 31
0.0
  0
LINE
  5
3024
330
300A
100
AcDbEntity
  8
0
100
AcDbLine
 10
36.99999999999999
 20
-86.0
 30
0.0
 11
34.99999999999999
 21
-86.0
 31
0.0
  0
LINE
  5
3025
330
300A
100
AcDbEntity
  8
0
100
AcDbLine
 10
37.0
 20
-46.0
 30
0.0
 11
36.99999999999999
 21
-86.0
 31
0.0
  0
LINE
  5
3026
330
300A
100
AcDbEntity
  8
0
100
AcDbLine
 10
35.0
 20
-46.0
 30
0.0
 11
37.0
 21
-46.0
 31
0.0
  0
LINE
  5
3027
330
300A
100
AcDbEntity
  8
0
100
AcDbLine
 10
37.0
 20
-4.000000000000003
 30
0.0
 11
37.0
 21
-46.0
 31
0.0
  0
LINE
  5
3028
330
300A
100
AcDbEntity
  8
0
100
AcDbLine
 10
35.0
 20
-46.0
 30
0.0
 11
35.0
 21
-4.000000000000003
 31
0.0
  0
LINE
  5
3029
330
300A
100
AcDbEntity
  8
0
100
AcDbLine
 10
35.0
 20
-86.0
 30
0.0
 11
32.99999999999999
 21
-86.0
 31
0.0
  0
ARC
  5
302A
330
300A
100
AcDbEntity
  8
0
100
AcDbCircle
 10
39.0
 20
-4.000000000000004
 30
0.0
 40
1.999999999999997
100
AcDbArc
 50
90.00000000000012
 51
180.0
  0
LINE
  5
302B
330
300A
100
AcDbEntity
  8
0
100
AcDbLine
 10
76.5
 20
0.0
 30
0.0
 11
76.5
 21
-2.000000000000015
 31
0.0
  0
LINE
  5
302C
330
300A
100
AcDbEntity
  8
0
100
AcDbLine
 10
76.5
 20
-2.000000000000015
 30
0.0
 11
39.0
 21
-2.000000000000006
 31
0.0
  0
LINE
  5
302D
330
300A
100
AcDbEntity
  8
0
100
AcDbLine
 10
-35.00000000000001
 20
-2.000000000000002
 30
0.0
 11
-33.00000000000001
 21
-2.000000000000001
 31
0.0
  0
LINE
  5
302E
330
300A
100
AcDbEntity
  8
0
100
AcDbLine
 10
-35.0
 20
-86.0
 30
0.0
 11
-32.99999999999999
 21
-86.0
 31
0.0
  0
LINE
  5
302F
330
300A
100
AcDbEntity
  8
0
100
AcDbLine
 10
-76.5
 20
-2.000000000000015
 30
0.0
 11
-39.0
 21
-2.000000000000006
 31
0.0
  0
LINE
  5
3030
330
300A
100
AcDbEntity
  8
0
100
AcDbLine
 10
-35.0
 20
-46.0
 30
0.0
 11
-35.0
 21
-4.000000000000003
 31
0.0
  0
LINE
  5
3031
330
300A
100
AcDbEntity
  8
0
100
AcDbLine
 10
-37.0
 20
-4.000000000000003
 30
0.0
 11
-37.0
 21
-46.0
 31
0.0
  0
LINE
  5
3032
330
300A
100
AcDbEntity
  8
0
100
AcDbLine
 10
-39.0
 20
0.0
 30
0.0
 11
-76.5
 21
0.0
 31
0.0
  0
LINE
  5
3033
330
300A
100
AcDbEntity
  8
0
100
AcDbLine
 10
-76.5
 20
0.0
 30
0.0
 11
-76.5
 21
-2.000000000000015
 31
0.0
  0
ARC
  5
3034
330
300A
100
AcDbEntity
  8
0
100
AcDbCircle
 10
-39.0
 20
-4.000000000000004
 30
0.0
 40
1.999999999999997
100
AcDbArc
 50
0.0
 51
89.99999999999987
  0
ARC
  5
3035
330
300A
100
AcDbEntity
  8
0
100
AcDbCircle
 10
-39.0
 20
-4.000000000000004
 30
0.0
 40
3.999999999999999
100
AcDbArc
 50
0.0
 51
89.99999999999987
  0
LINE
  5
3036
330
300A
100
AcDbEntity
  8
0
100
AcDbLine
 10
-35.0
 20
-46.0
 30
0.0
 11
-34.99999999999999
 21
-86.0
 31
0.0
  0
LINE
  5
3037
330
300A
100
AcDbEntity
  8
0
100
AcDbLine
 10
-36.99999999999999
 20
-86.0
 30
0.0
 11
-37.0
 21
-46.0
 31
0.0
  0
LINE
  5
3038
330
300A
100
AcDbEntity
  8
0
100
AcDbLine
 10
-34.99999999999999
 20
-86.0
 30
0.0
 11
-36.99999999999999
 21
-86.0
 31
0.0
  0
LINE
  5
3039
330
300A
100
AcDbEntity
  8
0
100
AcDbLine
 10
-37.0
 20
-46.0
 30
0.0
 11
-35.0
 21
-46.0
 31
0.0
  0
ENDBLK
  5
300C
330
300A
100
AcDbEntity
  8
0
100
AcDbBlockEnd
  0
BLOCK
  5
303B
330
303A
100
AcDbEntity
  8
0
100
AcDbBlockBegin
  2
SAE200_70_2-Bottom
 70
     0
 10
0.0
 20
0.0
 30
0.0
  3
SAE200_70_2-Bottom
  1

  0
LINE
  5
303D
330
303A
100
AcDbEntity
  8
0
100
AcDbLine
 10
39.5958767952818
 20
2.00000000000001
 30
0.0
 11
39.5958767952818
 21
0.0
 31
0.0
  0
SPLINE
  5
303E
330
303A
100
AcDbEntity
  8
0
100
AcDbSpline
210
0.0
220
0.0
230
1.0
 70
     8
 71
     3
 72
    14
 73
    10
 74
     0
 42
0.000000001
 43
0.0000000001
 40
0.0
 40
0.0
 40
0.0
 40
0.0
 40
0.3939117749908468
 40
0.3939117749908468
 40
0.3939117749908468
 40
0.8234586028756446
 40
0.8234586028756446
 40
0.8234586028756446
 40
1.0
 40
1.0
 40
1.0
 40
1.0
 10
39.59587679528183
 20
1.999999999999955
 30
0.0
 10
39.27465662943977
 20
1.999999999999961
 30
0.0
 10
38.79061451995987
 20
1.999645951700365
 30
0.0
 10
38.33845224745619
 20
2.000159229357957
 30
0.0
 10
37.84538531680236
 20
2.000718940449731
 30
0.0
 10
37.37933635266814
 20
1.997110336094296
 30
0.0
 10
37.14927169069983
 20
2.000014851537153
 30
0.0
 10
37.05471637282486
 20
2.001208591499746
 30
0.0
 10
37.0021813647232
 20
2.000076166330458
 30
0.0
 10
37.00000000000007
 20
2.000000000000004
 30
0.0
  0
SPLINE
  5
303F
330
303A
100
AcDbEntity
  8
0
100
AcDbSpline
210
0.0
220
0.0
230
1.0
 70
     8
 71
     3
 72
    17
 73
    13
 74
     0
 42
0.000000001
 43
0.0000000001
 40
-1.0
 40
-1.0
 40
-1.0
 40
-1.0
 40
-0.8089862893287579
 40
-0.8089862893287579
 40
-0.8089862893287579
 40
-0.3890757933219952
 40
-0.3890757933219952
 40
-0.3890757933219952
 40
-0.0951690515596435
 40
-0.0951690515596435
 40
-0.0951690515596435
 40
0.0
 40
0.0
 40
0.0
 40
0.0
 10
34.99999999999996
 20
1.999999999999987
 30
0.0
 10
35.00351742120331
 20
2.000074016909939
 30
0.0
 10
35.11463907168
 20
1.925872635453529
 30
0.0
 10
35.31096267662528
 20
1.808100235851549
 30
0.0
 10
35.74254605375938
 20
1.549198052552833
 30
0.0
 10
36.56311801494439
 20
1.072465965599863
 30
0.0
 10
37.41614574815017
 20
0.6723070446048036
 30
0.0
 10
38.01320298792776
 20
0.3922249657445928
 30
0.0
 10
38.62856006778682
 20
0.1525239672465168
 30
0.0
 10
39.14214535067401
 20
0.0504344579333472
 30
0.0
 10
39.30844784504445
 20
0.017377163237536
 30
0.0
 10
39.46224912233839
 20
0.0022300043415045
 30
0.0
 10
39.59587679528125
 20
0.0000000000000442
 30
0.0
  0
LINE
  5
3040
330
303A
100
AcDbEntity
  8
0
100
AcDbLine
 10
39.59587679528181
 20
0.0
 30
0.0
 11
39.0
 21
0.0
 31
0.0
  0
ARC
  5
3041
330
303A
100
AcDbEntity
  8
0
100
AcDbCircle
 10
39.0
 20
4.000000000000004
 30
0.0
 40
3.999999999999994
100
AcDbArc
 50
219.4852913620148
 51
270.0
  0
ARC
  5
3042
330
303A
100
AcDbEntity
  8
0
100
AcDbCircle
 10
39.0
 20
4.000000000000004
 30
0.0
 40
1.999999999999992
100
AcDbArc
 50
180.0
 51
268.2617034469704
  0
SPLINE
  5
3043
330
303A
100
AcDbEntity
  8
0
100
AcDbSpline
210
0.0
220
0.0
230
1.0
 70
     8
 71
     3
 72
    17
 73
    13
 74
     0
 42
0.000000001
 43
0.0000000001
 40
-1.0
 40
-1.0
 40
-1.0
 40
-1.0
 40
-0.7876460908025395
 40
-0.7876460908025395
 40
-0.7876460908025395
 40
-0.3898693216151075
 40
-0.3898693216151075
 40
-0.3898693216151075
 40
-0.1107861306159875
 40
-0.1107861306159875
 40
-0.1107861306159875
 40
0.0
 40
0.0
 40
0.0
 40
0.0
 10
-34.99999999999995
 20
2.000000000000046
 30
0.0
 10
-35.00001709889693
 20
1.997297840947453
 30
0.0
 10
-35.14189898355534
 20
1.908535462837408
 30
0.0
 10
-35.37943622833659
 20
1.767098264705564
 30
0.0
 10
-35.82438587935953
 20
1.502161151334634
 30
0.0
 10
-36.60226780831478
 20
1.052385294818658
 30
0.0
 10
-37.40966843221908
 20
0.6755372188436577
 30
0.0
 10
-37.97614681906455
 20
0.4111377573571948
 30
0.0
 10
-38.56874841728696
 20
0.1774240933315982
 30
0.0
 10
-39.0571864767342
 20
0.067130112112178
 30
0.0
 10
-39.25107906645994
 20
0.0233473125613068
 30
0.0
 10
-39.43079809687779
 20
0.000022362707313
 30
0.0
 10
-39.59587679528177
 20
0.0000000000000006
 30
0.0
  0
LINE
  5
3044
330
303A
100
AcDbEntity
  8
0
100
AcDbLine
 10
-39.0
 20
0.0
 30
0.0
 11
-39.59587679528181
 21
0.0
 31
0.0
  0
ARC
  5
3045
330
303A
100
AcDbEntity
  8
0
100
AcDbCircle
 10
-39.0
 20
4.000000000000004
 30
0.0
 40
3.999999999999994
100
AcDbArc
 50
270.0000000000001
 51
320.5135825374102
  0
SPLINE
  5
3046
330
303A
100
AcDbEntity
  8
0
100
AcDbSpline
210
0.0
220
0.0
230
1.0
 70
     8
 71
     3
 72
    17
 73
    13
 74
     0
 42
0.000000001
 43
0.0000000001
 40
0.0
 40
0.0
 40
0.0
 40
0.0
 40
0.3443116748352013
 40
0.3443116748352013
 40
0.3443116748352013
 40
0.7099962075909417
 40
0.7099962075909417
 40
0.7099962075909417
 40
0.9541078706403901
 40
0.9541078706403901
 40
0.9541078706403901
 40
1.0
 40
1.0
 40
1.0
 40
1.0
 10
-39.59587679528183
 20
2.000000000000023
 30
0.0
 10
-39.30373217601408
 20
2.000011831211416
 30
0.0
 10
-38.9070074108311
 20
2.000611229801094
 30
0.0
 10
-38.50910566121665
 20
1.999884666144994
 30
0.0
 10
-38.08650449481678
 20
1.999113001660408
 30
0.0
 10
-37.66971752072263
 20
2.000051922159253
 30
0.0
 10
-37.37948720168215
 20
2.000275297337442
 30
0.0
 10
-37.18574478300658
 20
2.000424410798218
 30
0.0
 10
-37.0484483511028
 20
1.999680762370519
 30
0.0
 10
-37.01042520648905
 20
2.000067321969366
 30
0.0
 10
-37.0032769897694
 20
2.000139993806893
 30
0.0
 10
-36.99999826947496
 20
2.000438493525211
 30
0.0
 10
-37.0000000002342
 20
2.000000000000666
 30
0.0
  0
ARC
  5
3047
330
303A
100
AcDbEntity
  8
0
100
AcDbCircle
 10
-39.0
 20
4.000000000000004
 30
0.0
 40
1.999999999999992
100
AcDbArc
 50
280.5683814242398
 51
359.8655790957098
  0
LINE
  5
3048
330
303A
100
AcDbEntity
  8
0
100
AcDbLine
 10
-39.5958767952818
 20
0.0
 30
0.0
 11
-39.5958767952818
 21
2.00000000000001
 31
0.0
  0
SPLINE
  5
3049
330
303A
100
AcDbEntity
  8
0
100
AcDbSpline
210
0.0
220
0.0
230
1.0
 70
     8
 71
     3
 72
    24
 73
    20
 74
     0
 42
0.000000001
 43
0.0000000001
 40
0.021816443159429
 40
0.021816443159429
 40
0.021816443159429
 40
0.021816443159429
 40
0.0636634282631144
 40
0.0636634282631144
 40
0.0964067553264648
 40
0.0964067553264648
 40
0.1153760650352551
 40
0.1153760650352551
 40
0.1249610908030384
 40
0.1249610908030384
 40
0.1273650397728742
 40
0.1273650397728742
 40
0.1285713401428331
 40
0.1285713401428331
 40
0.1291700733115609
 40
0.1291700733115609
 40
0.1297690929595696
 40
0.1297690929595696
 40
0.1300006661493693
 40
0.1300006661493693
 40
0.1300006661493693
 40
0.1300006661493693
 10
-39.38293929747757
 20
2.001008294112658
 30
0.0
 10
-39.25484926155703
 20
2.002215544940251
 30
0.0
 10
-39.12499354828944
 20
2.004439969925863
 30
0.0
 10
-38.88952206600268
 20
2.013686974878511
 30
0.0
 10
-38.78412049519934
 20
2.01964877929447
 30
0.0
 10
-38.61579575711077
 20
2.035310593411212
 30
0.0
 10
-38.55331098102156
 20
2.042424943505371
 30
0.0
 10
-38.45920646894623
 20
2.056200700020459
 30
0.0
 10
-38.42656450960606
 20
2.061539251665255
 30
0.0
 10
-38.38899539825625
 20
2.068502087559689
 30
0.0
 10
-38.38147892982996
 20
2.069942449215126
 30
0.0
 10
-38.37203768634525
 20
2.071804620198082
 30
0.0
 10
-38.36915089220808
 20
2.072384456633542
 30
0.0
 10
-38.3660149737578
 20
2.073021438069953
 30
0.0
 10
-38.36515741307409
 20
2.073197060500536
 30
0.0
 10
-38.36391421810461
 20
2.073452718716096
 30
0.0
 10
-38.36352100832955
 20
2.073534263955415
 30
0.0
 10
-38.36329144968208
 20
2.073581936846277
 30
0.0
 10
-38.36326031144388
 20
2.07358842386969
 30
0.0
 10
-38.36326031143832
 20
2.073588423870849
 30
0.0
  0
SPLINE
  5
304A
330
303A
100
AcDbEntity
  8
0
100
AcDbSpline
210
0.0
220
0.0
230
1.0
 70
     8
 71
     3
 72
    20
 73
    16
 74
     0
 42
0.000000001
 43
0.0000000001
 40
0.0103239516727241
 40
0.0103239516727241
 40
0.0103239516727241
 40
0.0103239516727241
 40
0.0106268858313418
 40
0.0106268858313418
 40
0.0115831076270689
 40
0.0115831076270689
 40
0.012797403792434
 40
0.012797403792434
 40
0.0144174228998953
 40
0.0144174228998953
 40
0.0167892185348952
 40
0.0167892185348952
 40
0.0209164314880527
 40
0.0209164314880527
 40
0.0223198982820692
 40
0.0223198982820692
 40
0.0223198982820692
 40
0.0223198982820692
 10
-37.00105643741191
 20
3.913010307939638
 30
0.0
 10
-37.00105643736893
 20
3.913010309985962
 30
0.0
 10
-37.00105539861429
 20
3.913059743281786
 30
0.0
 10
-37.00104719598606
 20
3.913451295133257
 30
0.0
 10
-37.00103142393029
 20
3.914204440439514
 30
0.0
 10
-37.00098141597373
 20
3.916652711143089
 30
0.0
 10
-37.00094304351129
 20
3.918564951394488
 30
0.0
 10
-37.00084304420703
 20
3.923779952612243
 30
0.0
 10
-37.00077727105702
 20
3.927373253962724
 30
0.0
 10
-37.00061525559355
 20
3.936945574205706
 30
0.0
 10
-37.00051801564659
 20
3.943325857876063
 30
0.0
 10
-37.00028042887568
 20
3.961389485683045
 30
0.0
 10
-37.00016088032123
 20
3.973636811246777
 30
0.0
 10
-37.00005713717566
 20
3.989234916372848
 30
0.0
 10
-37.00003540773225
 20
3.993140713312412
 30
0.0
 10
-37.00001814251553
 20
3.99681659210455
 30
0.0
  0
SPLINE
  5
304B
330
303A
100
AcDbEntity
  8
0
100
AcDbSpline
210
0.0
220
0.0
230
1.0
 70
     8
 71
     3
 72
    18
 73
    14
 74
     0
 42
0.000000001
 43
0.0000000001
 40
0.0172303055914802
 40
0.0172303055914802
 40
0.0172303055914802
 40
0.0172303055914802
 40
0.018385239032955
 40
0.018385239032955
 40
0.0204557251455502
 40
0.0204557251455502
 40
0.0225070782260344
 40
0.0225070782260344
 40
0.0235672433354704
 40
0.0235672433354704
 40
0.0240820310068617
 40
0.0240820310068617
 40
0.0242825984459343
 40
0.0242825984459343
 40
0.0242825984459343
 40
0.0242825984459343
 10
-37.00217726865874
 20
3.870300981163423
 30
0.0
 10
-37.00217726863943
 20
3.870300981677014
 30
0.0
 10
-37.0021618420879
 20
3.870709970537038
 30
0.0
 10
-37.00208466566051
 20
3.872825182491581
 30
0.0
 10
-37.00199456603107
 20
3.875350292874429
 30
0.0
 10
-37.00178993714908
 20
3.881511889181714
 30
0.0
 10
-37.00167403496487
 20
3.885207234819954
 30
0.0
 10
-37.00152271799494
 20
3.890347221762358
 30
0.0
 10
-37.00147492097338
 20
3.892032711126659
 30
0.0
 10
-37.00142773137468
 20
3.893727087855136
 30
0.0
 10
-37.00141624778965
 20
3.89414525304029
 30
0.0
 10
-37.00140913950807
 20
3.894404516168483
 30
0.0
 10
-37.00140809289326
 20
3.894442802626467
 30
0.0
 10
-37.00140809308643
 20
3.894442795563577
 30
0.0
  0
SPLINE
  5
304C
330
303A
100
AcDbEntity
  8
0
100
AcDbSpline
210
0.0
220
0.0
230
1.0
 70
     8
 71
     3
 72
    18
 73
    14
 74
     0
 42
0.000000001
 43
0.0000000001
 40
0.0345733592897957
 40
0.0345733592897957
 40
0.0345733592897957
 40
0.0345733592897957
 40
0.0349843988935485
 40
0.0349843988935485
 40
0.0370677808547625
 40
0.0370677808547625
 40
0.0391435586446467
 40
0.0391435586446467
 40
0.0412106349271642
 40
0.0412106349271642
 40
0.0432750441693633
 40
0.0432750441693633
 40
0.0453046123234635
 40
0.0453046123234635
 40
0.0453046123234635
 40
0.0453046123234635
 10
-37.00324329323928
 20
3.841219666734499
 30
0.0
 10
-37.00324329321686
 20
3.84121966727965
 30
0.0
 10
-37.00324121086847
 20
3.841270266105664
 30
0.0
 10
-37.0032163111544
 20
3.841878009035739
 30
0.0
 10
-37.0031404409483
 20
3.843725455912565
 30
0.0
 10
-37.00291326650697
 20
3.84956417817512
 30
0.0
 10
-37.00276062437211
 20
3.853603878938162
 30
0.0
 10
-37.00242873738114
 20
3.863009676789434
 30
0.0
 10
-37.00224678004127
 20
3.868453057548796
 30
0.0
 10
-37.0018870312681
 20
3.880122716875988
 30
0.0
 10
-37.00170602942395
 20
3.8864498255801
 30
0.0
 10
-37.00136773727067
 20
3.89945287549809
 30
0.0
 10
-37.00120702026153
 20
3.906247037098588
 30
0.0
 10
-37.00106343612894
 20
3.913010454908558
 30
0.0
  0
LINE
  5
304D
330
303A
100
AcDbEntity
  8
0
100
AcDbLine
 10
32.99999999999999
 20
86.00000000000001
 30
0.0
 11
-32.99999999999999
 21
86.0
 31
0.0
  0
LINE
  5
304E
330
303A
100
AcDbEntity
  8
0
100
AcDbLine
 10
33.0
 20
1.999999999999976
 30
0.0
 11
-33.00000000000001
 21
2.000000000000001
 31
0.0
  0
CIRCLE
  5
304F
330
303A
100
AcDbEntity
  8
0
100
AcDbCircle
 10
0.0
 20
68.0
 30
0.0
 40
2.5
  0
CIRCLE
  5
3050
330
303A
100
AcDbEntity
  8
0
100
AcDbCircle
 10
0.0
 20
48.0
 30
0.0
 40
2.5
  0
LINE
  5
3051
330
303A
100
AcDbEntity
  8
0
100
AcDbLine
 10
33.0
 20
1.999999999999976
 30
0.0
 11
37.00000000000001
 21
1.999999999999974
 31
0.0
  0
LINE
  5
3052
330
303A
100
AcDbEntity
  8
0
100
AcDbLine
 10
37.00000000000002
 20
1.999999999999974
 30
0.0
 11
36.99999999999999
 21
86.0
 31
0.0
  0
LINE
  5
3053
330
303A
100
AcDbEntity
  8
0
100
AcDbLine
 10
32.99999999999999
 20
86.0
 30
0.0
 11
36.99999999999999
 21
86.0
 31
0.0
  0
LINE
  5
3054
330
303A
100
AcDbEntity
  8
0
100
AcDbLine
 10
76.50000000000009
 20
0.0
 30
0.0
 11
39.5958767952818
 21
0.0
 31
0.0
  0
LINE
  5
3055
330
303A
100
AcDbEntity
  8
0
100
AcDbLine
 10
76.50000000000009
 20
2.000000000000001
 30
0.0
 11
76.50000000000009
 21
0.0
 31
0.0
  0
LINE
  5
3056
330
303A
100
AcDbEntity
  8
0
100
AcDbLine
 10
39.5958767952818
 20
2.00000000000001
 30
0.0
 11
76.50000000000009
 21
2.000000000000001
 31
0.0
  0
LINE
  5
3057
330
303A
100
AcDbEntity
  8
0
100
AcDbLine
 10
-37.00000000000001
 20
2.000000000000002
 30
0.0
 11
-33.00000000000001
 21
2.000000000000001
 31
0.0
  0
LINE
  5
3058
330
303A
100
AcDbEntity
  8
0
100
AcDbLine
 10
-32.99999999999999
 20
86.0
 30
0.0
 11
-36.99999999999999
 21
86.0
 31
0.0
  0
LINE
  5
3059
330
303A
100
AcDbEntity
  8
0
100
AcDbLine
 10
-37.00000000000001
 20
2.000000000000002
 30
0.0
 11
-36.99999999999999
 21
86.0
 31
0.0
  0
LINE
  5
305A
330
303A
100
AcDbEntity
  8
0
100
AcDbLine
 10
-76.50000000000009
 20
2.000000000000001
 30
0.0
 11
-39.5958767952818
 21
2.00000000000001
 31
0.0
  0
LINE
  5
305B
330
303A
100
AcDbEntity
  8
0
100
AcDbLine
 10
-76.50000000000009
 20
0.0
 30
0.0
 11
-76.50000000000009
 21
2.000000000000001
 31
0.0
  0
LINE
  5
305C
330
303A
100
AcDbEntity
  8
0
100
AcDbLine
 10
-39.5958767952818
 20
0.0
 30
0.0
 11
-76.50000000000009
 21
0.0
 31
0.0
  0
ENDBLK
  5
303C
330
303A
100
AcDbEntity
  8
0
100
AcDbBlockEnd
  0
BLOCK
  5
305E
330
305D
100
AcDbEntity
  8
0
100
AcDbBlockBegin
  2
SAE200_70_2-ISO
 70
     0
 10
0.0
 20
0.0
 30
0.0
  3
SAE200_70_2-ISO
  1

  0
SPLINE
  5
3060
330
305D
100
AcDbEntity
  8
0
100
AcDbSpline
210
0.0
220
0.0
230
1.0
 70
     8
 71
     3
 72
    14
 73
    10
 74
     0
 42
0.000000001
 43
0.0000000001
 40
0.0
 40
0.0
 40
0.0
 40
0.0
 40
0.3939117749908468
 40
0.3939117749908468
 40
0.3939117749908468
 40
0.8234586028756446
 40
0.8234586028756446
 40
0.8234586028756446
 40
1.0
 40
1.0
 40
1.0
 40
1.0
 10
56.97705819816803
 20
-19.41077631481305
 30
0.0
 10
56.74992124064724
 20
-19.49971372725549
 30
0.0
 10
56.40790213260768
 20
-19.44944011535865
 30
0.0
 10
56.08781218141128
 20
-19.41636487984425
 30
0.0
 10
55.73876543565862
 20
-19.38029750791284
 30
0.0
 10
55.4117707213647
 20
-19.36942817600957
 30
0.0
 10
55.24703663620982
 20
-19.59588978403418
 30
0.0
 10
55.17933182812066
 20
-19.68896426644291
 30
0.0
 10
55.14298471315868
 20
-19.82503326723611
 30
0.0
 10
55.14149611309946
 20
-20.01157526449397
 30
0.0
  0
LINE
  5
3061
330
305D
100
AcDbEntity
  8
0
100
AcDbLine
 10
55.14149611309942
 20
-20.01157526449392
 30
0.0
 11
53.85114386555763
 21
-20.75656048196162
 31
0.0
  0
LINE
  5
3062
330
305D
100
AcDbEntity
  8
0
100
AcDbLine
 10
56.55570967547252
 20
-19.16751063181218
 30
0.0
 11
56.97705819816798
 21
-19.41077631481306
 31
0.0
  0
ELLIPSE
  5
3063
330
305D
100
AcDbEntity
  8
0
100
AcDbEllipse
 10
55.14149611309942
 20
-19.9840072127399
 30
0.0
 11
1.999999999999991
 21
-0.0000000000001194
 31
0.0
210
0.0
220
0.0
230
1.0
 40
0.5773502691896258
 41
0.7853981633976917
 42
2.356194490192587
  0
LINE
  5
3064
330
305D
100
AcDbEntity
  8
0
100
AcDbLine
 10
53.72728255072633
 20
-20.82807184542166
 30
0.0
 11
53.72728255072633
 21
-19.16751063181218
 31
0.0
  0
LINE
  5
3065
330
305D
100
AcDbEntity
  8
0
100
AcDbLine
 10
53.85114386555763
 20
-20.75656048196162
 30
0.0
 11
53.72728255072631
 21
-20.82807184542165
 31
0.0
  0
ELLIPSE
  5
3066
330
305D
100
AcDbEntity
  8
0
100
AcDbEllipse
 10
-0.012832819451285
 20
11.85935944344141
 30
0.0
 11
3.999999999999994
 21
0.0
 31
0.0
210
0.0
220
0.0
230
1.0
 40
0.5773502691896259
 41
5.497787143782137
 42
6.110493169358168
  0
LINE
  5
3067
330
305D
100
AcDbEntity
  8
0
100
AcDbLine
 10
2.815594305294903
 20
10.22636628158596
 30
0.0
 11
2.815594305294903
 21
8.565805067976484
 31
0.0
  0
LINE
  5
3068
330
305D
100
AcDbEntity
  8
0
100
AcDbLine
 10
4.229807867667996
 20
9.382301648904212
 30
0.0
 11
2.815594305294899
 21
8.565805067976484
 31
0.0
  0
SPLINE
  5
3069
330
305D
100
AcDbEntity
  8
0
100
AcDbSpline
210
0.0
220
0.0
230
1.0
 70
     8
 71
     3
 72
    11
 73
     7
 74
     0
 42
0.000000001
 43
0.0000000001
 40
-1.0
 40
-1.0
 40
-1.0
 40
-1.0
 40
-0.7876460908025395
 40
-0.7876460908025395
 40
-0.7876460908025395
 40
-0.6779192621383699
 40
-0.6779192621383699
 40
-0.6779192621383699
 40
-0.6779192621383699
 10
4.229807867668009
 20
9.382301648904252
 30
0.0
 10
4.231706491911939
 20
9.781447564450051
 30
0.0
 10
4.194145328618299
 20
10.15509992268444
 30
0.0
 10
4.126192333960165
 20
10.4828997664662
 30
0.0
 10
4.091079881214416
 20
10.65227944697557
 30
0.0
 10
4.047999087231457
 20
10.81339100062437
 30
0.0
 10
3.997627465647415
 20
10.96856629005684
 30
0.0
  0
ELLIPSE
  5
306A
330
305D
100
AcDbEntity
  8
0
100
AcDbEllipse
 10
-0.012832819451285
 20
11.85935944344141
 30
0.0
 11
3.999999999999993
 21
0.0000000000000001
 31
0.0
210
0.0
220
0.0
230
1.0
 40
0.577350269189626
 41
6.110493169358167
 42
6.283185307179584
  0
SPLINE
  5
306B
330
305D
100
AcDbEntity
  8
0
100
AcDbSpline
210
0.0
220
0.0
230
1.0
 70
     8
 71
     3
 72
    16
 73
    12
 74
     0
 42
0.000000001
 43
0.0000000001
 40
0.0
 40
0.0
 40
0.0
 40
0.0
 40
0.0221445620136529
 40
0.0221445620136529
 40
0.0364493828490658
 40
0.0364493828490658
 40
0.054859254208388
 40
0.054859254208388
 40
0.0751777952339948
 40
0.0751777952339948
 40
0.079922536754493
 40
0.079922536754493
 40
0.079922536754493
 40
0.079922536754493
 10
3.97378325933408
 20
11.6705872831468
 30
0.0
 10
3.963439755377726
 20
11.59777064144044
 30
0.0
 10
3.954232622214144
 20
11.52334005799525
 30
0.0
 10
3.945299066795886
 20
11.40360780124833
 30
0.0
 10
3.943398608843859
 20
11.3568809493536
 30
0.0
 10
3.943906009030362
 20
11.25608838688984
 30
0.0
 10
3.947722052413906
 20
11.20317893987532
 30
0.0
 10
3.962019621023387
 20
11.10165626864216
 30
0.0
 10
3.973042018468402
 20
11.0526568655121
 30
0.0
 10
3.991290579686741
 20
10.99064589048684
 30
0.0
 10
3.994961519030142
 20
10.97882122295352
 30
0.0
 10
3.998849605600951
 20
10.96687678557803
 30
0.0
  0
LINE
  5
306C
330
305D
100
AcDbEntity
  8
0
100
AcDbLine
 10
-7.083900631316768
 20
-58.38691456809705
 30
0.0
 11
-53.75294818962887
 21
-31.44252739748211
 31
0.0
  0
ELLIPSE
  5
306D
330
305D
100
AcDbEntity
  8
0
100
AcDbEllipse
 10
-17.69050234911496
 20
-37.56625175444004
 30
0.0
 11
-2.5
 21
-0.000000000000149
 31
0.0
210
0.0
220
0.0
230
1.0
 40
0.5773502691896259
 41
3.742856870268582
 42
5.681921090500122
  0
ELLIPSE
  5
306E
330
305D
100
AcDbEntity
  8
0
100
AcDbEllipse
 10
-3.548366725384015
 20
-29.40128594516277
 30
0.0
 11
-2.5
 21
-0.000000000000149
 31
0.0
210
0.0
220
0.0
230
1.0
 40
0.5773502691896259
 41
3.742856870268582
 42
5.681921090500122
  0
LINE
  5
306F
330
305D
100
AcDbEntity
  8
0
100
AcDbLine
 10
5.644021430041092
 20
4.483322163337854
 30
0.0
 11
22.61458417851824
 21
-5.314636807794855
 31
0.0
  0
LINE
  5
3070
330
305D
100
AcDbEntity
  8
0
100
AcDbLine
 10
4.229807867667996
 20
9.382301648904212
 30
0.0
 11
4.229807867667996
 21
6.932811906121032
 31
0.0
  0
LINE
  5
3071
330
305D
100
AcDbEntity
  8
0
100
AcDbLine
 10
-53.75294818962887
 20
-29.80953423562665
 30
0.0
 11
-7.083900631316772
 21
-56.7539214062416
 31
0.0
  0
ELLIPSE
  5
3072
330
305D
100
AcDbEntity
  8
0
100
AcDbEllipse
 10
-3.548366725384015
 20
-27.76829278330732
 30
0.0
 11
-2.499999999999999
 21
0.0000000000001492
 31
0.0
210
0.0
220
0.0
230
1.0
 40
0.5773502691896259
 41
0.0
 42
6.283185307179586
  0
ELLIPSE
  5
3073
330
305D
100
AcDbEntity
  8
0
100
AcDbEllipse
 10
-17.69050234911496
 20
-35.93325859258459
 30
0.0
 11
-2.499999999999999
 21
0.0000000000001492
 31
0.0
210
0.0
220
0.0
230
1.0
 40
0.5773502691896259
 41
0.0
 42
6.283185307179586
  0
LINE
  5
3074
330
305D
100
AcDbEntity
  8
0
100
AcDbLine
 10
55.14149611309942
 20
-20.01157526449392
 30
0.0
 11
55.14149611309945
 21
-22.4610650072771
 31
0.0
  0
ELLIPSE
  5
3075
330
305D
100
AcDbEntity
  8
0
100
AcDbEllipse
 10
52.31306898835324
 20
-20.82807184542165
 30
0.0
 11
2.000000000000005
 21
-3.464101615137761
 31
0.0
210
0.0
220
0.0
230
1.0
 40
0.5773502691896261
 41
0.0
 42
0.7853981633974492
  0
LINE
  5
3076
330
305D
100
AcDbEntity
  8
0
100
AcDbLine
 10
-5.669687068943662
 20
-55.93742482531387
 30
0.0
 11
-7.083900631316768
 21
-56.7539214062416
 31
0.0
  0
LINE
  5
3077
330
305D
100
AcDbEntity
  8
0
100
AcDbLine
 10
55.14149611309945
 20
-22.4610650072771
 30
0.0
 11
-4.25547350657057
 21
-56.75392140624158
 31
0.0
  0
ELLIPSE
  5
3078
330
305D
100
AcDbEntity
  8
0
100
AcDbEllipse
 10
-7.083900631316768
 20
-55.12092824438614
 30
0.0
 11
2.000000000000004
 21
-3.464101615137761
 31
0.0
210
0.0
220
0.0
230
0.9999999999999998
 40
0.5773502691896258
 41
5.497787143782137
 42
7.068583470577034
  0
LINE
  5
3079
330
305D
100
AcDbEntity
  8
0
100
AcDbLine
 10
83.0722139699681
 20
-9.192995567201606
 30
0.0
 11
84.48642753234119
 21
-8.37649898627388
 31
0.0
  0
LINE
  5
307A
330
305D
100
AcDbEntity
  8
0
100
AcDbLine
 10
56.97705819816798
 20
-19.41077631481306
 30
0.0
 11
83.0722139699681
 21
-9.192995567201606
 31
0.0
  0
ELLIPSE
  5
307B
330
305D
100
AcDbEntity
  8
0
100
AcDbEllipse
 10
70.69784529920347
 20
5.299818744265571
 30
0.0
 11
-2.749999999999996
 21
4.763139720814414
 31
0.0
210
0.0
220
0.0
230
0.9999999999999998
 40
0.5773502691896258
 41
0.2600508977279004
 42
2.881541755861896
  0
ELLIPSE
  5
307C
330
305D
100
AcDbEntity
  8
0
100
AcDbEllipse
 10
78.47601989225549
 20
-3.273395355475554
 30
0.0
 11
1.250000000000128
 21
-2.165063509461022
 31
0.0
210
0.0
220
0.0
230
0.9999999999999998
 40
0.5773502691896255
 41
3.742856870268587
 42
5.681921090500116
  0
ELLIPSE
  5
307D
330
305D
100
AcDbEntity
  8
0
100
AcDbEllipse
 10
62.91967070615143
 20
-2.456898774547828
 30
0.0
 11
1.250000000000128
 21
-2.165063509461022
 31
0.0
210
0.0
220
0.0
230
0.9999999999999998
 40
0.5773502691896255
 41
3.742856870268587
 42
5.681921090500116
  0
ELLIPSE
  5
307E
330
305D
100
AcDbEntity
  8
0
100
AcDbEllipse
 10
62.91967070615143
 20
13.87303284400669
 30
0.0
 11
1.250000000000128
 21
-2.165063509461022
 31
0.0
210
0.0
220
0.0
230
0.9999999999999998
 40
0.5773502691896255
 41
3.742856870268587
 42
5.681921090500116
  0
ELLIPSE
  5
307F
330
305D
100
AcDbEntity
  8
0
100
AcDbEllipse
 10
78.47601989225549
 20
13.05653626307896
 30
0.0
 11
1.250000000000128
 21
-2.165063509461022
 31
0.0
210
0.0
220
0.0
230
0.9999999999999998
 40
0.5773502691896255
 41
3.742856870268587
 42
5.681921090500116
  0
LINE
  5
3080
330
305D
100
AcDbEntity
  8
0
100
AcDbLine
 10
57.96992323784559
 20
28.97821959116964
 30
0.0
 11
84.48642753234112
 21
13.66890869877476
 31
0.0
  0
LINE
  5
3081
330
305D
100
AcDbEntity
  8
0
100
AcDbLine
 10
84.48642753234119
 20
-8.37649898627388
 30
0.0
 11
84.48642753234112
 21
13.66890869877476
 31
0.0
  0
ELLIPSE
  5
3082
330
305D
100
AcDbEntity
  8
0
100
AcDbEllipse
 10
55.14149611309942
 20
27.34522642931418
 30
0.0
 11
3.999999999999998
 21
-0.0000000000002381
 31
0.0
210
0.0
220
0.0
230
1.0
 40
0.5773502691896259
 41
0.7853981633976908
 42
2.356194490192587
  0
ELLIPSE
  5
3083
330
305D
100
AcDbEntity
  8
0
100
AcDbEllipse
 10
27.91788503741733
 20
2.646204856250449
 30
0.0
 11
1.24999999999987
 21
2.165063509461171
 31
0.0
210
0.0
220
0.0
230
1.0
 40
0.577350269189626
 41
3.742856870268578
 42
5.681921090500117
  0
ELLIPSE
  5
3084
330
305D
100
AcDbEntity
  8
0
100
AcDbEllipse
 10
29.33209859979043
 20
1.829708275322721
 30
0.0
 11
-1.25
 21
-2.165063509461096
 31
0.0
210
0.0
220
0.0
230
1.0
 40
0.5773502691896259
 41
0.0
 42
6.283185307179586
  0
ELLIPSE
  5
3085
330
305D
100
AcDbEntity
  8
0
100
AcDbEllipse
 10
27.91788503741733
 20
-13.68372676230407
 30
0.0
 11
1.24999999999987
 21
2.165063509461171
 31
0.0
210
0.0
220
0.0
230
1.0
 40
0.577350269189626
 41
3.742856870268578
 42
5.681921090500113
  0
ELLIPSE
  5
3086
330
305D
100
AcDbEntity
  8
0
100
AcDbEllipse
 10
29.33209859979043
 20
-14.5002233432318
 30
0.0
 11
-1.25
 21
-2.165063509461096
 31
0.0
210
0.0
220
0.0
230
1.0
 40
0.5773502691896259
 41
0.0
 42
6.283185307179586
  0
LINE
  5
3087
330
305D
100
AcDbEntity
  8
0
100
AcDbLine
 10
-5.669687068943671
 20
-53.94842710847433
 30
0.0
 11
22.61458417851823
 21
-10.21361629336122
 31
0.0
  0
LINE
  5
3088
330
305D
100
AcDbEntity
  8
0
100
AcDbLine
 10
-4.255473506570575
 20
-54.76492368940206
 30
0.0
 11
-5.669687068943671
 21
-53.94842710847433
 31
0.0
  0
LINE
  5
3089
330
305D
100
AcDbEntity
  8
0
100
AcDbLine
 10
24.02879774089133
 20
-11.03011287428895
 30
0.0
 11
-4.255473506570575
 21
-54.76492368940206
 31
0.0
  0
LINE
  5
308A
330
305D
100
AcDbEntity
  8
0
100
AcDbLine
 10
24.02879774089133
 20
-11.03011287428895
 30
0.0
 11
22.61458417851823
 21
-10.21361629336122
 31
0.0
  0
LINE
  5
308B
330
305D
100
AcDbEntity
  8
0
100
AcDbLine
 10
22.61458417851823
 20
-10.21361629336122
 30
0.0
 11
22.61458417851823
 21
11.83179139168738
 31
0.0
  0
LINE
  5
308C
330
305D
100
AcDbEntity
  8
0
100
AcDbLine
 10
24.02879774089133
 20
11.01529481075965
 30
0.0
 11
24.02879774089133
 21
-11.03011287428895
 31
0.0
  0
LINE
  5
308D
330
305D
100
AcDbEntity
  8
0
100
AcDbLine
 10
22.61458417851823
 20
11.83179139168738
 30
0.0
 11
24.02879774089133
 21
11.01529481075965
 31
0.0
  0
LINE
  5
308E
330
305D
100
AcDbEntity
  8
0
100
AcDbLine
 10
-4.255473506570575
 20
-54.76492368940206
 30
0.0
 11
-4.25547350657057
 21
-56.75392140624158
 31
0.0
  0
LINE
  5
308F
330
305D
100
AcDbEntity
  8
0
100
AcDbLine
 10
53.72728255072633
 20
-19.16751063181218
 30
0.0
 11
53.72728255072631
 21
28.1617230102419
 31
0.0
  0
LINE
  5
3090
330
305D
100
AcDbEntity
  8
0
100
AcDbLine
 10
53.72728255072631
 20
28.1617230102419
 30
0.0
 11
24.02879774089133
 21
11.01529481075965
 31
0.0
  0
LINE
  5
3091
330
305D
100
AcDbEntity
  8
0
100
AcDbLine
 10
22.61458417851823
 20
11.83179139168738
 30
0.0
 11
52.31306898835322
 21
28.97821959116964
 31
0.0
  0
LINE
  5
3092
330
305D
100
AcDbEntity
  8
0
100
AcDbLine
 10
-5.669687068943671
 20
-55.93742482531386
 30
0.0
 11
-5.669687068943671
 21
-53.94842710847433
 31
0.0
  0
LINE
  5
3093
330
305D
100
AcDbEntity
  8
0
100
AcDbLine
 10
-7.083900631316768
 20
-56.7539214062416
 30
0.0
 11
-7.083900631316768
 21
-58.38691456809705
 31
0.0
  0
LINE
  5
3094
330
305D
100
AcDbEntity
  8
0
100
AcDbLine
 10
-5.669687068943671
 20
-55.93742482531386
 30
0.0
 11
-4.25547350657057
 21
-56.75392140624158
 31
0.0
  0
ELLIPSE
  5
3095
330
305D
100
AcDbEntity
  8
0
100
AcDbEllipse
 10
-7.083900631316768
 20
-55.12092824438614
 30
0.0
 11
1.000000000000002
 21
-1.732050807568883
 31
0.0
210
0.0
220
0.0
230
1.0
 40
0.5773502691896259
 41
5.497787143782137
 42
7.068583470577034
  0
LINE
  5
3096
330
305D
100
AcDbEntity
  8
0
100
AcDbLine
 10
56.55570967547252
 20
-19.16751063181218
 30
0.0
 11
56.5557096754725
 21
28.1617230102419
 31
0.0
  0
ELLIPSE
  5
3097
330
305D
100
AcDbEntity
  8
0
100
AcDbEllipse
 10
55.14149611309942
 20
27.34522642931418
 30
0.0
 11
-1.999999999999997
 21
-0.0000000000001194
 31
0.0
210
0.0
220
0.0
230
1.0
 40
0.5773502691896258
 41
3.926990816987
 42
5.497787143781896
  0
LINE
  5
3098
330
305D
100
AcDbEntity
  8
0
100
AcDbLine
 10
84.48642753234112
 20
13.66890869877476
 30
0.0
 11
83.07221396996803
 21
12.85241211784703
 31
0.0
  0
LINE
  5
3099
330
305D
100
AcDbEntity
  8
0
100
AcDbLine
 10
83.0722139699681
 20
-9.192995567201606
 30
0.0
 11
83.07221396996803
 21
12.85241211784703
 31
0.0
  0
LINE
  5
309A
330
305D
100
AcDbEntity
  8
0
100
AcDbLine
 10
53.72728255072631
 20
28.1617230102419
 30
0.0
 11
52.31306898835322
 21
28.97821959116964
 31
0.0
  0
LINE
  5
309B
330
305D
100
AcDbEntity
  8
0
100
AcDbLine
 10
56.5557096754725
 20
28.1617230102419
 30
0.0
 11
57.96992323784559
 21
28.97821959116964
 31
0.0
  0
LINE
  5
309C
330
305D
100
AcDbEntity
  8
0
100
AcDbLine
 10
83.07221396996803
 20
12.85241211784703
 30
0.0
 11
56.5557096754725
 21
28.1617230102419
 31
0.0
  0
ELLIPSE
  5
309D
330
305D
100
AcDbEntity
  8
0
100
AcDbEllipse
 10
69.28363173683036
 20
4.483322163337843
 30
0.0
 11
-2.749999999999999
 21
4.763139720814414
 31
0.0
210
0.0
220
0.0
230
1.0
 40
0.5773502691896255
 41
0.0
 42
6.283185307179586
  0
ELLIPSE
  5
309E
330
305D
100
AcDbEntity
  8
0
100
AcDbEllipse
 10
77.06180632988237
 20
-4.089891936403282
 30
0.0
 11
-1.249999999999999
 21
2.165063509461097
 31
0.0
210
0.0
220
0.0
230
1.0
 40
0.5773502691896255
 41
0.0
 42
6.283185307179586
  0
ELLIPSE
  5
309F
330
305D
100
AcDbEntity
  8
0
100
AcDbEllipse
 10
61.50545714377834
 20
-3.273395355475559
 30
0.0
 11
-1.249999999999999
 21
2.165063509461097
 31
0.0
210
0.0
220
0.0
230
1.0
 40
0.5773502691896255
 41
0.0
 42
6.283185307179586
  0
ELLIPSE
  5
30A0
330
305D
100
AcDbEntity
  8
0
100
AcDbEllipse
 10
61.50545714377834
 20
13.05653626307896
 30
0.0
 11
-1.249999999999999
 21
2.165063509461097
 31
0.0
210
0.0
220
0.0
230
1.0
 40
0.5773502691896255
 41
0.0
 42
6.283185307179586
  0
ELLIPSE
  5
30A1
330
305D
100
AcDbEntity
  8
0
100
AcDbEllipse
 10
77.06180632988237
 20
12.24003968215123
 30
0.0
 11
-1.249999999999999
 21
2.165063509461097
 31
0.0
210
0.0
220
0.0
230
1.0
 40
0.5773502691896255
 41
0.0
 42
6.283185307179586
  0
LINE
  5
30A2
330
305D
100
AcDbEntity
  8
0
100
AcDbLine
 10
-5.083900631316762
 20
-58.5850298595239
 30
0.0
 11
54.31306898835325
 21
-24.29217346055941
 31
0.0
  0
ELLIPSE
  5
30A3
330
305D
100
AcDbEntity
  8
0
100
AcDbEllipse
 10
5.644021430041092
 20
6.116315325193307
 30
0.0
 11
1.000000000000104
 21
-1.732050807568817
 31
0.0
210
0.0
220
0.0
230
1.0
 40
0.577350269189626
 41
3.926990816986998
 42
5.497787143781894
  0
LINE
  5
30A4
330
305D
100
AcDbEntity
  8
0
100
AcDbLine
 10
5.644021430041092
 20
4.483322163337854
 30
0.0
 11
-53.75294818962887
 21
-29.80953423562665
 31
0.0
  0
ELLIPSE
  5
30A5
330
305D
100
AcDbEntity
  8
0
100
AcDbEllipse
 10
-53.75294818962887
 20
-28.1765410737712
 30
0.0
 11
2.000000000000211
 21
-3.464101615137642
 31
0.0
210
0.0
220
0.0
230
0.9999999999999998
 40
0.5773502691896257
 41
3.926990816987
 42
5.497787143781896
  0
LINE
  5
30A6
330
305D
100
AcDbEntity
  8
0
100
AcDbLine
 10
-55.16716175200196
 20
-27.36004449284346
 30
0.0
 11
4.229807867667991
 21
6.932811906121032
 31
0.0
  0
LINE
  5
30A7
330
305D
100
AcDbEntity
  8
0
100
AcDbLine
 10
-56.58137531437507
 20
-26.54354791191574
 30
0.0
 11
-55.16716175200196
 21
-27.36004449284346
 31
0.0
  0
LINE
  5
30A8
330
305D
100
AcDbEntity
  8
0
100
AcDbLine
 10
-53.75294818962887
 20
-31.44252739748211
 30
0.0
 11
-53.75294818962887
 21
-29.80953423562665
 31
0.0
  0
ELLIPSE
  5
30A9
330
305D
100
AcDbEntity
  8
0
100
AcDbEllipse
 10
-53.75294818962887
 20
-28.1765410737712
 30
0.0
 11
1.000000000000106
 21
-1.732050807568823
 31
0.0
210
0.0
220
0.0
230
1.0
 40
0.5773502691896258
 41
3.926990816987002
 42
5.497787143781897
  0
LINE
  5
30AA
330
305D
100
AcDbEntity
  8
0
100
AcDbLine
 10
-25.11512355157377
 20
53.26899287376949
 30
0.0
 11
-20.309057248807
 21
45.83756928581842
 31
0.0
  0
LINE
  5
30AB
330
305D
100
AcDbEntity
  8
0
100
AcDbLine
 10
-26.88289050454008
 20
18.36376403910918
 30
0.0
 11
-55.16716175200196
 21
-25.37104677600392
 31
0.0
  0
LINE
  5
30AC
330
305D
100
AcDbEntity
  8
0
100
AcDbLine
 10
-28.29710406691319
 20
19.1802606200369
 30
0.0
 11
-26.88289050454008
 21
18.36376403910918
 31
0.0
  0
LINE
  5
30AD
330
305D
100
AcDbEntity
  8
0
100
AcDbLine
 10
-56.58137531437507
 20
-24.5545501950762
 30
0.0
 11
-28.29710406691319
 21
19.1802606200369
 31
0.0
  0
LINE
  5
30AE
330
305D
100
AcDbEntity
  8
0
100
AcDbLine
 10
-55.16716175200196
 20
-25.37104677600393
 30
0.0
 11
-56.58137531437507
 21
-24.5545501950762
 31
0.0
  0
LINE
  5
30AF
330
305D
100
AcDbEntity
  8
0
100
AcDbLine
 10
-26.88289050454008
 20
40.40917172415777
 30
0.0
 11
-26.88289050454008
 21
18.36376403910918
 31
0.0
  0
LINE
  5
30B0
330
305D
100
AcDbEntity
  8
0
100
AcDbLine
 10
-28.29710406691319
 20
41.2256683050855
 30
0.0
 11
-26.88289050454008
 21
40.40917172415777
 31
0.0
  0
LINE
  5
30B1
330
305D
100
AcDbEntity
  8
0
100
AcDbLine
 10
-28.29710406691319
 20
19.1802606200369
 30
0.0
 11
-28.29710406691319
 21
41.2256683050855
 31
0.0
  0
ELLIPSE
  5
30B2
330
305D
100
AcDbEntity
  8
0
100
AcDbEllipse
 10
-11.32654131843606
 20
51.02362727621823
 30
0.0
 11
-2.75
 21
4.763139720814414
 31
0.0
210
0.0
220
0.0
230
1.0
 40
0.577350269189626
 41
4.712388980384689
 42
7.853981633974482
  0
ELLIPSE
  5
30B3
330
305D
100
AcDbEntity
  8
0
100
AcDbEllipse
 10
-9.912327756062957
 20
51.84012385714595
 30
0.0
 11
-2.75
 21
4.763139720814413
 31
0.0
210
0.0
220
0.0
230
1.0
 40
0.577350269189626
 41
0.2600508977278997
 42
1.570796326794896
  0
ELLIPSE
  5
30B4
330
305D
100
AcDbEntity
  8
0
100
AcDbEllipse
 10
-19.10471591148809
 20
51.43187556668209
 30
0.0
 11
1.25
 21
-2.165063509461096
 31
0.0
210
0.0
220
0.0
230
1.0
 40
0.577350269189626
 41
0.0
 42
6.283185307179586
  0
ELLIPSE
  5
30B5
330
305D
100
AcDbEntity
  8
0
100
AcDbEllipse
 10
-19.10471591148809
 20
67.76180718523661
 30
0.0
 11
1.25
 21
-2.165063509461096
 31
0.0
210
0.0
220
0.0
230
1.0
 40
0.577350269189626
 41
0.0
 42
6.283185307179586
  0
ELLIPSE
  5
30B6
330
305D
100
AcDbEntity
  8
0
100
AcDbEllipse
 10
-17.69050234911498
 20
52.24837214760981
 30
0.0
 11
1.25000000000013
 21
-2.165063509461022
 31
0.0
210
0.0
220
0.0
230
1.0
 40
0.577350269189626
 41
3.742856870268582
 42
5.681921090500113
  0
ELLIPSE
  5
30B7
330
305D
100
AcDbEntity
  8
0
100
AcDbEllipse
 10
-17.69050234911498
 20
68.57830376616433
 30
0.0
 11
1.25000000000013
 21
-2.165063509461022
 31
0.0
210
0.0
220
0.0
230
1.0
 40
0.577350269189626
 41
3.742856870268582
 42
5.681921090500113
  0
LINE
  5
30B8
330
305D
100
AcDbEntity
  8
0
100
AcDbLine
 10
1.401380742921807
 20
58.37209650456777
 30
0.0
 11
1.401380742921811
 21
60.00508966642321
 31
0.0
  0
ELLIPSE
  5
30B9
330
305D
100
AcDbEntity
  8
0
100
AcDbEllipse
 10
-0.012832819451285
 20
59.18859308549549
 30
0.0
 11
1.999999999999997
 21
-0.0000000000000001
 31
0.0
210
0.0
220
0.0
230
1.0
 40
0.5773502691896258
 41
5.497787143782135
 42
7.068583470577029
  0
LINE
  5
30BA
330
305D
100
AcDbEntity
  8
0
100
AcDbLine
 10
2.815594305294908
 20
57.55559992364005
 30
0.0
 11
2.815594305294903
 21
10.22636628158595
 31
0.0
  0
ELLIPSE
  5
30BB
330
305D
100
AcDbEntity
  8
0
100
AcDbEllipse
 10
-0.012832819451285
 20
59.18859308549549
 30
0.0
 11
3.999999999999999
 21
0.0000000000000001
 31
0.0
210
0.0
220
0.0
230
1.0
 40
0.5773502691896259
 41
5.497787143782139
 42
7.068583470577032
  0
LINE
  5
30BC
330
305D
100
AcDbEntity
  8
0
100
AcDbLine
 10
1.401380742921811
 20
60.00508966642321
 30
0.0
 11
2.815594305294912
 21
60.82158624735093
 31
0.0
  0
LINE
  5
30BD
330
305D
100
AcDbEntity
  8
0
100
AcDbLine
 10
1.401380742921811
 20
58.37209650456777
 30
0.0
 11
2.815594305294908
 21
57.55559992364005
 31
0.0
  0
LINE
  5
30BE
330
305D
100
AcDbEntity
  8
0
100
AcDbLine
 10
3.987167180548709
 20
11.85935944344141
 30
0.0
 11
3.987167180548709
 21
59.18859308549549
 31
0.0
  0
LINE
  5
30BF
330
305D
100
AcDbEntity
  8
0
100
AcDbLine
 10
-25.11512355157373
 20
75.31440055881808
 30
0.0
 11
1.401380742921811
 21
60.00508966642321
 31
0.0
  0
LINE
  5
30C0
330
305D
100
AcDbEntity
  8
0
100
AcDbLine
 10
-25.11512355157377
 20
53.26899287376949
 30
0.0
 11
-25.11512355157373
 21
75.31440055881808
 31
0.0
  0
LINE
  5
30C1
330
305D
100
AcDbEntity
  8
0
100
AcDbLine
 10
-55.16716175200196
 20
-27.36004449284346
 30
0.0
 11
-55.16716175200196
 21
-25.37104677600393
 31
0.0
  0
LINE
  5
30C2
330
305D
100
AcDbEntity
  8
0
100
AcDbLine
 10
-26.88289050454008
 20
40.40917172415777
 30
0.0
 11
2.815594305294908
 21
57.55559992364005
 31
0.0
  0
LINE
  5
30C3
330
305D
100
AcDbEntity
  8
0
100
AcDbLine
 10
-56.58137531437507
 20
-24.5545501950762
 30
0.0
 11
-56.58137531437507
 21
-26.54354791191574
 31
0.0
  0
LINE
  5
30C4
330
305D
100
AcDbEntity
  8
0
100
AcDbLine
 10
1.401380742921811
 20
58.37209650456777
 30
0.0
 11
-28.29710406691319
 21
41.2256683050855
 31
0.0
  0
LINE
  5
30C5
330
305D
100
AcDbEntity
  8
0
100
AcDbLine
 10
2.815594305294912
 20
60.82158624735093
 30
0.0
 11
-23.70090998920062
 21
76.13089713974581
 31
0.0
  0
LINE
  5
30C6
330
305D
100
AcDbEntity
  8
0
100
AcDbLine
 10
-23.70090998920062
 20
76.13089713974581
 30
0.0
 11
-25.11512355157373
 21
75.31440055881808
 31
0.0
  0
ELLIPSE
  5
30C7
330
305D
100
AcDbEntity
  8
0
100
AcDbEllipse
 10
-22.99380320801406
 20
23.87511596037134
 30
0.0
 11
1.24999999999987
 21
2.165063509461172
 31
0.0
210
0.0
220
0.0
230
1.0
 40
0.5773502691896255
 41
3.742856870268578
 42
5.681921090500115
  0
ELLIPSE
  5
30C8
330
305D
100
AcDbEntity
  8
0
100
AcDbEllipse
 10
-21.57958964564097
 20
23.05861937944361
 30
0.0
 11
1.249999999999999
 21
2.165063509461097
 31
0.0
210
0.0
220
0.0
230
0.9999999999999998
 40
0.5773502691896258
 41
0.0
 42
6.283185307179586
  0
ELLIPSE
  5
30C9
330
305D
100
AcDbEntity
  8
0
100
AcDbEllipse
 10
-22.99380320801406
 20
40.20504757892585
 30
0.0
 11
1.24999999999987
 21
2.165063509461172
 31
0.0
210
0.0
220
0.0
230
1.0
 40
0.5773502691896255
 41
3.742856870268578
 42
5.681921090500117
  0
ELLIPSE
  5
30CA
330
305D
100
AcDbEntity
  8
0
100
AcDbEllipse
 10
-21.57958964564097
 20
39.38855099799813
 30
0.0
 11
1.249999999999999
 21
2.165063509461097
 31
0.0
210
0.0
220
0.0
230
0.9999999999999998
 40
0.5773502691896258
 41
0.0
 42
6.283185307179586
  0
ELLIPSE
  5
30CB
330
305D
100
AcDbEntity
  8
0
100
AcDbEllipse
 10
-22.99380320801406
 20
7.545184341816817
 30
0.0
 11
1.24999999999987
 21
2.165063509461172
 31
0.0
210
0.0
220
0.0
230
1.0
 40
0.5773502691896255
 41
3.742856870268578
 42
5.681921090500115
  0
ELLIPSE
  5
30CC
330
305D
100
AcDbEntity
  8
0
100
AcDbEllipse
 10
-21.57958964564096
 20
6.728687760889089
 30
0.0
 11
1.249999999999999
 21
2.165063509461097
 31
0.0
210
0.0
220
0.0
230
0.9999999999999998
 40
0.5773502691896258
 41
0.0
 42
6.283185307179586
  0
ENDBLK
  5
305F
330
305D
100
AcDbEntity
  8
0
100
AcDbBlockEnd
  0
ENDSEC
  0
SECTION
  2
ENTITIES
  0
INSERT
  5
30CD
330
1F
100
AcDbEntity
  8
0
100
AcDbBlockReference
  2
SAE200_70_2-Front
 10
0.0
 20
0.0
 30
0.0
  0
INSERT
  5
30CE
330
1F
100
AcDbEntity
  8
0
100
AcDbBlockReference
  2
SAE200_70_2-Left
 10
109.0000000000001
 20
0.0
 30
0.0
  0
INSERT
  5
30CF
330
1F
100
AcDbEntity
  8
0
100
AcDbBlockReference
  2
SAE200_70_2-Right
 10
-109.0000000000001
 20
0.0
 30
0.0
  0
INSERT
  5
30D0
330
1F
100
AcDbEntity
  8
0
100
AcDbBlockReference
  2
SAE200_70_2-Top
 10
0.0
 20
-34.50000000000003
 30
0.0
  0
INSERT
  5
30D1
330
1F
100
AcDbEntity
  8
0
100
AcDbBlockReference
  2
SAE200_70_2-Bottom
 10
0.0
 20
97.50000000000003
 30
0.0
  0
INSERT
  5
30D2
330
1F
100
AcDbEntity
  8
0
100
AcDbBlockReference
  2
SAE200_70_2-ISO
 10
165.5813753143752
 20
-110.6308971397458
 30
0.0
  0
MTEXT
  5
30D3
330
1F
100
AcDbEntity
  8
0
100
AcDbMText
 10
0.0
 20
-153.0
 30
0.0
 40
10.83333333333334
 41
0.0
 71
     5
 72
     5
  1
SAE200/70/2
 73
     1
 44
1.0
1001
ACAD
1000
MTEXTBEGIN
1070
    73
1070
     1
1070
    44
1040
1.0
1070
    74
1070
     0
1000
MTEXTEND
  0
ENDSEC
  0
SECTION
  2
OBJECTS
  0
DICTIONARY
  5
C
330
0
100
AcDbDictionary
281
     1
  3
ACAD_CIP_PREVIOUS_PRODUCT_INFO
350
216
  3
ACAD_COLOR
350
6B
  3
ACAD_DETAILVIEWSTYLE
350
21B
  3
ACAD_GROUP
350
D
  3
ACAD_LAYOUT
350
1A
  3
ACAD_MATERIAL
350
6A
  3
ACAD_MLEADERSTYLE
350
12D
  3
ACAD_MLINESTYLE
350
17
  3
ACAD_PLOTSETTINGS
350
19
  3
ACAD_PLOTSTYLENAME
350
E
  3
ACAD_SCALELIST
350
10C
  3
ACAD_SECTIONVIEWSTYLE
350
219
  3
ACAD_TABLESTYLE
350
7E
  3
ACAD_VISUALSTYLE
350
EF
  3
ACDB_RECOMPOSE_DATA
350
31D4
  3
AcDbVariableDictionary
350
5E
  3
DWGPROPS
350
31D5
  0
DICTIONARY
  5
3124
330
8
100
AcDbDictionary
280
     1
281
     1
  0
DICTIONARY
  5
1FF
330
2
100
AcDbDictionary
280
     1
281
     1
  3
ACAD_LAYERSTATES
360
200
  0
DICTIONARY
  5
13C
330
10
100
AcDbDictionary
280
     1
281
     1
  0
DICTIONARY
  5
1CE
330
1F
100
AcDbDictionary
280
     1
281
     1
  3
ACAD_LAYOUTSELFREF
360
312C
  0
DICTIONARY
  5
30D7
330
D2
100
AcDbDictionary
280
     1
281
     1
  3
ACAD_LAYOUTSELFREF
360
3135
  0
DICTIONARY
  5
30D9
330
D6
100
AcDbDictionary
280
     1
281
     1
  3
ACAD_LAYOUTSELFREF
360
3138
  0
XRECORD
  5
216
102
{ACAD_REACTORS
330
C
102
}
330
C
100
AcDbXrecord
280
     1
300
ACD
300
2021
300
87393ACD_2021_0F
  0
DICTIONARY
  5
6B
102
{ACAD_REACTORS
330
C
102
}
330
C
100
AcDbDictionary
281
     1
  0
DICTIONARY
  5
21B
102
{ACAD_REACTORS
330
C
102
}
330
C
100
AcDbDictionary
281
     1
  3
Metric50
350
21C
  0
DICTIONARY
  5
D
102
{ACAD_REACTORS
330
C
102
}
330
C
100
AcDbDictionary
281
     1
  0
DICTIONARY
  5
1A
102
{ACAD_REACTORS
330
C
102
}
330
C
100
AcDbDictionary
281
     1
  3
Layout1
350
D3
  3
Layout2
350
D7
  3
Model
350
22
  0
DICTIONARY
  5
6A
102
{ACAD_REACTORS
330
C
102
}
330
C
100
AcDbDictionary
281
     1
  3
ByBlock
350
ED
  3
ByLayer
350
EC
  3
Global
350
EE
  0
DICTIONARY
  5
12D
102
{ACAD_REACTORS
330
C
102
}
330
C
100
AcDbDictionary
281
     1
  3
Standard
350
12E
  0
DICTIONARY
  5
17
102
{ACAD_REACTORS
330
C
102
}
330
C
100
AcDbDictionary
281
     1
  3
Standard
350
18
  0
DICTIONARY
  5
19
102
{ACAD_REACTORS
330
C
102
}
330
C
100
AcDbDictionary
281
     1
  0
ACDBDICTIONARYWDFLT
  5
E
102
{ACAD_REACTORS
330
C
102
}
330
C
100
AcDbDictionary
281
     1
  3
Normal
350
F
100
AcDbDictionaryWithDefault
340
F
  0
DICTIONARY
  5
10C
102
{ACAD_REACTORS
330
C
102
}
330
C
100
AcDbDictionary
281
     1
  3
A0
350
10D
  3
A1
350
1BE
  3
A2
350
1BF
  3
A3
350
1C0
  3
A4
350
1C1
  3
A5
350
1C2
  3
A6
350
1C3
  3
A7
350
1C4
  3
A8
350
1C5
  3
A9
350
1C6
  3
B0
350
1C7
  3
B1
350
1C8
  3
B2
350
1C9
  3
B3
350
1CA
  3
B4
350
1CB
  3
B5
350
1CC
  3
B6
350
1CD
  0
DICTIONARY
  5
219
102
{ACAD_REACTORS
330
C
102
}
330
C
100
AcDbDictionary
281
     1
  3
Metric50
350
21A
  0
DICTIONARY
  5
7E
102
{ACAD_REACTORS
330
C
102
}
330
C
100
AcDbDictionary
281
     1
  3
Standard
350
7F
  0
DICTIONARY
  5
EF
102
{ACAD_REACTORS
330
C
102
}
330
C
100
AcDbDictionary
281
     1
  3
2dWireframe
350
F5
  3
Basic
350
F4
  3
Brighten
350
FB
  3
ColorChange
350
FF
  3
Conceptual
350
F8
  3
Dim
350
FA
  3
EdgeColorOff
350
1E6
  3
Facepattern
350
FE
  3
Flat
350
F0
  3
FlatWithEdges
350
F1
  3
Gouraud
350
F2
  3
GouraudWithEdges
350
F3
  3
Hidden
350
F7
  3
JitterOff
350
1E4
  3
Linepattern
350
FD
  3
OverhangOff
350
1E5
  3
Realistic
350
F9
  3
Shaded
350
1F3
  3
Shaded with edges
350
1F2
  3
Shades of Gray
350
1EF
  3
Sketchy
350
1F0
  3
Thicken
350
FC
  3
Wireframe
350
F6
  3
X-Ray
350
1F1
  0
XRECORD
  5
31D4
102
{ACAD_REACTORS
330
C
102
}
330
C
100
AcDbXrecord
280
     1
 90
        1
330
7F
  0
DICTIONARY
  5
5E
102
{ACAD_REACTORS
330
C
102
}
330
C
100
AcDbDictionary
281
     1
  3
CANNOSCALE
350
146
  3
CENTEREXE
350
259
  3
CENTERLTYPEFILE
350
25A
  3
CMLEADERSTYLE
350
145
  3
CTABLESTYLE
350
84
  3
CVIEWDETAILSTYLE
350
227
  3
CVIEWSECTIONSTYLE
350
228
  3
DIMASSOC
350
5F
  3
HIDETEXT
350
63
  3
INDEXCTL
350
3181
  3
LAYEREVAL
350
1AE
  3
LAYERNOTIFY
350
1AF
  3
LIGHTINGUNITS
350
317F
  3
MSLTSCALE
350
317E
  3
PSOLHEIGHT
350
31D1
  3
PSOLWIDTH
350
31D0
  3
SORTENTS
350
3180
  3
XCLIPFRAME
350
31D2
  0
XRECORD
  5
31D5
102
{ACAD_REACTORS
330
C
102
}
330
C
100
AcDbXrecord
280
     1
  1
DWGPROPS COOKIE
  2

  3

  4

  6

  7

  8
truole
  9

300
=
301
=
302
=
303
=
304
=
305
=
306
=
307
=
308
=
309
=
 40
0.006875
 41
2460398.356956019
 42
2460398.371145834
  1

 90
        0
  0
DICTIONARY
  5
200
102
{ACAD_REACTORS
330
1FF
102
}
330
1FF
100
AcDbDictionary
281
     1
  0
XRECORD
  5
312C
102
{ACAD_REACTORS
330
1CE
102
}
330
1CE
100
AcDbXrecord
280
     1
340
1F
  0
XRECORD
  5
3135
102
{ACAD_REACTORS
330
30D7
102
}
330
30D7
100
AcDbXrecord
280
     1
340
D2
  0
XRECORD
  5
3138
102
{ACAD_REACTORS
330
30D9
102
}
330
30D9
100
AcDbXrecord
280
     1
340
D6
  0
ACDBDETAILVIEWSTYLE
  5
21C
102
{ACAD_XDICTIONARY
360
3214
102
}
102
{ACAD_REACTORS
330
21B
102
}
330
21B
100
AcDbModelDocViewStyle
 70
     0
  3
Metric50
290
     0
100
AcDbDetailViewStyle
 70
     0
 71
     0
 90
        3
 71
     1
340
11
 40
5.0
340
0
 40
5.0
300

 40
0.0
280
     1
 71
     2
340
16
 90
       25
 71
     3
340
11
 40
5.0
 90
        0
 40
15.0
 90
        1
300
%<\AcVar ViewDetailId>% (%<\AcVar ViewScale \f "%sn">%)
 71
     4
340
16
 90
       25
340
16
 90
       25
280
     0
  0
LAYOUT
  5
D3
102
{ACAD_XDICTIONARY
360
31D9
102
}
102
{ACAD_REACTORS
330
1A
102
}
330
1A
100
AcDbPlotSettings
  1

  2
C:\Documents and Settings\basas\Application Data\Autodesk\AutoCAD 2005\R16.1\enu\plotters\Default Windows System Printer.pc3
  4

  6

 40
0.0
 41
0.0
 42
0.0
 43
0.0
 44
0.0
 45
0.0
 46
0.0
 47
0.0
 48
0.0
 49
0.0
140
0.0
141
0.0
142
1.0
143
1.0
 70
   688
 72
     0
 73
     0
 74
     5
  7

 75
    16
147
1.0
148
0.0
149
0.0
100
AcDbLayout
  1
Layout1
 70
     1
 71
     1
 10
0.0
 20
0.0
 11
12.0
 21
9.0
 12
0.0
 22
0.0
 32
0.0
 14
0.0
 24
0.0
 34
0.0
 15
0.0
 25
0.0
 35
0.0
146
0.0
 13
0.0
 23
0.0
 33
0.0
 16
1.0
 26
0.0
 36
0.0
 17
0.0
 27
1.0
 37
0.0
 76
     0
330
D2
  0
LAYOUT
  5
D7
102
{ACAD_XDICTIONARY
360
31DB
102
}
102
{ACAD_REACTORS
330
1A
102
}
330
1A
100
AcDbPlotSettings
  1

  2
C:\Documents and Settings\basas\Application Data\Autodesk\AutoCAD 2005\R16.1\enu\plotters\Default Windows System Printer.pc3
  4

  6

 40
0.0
 41
0.0
 42
0.0
 43
0.0
 44
0.0
 45
0.0
 46
0.0
 47
0.0
 48
0.0
 49
0.0
140
0.0
141
0.0
142
1.0
143
1.0
 70
   688
 72
     0
 73
     0
 74
     5
  7

 75
    16
147
1.0
148
0.0
149
0.0
100
AcDbLayout
  1
Layout2
 70
     1
 71
     2
 10
0.0
 20
0.0
 11
12.0
 21
9.0
 12
0.0
 22
0.0
 32
0.0
 14
0.0
 24
0.0
 34
0.0
 15
0.0
 25
0.0
 35
0.0
146
0.0
 13
0.0
 23
0.0
 33
0.0
 16
1.0
 26
0.0
 36
0.0
 17
0.0
 27
1.0
 37
0.0
 76
     0
330
D6
  0
LAYOUT
  5
22
102
{ACAD_XDICTIONARY
360
31D6
102
}
102
{ACAD_REACTORS
330
1A
102
}
330
1A
100
AcDbPlotSettings
  1

  2
none_device
  4
ISO_A4_(210.00_x_297.00_MM)
  6

 40
7.5
 41
20.0
 42
7.5
 43
20.0
 44
210.0
 45
297.0
 46
11.54999923706054
 47
-13.65000009536743
 48
0.0
 49
0.0
140
0.0
141
0.0
142
1.0
143
8.704084754739808
 70
 11952
 72
     1
 73
     0
 74
     0
  7

 75
     0
147
0.1148885871608098
148
0.0
149
0.0
100
AcDbLayout
  1
Model
 70
     1
 71
     0
 10
0.0
 20
0.0
 11
12.0
 21
9.0
 12
0.0
 22
0.0
 32
0.0
 14
0.0
 24
0.0
 34
0.0
 15
0.0
 25
0.0
 35
0.0
146
0.0
 13
0.0
 23
0.0
 33
0.0
 16
1.0
 26
0.0
 36
0.0
 17
0.0
 27
1.0
 37
0.0
 76
     0
330
1F
331
EA
1001
ACAD_PSEXT
1000
None
1000
None
1000
Not applicable
1000
The layout will not be plotted unless a new plotter configuration name is selected.
1070
     0
  0
MATERIAL
  5
ED
102
{ACAD_XDICTIONARY
360
1F9
102
}
102
{ACAD_REACTORS
330
6A
102
}
330
6A
100
AcDbMaterial
  1
ByBlock
  0
MATERIAL
  5
EC
102
{ACAD_XDICTIONARY
360
1F7
102
}
102
{ACAD_REACTORS
330
6A
102
}
330
6A
100
AcDbMaterial
  1
ByLayer
  0
MATERIAL
  5
EE
102
{ACAD_XDICTIONARY
360
173
102
}
102
{ACAD_REACTORS
330
6A
102
}
330
6A
100
AcDbMaterial
  1
Global
 43
0.0007999999797903
 43
0.0
 43
0.0
 43
0.0
 43
0.0
 43
0.0007999999797903
 43
0.0
 43
0.0
 43
0.0
 43
0.0
 43
1.0
 43
0.0
 43
0.0
 43
0.0
 43
0.0
 43
1.0
 49
0.0007999999797903
 49
0.0
 49
0.0
 49
0.0
 49
0.0
 49
0.0007999999797903
 49
0.0
 49
0.0
 49
0.0
 49
0.0
 49
1.0
 49
0.0
 49
0.0
 49
0.0
 49
0.0
 49
1.0
142
0.0007999999797903
142
0.0
142
0.0
142
0.0
142
0.0
142
0.0007999999797903
142
0.0
142
0.0
142
0.0
142
0.0
142
1.0
142
0.0
142
0.0
142
0.0
142
0.0
142
1.0
144
0.0007999999797903
144
0.0
144
0.0
144
0.0
144
0.0
144
0.0007999999797903
144
0.0
144
0.0
144
0.0
144
0.0
144
1.0
144
0.0
144
0.0
144
0.0
144
0.0
144
1.0
1001
ACAD
1070
    -1
1070
     3
1070
     0
1000

1071
        0
1070
     0
  0
MLEADERSTYLE
  5
12E
102
{ACAD_XDICTIONARY
360
3200
102
}
102
{ACAD_REACTORS
330
12D
102
}
330
12D
100
AcDbMLeaderStyle
170
     2
171
     1
172
     0
 90
        2
 40
0.0
 41
0.0
173
     1
 91
-1056964608
340
14
 92
       -2
290
     1
 42
2.0
291
     1
 43
8.0
  3
Standard
 44
4.0
300

342
11
174
     1
178
     1
175
     1
176
     0
 93
-1056964608
 45
4.0
292
     0
297
     0
 46
4.0
 94
-1056964608
 47
1.0
 49
1.0
140
1.0
293
     1
141
0.0
294
     1
177
     0
142
1.0
295
     0
296
     0
143
3.75
1001
ACAD_MLEADERVER
1070
     2
  0
MLINESTYLE
  5
18
102
{ACAD_REACTORS
330
17
102
}
330
17
100
AcDbMlineStyle
  2
STANDARD
 70
     0
  3

 62
   256
 51
90.0
 52
90.0
 71
     2
 49
0.5
 62
   256
  6
BYLAYER
 49
-0.5
 62
   256
  6
BYLAYER
  0
ACDBPLACEHOLDER
  5
F
102
{ACAD_REACTORS
330
E
102
}
330
E
  0
SCALE
  5
10D
102
{ACAD_REACTORS
330
10C
102
}
330
10C
100
AcDbScale
 70
     0
300
1:1
140
1.0
141
1.0
290
     1
  0
SCALE
  5
1BE
102
{ACAD_REACTORS
330
10C
102
}
330
10C
100
AcDbScale
 70
     0
300
1:2
140
1.0
141
2.0
290
     0
  0
SCALE
  5
1BF
102
{ACAD_REACTORS
330
10C
102
}
330
10C
100
AcDbScale
 70
     0
300
1:4
140
1.0
141
4.0
290
     0
  0
SCALE
  5
1C0
102
{ACAD_REACTORS
330
10C
102
}
330
10C
100
AcDbScale
 70
     0
300
1:5
140
1.0
141
5.0
290
     0
  0
SCALE
  5
1C1
102
{ACAD_REACTORS
330
10C
102
}
330
10C
100
AcDbScale
 70
     0
300
1:8
140
1.0
141
8.0
290
     0
  0
SCALE
  5
1C2
102
{ACAD_REACTORS
330
10C
102
}
330
10C
100
AcDbScale
 70
     0
300
1:10
140
1.0
141
10.0
290
     0
  0
SCALE
  5
1C3
102
{ACAD_REACTORS
330
10C
102
}
330
10C
100
AcDbScale
 70
     0
300
1:16
140
1.0
141
16.0
290
     0
  0
SCALE
  5
1C4
102
{ACAD_REACTORS
330
10C
102
}
330
10C
100
AcDbScale
 70
     0
300
1:20
140
1.0
141
20.0
290
     0
  0
SCALE
  5
1C5
102
{ACAD_REACTORS
330
10C
102
}
330
10C
100
AcDbScale
 70
     0
300
1:30
140
1.0
141
30.0
290
     0
  0
SCALE
  5
1C6
102
{ACAD_REACTORS
330
10C
102
}
330
10C
100
AcDbScale
 70
     0
300
1:40
140
1.0
141
40.0
290
     0
  0
SCALE
  5
1C7
102
{ACAD_REACTORS
330
10C
102
}
330
10C
100
AcDbScale
 70
     0
300
1:50
140
1.0
141
50.0
290
     0
  0
SCALE
  5
1C8
102
{ACAD_REACTORS
330
10C
102
}
330
10C
100
AcDbScale
 70
     0
300
1:100
140
1.0
141
100.0
290
     0
  0
SCALE
  5
1C9
102
{ACAD_REACTORS
330
10C
102
}
330
10C
100
AcDbScale
 70
     0
300
2:1
140
2.0
141
1.0
290
     0
  0
SCALE
  5
1CA
102
{ACAD_REACTORS
330
10C
102
}
330
10C
100
AcDbScale
 70
     0
300
4:1
140
4.0
141
1.0
290
     0
  0
SCALE
  5
1CB
102
{ACAD_REACTORS
330
10C
102
}
330
10C
100
AcDbScale
 70
     0
300
8:1
140
8.0
141
1.0
290
     0
  0
SCALE
  5
1CC
102
{ACAD_REACTORS
330
10C
102
}
330
10C
100
AcDbScale
 70
     0
300
10:1
140
10.0
141
1.0
290
     0
  0
SCALE
  5
1CD
102
{ACAD_REACTORS
330
10C
102
}
330
10C
100
AcDbScale
 70
     0
300
100:1
140
100.0
141
1.0
290
     0
  0
ACDBSECTIONVIEWSTYLE
  5
21A
102
{ACAD_XDICTIONARY
360
3212
102
}
102
{ACAD_REACTORS
330
219
102
}
330
219
100
AcDbModelDocViewStyle
 70
     0
  3
Metric50
290
     0
100
AcDbSectionViewStyle
 70
     0
 71
     0
 90
      102
 71
     1
340
11
 40
5.0
340
0
340
0
 40
5.0
300
I, O, Q, S, X, Z
 40
10.0
 90
        0
 40
2.5
 90
        0
 71
     2
340
16
 90
       25
340
16
 90
       50
 40
5.0
 40
2.5
 40
5.0
 71
     3
340
11
 40
5.0
 90
        0
 40
15.0
 90
        1
300
%<\AcVar ViewSectionStartId>%-%<\AcVar ViewSectionEndId>% (%<\AcVar ViewScale \f "%sn">%)
 71
     4
300
ANSI31
 40
1.0
 90
        0
290
     0
290
     0
 90
        6
 40
0.0
 40
1.570796326794896
 40
0.2617993877991494
 40
1.308996938995747
 40
-0.2617993877991494
 40
1.832595714594046
  0
TABLESTYLE
  5
7F
102
{ACAD_XDICTIONARY
360
162
102
}
102
{ACAD_REACTORS
330
7E
102
}
330
7E
100
AcDbTableStyle
  3
Standard
 70
     0
 71
     0
 40
1.5
 41
1.5
280
     0
281
     0
  7
Standard
140
4.5
170
     2
 62
     0
 63
     7
283
     0
274
    -2
284
     1
 64
     0
275
    -2
285
     1
 65
     0
276
    -2
286
     1
 66
     0
277
    -2
287
     1
 67
     0
278
    -2
288
     1
 68
     0
279
    -2
289
     1
 69
     0
  7
Standard
140
6.0
170
     5
 62
     0
 63
     7
283
     0
274
    -2
284
     1
 64
     0
275
    -2
285
     1
 65
     0
276
    -2
286
     1
 66
     0
277
    -2
287
     1
 67
     0
278
    -2
288
     1
 68
     0
279
    -2
289
     1
 69
     0
  7
Standard
140
4.5
170
     5
 62
     0
 63
     7
283
     0
274
    -2
284
     1
 64
     0
275
    -2
285
     1
 65
     0
276
    -2
286
     1
 66
     0
277
    -2
287
     1
 67
     0
278
    -2
288
     1
 68
     0
279
    -2
289
     1
 69
     0
  0
VISUALSTYLE
  5
F5
102
{ACAD_XDICTIONARY
360
31EA
102
}
102
{ACAD_REACTORS
330
EF
102
}
330
EF
100
AcDbVisualStyle
  2
2dWireframe
 70
     4
 71
     0
 72
     2
 73
     1
 90
        0
 40
-0.6
 41
-30.0
 62
     5
 63
     7
 74
     1
 91
        4
 64
     7
 65
   257
 75
     1
175
     1
 42
1.0
 92
        0
 66
   257
 43
1.0
 76
     1
 77
     6
 78
     2
 67
     7
 79
     5
170
     0
171
     0
290
     0
174
     0
 93
        1
 44
0.0
173
     0
291
     0
 45
0.0
1001
ACAD
1000
AcDbSavedByObjectVersion
1070
     0
  0
VISUALSTYLE
  5
F4
102
{ACAD_XDICTIONARY
360
31E8
102
}
102
{ACAD_REACTORS
330
EF
102
}
330
EF
100
AcDbVisualStyle
  2
Basic
 70
     7
 71
     1
 72
     0
 73
     1
 90
        0
 40
-0.6
 41
-30.0
 62
     5
 63
     7
 74
     0
 91
        4
 64
     7
 65
   257
 75
     1
175
     1
 42
1.0
 92
        8
 66
     7
 43
1.0
 76
     1
 77
     6
 78
     2
 67
     7
 79
     5
170
     0
171
     0
290
     0
174
     0
 93
        1
 44
0.0
173
     0
291
     1
 45
0.0
1001
ACAD
1000
AcDbSavedByObjectVersion
1070
     0
  0
VISUALSTYLE
  5
FB
102
{ACAD_XDICTIONARY
360
31F6
102
}
102
{ACAD_REACTORS
330
EF
102
}
330
EF
100
AcDbVisualStyle
  2
Brighten
 70
    12
 71
     2
 72
     2
 73
     1
 90
        0
 40
-0.6
 41
-30.0
 62
     5
 63
     7
 74
     1
 91
        4
 64
     7
 65
   257
 75
     1
175
     1
 42
1.0
 92
        8
 66
     7
 43
1.0
 76
     1
 77
     6
 78
     2
 67
     7
 79
     5
170
     0
171
     0
290
     0
174
     0
 93
        1
 44
50.0
173
     0
291
     1
 45
0.0
1001
ACAD
1000
AcDbSavedByObjectVersion
1070
     0
  0
VISUALSTYLE
  5
FF
102
{ACAD_XDICTIONARY
360
31FE
102
}
102
{ACAD_REACTORS
330
EF
102
}
330
EF
100
AcDbVisualStyle
  2
ColorChange
 70
    16
 71
     2
 72
     2
 73
     3
 90
        0
 40
-0.6
 41
-30.0
 62
     5
 63
     8
 74
     1
 91
        4
 64
     7
 65
   257
 75
     1
175
     1
 42
1.0
 92
        8
 66
     8
 43
1.0
 76
     1
 77
     6
 78
     2
 67
     7
 79
     5
170
     0
171
     0
290
     0
174
     0
 93
        1
 44
0.0
173
     0
291
     1
 45
0.0
1001
ACAD
1000
AcDbSavedByObjectVersion
1070
     0
  0
VISUALSTYLE
  5
F8
102
{ACAD_XDICTIONARY
360
31F0
102
}
102
{ACAD_REACTORS
330
EF
102
}
330
EF
100
AcDbVisualStyle
  2
Conceptual
 70
     9
 71
     3
 72
     2
 73
     1
 90
        0
 40
-0.6
 41
-30.0
 62
     5
 63
     7
 74
     2
 91
        2
 64
     7
 65
   257
 75
     1
175
     1
 42
40.0
 92
        8
 66
     7
 43
1.0
 76
     1
 77
     6
 78
     2
 67
     7
 79
     3
170
     0
171
     0
290
     0
174
     0
 93
        1
 44
0.0
173
     0
291
     0
 45
0.0
1001
ACAD
1000
AcDbSavedByObjectVersion
1070
     0
  0
VISUALSTYLE
  5
FA
102
{ACAD_XDICTIONARY
360
31F4
102
}
102
{ACAD_REACTORS
330
EF
102
}
330
EF
100
AcDbVisualStyle
  2
Dim
 70
    11
 71
     2
 72
     2
 73
     1
 90
        0
 40
-0.6
 41
-30.0
 62
     5
 63
     7
 74
     1
 91
        4
 64
     7
 65
   257
 75
     1
175
     1
 42
1.0
 92
        8
 66
     7
 43
1.0
 76
     1
 77
     6
 78
     2
 67
     7
 79
     5
170
     0
171
     0
290
     0
174
     0
 93
        1
 44
-50.0
173
     0
291
     1
 45
0.0
1001
ACAD
1000
AcDbSavedByObjectVersion
1070
     0
  0
VISUALSTYLE
  5
1E6
102
{ACAD_XDICTIONARY
360
3206
102
}
102
{ACAD_REACTORS
330
EF
102
}
330
EF
100
AcDbVisualStyle
  2
EdgeColorOff
 70
    22
 71
     2
 72
     2
 73
     0
 90
        0
 40
-0.6
 41
-30.0
 62
     5
 63
     7
 74
     1
 91
        4
 64
     7
 65
   257
 75
     1
175
     1
 42
1.0
 92
        8
 66
     7
 43
1.0
 76
     1
 77
     6
 78
     2
 67
     7
 79
     5
170
     0
171
     0
290
     0
174
     0
 93
        1
 44
0.0
173
     0
291
     1
 45
0.0
1001
ACAD
1000
AcDbSavedByObjectVersion
1070
     0
  0
VISUALSTYLE
  5
FE
102
{ACAD_XDICTIONARY
360
31FC
102
}
102
{ACAD_REACTORS
330
EF
102
}
330
EF
100
AcDbVisualStyle
  2
Facepattern
 70
    15
 71
     2
 72
     2
 73
     1
 90
        0
 40
-0.6
 41
-30.0
 62
     5
 63
     7
 74
     1
 91
        4
 64
     7
 65
   257
 75
     1
175
     1
 42
1.0
 92
        8
 66
     7
 43
1.0
 76
     1
 77
     6
 78
     2
 67
     7
 79
     5
170
     0
171
     0
290
     0
174
     0
 93
        1
 44
0.0
173
     0
291
     1
 45
0.0
1001
ACAD
1000
AcDbSavedByObjectVersion
1070
     0
  0
VISUALSTYLE
  5
F0
102
{ACAD_XDICTIONARY
360
31E0
102
}
102
{ACAD_REACTORS
330
EF
102
}
330
EF
100
AcDbVisualStyle
  2
Flat
 70
     0
 71
     2
 72
     1
 73
     1
 90
        2
 40
-0.6
 41
30.0
 62
     5
 63
     7
 74
     0
 91
        0
 64
     7
 65
   257
 75
     1
175
     1
 42
1.0
 92
        8
 66
     7
 43
1.0
 76
     1
 77
     6
 78
     2
 67
     7
 79
     5
170
     0
171
     0
290
     0
174
     0
 93
       13
 44
0.0
173
     0
291
     1
 45
0.0
1001
ACAD
1000
AcDbSavedByObjectVersion
1070
     0
  0
VISUALSTYLE
  5
F1
102
{ACAD_XDICTIONARY
360
31E2
102
}
102
{ACAD_REACTORS
330
EF
102
}
330
EF
100
AcDbVisualStyle
  2
FlatWithEdges
 70
     1
 71
     2
 72
     1
 73
     1
 90
        2
 40
-0.6
 41
30.0
 62
     5
 63
     7
 74
     1
 91
        0
 64
     7
 65
   257
 75
     1
175
     1
 42
1.0
 92
        0
 66
   257
 43
1.0
 76
     1
 77
     6
 78
     2
 67
     7
 79
     5
170
     0
171
     0
290
     0
174
     0
 93
       13
 44
0.0
173
     0
291
     1
 45
0.0
1001
ACAD
1000
AcDbSavedByObjectVersion
1070
     0
  0
VISUALSTYLE
  5
F2
102
{ACAD_XDICTIONARY
360
31E4
102
}
102
{ACAD_REACTORS
330
EF
102
}
330
EF
100
AcDbVisualStyle
  2
Gouraud
 70
     2
 71
     2
 72
     2
 73
     1
 90
        2
 40
-0.6
 41
30.0
 62
     5
 63
     7
 74
     0
 91
        0
 64
     7
 65
   257
 75
     1
175
     1
 42
1.0
 92
        0
 66
     7
 43
1.0
 76
     1
 77
     6
 78
     2
 67
     7
 79
     5
170
     0
171
     0
290
     0
174
     0
 93
       13
 44
0.0
173
     0
291
     1
 45
0.0
1001
ACAD
1000
AcDbSavedByObjectVersion
1070
     0
  0
VISUALSTYLE
  5
F3
102
{ACAD_XDICTIONARY
360
31E6
102
}
102
{ACAD_REACTORS
330
EF
102
}
330
EF
100
AcDbVisualStyle
  2
GouraudWithEdges
 70
     3
 71
     2
 72
     2
 73
     1
 90
        2
 40
-0.6
 41
30.0
 62
     5
 63
     7
 74
     1
 91
        0
 64
     7
 65
   257
 75
     1
175
     1
 42
1.0
 92
        0
 66
   257
 43
1.0
 76
     1
 77
     6
 78
     2
 67
     7
 79
     5
170
     0
171
     0
290
     0
174
     0
 93
       13
 44
0.0
173
     0
291
     1
 45
0.0
1001
ACAD
1000
AcDbSavedByObjectVersion
1070
     0
  0
VISUALSTYLE
  5
F7
102
{ACAD_XDICTIONARY
360
31EE
102
}
102
{ACAD_REACTORS
330
EF
102
}
330
EF
100
AcDbVisualStyle
  2
Hidden
 70
     6
 71
     1
 72
     2
 73
     2
 90
        0
 40
-0.6
 41
-30.0
 62
     5
 63
     7
 74
     2
 91
        2
 64
     7
 65
   257
 75
     2
175
     1
 42
40.0
 92
        0
 66
   257
 43
1.0
 76
     1
 77
     6
 78
     2
 67
     7
 79
     3
170
     0
171
     0
290
     0
174
     0
 93
        1
 44
0.0
173
     0
291
     0
 45
0.0
1001
ACAD
1000
AcDbSavedByObjectVersion
1070
     0
  0
VISUALSTYLE
  5
1E4
102
{ACAD_XDICTIONARY
360
3202
102
}
102
{ACAD_REACTORS
330
EF
102
}
330
EF
100
AcDbVisualStyle
  2
JitterOff
 70
    20
 71
     2
 72
     2
 73
     0
 90
        0
 40
-0.6
 41
-30.0
 62
     5
 63
     7
 74
     1
 91
        4
 64
     7
 65
   257
 75
     1
175
     1
 42
1.0
 92
       10
 66
     7
 43
1.0
 76
     1
 77
     6
 78
     2
 67
     7
 79
     5
170
     0
171
     0
290
     0
174
     0
 93
        1
 44
0.0
173
     0
291
     1
 45
0.0
1001
ACAD
1000
AcDbSavedByObjectVersion
1070
     0
  0
VISUALSTYLE
  5
FD
102
{ACAD_XDICTIONARY
360
31FA
102
}
102
{ACAD_REACTORS
330
EF
102
}
330
EF
100
AcDbVisualStyle
  2
Linepattern
 70
    14
 71
     2
 72
     2
 73
     1
 90
        0
 40
-0.6
 41
-30.0
 62
     5
 63
     7
 74
     1
 91
        4
 64
     7
 65
   257
 75
     7
175
     7
 42
1.0
 92
        8
 66
     7
 43
1.0
 76
     1
 77
     6
 78
     2
 67
     7
 79
     5
170
     0
171
     0
290
     0
174
     0
 93
        1
 44
0.0
173
     0
291
     1
 45
0.0
1001
ACAD
1000
AcDbSavedByObjectVersion
1070
     0
  0
VISUALSTYLE
  5
1E5
102
{ACAD_XDICTIONARY
360
3204
102
}
102
{ACAD_REACTORS
330
EF
102
}
330
EF
100
AcDbVisualStyle
  2
OverhangOff
 70
    21
 71
     2
 72
     2
 73
     0
 90
        0
 40
-0.6
 41
-30.0
 62
     5
 63
     7
 74
     1
 91
        4
 64
     7
 65
   257
 75
     1
175
     1
 42
1.0
 92
        9
 66
     7
 43
1.0
 76
     1
 77
     6
 78
     2
 67
     7
 79
     5
170
     0
171
     0
290
     0
174
     0
 93
        1
 44
0.0
173
     0
291
     1
 45
0.0
1001
ACAD
1000
AcDbSavedByObjectVersion
1070
     0
  0
VISUALSTYLE
  5
F9
102
{ACAD_XDICTIONARY
360
31F2
102
}
102
{ACAD_REACTORS
330
EF
102
}
330
EF
100
AcDbVisualStyle
  2
Realistic
 70
     8
 71
     2
 72
     2
 73
     0
 90
        2
 40
-0.6
 41
30.0
 62
     5
 63
     7
 74
     0
 91
        0
 64
     7
 65
   257
 75
     1
175
     1
 42
1.0
 92
        8
 66
   257
 43
1.0
 76
     1
 77
     6
 78
     2
 67
     7
 79
     3
170
     0
171
     0
290
     0
174
     0
 93
       13
 44
0.0
173
     0
291
     0
 45
0.0
1001
ACAD
1000
AcDbSavedByObjectVersion
1070
     0
  0
VISUALSTYLE
  5
1F3
102
{ACAD_XDICTIONARY
360
3210
102
}
102
{ACAD_REACTORS
330
EF
102
}
330
EF
100
AcDbVisualStyle
  2
Shaded
 70
    27
 71
     2
 72
     2
 73
     1
 90
        2
 40
-0.6
 41
30.0
 62
     5
 63
     7
 74
     0
 91
        4
 64
     7
 65
   257
 75
     1
175
     1
 42
1.0
 92
        8
 66
   257
 43
1.0
 76
     1
 77
     6
 78
     2
 67
     8
 79
     3
170
     0
171
     0
290
     0
174
     0
 93
        5
 44
0.0
173
     0
291
     0
 45
0.0
1001
ACAD
1000
AcDbSavedByObjectVersion
1070
     0
  0
VISUALSTYLE
  5
1F2
102
{ACAD_XDICTIONARY
360
320E
102
}
102
{ACAD_REACTORS
330
EF
102
}
330
EF
100
AcDbVisualStyle
  2
Shaded with edges
 70
    26
 71
     2
 72
     2
 73
     1
 90
        2
 40
-0.6
 41
30.0
 62
     5
 63
     7
 74
     1
 91
        2
 64
     7
 65
   257
 75
     2
175
     1
 42
1.0
 92
        8
 66
   257
 43
1.0
 76
     1
 77
     6
 78
     2
 67
     7
 79
     3
170
     0
171
     0
290
     0
174
     0
 93
        5
 44
0.0
173
     0
291
     0
 45
0.0
1001
ACAD
1000
AcDbSavedByObjectVersion
1070
     0
  0
VISUALSTYLE
  5
1EF
102
{ACAD_XDICTIONARY
360
3208
102
}
102
{ACAD_REACTORS
330
EF
102
}
330
EF
100
AcDbVisualStyle
  2
Shades of Gray
 70
    23
 71
     2
 72
     2
 73
     3
 90
        0
 40
-0.6
 41
-30.0
 62
     5
 63
     7
 74
     2
 91
        2
 64
     7
 65
     7
 75
     1
175
     1
 42
40.0
 92
        8
 66
     7
 43
1.0
 76
     1
 77
     6
 78
     2
 67
     7
 79
     3
170
     0
171
     0
290
     0
174
     0
 93
        1
 44
0.0
173
     0
291
     0
 45
0.0
1001
ACAD
1000
AcDbSavedByObjectVersion
1070
     0
  0
VISUALSTYLE
  5
1F0
102
{ACAD_XDICTIONARY
360
320A
102
}
102
{ACAD_REACTORS
330
EF
102
}
330
EF
100
AcDbVisualStyle
  2
Sketchy
 70
    24
 71
     1
 72
     2
 73
     2
 90
        0
 40
-0.6
 41
-30.0
 62
     5
 63
     7
 74
     2
 91
        2
 64
     7
 65
     7
 75
     1
175
     1
 42
40.0
 92
       11
 66
     7
 43
1.0
 76
     1
 77
     6
 78
     2
 67
     7
 79
     6
170
     0
171
     0
290
     0
174
     0
 93
        1
 44
0.0
173
     0
291
     0
 45
0.0
1001
ACAD
1000
AcDbSavedByObjectVersion
1070
     0
  0
VISUALSTYLE
  5
FC
102
{ACAD_XDICTIONARY
360
31F8
102
}
102
{ACAD_REACTORS
330
EF
102
}
330
EF
100
AcDbVisualStyle
  2
Thicken
 70
    13
 71
     2
 72
     2
 73
     1
 90
        0
 40
-0.6
 41
-30.0
 62
     5
 63
     7
 74
     1
 91
        4
 64
     7
 65
   257
 75
     1
175
     1
 42
1.0
 92
       12
 66
     7
 43
1.0
 76
     1
 77
     6
 78
     2
 67
     7
 79
     5
170
     0
171
     0
290
     0
174
     0
 93
        1
 44
0.0
173
     0
291
     1
 45
0.0
1001
ACAD
1000
AcDbSavedByObjectVersion
1070
     0
  0
VISUALSTYLE
  5
F6
102
{ACAD_XDICTIONARY
360
31EC
102
}
102
{ACAD_REACTORS
330
EF
102
}
330
EF
100
AcDbVisualStyle
  2
Wireframe
 70
     5
 71
     0
 72
     2
 73
     0
 90
        0
 40
-0.6
 41
-30.0
 62
     5
 63
     7
 74
     1
 91
        4
 64
     7
 65
   257
 75
     1
175
     1
 42
1.0
 92
        0
 66
   257
 43
1.0
 76
     1
 77
     6
 78
     2
 67
     7
 79
     3
170
     0
171
     0
290
     0
174
     0
 93
        1
 44
0.0
173
     0
291
     0
 45
0.0
1001
ACAD
1000
AcDbSavedByObjectVersion
1070
     0
  0
VISUALSTYLE
  5
1F1
102
{ACAD_XDICTIONARY
360
320C
102
}
102
{ACAD_REACTORS
330
EF
102
}
330
EF
100
AcDbVisualStyle
  2
X-Ray
 70
    25
 71
     2
 72
     2
 73
     1
 90
        1
 40
0.5
 41
-30.0
 62
     5
 63
     7
 74
     1
 91
        0
 64
     7
 65
   257
 75
     1
175
     1
 42
1.0
 92
        8
 66
     7
 43
1.0
 76
     1
 77
     6
 78
     2
 67
     7
 79
     3
170
     0
171
     0
290
     0
174
     0
 93
       13
 44
0.0
173
     0
291
     0
 45
0.0
1001
ACAD
1000
AcDbSavedByObjectVersion
1070
     0
  0
DICTIONARYVAR
  5
146
102
{ACAD_REACTORS
330
5E
102
}
330
5E
100
DictionaryVariables
280
     0
  1
1:1
  0
DICTIONARYVAR
  5
259
102
{ACAD_REACTORS
330
5E
102
}
330
5E
100
DictionaryVariables
280
     0
  1
3.500000
  0
DICTIONARYVAR
  5
25A
102
{ACAD_REACTORS
330
5E
102
}
330
5E
100
DictionaryVariables
280
     0
  1
acadiso.lin
  0
DICTIONARYVAR
  5
145
102
{ACAD_REACTORS
330
5E
102
}
330
5E
100
DictionaryVariables
280
     0
  1
STANDARD
  0
DICTIONARYVAR
  5
84
102
{ACAD_REACTORS
330
5E
102
}
330
5E
100
DictionaryVariables
280
     0
  1
STANDARD
  0
DICTIONARYVAR
  5
227
102
{ACAD_REACTORS
330
5E
102
}
330
5E
100
DictionaryVariables
280
     0
  1
Metric50
  0
DICTIONARYVAR
  5
228
102
{ACAD_REACTORS
330
5E
102
}
330
5E
100
DictionaryVariables
280
     0
  1
Metric50
  0
DICTIONARYVAR
  5
5F
102
{ACAD_REACTORS
330
5E
102
}
330
5E
100
DictionaryVariables
280
     0
  1
2
  0
DICTIONARYVAR
  5
63
102
{ACAD_REACTORS
330
5E
102
}
330
5E
100
DictionaryVariables
280
     0
  1
1
  0
DICTIONARYVAR
  5
3181
102
{ACAD_REACTORS
330
5E
102
}
330
5E
100
DictionaryVariables
280
     0
  1
0
  0
DICTIONARYVAR
  5
1AE
102
{ACAD_REACTORS
330
5E
102
}
330
5E
100
DictionaryVariables
280
     0
  1
0
  0
DICTIONARYVAR
  5
1AF
102
{ACAD_REACTORS
330
5E
102
}
330
5E
100
DictionaryVariables
280
     0
  1
0
  0
DICTIONARYVAR
  5
317F
102
{ACAD_REACTORS
330
5E
102
}
330
5E
100
DictionaryVariables
280
     0
  1
2
  0
DICTIONARYVAR
  5
317E
102
{ACAD_REACTORS
330
5E
102
}
330
5E
100
DictionaryVariables
280
     0
  1
1
  0
DICTIONARYVAR
  5
31D1
102
{ACAD_REACTORS
330
5E
102
}
330
5E
100
DictionaryVariables
280
     0
  1
80.000000
  0
DICTIONARYVAR
  5
31D0
102
{ACAD_REACTORS
330
5E
102
}
330
5E
100
DictionaryVariables
280
     0
  1
5.000000
  0
DICTIONARYVAR
  5
3180
102
{ACAD_REACTORS
330
5E
102
}
330
5E
100
DictionaryVariables
280
     0
  1
127
  0
DICTIONARYVAR
  5
31D2
102
{ACAD_REACTORS
330
5E
102
}
330
5E
100
DictionaryVariables
280
     0
  1
2
  0
DICTIONARY
  5
3214
330
21C
100
AcDbDictionary
280
     1
281
     1
  3
ACAD_XREC_ROUNDTRIP
360
3215
  0
DICTIONARY
  5
31D9
330
D3
100
AcDbDictionary
280
     1
281
     1
  3
ACAD_XREC_ROUNDTRIP
360
31DA
  0
DICTIONARY
  5
31DB
330
D7
100
AcDbDictionary
280
     1
281
     1
  3
ACAD_XREC_ROUNDTRIP
360
31DC
  0
DICTIONARY
  5
31D6
330
22
100
AcDbDictionary
280
     1
281
     1
  3
ACAD_XREC_ROUNDTRIP
360
31D7
  0
DICTIONARY
  5
1F9
330
ED
100
AcDbDictionary
280
     1
281
     1
  3
ACAD_XREC_ROUNDTRIP
360
31DE
  3
FBXASSET
360
1FA
  0
DICTIONARY
  5
1F7
330
EC
100
AcDbDictionary
280
     1
281
     1
  3
ACAD_XREC_ROUNDTRIP
360
31DD
  3
FBXASSET
360
1F8
  0
DICTIONARY
  5
173
330
EE
100
AcDbDictionary
280
     1
281
     1
  3
ACAD_XREC_ROUNDTRIP
360
31DF
  3
BUMPTILE
360
175
  3
DIFFUSETILE
360
174
  3
FBXASSET
360
1FB
  3
OPACITYTILE
360
176
  3
REFLECTIONTILE
360
177
  0
DICTIONARY
  5
3200
330
12E
100
AcDbDictionary
280
     1
281
     1
  3
ACAD_XREC_ROUNDTRIP
360
3201
  0
DICTIONARY
  5
3212
330
21A
100
AcDbDictionary
280
     1
281
     1
  3
ACAD_XREC_ROUNDTRIP
360
3213
  0
DICTIONARY
  5
162
330
7F
100
AcDbDictionary
280
     1
281
     1
  3
ACAD_ROUNDTRIP_2008_TABLESTYLE_CELLSTYLEMAP
360
31D3
  3
ACAD_XREC_ROUNDTRIP
360
31D8
  0
DICTIONARY
  5
31EA
330
F5
100
AcDbDictionary
280
     1
281
     1
  3
ACAD_XREC_ROUNDTRIP
360
31EB
  0
DICTIONARY
  5
31E8
330
F4
100
AcDbDictionary
280
     1
281
     1
  3
ACAD_XREC_ROUNDTRIP
360
31E9
  0
DICTIONARY
  5
31F6
330
FB
100
AcDbDictionary
280
     1
281
     1
  3
ACAD_XREC_ROUNDTRIP
360
31F7
  0
DICTIONARY
  5
31FE
330
FF
100
AcDbDictionary
280
     1
281
     1
  3
ACAD_XREC_ROUNDTRIP
360
31FF
  0
DICTIONARY
  5
31F0
330
F8
100
AcDbDictionary
280
     1
281
     1
  3
ACAD_XREC_ROUNDTRIP
360
31F1
  0
DICTIONARY
  5
31F4
330
FA
100
AcDbDictionary
280
     1
281
     1
  3
ACAD_XREC_ROUNDTRIP
360
31F5
  0
DICTIONARY
  5
3206
330
1E6
100
AcDbDictionary
280
     1
281
     1
  3
ACAD_XREC_ROUNDTRIP
360
3207
  0
DICTIONARY
  5
31FC
330
FE
100
AcDbDictionary
280
     1
281
     1
  3
ACAD_XREC_ROUNDTRIP
360
31FD
  0
DICTIONARY
  5
31E0
330
F0
100
AcDbDictionary
280
     1
281
     1
  3
ACAD_XREC_ROUNDTRIP
360
31E1
  0
DICTIONARY
  5
31E2
330
F1
100
AcDbDictionary
280
     1
281
     1
  3
ACAD_XREC_ROUNDTRIP
360
31E3
  0
DICTIONARY
  5
31E4
330
F2
100
AcDbDictionary
280
     1
281
     1
  3
ACAD_XREC_ROUNDTRIP
360
31E5
  0
DICTIONARY
  5
31E6
330
F3
100
AcDbDictionary
280
     1
281
     1
  3
ACAD_XREC_ROUNDTRIP
360
31E7
  0
DICTIONARY
  5
31EE
330
F7
100
AcDbDictionary
280
     1
281
     1
  3
ACAD_XREC_ROUNDTRIP
360
31EF
  0
DICTIONARY
  5
3202
330
1E4
100
AcDbDictionary
280
     1
281
     1
  3
ACAD_XREC_ROUNDTRIP
360
3203
  0
DICTIONARY
  5
31FA
330
FD
100
AcDbDictionary
280
     1
281
     1
  3
ACAD_XREC_ROUNDTRIP
360
31FB
  0
DICTIONARY
  5
3204
330
1E5
100
AcDbDictionary
280
     1
281
     1
  3
ACAD_XREC_ROUNDTRIP
360
3205
  0
DICTIONARY
  5
31F2
330
F9
100
AcDbDictionary
280
     1
281
     1
  3
ACAD_XREC_ROUNDTRIP
360
31F3
  0
DICTIONARY
  5
3210
330
1F3
100
AcDbDictionary
280
     1
281
     1
  3
ACAD_XREC_ROUNDTRIP
360
3211
  0
DICTIONARY
  5
320E
330
1F2
100
AcDbDictionary
280
     1
281
     1
  3
ACAD_XREC_ROUNDTRIP
360
320F
  0
DICTIONARY
  5
3208
330
1EF
100
AcDbDictionary
280
     1
281
     1
  3
ACAD_XREC_ROUNDTRIP
360
3209
  0
DICTIONARY
  5
320A
330
1F0
100
AcDbDictionary
280
     1
281
     1
  3
ACAD_XREC_ROUNDTRIP
360
320B
  0
DICTIONARY
  5
31F8
330
FC
100
AcDbDictionary
280
     1
281
     1
  3
ACAD_XREC_ROUNDTRIP
360
31F9
  0
DICTIONARY
  5
31EC
330
F6
100
AcDbDictionary
280
     1
281
     1
  3
ACAD_XREC_ROUNDTRIP
360
31ED
  0
DICTIONARY
  5
320C
330
1F1
100
AcDbDictionary
280
     1
281
     1
  3
ACAD_XREC_ROUNDTRIP
360
320D
  0
XRECORD
  5
3215
102
{ACAD_REACTORS
330
3214
102
}
330
3214
100
AcDbXrecord
280
     1
102
DISPLAYNAME
  1
Metric50
102
FLAGS
 90
        0
  0
XRECORD
  5
31DA
102
{ACAD_REACTORS
330
31D9
102
}
330
31D9
100
AcDbXrecord
280
     1
102
SHADEPLOT
 70
     0
102
SHADEPLOTRESLEVEL
 70
     2
102
SHADEPLOTCUSTOMDPI
 70
   300
  0
XRECORD
  5
31DC
102
{ACAD_REACTORS
330
31DB
102
}
330
31DB
100
AcDbXrecord
280
     1
102
SHADEPLOT
 70
     0
102
SHADEPLOTRESLEVEL
 70
     2
102
SHADEPLOTCUSTOMDPI
 70
   300
  0
XRECORD
  5
31D7
102
{ACAD_REACTORS
330
31D6
102
}
330
31D6
100
AcDbXrecord
280
     1
102
SHADEPLOT
 70
     0
102
SHADEPLOTRESLEVEL
 70
     2
102
SHADEPLOTCUSTOMDPI
 70
   300
  0
XRECORD
  5
31DE
102
{ACAD_REACTORS
330
1F9
102
}
330
1F9
100
AcDbXrecord
280
     1
102
MATERIAL
148
0.0
149
0.0
149
0.0
 93
        0
 94
       63
282
     0
 72
     1
 77
     1
171
     1
175
     1
179
     1
273
     0
  0
XRECORD
  5
1FA
102
{ACAD_REACTORS
330
1F9
102
}
330
1F9
100
AcDbXrecord
280
     1
 70
     1
 90
429727718
  1
D62C5603-E3A1-4AEA-B7FB-FE5D8D0755AF
310
504B03040A0000080000CC70623B3DEE336E79000000790000001B0000006175746F6465736B2D64657369676E2D7061636B6167652E786D6C3C3F786D6C2076657273696F6E3D22312E302220656E636F64696E673D227574662D3822203F3E3C666F726D6174733E3C666F726D61743E687474703A2F2F736368656D612E
310
6175746F6465736B2E636F6D2F64657369676E2D7061636B6167652F323030393C2F666F726D61743E3C2F666F726D6174733E504B0304140006080800CC70623BD486FD9CA0000000F4000000130000005B436F6E74656E745F54797065735D2E786D6C7D8EC10E82300C865F65E91D8A1E8C310C0EEA1BF002731658846E
310
D98AC1B77784ABF1D8FE5FBFBF75BBCE937A534CCEB38643598122B6FEE978D0B0485F9C41B54DDD7D022595594E1A469170414C76A4D9A4D207E29CF43ECE46F218070CC6BECC4078ACAA135ACF422C856C0E68EA1BF5669944DDD7BCDE7B1F8E415D77AECB980613C2E4AC91FC167A2B244592486606FC29C8FD7F045B9A
310
EF7053A7E60B504B0304140006080800CC70623B853B8169EB0000007C01000008000000636F72652E786D6C8D90416EC3201045AF62CDB6C206821CC7C244919D9CA01740401C94182C03558F5F9C3852BBEB6A467FFE9B197D7EFC9E1EC5975982F5AE035262288C535E5B377690E21535501C055FBC8FBF6C503839990E
310
5619041F179FE64D52DE45E362569DD7661365082642A11EB9E920A89B99642953CC8E702F67A9EE7234257977194EC9EAE275C4EABCCF5EAD5940D4AC6F0E35A568B8F43562CD7046CD199FD07E60174276A7BE677B5EADB0E0D14EEFFB6A31321A0D82627C4084204C3F096B71DD52F6819B16635EADF63F509AF53FA164
310
5DDCD1EDDD17164090FCC8732078B56691CB33A85CD7DCC40F504B0304140006080800CC70623B55019EA25F0000007C00000007000000636E782E786D6C4DCB3B0E80201045D1AD90E915ED2CF8AC45050C11660C8261F98AB1B07AC9C97D42D718D865D3E909258CFD00CCE24AC6E326A164D74DC0B4128928FF32603847
310
2BA13128B1252AC747C6BAB984FC68F0B87FE8960A5C09FE86CFB69FBA01504B0304140006080800CC70623BDBABAAF470010000D40300000C0000006662782F636F72652E786D6CC553D16E823014FD95A6AF4B694182CC941A83FA05FB810A9511A125A5257EFE2E82712ECEB8A7F100CD39F7F69E734AF9FADC366850B6
310
AF8DCE7018308C942E4C59EB2AC3DE1D498AD15A706B8CFB56869196ADCAF00863C12B6B7C374385D14E6907A836A59A41D9F7CA615434B0C8705F7CAA5606D23BA8E84F41278B93AC54100640439DE0BDB320004D43C63716C7C399D30917DCFBBA9CD9BA8469F5B156168B24CED3F7248AC8769F27244EB73B92EED8862C
310
B7F13E0C179B3C8F979C8ECD82BBBABDAA2BAC924E9558448CBD9330242CFA08E3154B5651FCC6D215639C8EE5774DBE2B5F6CF2B5768B68963BB5F5588420E442FC700B1139D4CB01F450C1E918227C2E09DF070D8140C84E1E9AAB8F1340832A9CB13130A5F1376A908D57309505ECF2A0DF179C4E9D30F5B239B87E3823
310
7A79C6F31DE1A8A5AEC08474B03C7837EAE4938639B44E5932B833D2C6B6B279CDC613877FA26EE21F4A2A4C63EC7F29A2F301D1F9F7A0E37D145F504B0304140006080800CC70623B9C113CC27E0000009D0000000B0000006662782F636E782E786D6C4DCCDF0A83201C86E15B91DFB94BFB330DD428C8FB886521330DA7
310
6397BF1A1DECE883878F57749FCDA1B7892F1BBC047A23808C7F84D9FA55424E0BE6803A256208E9EF06C84F9B91703228B1C690F78B66B34CD9A5439DF5CF0BFBF65E35BCA1B8D6A5C6F540381E886698B5741C695F9503EBA150A2F8958E3DC3EA0B504B0304140006080800CC70623B7DF2F77C2A010000120200003100
310
00006662782F41393633353835312D344632462D344230382D423046372D3739314545314133324237412F636F72652E786D6C8D51DB8EC22014FC15C2939B0D2DB4B45643319AE817EC0F6041255A68B86CFCFC856D4D76DF7CE190393373060EDB3DC707F856CE6B6B7A480A0C81328395DA5C7B18C3057510EC3873D686
310
3F34088C18550F330C39BB3A1BA7051AAC09CA84841A2BD5020AEF55806078A44B0FFD7053A328440C89E1EFC52486BBB8AA8214A99D789CF9E05200300FC927E4FB4D5B375D43103D5527440FB843077C5AA3F5861C8F645F5787F59E95B390B318B55CE45AA638FAA2957BD7248B390B7A7CC51F9C124149C82B8C378810
310
84AB2F42B7B8DD56F413775B8C5999E9FF4471926F8AA236A1AE96B8B3CC434E5839373893369E1FAF30EA395917409EB7F26AF8801C171837A4A6AC9C89E9F9C9B1A58BA30FD6A5EF5DDDCF894B9AD9B6A59C957943A9FCAE2FD5BC4DFE03504B0304140006080800CC70623BAD7543B64E01000033030000300000006662
310
782F41393633353835312D344632462D344230382D423046372D3739314545314133324237412F636E782E786D6CD593CD6EC32010845F0571AD6CE3D48AD20813A9873E410FBD12D82434182C7EAAE6EDBB2424CD25871E7B41D6EC30B3FA84F9E67BB2E40B4234DE8DB46F1925E094D7C6ED479AD3AE5951B2113C789FEE
310
6C943839C1488B4C05DF079FE72A69D8C96C13AAD6B8631503449F83828872B949AC57D26200B826A308D316B4064D6E46FCDA41C05550DC9E483A00797BFD207EFB092A45DE9514C1BBD22178396BD39D891265658C238DEA00936C654E5E433CB65A26D9F6EDB5EBC14EBF49A45CB856E66048291F6939A9A81BB5C89177
310
38143CA680F4AA299D66A042CEB3354A2684DC9D8D178FE0D9B8B41CAAD720F880EE7EF93C0C18769E099ECC04D5A102C8049A8A05632F4DDF376CF1DE0F6BB65C2F8627B65A33C6BB62177CEBBDAD973006829F89F22E814B54F4BC2BE347F8AA8F681390B50FA73F804400B5F542E796F19FF974E7F78DB802FE05E20750
310
4B0304140006080800CC70623BE75B7789680500003C100000340000006662782F41393633353835312D344632462D344230382D423046372D3739314545314133324237412F6F626A656374732E786D6CAD575B8F9B3818FD2B887D06C22499CB8AA1CA655245D5B455A356FB305264C061D8018C6C3393D95FBFC7600890
310
A4CD5EF210B0B1BFEBF98E3F7B1FF6596ABC522E1296DF9BAE3D320D9A872C4AF2F8DE2CE5CEBA358D0FBEC719939D65A691938CDE9B6ADAF4BD98B3B2D05311DD91329583D9D5FC0F438434A7A611A644887B5384CF34233629258BA878B12322891DEFF6B66BD70BFB62634E8AE781D082709A4B588AF91C528CDA28B73F
310
1C998EEF39EABBEFA97FBD6A7C7E9553F9D3D79FE442923C3C523610337627CB87ABE99D359D4CC6D6E4FACAB5E6ABF9D2726FC6A3C5F56271377BB88362213924694B38DD99FE47C48627A1E7D49F5A8BB5E1A74C0A599ED3B0F21F1E56366B89112D681E218F0915D0D6F17AD41FBA2A369DCF6335D62ABBD39779D5DDD1
310
11D4D8DE3CBB96B2E04FB8202E41051754A1AA8E8F76B4C6DFE810B580B1547F4B84911149794252234D024EF8BBE963A95AE27B3D310A9D5C215C7960FAEE415ED75694C6AFB17BCACA5D99A60A9AA65F217B0BFC53292ACB92BF283FAD0D3621576592CB5BED907C2FA8E9DF794E35E97BEA31BED21FEB401ABB94C44839
310
DCACBF0E1C5DA8DA5B2F4DFFD32AD86F543D9E565E7056502E157C00AD2671CD534549AB752FCA9CDA00677A313F04E51B22FF19E57B300579E3C97EB29F682D92935CEC18CF901B7B54FD8C51F362B56FC72FE0B3C1EAE335EDCCBF5AEC39ADB17DC238973F804BA5E6F6BFE7AF1FB32E523BE9F3BD571418E3631DCA4D48
310
5250CF639223210A9446CA30052EDF057BD35F8329C1ECD84552BF0DC8D18BE7BCE23BFE6BD960AB4A7DE79923A103BEBD80F911CBAA2C60DB19B01CF164A5583B772EE6D3FFA56666CBCDA74DC97724A48F9A58967497E489C4D979006FD7A05E227A1EBDD0F737C623387A9C844D3709995625106D157315F8B8392CD4E0
310
A0B9A720C4BE9829CEF37EA1E13111214D53925356365ADA634861B52519DD27A00AEB808EAF0628E6F435519D446F45CF2C9CF5214F0A15B2F6D06B79DA3EE3CBF7F56780D2F4E7EF73A0F5E5B02A38D07DC852C6B7C1FBB6664213E0C39E3EBA7FF4E1AD23EA2829407C85E586727488B751B2DB9502BC7B228A3FD68B6E
310
A65A22397E690AA8D158D7E404EC8CDA235CC3B7D1898680131CEC2CDF2638C65196279577750F15884AEE19F94199155B92B13297978469D4F8D358DF0AEF7631E28DC8F0D9F437D5D39A83B2231A1D52D543813A824EF8D44BCFF2FA6A31BD1E8DAD87F1CCB526B3879935BF59CDADD5C37479BB1CDD4CA7B3556B516589
310
EF352754B706114D9C885EC9131DE6EFEB43D99AFE2391C2F958179413D7CFEF6B1B6DB1E7600F00DE6E5C67454A339A4BA2E0FBA85ED26F045D454F463DBFCE484C2F90F2E5E3666003662ED8F755951A7D1BECD5B30B550B2785C8E7320B7292A4838DDA71BBC863ED7613CAF659337A3354231D4FF4A182A54904C2898C
310
98B28C4AD0CE056CCF332A80986E571EE9DBC305BB5FEB7E509220A58D25CF042D712A806AC0AD0C657FDEF80D2D9CEAA2EE4D1C76F60BFE74219A06527D6F82DF6412526107381E55E353090704D085B52408A8913C4ED159D79BDA71BB4BC506F4831350EB6F975CD22D69BF7AC49B91A2C0A9DDA3D5CA36AD20FC478E37
310
E61844E2352865EBCB61A275A65283CAAA9DD27703B4102F5AF51EF5F573B75CBB5AD38BC845F7A49F82A0966A49C2E3EA5EA0ECD326CD965F1DB402C6FA8B51A4658C5C5E2EC9E214602E55810345408596591009A82E7E7FFACA19EEA299B14A0081A705CB3296EBC14CDF658DCD336EA6D1136881AAEB87B81AB9EE53D5
310
F5EB8BC8362082DA24122F98680A4E7930C01A0079749CEA14382A0783E5EBA5A10F8C098456A03D6A4AEB6BB881E2513747552A5DB22C7EDAF83BD5528081A365F7FF06504B0304140006080000CC70623B000000000000000000000000350000006662782F41393633353835312D344632462D344230382D423046372D37
310
39314545314133324237412F76657274696365732E62696E504B0304140006080800CC70623BF270F1330600000004000000360000006662782F41393633353835312D344632462D344230382D423046372D3739314545314133324237412F747269616E676C65732E62696E636660600000504B0304140006080000CC7062
310
3B000000000000000000000000370000006662782F41393633353835312D344632462D344230382D423046372D3739314545314133324237412F617474726962757465732E62696E504B0304140006080800CC70623B08DA0BD19000000041010000360000006662782F41393633353835312D344632462D344230382D4230
310
46372D3739314545314133324237412F6469726563746F72792E786D6C858F410AC3201045AF22B36F53E9A60B35CBEEBAE80D244E44489C6234F4F835464A48035D0DF398FF9F8AF63D0E6CC63039F212F8F9020C7D47C6792B21C5FE7403D62A1188E2E60C98D7234A5830286103A55745067B9D86B8A3CF9C7F90C11DE6
310
07FB144396D7B6A82D282E9A152AD114D5EF2CB866EEE831B8EEA07A7BB5A8D7D61A2BAAEB7FD5F70921FF497D00504B0304140006080800CC70623BEDD1DC58FD000000A00100003B0000006662782F41393633353835312D344632462D344230382D423046372D3739314545314133324237412F7265736F75726365732F
310
636F72652E786D6C8D504B6E833010BD0A9A6D65B00922041947112427E8052C33A156828DFCA97AFC9A40A576D7CDCCE87D344F8F9FBFE667F689CE6B6B3A6039850C8DB2A336530731DC4903D95970676DF82583CCC8193B5861107C72362E3BA4AC096842428D1D7107A5F7182053CF7474E0D507CE32973124857FE48B
310
540F3961CEF244279DE03EB81420DB9EAC1384436FA353E879B1B182C7A8C75DA3C7F453DF353A1075D537A7BA6464B8F535A99AE14A9A2BBD90E350DD183B5CFABE3AF262350B1EF4FC9351399401471025A527C218A1E53BAB5A5AB765F5469B96525EACF23FA6B88CFF34456DC2A1DCE36E360F82A5202F42F062ED2BAD
310
579969AFDD8A6F504B010214000A0000080000CC70623B3DEE336E79000000790000001B00000000000000000000000000000000006175746F6465736B2D64657369676E2D7061636B6167652E786D6C504B01021400140006080800CC70623BD486FD9CA0000000F40000001300000000000000000000000000B20000005B
310
436F6E74656E745F54797065735D2E786D6C504B01021400140006080800CC70623B853B8169EB0000007C010000080000000000000000000000000083010000636F72652E786D6C504B01021400140006080800CC70623B55019EA25F0000007C000000070000000000000000000000000094020000636E782E786D6C504B
310
01021400140006080800CC70623BDBABAAF470010000D40300000C00000000000000000000000000180300006662782F636F72652E786D6C504B01021400140006080800CC70623B9C113CC27E0000009D0000000B00000000000000000000000000B20400006662782F636E782E786D6C504B01021400140006080800CC70
310
623B7DF2F77C2A010000120200003100000000000000000000000000590500006662782F41393633353835312D344632462D344230382D423046372D3739314545314133324237412F636F72652E786D6C504B01021400140006080800CC70623BAD7543B64E010000330300003000000000000000000000000000D2060000
310
6662782F41393633353835312D344632462D344230382D423046372D3739314545314133324237412F636E782E786D6C504B01021400140006080800CC70623BE75B7789680500003C10000034000000000000000000000000006E0800006662782F41393633353835312D344632462D344230382D423046372D3739314545
310
314133324237412F6F626A656374732E786D6C504B01021400140006080000CC70623B0000000000000000000000003500000000000000000000000000280E00006662782F41393633353835312D344632462D344230382D423046372D3739314545314133324237412F76657274696365732E62696E504B01021400140006
310
080800CC70623BF270F133060000000400000036000000000000000000000000007B0E00006662782F41393633353835312D344632462D344230382D423046372D3739314545314133324237412F747269616E676C65732E62696E504B01021400140006080000CC70623B0000000000000000000000003700000000000000
310
000000000000D50E00006662782F41393633353835312D344632462D344230382D423046372D3739314545314133324237412F617474726962757465732E62696E504B01021400140006080800CC70623B08DA0BD1900000004101000036000000000000000000000000002A0F00006662782F41393633353835312D344632
310
462D344230382D423046372D3739314545314133324237412F6469726563746F72792E786D6C504B01021400140006080800CC70623BEDD1DC58FD000000A00100003B000000000000000000000000000E1000006662782F41393633353835312D344632462D344230382D423046372D3739314545314133324237412F7265
310
736F75726365732F636F72652E786D6C504B0506000000000E000E0080040000641100000000
  0
XRECORD
  5
31DD
102
{ACAD_REACTORS
330
1F7
102
}
330
1F7
100
AcDbXrecord
280
     1
102
MATERIAL
148
0.0
149
0.0
149
0.0
 93
        0
 94
       63
282
     0
 72
     1
 77
     1
171
     1
175
     1
179
     1
273
     0
  0
XRECORD
  5
1F8
102
{ACAD_REACTORS
330
1F7
102
}
330
1F7
100
AcDbXrecord
280
     1
 70
     1
 90
429727718
  1
30362254-06B7-45E0-A893-8CFA70E3D6BC
310
504B03040A0000080000CC70623B3DEE336E79000000790000001B0000006175746F6465736B2D64657369676E2D7061636B6167652E786D6C3C3F786D6C2076657273696F6E3D22312E302220656E636F64696E673D227574662D3822203F3E3C666F726D6174733E3C666F726D61743E687474703A2F2F736368656D612E
310
6175746F6465736B2E636F6D2F64657369676E2D7061636B6167652F323030393C2F666F726D61743E3C2F666F726D6174733E504B0304140006080800CC70623BD486FD9CA0000000F4000000130000005B436F6E74656E745F54797065735D2E786D6C7D8EC10E82300C865F65E91D8A1E8C310C0EEA1BF002731658846E
310
D98AC1B77784ABF1D8FE5FBFBF75BBCE937A534CCEB38643598122B6FEE978D0B0485F9C41B54DDD7D022595594E1A469170414C76A4D9A4D207E29CF43ECE46F218070CC6BECC4078ACAA135ACF422C856C0E68EA1BF5669944DDD7BCDE7B1F8E415D77AECB980613C2E4AC91FC167A2B244592486606FC29C8FD7F045B9A
310
EF7053A7E60B504B0304140006080800CC70623B1EC5D7A3EB0000007C01000008000000636F72652E786D6C8D90416EC3201045AF82665B6103C6756C6122AB4D4ED00B204C5C94182C03558F5F9C3852BBEB6A467FFE9B197D71FC9E6FE8CBACC17AD7032D0820E3B41FAD9B7A48F1820F808E52ACDEC75F36404ECDA687
310
4D0629A6D5A76597B477D1B89855E747B38B2A041301E95B6E7A08FAD3CCAA50296647B8168BD2573599823EBB0CA76447F43862C7BCCF5EAC59410E4DDD9C7973C2755553CCCFA4C603E3040F1565ED3B1FDE4E432BCA0D9622DAF9795FAF464533826484B498524CD807E51D79ED187F21878E10516EF63F505AC67F42C9
310
BA58B1FDDD071640D2FCC87D2045B96591CB3DA85CB7DCE40F504B0304140006080800CC70623B55019EA25F0000007C00000007000000636E782E786D6C4DCB3B0E80201045D1AD90E915ED2CF8AC45050C11660C8261F98AB1B07AC9C97D42D718D865D3E909258CFD00CCE24AC6E326A164D74DC0B4128928FF32603847
310
2BA13128B1252AC747C6BAB984FC68F0B87FE8960A5C09FE86CFB69FBA01504B0304140006080800CC70623B8C9102E971010000D40300000C0000006662782F636F72652E786D6CC5535B6E833010BC8AE5DF0A6C08340F1947A84D4ED00B38C6A128602363A31CBFCB234A53A551FA553EC09AD9F5CE8C31DB9E9B1AF5CA
310
7695D1198E428A91D2D214952E33ECDD315861B4E5CC1AE3BE9561A445A3323CC098B3D21ADFCE9034DA29ED00D5A6503328BA4E398C640D8B0C77F253352214DE4145770A5B214FA2546114020D759C75CE8200340D19DE981F0F6746269C33EFAB6266AB02A655C74A59CCF365BADC27CB5D902ED22848F6340DF238A141
310
BE88E2F57B92BFEDF23523433367AE6A2EEAA455C2A902F398D2751045018D3FA264435F3771F242571B4A1919CA6F9A7C5B3CD9E42BED16F12C776AEB308F40C848FC700B1139D4891EF410CEC810227CC6846F8386402064270EF5C5C709A05E49676C024C61FC95EA45ED154CA5211D1FF4FB8291A913A68E9B83EBBB33
310
E2A7673CDE118E5AE8124C0807CB8377834E366998436B950D7A7746DAD846D4CFD978E0F04FD455FC5D49D2D4C6FE9722321F10997F0F32DC47FE05504B0304140006080800CC70623BFFEA85907E0000009D0000000B0000006662782F636E782E786D6C4DCCD10A83201886E15B91FFDC95D95A811AB6F23E625948A6C3
310
E9D8E5AF46073BFAE0E1E365ED67B3E8ADC3CB78C7815C7240DA3DFC64DCC221C519D7805AC182F7F1EF06C88D9BE6703008B6049F9E274D7A1E938DBB5AE3D6131B2589BA0D3D965551E0B2EA732C9B9A624AAEB41E3A557677029960D9AFB4EF11165F504B0304140006080800CC70623B4FEEA4082C0100001202000031
310
0000006662782F39464131463745442D413632322D343644302D413938332D3331353338454246344243312F636F72652E786D6C8D515B6EC32010BC0AE2AB55850DD871ED0813254D72825EC00192A2C460F1A872FC42ED48ED5F7E00CDCECCCEB26C731F6FE05B39AFADE921293004CA082BB5B9F43086336A21D870E6AC
310
0D7F68109861543DCC30E4ECE26C9C164858139409093556AA051CBC570102714B8F1E7AF1A5C6A11862480C7F2DA6415C878B2A4891CA89C7990F2E050073937C42DE1DB7E4F87ED8A36D4329AA9B3D46DBAEAD504556557BD81DEBDD0761E52CE42C462D17B996298E3E6BE59E35C962CE821E1FF18553435012728A7187
310
0841987E927A8D9B35ADDF70BBC6989599FE4F1427F9A4286A132ABAC49D651EF234CD5CE04CDA78BA3DC2A8FB645D00B9DF8B57E215725C60BCA2A463E54C4CE327C7A65E1C7DB02E7DEFCBF594B864C5CA6CDBD49C957943E9FA5D5FBAF336F90F504B0304140006080800CC70623BAD7543B64E01000033030000300000
310
006662782F39464131463745442D413632322D343644302D413938332D3331353338454246344243312F636E782E786D6CD593CD6EC32010845F0571AD6CE3D48AD20813A9873E410FBD12D82434182C7EAAE6EDBB2424CD25871E7B41D6EC30B3FA84F9E67BB2E40B4234DE8DB46F1925E094D7C6ED479AD3AE5951B2113C
310
789FEE6C943839C1488B4C05DF079FE72A69D8C96C13AAD6B8631503449F83828872B949AC57D26200B826A308D316B4064D6E46FCDA41C05550DC9E483A00797BFD207EFB092A45DE9514C1BBD22178396BD39D891265658C238DEA00936C654E5E433CB65A26D9F6EDB5EBC14EBF49A45CB856E66048291F6939A9A81BB5
310
C8917738143CA680F4AA299D66A042CEB3354A2684DC9D8D178FE0D9B8B41CAAD720F880EE7EF93C0C18769E099ECC04D5A102C8049A8A05632F4DDF376CF1DE0F6BB65C2F8627B65A33C6BB62177CEBBDAD973006829F89F22E814B54F4BC2BE347F8AA8F681390B50FA73F804400B5F542E796F19FF974E7F78DB802FE05
310
E207504B0304140006080800CC70623B16AB87BA640500003C100000340000006662782F39464131463745442D413632322D343644302D413938332D3331353338454246344243312F6F626A656374732E786D6CAD575B6FA33818FD2B887DE6924B3BED8A326A92B68A663B534DD4D13E548A0C38942D60649B369D5FBFC7
310
600890A493BDE42160637FD7F31D7FF63E6FB3D478A55C242CBF3247B66B1A340F5994E4F19559CA8D75611A9F7D8F33263BCB4C232719BD32D5B4E97B316765A1A722BA21652A07B3B7B33F0D11D29C9A46981221AE4C113ED38CD8A4942CA2E2C58E882476BCD9DA23BB5ED8171B73523C0F841684D35CC252CCE79062D4
310
468DFA43D7747CCF51DF7D4FFDEB5593E3AB9CCA9FBEFE241792E4E19EB28198C968BAB8199F5D5A67D3E9C49A9E8F47D6EC76B6B0469F26EEFC7C3EBFBCBEB98462213924694B38DD98FE1D62C393D073EA4FADC5DAF04326852CCF6958F90F0F2B9BB5C48816348F90C7840A68EB78EDF68723159BCEE7891A6B95DDE9D3
310
BCEAEEE8086A6C6F9E5D4B59F0175C10A7A0820BAA5055C7473B5AE3CFDD452D602CD5DF12616444529E90D448938013FE6EFA58AA96F85E4F8C42275708571E98FE6827AF6B2B4AE3D7D83D64E5A64C53054DD3AF90BD06FEA9149565C94FCA0F6B834DC85599E4F2423B24DF0B6AFA979E534DFA9E7A4CC6FA631D486393
310
921829879BF5D781A373557BCB85E97FB90DB62B558F8795179C15944B051F40AB495CF35451D26A4727654E6D8033BD98EF82F21D91FF8AF2DD9982BCF1643BDD4EB516C9492E368C67C88DED563FC36D5EACF66DFF057C3658BDBFA69DF9578B3DA735B64F18C7F20770A9D45CFCF7FCF563D6456A277DBEF78A02637CA2
310
43B90A490AEAB94F72244481D24819A6C0E59B606BFA4B3025981DBB48EAB701D97BF19C577CC77F2D1B6C55A9EF3C732474C0B727303F625995056C3B02963D9EAC146BE78EC5FCEC7FA999EBC5EACBAAE41B12D27B4D2C0BBA49F244E2ECDC81B76B502F113D8F5EE8FB1BE3111CDD4FC2AA9B844CAB1288B68AB90A7CDC
310
1C166AB0D3DC5310625FCC14E779BFD0709F8890A629C9292B1B2DED31A4B0DA928CEE135085754027E3018A397D4D5427D15BD1330B677DC8934285AC3DF45A9EB68FF8F2B8FC0A509AFEECFD0FF2DE25CC6047F7214B195F07EFEB9A094D800F7BFAE8FED187B78EA8A3A400F115961BCAD1215E47C966530AF0EE8128FE
310
58CEBB996A8964FFA529A046635D9353B0336A8F700DDF46271A024E70B0B37C9DE01847591E54DED53D54202AB947E4076556AC49C6CA5C9E1226B7F1A7B1BE15DEED62C41B91E1B3E9AFAAA735036547343A925075041DF0A9979E893B391F8FCFA6967B3EFB644DCF6E5CEBFAE272625DCC6FAF3FB93793C5F90CE1EF57
310
407342756B10D1C489E8953CD1617E5CEECAD6F4EF8914CE5D5D504E5C3F1F9736DA62CFC11E00BCDDB8CC8A9466349744C1F75EBDA4DF09BA8A9E8C7A7E9991989E20E5DBDD6A6003664ED8F7A04A8DBE0DF6EAD9B9AA858342E47399053949D2C146EDB85DE4B176BB0965FBAC19BD19AA918E27FA50C1D22402E144464C
310
59462568E704B6E71915404CB72B8FF4EDE184DDAF753F284990D2C6926782963815403548A70C657FDEF80D2D9CEAA2AE4C1C76F60BFE74219A06527D6582DF6412526107381E55E353090704D085B52408D0933C4ED159D79BDA71BB4BC506F4831350EB6F979CD22D69BF7AC49B91A2C0A9DDA3D5CA36AD20FC478E37E6
310
1844E2352865EBCB6EA275A652E3836BE04EFB400BF1A2556F515F1FBB35B2AB35BD889C744FFA1004B5544B121E57F70215746DD2F5E2C1412B602CBF19455AC6C8E5E9922C4E01E65215385004546899059180EAFCF7A707CE7017CD8CDB0410789AB32C63B91E5CEBBBACB17AC6CD347A022D5075FD106377347AAABA7E
310
7D11590744509B44E205134DC1290F06580320F78E537D3D73540E06CB970B431F185308AD40BBD794D6D77003C5A36E8EAA54BA64597CD8F83BD552A080A365F7FF06504B0304140006080000CC70623B000000000000000000000000350000006662782F39464131463745442D413632322D343644302D413938332D3331
310
353338454246344243312F76657274696365732E62696E504B0304140006080800CC70623BF270F1330600000004000000360000006662782F39464131463745442D413632322D343644302D413938332D3331353338454246344243312F747269616E676C65732E62696E636660600000504B0304140006080000CC70623B
310
000000000000000000000000370000006662782F39464131463745442D413632322D343644302D413938332D3331353338454246344243312F617474726962757465732E62696E504B0304140006080800CC70623B08DA0BD19000000041010000360000006662782F39464131463745442D413632322D343644302D413938
310
332D3331353338454246344243312F6469726563746F72792E786D6C858F410AC3201045AF22B36F53E9A60B35CBEEBAE80D244E44489C6234F4F835464A48035D0DF398FF9F8AF63D0E6CC63039F212F8F9020C7D47C6792B21C5FE7403D62A1188E2E60C98D7234A5830286103A55745067B9D86B8A3CF9C7F90C11DE607
310
FB144396D7B6A82D282E9A152AD114D5EF2CB866EEE831B8EEA07A7BB5A8D7D61A2BAAEB7FD5F70921FF497D00504B0304140006080800CC70623B0D6EF93BFE000000A00100003B0000006662782F39464131463745442D413632322D343644302D413938332D3331353338454246344243312F7265736F75726365732F63
310
6F72652E786D6C8D50596E833010BD0A9ADFCA60B334011947A8694ED00B586642AC041B79A97AFC9A40A5F6AF3F33A3B7689E1E3F7DCD8FEC139DD7D6F4C0720A191A65476DA61E62B892236427C19DB5E1970C322367EC618541F0C9D9B8EC90B226A009093576C41D94DE63804C3DD2D18357379C652E63480A7FCF17A9
310
EE72C29CE5894E3AC17D702940B63D59270887DE46A7D0F36263058F518FBB468FE9A7BE6A7420864373B8D4873369AA8691FA421B3294352543C5CAF65C0F6FEF43CB8BD52C78D0F34F46E550061C419494B6843142CB0F5677F4B52BEB177AEC28E5C52AFF638ACBF84F53D42654E51E77B379102C05791282176B5F693D
310
CB4C7BED567C03504B010214000A0000080000CC70623B3DEE336E79000000790000001B00000000000000000000000000000000006175746F6465736B2D64657369676E2D7061636B6167652E786D6C504B01021400140006080800CC70623BD486FD9CA0000000F40000001300000000000000000000000000B20000005B
310
436F6E74656E745F54797065735D2E786D6C504B01021400140006080800CC70623B1EC5D7A3EB0000007C010000080000000000000000000000000083010000636F72652E786D6C504B01021400140006080800CC70623B55019EA25F0000007C000000070000000000000000000000000094020000636E782E786D6C504B
310
01021400140006080800CC70623B8C9102E971010000D40300000C00000000000000000000000000180300006662782F636F72652E786D6C504B01021400140006080800CC70623BFFEA85907E0000009D0000000B00000000000000000000000000B30400006662782F636E782E786D6C504B01021400140006080800CC70
310
623B4FEEA4082C0100001202000031000000000000000000000000005A0500006662782F39464131463745442D413632322D343644302D413938332D3331353338454246344243312F636F72652E786D6C504B01021400140006080800CC70623BAD7543B64E010000330300003000000000000000000000000000D5060000
310
6662782F39464131463745442D413632322D343644302D413938332D3331353338454246344243312F636E782E786D6C504B01021400140006080800CC70623B16AB87BA640500003C1000003400000000000000000000000000710800006662782F39464131463745442D413632322D343644302D413938332D3331353338
310
454246344243312F6F626A656374732E786D6C504B01021400140006080000CC70623B0000000000000000000000003500000000000000000000000000270E00006662782F39464131463745442D413632322D343644302D413938332D3331353338454246344243312F76657274696365732E62696E504B01021400140006
310
080800CC70623BF270F133060000000400000036000000000000000000000000007A0E00006662782F39464131463745442D413632322D343644302D413938332D3331353338454246344243312F747269616E676C65732E62696E504B01021400140006080000CC70623B0000000000000000000000003700000000000000
310
000000000000D40E00006662782F39464131463745442D413632322D343644302D413938332D3331353338454246344243312F617474726962757465732E62696E504B01021400140006080800CC70623B08DA0BD190000000410100003600000000000000000000000000290F00006662782F39464131463745442D413632
310
322D343644302D413938332D3331353338454246344243312F6469726563746F72792E786D6C504B01021400140006080800CC70623B0D6EF93BFE000000A00100003B000000000000000000000000000D1000006662782F39464131463745442D413632322D343644302D413938332D3331353338454246344243312F7265
310
736F75726365732F636F72652E786D6C504B0506000000000E000E0080040000641100000000
  0
XRECORD
  5
31DF
102
{ACAD_REACTORS
330
173
102
}
330
173
100
AcDbXrecord
280
     1
102
MATERIAL
148
0.0
149
0.0
149
0.0
 93
        0
 94
       63
282
     0
 72
     1
 77
     1
171
     1
175
     1
179
     1
273
     0
  0
XRECORD
  5
175
102
{ACAD_REACTORS
330
173
102
}
330
173
100
AcDbXrecord
280
     1
270
     1
271
     1
  0
XRECORD
  5
174
102
{ACAD_REACTORS
330
173
102
}
330
173
100
AcDbXrecord
280
     1
270
     1
271
     1
  0
XRECORD
  5
1FB
102
{ACAD_REACTORS
330
173
102
}
330
173
100
AcDbXrecord
280
     1
 70
     0
 90
1673772943
  1
ECE7A1D2-D628-4531-984C-D00F80459256
310
504B03040A0000080000CC70623B3DEE336E79000000790000001B0000006175746F6465736B2D64657369676E2D7061636B6167652E786D6C3C3F786D6C2076657273696F6E3D22312E302220656E636F64696E673D227574662D3822203F3E3C666F726D6174733E3C666F726D61743E687474703A2F2F736368656D612E
310
6175746F6465736B2E636F6D2F64657369676E2D7061636B6167652F323030393C2F666F726D61743E3C2F666F726D6174733E504B0304140006080800CC70623BD486FD9CA0000000F4000000130000005B436F6E74656E745F54797065735D2E786D6C7D8EC10E82300C865F65E91D8A1E8C310C0EEA1BF002731658846E
310
D98AC1B77784ABF1D8FE5FBFBF75BBCE937A534CCEB38643598122B6FEE978D0B0485F9C41B54DDD7D022595594E1A469170414C76A4D9A4D207E29CF43ECE46F218070CC6BECC4078ACAA135ACF422C856C0E68EA1BF5669944DDD7BCDE7B1F8E415D77AECB980613C2E4AC91FC167A2B244592486606FC29C8FD7F045B9A
310
EF7053A7E60B504B0304140006080800CC70623BD9DDAED0EC0000007C01000008000000636F72652E786D6C8D90416EC3201045AF82665B61836D9CD8C2444DD39CA01740405C94182C03558F5F9C3852BBEB6A467FFE9B197D7EF89E6EE8CB2CC17A37002D0820E394D7D68D03A478C17B4007C117EFE32F1B20272733C0
310
2A83E0E3E2D3BC49CABB685CCCAAF3DA6CA20CC14440EA969B0182FA34932C648AD911AEC52CD5558EA6A0CF2EC329598D1E47ACCEFBECC59A050463A7EA5833865FEBDD0E37353BE3EE8DBDE3F6786A48D375FBF6CC78B9C282473B3DEFABC5C86834888A900E538A49F5419B9EB47DD5BC907D4F082F57FB1F28CDFA9F50
310
B22ED6D5F6EE030B20687EE43E10BC5CB3C8E51E54AE6B6EE207504B0304140006080800CC70623B55019EA25F0000007C00000007000000636E782E786D6C4DCB3B0E80201045D1AD90E915ED2CF8AC45050C11660C8261F98AB1B07AC9C97D42D718D865D3E909258CFD00CCE24AC6E326A164D74DC0B4128928FF326038
310
472BA13128B1252AC747C6BAB984FC68F0B87FE8960A5C09FE86CFB69FBA01504B0304140006080800CC70623BA24EB22D72010000D40300000C0000006662782F636F72652E786D6CC5535B6E833010BC8AE5DF0A6C5E49888CA3A6694ED00B38E05014B091B1518EDFE511A5A9D228FD2A1F60CDEC7A67C6986DCE4D8D7A
310
69BA4AAB0C073EC548AA5C17952A33ECECD15B61B4E1CC686DBF9561A44423333CC098B3D268D7CE50AE9595CA02AA74216750749DB418E5352C32DCE59FB211BE70162ABA93DF8AFC244AE9073ED050C759670D0840D390E18DF9F1706664C23973AE2A66B62A605A75ACA4C13C4976E1364A12EF355A2EBD384AF65EFA96
310
BC7B8BED2EA6719AAE16FB8491A199335B351775B991C2CA02F390D2D40B028F861F41BCA68B7518BFD0D59A524686F29B26D7164F36B94AD9289CE54E6D1DE6010819891F6E21228B3AD1831EC219194284CF98F06DD01008846CC5A1BEF83801D4CBDC6A1303536877A57A513B0953A94FC707FDBE6064EA84A9E3E6E0FA
310
EE8CF0E9198F7784A316AA0413C2C2F2E0ECA0934D1AE6D05A69BCDE9E91D2A611F573361E38FC1375157F5752AE6B6DFE4B11990F88CCBF0719EE23FF02504B0304140006080800CC70623B408A7D3B7C0000009D0000000B0000006662782F636E782E786D6C4DCCD10A83201886E15B91FFDC552A92A0064DBC8F581632
310
D3703A76F9ABD1C18E3E78F878E5F0D9027ABBFCF2292AE86E2D20171F69F6715550CB827B40839639A5F2770314A7CD293819B45C73AAFB45B35BA61ACAA1C1C7E7855C58C15BC331339661262CC762340413D68D77DA5B42298546CBE6573AF60CEB2F504B0304140006080800CC70623B449FB9BD290100001202000031
310
0000006662782F36394639363044362D344446342D343946362D394244322D3234314243333846323333332F636F72652E786D6C8D515B6EC32010BC0AE22B55850D98B871848994463E412FE002495162B07854397EA176A4F62F3F2C9A9D991D587EB84F37F0AD7D30CEF6905418026DA553C65E7A98E219ED203808EE9D
310
8B7F6810D871D23D2C3014FCE25D9A57483A1BB58D19B54EE9151C43D0110279CB971E06F9A5A7B11A53CC8C70ADE6515EC78BAE4895DB992778883E0700CB907242D17643D7E2538BD869608875438BBAE38922CAC8F1BDD90DB4691A5E2F42C153326A951B95E398B3D1FE599322163C9AE9115F7A3D46ADA0A018778810
310
84E907617BDCEE297BC5BB3DC6BC2EF47FA234AB2745C9D8D8D035EE220B50105E2F0DC1954B9FB747187D9F9D8FA0CCDB042D5FA0C015C65B42DF78BD10F3F3B363CB56C7109DCFDFBBB97E662ED92EB62D13BC2E1BCAE5777DB9966D8A1F504B0304140006080800CC70623BAD7543B64E01000033030000300000006662
310
782F36394639363044362D344446342D343946362D394244322D3234314243333846323333332F636E782E786D6CD593CD6EC32010845F0571AD6CE3D48AD20813A9873E410FBD12D82434182C7EAAE6EDBB2424CD25871E7B41D6EC30B3FA84F9E67BB2E40B4234DE8DB46F1925E094D7C6ED479AD3AE5951B2113C789FEE
310
6C943839C1488B4C05DF079FE72A69D8C96C13AAD6B8631503449F83828872B949AC57D26200B826A308D316B4064D6E46FCDA41C05550DC9E483A00797BFD207EFB092A45DE9514C1BBD22178396BD39D891265658C238DEA00936C654E5E433CB65A26D9F6EDB5EBC14EBF49A45CB856E66048291F6939A9A81BB5C89177
310
38143CA680F4AA299D66A042CEB3354A2684DC9D8D178FE0D9B8B41CAAD720F880EE7EF93C0C18769E099ECC04D5A102C8049A8A05632F4DDF376CF1DE0F6BB65C2F8627B65A33C6BB62177CEBBDAD973006829F89F22E814B54F4BC2BE347F8AA8F681390B50FA73F804400B5F542E796F19FF974E7F78DB802FE05E20750
310
4B0304140006080800CC70623B8D05915C650500003B100000340000006662782F36394639363044362D344446342D343946362D394244322D3234314243333846323333332F6F626A656374732E786D6CAD575B6FA33814FE2B887D06429276DA1565D4266D158D3A339A6846FB502932E050B66023DB74D2FDF5FB190C01
310
9276B2973C046C8ECFF53B17071F77456EBD502133CEAE6CDF9DD81665314F32965ED995DA3A17B6F5310C04E7AA47665B8C14F4CAD6DB7618A48257A5D94AE89654B91AEDDEDDFC61C998326A5B714EA4BCB265FC440BE2924AF184CA6737218AB8E976E7FA6E4338649B0A523E8D98964450A6A029F619B8588D52FE7039
310
B1BD30F0F4F730D0FF866AF6369557DB33949F31A9088B0F848DD8CCFCF9F2767A76E99CCDE733677E3EF59D9BBB9BA5E37F984D16E78BC5E5F5ED25044B25C0C96822E8D60EEFE11B91C581D77CEA34368A1F5329E68CD1B8B61F16D63A1B8E092D294B10C78C4A48EB593D192E7DED9BDEE7995E1B91FDEDD3ACEA9FE831
310
6A756F9F7D4D79F4274C90A7A04248AA51D5F8C718DAE06FB2F75AC4796EBE65D22A88A22223B995679120E2D50E41AA49C260C046A35368846B0BECD0DFF3EBEB8AD4F835768F69B9ADF25C43D30E6B646F807FAA64AD59F61715C7A54127C4AACA98BA3006A9D792DAE165E0D59B61A01FB3A9F9D838D2DAE62445C86166
310
F37564E842E7DE6A69879FEEA2DD5AE7E371E1A5E025154AC307D06A03D73EB5978C58FFA4C8E9033066E0F3BD53BEC1F39F91BE7B55103791EDE6BBB991A2046172CB4581D8B893FA674DDA17A77B3B7C413D1B511FD2743BFF8A38F03A658705E3ADF8015C3A3417FF3D7E439FF591DA0B5F18BC20C1B8981957AE6392A3
310
F43C640C01D1A0B4728E2DD4F26DB4B3C3152A252A3B4E913CEC1C72F012782FF88EFF8637AA552DBEF76408E8A8DE9E50F9E1CB3A2DA0DB1B6039A893B56063DC5B3E3FFB5F72E67AB9FEB4AEC496C4F4C1149625DD662C53E89D7BF0F6151A046260D1337DFDC94502430F83B0EE07A130A224BCAD7DAE1D9FB6CD422FF6
310
920702629C4BB9AE79C12F243C6432A6794E18E5552BA56B431AAB5D91317302B2B071E86C3A42B1A02F999E24061403B5D0EB639195DA655DD3EBEAB4FB862DDF579F014AD0E73C22F99E28DA57FB98E75C6CA2D74D53086D600F4786E0FE3144B771A8A7B900F03594DB8A633CBC49B2EDB69228BB479CF863B5E807AAAB
310
23872F6DFEB4129B949CA33823F58830E86D65621E10047D9DB34D862E8EAC3C2ABC2F7B2C40D67CDFE01F5545B92105AF983AC54D93D69E56FB8E797F88913F898A9FEC705D3F9D1B54EC8426FB500D40A03BD0119B06E1B95DDC7EB8F6975367793EBD70E66733DFB9BC982F9CE564727731999F5D4ECFCE3B8D6A4DC2A0
310
6D50FD148437D110834A64C6CDDF57FBACB5C307A2A477DFE4939736CFEF2B175371E0E10CF0DD1D5C15654E0BCA14D1E87DD02FF93782A162C0A3D95F1524A52770F972BF1EE9809D13CE7DD599467F8ECE9ADD85CE85A34CD45355448C64F9E8A031DC2D596ACC6E5DD93D9B82DE2EF5CAF81363A8E47996A0DE24564A79
310
4115AACE09C55E14540231FDA13C319787134EBF34E3A022514E5B4D9E0826E25C02D5805B15ABE1BEF51B26383D445DD9E875EE33FE4C22DA16427D65A3BCA92CA6D28DD01DF5DC53330704308475351050232CCD31583787BA75774AFB06E5070DD0C8EF484E19968C5D83BA5B90B244D31E54D55A372320FE4786B7EA58
310
44E135AA5467CB7EA333A61683CC6A8C3257034C10CF46F40EF9F5BE59BE5BD30C3C72D235E95D10345C1D45445A5F0BB47E46A5EBE5570F9380B5FA629579952296A773720405982B9DE04011506178964401AA8BDF1FBF0A8EAB6861DD6580C0E38217056766716DAEB2D6FA0917D3E4116581EADB879C4E7CFFB11EFACD
310
3D641311495D92C8676CB409A72D18610D803CE8A626049E8EC1887CB5B44CC39883690DDA8399B4B9855B481E7D71D4A9D22F96E5BB73BF5793020C02137BF837504B0304140006080000CC70623B000000000000000000000000350000006662782F36394639363044362D344446342D343946362D394244322D32343142
310
43333846323333332F76657274696365732E62696E504B0304140006080800CC70623BF270F1330600000004000000360000006662782F36394639363044362D344446342D343946362D394244322D3234314243333846323333332F747269616E676C65732E62696E636660600000504B0304140006080000CC70623B0000
310
00000000000000000000370000006662782F36394639363044362D344446342D343946362D394244322D3234314243333846323333332F617474726962757465732E62696E504B0304140006080800CC70623B08DA0BD19000000041010000360000006662782F36394639363044362D344446342D343946362D394244322D
310
3234314243333846323333332F6469726563746F72792E786D6C858F410AC3201045AF22B36F53E9A60B35CBEEBAE80D244E44489C6234F4F835464A48035D0DF398FF9F8AF63D0E6CC63039F212F8F9020C7D47C6792B21C5FE7403D62A1188E2E60C98D7234A5830286103A55745067B9D86B8A3CF9C7F90C11DE607FB14
310
4396D7B6A82D282E9A152AD114D5EF2CB866EEE831B8EEA07A7BB5A8D7D61A2BAAEB7FD5F70921FF497D00504B0304140006080800CC70623BCA768048FE000000A00100003B0000006662782F36394639363044362D344446342D343946362D394244322D3234314243333846323333332F7265736F75726365732F636F72
310
652E786D6C8D50596E833010BD0A9ADFCA60D600328E9AA639412F609909B1126CE4A5EAF16B0295DABFFECC8CDEA2797AECF8353F924FB44E193D409E5248504B332A3D0D10FC95B4901C39B3C6F85F3248B49871801506CE266BC2B243D2688FDA47549B11775038871E12F988C7004EDE7016A9083E2ADC3D5D84BC8B09
310
D33C8D74D471E6BC8D0192EDC93A815B742658898E651BCB59086ADC356A8C3FD555A1055ED7E7E254D615792D0F075295F585746FF53B694EE78A565DD736979A65AB9933AFE69F8CD2A2F038022F28ED489E135A7CE4554F9BBEA85E68DB53CAB255FEC71496F19FA6A0B42F8B3DEE6673C0F318E4497096AD7DC5F52C33
310
EEB55BFE0D504B010214000A0000080000CC70623B3DEE336E79000000790000001B00000000000000000000000000000000006175746F6465736B2D64657369676E2D7061636B6167652E786D6C504B01021400140006080800CC70623BD486FD9CA0000000F40000001300000000000000000000000000B20000005B436F
310
6E74656E745F54797065735D2E786D6C504B01021400140006080800CC70623BD9DDAED0EC0000007C010000080000000000000000000000000083010000636F72652E786D6C504B01021400140006080800CC70623B55019EA25F0000007C000000070000000000000000000000000095020000636E782E786D6C504B0102
310
1400140006080800CC70623BA24EB22D72010000D40300000C00000000000000000000000000190300006662782F636F72652E786D6C504B01021400140006080800CC70623B408A7D3B7C0000009D0000000B00000000000000000000000000B50400006662782F636E782E786D6C504B01021400140006080800CC70623B
310
449FB9BD290100001202000031000000000000000000000000005A0500006662782F36394639363044362D344446342D343946362D394244322D3234314243333846323333332F636F72652E786D6C504B01021400140006080800CC70623BAD7543B64E010000330300003000000000000000000000000000D20600006662
310
782F36394639363044362D344446342D343946362D394244322D3234314243333846323333332F636E782E786D6C504B01021400140006080800CC70623B8D05915C650500003B10000034000000000000000000000000006E0800006662782F36394639363044362D344446342D343946362D394244322D32343142433338
310
46323333332F6F626A656374732E786D6C504B01021400140006080000CC70623B0000000000000000000000003500000000000000000000000000250E00006662782F36394639363044362D344446342D343946362D394244322D3234314243333846323333332F76657274696365732E62696E504B010214001400060808
310
00CC70623BF270F13306000000040000003600000000000000000000000000780E00006662782F36394639363044362D344446342D343946362D394244322D3234314243333846323333332F747269616E676C65732E62696E504B01021400140006080000CC70623B00000000000000000000000037000000000000000000
310
00000000D20E00006662782F36394639363044362D344446342D343946362D394244322D3234314243333846323333332F617474726962757465732E62696E504B01021400140006080800CC70623B08DA0BD190000000410100003600000000000000000000000000270F00006662782F36394639363044362D344446342D
310
343946362D394244322D3234314243333846323333332F6469726563746F72792E786D6C504B01021400140006080800CC70623BCA768048FE000000A00100003B000000000000000000000000000B1000006662782F36394639363044362D344446342D343946362D394244322D3234314243333846323333332F7265736F
310
75726365732F636F72652E786D6C504B0506000000000E000E0080040000621100000000
  0
XRECORD
  5
176
102
{ACAD_REACTORS
330
173
102
}
330
173
100
AcDbXrecord
280
     1
270
     1
271
     1
  0
XRECORD
  5
177
102
{ACAD_REACTORS
330
173
102
}
330
173
100
AcDbXrecord
280
     1
270
     1
271
     1
  0
XRECORD
  5
3201
102
{ACAD_REACTORS
330
3200
102
}
330
3200
100
AcDbXrecord
280
     1
102
ACAD_ROUNDTRIP_2012_MLEADER_STYLE
298
     1
  0
XRECORD
  5
3213
102
{ACAD_REACTORS
330
3212
102
}
330
3212
100
AcDbXrecord
280
     1
102
DISPLAYNAME
  1
Metric50
102
FLAGS
 90
        0
  0
CELLSTYLEMAP
  5
31D3
102
{ACAD_REACTORS
330
162
102
}
330
162
100
AcDbCellStyleMap
 90
        3
300
CELLSTYLE
  1
TABLEFORMAT_BEGIN
 90
        5
170
     1
 91
        0
 92
    32768
 62
   257
 93
        1
300
CONTENTFORMAT
  1
CONTENTFORMAT_BEGIN
 90
        0
 91
        0
 92
      512
 93
        0
300

 40
0.0
140
1.0
 94
        5
 62
     0
340
11
144
6.0
309
CONTENTFORMAT_END
171
     1
301
MARGIN
  1
CELLMARGIN_BEGIN
 40
1.5
 40
1.5
 40
1.5
 40
1.5
 40
4.5
 40
4.5
309
CELLMARGIN_END
 94
        6
 95
        1
302
GRIDFORMAT
  1
GRIDFORMAT_BEGIN
 90
        0
 91
        1
 62
     0
 92
       -2
340
14
 93
        0
 40
1.125
309
GRIDFORMAT_END
 95
        2
302
GRIDFORMAT
  1
GRIDFORMAT_BEGIN
 90
        0
 91
        1
 62
     0
 92
       -2
340
14
 93
        0
 40
1.125
309
GRIDFORMAT_END
 95
        4
302
GRIDFORMAT
  1
GRIDFORMAT_BEGIN
 90
        0
 91
        1
 62
     0
 92
       -2
340
14
 93
        0
 40
1.125
309
GRIDFORMAT_END
 95
        8
302
GRIDFORMAT
  1
GRIDFORMAT_BEGIN
 90
        0
 91
        1
 62
     0
 92
       -2
340
14
 93
        0
 40
1.125
309
GRIDFORMAT_END
 95
       16
302
GRIDFORMAT
  1
GRIDFORMAT_BEGIN
 90
        0
 91
        1
 62
     0
 92
       -2
340
14
 93
        0
 40
1.125
309
GRIDFORMAT_END
 95
       32
302
GRIDFORMAT
  1
GRIDFORMAT_BEGIN
 90
        0
 91
        1
 62
     0
 92
       -2
340
14
 93
        0
 40
1.125
309
GRIDFORMAT_END
309
TABLEFORMAT_END
  1
CELLSTYLE_BEGIN
 90
        1
 91
        1
300
_TITLE
309
CELLSTYLE_END
300
CELLSTYLE
  1
TABLEFORMAT_BEGIN
 90
        5
170
     1
 91
        0
 92
        0
 62
   257
 93
        1
300
CONTENTFORMAT
  1
CONTENTFORMAT_BEGIN
 90
        0
 91
        0
 92
      512
 93
        0
300

 40
0.0
140
1.0
 94
        5
 62
     0
340
11
144
4.5
309
CONTENTFORMAT_END
171
     1
301
MARGIN
  1
CELLMARGIN_BEGIN
 40
1.5
 40
1.5
 40
1.5
 40
1.5
 40
4.5
 40
4.5
309
CELLMARGIN_END
 94
        6
 95
        1
302
GRIDFORMAT
  1
GRIDFORMAT_BEGIN
 90
        0
 91
        1
 62
     0
 92
       -2
340
14
 93
        0
 40
1.125
309
GRIDFORMAT_END
 95
        2
302
GRIDFORMAT
  1
GRIDFORMAT_BEGIN
 90
        0
 91
        1
 62
     0
 92
       -2
340
14
 93
        0
 40
1.125
309
GRIDFORMAT_END
 95
        4
302
GRIDFORMAT
  1
GRIDFORMAT_BEGIN
 90
        0
 91
        1
 62
     0
 92
       -2
340
14
 93
        0
 40
1.125
309
GRIDFORMAT_END
 95
        8
302
GRIDFORMAT
  1
GRIDFORMAT_BEGIN
 90
        0
 91
        1
 62
     0
 92
       -2
340
14
 93
        0
 40
1.125
309
GRIDFORMAT_END
 95
       16
302
GRIDFORMAT
  1
GRIDFORMAT_BEGIN
 90
        0
 91
        1
 62
     0
 92
       -2
340
14
 93
        0
 40
1.125
309
GRIDFORMAT_END
 95
       32
302
GRIDFORMAT
  1
GRIDFORMAT_BEGIN
 90
        0
 91
        1
 62
     0
 92
       -2
340
14
 93
        0
 40
1.125
309
GRIDFORMAT_END
309
TABLEFORMAT_END
  1
CELLSTYLE_BEGIN
 90
        2
 91
        1
300
_HEADER
309
CELLSTYLE_END
300
CELLSTYLE
  1
TABLEFORMAT_BEGIN
 90
        5
170
     1
 91
        0
 92
        0
 62
   257
 93
        1
300
CONTENTFORMAT
  1
CONTENTFORMAT_BEGIN
 90
        0
 91
        0
 92
      512
 93
        0
300

 40
0.0
140
1.0
 94
        2
 62
     0
340
11
144
4.5
309
CONTENTFORMAT_END
171
     1
301
MARGIN
  1
CELLMARGIN_BEGIN
 40
1.5
 40
1.5
 40
1.5
 40
1.5
 40
4.5
 40
4.5
309
CELLMARGIN_END
 94
        6
 95
        1
302
GRIDFORMAT
  1
GRIDFORMAT_BEGIN
 90
        0
 91
        1
 62
     0
 92
       -2
340
14
 93
        0
 40
1.125
309
GRIDFORMAT_END
 95
        2
302
GRIDFORMAT
  1
GRIDFORMAT_BEGIN
 90
        0
 91
        1
 62
     0
 92
       -2
340
14
 93
        0
 40
1.125
309
GRIDFORMAT_END
 95
        4
302
GRIDFORMAT
  1
GRIDFORMAT_BEGIN
 90
        0
 91
        1
 62
     0
 92
       -2
340
14
 93
        0
 40
1.125
309
GRIDFORMAT_END
 95
        8
302
GRIDFORMAT
  1
GRIDFORMAT_BEGIN
 90
        0
 91
        1
 62
     0
 92
       -2
340
14
 93
        0
 40
1.125
309
GRIDFORMAT_END
 95
       16
302
GRIDFORMAT
  1
GRIDFORMAT_BEGIN
 90
        0
 91
        1
 62
     0
 92
       -2
340
14
 93
        0
 40
1.125
309
GRIDFORMAT_END
 95
       32
302
GRIDFORMAT
  1
GRIDFORMAT_BEGIN
 90
        0
 91
        1
 62
     0
 92
       -2
340
14
 93
        0
 40
1.125
309
GRIDFORMAT_END
309
TABLEFORMAT_END
  1
CELLSTYLE_BEGIN
 90
        3
 91
        2
300
_DATA
309
CELLSTYLE_END
  0
XRECORD
  5
31D8
102
{ACAD_REACTORS
330
162
102
}
330
162
100
AcDbXrecord
280
     1
102
ACAD_ROUNDTRIP_PRE2007_TABLESTYLE
 90
      512
 91
        0
  1

 92
      512
 93
        0
  2

 94
      512
 95
        0
  3

  0
XRECORD
  5
31EB
102
{ACAD_REACTORS
330
31EA
102
}
330
31EA
100
AcDbXrecord
280
     1
102
RTVSPost2010Prop28
280
     1
102
RTVSPost2010PropOp28
 70
     1
102
RTVSPost2010Prop29
280
     1
102
RTVSPost2010PropOp29
 70
     1
102
RTVSPost2010Prop30
280
     0
102
RTVSPost2010PropOp30
 70
     1
102
RTVSPost2010Prop31
280
     0
102
RTVSPost2010PropOp31
 70
     1
102
RTVSPost2010Prop32
280
     0
102
RTVSPost2010PropOp32
 70
     1
102
RTVSPost2010Prop33
280
     0
102
RTVSPost2010PropOp33
 70
     1
102
RTVSPost2010Prop34
280
     0
102
RTVSPost2010PropOp34
 70
     1
102
RTVSPost2010Prop35
280
     0
102
RTVSPost2010PropOp35
 70
     1
102
RTVSPost2010Prop36
280
     0
102
RTVSPost2010PropOp36
 70
     1
102
RTVSPost2010Prop37
 90
       50
102
RTVSPost2010PropOp37
 70
     1
102
RTVSPost2010Prop38
140
0.0
102
RTVSPost2010PropOp38
 70
     1
102
RTVSPost2010Prop39
140
1.0
102
RTVSPost2010PropOp39
 70
     1
102
RTVSPost2010Prop40
 90
        0
102
RTVSPost2010PropOp40
 70
     1
102
RTVSPost2010Prop41ColorIndex
 90
       18
102
RTVSPost2010Prop41ColorRGB
 90
        0
102
RTVSPost2010PropOp41
 70
     1
102
RTVSPost2010Prop42
 90
       50
102
RTVSPost2010PropOp42
 70
     1
102
RTVSPost2010Prop43
 90
        3
102
RTVSPost2010PropOp43
 70
     1
102
RTVSPost2010Prop44ColorIndex
 90
        5
102
RTVSPost2010Prop44ColorRGB
 90
      255
102
RTVSPost2010PropOp44
 70
     1
102
RTVSPost2010Prop45
280
     0
102
RTVSPost2010PropOp45
 70
     1
102
RTVSPost2010Prop46
 90
       50
102
RTVSPost2010PropOp46
 70
     1
102
RTVSPost2010Prop47
 90
       50
102
RTVSPost2010PropOp47
 70
     1
102
RTVSPost2010Prop48
 90
       50
102
RTVSPost2010PropOp48
 70
     1
102
RTVSPost2010Prop49
280
     0
102
RTVSPost2010PropOp49
 70
     1
102
RTVSPost2010Prop50
 90
       50
102
RTVSPost2010PropOp50
 70
     1
102
RTVSPost2010Prop51ColorIndex
 90
      256
102
RTVSPost2010Prop51ColorRGB
 90
-16777216
102
RTVSPost2010PropOp51
 70
     0
102
RTVSPost2010Prop52
140
1.0
102
RTVSPost2010PropOp52
 70
     0
102
RTVSPost2010Prop53
 90
        2
102
RTVSPost2010PropOp53
 70
     1
102
RTVSPost2010Prop54
  1
strokes_ogs.tif
102
RTVSPost2010PropOp54
 70
     1
102
RTVSPost2010Prop55
280
     0
102
RTVSPost2010PropOp55
 70
     1
102
RTVSPost2010Prop56
140
1.0
102
RTVSPost2010PropOp56
 70
     1
102
RTVSPost2010Prop57
140
1.0
102
RTVSPost2010PropOp57
 70
     1
102
RTVSPropertyOp0
 70
     1
102
RTVSPropertyOp1
 70
     1
102
RTVSPropertyOp2
 70
     1
102
RTVSPropertyOp3
 70
     1
102
RTVSPropertyOp4
 70
     1
102
RTVSPropertyOp5
 70
     1
102
RTVSPropertyOp6
 70
     1
102
RTVSPropertyOp7
 70
     1
102
RTVSPropertyOp8
 70
     1
102
RTVSPropertyOp9
 70
     1
102
RTVSPropertyOp10
 70
     1
102
RTVSPropertyOp11
 70
     1
102
RTVSPropertyOp12
 70
     1
102
RTVSPropertyOp13
 70
     1
102
RTVSPropertyOp14
 70
     1
102
RTVSPropertyOp15
 70
     1
102
RTVSPropertyOp16
 70
     1
102
RTVSPropertyOp17
 70
     1
102
RTVSPropertyOp18
 70
     1
102
RTVSPropertyOp19
 70
     1
102
RTVSPropertyOp20
 70
     1
102
RTVSPropertyOp21
 70
     1
102
RTVSPropertyOp22
 70
     1
102
RTVSPropertyOp23
 70
     1
102
RTVSPropertyOp24
 70
     1
102
RTVSPropertyOp25
 70
     1
102
RTVSPropertyOp26
 70
     1
102
RTVSPropertyOp27
 70
     1
102
RTVSPropertyOp28
 70
     1
102
RTVSPropertyOp29
 70
     1
102
RTVSPropertyOp30
 70
     1
102
RTVSPropertyOp31
 70
     1
102
RTVSPropertyOp32
 70
     1
102
RTVSPropertyOp33
 70
     1
102
RTVSPropertyOp34
 70
     1
102
RTVSPropertyOp35
 70
     1
102
RTVSPropertyOp36
 70
     1
102
RTVSPropertyOp37
 70
     1
102
RTVSPropertyOp38
 70
     1
102
RTVSPropertyOp39
 70
     1
102
RTVSPropertyOp40
 70
     1
102
RTVSPropertyOp41
 70
     1
102
RTVSPropertyOp42
 70
     1
102
RTVSPropertyOp43
 70
     1
102
RTVSPropertyOp44
 70
     1
102
RTVSPropertyOp45
 70
     1
102
RTVSPropertyOp46
 70
     1
102
RTVSPropertyOp47
 70
     1
102
RTVSPropertyOp48
 70
     1
102
RTVSPropertyOp49
 70
     1
102
RTVSPropertyOp50
 70
     1
102
RTVSPropertyOp51
 70
     0
102
RTVSPropertyOp52
 70
     0
102
RTVSPropertyOp53
 70
     1
102
RTVSPropertyOp54
 70
     1
102
RTVSPropertyOp55
 70
     1
102
RTVSPropertyOp56
 70
     1
102
RTVSPropertyOp57
 70
     1
102
RTVSPropertyOp58
 70
     1
102
RTVSPropertyOp59
 70
     1
102
RTVSPropertyOp60
 70
     1
102
RTVSPropertyOp61
 70
     1
102
RTVSPropertyOp62
 70
     1
  0
XRECORD
  5
31E9
102
{ACAD_REACTORS
330
31E8
102
}
330
31E8
100
AcDbXrecord
280
     1
102
RTVSPost2010Prop28
280
     0
102
RTVSPost2010PropOp28
 70
     1
102
RTVSPost2010Prop29
280
     1
102
RTVSPost2010PropOp29
 70
     1
102
RTVSPost2010Prop30
280
     1
102
RTVSPost2010PropOp30
 70
     1
102
RTVSPost2010Prop31
280
     0
102
RTVSPost2010PropOp31
 70
     1
102
RTVSPost2010Prop32
280
     0
102
RTVSPost2010PropOp32
 70
     1
102
RTVSPost2010Prop33
280
     0
102
RTVSPost2010PropOp33
 70
     1
102
RTVSPost2010Prop34
280
     0
102
RTVSPost2010PropOp34
 70
     1
102
RTVSPost2010Prop35
280
     0
102
RTVSPost2010PropOp35
 70
     1
102
RTVSPost2010Prop36
280
     0
102
RTVSPost2010PropOp36
 70
     1
102
RTVSPost2010Prop37
 90
       50
102
RTVSPost2010PropOp37
 70
     1
102
RTVSPost2010Prop38
140
0.0
102
RTVSPost2010PropOp38
 70
     1
102
RTVSPost2010Prop39
140
1.0
102
RTVSPost2010PropOp39
 70
     1
102
RTVSPost2010Prop40
 90
        0
102
RTVSPost2010PropOp40
 70
     1
102
RTVSPost2010Prop41ColorIndex
 90
       18
102
RTVSPost2010Prop41ColorRGB
 90
        0
102
RTVSPost2010PropOp41
 70
     1
102
RTVSPost2010Prop42
 90
       50
102
RTVSPost2010PropOp42
 70
     1
102
RTVSPost2010Prop43
 90
        3
102
RTVSPost2010PropOp43
 70
     1
102
RTVSPost2010Prop44ColorIndex
 90
        5
102
RTVSPost2010Prop44ColorRGB
 90
      255
102
RTVSPost2010PropOp44
 70
     1
102
RTVSPost2010Prop45
280
     0
102
RTVSPost2010PropOp45
 70
     1
102
RTVSPost2010Prop46
 90
       50
102
RTVSPost2010PropOp46
 70
     1
102
RTVSPost2010Prop47
 90
       50
102
RTVSPost2010PropOp47
 70
     1
102
RTVSPost2010Prop48
 90
       50
102
RTVSPost2010PropOp48
 70
     1
102
RTVSPost2010Prop49
280
     0
102
RTVSPost2010PropOp49
 70
     1
102
RTVSPost2010Prop50
 90
       50
102
RTVSPost2010PropOp50
 70
     1
102
RTVSPost2010Prop51ColorIndex
 90
      256
102
RTVSPost2010Prop51ColorRGB
 90
-16777216
102
RTVSPost2010PropOp51
 70
     0
102
RTVSPost2010Prop52
140
1.0
102
RTVSPost2010PropOp52
 70
     0
102
RTVSPost2010Prop53
 90
        2
102
RTVSPost2010PropOp53
 70
     1
102
RTVSPost2010Prop54
  1
strokes_ogs.tif
102
RTVSPost2010PropOp54
 70
     1
102
RTVSPost2010Prop55
280
     0
102
RTVSPost2010PropOp55
 70
     1
102
RTVSPost2010Prop56
140
1.0
102
RTVSPost2010PropOp56
 70
     1
102
RTVSPost2010Prop57
140
1.0
102
RTVSPost2010PropOp57
 70
     1
102
RTVSPropertyOp0
 70
     1
102
RTVSPropertyOp1
 70
     1
102
RTVSPropertyOp2
 70
     1
102
RTVSPropertyOp3
 70
     1
102
RTVSPropertyOp4
 70
     1
102
RTVSPropertyOp5
 70
     1
102
RTVSPropertyOp6
 70
     1
102
RTVSPropertyOp7
 70
     1
102
RTVSPropertyOp8
 70
     1
102
RTVSPropertyOp9
 70
     1
102
RTVSPropertyOp10
 70
     1
102
RTVSPropertyOp11
 70
     1
102
RTVSPropertyOp12
 70
     1
102
RTVSPropertyOp13
 70
     1
102
RTVSPropertyOp14
 70
     1
102
RTVSPropertyOp15
 70
     1
102
RTVSPropertyOp16
 70
     1
102
RTVSPropertyOp17
 70
     1
102
RTVSPropertyOp18
 70
     1
102
RTVSPropertyOp19
 70
     1
102
RTVSPropertyOp20
 70
     1
102
RTVSPropertyOp21
 70
     1
102
RTVSPropertyOp22
 70
     1
102
RTVSPropertyOp23
 70
     1
102
RTVSPropertyOp24
 70
     1
102
RTVSPropertyOp25
 70
     1
102
RTVSPropertyOp26
 70
     1
102
RTVSPropertyOp27
 70
     1
102
RTVSPropertyOp28
 70
     1
102
RTVSPropertyOp29
 70
     1
102
RTVSPropertyOp30
 70
     1
102
RTVSPropertyOp31
 70
     1
102
RTVSPropertyOp32
 70
     1
102
RTVSPropertyOp33
 70
     1
102
RTVSPropertyOp34
 70
     1
102
RTVSPropertyOp35
 70
     1
102
RTVSPropertyOp36
 70
     1
102
RTVSPropertyOp37
 70
     1
102
RTVSPropertyOp38
 70
     1
102
RTVSPropertyOp39
 70
     1
102
RTVSPropertyOp40
 70
     1
102
RTVSPropertyOp41
 70
     1
102
RTVSPropertyOp42
 70
     1
102
RTVSPropertyOp43
 70
     1
102
RTVSPropertyOp44
 70
     1
102
RTVSPropertyOp45
 70
     1
102
RTVSPropertyOp46
 70
     1
102
RTVSPropertyOp47
 70
     1
102
RTVSPropertyOp48
 70
     1
102
RTVSPropertyOp49
 70
     1
102
RTVSPropertyOp50
 70
     1
102
RTVSPropertyOp51
 70
     0
102
RTVSPropertyOp52
 70
     0
102
RTVSPropertyOp53
 70
     1
102
RTVSPropertyOp54
 70
     1
102
RTVSPropertyOp55
 70
     1
102
RTVSPropertyOp56
 70
     1
102
RTVSPropertyOp57
 70
     1
102
RTVSPropertyOp58
 70
     1
102
RTVSPropertyOp59
 70
     1
102
RTVSPropertyOp60
 70
     1
102
RTVSPropertyOp61
 70
     1
102
RTVSPropertyOp62
 70
     1
  0
XRECORD
  5
31F7
102
{ACAD_REACTORS
330
31F6
102
}
330
31F6
100
AcDbXrecord
280
     1
102
RTVSPost2010Prop28
280
     0
102
RTVSPost2010PropOp28
 70
     1
102
RTVSPost2010Prop29
280
     1
102
RTVSPost2010PropOp29
 70
     1
102
RTVSPost2010Prop30
280
     1
102
RTVSPost2010PropOp30
 70
     1
102
RTVSPost2010Prop31
280
     0
102
RTVSPost2010PropOp31
 70
     1
102
RTVSPost2010Prop32
280
     0
102
RTVSPost2010PropOp32
 70
     1
102
RTVSPost2010Prop33
280
     0
102
RTVSPost2010PropOp33
 70
     1
102
RTVSPost2010Prop34
280
     0
102
RTVSPost2010PropOp34
 70
     1
102
RTVSPost2010Prop35
280
     0
102
RTVSPost2010PropOp35
 70
     1
102
RTVSPost2010Prop36
280
     0
102
RTVSPost2010PropOp36
 70
     1
102
RTVSPost2010Prop37
 90
       50
102
RTVSPost2010PropOp37
 70
     1
102
RTVSPost2010Prop38
140
0.0
102
RTVSPost2010PropOp38
 70
     1
102
RTVSPost2010Prop39
140
1.0
102
RTVSPost2010PropOp39
 70
     1
102
RTVSPost2010Prop40
 90
        0
102
RTVSPost2010PropOp40
 70
     1
102
RTVSPost2010Prop41ColorIndex
 90
       18
102
RTVSPost2010Prop41ColorRGB
 90
        0
102
RTVSPost2010PropOp41
 70
     1
102
RTVSPost2010Prop42
 90
       50
102
RTVSPost2010PropOp42
 70
     1
102
RTVSPost2010Prop43
 90
        3
102
RTVSPost2010PropOp43
 70
     1
102
RTVSPost2010Prop44ColorIndex
 90
        5
102
RTVSPost2010Prop44ColorRGB
 90
      255
102
RTVSPost2010PropOp44
 70
     1
102
RTVSPost2010Prop45
280
     0
102
RTVSPost2010PropOp45
 70
     1
102
RTVSPost2010Prop46
 90
       50
102
RTVSPost2010PropOp46
 70
     1
102
RTVSPost2010Prop47
 90
       50
102
RTVSPost2010PropOp47
 70
     1
102
RTVSPost2010Prop48
 90
       50
102
RTVSPost2010PropOp48
 70
     1
102
RTVSPost2010Prop49
280
     0
102
RTVSPost2010PropOp49
 70
     1
102
RTVSPost2010Prop50
 90
       50
102
RTVSPost2010PropOp50
 70
     1
102
RTVSPost2010Prop51ColorIndex
 90
      256
102
RTVSPost2010Prop51ColorRGB
 90
-16777216
102
RTVSPost2010PropOp51
 70
     0
102
RTVSPost2010Prop52
140
1.0
102
RTVSPost2010PropOp52
 70
     0
102
RTVSPost2010Prop53
 90
        2
102
RTVSPost2010PropOp53
 70
     1
102
RTVSPost2010Prop54
  1
strokes_ogs.tif
102
RTVSPost2010PropOp54
 70
     1
102
RTVSPost2010Prop55
280
     0
102
RTVSPost2010PropOp55
 70
     1
102
RTVSPost2010Prop56
140
1.0
102
RTVSPost2010PropOp56
 70
     1
102
RTVSPost2010Prop57
140
1.0
102
RTVSPost2010PropOp57
 70
     1
102
RTVSPropertyOp0
 70
     1
102
RTVSPropertyOp1
 70
     1
102
RTVSPropertyOp2
 70
     1
102
RTVSPropertyOp3
 70
     1
102
RTVSPropertyOp4
 70
     1
102
RTVSPropertyOp5
 70
     1
102
RTVSPropertyOp6
 70
     1
102
RTVSPropertyOp7
 70
     1
102
RTVSPropertyOp8
 70
     1
102
RTVSPropertyOp9
 70
     1
102
RTVSPropertyOp10
 70
     1
102
RTVSPropertyOp11
 70
     1
102
RTVSPropertyOp12
 70
     1
102
RTVSPropertyOp13
 70
     1
102
RTVSPropertyOp14
 70
     1
102
RTVSPropertyOp15
 70
     1
102
RTVSPropertyOp16
 70
     1
102
RTVSPropertyOp17
 70
     1
102
RTVSPropertyOp18
 70
     1
102
RTVSPropertyOp19
 70
     1
102
RTVSPropertyOp20
 70
     1
102
RTVSPropertyOp21
 70
     1
102
RTVSPropertyOp22
 70
     1
102
RTVSPropertyOp23
 70
     1
102
RTVSPropertyOp24
 70
     1
102
RTVSPropertyOp25
 70
     1
102
RTVSPropertyOp26
 70
     1
102
RTVSPropertyOp27
 70
     1
102
RTVSPropertyOp28
 70
     1
102
RTVSPropertyOp29
 70
     1
102
RTVSPropertyOp30
 70
     1
102
RTVSPropertyOp31
 70
     1
102
RTVSPropertyOp32
 70
     1
102
RTVSPropertyOp33
 70
     1
102
RTVSPropertyOp34
 70
     1
102
RTVSPropertyOp35
 70
     1
102
RTVSPropertyOp36
 70
     1
102
RTVSPropertyOp37
 70
     1
102
RTVSPropertyOp38
 70
     1
102
RTVSPropertyOp39
 70
     1
102
RTVSPropertyOp40
 70
     1
102
RTVSPropertyOp41
 70
     1
102
RTVSPropertyOp42
 70
     1
102
RTVSPropertyOp43
 70
     1
102
RTVSPropertyOp44
 70
     1
102
RTVSPropertyOp45
 70
     1
102
RTVSPropertyOp46
 70
     1
102
RTVSPropertyOp47
 70
     1
102
RTVSPropertyOp48
 70
     1
102
RTVSPropertyOp49
 70
     1
102
RTVSPropertyOp50
 70
     1
102
RTVSPropertyOp51
 70
     0
102
RTVSPropertyOp52
 70
     0
102
RTVSPropertyOp53
 70
     1
102
RTVSPropertyOp54
 70
     1
102
RTVSPropertyOp55
 70
     1
102
RTVSPropertyOp56
 70
     1
102
RTVSPropertyOp57
 70
     1
102
RTVSPropertyOp58
 70
     1
102
RTVSPropertyOp59
 70
     1
102
RTVSPropertyOp60
 70
     1
102
RTVSPropertyOp61
 70
     1
102
RTVSPropertyOp62
 70
     1
  0
XRECORD
  5
31FF
102
{ACAD_REACTORS
330
31FE
102
}
330
31FE
100
AcDbXrecord
280
     1
102
RTVSPost2010Prop28
280
     0
102
RTVSPost2010PropOp28
 70
     1
102
RTVSPost2010Prop29
280
     1
102
RTVSPost2010PropOp29
 70
     1
102
RTVSPost2010Prop30
280
     1
102
RTVSPost2010PropOp30
 70
     1
102
RTVSPost2010Prop31
280
     0
102
RTVSPost2010PropOp31
 70
     1
102
RTVSPost2010Prop32
280
     0
102
RTVSPost2010PropOp32
 70
     1
102
RTVSPost2010Prop33
280
     0
102
RTVSPost2010PropOp33
 70
     1
102
RTVSPost2010Prop34
280
     0
102
RTVSPost2010PropOp34
 70
     1
102
RTVSPost2010Prop35
280
     0
102
RTVSPost2010PropOp35
 70
     1
102
RTVSPost2010Prop36
280
     0
102
RTVSPost2010PropOp36
 70
     1
102
RTVSPost2010Prop37
 90
       50
102
RTVSPost2010PropOp37
 70
     1
102
RTVSPost2010Prop38
140
0.0
102
RTVSPost2010PropOp38
 70
     1
102
RTVSPost2010Prop39
140
1.0
102
RTVSPost2010PropOp39
 70
     1
102
RTVSPost2010Prop40
 90
        0
102
RTVSPost2010PropOp40
 70
     1
102
RTVSPost2010Prop41ColorIndex
 90
       18
102
RTVSPost2010Prop41ColorRGB
 90
        0
102
RTVSPost2010PropOp41
 70
     1
102
RTVSPost2010Prop42
 90
       50
102
RTVSPost2010PropOp42
 70
     1
102
RTVSPost2010Prop43
 90
        3
102
RTVSPost2010PropOp43
 70
     1
102
RTVSPost2010Prop44ColorIndex
 90
        5
102
RTVSPost2010Prop44ColorRGB
 90
      255
102
RTVSPost2010PropOp44
 70
     1
102
RTVSPost2010Prop45
280
     0
102
RTVSPost2010PropOp45
 70
     1
102
RTVSPost2010Prop46
 90
       50
102
RTVSPost2010PropOp46
 70
     1
102
RTVSPost2010Prop47
 90
       50
102
RTVSPost2010PropOp47
 70
     1
102
RTVSPost2010Prop48
 90
       50
102
RTVSPost2010PropOp48
 70
     1
102
RTVSPost2010Prop49
280
     0
102
RTVSPost2010PropOp49
 70
     1
102
RTVSPost2010Prop50
 90
       50
102
RTVSPost2010PropOp50
 70
     1
102
RTVSPost2010Prop51ColorIndex
 90
      256
102
RTVSPost2010Prop51ColorRGB
 90
-16777216
102
RTVSPost2010PropOp51
 70
     0
102
RTVSPost2010Prop52
140
1.0
102
RTVSPost2010PropOp52
 70
     0
102
RTVSPost2010Prop53
 90
        2
102
RTVSPost2010PropOp53
 70
     1
102
RTVSPost2010Prop54
  1
strokes_ogs.tif
102
RTVSPost2010PropOp54
 70
     1
102
RTVSPost2010Prop55
280
     0
102
RTVSPost2010PropOp55
 70
     1
102
RTVSPost2010Prop56
140
1.0
102
RTVSPost2010PropOp56
 70
     1
102
RTVSPost2010Prop57
140
1.0
102
RTVSPost2010PropOp57
 70
     1
102
RTVSPropertyOp0
 70
     1
102
RTVSPropertyOp1
 70
     1
102
RTVSPropertyOp2
 70
     1
102
RTVSPropertyOp3
 70
     1
102
RTVSPropertyOp4
 70
     1
102
RTVSPropertyOp5
 70
     1
102
RTVSPropertyOp6
 70
     1
102
RTVSPropertyOp7
 70
     1
102
RTVSPropertyOp8
 70
     1
102
RTVSPropertyOp9
 70
     1
102
RTVSPropertyOp10
 70
     1
102
RTVSPropertyOp11
 70
     1
102
RTVSPropertyOp12
 70
     1
102
RTVSPropertyOp13
 70
     1
102
RTVSPropertyOp14
 70
     1
102
RTVSPropertyOp15
 70
     1
102
RTVSPropertyOp16
 70
     1
102
RTVSPropertyOp17
 70
     1
102
RTVSPropertyOp18
 70
     1
102
RTVSPropertyOp19
 70
     1
102
RTVSPropertyOp20
 70
     1
102
RTVSPropertyOp21
 70
     1
102
RTVSPropertyOp22
 70
     1
102
RTVSPropertyOp23
 70
     1
102
RTVSPropertyOp24
 70
     1
102
RTVSPropertyOp25
 70
     1
102
RTVSPropertyOp26
 70
     1
102
RTVSPropertyOp27
 70
     1
102
RTVSPropertyOp28
 70
     1
102
RTVSPropertyOp29
 70
     1
102
RTVSPropertyOp30
 70
     1
102
RTVSPropertyOp31
 70
     1
102
RTVSPropertyOp32
 70
     1
102
RTVSPropertyOp33
 70
     1
102
RTVSPropertyOp34
 70
     1
102
RTVSPropertyOp35
 70
     1
102
RTVSPropertyOp36
 70
     1
102
RTVSPropertyOp37
 70
     1
102
RTVSPropertyOp38
 70
     1
102
RTVSPropertyOp39
 70
     1
102
RTVSPropertyOp40
 70
     1
102
RTVSPropertyOp41
 70
     1
102
RTVSPropertyOp42
 70
     1
102
RTVSPropertyOp43
 70
     1
102
RTVSPropertyOp44
 70
     1
102
RTVSPropertyOp45
 70
     1
102
RTVSPropertyOp46
 70
     1
102
RTVSPropertyOp47
 70
     1
102
RTVSPropertyOp48
 70
     1
102
RTVSPropertyOp49
 70
     1
102
RTVSPropertyOp50
 70
     1
102
RTVSPropertyOp51
 70
     0
102
RTVSPropertyOp52
 70
     0
102
RTVSPropertyOp53
 70
     1
102
RTVSPropertyOp54
 70
     1
102
RTVSPropertyOp55
 70
     1
102
RTVSPropertyOp56
 70
     1
102
RTVSPropertyOp57
 70
     1
102
RTVSPropertyOp58
 70
     1
102
RTVSPropertyOp59
 70
     1
102
RTVSPropertyOp60
 70
     1
102
RTVSPropertyOp61
 70
     1
102
RTVSPropertyOp62
 70
     1
  0
XRECORD
  5
31F1
102
{ACAD_REACTORS
330
31F0
102
}
330
31F0
100
AcDbXrecord
280
     1
102
RTVSPost2010Prop28
280
     0
102
RTVSPost2010PropOp28
 70
     1
102
RTVSPost2010Prop29
280
     1
102
RTVSPost2010PropOp29
 70
     1
102
RTVSPost2010Prop30
280
     1
102
RTVSPost2010PropOp30
 70
     1
102
RTVSPost2010Prop31
280
     0
102
RTVSPost2010PropOp31
 70
     1
102
RTVSPost2010Prop32
280
     0
102
RTVSPost2010PropOp32
 70
     1
102
RTVSPost2010Prop33
280
     0
102
RTVSPost2010PropOp33
 70
     1
102
RTVSPost2010Prop34
280
     0
102
RTVSPost2010PropOp34
 70
     1
102
RTVSPost2010Prop35
280
     0
102
RTVSPost2010PropOp35
 70
     1
102
RTVSPost2010Prop36
280
     0
102
RTVSPost2010PropOp36
 70
     1
102
RTVSPost2010Prop37
 90
       50
102
RTVSPost2010PropOp37
 70
     1
102
RTVSPost2010Prop38
140
0.0
102
RTVSPost2010PropOp38
 70
     1
102
RTVSPost2010Prop39
140
1.0
102
RTVSPost2010PropOp39
 70
     1
102
RTVSPost2010Prop40
 90
        0
102
RTVSPost2010PropOp40
 70
     1
102
RTVSPost2010Prop41ColorIndex
 90
       18
102
RTVSPost2010Prop41ColorRGB
 90
        0
102
RTVSPost2010PropOp41
 70
     1
102
RTVSPost2010Prop42
 90
       50
102
RTVSPost2010PropOp42
 70
     1
102
RTVSPost2010Prop43
 90
        3
102
RTVSPost2010PropOp43
 70
     1
102
RTVSPost2010Prop44ColorIndex
 90
        5
102
RTVSPost2010Prop44ColorRGB
 90
      255
102
RTVSPost2010PropOp44
 70
     1
102
RTVSPost2010Prop45
280
     0
102
RTVSPost2010PropOp45
 70
     1
102
RTVSPost2010Prop46
 90
       50
102
RTVSPost2010PropOp46
 70
     1
102
RTVSPost2010Prop47
 90
       50
102
RTVSPost2010PropOp47
 70
     1
102
RTVSPost2010Prop48
 90
       50
102
RTVSPost2010PropOp48
 70
     1
102
RTVSPost2010Prop49
280
     0
102
RTVSPost2010PropOp49
 70
     1
102
RTVSPost2010Prop50
 90
       50
102
RTVSPost2010PropOp50
 70
     1
102
RTVSPost2010Prop51ColorIndex
 90
      256
102
RTVSPost2010Prop51ColorRGB
 90
-16777216
102
RTVSPost2010PropOp51
 70
     0
102
RTVSPost2010Prop52
140
1.0
102
RTVSPost2010PropOp52
 70
     0
102
RTVSPost2010Prop53
 90
        2
102
RTVSPost2010PropOp53
 70
     1
102
RTVSPost2010Prop54
  1
strokes_ogs.tif
102
RTVSPost2010PropOp54
 70
     1
102
RTVSPost2010Prop55
280
     0
102
RTVSPost2010PropOp55
 70
     1
102
RTVSPost2010Prop56
140
1.0
102
RTVSPost2010PropOp56
 70
     1
102
RTVSPost2010Prop57
140
1.0
102
RTVSPost2010PropOp57
 70
     1
102
RTVSPropertyOp0
 70
     1
102
RTVSPropertyOp1
 70
     1
102
RTVSPropertyOp2
 70
     1
102
RTVSPropertyOp3
 70
     1
102
RTVSPropertyOp4
 70
     1
102
RTVSPropertyOp5
 70
     1
102
RTVSPropertyOp6
 70
     1
102
RTVSPropertyOp7
 70
     1
102
RTVSPropertyOp8
 70
     1
102
RTVSPropertyOp9
 70
     1
102
RTVSPropertyOp10
 70
     1
102
RTVSPropertyOp11
 70
     1
102
RTVSPropertyOp12
 70
     1
102
RTVSPropertyOp13
 70
     1
102
RTVSPropertyOp14
 70
     1
102
RTVSPropertyOp15
 70
     1
102
RTVSPropertyOp16
 70
     1
102
RTVSPropertyOp17
 70
     1
102
RTVSPropertyOp18
 70
     1
102
RTVSPropertyOp19
 70
     1
102
RTVSPropertyOp20
 70
     1
102
RTVSPropertyOp21
 70
     1
102
RTVSPropertyOp22
 70
     1
102
RTVSPropertyOp23
 70
     1
102
RTVSPropertyOp24
 70
     1
102
RTVSPropertyOp25
 70
     1
102
RTVSPropertyOp26
 70
     1
102
RTVSPropertyOp27
 70
     1
102
RTVSPropertyOp28
 70
     1
102
RTVSPropertyOp29
 70
     1
102
RTVSPropertyOp30
 70
     1
102
RTVSPropertyOp31
 70
     1
102
RTVSPropertyOp32
 70
     1
102
RTVSPropertyOp33
 70
     1
102
RTVSPropertyOp34
 70
     1
102
RTVSPropertyOp35
 70
     1
102
RTVSPropertyOp36
 70
     1
102
RTVSPropertyOp37
 70
     1
102
RTVSPropertyOp38
 70
     1
102
RTVSPropertyOp39
 70
     1
102
RTVSPropertyOp40
 70
     1
102
RTVSPropertyOp41
 70
     1
102
RTVSPropertyOp42
 70
     1
102
RTVSPropertyOp43
 70
     1
102
RTVSPropertyOp44
 70
     1
102
RTVSPropertyOp45
 70
     1
102
RTVSPropertyOp46
 70
     1
102
RTVSPropertyOp47
 70
     1
102
RTVSPropertyOp48
 70
     1
102
RTVSPropertyOp49
 70
     1
102
RTVSPropertyOp50
 70
     1
102
RTVSPropertyOp51
 70
     0
102
RTVSPropertyOp52
 70
     0
102
RTVSPropertyOp53
 70
     1
102
RTVSPropertyOp54
 70
     1
102
RTVSPropertyOp55
 70
     1
102
RTVSPropertyOp56
 70
     1
102
RTVSPropertyOp57
 70
     1
102
RTVSPropertyOp58
 70
     1
102
RTVSPropertyOp59
 70
     1
102
RTVSPropertyOp60
 70
     1
102
RTVSPropertyOp61
 70
     1
102
RTVSPropertyOp62
 70
     1
  0
XRECORD
  5
31F5
102
{ACAD_REACTORS
330
31F4
102
}
330
31F4
100
AcDbXrecord
280
     1
102
RTVSPost2010Prop28
280
     0
102
RTVSPost2010PropOp28
 70
     1
102
RTVSPost2010Prop29
280
     1
102
RTVSPost2010PropOp29
 70
     1
102
RTVSPost2010Prop30
280
     1
102
RTVSPost2010PropOp30
 70
     1
102
RTVSPost2010Prop31
280
     0
102
RTVSPost2010PropOp31
 70
     1
102
RTVSPost2010Prop32
280
     0
102
RTVSPost2010PropOp32
 70
     1
102
RTVSPost2010Prop33
280
     0
102
RTVSPost2010PropOp33
 70
     1
102
RTVSPost2010Prop34
280
     0
102
RTVSPost2010PropOp34
 70
     1
102
RTVSPost2010Prop35
280
     0
102
RTVSPost2010PropOp35
 70
     1
102
RTVSPost2010Prop36
280
     0
102
RTVSPost2010PropOp36
 70
     1
102
RTVSPost2010Prop37
 90
       50
102
RTVSPost2010PropOp37
 70
     1
102
RTVSPost2010Prop38
140
0.0
102
RTVSPost2010PropOp38
 70
     1
102
RTVSPost2010Prop39
140
1.0
102
RTVSPost2010PropOp39
 70
     1
102
RTVSPost2010Prop40
 90
        0
102
RTVSPost2010PropOp40
 70
     1
102
RTVSPost2010Prop41ColorIndex
 90
       18
102
RTVSPost2010Prop41ColorRGB
 90
        0
102
RTVSPost2010PropOp41
 70
     1
102
RTVSPost2010Prop42
 90
       50
102
RTVSPost2010PropOp42
 70
     1
102
RTVSPost2010Prop43
 90
        3
102
RTVSPost2010PropOp43
 70
     1
102
RTVSPost2010Prop44ColorIndex
 90
        5
102
RTVSPost2010Prop44ColorRGB
 90
      255
102
RTVSPost2010PropOp44
 70
     1
102
RTVSPost2010Prop45
280
     0
102
RTVSPost2010PropOp45
 70
     1
102
RTVSPost2010Prop46
 90
       50
102
RTVSPost2010PropOp46
 70
     1
102
RTVSPost2010Prop47
 90
       50
102
RTVSPost2010PropOp47
 70
     1
102
RTVSPost2010Prop48
 90
       50
102
RTVSPost2010PropOp48
 70
     1
102
RTVSPost2010Prop49
280
     0
102
RTVSPost2010PropOp49
 70
     1
102
RTVSPost2010Prop50
 90
       50
102
RTVSPost2010PropOp50
 70
     1
102
RTVSPost2010Prop51ColorIndex
 90
      256
102
RTVSPost2010Prop51ColorRGB
 90
-16777216
102
RTVSPost2010PropOp51
 70
     0
102
RTVSPost2010Prop52
140
1.0
102
RTVSPost2010PropOp52
 70
     0
102
RTVSPost2010Prop53
 90
        2
102
RTVSPost2010PropOp53
 70
     1
102
RTVSPost2010Prop54
  1
strokes_ogs.tif
102
RTVSPost2010PropOp54
 70
     1
102
RTVSPost2010Prop55
280
     0
102
RTVSPost2010PropOp55
 70
     1
102
RTVSPost2010Prop56
140
1.0
102
RTVSPost2010PropOp56
 70
     1
102
RTVSPost2010Prop57
140
1.0
102
RTVSPost2010PropOp57
 70
     1
102
RTVSPropertyOp0
 70
     1
102
RTVSPropertyOp1
 70
     1
102
RTVSPropertyOp2
 70
     1
102
RTVSPropertyOp3
 70
     1
102
RTVSPropertyOp4
 70
     1
102
RTVSPropertyOp5
 70
     1
102
RTVSPropertyOp6
 70
     1
102
RTVSPropertyOp7
 70
     1
102
RTVSPropertyOp8
 70
     1
102
RTVSPropertyOp9
 70
     1
102
RTVSPropertyOp10
 70
     1
102
RTVSPropertyOp11
 70
     1
102
RTVSPropertyOp12
 70
     1
102
RTVSPropertyOp13
 70
     1
102
RTVSPropertyOp14
 70
     1
102
RTVSPropertyOp15
 70
     1
102
RTVSPropertyOp16
 70
     1
102
RTVSPropertyOp17
 70
     1
102
RTVSPropertyOp18
 70
     1
102
RTVSPropertyOp19
 70
     1
102
RTVSPropertyOp20
 70
     1
102
RTVSPropertyOp21
 70
     1
102
RTVSPropertyOp22
 70
     1
102
RTVSPropertyOp23
 70
     1
102
RTVSPropertyOp24
 70
     1
102
RTVSPropertyOp25
 70
     1
102
RTVSPropertyOp26
 70
     1
102
RTVSPropertyOp27
 70
     1
102
RTVSPropertyOp28
 70
     1
102
RTVSPropertyOp29
 70
     1
102
RTVSPropertyOp30
 70
     1
102
RTVSPropertyOp31
 70
     1
102
RTVSPropertyOp32
 70
     1
102
RTVSPropertyOp33
 70
     1
102
RTVSPropertyOp34
 70
     1
102
RTVSPropertyOp35
 70
     1
102
RTVSPropertyOp36
 70
     1
102
RTVSPropertyOp37
 70
     1
102
RTVSPropertyOp38
 70
     1
102
RTVSPropertyOp39
 70
     1
102
RTVSPropertyOp40
 70
     1
102
RTVSPropertyOp41
 70
     1
102
RTVSPropertyOp42
 70
     1
102
RTVSPropertyOp43
 70
     1
102
RTVSPropertyOp44
 70
     1
102
RTVSPropertyOp45
 70
     1
102
RTVSPropertyOp46
 70
     1
102
RTVSPropertyOp47
 70
     1
102
RTVSPropertyOp48
 70
     1
102
RTVSPropertyOp49
 70
     1
102
RTVSPropertyOp50
 70
     1
102
RTVSPropertyOp51
 70
     0
102
RTVSPropertyOp52
 70
     0
102
RTVSPropertyOp53
 70
     1
102
RTVSPropertyOp54
 70
     1
102
RTVSPropertyOp55
 70
     1
102
RTVSPropertyOp56
 70
     1
102
RTVSPropertyOp57
 70
     1
102
RTVSPropertyOp58
 70
     1
102
RTVSPropertyOp59
 70
     1
102
RTVSPropertyOp60
 70
     1
102
RTVSPropertyOp61
 70
     1
102
RTVSPropertyOp62
 70
     1
  0
XRECORD
  5
3207
102
{ACAD_REACTORS
330
3206
102
}
330
3206
100
AcDbXrecord
280
     1
102
RTVSPost2010Prop28
280
     0
102
RTVSPost2010PropOp28
 70
     1
102
RTVSPost2010Prop29
280
     1
102
RTVSPost2010PropOp29
 70
     1
102
RTVSPost2010Prop30
280
     1
102
RTVSPost2010PropOp30
 70
     1
102
RTVSPost2010Prop31
280
     0
102
RTVSPost2010PropOp31
 70
     1
102
RTVSPost2010Prop32
280
     0
102
RTVSPost2010PropOp32
 70
     1
102
RTVSPost2010Prop33
280
     0
102
RTVSPost2010PropOp33
 70
     1
102
RTVSPost2010Prop34
280
     0
102
RTVSPost2010PropOp34
 70
     1
102
RTVSPost2010Prop35
280
     0
102
RTVSPost2010PropOp35
 70
     1
102
RTVSPost2010Prop36
280
     0
102
RTVSPost2010PropOp36
 70
     1
102
RTVSPost2010Prop37
 90
       50
102
RTVSPost2010PropOp37
 70
     1
102
RTVSPost2010Prop38
140
0.0
102
RTVSPost2010PropOp38
 70
     1
102
RTVSPost2010Prop39
140
1.0
102
RTVSPost2010PropOp39
 70
     1
102
RTVSPost2010Prop40
 90
        0
102
RTVSPost2010PropOp40
 70
     1
102
RTVSPost2010Prop41ColorIndex
 90
       18
102
RTVSPost2010Prop41ColorRGB
 90
        0
102
RTVSPost2010PropOp41
 70
     1
102
RTVSPost2010Prop42
 90
       50
102
RTVSPost2010PropOp42
 70
     1
102
RTVSPost2010Prop43
 90
        3
102
RTVSPost2010PropOp43
 70
     1
102
RTVSPost2010Prop44ColorIndex
 90
        5
102
RTVSPost2010Prop44ColorRGB
 90
      255
102
RTVSPost2010PropOp44
 70
     1
102
RTVSPost2010Prop45
280
     0
102
RTVSPost2010PropOp45
 70
     1
102
RTVSPost2010Prop46
 90
       50
102
RTVSPost2010PropOp46
 70
     1
102
RTVSPost2010Prop47
 90
       50
102
RTVSPost2010PropOp47
 70
     1
102
RTVSPost2010Prop48
 90
       50
102
RTVSPost2010PropOp48
 70
     1
102
RTVSPost2010Prop49
280
     0
102
RTVSPost2010PropOp49
 70
     1
102
RTVSPost2010Prop50
 90
       50
102
RTVSPost2010PropOp50
 70
     1
102
RTVSPost2010Prop51ColorIndex
 90
      256
102
RTVSPost2010Prop51ColorRGB
 90
-16777216
102
RTVSPost2010PropOp51
 70
     0
102
RTVSPost2010Prop52
140
1.0
102
RTVSPost2010PropOp52
 70
     0
102
RTVSPost2010Prop53
 90
        2
102
RTVSPost2010PropOp53
 70
     1
102
RTVSPost2010Prop54
  1
strokes_ogs.tif
102
RTVSPost2010PropOp54
 70
     1
102
RTVSPost2010Prop55
280
     0
102
RTVSPost2010PropOp55
 70
     1
102
RTVSPost2010Prop56
140
1.0
102
RTVSPost2010PropOp56
 70
     1
102
RTVSPost2010Prop57
140
1.0
102
RTVSPost2010PropOp57
 70
     1
102
RTVSPropertyOp0
 70
     0
102
RTVSPropertyOp1
 70
     0
102
RTVSPropertyOp2
 70
     0
102
RTVSPropertyOp3
 70
     0
102
RTVSPropertyOp4
 70
     0
102
RTVSPropertyOp5
 70
     0
102
RTVSPropertyOp6
 70
     0
102
RTVSPropertyOp7
 70
     0
102
RTVSPropertyOp8
 70
     0
102
RTVSPropertyOp9
 70
     0
102
RTVSPropertyOp10
 70
     0
102
RTVSPropertyOp11
 70
     0
102
RTVSPropertyOp12
 70
     0
102
RTVSPropertyOp13
 70
     0
102
RTVSPropertyOp14
 70
     2
102
RTVSPropertyOp15
 70
     0
102
RTVSPropertyOp16
 70
     0
102
RTVSPropertyOp17
 70
     0
102
RTVSPropertyOp18
 70
     0
102
RTVSPropertyOp19
 70
     0
102
RTVSPropertyOp20
 70
     0
102
RTVSPropertyOp21
 70
     0
102
RTVSPropertyOp22
 70
     0
102
RTVSPropertyOp23
 70
     0
102
RTVSPropertyOp24
 70
     0
102
RTVSPropertyOp25
 70
     0
102
RTVSPropertyOp26
 70
     0
102
RTVSPropertyOp27
 70
     0
102
RTVSPropertyOp28
 70
     1
102
RTVSPropertyOp29
 70
     1
102
RTVSPropertyOp30
 70
     1
102
RTVSPropertyOp31
 70
     1
102
RTVSPropertyOp32
 70
     1
102
RTVSPropertyOp33
 70
     1
102
RTVSPropertyOp34
 70
     1
102
RTVSPropertyOp35
 70
     1
102
RTVSPropertyOp36
 70
     1
102
RTVSPropertyOp37
 70
     1
102
RTVSPropertyOp38
 70
     1
102
RTVSPropertyOp39
 70
     1
102
RTVSPropertyOp40
 70
     1
102
RTVSPropertyOp41
 70
     1
102
RTVSPropertyOp42
 70
     1
102
RTVSPropertyOp43
 70
     1
102
RTVSPropertyOp44
 70
     1
102
RTVSPropertyOp45
 70
     1
102
RTVSPropertyOp46
 70
     1
102
RTVSPropertyOp47
 70
     1
102
RTVSPropertyOp48
 70
     1
102
RTVSPropertyOp49
 70
     1
102
RTVSPropertyOp50
 70
     1
102
RTVSPropertyOp51
 70
     0
102
RTVSPropertyOp52
 70
     0
102
RTVSPropertyOp53
 70
     1
102
RTVSPropertyOp54
 70
     1
102
RTVSPropertyOp55
 70
     1
102
RTVSPropertyOp56
 70
     1
102
RTVSPropertyOp57
 70
     1
102
RTVSPropertyOp58
 70
     1
102
RTVSPropertyOp59
 70
     1
102
RTVSPropertyOp60
 70
     1
102
RTVSPropertyOp61
 70
     1
102
RTVSPropertyOp62
 70
     1
  0
XRECORD
  5
31FD
102
{ACAD_REACTORS
330
31FC
102
}
330
31FC
100
AcDbXrecord
280
     1
102
RTVSPost2010Prop28
280
     0
102
RTVSPost2010PropOp28
 70
     1
102
RTVSPost2010Prop29
280
     1
102
RTVSPost2010PropOp29
 70
     1
102
RTVSPost2010Prop30
280
     1
102
RTVSPost2010PropOp30
 70
     1
102
RTVSPost2010Prop31
280
     0
102
RTVSPost2010PropOp31
 70
     1
102
RTVSPost2010Prop32
280
     0
102
RTVSPost2010PropOp32
 70
     1
102
RTVSPost2010Prop33
280
     0
102
RTVSPost2010PropOp33
 70
     1
102
RTVSPost2010Prop34
280
     0
102
RTVSPost2010PropOp34
 70
     1
102
RTVSPost2010Prop35
280
     0
102
RTVSPost2010PropOp35
 70
     1
102
RTVSPost2010Prop36
280
     0
102
RTVSPost2010PropOp36
 70
     1
102
RTVSPost2010Prop37
 90
       50
102
RTVSPost2010PropOp37
 70
     1
102
RTVSPost2010Prop38
140
0.0
102
RTVSPost2010PropOp38
 70
     1
102
RTVSPost2010Prop39
140
1.0
102
RTVSPost2010PropOp39
 70
     1
102
RTVSPost2010Prop40
 90
        0
102
RTVSPost2010PropOp40
 70
     1
102
RTVSPost2010Prop41ColorIndex
 90
       18
102
RTVSPost2010Prop41ColorRGB
 90
        0
102
RTVSPost2010PropOp41
 70
     1
102
RTVSPost2010Prop42
 90
       50
102
RTVSPost2010PropOp42
 70
     1
102
RTVSPost2010Prop43
 90
        3
102
RTVSPost2010PropOp43
 70
     1
102
RTVSPost2010Prop44ColorIndex
 90
        5
102
RTVSPost2010Prop44ColorRGB
 90
      255
102
RTVSPost2010PropOp44
 70
     1
102
RTVSPost2010Prop45
280
     0
102
RTVSPost2010PropOp45
 70
     1
102
RTVSPost2010Prop46
 90
       50
102
RTVSPost2010PropOp46
 70
     1
102
RTVSPost2010Prop47
 90
       50
102
RTVSPost2010PropOp47
 70
     1
102
RTVSPost2010Prop48
 90
       50
102
RTVSPost2010PropOp48
 70
     1
102
RTVSPost2010Prop49
280
     0
102
RTVSPost2010PropOp49
 70
     1
102
RTVSPost2010Prop50
 90
       50
102
RTVSPost2010PropOp50
 70
     1
102
RTVSPost2010Prop51ColorIndex
 90
      256
102
RTVSPost2010Prop51ColorRGB
 90
-16777216
102
RTVSPost2010PropOp51
 70
     0
102
RTVSPost2010Prop52
140
1.0
102
RTVSPost2010PropOp52
 70
     0
102
RTVSPost2010Prop53
 90
        2
102
RTVSPost2010PropOp53
 70
     1
102
RTVSPost2010Prop54
  1
strokes_ogs.tif
102
RTVSPost2010PropOp54
 70
     1
102
RTVSPost2010Prop55
280
     0
102
RTVSPost2010PropOp55
 70
     1
102
RTVSPost2010Prop56
140
1.0
102
RTVSPost2010PropOp56
 70
     1
102
RTVSPost2010Prop57
140
1.0
102
RTVSPost2010PropOp57
 70
     1
102
RTVSPropertyOp0
 70
     1
102
RTVSPropertyOp1
 70
     1
102
RTVSPropertyOp2
 70
     1
102
RTVSPropertyOp3
 70
     1
102
RTVSPropertyOp4
 70
     1
102
RTVSPropertyOp5
 70
     1
102
RTVSPropertyOp6
 70
     1
102
RTVSPropertyOp7
 70
     1
102
RTVSPropertyOp8
 70
     1
102
RTVSPropertyOp9
 70
     1
102
RTVSPropertyOp10
 70
     1
102
RTVSPropertyOp11
 70
     1
102
RTVSPropertyOp12
 70
     1
102
RTVSPropertyOp13
 70
     1
102
RTVSPropertyOp14
 70
     1
102
RTVSPropertyOp15
 70
     1
102
RTVSPropertyOp16
 70
     1
102
RTVSPropertyOp17
 70
     1
102
RTVSPropertyOp18
 70
     1
102
RTVSPropertyOp19
 70
     1
102
RTVSPropertyOp20
 70
     1
102
RTVSPropertyOp21
 70
     1
102
RTVSPropertyOp22
 70
     1
102
RTVSPropertyOp23
 70
     1
102
RTVSPropertyOp24
 70
     1
102
RTVSPropertyOp25
 70
     1
102
RTVSPropertyOp26
 70
     1
102
RTVSPropertyOp27
 70
     1
102
RTVSPropertyOp28
 70
     1
102
RTVSPropertyOp29
 70
     1
102
RTVSPropertyOp30
 70
     1
102
RTVSPropertyOp31
 70
     1
102
RTVSPropertyOp32
 70
     1
102
RTVSPropertyOp33
 70
     1
102
RTVSPropertyOp34
 70
     1
102
RTVSPropertyOp35
 70
     1
102
RTVSPropertyOp36
 70
     1
102
RTVSPropertyOp37
 70
     1
102
RTVSPropertyOp38
 70
     1
102
RTVSPropertyOp39
 70
     1
102
RTVSPropertyOp40
 70
     1
102
RTVSPropertyOp41
 70
     1
102
RTVSPropertyOp42
 70
     1
102
RTVSPropertyOp43
 70
     1
102
RTVSPropertyOp44
 70
     1
102
RTVSPropertyOp45
 70
     1
102
RTVSPropertyOp46
 70
     1
102
RTVSPropertyOp47
 70
     1
102
RTVSPropertyOp48
 70
     1
102
RTVSPropertyOp49
 70
     1
102
RTVSPropertyOp50
 70
     1
102
RTVSPropertyOp51
 70
     0
102
RTVSPropertyOp52
 70
     0
102
RTVSPropertyOp53
 70
     1
102
RTVSPropertyOp54
 70
     1
102
RTVSPropertyOp55
 70
     1
102
RTVSPropertyOp56
 70
     1
102
RTVSPropertyOp57
 70
     1
102
RTVSPropertyOp58
 70
     1
102
RTVSPropertyOp59
 70
     1
102
RTVSPropertyOp60
 70
     1
102
RTVSPropertyOp61
 70
     1
102
RTVSPropertyOp62
 70
     1
  0
XRECORD
  5
31E1
102
{ACAD_REACTORS
330
31E0
102
}
330
31E0
100
AcDbXrecord
280
     1
102
RTVSPost2010Prop28
280
     0
102
RTVSPost2010PropOp28
 70
     1
102
RTVSPost2010Prop29
280
     1
102
RTVSPost2010PropOp29
 70
     1
102
RTVSPost2010Prop30
280
     1
102
RTVSPost2010PropOp30
 70
     1
102
RTVSPost2010Prop31
280
     0
102
RTVSPost2010PropOp31
 70
     1
102
RTVSPost2010Prop32
280
     0
102
RTVSPost2010PropOp32
 70
     1
102
RTVSPost2010Prop33
280
     0
102
RTVSPost2010PropOp33
 70
     1
102
RTVSPost2010Prop34
280
     0
102
RTVSPost2010PropOp34
 70
     1
102
RTVSPost2010Prop35
280
     0
102
RTVSPost2010PropOp35
 70
     1
102
RTVSPost2010Prop36
280
     0
102
RTVSPost2010PropOp36
 70
     1
102
RTVSPost2010Prop37
 90
       50
102
RTVSPost2010PropOp37
 70
     1
102
RTVSPost2010Prop38
140
0.0
102
RTVSPost2010PropOp38
 70
     1
102
RTVSPost2010Prop39
140
1.0
102
RTVSPost2010PropOp39
 70
     1
102
RTVSPost2010Prop40
 90
        0
102
RTVSPost2010PropOp40
 70
     1
102
RTVSPost2010Prop41ColorIndex
 90
       18
102
RTVSPost2010Prop41ColorRGB
 90
        0
102
RTVSPost2010PropOp41
 70
     1
102
RTVSPost2010Prop42
 90
       50
102
RTVSPost2010PropOp42
 70
     1
102
RTVSPost2010Prop43
 90
        3
102
RTVSPost2010PropOp43
 70
     1
102
RTVSPost2010Prop44ColorIndex
 90
        5
102
RTVSPost2010Prop44ColorRGB
 90
      255
102
RTVSPost2010PropOp44
 70
     1
102
RTVSPost2010Prop45
280
     0
102
RTVSPost2010PropOp45
 70
     1
102
RTVSPost2010Prop46
 90
       50
102
RTVSPost2010PropOp46
 70
     1
102
RTVSPost2010Prop47
 90
       50
102
RTVSPost2010PropOp47
 70
     1
102
RTVSPost2010Prop48
 90
       50
102
RTVSPost2010PropOp48
 70
     1
102
RTVSPost2010Prop49
280
     0
102
RTVSPost2010PropOp49
 70
     1
102
RTVSPost2010Prop50
 90
       50
102
RTVSPost2010PropOp50
 70
     1
102
RTVSPost2010Prop51ColorIndex
 90
      256
102
RTVSPost2010Prop51ColorRGB
 90
-16777216
102
RTVSPost2010PropOp51
 70
     0
102
RTVSPost2010Prop52
140
1.0
102
RTVSPost2010PropOp52
 70
     0
102
RTVSPost2010Prop53
 90
        2
102
RTVSPost2010PropOp53
 70
     1
102
RTVSPost2010Prop54
  1
strokes_ogs.tif
102
RTVSPost2010PropOp54
 70
     1
102
RTVSPost2010Prop55
280
     0
102
RTVSPost2010PropOp55
 70
     1
102
RTVSPost2010Prop56
140
1.0
102
RTVSPost2010PropOp56
 70
     1
102
RTVSPost2010Prop57
140
1.0
102
RTVSPost2010PropOp57
 70
     1
102
RTVSPropertyOp0
 70
     1
102
RTVSPropertyOp1
 70
     1
102
RTVSPropertyOp2
 70
     1
102
RTVSPropertyOp3
 70
     1
102
RTVSPropertyOp4
 70
     1
102
RTVSPropertyOp5
 70
     1
102
RTVSPropertyOp6
 70
     1
102
RTVSPropertyOp7
 70
     1
102
RTVSPropertyOp8
 70
     1
102
RTVSPropertyOp9
 70
     1
102
RTVSPropertyOp10
 70
     1
102
RTVSPropertyOp11
 70
     1
102
RTVSPropertyOp12
 70
     1
102
RTVSPropertyOp13
 70
     1
102
RTVSPropertyOp14
 70
     1
102
RTVSPropertyOp15
 70
     1
102
RTVSPropertyOp16
 70
     1
102
RTVSPropertyOp17
 70
     1
102
RTVSPropertyOp18
 70
     1
102
RTVSPropertyOp19
 70
     1
102
RTVSPropertyOp20
 70
     1
102
RTVSPropertyOp21
 70
     1
102
RTVSPropertyOp22
 70
     1
102
RTVSPropertyOp23
 70
     1
102
RTVSPropertyOp24
 70
     1
102
RTVSPropertyOp25
 70
     1
102
RTVSPropertyOp26
 70
     1
102
RTVSPropertyOp27
 70
     1
102
RTVSPropertyOp28
 70
     1
102
RTVSPropertyOp29
 70
     1
102
RTVSPropertyOp30
 70
     1
102
RTVSPropertyOp31
 70
     1
102
RTVSPropertyOp32
 70
     1
102
RTVSPropertyOp33
 70
     1
102
RTVSPropertyOp34
 70
     1
102
RTVSPropertyOp35
 70
     1
102
RTVSPropertyOp36
 70
     1
102
RTVSPropertyOp37
 70
     1
102
RTVSPropertyOp38
 70
     1
102
RTVSPropertyOp39
 70
     1
102
RTVSPropertyOp40
 70
     1
102
RTVSPropertyOp41
 70
     1
102
RTVSPropertyOp42
 70
     1
102
RTVSPropertyOp43
 70
     1
102
RTVSPropertyOp44
 70
     1
102
RTVSPropertyOp45
 70
     1
102
RTVSPropertyOp46
 70
     1
102
RTVSPropertyOp47
 70
     1
102
RTVSPropertyOp48
 70
     1
102
RTVSPropertyOp49
 70
     1
102
RTVSPropertyOp50
 70
     1
102
RTVSPropertyOp51
 70
     0
102
RTVSPropertyOp52
 70
     0
102
RTVSPropertyOp53
 70
     1
102
RTVSPropertyOp54
 70
     1
102
RTVSPropertyOp55
 70
     1
102
RTVSPropertyOp56
 70
     1
102
RTVSPropertyOp57
 70
     1
102
RTVSPropertyOp58
 70
     1
102
RTVSPropertyOp59
 70
     1
102
RTVSPropertyOp60
 70
     1
102
RTVSPropertyOp61
 70
     1
102
RTVSPropertyOp62
 70
     1
  0
XRECORD
  5
31E3
102
{ACAD_REACTORS
330
31E2
102
}
330
31E2
100
AcDbXrecord
280
     1
102
RTVSPost2010Prop28
280
     0
102
RTVSPost2010PropOp28
 70
     1
102
RTVSPost2010Prop29
280
     1
102
RTVSPost2010PropOp29
 70
     1
102
RTVSPost2010Prop30
280
     1
102
RTVSPost2010PropOp30
 70
     1
102
RTVSPost2010Prop31
280
     0
102
RTVSPost2010PropOp31
 70
     1
102
RTVSPost2010Prop32
280
     0
102
RTVSPost2010PropOp32
 70
     1
102
RTVSPost2010Prop33
280
     0
102
RTVSPost2010PropOp33
 70
     1
102
RTVSPost2010Prop34
280
     0
102
RTVSPost2010PropOp34
 70
     1
102
RTVSPost2010Prop35
280
     0
102
RTVSPost2010PropOp35
 70
     1
102
RTVSPost2010Prop36
280
     0
102
RTVSPost2010PropOp36
 70
     1
102
RTVSPost2010Prop37
 90
       50
102
RTVSPost2010PropOp37
 70
     1
102
RTVSPost2010Prop38
140
0.0
102
RTVSPost2010PropOp38
 70
     1
102
RTVSPost2010Prop39
140
1.0
102
RTVSPost2010PropOp39
 70
     1
102
RTVSPost2010Prop40
 90
        0
102
RTVSPost2010PropOp40
 70
     1
102
RTVSPost2010Prop41ColorIndex
 90
       18
102
RTVSPost2010Prop41ColorRGB
 90
        0
102
RTVSPost2010PropOp41
 70
     1
102
RTVSPost2010Prop42
 90
       50
102
RTVSPost2010PropOp42
 70
     1
102
RTVSPost2010Prop43
 90
        3
102
RTVSPost2010PropOp43
 70
     1
102
RTVSPost2010Prop44ColorIndex
 90
        5
102
RTVSPost2010Prop44ColorRGB
 90
      255
102
RTVSPost2010PropOp44
 70
     1
102
RTVSPost2010Prop45
280
     0
102
RTVSPost2010PropOp45
 70
     1
102
RTVSPost2010Prop46
 90
       50
102
RTVSPost2010PropOp46
 70
     1
102
RTVSPost2010Prop47
 90
       50
102
RTVSPost2010PropOp47
 70
     1
102
RTVSPost2010Prop48
 90
       50
102
RTVSPost2010PropOp48
 70
     1
102
RTVSPost2010Prop49
280
     0
102
RTVSPost2010PropOp49
 70
     1
102
RTVSPost2010Prop50
 90
       50
102
RTVSPost2010PropOp50
 70
     1
102
RTVSPost2010Prop51ColorIndex
 90
      256
102
RTVSPost2010Prop51ColorRGB
 90
-16777216
102
RTVSPost2010PropOp51
 70
     0
102
RTVSPost2010Prop52
140
1.0
102
RTVSPost2010PropOp52
 70
     0
102
RTVSPost2010Prop53
 90
        2
102
RTVSPost2010PropOp53
 70
     1
102
RTVSPost2010Prop54
  1
strokes_ogs.tif
102
RTVSPost2010PropOp54
 70
     1
102
RTVSPost2010Prop55
280
     0
102
RTVSPost2010PropOp55
 70
     1
102
RTVSPost2010Prop56
140
1.0
102
RTVSPost2010PropOp56
 70
     1
102
RTVSPost2010Prop57
140
1.0
102
RTVSPost2010PropOp57
 70
     1
102
RTVSPropertyOp0
 70
     1
102
RTVSPropertyOp1
 70
     1
102
RTVSPropertyOp2
 70
     1
102
RTVSPropertyOp3
 70
     1
102
RTVSPropertyOp4
 70
     1
102
RTVSPropertyOp5
 70
     1
102
RTVSPropertyOp6
 70
     1
102
RTVSPropertyOp7
 70
     1
102
RTVSPropertyOp8
 70
     1
102
RTVSPropertyOp9
 70
     1
102
RTVSPropertyOp10
 70
     1
102
RTVSPropertyOp11
 70
     1
102
RTVSPropertyOp12
 70
     1
102
RTVSPropertyOp13
 70
     1
102
RTVSPropertyOp14
 70
     1
102
RTVSPropertyOp15
 70
     1
102
RTVSPropertyOp16
 70
     1
102
RTVSPropertyOp17
 70
     1
102
RTVSPropertyOp18
 70
     1
102
RTVSPropertyOp19
 70
     1
102
RTVSPropertyOp20
 70
     1
102
RTVSPropertyOp21
 70
     1
102
RTVSPropertyOp22
 70
     1
102
RTVSPropertyOp23
 70
     1
102
RTVSPropertyOp24
 70
     1
102
RTVSPropertyOp25
 70
     1
102
RTVSPropertyOp26
 70
     1
102
RTVSPropertyOp27
 70
     1
102
RTVSPropertyOp28
 70
     1
102
RTVSPropertyOp29
 70
     1
102
RTVSPropertyOp30
 70
     1
102
RTVSPropertyOp31
 70
     1
102
RTVSPropertyOp32
 70
     1
102
RTVSPropertyOp33
 70
     1
102
RTVSPropertyOp34
 70
     1
102
RTVSPropertyOp35
 70
     1
102
RTVSPropertyOp36
 70
     1
102
RTVSPropertyOp37
 70
     1
102
RTVSPropertyOp38
 70
     1
102
RTVSPropertyOp39
 70
     1
102
RTVSPropertyOp40
 70
     1
102
RTVSPropertyOp41
 70
     1
102
RTVSPropertyOp42
 70
     1
102
RTVSPropertyOp43
 70
     1
102
RTVSPropertyOp44
 70
     1
102
RTVSPropertyOp45
 70
     1
102
RTVSPropertyOp46
 70
     1
102
RTVSPropertyOp47
 70
     1
102
RTVSPropertyOp48
 70
     1
102
RTVSPropertyOp49
 70
     1
102
RTVSPropertyOp50
 70
     1
102
RTVSPropertyOp51
 70
     0
102
RTVSPropertyOp52
 70
     0
102
RTVSPropertyOp53
 70
     1
102
RTVSPropertyOp54
 70
     1
102
RTVSPropertyOp55
 70
     1
102
RTVSPropertyOp56
 70
     1
102
RTVSPropertyOp57
 70
     1
102
RTVSPropertyOp58
 70
     1
102
RTVSPropertyOp59
 70
     1
102
RTVSPropertyOp60
 70
     1
102
RTVSPropertyOp61
 70
     1
102
RTVSPropertyOp62
 70
     1
  0
XRECORD
  5
31E5
102
{ACAD_REACTORS
330
31E4
102
}
330
31E4
100
AcDbXrecord
280
     1
102
RTVSPost2010Prop28
280
     0
102
RTVSPost2010PropOp28
 70
     1
102
RTVSPost2010Prop29
280
     1
102
RTVSPost2010PropOp29
 70
     1
102
RTVSPost2010Prop30
280
     1
102
RTVSPost2010PropOp30
 70
     1
102
RTVSPost2010Prop31
280
     0
102
RTVSPost2010PropOp31
 70
     1
102
RTVSPost2010Prop32
280
     0
102
RTVSPost2010PropOp32
 70
     1
102
RTVSPost2010Prop33
280
     0
102
RTVSPost2010PropOp33
 70
     1
102
RTVSPost2010Prop34
280
     0
102
RTVSPost2010PropOp34
 70
     1
102
RTVSPost2010Prop35
280
     0
102
RTVSPost2010PropOp35
 70
     1
102
RTVSPost2010Prop36
280
     0
102
RTVSPost2010PropOp36
 70
     1
102
RTVSPost2010Prop37
 90
       50
102
RTVSPost2010PropOp37
 70
     1
102
RTVSPost2010Prop38
140
0.0
102
RTVSPost2010PropOp38
 70
     1
102
RTVSPost2010Prop39
140
1.0
102
RTVSPost2010PropOp39
 70
     1
102
RTVSPost2010Prop40
 90
        0
102
RTVSPost2010PropOp40
 70
     1
102
RTVSPost2010Prop41ColorIndex
 90
       18
102
RTVSPost2010Prop41ColorRGB
 90
        0
102
RTVSPost2010PropOp41
 70
     1
102
RTVSPost2010Prop42
 90
       50
102
RTVSPost2010PropOp42
 70
     1
102
RTVSPost2010Prop43
 90
        3
102
RTVSPost2010PropOp43
 70
     1
102
RTVSPost2010Prop44ColorIndex
 90
        5
102
RTVSPost2010Prop44ColorRGB
 90
      255
102
RTVSPost2010PropOp44
 70
     1
102
RTVSPost2010Prop45
280
     0
102
RTVSPost2010PropOp45
 70
     1
102
RTVSPost2010Prop46
 90
       50
102
RTVSPost2010PropOp46
 70
     1
102
RTVSPost2010Prop47
 90
       50
102
RTVSPost2010PropOp47
 70
     1
102
RTVSPost2010Prop48
 90
       50
102
RTVSPost2010PropOp48
 70
     1
102
RTVSPost2010Prop49
280
     0
102
RTVSPost2010PropOp49
 70
     1
102
RTVSPost2010Prop50
 90
       50
102
RTVSPost2010PropOp50
 70
     1
102
RTVSPost2010Prop51ColorIndex
 90
      256
102
RTVSPost2010Prop51ColorRGB
 90
-16777216
102
RTVSPost2010PropOp51
 70
     0
102
RTVSPost2010Prop52
140
1.0
102
RTVSPost2010PropOp52
 70
     0
102
RTVSPost2010Prop53
 90
        2
102
RTVSPost2010PropOp53
 70
     1
102
RTVSPost2010Prop54
  1
strokes_ogs.tif
102
RTVSPost2010PropOp54
 70
     1
102
RTVSPost2010Prop55
280
     0
102
RTVSPost2010PropOp55
 70
     1
102
RTVSPost2010Prop56
140
1.0
102
RTVSPost2010PropOp56
 70
     1
102
RTVSPost2010Prop57
140
1.0
102
RTVSPost2010PropOp57
 70
     1
102
RTVSPropertyOp0
 70
     1
102
RTVSPropertyOp1
 70
     1
102
RTVSPropertyOp2
 70
     1
102
RTVSPropertyOp3
 70
     1
102
RTVSPropertyOp4
 70
     1
102
RTVSPropertyOp5
 70
     1
102
RTVSPropertyOp6
 70
     1
102
RTVSPropertyOp7
 70
     1
102
RTVSPropertyOp8
 70
     1
102
RTVSPropertyOp9
 70
     1
102
RTVSPropertyOp10
 70
     1
102
RTVSPropertyOp11
 70
     1
102
RTVSPropertyOp12
 70
     1
102
RTVSPropertyOp13
 70
     1
102
RTVSPropertyOp14
 70
     1
102
RTVSPropertyOp15
 70
     1
102
RTVSPropertyOp16
 70
     1
102
RTVSPropertyOp17
 70
     1
102
RTVSPropertyOp18
 70
     1
102
RTVSPropertyOp19
 70
     1
102
RTVSPropertyOp20
 70
     1
102
RTVSPropertyOp21
 70
     1
102
RTVSPropertyOp22
 70
     1
102
RTVSPropertyOp23
 70
     1
102
RTVSPropertyOp24
 70
     1
102
RTVSPropertyOp25
 70
     1
102
RTVSPropertyOp26
 70
     1
102
RTVSPropertyOp27
 70
     1
102
RTVSPropertyOp28
 70
     1
102
RTVSPropertyOp29
 70
     1
102
RTVSPropertyOp30
 70
     1
102
RTVSPropertyOp31
 70
     1
102
RTVSPropertyOp32
 70
     1
102
RTVSPropertyOp33
 70
     1
102
RTVSPropertyOp34
 70
     1
102
RTVSPropertyOp35
 70
     1
102
RTVSPropertyOp36
 70
     1
102
RTVSPropertyOp37
 70
     1
102
RTVSPropertyOp38
 70
     1
102
RTVSPropertyOp39
 70
     1
102
RTVSPropertyOp40
 70
     1
102
RTVSPropertyOp41
 70
     1
102
RTVSPropertyOp42
 70
     1
102
RTVSPropertyOp43
 70
     1
102
RTVSPropertyOp44
 70
     1
102
RTVSPropertyOp45
 70
     1
102
RTVSPropertyOp46
 70
     1
102
RTVSPropertyOp47
 70
     1
102
RTVSPropertyOp48
 70
     1
102
RTVSPropertyOp49
 70
     1
102
RTVSPropertyOp50
 70
     1
102
RTVSPropertyOp51
 70
     0
102
RTVSPropertyOp52
 70
     0
102
RTVSPropertyOp53
 70
     1
102
RTVSPropertyOp54
 70
     1
102
RTVSPropertyOp55
 70
     1
102
RTVSPropertyOp56
 70
     1
102
RTVSPropertyOp57
 70
     1
102
RTVSPropertyOp58
 70
     1
102
RTVSPropertyOp59
 70
     1
102
RTVSPropertyOp60
 70
     1
102
RTVSPropertyOp61
 70
     1
102
RTVSPropertyOp62
 70
     1
  0
XRECORD
  5
31E7
102
{ACAD_REACTORS
330
31E6
102
}
330
31E6
100
AcDbXrecord
280
     1
102
RTVSPost2010Prop28
280
     0
102
RTVSPost2010PropOp28
 70
     1
102
RTVSPost2010Prop29
280
     1
102
RTVSPost2010PropOp29
 70
     1
102
RTVSPost2010Prop30
280
     1
102
RTVSPost2010PropOp30
 70
     1
102
RTVSPost2010Prop31
280
     0
102
RTVSPost2010PropOp31
 70
     1
102
RTVSPost2010Prop32
280
     0
102
RTVSPost2010PropOp32
 70
     1
102
RTVSPost2010Prop33
280
     0
102
RTVSPost2010PropOp33
 70
     1
102
RTVSPost2010Prop34
280
     0
102
RTVSPost2010PropOp34
 70
     1
102
RTVSPost2010Prop35
280
     0
102
RTVSPost2010PropOp35
 70
     1
102
RTVSPost2010Prop36
280
     0
102
RTVSPost2010PropOp36
 70
     1
102
RTVSPost2010Prop37
 90
       50
102
RTVSPost2010PropOp37
 70
     1
102
RTVSPost2010Prop38
140
0.0
102
RTVSPost2010PropOp38
 70
     1
102
RTVSPost2010Prop39
140
1.0
102
RTVSPost2010PropOp39
 70
     1
102
RTVSPost2010Prop40
 90
        0
102
RTVSPost2010PropOp40
 70
     1
102
RTVSPost2010Prop41ColorIndex
 90
       18
102
RTVSPost2010Prop41ColorRGB
 90
        0
102
RTVSPost2010PropOp41
 70
     1
102
RTVSPost2010Prop42
 90
       50
102
RTVSPost2010PropOp42
 70
     1
102
RTVSPost2010Prop43
 90
        3
102
RTVSPost2010PropOp43
 70
     1
102
RTVSPost2010Prop44ColorIndex
 90
        5
102
RTVSPost2010Prop44ColorRGB
 90
      255
102
RTVSPost2010PropOp44
 70
     1
102
RTVSPost2010Prop45
280
     0
102
RTVSPost2010PropOp45
 70
     1
102
RTVSPost2010Prop46
 90
       50
102
RTVSPost2010PropOp46
 70
     1
102
RTVSPost2010Prop47
 90
       50
102
RTVSPost2010PropOp47
 70
     1
102
RTVSPost2010Prop48
 90
       50
102
RTVSPost2010PropOp48
 70
     1
102
RTVSPost2010Prop49
280
     0
102
RTVSPost2010PropOp49
 70
     1
102
RTVSPost2010Prop50
 90
       50
102
RTVSPost2010PropOp50
 70
     1
102
RTVSPost2010Prop51ColorIndex
 90
      256
102
RTVSPost2010Prop51ColorRGB
 90
-16777216
102
RTVSPost2010PropOp51
 70
     0
102
RTVSPost2010Prop52
140
1.0
102
RTVSPost2010PropOp52
 70
     0
102
RTVSPost2010Prop53
 90
        2
102
RTVSPost2010PropOp53
 70
     1
102
RTVSPost2010Prop54
  1
strokes_ogs.tif
102
RTVSPost2010PropOp54
 70
     1
102
RTVSPost2010Prop55
280
     0
102
RTVSPost2010PropOp55
 70
     1
102
RTVSPost2010Prop56
140
1.0
102
RTVSPost2010PropOp56
 70
     1
102
RTVSPost2010Prop57
140
1.0
102
RTVSPost2010PropOp57
 70
     1
102
RTVSPropertyOp0
 70
     1
102
RTVSPropertyOp1
 70
     1
102
RTVSPropertyOp2
 70
     1
102
RTVSPropertyOp3
 70
     1
102
RTVSPropertyOp4
 70
     1
102
RTVSPropertyOp5
 70
     1
102
RTVSPropertyOp6
 70
     1
102
RTVSPropertyOp7
 70
     1
102
RTVSPropertyOp8
 70
     1
102
RTVSPropertyOp9
 70
     1
102
RTVSPropertyOp10
 70
     1
102
RTVSPropertyOp11
 70
     1
102
RTVSPropertyOp12
 70
     1
102
RTVSPropertyOp13
 70
     1
102
RTVSPropertyOp14
 70
     1
102
RTVSPropertyOp15
 70
     1
102
RTVSPropertyOp16
 70
     1
102
RTVSPropertyOp17
 70
     1
102
RTVSPropertyOp18
 70
     1
102
RTVSPropertyOp19
 70
     1
102
RTVSPropertyOp20
 70
     1
102
RTVSPropertyOp21
 70
     1
102
RTVSPropertyOp22
 70
     1
102
RTVSPropertyOp23
 70
     1
102
RTVSPropertyOp24
 70
     1
102
RTVSPropertyOp25
 70
     1
102
RTVSPropertyOp26
 70
     1
102
RTVSPropertyOp27
 70
     1
102
RTVSPropertyOp28
 70
     1
102
RTVSPropertyOp29
 70
     1
102
RTVSPropertyOp30
 70
     1
102
RTVSPropertyOp31
 70
     1
102
RTVSPropertyOp32
 70
     1
102
RTVSPropertyOp33
 70
     1
102
RTVSPropertyOp34
 70
     1
102
RTVSPropertyOp35
 70
     1
102
RTVSPropertyOp36
 70
     1
102
RTVSPropertyOp37
 70
     1
102
RTVSPropertyOp38
 70
     1
102
RTVSPropertyOp39
 70
     1
102
RTVSPropertyOp40
 70
     1
102
RTVSPropertyOp41
 70
     1
102
RTVSPropertyOp42
 70
     1
102
RTVSPropertyOp43
 70
     1
102
RTVSPropertyOp44
 70
     1
102
RTVSPropertyOp45
 70
     1
102
RTVSPropertyOp46
 70
     1
102
RTVSPropertyOp47
 70
     1
102
RTVSPropertyOp48
 70
     1
102
RTVSPropertyOp49
 70
     1
102
RTVSPropertyOp50
 70
     1
102
RTVSPropertyOp51
 70
     0
102
RTVSPropertyOp52
 70
     0
102
RTVSPropertyOp53
 70
     1
102
RTVSPropertyOp54
 70
     1
102
RTVSPropertyOp55
 70
     1
102
RTVSPropertyOp56
 70
     1
102
RTVSPropertyOp57
 70
     1
102
RTVSPropertyOp58
 70
     1
102
RTVSPropertyOp59
 70
     1
102
RTVSPropertyOp60
 70
     1
102
RTVSPropertyOp61
 70
     1
102
RTVSPropertyOp62
 70
     1
  0
XRECORD
  5
31EF
102
{ACAD_REACTORS
330
31EE
102
}
330
31EE
100
AcDbXrecord
280
     1
102
RTVSPost2010Prop28
280
     0
102
RTVSPost2010PropOp28
 70
     1
102
RTVSPost2010Prop29
280
     1
102
RTVSPost2010PropOp29
 70
     1
102
RTVSPost2010Prop30
280
     1
102
RTVSPost2010PropOp30
 70
     1
102
RTVSPost2010Prop31
280
     0
102
RTVSPost2010PropOp31
 70
     1
102
RTVSPost2010Prop32
280
     0
102
RTVSPost2010PropOp32
 70
     1
102
RTVSPost2010Prop33
280
     0
102
RTVSPost2010PropOp33
 70
     1
102
RTVSPost2010Prop34
280
     0
102
RTVSPost2010PropOp34
 70
     1
102
RTVSPost2010Prop35
280
     0
102
RTVSPost2010PropOp35
 70
     1
102
RTVSPost2010Prop36
280
     0
102
RTVSPost2010PropOp36
 70
     1
102
RTVSPost2010Prop37
 90
       50
102
RTVSPost2010PropOp37
 70
     1
102
RTVSPost2010Prop38
140
0.0
102
RTVSPost2010PropOp38
 70
     1
102
RTVSPost2010Prop39
140
1.0
102
RTVSPost2010PropOp39
 70
     1
102
RTVSPost2010Prop40
 90
        0
102
RTVSPost2010PropOp40
 70
     1
102
RTVSPost2010Prop41ColorIndex
 90
       18
102
RTVSPost2010Prop41ColorRGB
 90
        0
102
RTVSPost2010PropOp41
 70
     1
102
RTVSPost2010Prop42
 90
       50
102
RTVSPost2010PropOp42
 70
     1
102
RTVSPost2010Prop43
 90
        3
102
RTVSPost2010PropOp43
 70
     1
102
RTVSPost2010Prop44ColorIndex
 90
        5
102
RTVSPost2010Prop44ColorRGB
 90
      255
102
RTVSPost2010PropOp44
 70
     1
102
RTVSPost2010Prop45
280
     0
102
RTVSPost2010PropOp45
 70
     1
102
RTVSPost2010Prop46
 90
       50
102
RTVSPost2010PropOp46
 70
     1
102
RTVSPost2010Prop47
 90
       50
102
RTVSPost2010PropOp47
 70
     1
102
RTVSPost2010Prop48
 90
       50
102
RTVSPost2010PropOp48
 70
     1
102
RTVSPost2010Prop49
280
     0
102
RTVSPost2010PropOp49
 70
     1
102
RTVSPost2010Prop50
 90
       50
102
RTVSPost2010PropOp50
 70
     1
102
RTVSPost2010Prop51ColorIndex
 90
      256
102
RTVSPost2010Prop51ColorRGB
 90
-16777216
102
RTVSPost2010PropOp51
 70
     0
102
RTVSPost2010Prop52
140
1.0
102
RTVSPost2010PropOp52
 70
     0
102
RTVSPost2010Prop53
 90
        2
102
RTVSPost2010PropOp53
 70
     1
102
RTVSPost2010Prop54
  1
strokes_ogs.tif
102
RTVSPost2010PropOp54
 70
     1
102
RTVSPost2010Prop55
280
     0
102
RTVSPost2010PropOp55
 70
     1
102
RTVSPost2010Prop56
140
1.0
102
RTVSPost2010PropOp56
 70
     1
102
RTVSPost2010Prop57
140
1.0
102
RTVSPost2010PropOp57
 70
     1
102
RTVSPropertyOp0
 70
     1
102
RTVSPropertyOp1
 70
     1
102
RTVSPropertyOp2
 70
     1
102
RTVSPropertyOp3
 70
     1
102
RTVSPropertyOp4
 70
     1
102
RTVSPropertyOp5
 70
     1
102
RTVSPropertyOp6
 70
     1
102
RTVSPropertyOp7
 70
     1
102
RTVSPropertyOp8
 70
     1
102
RTVSPropertyOp9
 70
     1
102
RTVSPropertyOp10
 70
     1
102
RTVSPropertyOp11
 70
     1
102
RTVSPropertyOp12
 70
     1
102
RTVSPropertyOp13
 70
     1
102
RTVSPropertyOp14
 70
     1
102
RTVSPropertyOp15
 70
     1
102
RTVSPropertyOp16
 70
     1
102
RTVSPropertyOp17
 70
     1
102
RTVSPropertyOp18
 70
     1
102
RTVSPropertyOp19
 70
     1
102
RTVSPropertyOp20
 70
     1
102
RTVSPropertyOp21
 70
     1
102
RTVSPropertyOp22
 70
     1
102
RTVSPropertyOp23
 70
     1
102
RTVSPropertyOp24
 70
     1
102
RTVSPropertyOp25
 70
     1
102
RTVSPropertyOp26
 70
     1
102
RTVSPropertyOp27
 70
     1
102
RTVSPropertyOp28
 70
     1
102
RTVSPropertyOp29
 70
     1
102
RTVSPropertyOp30
 70
     1
102
RTVSPropertyOp31
 70
     1
102
RTVSPropertyOp32
 70
     1
102
RTVSPropertyOp33
 70
     1
102
RTVSPropertyOp34
 70
     1
102
RTVSPropertyOp35
 70
     1
102
RTVSPropertyOp36
 70
     1
102
RTVSPropertyOp37
 70
     1
102
RTVSPropertyOp38
 70
     1
102
RTVSPropertyOp39
 70
     1
102
RTVSPropertyOp40
 70
     1
102
RTVSPropertyOp41
 70
     1
102
RTVSPropertyOp42
 70
     1
102
RTVSPropertyOp43
 70
     1
102
RTVSPropertyOp44
 70
     1
102
RTVSPropertyOp45
 70
     1
102
RTVSPropertyOp46
 70
     1
102
RTVSPropertyOp47
 70
     1
102
RTVSPropertyOp48
 70
     1
102
RTVSPropertyOp49
 70
     1
102
RTVSPropertyOp50
 70
     1
102
RTVSPropertyOp51
 70
     0
102
RTVSPropertyOp52
 70
     0
102
RTVSPropertyOp53
 70
     1
102
RTVSPropertyOp54
 70
     1
102
RTVSPropertyOp55
 70
     1
102
RTVSPropertyOp56
 70
     1
102
RTVSPropertyOp57
 70
     1
102
RTVSPropertyOp58
 70
     1
102
RTVSPropertyOp59
 70
     1
102
RTVSPropertyOp60
 70
     1
102
RTVSPropertyOp61
 70
     1
102
RTVSPropertyOp62
 70
     1
  0
XRECORD
  5
3203
102
{ACAD_REACTORS
330
3202
102
}
330
3202
100
AcDbXrecord
280
     1
102
RTVSPost2010Prop28
280
     0
102
RTVSPost2010PropOp28
 70
     1
102
RTVSPost2010Prop29
280
     1
102
RTVSPost2010PropOp29
 70
     1
102
RTVSPost2010Prop30
280
     1
102
RTVSPost2010PropOp30
 70
     1
102
RTVSPost2010Prop31
280
     0
102
RTVSPost2010PropOp31
 70
     1
102
RTVSPost2010Prop32
280
     0
102
RTVSPost2010PropOp32
 70
     1
102
RTVSPost2010Prop33
280
     0
102
RTVSPost2010PropOp33
 70
     1
102
RTVSPost2010Prop34
280
     0
102
RTVSPost2010PropOp34
 70
     1
102
RTVSPost2010Prop35
280
     0
102
RTVSPost2010PropOp35
 70
     1
102
RTVSPost2010Prop36
280
     0
102
RTVSPost2010PropOp36
 70
     1
102
RTVSPost2010Prop37
 90
       50
102
RTVSPost2010PropOp37
 70
     1
102
RTVSPost2010Prop38
140
0.0
102
RTVSPost2010PropOp38
 70
     1
102
RTVSPost2010Prop39
140
1.0
102
RTVSPost2010PropOp39
 70
     1
102
RTVSPost2010Prop40
 90
        0
102
RTVSPost2010PropOp40
 70
     1
102
RTVSPost2010Prop41ColorIndex
 90
       18
102
RTVSPost2010Prop41ColorRGB
 90
        0
102
RTVSPost2010PropOp41
 70
     1
102
RTVSPost2010Prop42
 90
       50
102
RTVSPost2010PropOp42
 70
     1
102
RTVSPost2010Prop43
 90
        3
102
RTVSPost2010PropOp43
 70
     1
102
RTVSPost2010Prop44ColorIndex
 90
        5
102
RTVSPost2010Prop44ColorRGB
 90
      255
102
RTVSPost2010PropOp44
 70
     1
102
RTVSPost2010Prop45
280
     0
102
RTVSPost2010PropOp45
 70
     1
102
RTVSPost2010Prop46
 90
       50
102
RTVSPost2010PropOp46
 70
     1
102
RTVSPost2010Prop47
 90
       50
102
RTVSPost2010PropOp47
 70
     1
102
RTVSPost2010Prop48
 90
       50
102
RTVSPost2010PropOp48
 70
     1
102
RTVSPost2010Prop49
280
     0
102
RTVSPost2010PropOp49
 70
     1
102
RTVSPost2010Prop50
 90
       50
102
RTVSPost2010PropOp50
 70
     1
102
RTVSPost2010Prop51ColorIndex
 90
      256
102
RTVSPost2010Prop51ColorRGB
 90
-16777216
102
RTVSPost2010PropOp51
 70
     0
102
RTVSPost2010Prop52
140
1.0
102
RTVSPost2010PropOp52
 70
     0
102
RTVSPost2010Prop53
 90
        2
102
RTVSPost2010PropOp53
 70
     1
102
RTVSPost2010Prop54
  1
strokes_ogs.tif
102
RTVSPost2010PropOp54
 70
     1
102
RTVSPost2010Prop55
280
     0
102
RTVSPost2010PropOp55
 70
     1
102
RTVSPost2010Prop56
140
1.0
102
RTVSPost2010PropOp56
 70
     1
102
RTVSPost2010Prop57
140
1.0
102
RTVSPost2010PropOp57
 70
     1
102
RTVSPropertyOp0
 70
     0
102
RTVSPropertyOp1
 70
     0
102
RTVSPropertyOp2
 70
     0
102
RTVSPropertyOp3
 70
     0
102
RTVSPropertyOp4
 70
     0
102
RTVSPropertyOp5
 70
     0
102
RTVSPropertyOp6
 70
     0
102
RTVSPropertyOp7
 70
     0
102
RTVSPropertyOp8
 70
     0
102
RTVSPropertyOp9
 70
     0
102
RTVSPropertyOp10
 70
     0
102
RTVSPropertyOp11
 70
     0
102
RTVSPropertyOp12
 70
     0
102
RTVSPropertyOp13
 70
     0
102
RTVSPropertyOp14
 70
     2
102
RTVSPropertyOp15
 70
     0
102
RTVSPropertyOp16
 70
     0
102
RTVSPropertyOp17
 70
     0
102
RTVSPropertyOp18
 70
     0
102
RTVSPropertyOp19
 70
     0
102
RTVSPropertyOp20
 70
     0
102
RTVSPropertyOp21
 70
     0
102
RTVSPropertyOp22
 70
     0
102
RTVSPropertyOp23
 70
     0
102
RTVSPropertyOp24
 70
     0
102
RTVSPropertyOp25
 70
     0
102
RTVSPropertyOp26
 70
     0
102
RTVSPropertyOp27
 70
     0
102
RTVSPropertyOp28
 70
     1
102
RTVSPropertyOp29
 70
     1
102
RTVSPropertyOp30
 70
     1
102
RTVSPropertyOp31
 70
     1
102
RTVSPropertyOp32
 70
     1
102
RTVSPropertyOp33
 70
     1
102
RTVSPropertyOp34
 70
     1
102
RTVSPropertyOp35
 70
     1
102
RTVSPropertyOp36
 70
     1
102
RTVSPropertyOp37
 70
     1
102
RTVSPropertyOp38
 70
     1
102
RTVSPropertyOp39
 70
     1
102
RTVSPropertyOp40
 70
     1
102
RTVSPropertyOp41
 70
     1
102
RTVSPropertyOp42
 70
     1
102
RTVSPropertyOp43
 70
     1
102
RTVSPropertyOp44
 70
     1
102
RTVSPropertyOp45
 70
     1
102
RTVSPropertyOp46
 70
     1
102
RTVSPropertyOp47
 70
     1
102
RTVSPropertyOp48
 70
     1
102
RTVSPropertyOp49
 70
     1
102
RTVSPropertyOp50
 70
     1
102
RTVSPropertyOp51
 70
     0
102
RTVSPropertyOp52
 70
     0
102
RTVSPropertyOp53
 70
     1
102
RTVSPropertyOp54
 70
     1
102
RTVSPropertyOp55
 70
     1
102
RTVSPropertyOp56
 70
     1
102
RTVSPropertyOp57
 70
     1
102
RTVSPropertyOp58
 70
     1
102
RTVSPropertyOp59
 70
     1
102
RTVSPropertyOp60
 70
     1
102
RTVSPropertyOp61
 70
     1
102
RTVSPropertyOp62
 70
     1
  0
XRECORD
  5
31FB
102
{ACAD_REACTORS
330
31FA
102
}
330
31FA
100
AcDbXrecord
280
     1
102
RTVSPost2010Prop28
280
     0
102
RTVSPost2010PropOp28
 70
     1
102
RTVSPost2010Prop29
280
     1
102
RTVSPost2010PropOp29
 70
     1
102
RTVSPost2010Prop30
280
     1
102
RTVSPost2010PropOp30
 70
     1
102
RTVSPost2010Prop31
280
     0
102
RTVSPost2010PropOp31
 70
     1
102
RTVSPost2010Prop32
280
     0
102
RTVSPost2010PropOp32
 70
     1
102
RTVSPost2010Prop33
280
     0
102
RTVSPost2010PropOp33
 70
     1
102
RTVSPost2010Prop34
280
     0
102
RTVSPost2010PropOp34
 70
     1
102
RTVSPost2010Prop35
280
     0
102
RTVSPost2010PropOp35
 70
     1
102
RTVSPost2010Prop36
280
     0
102
RTVSPost2010PropOp36
 70
     1
102
RTVSPost2010Prop37
 90
       50
102
RTVSPost2010PropOp37
 70
     1
102
RTVSPost2010Prop38
140
0.0
102
RTVSPost2010PropOp38
 70
     1
102
RTVSPost2010Prop39
140
1.0
102
RTVSPost2010PropOp39
 70
     1
102
RTVSPost2010Prop40
 90
        0
102
RTVSPost2010PropOp40
 70
     1
102
RTVSPost2010Prop41ColorIndex
 90
       18
102
RTVSPost2010Prop41ColorRGB
 90
        0
102
RTVSPost2010PropOp41
 70
     1
102
RTVSPost2010Prop42
 90
       50
102
RTVSPost2010PropOp42
 70
     1
102
RTVSPost2010Prop43
 90
        3
102
RTVSPost2010PropOp43
 70
     1
102
RTVSPost2010Prop44ColorIndex
 90
        5
102
RTVSPost2010Prop44ColorRGB
 90
      255
102
RTVSPost2010PropOp44
 70
     1
102
RTVSPost2010Prop45
280
     0
102
RTVSPost2010PropOp45
 70
     1
102
RTVSPost2010Prop46
 90
       50
102
RTVSPost2010PropOp46
 70
     1
102
RTVSPost2010Prop47
 90
       50
102
RTVSPost2010PropOp47
 70
     1
102
RTVSPost2010Prop48
 90
       50
102
RTVSPost2010PropOp48
 70
     1
102
RTVSPost2010Prop49
280
     0
102
RTVSPost2010PropOp49
 70
     1
102
RTVSPost2010Prop50
 90
       50
102
RTVSPost2010PropOp50
 70
     1
102
RTVSPost2010Prop51ColorIndex
 90
      256
102
RTVSPost2010Prop51ColorRGB
 90
-16777216
102
RTVSPost2010PropOp51
 70
     0
102
RTVSPost2010Prop52
140
1.0
102
RTVSPost2010PropOp52
 70
     0
102
RTVSPost2010Prop53
 90
        2
102
RTVSPost2010PropOp53
 70
     1
102
RTVSPost2010Prop54
  1
strokes_ogs.tif
102
RTVSPost2010PropOp54
 70
     1
102
RTVSPost2010Prop55
280
     0
102
RTVSPost2010PropOp55
 70
     1
102
RTVSPost2010Prop56
140
1.0
102
RTVSPost2010PropOp56
 70
     1
102
RTVSPost2010Prop57
140
1.0
102
RTVSPost2010PropOp57
 70
     1
102
RTVSPropertyOp0
 70
     1
102
RTVSPropertyOp1
 70
     1
102
RTVSPropertyOp2
 70
     1
102
RTVSPropertyOp3
 70
     1
102
RTVSPropertyOp4
 70
     1
102
RTVSPropertyOp5
 70
     1
102
RTVSPropertyOp6
 70
     1
102
RTVSPropertyOp7
 70
     1
102
RTVSPropertyOp8
 70
     1
102
RTVSPropertyOp9
 70
     1
102
RTVSPropertyOp10
 70
     1
102
RTVSPropertyOp11
 70
     1
102
RTVSPropertyOp12
 70
     1
102
RTVSPropertyOp13
 70
     1
102
RTVSPropertyOp14
 70
     1
102
RTVSPropertyOp15
 70
     1
102
RTVSPropertyOp16
 70
     1
102
RTVSPropertyOp17
 70
     1
102
RTVSPropertyOp18
 70
     1
102
RTVSPropertyOp19
 70
     1
102
RTVSPropertyOp20
 70
     1
102
RTVSPropertyOp21
 70
     1
102
RTVSPropertyOp22
 70
     1
102
RTVSPropertyOp23
 70
     1
102
RTVSPropertyOp24
 70
     1
102
RTVSPropertyOp25
 70
     1
102
RTVSPropertyOp26
 70
     1
102
RTVSPropertyOp27
 70
     1
102
RTVSPropertyOp28
 70
     1
102
RTVSPropertyOp29
 70
     1
102
RTVSPropertyOp30
 70
     1
102
RTVSPropertyOp31
 70
     1
102
RTVSPropertyOp32
 70
     1
102
RTVSPropertyOp33
 70
     1
102
RTVSPropertyOp34
 70
     1
102
RTVSPropertyOp35
 70
     1
102
RTVSPropertyOp36
 70
     1
102
RTVSPropertyOp37
 70
     1
102
RTVSPropertyOp38
 70
     1
102
RTVSPropertyOp39
 70
     1
102
RTVSPropertyOp40
 70
     1
102
RTVSPropertyOp41
 70
     1
102
RTVSPropertyOp42
 70
     1
102
RTVSPropertyOp43
 70
     1
102
RTVSPropertyOp44
 70
     1
102
RTVSPropertyOp45
 70
     1
102
RTVSPropertyOp46
 70
     1
102
RTVSPropertyOp47
 70
     1
102
RTVSPropertyOp48
 70
     1
102
RTVSPropertyOp49
 70
     1
102
RTVSPropertyOp50
 70
     1
102
RTVSPropertyOp51
 70
     0
102
RTVSPropertyOp52
 70
     0
102
RTVSPropertyOp53
 70
     1
102
RTVSPropertyOp54
 70
     1
102
RTVSPropertyOp55
 70
     1
102
RTVSPropertyOp56
 70
     1
102
RTVSPropertyOp57
 70
     1
102
RTVSPropertyOp58
 70
     1
102
RTVSPropertyOp59
 70
     1
102
RTVSPropertyOp60
 70
     1
102
RTVSPropertyOp61
 70
     1
102
RTVSPropertyOp62
 70
     1
  0
XRECORD
  5
3205
102
{ACAD_REACTORS
330
3204
102
}
330
3204
100
AcDbXrecord
280
     1
102
RTVSPost2010Prop28
280
     0
102
RTVSPost2010PropOp28
 70
     1
102
RTVSPost2010Prop29
280
     1
102
RTVSPost2010PropOp29
 70
     1
102
RTVSPost2010Prop30
280
     1
102
RTVSPost2010PropOp30
 70
     1
102
RTVSPost2010Prop31
280
     0
102
RTVSPost2010PropOp31
 70
     1
102
RTVSPost2010Prop32
280
     0
102
RTVSPost2010PropOp32
 70
     1
102
RTVSPost2010Prop33
280
     0
102
RTVSPost2010PropOp33
 70
     1
102
RTVSPost2010Prop34
280
     0
102
RTVSPost2010PropOp34
 70
     1
102
RTVSPost2010Prop35
280
     0
102
RTVSPost2010PropOp35
 70
     1
102
RTVSPost2010Prop36
280
     0
102
RTVSPost2010PropOp36
 70
     1
102
RTVSPost2010Prop37
 90
       50
102
RTVSPost2010PropOp37
 70
     1
102
RTVSPost2010Prop38
140
0.0
102
RTVSPost2010PropOp38
 70
     1
102
RTVSPost2010Prop39
140
1.0
102
RTVSPost2010PropOp39
 70
     1
102
RTVSPost2010Prop40
 90
        0
102
RTVSPost2010PropOp40
 70
     1
102
RTVSPost2010Prop41ColorIndex
 90
       18
102
RTVSPost2010Prop41ColorRGB
 90
        0
102
RTVSPost2010PropOp41
 70
     1
102
RTVSPost2010Prop42
 90
       50
102
RTVSPost2010PropOp42
 70
     1
102
RTVSPost2010Prop43
 90
        3
102
RTVSPost2010PropOp43
 70
     1
102
RTVSPost2010Prop44ColorIndex
 90
        5
102
RTVSPost2010Prop44ColorRGB
 90
      255
102
RTVSPost2010PropOp44
 70
     1
102
RTVSPost2010Prop45
280
     0
102
RTVSPost2010PropOp45
 70
     1
102
RTVSPost2010Prop46
 90
       50
102
RTVSPost2010PropOp46
 70
     1
102
RTVSPost2010Prop47
 90
       50
102
RTVSPost2010PropOp47
 70
     1
102
RTVSPost2010Prop48
 90
       50
102
RTVSPost2010PropOp48
 70
     1
102
RTVSPost2010Prop49
280
     0
102
RTVSPost2010PropOp49
 70
     1
102
RTVSPost2010Prop50
 90
       50
102
RTVSPost2010PropOp50
 70
     1
102
RTVSPost2010Prop51ColorIndex
 90
      256
102
RTVSPost2010Prop51ColorRGB
 90
-16777216
102
RTVSPost2010PropOp51
 70
     0
102
RTVSPost2010Prop52
140
1.0
102
RTVSPost2010PropOp52
 70
     0
102
RTVSPost2010Prop53
 90
        2
102
RTVSPost2010PropOp53
 70
     1
102
RTVSPost2010Prop54
  1
strokes_ogs.tif
102
RTVSPost2010PropOp54
 70
     1
102
RTVSPost2010Prop55
280
     0
102
RTVSPost2010PropOp55
 70
     1
102
RTVSPost2010Prop56
140
1.0
102
RTVSPost2010PropOp56
 70
     1
102
RTVSPost2010Prop57
140
1.0
102
RTVSPost2010PropOp57
 70
     1
102
RTVSPropertyOp0
 70
     0
102
RTVSPropertyOp1
 70
     0
102
RTVSPropertyOp2
 70
     0
102
RTVSPropertyOp3
 70
     0
102
RTVSPropertyOp4
 70
     0
102
RTVSPropertyOp5
 70
     0
102
RTVSPropertyOp6
 70
     0
102
RTVSPropertyOp7
 70
     0
102
RTVSPropertyOp8
 70
     0
102
RTVSPropertyOp9
 70
     0
102
RTVSPropertyOp10
 70
     0
102
RTVSPropertyOp11
 70
     0
102
RTVSPropertyOp12
 70
     0
102
RTVSPropertyOp13
 70
     0
102
RTVSPropertyOp14
 70
     2
102
RTVSPropertyOp15
 70
     0
102
RTVSPropertyOp16
 70
     0
102
RTVSPropertyOp17
 70
     0
102
RTVSPropertyOp18
 70
     0
102
RTVSPropertyOp19
 70
     0
102
RTVSPropertyOp20
 70
     0
102
RTVSPropertyOp21
 70
     0
102
RTVSPropertyOp22
 70
     0
102
RTVSPropertyOp23
 70
     0
102
RTVSPropertyOp24
 70
     0
102
RTVSPropertyOp25
 70
     0
102
RTVSPropertyOp26
 70
     0
102
RTVSPropertyOp27
 70
     0
102
RTVSPropertyOp28
 70
     1
102
RTVSPropertyOp29
 70
     1
102
RTVSPropertyOp30
 70
     1
102
RTVSPropertyOp31
 70
     1
102
RTVSPropertyOp32
 70
     1
102
RTVSPropertyOp33
 70
     1
102
RTVSPropertyOp34
 70
     1
102
RTVSPropertyOp35
 70
     1
102
RTVSPropertyOp36
 70
     1
102
RTVSPropertyOp37
 70
     1
102
RTVSPropertyOp38
 70
     1
102
RTVSPropertyOp39
 70
     1
102
RTVSPropertyOp40
 70
     1
102
RTVSPropertyOp41
 70
     1
102
RTVSPropertyOp42
 70
     1
102
RTVSPropertyOp43
 70
     1
102
RTVSPropertyOp44
 70
     1
102
RTVSPropertyOp45
 70
     1
102
RTVSPropertyOp46
 70
     1
102
RTVSPropertyOp47
 70
     1
102
RTVSPropertyOp48
 70
     1
102
RTVSPropertyOp49
 70
     1
102
RTVSPropertyOp50
 70
     1
102
RTVSPropertyOp51
 70
     0
102
RTVSPropertyOp52
 70
     0
102
RTVSPropertyOp53
 70
     1
102
RTVSPropertyOp54
 70
     1
102
RTVSPropertyOp55
 70
     1
102
RTVSPropertyOp56
 70
     1
102
RTVSPropertyOp57
 70
     1
102
RTVSPropertyOp58
 70
     1
102
RTVSPropertyOp59
 70
     1
102
RTVSPropertyOp60
 70
     1
102
RTVSPropertyOp61
 70
     1
102
RTVSPropertyOp62
 70
     1
  0
XRECORD
  5
31F3
102
{ACAD_REACTORS
330
31F2
102
}
330
31F2
100
AcDbXrecord
280
     1
102
RTVSPost2010Prop28
280
     0
102
RTVSPost2010PropOp28
 70
     1
102
RTVSPost2010Prop29
280
     1
102
RTVSPost2010PropOp29
 70
     1
102
RTVSPost2010Prop30
280
     1
102
RTVSPost2010PropOp30
 70
     1
102
RTVSPost2010Prop31
280
     0
102
RTVSPost2010PropOp31
 70
     1
102
RTVSPost2010Prop32
280
     0
102
RTVSPost2010PropOp32
 70
     1
102
RTVSPost2010Prop33
280
     0
102
RTVSPost2010PropOp33
 70
     1
102
RTVSPost2010Prop34
280
     0
102
RTVSPost2010PropOp34
 70
     1
102
RTVSPost2010Prop35
280
     0
102
RTVSPost2010PropOp35
 70
     1
102
RTVSPost2010Prop36
280
     0
102
RTVSPost2010PropOp36
 70
     1
102
RTVSPost2010Prop37
 90
       50
102
RTVSPost2010PropOp37
 70
     1
102
RTVSPost2010Prop38
140
0.0
102
RTVSPost2010PropOp38
 70
     1
102
RTVSPost2010Prop39
140
1.0
102
RTVSPost2010PropOp39
 70
     1
102
RTVSPost2010Prop40
 90
        0
102
RTVSPost2010PropOp40
 70
     1
102
RTVSPost2010Prop41ColorIndex
 90
       18
102
RTVSPost2010Prop41ColorRGB
 90
        0
102
RTVSPost2010PropOp41
 70
     1
102
RTVSPost2010Prop42
 90
       50
102
RTVSPost2010PropOp42
 70
     1
102
RTVSPost2010Prop43
 90
        3
102
RTVSPost2010PropOp43
 70
     1
102
RTVSPost2010Prop44ColorIndex
 90
        5
102
RTVSPost2010Prop44ColorRGB
 90
      255
102
RTVSPost2010PropOp44
 70
     1
102
RTVSPost2010Prop45
280
     0
102
RTVSPost2010PropOp45
 70
     1
102
RTVSPost2010Prop46
 90
       50
102
RTVSPost2010PropOp46
 70
     1
102
RTVSPost2010Prop47
 90
       50
102
RTVSPost2010PropOp47
 70
     1
102
RTVSPost2010Prop48
 90
       50
102
RTVSPost2010PropOp48
 70
     1
102
RTVSPost2010Prop49
280
     0
102
RTVSPost2010PropOp49
 70
     1
102
RTVSPost2010Prop50
 90
       50
102
RTVSPost2010PropOp50
 70
     1
102
RTVSPost2010Prop51ColorIndex
 90
      256
102
RTVSPost2010Prop51ColorRGB
 90
-16777216
102
RTVSPost2010PropOp51
 70
     0
102
RTVSPost2010Prop52
140
1.0
102
RTVSPost2010PropOp52
 70
     0
102
RTVSPost2010Prop53
 90
        2
102
RTVSPost2010PropOp53
 70
     1
102
RTVSPost2010Prop54
  1
strokes_ogs.tif
102
RTVSPost2010PropOp54
 70
     1
102
RTVSPost2010Prop55
280
     0
102
RTVSPost2010PropOp55
 70
     1
102
RTVSPost2010Prop56
140
1.0
102
RTVSPost2010PropOp56
 70
     1
102
RTVSPost2010Prop57
140
1.0
102
RTVSPost2010PropOp57
 70
     1
102
RTVSPropertyOp0
 70
     1
102
RTVSPropertyOp1
 70
     1
102
RTVSPropertyOp2
 70
     1
102
RTVSPropertyOp3
 70
     1
102
RTVSPropertyOp4
 70
     1
102
RTVSPropertyOp5
 70
     1
102
RTVSPropertyOp6
 70
     1
102
RTVSPropertyOp7
 70
     1
102
RTVSPropertyOp8
 70
     1
102
RTVSPropertyOp9
 70
     1
102
RTVSPropertyOp10
 70
     1
102
RTVSPropertyOp11
 70
     1
102
RTVSPropertyOp12
 70
     1
102
RTVSPropertyOp13
 70
     1
102
RTVSPropertyOp14
 70
     1
102
RTVSPropertyOp15
 70
     1
102
RTVSPropertyOp16
 70
     1
102
RTVSPropertyOp17
 70
     1
102
RTVSPropertyOp18
 70
     1
102
RTVSPropertyOp19
 70
     1
102
RTVSPropertyOp20
 70
     1
102
RTVSPropertyOp21
 70
     1
102
RTVSPropertyOp22
 70
     1
102
RTVSPropertyOp23
 70
     1
102
RTVSPropertyOp24
 70
     1
102
RTVSPropertyOp25
 70
     1
102
RTVSPropertyOp26
 70
     1
102
RTVSPropertyOp27
 70
     1
102
RTVSPropertyOp28
 70
     1
102
RTVSPropertyOp29
 70
     1
102
RTVSPropertyOp30
 70
     1
102
RTVSPropertyOp31
 70
     1
102
RTVSPropertyOp32
 70
     1
102
RTVSPropertyOp33
 70
     1
102
RTVSPropertyOp34
 70
     1
102
RTVSPropertyOp35
 70
     1
102
RTVSPropertyOp36
 70
     1
102
RTVSPropertyOp37
 70
     1
102
RTVSPropertyOp38
 70
     1
102
RTVSPropertyOp39
 70
     1
102
RTVSPropertyOp40
 70
     1
102
RTVSPropertyOp41
 70
     1
102
RTVSPropertyOp42
 70
     1
102
RTVSPropertyOp43
 70
     1
102
RTVSPropertyOp44
 70
     1
102
RTVSPropertyOp45
 70
     1
102
RTVSPropertyOp46
 70
     1
102
RTVSPropertyOp47
 70
     1
102
RTVSPropertyOp48
 70
     1
102
RTVSPropertyOp49
 70
     1
102
RTVSPropertyOp50
 70
     1
102
RTVSPropertyOp51
 70
     0
102
RTVSPropertyOp52
 70
     0
102
RTVSPropertyOp53
 70
     1
102
RTVSPropertyOp54
 70
     1
102
RTVSPropertyOp55
 70
     1
102
RTVSPropertyOp56
 70
     1
102
RTVSPropertyOp57
 70
     1
102
RTVSPropertyOp58
 70
     1
102
RTVSPropertyOp59
 70
     1
102
RTVSPropertyOp60
 70
     1
102
RTVSPropertyOp61
 70
     1
102
RTVSPropertyOp62
 70
     1
  0
XRECORD
  5
3211
102
{ACAD_REACTORS
330
3210
102
}
330
3210
100
AcDbXrecord
280
     1
102
RTVSPost2010Prop28
280
     0
102
RTVSPost2010PropOp28
 70
     1
102
RTVSPost2010Prop29
280
     1
102
RTVSPost2010PropOp29
 70
     1
102
RTVSPost2010Prop30
280
     1
102
RTVSPost2010PropOp30
 70
     1
102
RTVSPost2010Prop31
280
     0
102
RTVSPost2010PropOp31
 70
     1
102
RTVSPost2010Prop32
280
     0
102
RTVSPost2010PropOp32
 70
     1
102
RTVSPost2010Prop33
280
     0
102
RTVSPost2010PropOp33
 70
     1
102
RTVSPost2010Prop34
280
     0
102
RTVSPost2010PropOp34
 70
     1
102
RTVSPost2010Prop35
280
     0
102
RTVSPost2010PropOp35
 70
     1
102
RTVSPost2010Prop36
280
     0
102
RTVSPost2010PropOp36
 70
     1
102
RTVSPost2010Prop37
 90
       50
102
RTVSPost2010PropOp37
 70
     1
102
RTVSPost2010Prop38
140
0.0
102
RTVSPost2010PropOp38
 70
     1
102
RTVSPost2010Prop39
140
1.0
102
RTVSPost2010PropOp39
 70
     1
102
RTVSPost2010Prop40
 90
        0
102
RTVSPost2010PropOp40
 70
     1
102
RTVSPost2010Prop41ColorIndex
 90
       18
102
RTVSPost2010Prop41ColorRGB
 90
        0
102
RTVSPost2010PropOp41
 70
     1
102
RTVSPost2010Prop42
 90
       50
102
RTVSPost2010PropOp42
 70
     1
102
RTVSPost2010Prop43
 90
        3
102
RTVSPost2010PropOp43
 70
     1
102
RTVSPost2010Prop44ColorIndex
 90
        5
102
RTVSPost2010Prop44ColorRGB
 90
      255
102
RTVSPost2010PropOp44
 70
     1
102
RTVSPost2010Prop45
280
     0
102
RTVSPost2010PropOp45
 70
     1
102
RTVSPost2010Prop46
 90
       50
102
RTVSPost2010PropOp46
 70
     1
102
RTVSPost2010Prop47
 90
       50
102
RTVSPost2010PropOp47
 70
     1
102
RTVSPost2010Prop48
 90
       50
102
RTVSPost2010PropOp48
 70
     1
102
RTVSPost2010Prop49
280
     0
102
RTVSPost2010PropOp49
 70
     1
102
RTVSPost2010Prop50
 90
       50
102
RTVSPost2010PropOp50
 70
     1
102
RTVSPost2010Prop51ColorIndex
 90
      256
102
RTVSPost2010Prop51ColorRGB
 90
-16777216
102
RTVSPost2010PropOp51
 70
     0
102
RTVSPost2010Prop52
140
1.0
102
RTVSPost2010PropOp52
 70
     0
102
RTVSPost2010Prop53
 90
        2
102
RTVSPost2010PropOp53
 70
     1
102
RTVSPost2010Prop54
  1
strokes_ogs.tif
102
RTVSPost2010PropOp54
 70
     1
102
RTVSPost2010Prop55
280
     0
102
RTVSPost2010PropOp55
 70
     1
102
RTVSPost2010Prop56
140
1.0
102
RTVSPost2010PropOp56
 70
     1
102
RTVSPost2010Prop57
140
1.0
102
RTVSPost2010PropOp57
 70
     1
102
RTVSPropertyOp0
 70
     1
102
RTVSPropertyOp1
 70
     1
102
RTVSPropertyOp2
 70
     1
102
RTVSPropertyOp3
 70
     1
102
RTVSPropertyOp4
 70
     1
102
RTVSPropertyOp5
 70
     1
102
RTVSPropertyOp6
 70
     1
102
RTVSPropertyOp7
 70
     1
102
RTVSPropertyOp8
 70
     1
102
RTVSPropertyOp9
 70
     1
102
RTVSPropertyOp10
 70
     1
102
RTVSPropertyOp11
 70
     1
102
RTVSPropertyOp12
 70
     1
102
RTVSPropertyOp13
 70
     1
102
RTVSPropertyOp14
 70
     1
102
RTVSPropertyOp15
 70
     1
102
RTVSPropertyOp16
 70
     1
102
RTVSPropertyOp17
 70
     1
102
RTVSPropertyOp18
 70
     1
102
RTVSPropertyOp19
 70
     1
102
RTVSPropertyOp20
 70
     1
102
RTVSPropertyOp21
 70
     1
102
RTVSPropertyOp22
 70
     1
102
RTVSPropertyOp23
 70
     1
102
RTVSPropertyOp24
 70
     1
102
RTVSPropertyOp25
 70
     1
102
RTVSPropertyOp26
 70
     1
102
RTVSPropertyOp27
 70
     1
102
RTVSPropertyOp28
 70
     1
102
RTVSPropertyOp29
 70
     1
102
RTVSPropertyOp30
 70
     1
102
RTVSPropertyOp31
 70
     1
102
RTVSPropertyOp32
 70
     1
102
RTVSPropertyOp33
 70
     1
102
RTVSPropertyOp34
 70
     1
102
RTVSPropertyOp35
 70
     1
102
RTVSPropertyOp36
 70
     1
102
RTVSPropertyOp37
 70
     1
102
RTVSPropertyOp38
 70
     1
102
RTVSPropertyOp39
 70
     1
102
RTVSPropertyOp40
 70
     1
102
RTVSPropertyOp41
 70
     1
102
RTVSPropertyOp42
 70
     1
102
RTVSPropertyOp43
 70
     1
102
RTVSPropertyOp44
 70
     1
102
RTVSPropertyOp45
 70
     1
102
RTVSPropertyOp46
 70
     1
102
RTVSPropertyOp47
 70
     1
102
RTVSPropertyOp48
 70
     1
102
RTVSPropertyOp49
 70
     1
102
RTVSPropertyOp50
 70
     1
102
RTVSPropertyOp51
 70
     0
102
RTVSPropertyOp52
 70
     0
102
RTVSPropertyOp53
 70
     1
102
RTVSPropertyOp54
 70
     1
102
RTVSPropertyOp55
 70
     1
102
RTVSPropertyOp56
 70
     1
102
RTVSPropertyOp57
 70
     1
102
RTVSPropertyOp58
 70
     1
102
RTVSPropertyOp59
 70
     1
102
RTVSPropertyOp60
 70
     1
102
RTVSPropertyOp61
 70
     1
102
RTVSPropertyOp62
 70
     1
  0
XRECORD
  5
320F
102
{ACAD_REACTORS
330
320E
102
}
330
320E
100
AcDbXrecord
280
     1
102
RTVSPost2010Prop28
280
     0
102
RTVSPost2010PropOp28
 70
     1
102
RTVSPost2010Prop29
280
     1
102
RTVSPost2010PropOp29
 70
     1
102
RTVSPost2010Prop30
280
     1
102
RTVSPost2010PropOp30
 70
     1
102
RTVSPost2010Prop31
280
     0
102
RTVSPost2010PropOp31
 70
     1
102
RTVSPost2010Prop32
280
     0
102
RTVSPost2010PropOp32
 70
     1
102
RTVSPost2010Prop33
280
     0
102
RTVSPost2010PropOp33
 70
     1
102
RTVSPost2010Prop34
280
     0
102
RTVSPost2010PropOp34
 70
     1
102
RTVSPost2010Prop35
280
     0
102
RTVSPost2010PropOp35
 70
     1
102
RTVSPost2010Prop36
280
     0
102
RTVSPost2010PropOp36
 70
     1
102
RTVSPost2010Prop37
 90
       50
102
RTVSPost2010PropOp37
 70
     1
102
RTVSPost2010Prop38
140
0.0
102
RTVSPost2010PropOp38
 70
     1
102
RTVSPost2010Prop39
140
1.0
102
RTVSPost2010PropOp39
 70
     1
102
RTVSPost2010Prop40
 90
        0
102
RTVSPost2010PropOp40
 70
     1
102
RTVSPost2010Prop41ColorIndex
 90
       18
102
RTVSPost2010Prop41ColorRGB
 90
        0
102
RTVSPost2010PropOp41
 70
     1
102
RTVSPost2010Prop42
 90
       50
102
RTVSPost2010PropOp42
 70
     1
102
RTVSPost2010Prop43
 90
        3
102
RTVSPost2010PropOp43
 70
     1
102
RTVSPost2010Prop44ColorIndex
 90
        5
102
RTVSPost2010Prop44ColorRGB
 90
      255
102
RTVSPost2010PropOp44
 70
     1
102
RTVSPost2010Prop45
280
     0
102
RTVSPost2010PropOp45
 70
     1
102
RTVSPost2010Prop46
 90
       50
102
RTVSPost2010PropOp46
 70
     1
102
RTVSPost2010Prop47
 90
       50
102
RTVSPost2010PropOp47
 70
     1
102
RTVSPost2010Prop48
 90
       50
102
RTVSPost2010PropOp48
 70
     1
102
RTVSPost2010Prop49
280
     0
102
RTVSPost2010PropOp49
 70
     1
102
RTVSPost2010Prop50
 90
       50
102
RTVSPost2010PropOp50
 70
     1
102
RTVSPost2010Prop51ColorIndex
 90
      256
102
RTVSPost2010Prop51ColorRGB
 90
-16777216
102
RTVSPost2010PropOp51
 70
     0
102
RTVSPost2010Prop52
140
1.0
102
RTVSPost2010PropOp52
 70
     0
102
RTVSPost2010Prop53
 90
        2
102
RTVSPost2010PropOp53
 70
     1
102
RTVSPost2010Prop54
  1
strokes_ogs.tif
102
RTVSPost2010PropOp54
 70
     1
102
RTVSPost2010Prop55
280
     0
102
RTVSPost2010PropOp55
 70
     1
102
RTVSPost2010Prop56
140
1.0
102
RTVSPost2010PropOp56
 70
     1
102
RTVSPost2010Prop57
140
1.0
102
RTVSPost2010PropOp57
 70
     1
102
RTVSPropertyOp0
 70
     1
102
RTVSPropertyOp1
 70
     1
102
RTVSPropertyOp2
 70
     1
102
RTVSPropertyOp3
 70
     1
102
RTVSPropertyOp4
 70
     1
102
RTVSPropertyOp5
 70
     1
102
RTVSPropertyOp6
 70
     1
102
RTVSPropertyOp7
 70
     1
102
RTVSPropertyOp8
 70
     1
102
RTVSPropertyOp9
 70
     1
102
RTVSPropertyOp10
 70
     1
102
RTVSPropertyOp11
 70
     1
102
RTVSPropertyOp12
 70
     1
102
RTVSPropertyOp13
 70
     1
102
RTVSPropertyOp14
 70
     1
102
RTVSPropertyOp15
 70
     1
102
RTVSPropertyOp16
 70
     1
102
RTVSPropertyOp17
 70
     1
102
RTVSPropertyOp18
 70
     1
102
RTVSPropertyOp19
 70
     1
102
RTVSPropertyOp20
 70
     1
102
RTVSPropertyOp21
 70
     1
102
RTVSPropertyOp22
 70
     1
102
RTVSPropertyOp23
 70
     1
102
RTVSPropertyOp24
 70
     1
102
RTVSPropertyOp25
 70
     1
102
RTVSPropertyOp26
 70
     1
102
RTVSPropertyOp27
 70
     1
102
RTVSPropertyOp28
 70
     1
102
RTVSPropertyOp29
 70
     1
102
RTVSPropertyOp30
 70
     1
102
RTVSPropertyOp31
 70
     1
102
RTVSPropertyOp32
 70
     1
102
RTVSPropertyOp33
 70
     1
102
RTVSPropertyOp34
 70
     1
102
RTVSPropertyOp35
 70
     1
102
RTVSPropertyOp36
 70
     1
102
RTVSPropertyOp37
 70
     1
102
RTVSPropertyOp38
 70
     1
102
RTVSPropertyOp39
 70
     1
102
RTVSPropertyOp40
 70
     1
102
RTVSPropertyOp41
 70
     1
102
RTVSPropertyOp42
 70
     1
102
RTVSPropertyOp43
 70
     1
102
RTVSPropertyOp44
 70
     1
102
RTVSPropertyOp45
 70
     1
102
RTVSPropertyOp46
 70
     1
102
RTVSPropertyOp47
 70
     1
102
RTVSPropertyOp48
 70
     1
102
RTVSPropertyOp49
 70
     1
102
RTVSPropertyOp50
 70
     1
102
RTVSPropertyOp51
 70
     0
102
RTVSPropertyOp52
 70
     0
102
RTVSPropertyOp53
 70
     1
102
RTVSPropertyOp54
 70
     1
102
RTVSPropertyOp55
 70
     1
102
RTVSPropertyOp56
 70
     1
102
RTVSPropertyOp57
 70
     1
102
RTVSPropertyOp58
 70
     1
102
RTVSPropertyOp59
 70
     1
102
RTVSPropertyOp60
 70
     1
102
RTVSPropertyOp61
 70
     1
102
RTVSPropertyOp62
 70
     1
  0
XRECORD
  5
3209
102
{ACAD_REACTORS
330
3208
102
}
330
3208
100
AcDbXrecord
280
     1
102
RTVSPost2010Prop28
280
     0
102
RTVSPost2010PropOp28
 70
     1
102
RTVSPost2010Prop29
280
     1
102
RTVSPost2010PropOp29
 70
     1
102
RTVSPost2010Prop30
280
     1
102
RTVSPost2010PropOp30
 70
     1
102
RTVSPost2010Prop31
280
     0
102
RTVSPost2010PropOp31
 70
     1
102
RTVSPost2010Prop32
280
     0
102
RTVSPost2010PropOp32
 70
     1
102
RTVSPost2010Prop33
280
     0
102
RTVSPost2010PropOp33
 70
     1
102
RTVSPost2010Prop34
280
     0
102
RTVSPost2010PropOp34
 70
     1
102
RTVSPost2010Prop35
280
     0
102
RTVSPost2010PropOp35
 70
     1
102
RTVSPost2010Prop36
280
     0
102
RTVSPost2010PropOp36
 70
     1
102
RTVSPost2010Prop37
 90
       50
102
RTVSPost2010PropOp37
 70
     1
102
RTVSPost2010Prop38
140
0.0
102
RTVSPost2010PropOp38
 70
     1
102
RTVSPost2010Prop39
140
1.0
102
RTVSPost2010PropOp39
 70
     1
102
RTVSPost2010Prop40
 90
        0
102
RTVSPost2010PropOp40
 70
     1
102
RTVSPost2010Prop41ColorIndex
 90
       18
102
RTVSPost2010Prop41ColorRGB
 90
        0
102
RTVSPost2010PropOp41
 70
     1
102
RTVSPost2010Prop42
 90
       50
102
RTVSPost2010PropOp42
 70
     1
102
RTVSPost2010Prop43
 90
        3
102
RTVSPost2010PropOp43
 70
     1
102
RTVSPost2010Prop44ColorIndex
 90
        5
102
RTVSPost2010Prop44ColorRGB
 90
      255
102
RTVSPost2010PropOp44
 70
     1
102
RTVSPost2010Prop45
280
     0
102
RTVSPost2010PropOp45
 70
     1
102
RTVSPost2010Prop46
 90
       50
102
RTVSPost2010PropOp46
 70
     1
102
RTVSPost2010Prop47
 90
       50
102
RTVSPost2010PropOp47
 70
     1
102
RTVSPost2010Prop48
 90
       50
102
RTVSPost2010PropOp48
 70
     1
102
RTVSPost2010Prop49
280
     0
102
RTVSPost2010PropOp49
 70
     1
102
RTVSPost2010Prop50
 90
       50
102
RTVSPost2010PropOp50
 70
     1
102
RTVSPost2010Prop51ColorIndex
 90
      256
102
RTVSPost2010Prop51ColorRGB
 90
-16777216
102
RTVSPost2010PropOp51
 70
     0
102
RTVSPost2010Prop52
140
1.0
102
RTVSPost2010PropOp52
 70
     0
102
RTVSPost2010Prop53
 90
        2
102
RTVSPost2010PropOp53
 70
     1
102
RTVSPost2010Prop54
  1
strokes_ogs.tif
102
RTVSPost2010PropOp54
 70
     1
102
RTVSPost2010Prop55
280
     0
102
RTVSPost2010PropOp55
 70
     1
102
RTVSPost2010Prop56
140
1.0
102
RTVSPost2010PropOp56
 70
     1
102
RTVSPost2010Prop57
140
1.0
102
RTVSPost2010PropOp57
 70
     1
102
RTVSPropertyOp0
 70
     1
102
RTVSPropertyOp1
 70
     1
102
RTVSPropertyOp2
 70
     1
102
RTVSPropertyOp3
 70
     1
102
RTVSPropertyOp4
 70
     1
102
RTVSPropertyOp5
 70
     1
102
RTVSPropertyOp6
 70
     1
102
RTVSPropertyOp7
 70
     1
102
RTVSPropertyOp8
 70
     1
102
RTVSPropertyOp9
 70
     1
102
RTVSPropertyOp10
 70
     1
102
RTVSPropertyOp11
 70
     1
102
RTVSPropertyOp12
 70
     1
102
RTVSPropertyOp13
 70
     1
102
RTVSPropertyOp14
 70
     1
102
RTVSPropertyOp15
 70
     1
102
RTVSPropertyOp16
 70
     1
102
RTVSPropertyOp17
 70
     1
102
RTVSPropertyOp18
 70
     1
102
RTVSPropertyOp19
 70
     1
102
RTVSPropertyOp20
 70
     1
102
RTVSPropertyOp21
 70
     1
102
RTVSPropertyOp22
 70
     1
102
RTVSPropertyOp23
 70
     1
102
RTVSPropertyOp24
 70
     1
102
RTVSPropertyOp25
 70
     1
102
RTVSPropertyOp26
 70
     1
102
RTVSPropertyOp27
 70
     1
102
RTVSPropertyOp28
 70
     1
102
RTVSPropertyOp29
 70
     1
102
RTVSPropertyOp30
 70
     1
102
RTVSPropertyOp31
 70
     1
102
RTVSPropertyOp32
 70
     1
102
RTVSPropertyOp33
 70
     1
102
RTVSPropertyOp34
 70
     1
102
RTVSPropertyOp35
 70
     1
102
RTVSPropertyOp36
 70
     1
102
RTVSPropertyOp37
 70
     1
102
RTVSPropertyOp38
 70
     1
102
RTVSPropertyOp39
 70
     1
102
RTVSPropertyOp40
 70
     1
102
RTVSPropertyOp41
 70
     1
102
RTVSPropertyOp42
 70
     1
102
RTVSPropertyOp43
 70
     1
102
RTVSPropertyOp44
 70
     1
102
RTVSPropertyOp45
 70
     1
102
RTVSPropertyOp46
 70
     1
102
RTVSPropertyOp47
 70
     1
102
RTVSPropertyOp48
 70
     1
102
RTVSPropertyOp49
 70
     1
102
RTVSPropertyOp50
 70
     1
102
RTVSPropertyOp51
 70
     0
102
RTVSPropertyOp52
 70
     0
102
RTVSPropertyOp53
 70
     1
102
RTVSPropertyOp54
 70
     1
102
RTVSPropertyOp55
 70
     1
102
RTVSPropertyOp56
 70
     1
102
RTVSPropertyOp57
 70
     1
102
RTVSPropertyOp58
 70
     1
102
RTVSPropertyOp59
 70
     1
102
RTVSPropertyOp60
 70
     1
102
RTVSPropertyOp61
 70
     1
102
RTVSPropertyOp62
 70
     1
  0
XRECORD
  5
320B
102
{ACAD_REACTORS
330
320A
102
}
330
320A
100
AcDbXrecord
280
     1
102
RTVSPost2010Prop28
280
     0
102
RTVSPost2010PropOp28
 70
     1
102
RTVSPost2010Prop29
280
     1
102
RTVSPost2010PropOp29
 70
     1
102
RTVSPost2010Prop30
280
     1
102
RTVSPost2010PropOp30
 70
     1
102
RTVSPost2010Prop31
280
     0
102
RTVSPost2010PropOp31
 70
     1
102
RTVSPost2010Prop32
280
     0
102
RTVSPost2010PropOp32
 70
     1
102
RTVSPost2010Prop33
280
     0
102
RTVSPost2010PropOp33
 70
     1
102
RTVSPost2010Prop34
280
     0
102
RTVSPost2010PropOp34
 70
     1
102
RTVSPost2010Prop35
280
     0
102
RTVSPost2010PropOp35
 70
     1
102
RTVSPost2010Prop36
280
     0
102
RTVSPost2010PropOp36
 70
     1
102
RTVSPost2010Prop37
 90
       50
102
RTVSPost2010PropOp37
 70
     1
102
RTVSPost2010Prop38
140
0.0
102
RTVSPost2010PropOp38
 70
     1
102
RTVSPost2010Prop39
140
1.0
102
RTVSPost2010PropOp39
 70
     1
102
RTVSPost2010Prop40
 90
        0
102
RTVSPost2010PropOp40
 70
     1
102
RTVSPost2010Prop41ColorIndex
 90
       18
102
RTVSPost2010Prop41ColorRGB
 90
        0
102
RTVSPost2010PropOp41
 70
     1
102
RTVSPost2010Prop42
 90
       50
102
RTVSPost2010PropOp42
 70
     1
102
RTVSPost2010Prop43
 90
        3
102
RTVSPost2010PropOp43
 70
     1
102
RTVSPost2010Prop44ColorIndex
 90
        5
102
RTVSPost2010Prop44ColorRGB
 90
      255
102
RTVSPost2010PropOp44
 70
     1
102
RTVSPost2010Prop45
280
     0
102
RTVSPost2010PropOp45
 70
     1
102
RTVSPost2010Prop46
 90
       50
102
RTVSPost2010PropOp46
 70
     1
102
RTVSPost2010Prop47
 90
       50
102
RTVSPost2010PropOp47
 70
     1
102
RTVSPost2010Prop48
 90
       50
102
RTVSPost2010PropOp48
 70
     1
102
RTVSPost2010Prop49
280
     0
102
RTVSPost2010PropOp49
 70
     1
102
RTVSPost2010Prop50
 90
       50
102
RTVSPost2010PropOp50
 70
     1
102
RTVSPost2010Prop51ColorIndex
 90
      256
102
RTVSPost2010Prop51ColorRGB
 90
-16777216
102
RTVSPost2010PropOp51
 70
     0
102
RTVSPost2010Prop52
140
1.0
102
RTVSPost2010PropOp52
 70
     0
102
RTVSPost2010Prop53
 90
        2
102
RTVSPost2010PropOp53
 70
     1
102
RTVSPost2010Prop54
  1
strokes_ogs.tif
102
RTVSPost2010PropOp54
 70
     1
102
RTVSPost2010Prop55
280
     0
102
RTVSPost2010PropOp55
 70
     1
102
RTVSPost2010Prop56
140
1.0
102
RTVSPost2010PropOp56
 70
     1
102
RTVSPost2010Prop57
140
1.0
102
RTVSPost2010PropOp57
 70
     1
102
RTVSPropertyOp0
 70
     1
102
RTVSPropertyOp1
 70
     1
102
RTVSPropertyOp2
 70
     1
102
RTVSPropertyOp3
 70
     1
102
RTVSPropertyOp4
 70
     1
102
RTVSPropertyOp5
 70
     1
102
RTVSPropertyOp6
 70
     1
102
RTVSPropertyOp7
 70
     1
102
RTVSPropertyOp8
 70
     1
102
RTVSPropertyOp9
 70
     1
102
RTVSPropertyOp10
 70
     1
102
RTVSPropertyOp11
 70
     1
102
RTVSPropertyOp12
 70
     1
102
RTVSPropertyOp13
 70
     1
102
RTVSPropertyOp14
 70
     1
102
RTVSPropertyOp15
 70
     1
102
RTVSPropertyOp16
 70
     1
102
RTVSPropertyOp17
 70
     1
102
RTVSPropertyOp18
 70
     1
102
RTVSPropertyOp19
 70
     1
102
RTVSPropertyOp20
 70
     1
102
RTVSPropertyOp21
 70
     1
102
RTVSPropertyOp22
 70
     1
102
RTVSPropertyOp23
 70
     1
102
RTVSPropertyOp24
 70
     1
102
RTVSPropertyOp25
 70
     1
102
RTVSPropertyOp26
 70
     1
102
RTVSPropertyOp27
 70
     1
102
RTVSPropertyOp28
 70
     1
102
RTVSPropertyOp29
 70
     1
102
RTVSPropertyOp30
 70
     1
102
RTVSPropertyOp31
 70
     1
102
RTVSPropertyOp32
 70
     1
102
RTVSPropertyOp33
 70
     1
102
RTVSPropertyOp34
 70
     1
102
RTVSPropertyOp35
 70
     1
102
RTVSPropertyOp36
 70
     1
102
RTVSPropertyOp37
 70
     1
102
RTVSPropertyOp38
 70
     1
102
RTVSPropertyOp39
 70
     1
102
RTVSPropertyOp40
 70
     1
102
RTVSPropertyOp41
 70
     1
102
RTVSPropertyOp42
 70
     1
102
RTVSPropertyOp43
 70
     1
102
RTVSPropertyOp44
 70
     1
102
RTVSPropertyOp45
 70
     1
102
RTVSPropertyOp46
 70
     1
102
RTVSPropertyOp47
 70
     1
102
RTVSPropertyOp48
 70
     1
102
RTVSPropertyOp49
 70
     1
102
RTVSPropertyOp50
 70
     1
102
RTVSPropertyOp51
 70
     0
102
RTVSPropertyOp52
 70
     0
102
RTVSPropertyOp53
 70
     1
102
RTVSPropertyOp54
 70
     1
102
RTVSPropertyOp55
 70
     1
102
RTVSPropertyOp56
 70
     1
102
RTVSPropertyOp57
 70
     1
102
RTVSPropertyOp58
 70
     1
102
RTVSPropertyOp59
 70
     1
102
RTVSPropertyOp60
 70
     1
102
RTVSPropertyOp61
 70
     1
102
RTVSPropertyOp62
 70
     1
  0
XRECORD
  5
31F9
102
{ACAD_REACTORS
330
31F8
102
}
330
31F8
100
AcDbXrecord
280
     1
102
RTVSPost2010Prop28
280
     0
102
RTVSPost2010PropOp28
 70
     1
102
RTVSPost2010Prop29
280
     1
102
RTVSPost2010PropOp29
 70
     1
102
RTVSPost2010Prop30
280
     1
102
RTVSPost2010PropOp30
 70
     1
102
RTVSPost2010Prop31
280
     0
102
RTVSPost2010PropOp31
 70
     1
102
RTVSPost2010Prop32
280
     0
102
RTVSPost2010PropOp32
 70
     1
102
RTVSPost2010Prop33
280
     0
102
RTVSPost2010PropOp33
 70
     1
102
RTVSPost2010Prop34
280
     0
102
RTVSPost2010PropOp34
 70
     1
102
RTVSPost2010Prop35
280
     0
102
RTVSPost2010PropOp35
 70
     1
102
RTVSPost2010Prop36
280
     0
102
RTVSPost2010PropOp36
 70
     1
102
RTVSPost2010Prop37
 90
       50
102
RTVSPost2010PropOp37
 70
     1
102
RTVSPost2010Prop38
140
0.0
102
RTVSPost2010PropOp38
 70
     1
102
RTVSPost2010Prop39
140
1.0
102
RTVSPost2010PropOp39
 70
     1
102
RTVSPost2010Prop40
 90
        0
102
RTVSPost2010PropOp40
 70
     1
102
RTVSPost2010Prop41ColorIndex
 90
       18
102
RTVSPost2010Prop41ColorRGB
 90
        0
102
RTVSPost2010PropOp41
 70
     1
102
RTVSPost2010Prop42
 90
       50
102
RTVSPost2010PropOp42
 70
     1
102
RTVSPost2010Prop43
 90
        3
102
RTVSPost2010PropOp43
 70
     1
102
RTVSPost2010Prop44ColorIndex
 90
        5
102
RTVSPost2010Prop44ColorRGB
 90
      255
102
RTVSPost2010PropOp44
 70
     1
102
RTVSPost2010Prop45
280
     0
102
RTVSPost2010PropOp45
 70
     1
102
RTVSPost2010Prop46
 90
       50
102
RTVSPost2010PropOp46
 70
     1
102
RTVSPost2010Prop47
 90
       50
102
RTVSPost2010PropOp47
 70
     1
102
RTVSPost2010Prop48
 90
       50
102
RTVSPost2010PropOp48
 70
     1
102
RTVSPost2010Prop49
280
     0
102
RTVSPost2010PropOp49
 70
     1
102
RTVSPost2010Prop50
 90
       50
102
RTVSPost2010PropOp50
 70
     1
102
RTVSPost2010Prop51ColorIndex
 90
      256
102
RTVSPost2010Prop51ColorRGB
 90
-16777216
102
RTVSPost2010PropOp51
 70
     0
102
RTVSPost2010Prop52
140
1.0
102
RTVSPost2010PropOp52
 70
     0
102
RTVSPost2010Prop53
 90
        2
102
RTVSPost2010PropOp53
 70
     1
102
RTVSPost2010Prop54
  1
strokes_ogs.tif
102
RTVSPost2010PropOp54
 70
     1
102
RTVSPost2010Prop55
280
     0
102
RTVSPost2010PropOp55
 70
     1
102
RTVSPost2010Prop56
140
1.0
102
RTVSPost2010PropOp56
 70
     1
102
RTVSPost2010Prop57
140
1.0
102
RTVSPost2010PropOp57
 70
     1
102
RTVSPropertyOp0
 70
     1
102
RTVSPropertyOp1
 70
     1
102
RTVSPropertyOp2
 70
     1
102
RTVSPropertyOp3
 70
     1
102
RTVSPropertyOp4
 70
     1
102
RTVSPropertyOp5
 70
     1
102
RTVSPropertyOp6
 70
     1
102
RTVSPropertyOp7
 70
     1
102
RTVSPropertyOp8
 70
     1
102
RTVSPropertyOp9
 70
     1
102
RTVSPropertyOp10
 70
     1
102
RTVSPropertyOp11
 70
     1
102
RTVSPropertyOp12
 70
     1
102
RTVSPropertyOp13
 70
     1
102
RTVSPropertyOp14
 70
     1
102
RTVSPropertyOp15
 70
     1
102
RTVSPropertyOp16
 70
     1
102
RTVSPropertyOp17
 70
     1
102
RTVSPropertyOp18
 70
     1
102
RTVSPropertyOp19
 70
     1
102
RTVSPropertyOp20
 70
     1
102
RTVSPropertyOp21
 70
     1
102
RTVSPropertyOp22
 70
     1
102
RTVSPropertyOp23
 70
     1
102
RTVSPropertyOp24
 70
     1
102
RTVSPropertyOp25
 70
     1
102
RTVSPropertyOp26
 70
     1
102
RTVSPropertyOp27
 70
     1
102
RTVSPropertyOp28
 70
     1
102
RTVSPropertyOp29
 70
     1
102
RTVSPropertyOp30
 70
     1
102
RTVSPropertyOp31
 70
     1
102
RTVSPropertyOp32
 70
     1
102
RTVSPropertyOp33
 70
     1
102
RTVSPropertyOp34
 70
     1
102
RTVSPropertyOp35
 70
     1
102
RTVSPropertyOp36
 70
     1
102
RTVSPropertyOp37
 70
     1
102
RTVSPropertyOp38
 70
     1
102
RTVSPropertyOp39
 70
     1
102
RTVSPropertyOp40
 70
     1
102
RTVSPropertyOp41
 70
     1
102
RTVSPropertyOp42
 70
     1
102
RTVSPropertyOp43
 70
     1
102
RTVSPropertyOp44
 70
     1
102
RTVSPropertyOp45
 70
     1
102
RTVSPropertyOp46
 70
     1
102
RTVSPropertyOp47
 70
     1
102
RTVSPropertyOp48
 70
     1
102
RTVSPropertyOp49
 70
     1
102
RTVSPropertyOp50
 70
     1
102
RTVSPropertyOp51
 70
     0
102
RTVSPropertyOp52
 70
     0
102
RTVSPropertyOp53
 70
     1
102
RTVSPropertyOp54
 70
     1
102
RTVSPropertyOp55
 70
     1
102
RTVSPropertyOp56
 70
     1
102
RTVSPropertyOp57
 70
     1
102
RTVSPropertyOp58
 70
     1
102
RTVSPropertyOp59
 70
     1
102
RTVSPropertyOp60
 70
     1
102
RTVSPropertyOp61
 70
     1
102
RTVSPropertyOp62
 70
     1
  0
XRECORD
  5
31ED
102
{ACAD_REACTORS
330
31EC
102
}
330
31EC
100
AcDbXrecord
280
     1
102
RTVSPost2010Prop28
280
     0
102
RTVSPost2010PropOp28
 70
     1
102
RTVSPost2010Prop29
280
     1
102
RTVSPost2010PropOp29
 70
     1
102
RTVSPost2010Prop30
280
     1
102
RTVSPost2010PropOp30
 70
     1
102
RTVSPost2010Prop31
280
     0
102
RTVSPost2010PropOp31
 70
     1
102
RTVSPost2010Prop32
280
     0
102
RTVSPost2010PropOp32
 70
     1
102
RTVSPost2010Prop33
280
     0
102
RTVSPost2010PropOp33
 70
     1
102
RTVSPost2010Prop34
280
     0
102
RTVSPost2010PropOp34
 70
     1
102
RTVSPost2010Prop35
280
     0
102
RTVSPost2010PropOp35
 70
     1
102
RTVSPost2010Prop36
280
     0
102
RTVSPost2010PropOp36
 70
     1
102
RTVSPost2010Prop37
 90
       50
102
RTVSPost2010PropOp37
 70
     1
102
RTVSPost2010Prop38
140
0.0
102
RTVSPost2010PropOp38
 70
     1
102
RTVSPost2010Prop39
140
1.0
102
RTVSPost2010PropOp39
 70
     1
102
RTVSPost2010Prop40
 90
        0
102
RTVSPost2010PropOp40
 70
     1
102
RTVSPost2010Prop41ColorIndex
 90
       18
102
RTVSPost2010Prop41ColorRGB
 90
        0
102
RTVSPost2010PropOp41
 70
     1
102
RTVSPost2010Prop42
 90
       50
102
RTVSPost2010PropOp42
 70
     1
102
RTVSPost2010Prop43
 90
        3
102
RTVSPost2010PropOp43
 70
     1
102
RTVSPost2010Prop44ColorIndex
 90
        5
102
RTVSPost2010Prop44ColorRGB
 90
      255
102
RTVSPost2010PropOp44
 70
     1
102
RTVSPost2010Prop45
280
     0
102
RTVSPost2010PropOp45
 70
     1
102
RTVSPost2010Prop46
 90
       50
102
RTVSPost2010PropOp46
 70
     1
102
RTVSPost2010Prop47
 90
       50
102
RTVSPost2010PropOp47
 70
     1
102
RTVSPost2010Prop48
 90
       50
102
RTVSPost2010PropOp48
 70
     1
102
RTVSPost2010Prop49
280
     0
102
RTVSPost2010PropOp49
 70
     1
102
RTVSPost2010Prop50
 90
       50
102
RTVSPost2010PropOp50
 70
     1
102
RTVSPost2010Prop51ColorIndex
 90
      256
102
RTVSPost2010Prop51ColorRGB
 90
-16777216
102
RTVSPost2010PropOp51
 70
     0
102
RTVSPost2010Prop52
140
1.0
102
RTVSPost2010PropOp52
 70
     0
102
RTVSPost2010Prop53
 90
        2
102
RTVSPost2010PropOp53
 70
     1
102
RTVSPost2010Prop54
  1
strokes_ogs.tif
102
RTVSPost2010PropOp54
 70
     1
102
RTVSPost2010Prop55
280
     0
102
RTVSPost2010PropOp55
 70
     1
102
RTVSPost2010Prop56
140
1.0
102
RTVSPost2010PropOp56
 70
     1
102
RTVSPost2010Prop57
140
1.0
102
RTVSPost2010PropOp57
 70
     1
102
RTVSPropertyOp0
 70
     1
102
RTVSPropertyOp1
 70
     1
102
RTVSPropertyOp2
 70
     1
102
RTVSPropertyOp3
 70
     1
102
RTVSPropertyOp4
 70
     1
102
RTVSPropertyOp5
 70
     1
102
RTVSPropertyOp6
 70
     1
102
RTVSPropertyOp7
 70
     1
102
RTVSPropertyOp8
 70
     1
102
RTVSPropertyOp9
 70
     1
102
RTVSPropertyOp10
 70
     1
102
RTVSPropertyOp11
 70
     1
102
RTVSPropertyOp12
 70
     1
102
RTVSPropertyOp13
 70
     1
102
RTVSPropertyOp14
 70
     1
102
RTVSPropertyOp15
 70
     1
102
RTVSPropertyOp16
 70
     1
102
RTVSPropertyOp17
 70
     1
102
RTVSPropertyOp18
 70
     1
102
RTVSPropertyOp19
 70
     1
102
RTVSPropertyOp20
 70
     1
102
RTVSPropertyOp21
 70
     1
102
RTVSPropertyOp22
 70
     1
102
RTVSPropertyOp23
 70
     1
102
RTVSPropertyOp24
 70
     1
102
RTVSPropertyOp25
 70
     1
102
RTVSPropertyOp26
 70
     1
102
RTVSPropertyOp27
 70
     1
102
RTVSPropertyOp28
 70
     1
102
RTVSPropertyOp29
 70
     1
102
RTVSPropertyOp30
 70
     1
102
RTVSPropertyOp31
 70
     1
102
RTVSPropertyOp32
 70
     1
102
RTVSPropertyOp33
 70
     1
102
RTVSPropertyOp34
 70
     1
102
RTVSPropertyOp35
 70
     1
102
RTVSPropertyOp36
 70
     1
102
RTVSPropertyOp37
 70
     1
102
RTVSPropertyOp38
 70
     1
102
RTVSPropertyOp39
 70
     1
102
RTVSPropertyOp40
 70
     1
102
RTVSPropertyOp41
 70
     1
102
RTVSPropertyOp42
 70
     1
102
RTVSPropertyOp43
 70
     1
102
RTVSPropertyOp44
 70
     1
102
RTVSPropertyOp45
 70
     1
102
RTVSPropertyOp46
 70
     1
102
RTVSPropertyOp47
 70
     1
102
RTVSPropertyOp48
 70
     1
102
RTVSPropertyOp49
 70
     1
102
RTVSPropertyOp50
 70
     1
102
RTVSPropertyOp51
 70
     0
102
RTVSPropertyOp52
 70
     0
102
RTVSPropertyOp53
 70
     1
102
RTVSPropertyOp54
 70
     1
102
RTVSPropertyOp55
 70
     1
102
RTVSPropertyOp56
 70
     1
102
RTVSPropertyOp57
 70
     1
102
RTVSPropertyOp58
 70
     1
102
RTVSPropertyOp59
 70
     1
102
RTVSPropertyOp60
 70
     1
102
RTVSPropertyOp61
 70
     1
102
RTVSPropertyOp62
 70
     1
  0
XRECORD
  5
320D
102
{ACAD_REACTORS
330
320C
102
}
330
320C
100
AcDbXrecord
280
     1
102
RTVSPost2010Prop28
280
     0
102
RTVSPost2010PropOp28
 70
     1
102
RTVSPost2010Prop29
280
     1
102
RTVSPost2010PropOp29
 70
     1
102
RTVSPost2010Prop30
280
     1
102
RTVSPost2010PropOp30
 70
     1
102
RTVSPost2010Prop31
280
     0
102
RTVSPost2010PropOp31
 70
     1
102
RTVSPost2010Prop32
280
     0
102
RTVSPost2010PropOp32
 70
     1
102
RTVSPost2010Prop33
280
     0
102
RTVSPost2010PropOp33
 70
     1
102
RTVSPost2010Prop34
280
     0
102
RTVSPost2010PropOp34
 70
     1
102
RTVSPost2010Prop35
280
     0
102
RTVSPost2010PropOp35
 70
     1
102
RTVSPost2010Prop36
280
     0
102
RTVSPost2010PropOp36
 70
     1
102
RTVSPost2010Prop37
 90
       50
102
RTVSPost2010PropOp37
 70
     1
102
RTVSPost2010Prop38
140
0.0
102
RTVSPost2010PropOp38
 70
     1
102
RTVSPost2010Prop39
140
1.0
102
RTVSPost2010PropOp39
 70
     1
102
RTVSPost2010Prop40
 90
        0
102
RTVSPost2010PropOp40
 70
     1
102
RTVSPost2010Prop41ColorIndex
 90
       18
102
RTVSPost2010Prop41ColorRGB
 90
        0
102
RTVSPost2010PropOp41
 70
     1
102
RTVSPost2010Prop42
 90
       50
102
RTVSPost2010PropOp42
 70
     1
102
RTVSPost2010Prop43
 90
        3
102
RTVSPost2010PropOp43
 70
     1
102
RTVSPost2010Prop44ColorIndex
 90
        5
102
RTVSPost2010Prop44ColorRGB
 90
      255
102
RTVSPost2010PropOp44
 70
     1
102
RTVSPost2010Prop45
280
     0
102
RTVSPost2010PropOp45
 70
     1
102
RTVSPost2010Prop46
 90
       50
102
RTVSPost2010PropOp46
 70
     1
102
RTVSPost2010Prop47
 90
       50
102
RTVSPost2010PropOp47
 70
     1
102
RTVSPost2010Prop48
 90
       50
102
RTVSPost2010PropOp48
 70
     1
102
RTVSPost2010Prop49
280
     0
102
RTVSPost2010PropOp49
 70
     1
102
RTVSPost2010Prop50
 90
       50
102
RTVSPost2010PropOp50
 70
     1
102
RTVSPost2010Prop51ColorIndex
 90
      256
102
RTVSPost2010Prop51ColorRGB
 90
-16777216
102
RTVSPost2010PropOp51
 70
     0
102
RTVSPost2010Prop52
140
1.0
102
RTVSPost2010PropOp52
 70
     0
102
RTVSPost2010Prop53
 90
        2
102
RTVSPost2010PropOp53
 70
     1
102
RTVSPost2010Prop54
  1
strokes_ogs.tif
102
RTVSPost2010PropOp54
 70
     1
102
RTVSPost2010Prop55
280
     0
102
RTVSPost2010PropOp55
 70
     1
102
RTVSPost2010Prop56
140
1.0
102
RTVSPost2010PropOp56
 70
     1
102
RTVSPost2010Prop57
140
1.0
102
RTVSPost2010PropOp57
 70
     1
102
RTVSPropertyOp0
 70
     1
102
RTVSPropertyOp1
 70
     1
102
RTVSPropertyOp2
 70
     1
102
RTVSPropertyOp3
 70
     1
102
RTVSPropertyOp4
 70
     1
102
RTVSPropertyOp5
 70
     1
102
RTVSPropertyOp6
 70
     1
102
RTVSPropertyOp7
 70
     1
102
RTVSPropertyOp8
 70
     1
102
RTVSPropertyOp9
 70
     1
102
RTVSPropertyOp10
 70
     1
102
RTVSPropertyOp11
 70
     1
102
RTVSPropertyOp12
 70
     1
102
RTVSPropertyOp13
 70
     1
102
RTVSPropertyOp14
 70
     1
102
RTVSPropertyOp15
 70
     1
102
RTVSPropertyOp16
 70
     1
102
RTVSPropertyOp17
 70
     1
102
RTVSPropertyOp18
 70
     1
102
RTVSPropertyOp19
 70
     1
102
RTVSPropertyOp20
 70
     1
102
RTVSPropertyOp21
 70
     1
102
RTVSPropertyOp22
 70
     1
102
RTVSPropertyOp23
 70
     1
102
RTVSPropertyOp24
 70
     1
102
RTVSPropertyOp25
 70
     1
102
RTVSPropertyOp26
 70
     1
102
RTVSPropertyOp27
 70
     1
102
RTVSPropertyOp28
 70
     1
102
RTVSPropertyOp29
 70
     1
102
RTVSPropertyOp30
 70
     1
102
RTVSPropertyOp31
 70
     1
102
RTVSPropertyOp32
 70
     1
102
RTVSPropertyOp33
 70
     1
102
RTVSPropertyOp34
 70
     1
102
RTVSPropertyOp35
 70
     1
102
RTVSPropertyOp36
 70
     1
102
RTVSPropertyOp37
 70
     1
102
RTVSPropertyOp38
 70
     1
102
RTVSPropertyOp39
 70
     1
102
RTVSPropertyOp40
 70
     1
102
RTVSPropertyOp41
 70
     1
102
RTVSPropertyOp42
 70
     1
102
RTVSPropertyOp43
 70
     1
102
RTVSPropertyOp44
 70
     1
102
RTVSPropertyOp45
 70
     1
102
RTVSPropertyOp46
 70
     1
102
RTVSPropertyOp47
 70
     1
102
RTVSPropertyOp48
 70
     1
102
RTVSPropertyOp49
 70
     1
102
RTVSPropertyOp50
 70
     1
102
RTVSPropertyOp51
 70
     0
102
RTVSPropertyOp52
 70
     0
102
RTVSPropertyOp53
 70
     1
102
RTVSPropertyOp54
 70
     1
102
RTVSPropertyOp55
 70
     1
102
RTVSPropertyOp56
 70
     1
102
RTVSPropertyOp57
 70
     1
102
RTVSPropertyOp58
 70
     1
102
RTVSPropertyOp59
 70
     1
102
RTVSPropertyOp60
 70
     1
102
RTVSPropertyOp61
 70
     1
102
RTVSPropertyOp62
 70
     1
  0
ENDSEC
  0
EOF
