  0
SECTION
  2
HEADER
  9
$ACADVER
  1
AC1015
  9
$ACADMAINTVER
 70
    18
  9
$DWGCODEPAGE
  3
ANSI_1252
  9
$INSBASE
 10
0.0
 20
0.0
 30
0.0
  9
$EXTMIN
 10
-201.0214225959747
 20
-170.407012446326
 30
-0.0015258207003583
  9
$EXTMAX
 10
261.9104011844731
 20
179.5205846611883
 30
0.0000000349246037
  9
$LIMMIN
 10
0.0
 20
0.0
  9
$LIMMAX
 10
420.0
 20
297.0
  9
$ORTHOMODE
 70
     0
  9
$REGENMODE
 70
     1
  9
$FILLMODE
 70
     1
  9
$QTEXTMODE
 70
     0
  9
$MIRRTEXT
 70
     0
  9
$LTSCALE
 40
1.0
  9
$ATTMODE
 70
     1
  9
$TEXTSIZE
 40
2.5
  9
$TRACEWID
 40
1.0
  9
$TEXTSTYLE
  7
Standard
  9
$CLAYER
  8
0
  9
$CELTYPE
  6
ByLayer
  9
$CECOLOR
 62
   256
  9
$CELTSCALE
 40
1.0
  9
$DISPSILH
 70
     0
  9
$DIMSCALE
 40
1.0
  9
$DIMASZ
 40
2.5
  9
$DIMEXO
 40
0.625
  9
$DIMDLI
 40
3.75
  9
$DIMRND
 40
0.0
  9
$DIMDLE
 40
0.0
  9
$DIMEXE
 40
1.25
  9
$DIMTP
 40
0.0
  9
$DIMTM
 40
0.0
  9
$DIMTXT
 40
2.5
  9
$DIMCEN
 40
2.5
  9
$DIMTSZ
 40
0.0
  9
$DIMTOL
 70
     0
  9
$DIMLIM
 70
     0
  9
$DIMTIH
 70
     0
  9
$DIMTOH
 70
     0
  9
$DIMSE1
 70
     0
  9
$DIMSE2
 70
     0
  9
$DIMTAD
 70
     1
  9
$DIMZIN
 70
     8
  9
$DIMBLK
  1

  9
$DIMASO
 70
     1
  9
$DIMSHO
 70
     1
  9
$DIMPOST
  1

  9
$DIMAPOST
  1

  9
$DIMALT
 70
     0
  9
$DIMALTD
 70
     3
  9
$DIMALTF
 40
0.03937007874016
  9
$DIMLFAC
 40
1.0
  9
$DIMTOFL
 70
     1
  9
$DIMTVP
 40
0.0
  9
$DIMTIX
 70
     0
  9
$DIMSOXD
 70
     0
  9
$DIMSAH
 70
     0
  9
$DIMBLK1
  1

  9
$DIMBLK2
  1

  9
$DIMSTYLE
  2
ISO-25
  9
$DIMCLRD
 70
     0
  9
$DIMCLRE
 70
     0
  9
$DIMCLRT
 70
     0
  9
$DIMTFAC
 40
1.0
  9
$DIMGAP
 40
0.625
  9
$DIMJUST
 70
     0
  9
$DIMSD1
 70
     0
  9
$DIMSD2
 70
     0
  9
$DIMTOLJ
 70
     0
  9
$DIMTZIN
 70
     8
  9
$DIMALTZ
 70
     0
  9
$DIMALTTZ
 70
     0
  9
$DIMUPT
 70
     0
  9
$DIMDEC
 70
     2
  9
$DIMTDEC
 70
     2
  9
$DIMALTU
 70
     2
  9
$DIMALTTD
 70
     3
  9
$DIMTXSTY
  7
Standard
  9
$DIMAUNIT
 70
     0
  9
$DIMADEC
 70
     0
  9
$DIMALTRND
 40
0.0
  9
$DIMAZIN
 70
     0
  9
$DIMDSEP
 70
    44
  9
$DIMATFIT
 70
     3
  9
$DIMFRAC
 70
     0
  9
$DIMLDRBLK
  1

  9
$DIMLUNIT
 70
     2
  9
$DIMLWD
 70
    -2
  9
$DIMLWE
 70
    -2
  9
$DIMTMOVE
 70
     0
  9
$LUNITS
 70
     2
  9
$LUPREC
 70
     4
  9
$SKETCHINC
 40
1.0
  9
$FILLETRAD
 40
0.0
  9
$AUNITS
 70
     0
  9
$AUPREC
 70
     0
  9
$MENU
  1
.
  9
$ELEVATION
 40
0.0
  9
$PELEVATION
 40
0.0
  9
$THICKNESS
 40
0.0
  9
$LIMCHECK
 70
     0
  9
$CHAMFERA
 40
0.0
  9
$CHAMFERB
 40
0.0
  9
$CHAMFERC
 40
0.0
  9
$CHAMFERD
 40
0.0
  9
$SKPOLY
 70
     0
  9
$TDCREATE
 40
2460398.356956019
  9
$TDUCREATE
 40
2460398.065289352
  9
$TDUPDATE
 40
2460398.371504630
  9
$TDUUPDATE
 40
2460398.079837963
  9
$TDINDWG
 40
0.0069328704
  9
$TDUSRTIMER
 40
0.0069328704
  9
$USRTIMER
 70
     1
  9
$ANGBASE
 50
0.0
  9
$ANGDIR
 70
     0
  9
$PDMODE
 70
     0
  9
$PDSIZE
 40
0.0
  9
$PLINEWID
 40
0.0
  9
$SPLFRAME
 70
     0
  9
$SPLINETYPE
 70
     6
  9
$SPLINESEGS
 70
     8
  9
$HANDSEED
  5
3C59
  9
$SURFTAB1
 70
     6
  9
$SURFTAB2
 70
     6
  9
$SURFTYPE
 70
     6
  9
$SURFU
 70
     6
  9
$SURFV
 70
     6
  9
$UCSBASE
  2

  9
$UCSNAME
  2

  9
$UCSORG
 10
0.0
 20
0.0
 30
0.0
  9
$UCSXDIR
 10
1.0
 20
0.0
 30
0.0
  9
$UCSYDIR
 10
0.0
 20
1.0
 30
0.0
  9
$UCSORTHOREF
  2

  9
$UCSORTHOVIEW
 70
     0
  9
$UCSORGTOP
 10
0.0
 20
0.0
 30
0.0
  9
$UCSORGBOTTOM
 10
0.0
 20
0.0
 30
0.0
  9
$UCSORGLEFT
 10
0.0
 20
0.0
 30
0.0
  9
$UCSORGRIGHT
 10
0.0
 20
0.0
 30
0.0
  9
$UCSORGFRONT
 10
0.0
 20
0.0
 30
0.0
  9
$UCSORGBACK
 10
0.0
 20
0.0
 30
0.0
  9
$PUCSBASE
  2

  9
$PUCSNAME
  2

  9
$PUCSORG
 10
0.0
 20
0.0
 30
0.0
  9
$PUCSXDIR
 10
1.0
 20
0.0
 30
0.0
  9
$PUCSYDIR
 10
0.0
 20
1.0
 30
0.0
  9
$PUCSORTHOREF
  2

  9
$PUCSORTHOVIEW
 70
     0
  9
$PUCSORGTOP
 10
0.0
 20
0.0
 30
0.0
  9
$PUCSORGBOTTOM
 10
0.0
 20
0.0
 30
0.0
  9
$PUCSORGLEFT
 10
0.0
 20
0.0
 30
0.0
  9
$PUCSORGRIGHT
 10
0.0
 20
0.0
 30
0.0
  9
$PUCSORGFRONT
 10
0.0
 20
0.0
 30
0.0
  9
$PUCSORGBACK
 10
0.0
 20
0.0
 30
0.0
  9
$USERI1
 70
     0
  9
$USERI2
 70
     0
  9
$USERI3
 70
     0
  9
$USERI4
 70
     0
  9
$USERI5
 70
     0
  9
$USERR1
 40
0.0
  9
$USERR2
 40
0.0
  9
$USERR3
 40
0.0
  9
$USERR4
 40
0.0
  9
$USERR5
 40
0.0
  9
$WORLDVIEW
 70
     1
  9
$SHADEDGE
 70
     3
  9
$SHADEDIF
 70
    70
  9
$TILEMODE
 70
     1
  9
$MAXACTVP
 70
    48
  9
$PINSBASE
 10
0.0
 20
0.0
 30
0.0
  9
$PLIMCHECK
 70
     0
  9
$PEXTMIN
 10
0.0
 20
0.0
 30
0.0
  9
$PEXTMAX
 10
0.0
 20
0.0
 30
0.0
  9
$PLIMMIN
 10
0.0
 20
0.0
  9
$PLIMMAX
 10
12.0
 20
9.0
  9
$UNITMODE
 70
     0
  9
$VISRETAIN
 70
     1
  9
$PLINEGEN
 70
     0
  9
$PSLTSCALE
 70
     1
  9
$TREEDEPTH
 70
  3020
  9
$CMLSTYLE
  2
Standard
  9
$CMLJUST
 70
     0
  9
$CMLSCALE
 40
20.0
  9
$PROXYGRAPHICS
 70
     1
  9
$MEASUREMENT
 70
     1
  9
$CELWEIGHT
370
    -1
  9
$ENDCAPS
280
     0
  9
$JOINSTYLE
280
     0
  9
$LWDISPLAY
290
     0
  9
$INSUNITS
 70
     4
  9
$HYPERLINKBASE
  1

  9
$STYLESHEET
  1

  9
$XEDIT
290
     1
  9
$CEPSNTYPE
380
     0
  9
$PSTYLEMODE
290
     1
  9
$FINGERPRINTGUID
  2
{6C1266EE-7BC1-BF4A-B059-A6E7702B10CE}
  9
$VERSIONGUID
  2
{C8478686-B69C-054F-B7BE-9DA1C97AD9DB}
  9
$EXTNAMES
290
     1
  9
$PSVPSCALE
 40
0.0
  9
$OLESTARTUP
290
     0
  0
ENDSEC
  0
SECTION
  2
CLASSES
  0
CLASS
  1
ACDBDICTIONARYWDFLT
  2
AcDbDictionaryWithDefault
  3
ObjectDBX Classes
 90
        0
280
     0
281
     0
  0
CLASS
  1
ACDBPLACEHOLDER
  2
AcDbPlaceHolder
  3
ObjectDBX Classes
 90
        0
280
     0
281
     0
  0
CLASS
  1
LAYOUT
  2
AcDbLayout
  3
ObjectDBX Classes
 90
        0
280
     0
281
     0
  0
CLASS
  1
DICTIONARYVAR
  2
AcDbDictionaryVar
  3
ObjectDBX Classes
 90
        0
280
     0
281
     0
  0
CLASS
  1
TABLESTYLE
  2
AcDbTableStyle
  3
ObjectDBX Classes
 90
     4095
280
     0
281
     0
  0
CLASS
  1
MATERIAL
  2
AcDbMaterial
  3
ObjectDBX Classes
 90
     1153
280
     0
281
     0
  0
CLASS
  1
VISUALSTYLE
  2
AcDbVisualStyle
  3
ObjectDBX Classes
 90
     4095
280
     0
281
     0
  0
CLASS
  1
SCALE
  2
AcDbScale
  3
ObjectDBX Classes
 90
     1153
280
     0
281
     0
  0
CLASS
  1
MLEADERSTYLE
  2
AcDbMLeaderStyle
  3
ACDB_MLEADERSTYLE_CLASS
 90
     4095
280
     0
281
     0
  0
CLASS
  1
CELLSTYLEMAP
  2
AcDbCellStyleMap
  3
ObjectDBX Classes
 90
     1152
280
     0
281
     0
  0
CLASS
  1
EXACXREFPANELOBJECT
  2
ExAcXREFPanelObject
  3
EXAC_ESW
 90
    33793
280
     0
281
     0
  0
CLASS
  1
NPOCOLLECTION
  2
AcDbImpNonPersistentObjectsCollection
  3
ObjectDBX Classes
 90
    33921
280
     0
281
     0
  0
CLASS
  1
LAYER_INDEX
  2
AcDbLayerIndex
  3
ObjectDBX Classes
 90
    32768
280
     0
281
     0
  0
CLASS
  1
SPATIAL_INDEX
  2
AcDbSpatialIndex
  3
ObjectDBX Classes
 90
    32768
280
     0
281
     0
  0
CLASS
  1
IDBUFFER
  2
AcDbIdBuffer
  3
ObjectDBX Classes
 90
    32768
280
     0
281
     0
  0
CLASS
  1
ACDBSECTIONVIEWSTYLE
  2
AcDbSectionViewStyle
  3
ObjectDBX Classes
 90
     1025
280
     0
281
     0
  0
CLASS
  1
ACDBDETAILVIEWSTYLE
  2
AcDbDetailViewStyle
  3
ObjectDBX Classes
 90
     1025
280
     0
281
     0
  0
CLASS
  1
XRECORD
  2
AcDbXrecord
  3
ObjectDBX Classes
 90
        0
280
     0
281
     0
  0
ENDSEC
  0
SECTION
  2
TABLES
  0
TABLE
  2
VPORT
  5
8
102
{ACAD_XDICTIONARY
360
3B67
102
}
330
0
100
AcDbSymbolTable
 70
     1
  0
VPORT
  5
EA
330
8
100
AcDbSymbolTableRecord
100
AcDbViewportTableRecord
  2
*Active
 70
     0
 10
0.0
 20
0.0
 11
1.0
 21
1.0
 12
30.4444892942492
 22
4.55678610743115
 13
0.0
 23
0.0
 14
10.0
 24
10.0
 15
10.0
 25
10.0
 16
0.0
 26
0.0
 36
1.0
 17
0.0
 27
0.0
 37
0.0
 40
500.0571888436544
 41
0.9846153846153846
 42
50.0
 43
0.0
 44
0.0
 50
0.0
 51
0.0
 71
     0
 72
  1000
 73
     1
 74
     3
 75
     0
 76
     1
 77
     0
 78
     0
281
     0
 65
     1
110
0.0
120
0.0
130
0.0
111
1.0
121
0.0
131
0.0
112
0.0
122
1.0
132
0.0
 79
     0
146
0.0
1001
ACAD_NAV_VCDISPLAY
1070
     3
  0
ENDTAB
  0
TABLE
  2
LTYPE
  5
5
330
0
100
AcDbSymbolTable
 70
     1
  0
LTYPE
  5
14
330
5
100
AcDbSymbolTableRecord
100
AcDbLinetypeTableRecord
  2
ByBlock
 70
     0
  3

 72
    65
 73
     0
 40
0.0
  0
LTYPE
  5
15
330
5
100
AcDbSymbolTableRecord
100
AcDbLinetypeTableRecord
  2
ByLayer
 70
     0
  3

 72
    65
 73
     0
 40
0.0
  0
LTYPE
  5
16
330
5
100
AcDbSymbolTableRecord
100
AcDbLinetypeTableRecord
  2
Continuous
 70
     0
  3
Solid line
 72
    65
 73
     0
 40
0.0
  0
ENDTAB
  0
TABLE
  2
LAYER
  5
2
102
{ACAD_XDICTIONARY
360
1FF
102
}
330
0
100
AcDbSymbolTable
 70
     1
  0
LAYER
  5
10
102
{ACAD_XDICTIONARY
360
13C
102
}
330
2
100
AcDbSymbolTableRecord
100
AcDbLayerTableRecord
  2
0
 70
     0
 62
     7
  6
Continuous
370
    -3
390
F
  0
ENDTAB
  0
TABLE
  2
STYLE
  5
3
330
0
100
AcDbSymbolTable
 70
     1
  0
STYLE
  5
11
330
3
100
AcDbSymbolTableRecord
100
AcDbTextStyleTableRecord
  2
Standard
 70
     0
 40
0.0
 41
1.0
 50
0.0
 71
     0
 42
2.5
  3
arial.ttf
  4

1001
ACAD
1000
Arial
1071
       34
  0
ENDTAB
  0
TABLE
  2
VIEW
  5
6
330
0
100
AcDbSymbolTable
 70
     0
  0
ENDTAB
  0
TABLE
  2
UCS
  5
7
330
0
100
AcDbSymbolTable
 70
     0
  0
ENDTAB
  0
TABLE
  2
APPID
  5
9
330
0
100
AcDbSymbolTable
 70
     8
  0
APPID
  5
12
330
9
100
AcDbSymbolTableRecord
100
AcDbRegAppTableRecord
  2
ACAD
 70
     0
  0
APPID
  5
9E
330
9
100
AcDbSymbolTableRecord
100
AcDbRegAppTableRecord
  2
ACAD_PSEXT
 70
     0
  0
APPID
  5
133
330
9
100
AcDbSymbolTableRecord
100
AcDbRegAppTableRecord
  2
AcadAnnoPO
 70
     0
  0
APPID
  5
134
330
9
100
AcDbSymbolTableRecord
100
AcDbRegAppTableRecord
  2
AcadAnnotative
 70
     0
  0
APPID
  5
135
330
9
100
AcDbSymbolTableRecord
100
AcDbRegAppTableRecord
  2
ACAD_DSTYLE_DIMJAG
 70
     0
  0
APPID
  5
136
330
9
100
AcDbSymbolTableRecord
100
AcDbRegAppTableRecord
  2
ACAD_DSTYLE_DIMTALN
 70
     0
  0
APPID
  5
165
330
9
100
AcDbSymbolTableRecord
100
AcDbRegAppTableRecord
  2
ACAD_MLEADERVER
 70
     0
  0
APPID
  5
217
330
9
100
AcDbSymbolTableRecord
100
AcDbRegAppTableRecord
  2
ACAD_NAV_VCDISPLAY
 70
     0
  0
ENDTAB
  0
TABLE
  2
DIMSTYLE
  5
A
330
0
100
AcDbSymbolTable
 70
     1
100
AcDbDimStyleTable
 71
     0
  0
DIMSTYLE
105
27
330
A
100
AcDbSymbolTableRecord
100
AcDbDimStyleTableRecord
  2
ISO-25
 70
     0
 41
2.5
 42
0.625
 43
3.75
 44
1.25
 73
     0
 74
     0
 77
     1
 78
     8
140
2.5
141
2.5
143
0.03937007874016
147
0.625
171
     3
172
     1
271
     2
272
     2
274
     3
278
    44
283
     0
284
     8
340
11
  0
ENDTAB
  0
TABLE
  2
BLOCK_RECORD
  5
1
330
0
100
AcDbSymbolTable
 70
     7
  0
BLOCK_RECORD
  5
1F
102
{ACAD_XDICTIONARY
360
1CE
102
}
330
1
100
AcDbSymbolTableRecord
100
AcDbBlockTableRecord
  2
*Model_Space
340
22
  0
BLOCK_RECORD
  5
D2
102
{ACAD_XDICTIONARY
360
3B1A
102
}
330
1
100
AcDbSymbolTableRecord
100
AcDbBlockTableRecord
  2
*Paper_Space
340
D3
  0
BLOCK_RECORD
  5
D6
102
{ACAD_XDICTIONARY
360
3B1C
102
}
330
1
100
AcDbSymbolTableRecord
100
AcDbBlockTableRecord
  2
*Paper_Space0
340
D7
  0
BLOCK_RECORD
  5
39BC
330
1
100
AcDbSymbolTableRecord
100
AcDbBlockTableRecord
  2
SAE200_80_2-Front
340
0
102
{BLKREFS
331
3B10
102
}
  0
BLOCK_RECORD
  5
39FB
330
1
100
AcDbSymbolTableRecord
100
AcDbBlockTableRecord
  2
SAE200_80_2-Left
340
0
102
{BLKREFS
331
3B11
102
}
  0
BLOCK_RECORD
  5
3A1F
330
1
100
AcDbSymbolTableRecord
100
AcDbBlockTableRecord
  2
SAE200_80_2-Right
340
0
102
{BLKREFS
331
3B12
102
}
  0
BLOCK_RECORD
  5
3A3B
330
1
100
AcDbSymbolTableRecord
100
AcDbBlockTableRecord
  2
SAE200_80_2-Top
340
0
102
{BLKREFS
331
3B13
102
}
  0
BLOCK_RECORD
  5
3A6E
330
1
100
AcDbSymbolTableRecord
100
AcDbBlockTableRecord
  2
SAE200_80_2-Bottom
340
0
102
{BLKREFS
331
3B14
102
}
  0
BLOCK_RECORD
  5
3AA1
330
1
100
AcDbSymbolTableRecord
100
AcDbBlockTableRecord
  2
SAE200_80_2-ISO
340
0
102
{BLKREFS
331
3B15
102
}
  0
ENDTAB
  0
ENDSEC
  0
SECTION
  2
BLOCKS
  0
BLOCK
  5
20
330
1F
100
AcDbEntity
  8
0
100
AcDbBlockBegin
  2
*Model_Space
 70
     0
 10
0.0
 20
0.0
 30
0.0
  3
*Model_Space
  1

  0
ENDBLK
  5
21
330
1F
100
AcDbEntity
  8
0
100
AcDbBlockEnd
  0
BLOCK
  5
D4
330
D2
100
AcDbEntity
 67
     1
  8
0
100
AcDbBlockBegin
  2
*Paper_Space
 70
     0
 10
0.0
 20
0.0
 30
0.0
  3
*Paper_Space
  1

  0
ENDBLK
  5
D5
330
D2
100
AcDbEntity
 67
     1
  8
0
100
AcDbBlockEnd
  0
BLOCK
  5
D8
330
D6
100
AcDbEntity
 67
     1
  8
0
100
AcDbBlockBegin
  2
*Paper_Space0
 70
     0
 10
0.0
 20
0.0
 30
0.0
  3
*Paper_Space0
  1

  0
ENDBLK
  5
D9
330
D6
100
AcDbEntity
 67
     1
  8
0
100
AcDbBlockEnd
  0
BLOCK
  5
39BD
330
39BC
100
AcDbEntity
  8
0
100
AcDbBlockBegin
  2
SAE200_80_2-Front
 70
     0
 10
0.0
 20
0.0
 30
0.0
  3
SAE200_80_2-Front
  1

  0
LINE
  5
39BF
330
39BC
100
AcDbEntity
  8
0
100
AcDbLine
 10
42.0
 20
2.5
 30
0.0
 11
44.0
 21
2.5
 31
0.0
  0
SPLINE
  5
39C0
330
39BC
100
AcDbEntity
  8
0
100
AcDbSpline
210
0.0
220
0.0
230
1.0
 70
     8
 71
     3
 72
    14
 73
    10
 74
     0
 42
0.000000001
 43
0.0000000001
 40
-0.8063853190248897
 40
-0.8063853190248897
 40
-0.8063853190248897
 40
-0.8063853190248897
 40
-0.7449678209859472
 40
-0.7449678209859472
 40
-0.7449678209859472
 40
-0.2452853041078716
 40
-0.2452853041078716
 40
-0.2452853041078716
 40
0.0
 40
0.0
 40
0.0
 40
0.0
 10
39.64946727910032
 20
-1.726486623593544
 30
0.0
 10
39.81405261695447
 20
-1.670908854074104
 30
0.0
 10
39.97529469350167
 20
-1.607592928427099
 30
0.0
 10
40.13297833646499
 20
-1.537221955564952
 30
0.0
 10
41.41586614697895
 20
-0.964695461362589
 30
0.0
 10
42.50820224838121
 20
0.0462229055797453
 30
0.0
 10
43.57696483739302
 20
1.059081690220402
 30
0.0
 10
44.10160147727939
 20
1.556276141931694
 30
0.0
 10
44.62209394668136
 20
2.052672141377628
 30
0.0
 10
45.15151542587668
 20
2.499999999999952
 30
0.0
  0
SPLINE
  5
39C1
330
39BC
100
AcDbEntity
  8
0
100
AcDbSpline
210
0.0
220
0.0
230
1.0
 70
     8
 71
     3
 72
     8
 73
     4
 74
     0
 42
0.000000001
 43
0.0000000001
 40
0.0184510155299741
 40
0.0184510155299741
 40
0.0184510155299741
 40
0.0184510155299741
 40
0.0190471102913675
 40
0.0190471102913675
 40
0.0190471102913675
 40
0.0190471102913675
 10
38.00228565780526
 20
-1.999999346970999
 30
0.0
 10
38.00149697317591
 20
-2.000010839868901
 30
0.0
 10
38.00071268472544
 20
-2.000022217405557
 30
0.0
 10
37.99993541811694
 20
-2.000033437181144
 30
0.0
  0
SPLINE
  5
39C2
330
39BC
100
AcDbEntity
  8
0
100
AcDbSpline
210
0.0
220
0.0
230
1.0
 70
     8
 71
     3
 72
    22
 73
    18
 74
     0
 42
0.000000001
 43
0.0000000001
 40
0.1010730962564574
 40
0.1010730962564574
 40
0.1010730962564574
 40
0.1010730962564574
 40
0.1056890147625774
 40
0.1056890147625774
 40
0.1124565608627812
 40
0.1124565608627812
 40
0.1215821732562474
 40
0.1215821732562474
 40
0.135623011905148
 40
0.135623011905148
 40
0.1634371450882379
 40
0.1634371450882379
 40
0.1764495908265619
 40
0.1764495908265619
 40
0.1891020932845903
 40
0.1891020932845903
 40
0.2056037840511143
 40
0.2056037840511143
 40
0.2056037840511143
 40
0.2056037840511143
 10
38.78073279522178
 20
-1.930053690889737
 30
0.0
 10
38.78073279524303
 20
-1.930053690886024
 30
0.0
 10
38.77895544346393
 20
-1.930365239170454
 30
0.0
 10
38.77108532658326
 20
-1.931739921772272
 30
0.0
 10
38.76331626247383
 20
-1.933093882550925
 30
0.0
 10
38.74064588365015
 20
-1.936966335222762
 30
0.0
 10
38.72405352289101
 20
-1.939748075972461
 30
0.0
 10
38.67751808409876
 20
-1.947233626405061
 30
0.0
 10
38.64491371687004
 20
-1.952201697118627
 30
0.0
 10
38.54423320537558
 20
-1.966301389434917
 30
0.0
 10
38.4826923689391
 20
-1.973727788464545
 30
0.0
 10
38.37126697107031
 20
-1.984385989004359
 30
0.0
 10
38.33060710257874
 20
-1.987815556061161
 30
0.0
 10
38.2485814731814
 20
-1.993330915145238
 30
0.0
 10
38.20664899801021
 20
-1.995506809026686
 30
0.0
 10
38.10994459427155
 20
-1.999019186927522
 30
0.0
 10
38.05347001818644
 20
-1.999916056570731
 30
0.0
 10
37.99977802400052
 20
-2.000151363205858
 30
0.0
  0
SPLINE
  5
39C3
330
39BC
100
AcDbEntity
  8
0
100
AcDbSpline
210
0.0
220
0.0
230
1.0
 70
     8
 71
     3
 72
     8
 73
     4
 74
     0
 42
0.000000001
 43
0.0000000001
 40
0.0176658611145805
 40
0.0176658611145805
 40
0.0176658611145805
 40
0.0176658611145805
 40
0.0181569645496436
 40
0.0181569645496436
 40
0.0181569645496436
 40
0.0181569645496436
 10
38.00127699869209
 20
-1.99999979615929
 30
0.0
 10
38.00084095608075
 20
-2.000006495646151
 30
0.0
 10
38.00040735773869
 20
-2.000013145997044
 30
0.0
 10
37.99997741177157
 20
-2.000019727956257
 30
0.0
  0
SPLINE
  5
39C4
330
39BC
100
AcDbEntity
  8
0
100
AcDbSpline
210
0.0
220
0.0
230
1.0
 70
     8
 71
     3
 72
    16
 73
    12
 74
     0
 42
0.000000001
 43
0.0000000001
 40
0.0
 40
0.0
 40
0.0
 40
0.0
 40
0.0643561731582599
 40
0.0643561731582599
 40
0.0941434894801544
 40
0.0941434894801544
 40
0.1130181236434155
 40
0.1130181236434155
 40
0.1544802304717075
 40
0.1544802304717075
 40
0.1708140500559711
 40
0.1708140500559711
 40
0.1708140500559711
 40
0.1708140500559711
 10
39.64907751133702
 20
-1.724294273568332
 30
0.0
 10
39.46235269481436
 20
-1.787763462845944
 30
0.0
 10
39.25705820300833
 20
-1.847711428857413
 30
0.0
 10
38.95125171254889
 20
-1.913380522727547
 30
0.0
 10
38.85197492842635
 20
-1.931413937454472
 30
0.0
 10
38.69365342329111
 20
-1.95516841092651
 30
0.0
 10
38.63344488245902
 20
-1.963014295633311
 30
0.0
 10
38.44036778008946
 20
-1.984635541628356
 30
0.0
 10
38.30051569839061
 20
-1.994281684960665
 30
0.0
 10
38.10793382195072
 20
-1.999452470674457
 30
0.0
 10
38.05332757735953
 20
-2.000096945003731
 30
0.0
 10
37.99933614306538
 20
-2.000267898621539
 30
0.0
  0
SPLINE
  5
39C5
330
39BC
100
AcDbEntity
  8
0
100
AcDbSpline
210
0.0
220
0.0
230
1.0
 70
     8
 71
     3
 72
    36
 73
    32
 74
     0
 42
0.000000001
 43
0.0000000001
 40
0.0
 40
0.0
 40
0.0
 40
0.0
 40
0.0293797180781084
 40
0.0293797180781084
 40
0.0410039852963106
 40
0.0410039852963106
 40
0.0453724113890107
 40
0.0453724113890107
 40
0.0462528540657791
 40
0.0462528540657791
 40
0.0471311811184355
 40
0.0471311811184355
 40
0.0474941227659293
 40
0.0474941227659293
 40
0.0478579083298199
 40
0.0478579083298199
 40
0.0482205834148909
 40
0.0482205834148909
 40
0.0489495995206925
 40
0.0489495995206925
 40
0.0504012825386141
 40
0.0504012825386141
 40
0.0525002532461012
 40
0.0525002532461012
 40
0.0585606335330441
 40
0.0585606335330441
 40
0.0767326965830055
 40
0.0767326965830055
 40
0.131416248249705
 40
0.131416248249705
 40
0.1542263459520397
 40
0.1542263459520397
 40
0.1542263459520397
 40
0.1542263459520397
 10
37.99999218340041
 20
0.0002633895118569
 30
0.0
 10
38.02736099328777
 20
0.0010885910481187
 30
0.0
 10
38.02249916533377
 20
0.0010695870344725
 30
0.0
 10
38.02476011510117
 20
0.0011779177928562
 30
0.0
 10
38.02423095271407
 20
0.0011512053554573
 30
0.0
 10
38.02661269742015
 20
0.0012708833784803
 30
0.0
 10
38.02726546542903
 20
0.0013021734299269
 30
0.0
 10
38.03145963033442
 20
0.0015198740063557
 30
0.0
 10
38.0323113872404
 20
0.0015642493657727
 30
0.0
 10
38.03461583059749
 20
0.0016856686952325
 30
0.0
 10
38.03610972459254
 20
0.0017647670333838
 30
0.0
 10
38.03904669208263
 20
0.0019234053374284
 30
0.0
 10
38.0400197186203
 20
0.0019762748141199
 30
0.0
 10
38.04213155201537
 20
0.0020920375428118
 30
0.0
 10
38.04328934714436
 20
0.0021559902398166
 30
0.0
 10
38.04564974575889
 20
0.0022876037163693
 30
0.0
 10
38.0468698874036
 20
0.002356234090521
 30
0.0
 10
38.05050230396412
 20
0.0025624156664412
 30
0.0
 10
38.05292292507564
 20
0.0027023388454033
 30
0.0
 10
38.05984585593194
 20
0.0031091645202426
 30
0.0
 10
38.06419927653591
 20
0.0033738320147504
 30
0.0
 10
38.07442539535792
 20
0.0040129531001243
 30
0.0
 10
38.08018259881478
 20
0.0043882506760907
 30
0.0
 10
38.10202976962891
 20
0.005864643082019
 30
0.0
 10
38.11726188012995
 20
0.0070077752004947
 30
0.0
 10
38.17691801761279
 20
0.0118919885764325
 30
0.0
 10
38.2187976339998
 20
0.0162570292028294
 30
0.0
 10
38.38347250452114
 20
0.0372686015946043
 30
0.0
 10
38.49238622072505
 20
0.0602187494216374
 30
0.0
 10
38.6360157597198
 20
0.103550075931861
 30
0.0
 10
38.67930677857683
 20
0.1184276976725982
 30
0.0
 10
38.7199199717843
 20
0.1340912367324031
 30
0.0
  0
SPLINE
  5
39C6
330
39BC
100
AcDbEntity
  8
0
100
AcDbSpline
210
0.0
220
0.0
230
1.0
 70
     8
 71
     3
 72
    12
 73
     8
 74
     0
 42
0.000000001
 43
0.0000000001
 40
0.0072465771475543
 40
0.0072465771475543
 40
0.0072465771475543
 40
0.0072465771475543
 40
0.0100223038605407
 40
0.0100223038605407
 40
0.0134599672096155
 40
0.0134599672096155
 40
0.0147393312203013
 40
0.0147393312203013
 40
0.0147393312203013
 40
0.0147393312203013
 10
38.0436538504415
 20
0.0008461447026245
 30
0.0
 10
38.04819202008447
 20
0.000931283505632
 30
0.0
 10
38.05223797431353
 20
0.0010148917609215
 30
0.0
 10
38.05972288297225
 20
0.0011794924877058
 30
0.0
 10
38.06282555913288
 20
0.0012561379046508
 30
0.0
 10
38.06470484062324
 20
0.0013039255673298
 30
0.0
 10
38.06497698433975
 20
0.0013111112832683
 30
0.0
 10
38.06497698424195
 20
0.0013111112806897
 30
0.0
  0
SPLINE
  5
39C7
330
39BC
100
AcDbEntity
  8
0
100
AcDbSpline
210
0.0
220
0.0
230
1.0
 70
     8
 71
     3
 72
    11
 73
     7
 74
     0
 42
0.000000001
 43
0.0000000001
 40
-0.9881314545915762
 40
-0.9881314545915762
 40
-0.9881314545915762
 40
-0.9881314545915762
 40
-0.7377948218382766
 40
-0.7377948218382766
 40
-0.7377948218382766
 40
-0.0000000000108152
 40
-0.0000000000108152
 40
-0.0000000000108152
 40
-0.0000000000108152
 10
-38.10598598151653
 20
-1.998197750730287
 30
0.0
 10
-38.84906045281055
 20
-1.978070741351684
 30
0.0
 10
-39.54776301428423
 20
-1.801340390432705
 30
0.0
 10
-40.1882725908448
 20
-1.509529205116099
 30
0.0
 10
-42.07598931739754
 20
-0.6495001350195377
 30
0.0
 10
-43.55676115321203
 20
1.152515278948551
 30
0.0
 10
-45.15151542565344
 20
2.500000000013666
 30
0.0
  0
SPLINE
  5
39C8
330
39BC
100
AcDbEntity
  8
0
100
AcDbSpline
210
0.0
220
0.0
230
1.0
 70
     8
 71
     3
 72
    24
 73
    20
 74
     0
 42
0.000000001
 43
0.0000000001
 40
0.0
 40
0.0
 40
0.0
 40
0.0
 40
0.0149957930249385
 40
0.0149957930249385
 40
0.0206161148890534
 40
0.0206161148890534
 40
0.0227233769117741
 40
0.0227233769117741
 40
0.0242404136266411
 40
0.0242404136266411
 40
0.0249935638372205
 40
0.0249935638372205
 40
0.025749095009443
 40
0.025749095009443
 40
0.0265060031491514
 40
0.0265060031491514
 40
0.0272609793409541
 40
0.0272609793409541
 40
0.028190097977639
 40
0.028190097977639
 40
0.028190097977639
 40
0.028190097977639
 10
-38.79447622420661
 20
0.1645777048573877
 30
0.0
 10
-38.74860747889034
 20
0.1447176600488194
 30
0.0
 10
-38.70197505453168
 20
0.126571494405498
 30
0.0
 10
-38.63704914756517
 20
0.1040768690000248
 30
0.0
 10
-38.61925435619312
 20
0.0981907097043074
 30
0.0
 10
-38.59469141561112
 20
0.0904467171359016
 30
0.0
 10
-38.58796714612397
 20
0.0883656966917145
 30
0.0
 10
-38.57643280702364
 20
0.0848622313498766
 30
0.0
 10
-38.57156360354392
 20
0.0834041850897702
 30
0.0
 10
-38.56481220257752
 20
0.0814077808684703
 30
0.0
 10
-38.56263870415834
 20
0.0807694261964421
 30
0.0
 10
-38.55862310487763
 20
0.0795965073536481
 30
0.0
 10
-38.55675717347678
 20
0.0790550008800106
 30
0.0
 10
-38.55357560848823
 20
0.0781354769698451
 30
0.0
 10
-38.55223816274068
 20
0.0777510571167087
 30
0.0
 10
-38.55019890682226
 20
0.077166230306846
 30
0.0
 10
-38.54947333587061
 20
0.0769589489061271
 30
0.0
 10
-38.54840772398917
 20
0.0766547078604144
 30
0.0
 10
-38.54817740407992
 20
0.0765891507179513
 30
0.0
 10
-38.54817740509377
 20
0.076589151006892
 30
0.0
  0
SPLINE
  5
39C9
330
39BC
100
AcDbEntity
  8
0
100
AcDbSpline
210
0.0
220
0.0
230
1.0
 70
     8
 71
     3
 72
    32
 73
    28
 74
     0
 42
0.000000001
 43
0.0000000001
 40
0.0370678129239463
 40
0.0370678129239463
 40
0.0370678129239463
 40
0.0370678129239463
 40
0.0439774336819954
 40
0.0439774336819954
 40
0.0556345907440768
 40
0.0556345907440768
 40
0.0767490278385281
 40
0.0767490278385281
 40
0.1149147632581329
 40
0.1149147632581329
 40
0.1418314513928915
 40
0.1418314513928915
 40
0.1426783500781787
 40
0.1426783500781787
 40
0.1434310474961753
 40
0.1434310474961753
 40
0.1436505480200052
 40
0.1436505480200052
 40
0.1438469199879887
 40
0.1438469199879887
 40
0.1440298942253714
 40
0.1440298942253714
 40
0.1441997287162342
 40
0.1441997287162342
 40
0.1444977482091752
 40
0.1444977482091752
 40
0.1448285983673895
 40
0.1448285983673895
 40
0.1448285983673895
 40
0.1448285983673895
 10
-38.55834401772372
 20
0.07951221409495
 30
0.0
 10
-38.55834401840485
 20
0.079512214292226
 30
0.0
 10
-38.55592247448377
 20
0.0788080880442258
 30
0.0
 10
-38.54525460649986
 20
0.0757743866408205
 30
0.0
 10
-38.53422046044444
 20
0.0726898535069048
 30
0.0
 10
-38.49734221118473
 20
0.0629764276936564
 30
0.0
 10
-38.46625944988517
 20
0.05539345427993
 30
0.0
 10
-38.36821699094805
 20
0.0349168902989039
 30
0.0
 10
-38.29139959504942
 20
0.0226110173237786
 30
0.0
 10
-38.15143215875835
 20
0.0080596433644049
 30
0.0
 10
-38.09585723865454
 20
0.0038954091366053
 30
0.0
 10
-38.02244572930595
 20
0.0008468180316315
 30
0.0
 10
-38.02015425731489
 20
0.0007537966356365
 30
0.0
 10
-38.01563406461138
 20
0.000575069987698
 30
0.0
 10
-38.013408341996
 20
0.0004889622462481
 30
0.0
 10
-38.01033335621256
 20
0.0003732592676722
 30
0.0
 10
-38.00962202938541
 20
0.0003466996922502
 30
0.0
 10
-38.00825495852112
 20
0.0002960815124536
 30
0.0
 10
-38.0075951262449
 20
0.0002718300907489
 30
0.0
 10
-38.00633318226884
 20
0.0002258005166077
 30
0.0
 10
-38.00572172454254
 20
0.0002036599731062
 30
0.0
 10
-38.00460747281808
 20
0.000163580954744
 30
0.0
 10
-38.004092049323
 20
0.0001451661838904
 30
0.0
 10
-38.00280302896844
 20
0.0000993516546591
 30
0.0
 10
-38.00210765850559
 20
0.0000749150709498
 30
0.0
 10
-38.00091287941672
 20
0.0000331511031525
 30
0.0
 10
-38.00041607451756
 20
0.0000159395630152
 30
0.0
 10
-37.99999966154587
 20
0.0000015657462441
 30
0.0
  0
SPLINE
  5
39CA
330
39BC
100
AcDbEntity
  8
0
100
AcDbSpline
210
0.0
220
0.0
230
1.0
 70
     8
 71
     3
 72
    10
 73
     6
 74
     0
 42
0.000000001
 43
0.0000000001
 40
0.0099122628008859
 40
0.0099122628008859
 40
0.0099122628008859
 40
0.0099122628008859
 40
0.0113988146538406
 40
0.0113988146538406
 40
0.0122248817400829
 40
0.0122248817400829
 40
0.0122248817400829
 40
0.0122248817400829
 10
-38.0226371317569
 20
0.0001284417234299
 30
0.0
 10
-38.01769680547859
 20
0.0000783435981901
 30
0.0
 10
-38.0127881553243
 20
0.0000444589099732
 30
0.0
 10
-38.00527666889656
 20
0.0000157912366034
 30
0.0
 10
-38.00261362387043
 20
0.0000102154876429
 30
0.0
 10
-38.00000446396795
 20
0.0000089059231922
 30
0.0
  0
SPLINE
  5
39CB
330
39BC
100
AcDbEntity
  8
0
100
AcDbSpline
210
0.0
220
0.0
230
1.0
 70
     8
 71
     3
 72
     8
 73
     4
 74
     0
 42
0.000000001
 43
0.0000000001
 40
0.0275616060329188
 40
0.0275616060329188
 40
0.0275616060329188
 40
0.0275616060329188
 40
0.0288591937720812
 40
0.0288591937720812
 40
0.0288591937720812
 40
0.0288591937720812
 10
-38.00901697046322
 20
0.0003243071870354
 30
0.0
 10
-38.0060754579997
 20
0.0002913283346921
 30
0.0
 10
-38.0030707940591
 20
0.0002600390785764
 30
0.0
 10
-38.00000825485289
 20
0.0002306560620674
 30
0.0
  0
SPLINE
  5
39CC
330
39BC
100
AcDbEntity
  8
0
100
AcDbSpline
210
0.0
220
0.0
230
1.0
 70
     8
 71
     3
 72
     8
 73
     4
 74
     0
 42
0.000000001
 43
0.0000000001
 40
0.0191980585804608
 40
0.0191980585804608
 40
0.0191980585804608
 40
0.0191980585804608
 40
0.036163400766128
 40
0.036163400766128
 40
0.036163400766128
 40
0.036163400766128
 10
-38.00868865778456
 20
0.0002961918077119
 30
0.0
 10
-38.00868865778425
 20
0.0002961918077018
 30
0.0
 10
-38.01099686277588
 20
0.0003230096490518
 30
0.0
 10
-37.99999876053228
 20
0.000058002504922
 30
0.0
  0
ARC
  5
39CD
330
39BC
100
AcDbEntity
  8
0
100
AcDbCircle
 10
-37.99999999999999
 20
2.0
 30
0.0
 40
4.000000000000004
100
AcDbArc
 50
237.6896680595532
 51
270.0
  0
SPLINE
  5
39CE
330
39BC
100
AcDbEntity
  8
0
100
AcDbSpline
210
0.0
220
0.0
230
1.0
 70
     8
 71
     3
 72
     8
 73
     4
 74
     0
 42
0.000000001
 43
0.0000000001
 40
-1.0
 40
-1.0
 40
-1.0
 40
-1.0
 40
0.0
 40
0.0
 40
0.0
 40
0.0
 10
-40.13801905482676
 20
-1.380661846620795
 30
0.0
 10
-41.27265329496674
 20
-0.6630894493391776
 30
0.0
 10
-41.99999999999997
 20
0.6575004639708091
 30
0.0
 10
-41.99999999999997
 20
2.000000000000005
 30
0.0
  0
LINE
  5
39CF
330
39BC
100
AcDbEntity
  8
0
100
AcDbLine
 10
-39.06900952741337
 20
0.3096690766896088
 30
0.0
 11
-40.13801905482675
 21
-1.380661846620796
 31
0.0
  0
SPLINE
  5
39D0
330
39BC
100
AcDbEntity
  8
0
100
AcDbSpline
210
0.0
220
0.0
230
1.0
 70
     8
 71
     3
 72
     8
 73
     4
 74
     0
 42
0.000000001
 43
0.0000000001
 40
0.0
 40
0.0
 40
0.0
 40
0.0
 40
1.0
 40
1.0
 40
1.0
 40
1.0
 10
-39.99999999999997
 20
2.000000000000005
 30
0.0
 10
-39.99999999999997
 20
1.328750231985409
 30
0.0
 10
-39.63632664748337
 20
0.6684552753304147
 30
0.0
 10
-39.06900952741337
 20
0.3096690766896076
 30
0.0
  0
ARC
  5
39D1
330
39BC
100
AcDbEntity
  8
0
100
AcDbCircle
 10
-37.99999999999999
 20
2.0
 30
0.0
 40
2.000000000000002
100
AcDbArc
 50
237.6896680595532
 51
270.0
  0
SPLINE
  5
39D2
330
39BC
100
AcDbEntity
  8
0
100
AcDbSpline
210
0.0
220
0.0
230
1.0
 70
     8
 71
     3
 72
     8
 73
     4
 74
     0
 42
0.000000001
 43
0.0000000001
 40
0.0
 40
0.0
 40
0.0
 40
0.0
 40
1.0
 40
1.0
 40
1.0
 40
1.0
 10
41.99999999999997
 20
2.000000000000005
 30
0.0
 10
41.99999999999997
 20
0.6575004639708091
 30
0.0
 10
41.27265329496674
 20
-0.6630894493391776
 30
0.0
 10
40.13801905482676
 20
-1.380661846620795
 30
0.0
  0
ARC
  5
39D3
330
39BC
100
AcDbEntity
  8
0
100
AcDbCircle
 10
37.99999999999999
 20
2.0
 30
0.0
 40
4.000000000000004
100
AcDbArc
 50
270.0
 51
302.3103319404468
  0
LINE
  5
39D4
330
39BC
100
AcDbEntity
  8
0
100
AcDbLine
 10
45.15151542587664
 20
2.5
 30
0.0
 11
81.50000000000005
 21
32.99999999999999
 31
0.0
  0
LINE
  5
39D5
330
39BC
100
AcDbEntity
  8
0
100
AcDbLine
 10
41.99999999999997
 20
2.000000000000001
 30
0.0
 11
40.5464790894711
 21
2.000000000000001
 31
0.0
  0
LINE
  5
39D6
330
39BC
100
AcDbEntity
  8
0
100
AcDbLine
 10
40.5464790894711
 20
2.000000000000001
 30
0.0
 11
39.99999999999997
 21
2.000000000000001
 31
0.0
  0
SPLINE
  5
39D7
330
39BC
100
AcDbEntity
  8
0
100
AcDbSpline
210
0.0
220
0.0
230
1.0
 70
     8
 71
     3
 72
     8
 73
     4
 74
     0
 42
0.000000001
 43
0.0000000001
 40
-1.0
 40
-1.0
 40
-1.0
 40
-1.0
 40
0.0
 40
0.0
 40
0.0
 40
0.0
 10
39.06900952741337
 20
0.3096690766896076
 30
0.0
 10
39.63632664748337
 20
0.6684552753304147
 30
0.0
 10
39.99999999999997
 20
1.328750231985409
 30
0.0
 10
39.99999999999997
 20
2.000000000000005
 30
0.0
  0
LINE
  5
39D8
330
39BC
100
AcDbEntity
  8
0
100
AcDbLine
 10
40.13801905482675
 20
-1.380661846620796
 30
0.0
 11
39.06900952741337
 21
0.3096690766896088
 31
0.0
  0
LINE
  5
39D9
330
39BC
100
AcDbEntity
  8
0
100
AcDbLine
 10
39.99999999999997
 20
32.99999999999999
 30
0.0
 11
39.99999999999996
 21
59.99999999999999
 31
0.0
  0
LINE
  5
39DA
330
39BC
100
AcDbEntity
  8
0
100
AcDbLine
 10
41.99999999999998
 20
32.99999999999999
 30
0.0
 11
39.99999999999997
 21
32.99999999999999
 31
0.0
  0
LINE
  5
39DB
330
39BC
100
AcDbEntity
  8
0
100
AcDbLine
 10
41.99999999999998
 20
59.99999999999999
 30
0.0
 11
41.99999999999998
 21
32.99999999999999
 31
0.0
  0
LINE
  5
39DC
330
39BC
100
AcDbEntity
  8
0
100
AcDbLine
 10
39.99999999999996
 20
59.99999999999999
 30
0.0
 11
41.99999999999998
 21
59.99999999999999
 31
0.0
  0
LINE
  5
39DD
330
39BC
100
AcDbEntity
  8
0
100
AcDbLine
 10
39.99999999999997
 20
2.000000000000001
 30
0.0
 11
39.99999999999997
 21
32.99999999999999
 31
0.0
  0
LINE
  5
39DE
330
39BC
100
AcDbEntity
  8
0
100
AcDbLine
 10
41.99999999999998
 20
32.99999999999999
 30
0.0
 11
41.99999999999997
 21
2.000000000000001
 31
0.0
  0
LINE
  5
39DF
330
39BC
100
AcDbEntity
  8
0
100
AcDbLine
 10
81.50000000000005
 20
32.99999999999999
 30
0.0
 11
81.5
 21
60.0
 31
0.0
  0
LINE
  5
39E0
330
39BC
100
AcDbEntity
  8
0
100
AcDbLine
 10
81.5
 20
60.0
 30
0.0
 11
44.0
 21
60.0
 31
0.0
  0
CIRCLE
  5
39E1
330
39BC
100
AcDbEntity
  8
0
100
AcDbCircle
 10
73.00000000000003
 20
55.0
 30
0.0
 40
2.5
  0
CIRCLE
  5
39E2
330
39BC
100
AcDbEntity
  8
0
100
AcDbCircle
 10
51.00000000000005
 20
45.0
 30
0.0
 40
2.5
  0
CIRCLE
  5
39E3
330
39BC
100
AcDbEntity
  8
0
100
AcDbCircle
 10
51.00000000000005
 20
25.0
 30
0.0
 40
2.5
  0
CIRCLE
  5
39E4
330
39BC
100
AcDbEntity
  8
0
100
AcDbCircle
 10
73.00000000000003
 20
35.0
 30
0.0
 40
2.5
  0
CIRCLE
  5
39E5
330
39BC
100
AcDbEntity
  8
0
100
AcDbCircle
 10
62.00000000000009
 20
40.0
 30
0.0
 40
5.5
  0
ARC
  5
39E6
330
39BC
100
AcDbEntity
  8
0
100
AcDbCircle
 10
37.99999999999999
 20
2.0
 30
0.0
 40
2.000000000000002
100
AcDbArc
 50
270.0
 51
302.3103319404468
  0
LINE
  5
39E7
330
39BC
100
AcDbEntity
  8
0
100
AcDbLine
 10
44.0
 20
60.0
 30
0.0
 11
42.0
 21
60.0
 31
0.0
  0
LINE
  5
39E8
330
39BC
100
AcDbEntity
  8
0
100
AcDbLine
 10
-44.0
 20
60.0
 30
0.0
 11
-42.0
 21
60.0
 31
0.0
  0
LINE
  5
39E9
330
39BC
100
AcDbEntity
  8
0
100
AcDbLine
 10
-37.99999999999999
 20
0.0
 30
0.0
 11
37.99999999999997
 21
0.0
 31
0.0
  0
LINE
  5
39EA
330
39BC
100
AcDbEntity
  8
0
100
AcDbLine
 10
37.99999999999998
 20
-2.0
 30
0.0
 11
-37.99999999999999
 21
-2.000000000000003
 31
0.0
  0
LINE
  5
39EB
330
39BC
100
AcDbEntity
  8
0
100
AcDbLine
 10
-41.99999999999997
 20
2.000000000000001
 30
0.0
 11
-40.5464790894711
 21
2.000000000000001
 31
0.0
  0
LINE
  5
39EC
330
39BC
100
AcDbEntity
  8
0
100
AcDbLine
 10
-40.5464790894711
 20
2.000000000000001
 30
0.0
 11
-39.99999999999997
 21
2.000000000000001
 31
0.0
  0
LINE
  5
39ED
330
39BC
100
AcDbEntity
  8
0
100
AcDbLine
 10
-39.99999999999996
 20
59.99999999999999
 30
0.0
 11
-39.99999999999997
 21
32.99999999999999
 31
0.0
  0
LINE
  5
39EE
330
39BC
100
AcDbEntity
  8
0
100
AcDbLine
 10
-41.99999999999998
 20
59.99999999999999
 30
0.0
 11
-39.99999999999996
 21
59.99999999999999
 31
0.0
  0
LINE
  5
39EF
330
39BC
100
AcDbEntity
  8
0
100
AcDbLine
 10
-41.99999999999998
 20
32.99999999999999
 30
0.0
 11
-41.99999999999998
 21
59.99999999999999
 31
0.0
  0
LINE
  5
39F0
330
39BC
100
AcDbEntity
  8
0
100
AcDbLine
 10
-41.99999999999998
 20
32.99999999999999
 30
0.0
 11
-39.99999999999997
 21
32.99999999999999
 31
0.0
  0
LINE
  5
39F1
330
39BC
100
AcDbEntity
  8
0
100
AcDbLine
 10
-39.99999999999997
 20
32.99999999999999
 30
0.0
 11
-39.99999999999997
 21
2.000000000000001
 31
0.0
  0
LINE
  5
39F2
330
39BC
100
AcDbEntity
  8
0
100
AcDbLine
 10
-41.99999999999997
 20
2.000000000000001
 30
0.0
 11
-41.99999999999998
 21
32.99999999999999
 31
0.0
  0
LINE
  5
39F3
330
39BC
100
AcDbEntity
  8
0
100
AcDbLine
 10
-81.50000000000005
 20
32.99999999999999
 30
0.0
 11
-45.15151542587664
 21
2.5
 31
0.0
  0
CIRCLE
  5
39F4
330
39BC
100
AcDbEntity
  8
0
100
AcDbCircle
 10
-62.00000000000009
 20
40.0
 30
0.0
 40
5.5
  0
CIRCLE
  5
39F5
330
39BC
100
AcDbEntity
  8
0
100
AcDbCircle
 10
-73.00000000000003
 20
35.0
 30
0.0
 40
2.5
  0
CIRCLE
  5
39F6
330
39BC
100
AcDbEntity
  8
0
100
AcDbCircle
 10
-73.00000000000003
 20
55.0
 30
0.0
 40
2.5
  0
CIRCLE
  5
39F7
330
39BC
100
AcDbEntity
  8
0
100
AcDbCircle
 10
-51.00000000000005
 20
45.0
 30
0.0
 40
2.5
  0
CIRCLE
  5
39F8
330
39BC
100
AcDbEntity
  8
0
100
AcDbCircle
 10
-51.00000000000005
 20
25.0
 30
0.0
 40
2.5
  0
LINE
  5
39F9
330
39BC
100
AcDbEntity
  8
0
100
AcDbLine
 10
-81.5
 20
60.0
 30
0.0
 11
-44.0
 21
60.0
 31
0.0
  0
LINE
  5
39FA
330
39BC
100
AcDbEntity
  8
0
100
AcDbLine
 10
-81.50000000000005
 20
32.99999999999999
 30
0.0
 11
-81.5
 21
60.0
 31
0.0
  0
ENDBLK
  5
39BE
330
39BC
100
AcDbEntity
  8
0
100
AcDbBlockEnd
  0
BLOCK
  5
39FC
330
39FB
100
AcDbEntity
  8
0
100
AcDbBlockBegin
  2
SAE200_80_2-Left
 70
     0
 10
0.0
 20
0.0
 30
0.0
  3
SAE200_80_2-Left
  1

  0
SPLINE
  5
39FE
330
39FB
100
AcDbEntity
  8
0
100
AcDbSpline
210
0.0
220
0.0
230
1.0
 70
     8
 71
     3
 72
     8
 73
     4
 74
     0
 42
0.000000001
 43
0.0000000001
 40
-0.9888143077660734
 40
-0.9888143077660734
 40
-0.9888143077660734
 40
-0.9888143077660734
 40
-0.9720382634056031
 40
-0.9720382634056031
 40
-0.9720382634056031
 40
-0.9720382634056031
 10
2.000118536430588
 20
-1.999019238772945
 30
0.0
 10
2.00017421923086
 20
-1.998040977606791
 30
0.0
 10
2.000224636998083
 20
-1.996333989170435
 30
0.0
 10
2.000270235514577
 20
-1.993912194843844
 30
0.0
  0
SPLINE
  5
39FF
330
39FB
100
AcDbEntity
  8
0
100
AcDbSpline
210
0.0
220
0.0
230
1.0
 70
     8
 71
     3
 72
    11
 73
     7
 74
     0
 42
0.000000001
 43
0.0000000001
 40
0.0302481117491971
 40
0.0302481117491971
 40
0.0302481117491971
 40
0.0302481117491971
 40
0.2570984672458163
 40
0.2570984672458163
 40
0.2570984672458163
 40
0.425689102425566
 40
0.425689102425566
 40
0.425689102425566
 40
0.425689102425566
 10
0.0052121088933442
 20
2.345780266929141
 30
0.0
 10
0.0310311857000349
 20
1.965563779915965
 30
0.0
 10
0.1510431592601825
 20
1.62582027784838
 30
0.0
 10
0.3264773482038393
 20
1.340321336320962
 30
0.0
 10
0.4568565194487179
 20
1.128144248081967
 30
0.0
 10
0.6137477840299583
 20
0.9434839878854926
 30
0.0
 10
0.7786498318619479
 20
0.7846294191014341
 30
0.0
  0
SPLINE
  5
3A00
330
39FB
100
AcDbEntity
  8
0
100
AcDbSpline
210
0.0
220
0.0
230
1.0
 70
     8
 71
     3
 72
    12
 73
     8
 74
     0
 42
0.000000001
 43
0.0000000001
 40
0.0449143608679382
 40
0.0449143608679382
 40
0.0449143608679382
 40
0.0449143608679382
 40
0.0549424761811896
 40
0.0549424761811896
 40
0.0569611891125817
 40
0.0569611891125817
 40
0.0576301060469603
 40
0.0576301060469603
 40
0.0576301060469603
 40
0.0576301060469603
 10
0.0033481641402944
 20
2.376656884589887
 30
0.0
 10
0.0020412197862584
 20
2.399931332843298
 30
0.0
 10
0.0010772220920778
 20
2.425823361662444
 30
0.0
 10
0.0005131365284344
 20
2.450325767740033
 30
0.0
 10
0.000437294675649
 20
2.454011437853493
 30
0.0
 10
0.0003308073488096
 20
2.460103142888217
 30
0.0
 10
0.0003051630722781
 20
2.461658683607571
 30
0.0
 10
0.0002808616981238
 20
2.463234835844221
 30
0.0
  0
SPLINE
  5
3A01
330
39FB
100
AcDbEntity
  8
0
100
AcDbSpline
210
0.0
220
0.0
230
1.0
 70
     8
 71
     3
 72
    10
 73
     6
 74
     0
 42
0.000000001
 43
0.0000000001
 40
0.0452003073835181
 40
0.0452003073835181
 40
0.0452003073835181
 40
0.0452003073835181
 40
0.0458199593663587
 40
0.0458199593663587
 40
0.055902719998966
 40
0.055902719998966
 40
0.055902719998966
 40
0.055902719998966
 10
0.0026390442164854
 20
2.39238940350852
 30
0.0
 10
0.0025403352101267
 20
2.394358291891344
 30
0.0
 10
0.0024443567533414
 20
2.396329937488075
 30
0.0
 10
0.0008344366076856
 20
2.430421380419709
 30
0.0
 10
0.0000425346234
 20
2.463667811135389
 30
0.0
 10
0.0000016673090458
 20
2.497258788996064
 30
0.0
  0
SPLINE
  5
3A02
330
39FB
100
AcDbEntity
  8
0
100
AcDbSpline
210
0.0
220
0.0
230
1.0
 70
     8
 71
     3
 72
    16
 73
    12
 74
     0
 42
0.000000001
 43
0.0000000001
 40
0.0012416762838369
 40
0.0012416762838369
 40
0.0012416762838369
 40
0.0012416762838369
 40
0.0047299959614172
 40
0.0047299959614172
 40
0.0126690806417087
 40
0.0126690806417087
 40
0.0172965758258972
 40
0.0172965758258972
 40
0.0190320876743415
 40
0.0190320876743415
 40
0.0192957609460208
 40
0.0192957609460208
 40
0.0192957609460208
 40
0.0192957609460208
 10
0.0045187618791095
 20
2.354567459793539
 30
0.0
 10
0.0040722406571813
 20
2.361543071526258
 30
0.0
 10
0.0036164209309288
 20
2.369138838312045
 30
0.0
 10
0.0021494893301529
 20
2.396184515100372
 30
0.0
 10
0.0011766085613729
 20
2.419006296990865
 30
0.0
 10
0.0002685439885429
 20
2.455526641444675
 30
0.0
 10
0.0000572932934652
 20
2.469061854446544
 30
0.0
 10
-0.0000665288924384
 20
2.487776001253393
 30
0.0
 10
-0.0000836354998463
 20
2.492898680444894
 30
0.0
 10
-0.0000837218838543
 20
2.498942991250573
 30
0.0
 10
-0.0000833417848493
 20
2.499743979891912
 30
0.0
 10
-0.0000825539187677
 20
2.5005496079416
 30
0.0
  0
SPLINE
  5
3A03
330
39FB
100
AcDbEntity
  8
0
100
AcDbSpline
210
0.0
220
0.0
230
1.0
 70
     8
 71
     3
 72
    16
 73
    12
 74
     0
 42
0.000000001
 43
0.0000000001
 40
0.0001568626711715
 40
0.0001568626711715
 40
0.0001568626711715
 40
0.0001568626711715
 40
0.0312316729082182
 40
0.0312316729082182
 40
0.1047812859166885
 40
0.1047812859166885
 40
0.2558882600642785
 40
0.2558882600642785
 40
0.4002311757069562
 40
0.4002311757069562
 40
0.4866062485548177
 40
0.4866062485548177
 40
0.4866062485548177
 40
0.4866062485548177
 10
1.99997960724335
 20
-1.995451483649532
 30
0.0
 10
1.999756962946738
 20
-1.979770998415404
 30
0.0
 10
1.999219865429327
 20
-1.950672752241862
 30
0.0
 10
1.996560558552623
 20
-1.852970408164503
 30
0.0
 10
1.993431269357547
 20
-1.775269542266842
 30
0.0
 10
1.970123042546303
 20
-1.45659722000126
 30
0.0
 10
1.937215180564009
 20
-1.155989564256048
 30
0.0
 10
1.764153727018124
 20
-0.5167678557258111
 30
0.0
 10
1.621399877052338
 20
-0.1760062804749251
 30
0.0
 10
1.273611762381724
 20
0.3097803208847297
 30
0.0
 10
1.117032302376713
 20
0.4801498587402397
 30
0.0
 10
0.9439779701084503
 20
0.6354815053462327
 30
0.0
  0
LINE
  5
3A04
330
39FB
100
AcDbEntity
  8
0
100
AcDbLine
 10
1.999999999999992
 20
-2.0
 30
0.0
 11
1.999999999999992
 21
-1.990001434620031
 31
0.0
  0
SPLINE
  5
3A05
330
39FB
100
AcDbEntity
  8
0
100
AcDbSpline
210
0.0
220
0.0
230
1.0
 70
     8
 71
     3
 72
    11
 73
     7
 74
     0
 42
0.000000001
 43
0.0000000001
 40
-1.0
 40
-1.0
 40
-1.0
 40
-1.0
 40
-0.7377948218382766
 40
-0.7377948218382766
 40
-0.7377948218382766
 40
-0.0000000000108152
 40
-0.0000000000108152
 40
-0.0000000000108152
 40
-0.0000000000108152
 10
2.000000000000072
 20
-1.999999999999987
 30
0.0
 10
2.00095654687908
 20
-1.994569762301001
 30
0.0
 10
2.000566205922634
 20
-1.815175258568161
 30
0.0
 10
2.000377581138866
 20
-1.509529205116099
 30
0.0
 10
1.999846827361583
 20
-0.6495001350195377
 30
0.0
 10
2.001506891966174
 20
1.152515278948551
 30
0.0
 10
2.000000000000471
 20
2.500000000013666
 30
0.0
  0
SPLINE
  5
3A06
330
39FB
100
AcDbEntity
  8
0
100
AcDbSpline
210
0.0
220
0.0
230
1.0
 70
     8
 71
     3
 72
    14
 73
    10
 74
     0
 42
0.000000001
 43
0.0000000001
 40
-0.4670659331245567
 40
-0.4670659331245567
 40
-0.4670659331245567
 40
-0.4670659331245567
 40
-0.3560527166642708
 40
-0.3560527166642708
 40
-0.3560527166642708
 40
-0.0951806557323397
 40
-0.0951806557323397
 40
-0.0951806557323397
 40
0.0
 40
0.0
 40
0.0
 40
0.0
 10
0.9021219645787779
 20
0.6721791643926512
 30
0.0
 10
0.7918690191693419
 20
0.7683047111638241
 30
0.0
 10
0.6832372604296117
 20
0.8753680483221222
 30
0.0
 10
0.5816392089893654
 20
0.9938358887708481
 30
0.0
 10
0.3428920227445007
 20
1.272225711869707
 30
0.0
 10
0.1387372506126514
 20
1.618142361935473
 30
0.0
 10
0.0500360469878085
 20
2.030848570166948
 30
0.0
 10
0.0176729081560757
 20
2.181426778442494
 30
0.0
 10
0.0023146372580413
 20
2.336629005931857
 30
0.0
 10
0.0000000000038437
 20
2.499999999803141
 30
0.0
  0
LINE
  5
3A07
330
39FB
100
AcDbEntity
  8
0
100
AcDbLine
 10
4.000000000000003
 20
-2.0
 30
0.0
 11
1.999999999999992
 21
-2.0
 31
0.0
  0
SPLINE
  5
3A08
330
39FB
100
AcDbEntity
  8
0
100
AcDbSpline
210
0.0
220
0.0
230
1.0
 70
     8
 71
     3
 72
    20
 73
    16
 74
     0
 42
0.000000001
 43
0.0000000001
 40
0.014821754083114
 40
0.014821754083114
 40
0.014821754083114
 40
0.014821754083114
 40
0.0207171229931792
 40
0.0207171229931792
 40
0.0360250795648329
 40
0.0360250795648329
 40
0.0819247930123711
 40
0.0819247930123711
 40
0.2042616428561214
 40
0.2042616428561214
 40
0.3410354264479376
 40
0.3410354264479376
 40
0.4925238363964242
 40
0.4925238363964242
 40
0.5195476361040738
 40
0.5195476361040738
 40
0.5195476361040738
 40
0.5195476361040738
 10
2.00003800138889
 20
-1.997201795067885
 30
0.0
 10
2.00003800144675
 20
-1.997201801506164
 30
0.0
 10
2.000024312820082
 20
-1.995733077045031
 30
0.0
 10
1.99993597133921
 20
-1.987945468364263
 30
0.0
 10
1.999801191900001
 20
-1.97798123932952
 30
0.0
 10
1.999081022011181
 20
-1.936947153975752
 30
0.0
 10
1.99818565788367
 20
-1.901890977399549
 30
0.0
 10
1.990893432250965
 20
-1.723740039258089
 30
0.0
 10
1.979562519376407
 20
-1.533810027720461
 30
0.0
 10
1.908975155367269
 20
-1.049828287403577
 30
0.0
 10
1.842445757690508
 20
-0.7428826453370064
 30
0.0
 10
1.576043417785295
 20
-0.0977801339218503
 30
0.0
 10
1.350666776948539
 20
0.2414647579661703
 30
0.0
 10
1.010394206151213
 20
0.5754646387415639
 30
0.0
 10
0.9570139395278381
 20
0.6246631988247082
 30
0.0
 10
0.902097196090091
 20
0.6725606491826744
 30
0.0
  0
SPLINE
  5
3A09
330
39FB
100
AcDbEntity
  8
0
100
AcDbSpline
210
0.0
220
0.0
230
1.0
 70
     8
 71
     3
 72
    16
 73
    12
 74
     0
 42
0.000000001
 43
0.0000000001
 40
0.0645905802727781
 40
0.0645905802727781
 40
0.0645905802727781
 40
0.0645905802727781
 40
0.0672666451855874
 40
0.0672666451855874
 40
0.0712427404613009
 40
0.0712427404613009
 40
0.0756658617842636
 40
0.0756658617842636
 40
0.0793002258522683
 40
0.0793002258522683
 40
0.0825462384914501
 40
0.0825462384914501
 40
0.0825462384914501
 40
0.0825462384914501
 10
0.0026948478172622
 20
2.391066520538761
 30
0.0
 10
0.002243661479812
 20
2.399885455139842
 30
0.0
 10
0.0018490684674393
 20
2.408776486127132
 30
0.0
 10
0.0010129059864932
 20
2.430920010413524
 30
0.0
 10
0.000638992619544
 20
2.444412703025495
 30
0.0
 10
0.0001120424542945
 20
2.471510362740334
 30
0.0
 10
-0.0000197872877044
 20
2.485347598170168
 30
0.0
 10
-0.0001112945916689
 20
2.50689421165511
 30
0.0
 10
-0.0001029642344785
 20
2.515516026971614
 30
0.0
 10
-0.0000613784654063
 20
2.529360756502125
 30
0.0
 10
-0.0000308575137515
 20
2.534965678520192
 30
0.0
 10
0.0000000000000008
 20
2.539780965656472
 30
0.0
  0
SPLINE
  5
3A0A
330
39FB
100
AcDbEntity
  8
0
100
AcDbSpline
210
0.0
220
0.0
230
1.0
 70
     8
 71
     3
 72
    22
 73
    18
 74
     0
 42
0.000000001
 43
0.0000000001
 40
0.0
 40
0.0
 40
0.0
 40
0.0
 40
0.0056190447970354
 40
0.0056190447970354
 40
0.0067610909808092
 40
0.0067610909808092
 40
0.0074700057573379
 40
0.0074700057573379
 40
0.0084684720393909
 40
0.0084684720393909
 40
0.0093451376172754
 40
0.0093451376172754
 40
0.0104313097878219
 40
0.0104313097878219
 40
0.0121077509026738
 40
0.0121077509026738
 40
0.0139061623218634
 40
0.0139061623218634
 40
0.0139061623218634
 40
0.0139061623218634
 10
0.0023218306270001
 20
2.398909891628216
 30
0.0
 10
0.0017610021359941
 20
2.413912319413363
 30
0.0
 10
0.0012612705110653
 20
2.429930204723742
 30
0.0
 10
0.0007573186471903
 20
2.451767175987408
 30
0.0
 10
0.0006747201652241
 20
2.455592422909098
 30
0.0
 10
0.0005507474248355
 20
2.461760814235586
 30
0.0
 10
0.0005051327371055
 20
2.464139851825065
 30
0.0
 10
0.0004037342790634
 20
2.469669369430477
 30
0.0
 10
0.0003502883092992
 20
2.472802771524204
 30
0.0
 10
0.0002667666040342
 20
2.477960626996603
 30
0.0
 10
0.0002335121359548
 20
2.480134371349338
 30
0.0
 10
0.0001702189986782
 20
2.484414708440464
 30
0.0
 10
0.0001420672149341
 20
2.486430169929988
 30
0.0
 10
0.0000813870062998
 20
2.490895158086221
 30
0.0
 10
0.0000540880597731
 20
2.493035669754637
 30
0.0
 10
0.0000064035268533
 20
2.496849618927429
 30
0.0
 10
-0.0000132592635739
 20
2.49848169272965
 30
0.0
 10
-0.0000305586152485
 20
2.49993457230833
 30
0.0
  0
SPLINE
  5
3A0B
330
39FB
100
AcDbEntity
  8
0
100
AcDbSpline
210
0.0
220
0.0
230
1.0
 70
     8
 71
     3
 72
    10
 73
     6
 74
     0
 42
0.000000001
 43
0.0000000001
 40
0.0
 40
0.0
 40
0.0
 40
0.0
 40
0.0099216248314959
 40
0.0099216248314959
 40
0.0102359583174666
 40
0.0102359583174666
 40
0.0102359583174666
 40
0.0102359583174666
 10
2.000050866713835
 20
2.500000296623114
 30
0.0
 10
2.000075219974419
 20
2.489689897463145
 30
0.0
 10
2.000096799814538
 20
2.484842507557387
 30
0.0
 10
2.000098079083419
 20
2.484574693696682
 30
0.0
 10
2.00009809887562
 20
2.484570629669695
 30
0.0
 10
2.000098098875621
 20
2.484570629669665
 30
0.0
  0
SPLINE
  5
3A0C
330
39FB
100
AcDbEntity
  8
0
100
AcDbSpline
210
0.0
220
0.0
230
1.0
 70
     8
 71
     3
 72
    22
 73
    18
 74
     0
 42
0.000000001
 43
0.0000000001
 40
0.0
 40
0.0
 40
0.0
 40
0.0
 40
0.0082839337442383
 40
0.0082839337442383
 40
0.0122633636154405
 40
0.0122633636154405
 40
0.0144945741244192
 40
0.0144945741244192
 40
0.0176780532239708
 40
0.0176780532239708
 40
0.0207476365370487
 40
0.0207476365370487
 40
0.0235647585048204
 40
0.0235647585048204
 40
0.0271028616298632
 40
0.0271028616298632
 40
0.0280949458954015
 40
0.0280949458954015
 40
0.0280949458954015
 40
0.0280949458954015
 10
2.000159296791196
 20
2.500001433414896
 30
0.0
 10
2.000427877376039
 20
2.476523519246723
 30
0.0
 10
2.000725324991661
 20
2.450470412562
 30
0.0
 10
2.001169884266583
 20
2.41060409241318
 30
0.0
 10
2.001318298904572
 20
2.397163008824275
 30
0.0
 10
2.001544567169736
 20
2.37650200119815
 30
0.0
 10
2.001625540446887
 20
2.369074999375301
 30
0.0
 10
2.001813862143957
 20
2.351771524491946
 30
0.0
 10
2.001919803017434
 20
2.342013333168603
 30
0.0
 10
2.002105239893002
 20
2.325052911993577
 30
0.0
 10
2.002187322960552
 20
2.317614684574857
 30
0.0
 10
2.002312827253205
 20
2.306471725769043
 30
0.0
 10
2.002362098310138
 20
2.302216254987937
 30
0.0
 10
2.002448097302981
 20
2.294974140642957
 30
0.0
 10
2.002479283351523
 20
2.292517206047781
 30
0.0
 10
2.00249378619834
 20
2.291397992574442
 30
0.0
 10
2.002495421758579
 20
2.291275001290702
 30
0.0
 10
2.002495421758638
 20
2.29127500128624
 30
0.0
  0
LINE
  5
3A0D
330
39FB
100
AcDbEntity
  8
0
100
AcDbLine
 10
4.000000000000003
 20
-2.000000000000019
 30
0.0
 11
86.00000000000001
 21
-2.000000000000003
 31
0.0
  0
LINE
  5
3A0E
330
39FB
100
AcDbEntity
  8
0
100
AcDbLine
 10
86.00000000000001
 20
-2.000000000000004
 30
0.0
 11
86.00000000000001
 21
-1.380661846620814
 31
0.0
  0
SPLINE
  5
3A0F
330
39FB
100
AcDbEntity
  8
0
100
AcDbSpline
210
0.0
220
0.0
230
1.0
 70
     8
 71
     3
 72
     8
 73
     4
 74
     0
 42
0.000000001
 43
0.0000000001
 40
-1.0
 40
-1.0
 40
-1.0
 40
-1.0
 40
0.0
 40
0.0
 40
0.0
 40
0.0
 10
86.00000000000006
 20
-1.380661846620795
 30
0.0
 10
84.98145379013999
 20
-0.6630894493391776
 30
0.0
 10
83.96290758028076
 20
0.6575004639708091
 30
0.0
 10
82.94436137042049
 20
2.000000000000005
 30
0.0
  0
LINE
  5
3A10
330
39FB
100
AcDbEntity
  8
0
100
AcDbLine
 10
86.00000000000006
 20
0.3096690766896088
 30
0.0
 11
86.00000000000006
 21
-1.380661846620796
 31
0.0
  0
SPLINE
  5
3A11
330
39FB
100
AcDbEntity
  8
0
100
AcDbSpline
210
0.0
220
0.0
230
1.0
 70
     8
 71
     3
 72
     8
 73
     4
 74
     0
 42
0.000000001
 43
0.0000000001
 40
0.0
 40
0.0
 40
0.0
 40
0.0
 40
1.0
 40
1.0
 40
1.0
 40
1.0
 10
82.94436137042049
 20
2.000000000000005
 30
0.0
 10
83.96290758028076
 20
1.328750231985409
 30
0.0
 10
84.98145379013999
 20
0.6684552753304147
 30
0.0
 10
86.00000000000006
 20
0.3096690766896076
 30
0.0
  0
LINE
  5
3A12
330
39FB
100
AcDbEntity
  8
0
100
AcDbLine
 10
2.000000000000002
 20
60.0
 30
0.0
 11
4.000000000000003
 21
60.0
 31
0.0
  0
CIRCLE
  5
3A13
330
39FB
100
AcDbEntity
  8
0
100
AcDbCircle
 10
38.5
 20
34.99999999999999
 30
0.0
 40
2.5
  0
CIRCLE
  5
3A14
330
39FB
100
AcDbEntity
  8
0
100
AcDbCircle
 10
38.50000000000001
 20
54.99999999999999
 30
0.0
 40
2.5
  0
CIRCLE
  5
3A15
330
39FB
100
AcDbEntity
  8
0
100
AcDbCircle
 10
38.5
 20
14.99999999999998
 30
0.0
 40
2.5
  0
LINE
  5
3A16
330
39FB
100
AcDbEntity
  8
0
100
AcDbLine
 10
46.00000000000002
 20
32.99999999999999
 30
0.0
 11
46.00000000000002
 21
59.99999999999999
 31
0.0
  0
LINE
  5
3A17
330
39FB
100
AcDbEntity
  8
0
100
AcDbLine
 10
82.94436137042053
 20
2.000000000000001
 30
0.0
 11
46.00000000000002
 21
32.99999999999999
 31
0.0
  0
LINE
  5
3A18
330
39FB
100
AcDbEntity
  8
0
100
AcDbLine
 10
1.999999999999984
 20
32.99999999999999
 30
0.0
 11
2.000000000000002
 21
2.5
 31
0.0
  0
LINE
  5
3A19
330
39FB
100
AcDbEntity
  8
0
100
AcDbLine
 10
0.0
 20
32.99999999999999
 30
0.0
 11
1.999999999999984
 21
32.99999999999999
 31
0.0
  0
LINE
  5
3A1A
330
39FB
100
AcDbEntity
  8
0
100
AcDbLine
 10
0.0
 20
2.500000000000001
 30
0.0
 11
0.0
 21
32.99999999999999
 31
0.0
  0
LINE
  5
3A1B
330
39FB
100
AcDbEntity
  8
0
100
AcDbLine
 10
4.000000000000003
 20
60.0
 30
0.0
 11
46.00000000000002
 21
59.99999999999999
 31
0.0
  0
LINE
  5
3A1C
330
39FB
100
AcDbEntity
  8
0
100
AcDbLine
 10
0.0
 20
32.99999999999999
 30
0.0
 11
0.0
 21
60.0
 31
0.0
  0
LINE
  5
3A1D
330
39FB
100
AcDbEntity
  8
0
100
AcDbLine
 10
1.999999999999984
 20
32.99999999999999
 30
0.0
 11
2.000000000000019
 21
60.0
 31
0.0
  0
LINE
  5
3A1E
330
39FB
100
AcDbEntity
  8
0
100
AcDbLine
 10
0.0
 20
60.0
 30
0.0
 11
2.000000000000019
 21
60.0
 31
0.0
  0
ENDBLK
  5
39FD
330
39FB
100
AcDbEntity
  8
0
100
AcDbBlockEnd
  0
BLOCK
  5
3A20
330
3A1F
100
AcDbEntity
  8
0
100
AcDbBlockBegin
  2
SAE200_80_2-Right
 70
     0
 10
0.0
 20
0.0
 30
0.0
  3
SAE200_80_2-Right
  1

  0
LINE
  5
3A22
330
3A1F
100
AcDbEntity
  8
0
100
AcDbLine
 10
-1.999999999999992
 20
-2.0
 30
0.0
 11
-4.000000000000003
 21
-2.0
 31
0.0
  0
SPLINE
  5
3A23
330
3A1F
100
AcDbEntity
  8
0
100
AcDbSpline
210
0.0
220
0.0
230
1.0
 70
     8
 71
     3
 72
    14
 73
    10
 74
     0
 42
0.000000001
 43
0.0000000001
 40
-1.0
 40
-1.0
 40
-1.0
 40
-1.0
 40
-0.7449678209859472
 40
-0.7449678209859472
 40
-0.7449678209859472
 40
-0.2452853041078716
 40
-0.2452853041078716
 40
-0.2452853041078716
 40
0.0
 40
0.0
 40
0.0
 40
0.0
 10
-1.999999999999974
 20
-1.999999999999998
 30
0.0
 10
-2.000956247624914
 20
-1.999995572537501
 30
0.0
 10
-2.000627023485476
 20
-1.829432858343712
 30
0.0
 10
-2.000578498247573
 20
-1.537221955564952
 30
0.0
 10
-2.000483423135479
 20
-0.964695461362589
 30
0.0
 10
-1.997810278614428
 20
0.0462229055797453
 30
0.0
 10
-1.99870564412296
 20
1.059081690220402
 30
0.0
 10
-1.999145163204836
 20
1.556276141931694
 30
0.0
 10
-1.999150806629734
 20
2.052672141377628
 30
0.0
 10
-2.000000000000002
 20
2.499999999999952
 30
0.0
  0
SPLINE
  5
3A24
330
3A1F
100
AcDbEntity
  8
0
100
AcDbSpline
210
0.0
220
0.0
230
1.0
 70
     8
 71
     3
 72
    11
 73
     7
 74
     0
 42
0.000000001
 43
0.0000000001
 40
0.0
 40
0.0
 40
0.0
 40
0.0
 40
0.2570984672458163
 40
0.2570984672458163
 40
0.2570984672458163
 40
0.4673205148260104
 40
0.4673205148260104
 40
0.4673205148260104
 40
0.4673205148260104
 10
0.0000000000000008
 20
2.50000000000001
 30
0.0
 10
-0.0000118887917422
 20
2.057130670495857
 30
0.0
 10
-0.1276508531728482
 20
1.663888562417268
 30
0.0
 10
-0.3264773482038393
 20
1.340321336320962
 30
0.0
 10
-0.4890520743248033
 20
1.075749689790012
 30
0.0
 10
-0.6928492362057856
 20
0.8539626948484766
 30
0.0
 10
-0.9019983754329597
 20
0.6716427888455745
 30
0.0
  0
SPLINE
  5
3A25
330
3A1F
100
AcDbEntity
  8
0
100
AcDbSpline
210
0.0
220
0.0
230
1.0
 70
     8
 71
     3
 72
    16
 73
    12
 74
     0
 42
0.000000001
 43
0.0000000001
 40
0.0310833733581218
 40
0.0310833733581218
 40
0.0310833733581218
 40
0.0310833733581218
 40
0.0312068935738221
 40
0.0312068935738221
 40
0.0317751916617405
 40
0.0317751916617405
 40
0.0323335461372428
 40
0.0323335461372428
 40
0.0335375562706514
 40
0.0335375562706514
 40
0.0364774394220022
 40
0.0364774394220022
 40
0.0364774394220022
 40
0.0364774394220022
 10
-0.0000000000000099
 20
2.518438799478612
 30
0.0
 10
0.0000032337612358
 20
2.518042342136979
 30
0.0
 10
0.0000064431647656
 20
2.51763802437275
 30
0.0
 10
0.0000239251043077
 20
2.515364479346509
 30
0.0
 10
0.0000367699080206
 20
2.513413625345255
 30
0.0
 10
0.0000569019655592
 20
2.509725186214804
 30
0.0
 10
0.0000646911824821
 20
2.507932376195251
 30
0.0
 10
0.0000829565468435
 20
2.502389129193982
 30
0.0
 10
0.000086378859907
 20
2.498731640764261
 30
0.0
 10
0.0000704665736535
 20
2.486315990449248
 30
0.0
 10
0.000011265713868
 20
2.47773937798352
 30
0.0
 10
-0.0000970696616792
 20
2.469132714257604
 30
0.0
  0
SPLINE
  5
3A26
330
3A1F
100
AcDbEntity
  8
0
100
AcDbSpline
210
0.0
220
0.0
230
1.0
 70
     8
 71
     3
 72
    14
 73
    10
 74
     0
 42
0.000000001
 43
0.0000000001
 40
0.0
 40
0.0
 40
0.0
 40
0.0
 40
0.0944689999780515
 40
0.0944689999780515
 40
0.2510322454521598
 40
0.2510322454521598
 40
0.3937036748829843
 40
0.3937036748829843
 40
0.4932807360666822
 40
0.4932807360666822
 40
0.4932807360666822
 40
0.4932807360666822
 10
-0.9026631098154757
 20
0.6720669755811138
 30
0.0
 10
-1.094602075688561
 20
0.5045977934647681
 30
0.0
 10
-1.267965548379005
 20
0.3191263692885591
 30
0.0
 10
-1.644220816674838
 20
-0.2103811740899361
 30
0.0
 10
-1.789888479058707
 20
-0.5837396279471639
 30
0.0
 10
-1.945479285462228
 20
-1.220351039744407
 30
0.0
 10
-1.973659031165602
 20
-1.49513927818084
 30
0.0
 10
-1.996871903029659
 20
-1.830111426667431
 30
0.0
 10
-1.99928022649345
 20
-1.945981617886717
 30
0.0
 10
-1.999982952312094
 20
-1.995687420859821
 30
0.0
  0
SPLINE
  5
3A27
330
3A1F
100
AcDbEntity
  8
0
100
AcDbSpline
210
0.0
220
0.0
230
1.0
 70
     8
 71
     3
 72
     8
 73
     4
 74
     0
 42
0.000000001
 43
0.0000000001
 40
-1.0
 40
-1.0
 40
-1.0
 40
-1.0
 40
-0.9862270450562181
 40
-0.9862270450562181
 40
-0.9862270450562181
 40
-0.9862270450562181
 10
-1.999999999999972
 20
0.0000000000000434
 30
0.0
 10
-1.99972402175196
 20
0.0000901099201764
 30
0.0
 10
-1.999095629121756
 20
0.0003089196435968
 30
0.0
 10
-1.998123240361418
 20
0.0006582022994316
 30
0.0
  0
SPLINE
  5
3A28
330
3A1F
100
AcDbEntity
  8
0
100
AcDbSpline
210
0.0
220
0.0
230
1.0
 70
     8
 71
     3
 72
     8
 73
     4
 74
     0
 42
0.000000001
 43
0.0000000001
 40
-0.4721420683268236
 40
-0.4721420683268236
 40
-0.4721420683268236
 40
-0.4721420683268236
 40
-0.381510148414506
 40
-0.381510148414506
 40
-0.381510148414506
 40
-0.381510148414506
 10
-0.9172557302347744
 20
0.6590615596445497
 30
0.0
 10
-0.8271326998194625
 20
0.7367232561945937
 30
0.0
 10
-0.7379252651386315
 20
0.8216609814931771
 30
0.0
 10
-0.6525786550487602
 20
0.9141286978629439
 30
0.0
  0
SPLINE
  5
3A29
330
3A1F
100
AcDbEntity
  8
0
100
AcDbSpline
210
0.0
220
0.0
230
1.0
 70
     8
 71
     3
 72
    18
 73
    14
 74
     0
 42
0.000000001
 43
0.0000000001
 40
0.0
 40
0.0
 40
0.0
 40
0.0
 40
0.0000101217002881
 40
0.0000101217002881
 40
0.0000312943702781
 40
0.0000312943702781
 40
0.0002571362966454
 40
0.0002571362966454
 40
0.0026661549123551
 40
0.0026661549123551
 40
0.0079050818792289
 40
0.0079050818792289
 40
0.0079547209754607
 40
0.0079547209754607
 40
0.0079547209754607
 40
0.0079547209754607
 10
0.0002337834769412
 20
2.517363669431104
 30
0.0
 10
0.0002337124827336
 20
2.517357657259938
 30
0.0
 10
0.0002336415086945
 20
2.517351646658521
 30
0.0
 10
0.0002334221326899
 20
2.517333067864177
 30
0.0
 10
0.0002332737986887
 20
2.51732050496007
 30
0.0
 10
0.000231544256193
 20
2.517174017133274
 30
0.0
 10
0.0002299729279277
 20
2.517040860622958
 30
0.0
 10
0.0002117506389387
 20
2.515495864861869
 30
0.0
 10
0.0001961716698374
 20
2.514166816362521
 30
0.0
 10
0.0001479589850763
 20
2.510030261415225
 30
0.0
 10
0.0001175816003896
 20
2.50737579997015
 30
0.0
 10
0.0000777147759476
 20
2.503947197716768
 30
0.0
 10
0.000077339626299
 20
2.503914940239821
 30
0.0
 10
0.0000769635039463
 20
2.503882605272321
 30
0.0
  0
SPLINE
  5
3A2A
330
3A1F
100
AcDbEntity
  8
0
100
AcDbSpline
210
0.0
220
0.0
230
1.0
 70
     8
 71
     3
 72
     8
 73
     4
 74
     0
 42
0.000000001
 43
0.0000000001
 40
0.0
 40
0.0
 40
0.0
 40
0.0
 40
1.0
 40
1.0
 40
1.0
 40
1.0
 10
-82.94436137042049
 20
2.000000000000005
 30
0.0
 10
-83.96290758028076
 20
0.6575004639708091
 30
0.0
 10
-84.98145379013999
 20
-0.6630894493391776
 30
0.0
 10
-86.00000000000006
 20
-1.380661846620795
 30
0.0
  0
LINE
  5
3A2B
330
3A1F
100
AcDbEntity
  8
0
100
AcDbLine
 10
-86.00000000000001
 20
-2.000000000000004
 30
0.0
 11
-86.00000000000001
 21
-1.380661846620814
 31
0.0
  0
LINE
  5
3A2C
330
3A1F
100
AcDbEntity
  8
0
100
AcDbLine
 10
-4.000000000000003
 20
-2.0
 30
0.0
 11
-86.00000000000001
 21
-2.0
 31
0.0
  0
LINE
  5
3A2D
330
3A1F
100
AcDbEntity
  8
0
100
AcDbLine
 10
0.0
 20
32.99999999999999
 30
0.0
 11
0.0
 21
2.5
 31
0.0
  0
LINE
  5
3A2E
330
3A1F
100
AcDbEntity
  8
0
100
AcDbLine
 10
-1.999999999999984
 20
32.99999999999999
 30
0.0
 11
0.0
 21
32.99999999999999
 31
0.0
  0
LINE
  5
3A2F
330
3A1F
100
AcDbEntity
  8
0
100
AcDbLine
 10
-2.000000000000002
 20
2.5
 30
0.0
 11
-1.999999999999984
 21
32.99999999999999
 31
0.0
  0
LINE
  5
3A30
330
3A1F
100
AcDbEntity
  8
0
100
AcDbLine
 10
0.0
 20
32.99999999999999
 30
0.0
 11
0.0
 21
60.0
 31
0.0
  0
CIRCLE
  5
3A31
330
3A1F
100
AcDbEntity
  8
0
100
AcDbCircle
 10
-38.50000000000003
 20
44.99999999999999
 30
0.0
 40
2.5
  0
CIRCLE
  5
3A32
330
3A1F
100
AcDbEntity
  8
0
100
AcDbCircle
 10
-38.50000000000003
 20
24.99999999999998
 30
0.0
 40
2.5
  0
SPLINE
  5
3A33
330
3A1F
100
AcDbEntity
  8
0
100
AcDbSpline
210
0.0
220
0.0
230
1.0
 70
     8
 71
     3
 72
     8
 73
     4
 74
     0
 42
0.000000001
 43
0.0000000001
 40
-1.0
 40
-1.0
 40
-1.0
 40
-1.0
 40
0.0
 40
0.0
 40
0.0
 40
0.0
 10
-86.00000000000006
 20
0.3096690766896076
 30
0.0
 10
-84.98145379013999
 20
0.6684552753304147
 30
0.0
 10
-83.96290758028076
 20
1.328750231985409
 30
0.0
 10
-82.94436137042049
 20
2.000000000000005
 30
0.0
  0
LINE
  5
3A34
330
3A1F
100
AcDbEntity
  8
0
100
AcDbLine
 10
-86.00000000000006
 20
-1.380661846620796
 30
0.0
 11
-86.00000000000006
 21
0.3096690766896088
 31
0.0
  0
LINE
  5
3A35
330
3A1F
100
AcDbEntity
  8
0
100
AcDbLine
 10
-46.00000000000002
 20
59.99999999999999
 30
0.0
 11
-46.00000000000002
 21
32.99999999999999
 31
0.0
  0
LINE
  5
3A36
330
3A1F
100
AcDbEntity
  8
0
100
AcDbLine
 10
-46.00000000000002
 20
32.99999999999999
 30
0.0
 11
-82.94436137042053
 21
2.000000000000001
 31
0.0
  0
LINE
  5
3A37
330
3A1F
100
AcDbEntity
  8
0
100
AcDbLine
 10
-1.999999999999984
 20
32.99999999999999
 30
0.0
 11
-2.000000000000019
 21
60.0
 31
0.0
  0
LINE
  5
3A38
330
3A1F
100
AcDbEntity
  8
0
100
AcDbLine
 10
-2.000000000000002
 20
60.0
 30
0.0
 11
-4.000000000000003
 21
60.0
 31
0.0
  0
LINE
  5
3A39
330
3A1F
100
AcDbEntity
  8
0
100
AcDbLine
 10
0.0
 20
60.0
 30
0.0
 11
-2.000000000000019
 21
60.0
 31
0.0
  0
LINE
  5
3A3A
330
3A1F
100
AcDbEntity
  8
0
100
AcDbLine
 10
-4.000000000000003
 20
60.0
 30
0.0
 11
-46.00000000000002
 21
59.99999999999999
 31
0.0
  0
ENDBLK
  5
3A21
330
3A1F
100
AcDbEntity
  8
0
100
AcDbBlockEnd
  0
BLOCK
  5
3A3C
330
3A3B
100
AcDbEntity
  8
0
100
AcDbBlockBegin
  2
SAE200_80_2-Top
 70
     0
 10
0.0
 20
0.0
 30
0.0
  3
SAE200_80_2-Top
  1

  0
LINE
  5
3A3E
330
3A3B
100
AcDbEntity
  8
0
100
AcDbLine
 10
40.0
 20
-4.000000000000003
 30
0.0
 11
37.99999999999999
 21
-4.000000000000003
 31
0.0
  0
SPLINE
  5
3A3F
330
3A3B
100
AcDbEntity
  8
0
100
AcDbSpline
210
0.0
220
0.0
230
1.0
 70
     8
 71
     3
 72
    14
 73
    10
 74
     0
 42
0.000000001
 43
0.0000000001
 40
0.608805281611372
 40
0.608805281611372
 40
0.608805281611372
 40
0.608805281611372
 40
0.6921107472774066
 40
0.6921107472774066
 40
0.6921107472774066
 40
0.9732637669223764
 40
0.9732637669223764
 40
0.9732637669223764
 40
1.0
 40
1.0
 40
1.0
 40
1.0
 10
41.0299035263537
 20
-1.320623824979481
 30
0.0
 10
40.82685402067124
 20
-1.399920241178721
 30
0.0
 10
40.62119007345716
 20
-1.476266049615772
 30
0.0
 10
40.41261521601149
 20
-1.547429104121076
 30
0.0
 10
39.70868240051102
 20
-1.787601912728079
 30
0.0
 10
38.9657934603119
 20
-1.970325643760391
 30
0.0
 10
38.21454772452615
 20
-1.995959351998386
 30
0.0
 10
38.14310804688761
 20
-1.998396988268344
 30
0.0
 10
38.07164430074172
 20
-1.999468737174051
 30
0.0
 10
37.99999999999996
 20
-1.999999999999985
 30
0.0
  0
LINE
  5
3A40
330
3A3B
100
AcDbEntity
  8
0
100
AcDbLine
 10
38.00000000000001
 20
-4.000000000000003
 30
0.0
 11
38.00000000000001
 21
-1.999999999999992
 31
0.0
  0
SPLINE
  5
3A41
330
3A3B
100
AcDbEntity
  8
0
100
AcDbSpline
210
0.0
220
0.0
230
1.0
 70
     8
 71
     3
 72
    12
 73
     8
 74
     0
 42
0.000000001
 43
0.0000000001
 40
0.0
 40
0.0
 40
0.0
 40
0.0
 40
0.0801242447548188
 40
0.0801242447548188
 40
0.1675275782191838
 40
0.1675275782191838
 40
0.1754149903370398
 40
0.1754149903370398
 40
0.1754149903370398
 40
0.1754149903370398
 10
45.12570405022133
 20
-2.000024669088998
 30
0.0
 10
44.88544507199394
 20
-2.000199967442211
 30
0.0
 10
44.6603818275203
 20
-2.000553829280895
 30
0.0
 10
44.19856964097902
 20
-2.006060750351127
 30
0.0
 10
43.94839102115421
 20
-2.010042488472586
 30
0.0
 10
43.64712124793246
 20
-2.036209498160439
 30
0.0
 10
43.62173995342594
 20
-2.038587944855499
 30
0.0
 10
43.59609072888446
 20
-2.041210245915371
 30
0.0
  0
SPLINE
  5
3A42
330
3A3B
100
AcDbEntity
  8
0
100
AcDbSpline
210
0.0
220
0.0
230
1.0
 70
     8
 71
     3
 72
    10
 73
     6
 74
     0
 42
0.000000001
 43
0.0000000001
 40
0.0043004886905047
 40
0.0043004886905047
 40
0.0043004886905047
 40
0.0043004886905047
 40
0.0051358643436402
 40
0.0051358643436402
 40
0.006728336190171
 40
0.006728336190171
 40
0.006728336190171
 40
0.006728336190171
 10
42.00003984953197
 20
-3.993065592389144
 30
0.0
 10
42.00003984957148
 20
-3.993065589755431
 30
0.0
 10
42.00003840174487
 20
-3.993161938214692
 30
0.0
 10
42.00003018061601
 20
-3.993728655423704
 30
0.0
 10
42.00001967591825
 20
-3.99446372205092
 30
0.0
 10
42.00000489542553
 20
-3.995574881013963
 30
0.0
  0
SPLINE
  5
3A43
330
3A3B
100
AcDbEntity
  8
0
100
AcDbSpline
210
0.0
220
0.0
230
1.0
 70
     8
 71
     3
 72
    14
 73
    10
 74
     0
 42
0.000000001
 43
0.0000000001
 40
0.0746553400685929
 40
0.0746553400685929
 40
0.0746553400685929
 40
0.0746553400685929
 40
0.0777449502050829
 40
0.0777449502050829
 40
0.0835448110427948
 40
0.0835448110427948
 40
0.0879356549536048
 40
0.0879356549536048
 40
0.0925047519123023
 40
0.0925047519123023
 40
0.0925047519123023
 40
0.0925047519123023
 10
42.00726542750122
 20
-3.829679937857448
 30
0.0
 10
42.00662759760729
 20
-3.83998881744024
 30
0.0
 10
42.00603140930439
 20
-3.850307001316648
 30
0.0
 10
42.00443518991917
 20
-3.879857960664542
 30
0.0
 10
42.00353090497249
 20
-3.899151465906634
 30
0.0
 10
42.0021762118221
 20
-3.932312568824622
 30
0.0
 10
42.00166521776032
 20
-3.946454258443003
 30
0.0
 10
42.00077437444565
 20
-3.97416761064013
 30
0.0
 10
42.0003950028174
 20
-3.987929574618263
 30
0.0
 10
42.00010342630103
 20
-4.00000267034953
 30
0.0
  0
SPLINE
  5
3A44
330
3A3B
100
AcDbEntity
  8
0
100
AcDbSpline
210
0.0
220
0.0
230
1.0
 70
     8
 71
     3
 72
     8
 73
     4
 74
     0
 42
0.000000001
 43
0.0000000001
 40
0.0
 40
0.0
 40
0.0
 40
0.0
 40
0.0881660409072978
 40
0.0881660409072978
 40
0.0881660409072978
 40
0.0881660409072978
 10
42.98158473254608
 20
-0.1316298087170656
 30
0.0
 10
43.2656764983271
 20
-0.0564021507030602
 30
0.0
 10
43.56096464609729
 20
-0.0134146213665195
 30
0.0
 10
43.85376348392871
 20
-0.0026751557263868
 30
0.0
  0
SPLINE
  5
3A45
330
3A3B
100
AcDbEntity
  8
0
100
AcDbSpline
210
0.0
220
0.0
230
1.0
 70
     8
 71
     3
 72
     8
 73
     4
 74
     0
 42
0.000000001
 43
0.0000000001
 40
0.0
 40
0.0
 40
0.0
 40
0.0
 40
0.0468704485019783
 40
0.0468704485019783
 40
0.0468704485019783
 40
0.0468704485019783
 10
44.48563798902287
 20
0.0000010450881762
 30
0.0
 10
44.64186835539394
 20
-0.0000054430581083
 30
0.0
 10
44.79834837941829
 20
0.000129252381902
 30
0.0
 10
44.95434246770042
 20
0.000053073586791
 30
0.0
  0
SPLINE
  5
3A46
330
3A3B
100
AcDbEntity
  8
0
100
AcDbSpline
210
0.0
220
0.0
230
1.0
 70
     8
 71
     3
 72
    11
 73
     7
 74
     0
 42
0.000000001
 43
0.0000000001
 40
-1.0
 40
-1.0
 40
-1.0
 40
-1.0
 40
-0.7271198227864827
 40
-0.7271198227864827
 40
-0.7271198227864827
 40
-0.6085573609080881
 40
-0.6085573609080881
 40
-0.6085573609080881
 40
-0.6085573609080881
 10
-38.00000000000002
 20
-1.999999999999972
 30
0.0
 10
-38.73556135861017
 20
-1.994532110681235
 30
0.0
 10
-39.45744847362115
 20
-1.850725630613225
 30
0.0
 10
-40.14729585211497
 20
-1.634052695856892
 30
0.0
 10
-40.44702448887331
 20
-1.539911462039725
 30
0.0
 10
-40.74085898709459
 20
-1.43315723959755
 30
0.0
 10
-41.02958366411379
 20
-1.320383545566344
 30
0.0
  0
LINE
  5
3A47
330
3A3B
100
AcDbEntity
  8
0
100
AcDbLine
 10
-38.00000000000001
 20
-1.999999999999992
 30
0.0
 11
-38.00000000000001
 21
-4.000000000000003
 31
0.0
  0
SPLINE
  5
3A48
330
3A3B
100
AcDbEntity
  8
0
100
AcDbSpline
210
0.0
220
0.0
230
1.0
 70
     8
 71
     3
 72
    28
 73
    24
 74
     0
 42
0.000000001
 43
0.0000000001
 40
0.0151256058053352
 40
0.0151256058053352
 40
0.0151256058053352
 40
0.0151256058053352
 40
0.0152550026953512
 40
0.0152550026953512
 40
0.0155047710621217
 40
0.0155047710621217
 40
0.0158966838224636
 40
0.0158966838224636
 40
0.0162414791891341
 40
0.0162414791891341
 40
0.0166253317966143
 40
0.0166253317966143
 40
0.0171815208444404
 40
0.0171815208444404
 40
0.0180757125622661
 40
0.0180757125622661
 40
0.0197049453208816
 40
0.0197049453208816
 40
0.0232917987178442
 40
0.0232917987178442
 40
0.0274065185254096
 40
0.0274065185254096
 40
0.0294703504824277
 40
0.0294703504824277
 40
0.0294703504824277
 40
0.0294703504824277
 10
-40.00102762596051
 20
-3.871955721531197
 30
0.0
 10
-40.00102762596049
 20
-3.871955721532082
 30
0.0
 10
-40.00102718820495
 20
-3.871974843149524
 30
0.0
 10
-40.00102449333635
 20
-3.872092326650047
 30
0.0
 10
-40.00102087544056
 20
-3.872249802287464
 30
0.0
 10
-40.0010064117548
 20
-3.872880361029954
 30
0.0
 10
-40.00099226205382
 20
-3.873497492733521
 30
0.0
 10
-40.00095813447326
 20
-3.875005282188059
 30
0.0
 10
-40.00093878142727
 20
-3.875867367265151
 30
0.0
 10
-40.00089523682854
 20
-3.877838986036789
 30
0.0
 10
-40.00087039980924
 20
-3.87898121811716
 30
0.0
 10
-40.00080905706906
 20
-3.881863380333488
 30
0.0
 10
-40.0007718338099
 20
-3.883664161022077
 30
0.0
 10
-40.0006773777688
 20
-3.888397559439011
 30
0.0
 10
-40.00062095105323
 20
-3.891391908613449
 30
0.0
 10
-40.0004726523618
 20
-3.899773959679912
 30
0.0
 10
-40.00038833399686
 20
-3.905175161877502
 30
0.0
 10
-40.00015362199565
 20
-3.922108660278631
 30
0.0
 10
-40.00004439584642
 20
-3.933209089273459
 30
0.0
 10
-39.99986774348779
 20
-3.955689733223227
 30
0.0
 10
-39.99980357764825
 20
-3.967309955117787
 30
0.0
 10
-39.99972843224032
 20
-3.986166269583297
 30
0.0
 10
-39.99970745655037
 20
-3.992721120205721
 30
0.0
 10
-39.99969138132332
 20
-3.99942452076287
 30
0.0
  0
SPLINE
  5
3A49
330
3A3B
100
AcDbEntity
  8
0
100
AcDbSpline
210
0.0
220
0.0
230
1.0
 70
     8
 71
     3
 72
    26
 73
    22
 74
     0
 42
0.000000001
 43
0.0000000001
 40
0.1622300586446624
 40
0.1622300586446624
 40
0.1622300586446624
 40
0.1622300586446624
 40
0.1645042418503333
 40
0.1645042418503333
 40
0.2035746603711274
 40
0.2035746603711274
 40
0.2409950486438738
 40
0.2409950486438738
 40
0.2595053649300595
 40
0.2595053649300595
 40
0.2847419776521579
 40
0.2847419776521579
 40
0.3069069568531277
 40
0.3069069568531277
 40
0.3349232100859271
 40
0.3349232100859271
 40
0.3682602934322017
 40
0.3682602934322017
 40
0.4173373422928221
 40
0.4173373422928221
 40
0.4496633840089663
 40
0.4496633840089663
 40
0.4496633840089663
 40
0.4496633840089663
 10
-42.72722791614193
 20
-2.457258536710871
 30
0.0
 10
-42.73252061918648
 20
-2.452927877055677
 30
0.0
 10
-42.73784280095279
 20
-2.448619627950801
 30
0.0
 10
-42.83506795497484
 20
-2.370761608489443
 30
0.0
 10
-42.93338934605201
 20
-2.306731319908727
 30
0.0
 10
-43.10181440201552
 20
-2.214718099049576
 30
0.0
 10
-43.18532147157455
 20
-2.176693646664568
 30
0.0
 10
-43.3378055276995
 20
-2.123888513942903
 30
0.0
 10
-43.39225734140167
 20
-2.107536601932308
 30
0.0
 10
-43.52730532880022
 20
-2.073457925469467
 30
0.0
 10
-43.61211375512584
 20
-2.05711703579095
 30
0.0
 10
-43.76832569588978
 20
-2.034499720230325
 30
0.0
 10
-43.84179537410482
 20
-2.026837161690305
 30
0.0
 10
-44.00157414274348
 20
-2.014337549651597
 30
0.0
 10
-44.08808196127151
 20
-2.010521155525607
 30
0.0
 10
-44.26194379711277
 20
-2.005244320613243
 30
0.0
 10
-44.3460536458911
 20
-2.004252693558345
 30
0.0
 10
-44.56147489449678
 20
-2.002286384786273
 30
0.0
 10
-44.7127964997682
 20
-2.001450895748151
 30
0.0
 10
-44.9544590718888
 20
-2.000316128964045
 30
0.0
 10
-45.04683368151123
 20
-2.000116790562112
 30
0.0
 10
-45.13615739329594
 20
-2.00001950582979
 30
0.0
  0
SPLINE
  5
3A4A
330
3A3B
100
AcDbEntity
  8
0
100
AcDbSpline
210
0.0
220
0.0
230
1.0
 70
     8
 71
     3
 72
     8
 73
     4
 74
     0
 42
0.000000001
 43
0.0000000001
 40
-1.0
 40
-1.0
 40
-1.0
 40
-1.0
 40
0.0
 40
0.0
 40
0.0
 40
0.0
 10
-40.13801905482676
 20
-86.00000000000006
 30
0.0
 10
-41.27265329496674
 20
-84.98145379013999
 30
0.0
 10
-41.99999999999997
 20
-83.96290758028076
 30
0.0
 10
-41.99999999999997
 20
-82.94436137042049
 30
0.0
  0
LINE
  5
3A4B
330
3A3B
100
AcDbEntity
  8
0
100
AcDbLine
 10
-39.06900952741337
 20
-86.00000000000006
 30
0.0
 11
-40.13801905482675
 21
-86.00000000000006
 31
0.0
  0
SPLINE
  5
3A4C
330
3A3B
100
AcDbEntity
  8
0
100
AcDbSpline
210
0.0
220
0.0
230
1.0
 70
     8
 71
     3
 72
     8
 73
     4
 74
     0
 42
0.000000001
 43
0.0000000001
 40
0.0
 40
0.0
 40
0.0
 40
0.0
 40
1.0
 40
1.0
 40
1.0
 40
1.0
 10
-39.99999999999997
 20
-82.94436137042049
 30
0.0
 10
-39.99999999999997
 20
-83.96290758028076
 30
0.0
 10
-39.63632664748337
 20
-84.98145379013999
 30
0.0
 10
-39.06900952741337
 20
-86.00000000000006
 30
0.0
  0
LINE
  5
3A4D
330
3A3B
100
AcDbEntity
  8
0
100
AcDbLine
 10
-39.06900952741338
 20
-86.00000000000001
 30
0.0
 11
-37.99999999999999
 21
-86.00000000000001
 31
0.0
  0
SPLINE
  5
3A4E
330
3A3B
100
AcDbEntity
  8
0
100
AcDbSpline
210
0.0
220
0.0
230
1.0
 70
     8
 71
     3
 72
     8
 73
     4
 74
     0
 42
0.000000001
 43
0.0000000001
 40
0.0
 40
0.0
 40
0.0
 40
0.0
 40
1.0
 40
1.0
 40
1.0
 40
1.0
 10
41.99999999999997
 20
-82.94436137042049
 30
0.0
 10
41.99999999999997
 20
-83.96290758028076
 30
0.0
 10
41.27265329496674
 20
-84.98145379013999
 30
0.0
 10
40.13801905482676
 20
-86.00000000000006
 30
0.0
  0
LINE
  5
3A4F
330
3A3B
100
AcDbEntity
  8
0
100
AcDbLine
 10
44.0
 20
0.0
 30
0.0
 11
81.5
 21
0.0
 31
0.0
  0
ARC
  5
3A50
330
3A3B
100
AcDbEntity
  8
0
100
AcDbCircle
 10
44.0
 20
-4.000000000000004
 30
0.0
 40
4.000000000000003
100
AcDbArc
 50
90.0
 51
180.0
  0
LINE
  5
3A51
330
3A3B
100
AcDbEntity
  8
0
100
AcDbLine
 10
41.99999999999997
 20
-82.94436137042053
 30
0.0
 11
40.5464790894711
 21
-82.94436137042053
 31
0.0
  0
LINE
  5
3A52
330
3A3B
100
AcDbEntity
  8
0
100
AcDbLine
 10
40.5464790894711
 20
-82.94436137042053
 30
0.0
 11
39.99999999999997
 21
-82.94436137042053
 31
0.0
  0
SPLINE
  5
3A53
330
3A3B
100
AcDbEntity
  8
0
100
AcDbSpline
210
0.0
220
0.0
230
1.0
 70
     8
 71
     3
 72
     8
 73
     4
 74
     0
 42
0.000000001
 43
0.0000000001
 40
-1.0
 40
-1.0
 40
-1.0
 40
-1.0
 40
0.0
 40
0.0
 40
0.0
 40
0.0
 10
39.06900952741337
 20
-86.00000000000006
 30
0.0
 10
39.63632664748337
 20
-84.98145379013999
 30
0.0
 10
39.99999999999997
 20
-83.96290758028076
 30
0.0
 10
39.99999999999997
 20
-82.94436137042049
 30
0.0
  0
LINE
  5
3A54
330
3A3B
100
AcDbEntity
  8
0
100
AcDbLine
 10
40.13801905482675
 20
-86.00000000000006
 30
0.0
 11
39.06900952741337
 21
-86.00000000000006
 31
0.0
  0
LINE
  5
3A55
330
3A3B
100
AcDbEntity
  8
0
100
AcDbLine
 10
39.99999999999996
 20
-46.00000000000002
 30
0.0
 11
41.99999999999998
 21
-46.00000000000002
 31
0.0
  0
LINE
  5
3A56
330
3A3B
100
AcDbEntity
  8
0
100
AcDbLine
 10
39.99999999999997
 20
-82.94436137042053
 30
0.0
 11
39.99999999999997
 21
-46.00000000000002
 31
0.0
  0
LINE
  5
3A57
330
3A3B
100
AcDbEntity
  8
0
100
AcDbLine
 10
41.99999999999998
 20
-46.00000000000002
 30
0.0
 11
41.99999999999997
 21
-82.94436137042053
 31
0.0
  0
LINE
  5
3A58
330
3A3B
100
AcDbEntity
  8
0
100
AcDbLine
 10
39.99999999999996
 20
-46.00000000000002
 30
0.0
 11
40.0
 21
-4.000000000000003
 31
0.0
  0
LINE
  5
3A59
330
3A3B
100
AcDbEntity
  8
0
100
AcDbLine
 10
81.5
 20
-2.000000000000019
 30
0.0
 11
44.0
 21
-2.000000000000001
 31
0.0
  0
LINE
  5
3A5A
330
3A3B
100
AcDbEntity
  8
0
100
AcDbLine
 10
39.06900952741338
 20
-86.00000000000001
 30
0.0
 11
37.99999999999999
 21
-86.00000000000001
 31
0.0
  0
ARC
  5
3A5B
330
3A3B
100
AcDbEntity
  8
0
100
AcDbCircle
 10
44.0
 20
-4.000000000000004
 30
0.0
 40
2.000000000000001
100
AcDbArc
 50
90.0
 51
180.0
  0
LINE
  5
3A5C
330
3A3B
100
AcDbEntity
  8
0
100
AcDbLine
 10
81.5
 20
0.0
 30
0.0
 11
81.5
 21
-2.000000000000019
 31
0.0
  0
LINE
  5
3A5D
330
3A3B
100
AcDbEntity
  8
0
100
AcDbLine
 10
42.0
 20
-4.000000000000003
 30
0.0
 11
41.99999999999998
 21
-46.00000000000002
 31
0.0
  0
ARC
  5
3A5E
330
3A3B
100
AcDbEntity
  8
0
100
AcDbCircle
 10
-44.0
 20
-4.000000000000004
 30
0.0
 40
2.000000000000001
100
AcDbArc
 50
0.0
 51
90.0
  0
ARC
  5
3A5F
330
3A3B
100
AcDbEntity
  8
0
100
AcDbCircle
 10
-44.0
 20
-4.000000000000004
 30
0.0
 40
4.000000000000003
100
AcDbArc
 50
0.0
 51
90.0
  0
CIRCLE
  5
3A60
330
3A3B
100
AcDbEntity
  8
0
100
AcDbCircle
 10
0.0
 20
-68.0
 30
0.0
 40
2.5
  0
CIRCLE
  5
3A61
330
3A3B
100
AcDbEntity
  8
0
100
AcDbCircle
 10
0.0
 20
-48.0
 30
0.0
 40
2.5
  0
LINE
  5
3A62
330
3A3B
100
AcDbEntity
  8
0
100
AcDbLine
 10
38.00000000000001
 20
-1.999999999999984
 30
0.0
 11
-38.00000000000001
 21
-1.999999999999992
 31
0.0
  0
LINE
  5
3A63
330
3A3B
100
AcDbEntity
  8
0
100
AcDbLine
 10
-37.99999999999999
 20
-86.00000000000001
 30
0.0
 11
37.99999999999997
 21
-86.00000000000001
 31
0.0
  0
LINE
  5
3A64
330
3A3B
100
AcDbEntity
  8
0
100
AcDbLine
 10
-41.99999999999997
 20
-82.94436137042053
 30
0.0
 11
-40.5464790894711
 21
-82.94436137042053
 31
0.0
  0
LINE
  5
3A65
330
3A3B
100
AcDbEntity
  8
0
100
AcDbLine
 10
-40.5464790894711
 20
-82.94436137042053
 30
0.0
 11
-39.99999999999997
 21
-82.94436137042053
 31
0.0
  0
LINE
  5
3A66
330
3A3B
100
AcDbEntity
  8
0
100
AcDbLine
 10
-41.99999999999998
 20
-46.00000000000002
 30
0.0
 11
-39.99999999999996
 21
-46.00000000000002
 31
0.0
  0
LINE
  5
3A67
330
3A3B
100
AcDbEntity
  8
0
100
AcDbLine
 10
-39.99999999999997
 20
-46.00000000000002
 30
0.0
 11
-39.99999999999997
 21
-82.94436137042053
 31
0.0
  0
LINE
  5
3A68
330
3A3B
100
AcDbEntity
  8
0
100
AcDbLine
 10
-41.99999999999997
 20
-82.94436137042053
 30
0.0
 11
-41.99999999999998
 21
-46.00000000000002
 31
0.0
  0
LINE
  5
3A69
330
3A3B
100
AcDbEntity
  8
0
100
AcDbLine
 10
-39.99999999999996
 20
-46.00000000000002
 30
0.0
 11
-40.0
 21
-4.000000000000003
 31
0.0
  0
LINE
  5
3A6A
330
3A3B
100
AcDbEntity
  8
0
100
AcDbLine
 10
-42.0
 20
-4.000000000000003
 30
0.0
 11
-41.99999999999998
 21
-46.00000000000002
 31
0.0
  0
LINE
  5
3A6B
330
3A3B
100
AcDbEntity
  8
0
100
AcDbLine
 10
-44.0
 20
0.0
 30
0.0
 11
-81.5
 21
0.0
 31
0.0
  0
LINE
  5
3A6C
330
3A3B
100
AcDbEntity
  8
0
100
AcDbLine
 10
-81.5
 20
-2.000000000000019
 30
0.0
 11
-44.0
 21
-2.000000000000001
 31
0.0
  0
LINE
  5
3A6D
330
3A3B
100
AcDbEntity
  8
0
100
AcDbLine
 10
-81.5
 20
0.0
 30
0.0
 11
-81.5
 21
-2.000000000000019
 31
0.0
  0
ENDBLK
  5
3A3D
330
3A3B
100
AcDbEntity
  8
0
100
AcDbBlockEnd
  0
BLOCK
  5
3A6F
330
3A6E
100
AcDbEntity
  8
0
100
AcDbBlockBegin
  2
SAE200_80_2-Bottom
 70
     0
 10
0.0
 20
0.0
 30
0.0
  3
SAE200_80_2-Bottom
  1

  0
LINE
  5
3A71
330
3A6E
100
AcDbEntity
  8
0
100
AcDbLine
 10
45.12570405022121
 20
2.000000000000002
 30
0.0
 11
45.15151542587664
 21
2.000000000000002
 31
0.0
  0
ARC
  5
3A72
330
3A6E
100
AcDbEntity
  8
0
100
AcDbCircle
 10
44.0
 20
4.000000000000004
 30
0.0
 40
2.000000000000001
100
AcDbArc
 50
184.7461747631118
 51
258.3571101684726
  0
ARC
  5
3A73
330
3A6E
100
AcDbEntity
  8
0
100
AcDbCircle
 10
44.0
 20
4.000000000000004
 30
0.0
 40
2.000000000000001
100
AcDbArc
 50
269.1331692926986
 51
269.8193240124475
  0
LINE
  5
3A74
330
3A6E
100
AcDbEntity
  8
0
100
AcDbLine
 10
37.99999999999999
 20
4.000000000000003
 30
0.0
 11
42.00000000000001
 21
4.000000000000003
 31
0.0
  0
LINE
  5
3A75
330
3A6E
100
AcDbEntity
  8
0
100
AcDbLine
 10
38.00000000000001
 20
1.999999999999992
 30
0.0
 11
38.00000000000001
 21
4.000000000000003
 31
0.0
  0
SPLINE
  5
3A76
330
3A6E
100
AcDbEntity
  8
0
100
AcDbSpline
210
0.0
220
0.0
230
1.0
 70
     8
 71
     3
 72
    14
 73
    10
 74
     0
 42
0.000000001
 43
0.0000000001
 40
-1.0
 40
-1.0
 40
-1.0
 40
-1.0
 40
-0.7449678209859472
 40
-0.7449678209859472
 40
-0.7449678209859472
 40
-0.2452853041078716
 40
-0.2452853041078716
 40
-0.2452853041078716
 40
0.0
 40
0.0
 40
0.0
 40
0.0
 10
37.99999999999999
 20
1.999999999999974
 30
0.0
 10
38.76207906009054
 20
2.000956247624914
 30
0.0
 10
39.47820723142397
 20
2.000627023485476
 30
0.0
 10
40.13297833646499
 20
2.000578498247573
 30
0.0
 10
41.41586614697895
 20
2.000483423135479
 30
0.0
 10
42.50820224838121
 20
1.997810278614428
 30
0.0
 10
43.57696483739302
 20
1.99870564412296
 30
0.0
 10
44.10160147727939
 20
1.999145163204836
 30
0.0
 10
44.62209394668136
 20
1.999150806629734
 30
0.0
 10
45.15151542587668
 20
2.000000000000002
 30
0.0
  0
ARC
  5
3A77
330
3A6E
100
AcDbEntity
  8
0
100
AcDbCircle
 10
44.0
 20
4.000000000000004
 30
0.0
 40
4.000000000000002
100
AcDbArc
 50
267.9048487209048
 51
270.0
  0
ARC
  5
3A78
330
3A6E
100
AcDbEntity
  8
0
100
AcDbCircle
 10
44.0
 20
4.000000000000004
 30
0.0
 40
4.000000000000002
100
AcDbArc
 50
222.0537744266958
 51
255.2505763488252
  0
LINE
  5
3A79
330
3A6E
100
AcDbEntity
  8
0
100
AcDbLine
 10
44.48563798902258
 20
0.0
 30
0.0
 11
44.31846420516616
 21
0.0
 31
0.0
  0
LINE
  5
3A7A
330
3A6E
100
AcDbEntity
  8
0
100
AcDbLine
 10
44.17039221931783
 20
0.0
 30
0.0
 11
44.0
 21
0.0
 31
0.0
  0
LINE
  5
3A7B
330
3A6E
100
AcDbEntity
  8
0
100
AcDbLine
 10
45.15151542587664
 20
0.0
 30
0.0
 11
44.63176502129532
 21
0.0
 31
0.0
  0
SPLINE
  5
3A7C
330
3A6E
100
AcDbEntity
  8
0
100
AcDbSpline
210
0.0
220
0.0
230
1.0
 70
     8
 71
     3
 72
    17
 73
    13
 74
     0
 42
0.000000001
 43
0.0000000001
 40
0.0
 40
0.0
 40
0.0
 40
0.0
 40
0.2570984672458163
 40
0.2570984672458163
 40
0.2570984672458163
 40
0.6921107472774066
 40
0.6921107472774066
 40
0.6921107472774066
 40
0.9732637669223764
 40
0.9732637669223764
 40
0.9732637669223764
 40
1.0
 40
1.0
 40
1.0
 40
1.0
 10
45.15151542587669
 20
-0.0000000000000008
 30
0.0
 10
44.61958610031712
 20
0.0000118887917422
 30
0.0
 10
44.05900364639241
 20
0.1276508531728482
 30
0.0
 10
43.48417138187506
 20
0.3264773482038393
 30
0.0
 10
42.51155144873353
 20
0.6628930719561889
 30
0.0
 10
41.50177093429828
 20
1.175823203513448
 30
0.0
 10
40.41261521601149
 20
1.547429104121076
 30
0.0
 10
39.70868240051102
 20
1.787601912728079
 30
0.0
 10
38.9657934603119
 20
1.970325643760391
 30
0.0
 10
38.21454772452615
 20
1.995959351998386
 30
0.0
 10
38.14310804688761
 20
1.998396988268344
 30
0.0
 10
38.07164430074172
 20
1.999468737174051
 30
0.0
 10
37.99999999999996
 20
1.999999999999985
 30
0.0
  0
SPLINE
  5
3A7D
330
3A6E
100
AcDbEntity
  8
0
100
AcDbSpline
210
0.0
220
0.0
230
1.0
 70
     8
 71
     3
 72
    28
 73
    24
 74
     0
 42
0.000000001
 43
0.0000000001
 40
0.1066619498785445
 40
0.1066619498785445
 40
0.1066619498785445
 40
0.1066619498785445
 40
0.1100360259828177
 40
0.1100360259828177
 40
0.1135138527307244
 40
0.1135138527307244
 40
0.1169962214790642
 40
0.1169962214790642
 40
0.1204786239276583
 40
0.1204786239276583
 40
0.1275432731899169
 40
0.1275432731899169
 40
0.1345198634954278
 40
0.1345198634954278
 40
0.143566253136415
 40
0.143566253136415
 40
0.1586400638829123
 40
0.1586400638829123
 40
0.1856498878051893
 40
0.1856498878051893
 40
0.2405795542317218
 40
0.2405795542317218
 40
0.3273871103719755
 40
0.3273871103719755
 40
0.3273871103719755
 40
0.3273871103719755
 10
43.24451208482837
 20
2.095782235707964
 30
0.0
 10
43.24451208995462
 20
2.095782234474047
 30
0.0
 10
43.24543066922415
 20
2.095560229078543
 30
0.0
 10
43.24946747263465
 20
2.094613193073251
 30
0.0
 10
43.25268580051111
 20
2.09386522132002
 30
0.0
 10
43.26154797970146
 20
2.091867731479558
 30
0.0
 10
43.26725882362809
 20
2.090604197183048
 30
0.0
 10
43.28085001064536
 20
2.087701088745061
 30
0.0
 10
43.28881821548757
 20
2.086043965989447
 30
0.0
 10
43.31532076296196
 20
2.080739194942168
 30
0.0
 10
43.33679576832332
 20
2.076719054059084
 30
0.0
 10
43.38075250481122
 20
2.069154902463453
 30
0.0
 10
43.40378368232161
 20
2.065490226989961
 30
0.0
 10
43.45651675070979
 20
2.057712609530239
 30
0.0
 10
43.48664097467471
 20
2.053708491442038
 30
0.0
 10
43.56581299611602
 20
2.044102356834487
 30
0.0
 10
43.61473035048918
 20
2.039117856476194
 30
0.0
 10
43.74811132520182
 20
2.027291705686065
 30
0.0
 10
43.831081209738
 20
2.021967808534111
 30
0.0
 10
44.07599803535922
 20
2.009526013517883
 30
0.0
 10
44.23207403022502
 20
2.006065171619303
 30
0.0
 10
44.62428126403735
 20
2.000503252880061
 30
0.0
 10
44.86540462643879
 20
2.000214589401935
 30
0.0
 10
45.12570405022121
 20
2.000024669088998
 30
0.0
  0
SPLINE
  5
3A7E
330
3A6E
100
AcDbEntity
  8
0
100
AcDbSpline
210
0.0
220
0.0
230
1.0
 70
     8
 71
     3
 72
    24
 73
    20
 74
     0
 42
0.000000001
 43
0.0000000001
 40
0.0
 40
0.0
 40
0.0
 40
0.0
 40
0.0042622956216063
 40
0.0042622956216063
 40
0.0094791366070105
 40
0.0094791366070105
 40
0.0179692099836542
 40
0.0179692099836542
 40
0.0297468247441916
 40
0.0297468247441916
 40
0.0344356050566688
 40
0.0344356050566688
 40
0.0370107903683516
 40
0.0370107903683516
 40
0.0387780084667131
 40
0.0387780084667131
 40
0.0417187090550067
 40
0.0417187090550067
 40
0.0428614973201791
 40
0.0428614973201791
 40
0.0428614973201791
 40
0.0428614973201791
 10
42.00010342630104
 20
4.00000267034953
 30
0.0
 10
42.00037542431733
 20
3.988740247263465
 30
0.0
 10
42.00072375167187
 20
3.976002087106311
 30
0.0
 10
42.00164401980228
 20
3.946852736423906
 30
0.0
 10
42.00225594524142
 20
3.929970653093408
 30
0.0
 10
42.00413346685919
 20
3.885216073645336
 30
0.0
 10
42.00558782609521
 20
3.856644805175175
 30
0.0
 10
42.00977997285201
 20
3.78925397588581
 30
0.0
 10
42.01294882909667
 20
3.749118056682554
 30
0.0
 10
42.01779639125954
 20
3.699484668315568
 30
0.0
 10
42.0192403496699
 20
3.68588071650824
 30
0.0
 10
42.02128177006653
 20
3.66781027007814
 30
0.0
 10
42.0219731184384
 20
3.66192872473251
 30
0.0
 10
42.02297624288141
 20
3.65361458164446
 30
0.0
 10
42.02334207432122
 20
3.650651466110268
 30
0.0
 10
42.02414155611971
 20
3.644260420955938
 30
0.0
 10
42.02445362824913
 20
3.641858851079124
 30
0.0
 10
42.02464624870382
 20
3.640378587668781
 30
0.0
 10
42.02467342371775
 20
3.640171711763268
 30
0.0
 10
42.02467342478644
 20
3.640171703620114
 30
0.0
  0
SPLINE
  5
3A7F
330
3A6E
100
AcDbEntity
  8
0
100
AcDbSpline
210
0.0
220
0.0
230
1.0
 70
     8
 71
     3
 72
    10
 73
     6
 74
     0
 42
0.000000001
 43
0.0000000001
 40
0.0
 40
0.0
 40
0.0
 40
0.0
 40
0.0669910873742747
 40
0.0669910873742747
 40
0.0882698312464109
 40
0.0882698312464109
 40
0.0882698312464109
 40
0.0882698312464109
 10
43.85376348392887
 20
0.0026751557263817
 30
0.0
 10
43.63128652651536
 20
0.0108353098361374
 30
0.0
 10
43.40722481383475
 20
0.0370168908076614
 30
0.0
 10
43.11921269466483
 20
0.0971022249876814
 30
0.0
 10
43.05014986101122
 20
0.1134737244615759
 30
0.0
 10
42.9815847325555
 20
0.1316298087145748
 30
0.0
  0
SPLINE
  5
3A80
330
3A6E
100
AcDbEntity
  8
0
100
AcDbSpline
210
0.0
220
0.0
230
1.0
 70
     8
 71
     3
 72
     8
 73
     4
 74
     0
 42
0.000000001
 43
0.0000000001
 40
0.0
 40
0.0
 40
0.0
 40
0.0
 40
0.014807198656391
 40
0.014807198656391
 40
0.014807198656391
 40
0.014807198656391
 10
44.31846420516616
 20
0.0000208641010497
 30
0.0
 10
44.26911403515044
 20
0.000031572398365
 30
0.0
 10
44.21960858559458
 20
-0.0000047694146912
 30
0.0
 10
44.17039221931783
 20
0.0000063080469406
 30
0.0
  0
SPLINE
  5
3A81
330
3A6E
100
AcDbEntity
  8
0
100
AcDbSpline
210
0.0
220
0.0
230
1.0
 70
     8
 71
     3
 72
     8
 73
     4
 74
     0
 42
0.000000001
 43
0.0000000001
 40
0.0
 40
0.0
 40
0.0
 40
0.0
 40
0.014612703285574
 40
0.014612703285574
 40
0.014612703285574
 40
0.014612703285574
 10
44.63176502129532
 20
-0.0000063209013724
 30
0.0
 10
44.58305625989587
 20
0.0000075096914261
 30
0.0
 10
44.53434560887564
 20
0.0000009777078404
 30
0.0
 10
44.48563798902258
 20
-0.0000010450881762
 30
0.0
  0
SPLINE
  5
3A82
330
3A6E
100
AcDbEntity
  8
0
100
AcDbSpline
210
0.0
220
0.0
230
1.0
 70
     8
 71
     3
 72
    11
 73
     7
 74
     0
 42
0.000000001
 43
0.0000000001
 40
-1.0
 40
-1.0
 40
-1.0
 40
-1.0
 40
-0.7377948218382766
 40
-0.7377948218382766
 40
-0.7377948218382766
 40
-0.0000000000108152
 40
-0.0000000000108152
 40
-0.0000000000108152
 40
-0.0000000000108152
 10
-37.99999999999999
 20
2.000000000000072
 30
0.0
 10
-38.78267819509526
 20
2.00095654687908
 30
0.0
 10
-39.51739623611704
 20
2.000566205922634
 30
0.0
 10
-40.1882725908448
 20
2.000377581138866
 30
0.0
 10
-42.07598931739754
 20
1.999846827361583
 30
0.0
 10
-43.55676115321203
 20
2.001506891966174
 30
0.0
 10
-45.15151542565344
 20
2.000000000000471
 30
0.0
  0
SPLINE
  5
3A83
330
3A6E
100
AcDbEntity
  8
0
100
AcDbSpline
210
0.0
220
0.0
230
1.0
 70
     8
 71
     3
 72
    17
 73
    13
 74
     0
 42
0.000000001
 43
0.0000000001
 40
-1.0
 40
-1.0
 40
-1.0
 40
-1.0
 40
-0.7271198227864827
 40
-0.7271198227864827
 40
-0.7271198227864827
 40
-0.3560527166642708
 40
-0.3560527166642708
 40
-0.3560527166642708
 40
-0.0951806557323397
 40
-0.0951806557323397
 40
-0.0951806557323397
 40
0.0
 40
0.0
 40
0.0
 40
0.0
 10
-38.00000000000002
 20
1.999999999999972
 30
0.0
 10
-38.73556135861017
 20
1.994532110681235
 30
0.0
 10
-39.45744847362115
 20
1.850725630613225
 30
0.0
 10
-40.14729585211497
 20
1.634052695856892
 30
0.0
 10
-41.08536205031817
 20
1.339417154000989
 30
0.0
 10
-41.96569435635051
 20
0.9212356654984382
 30
0.0
 10
-42.8123368167533
 20
0.5816392089893654
 30
0.0
 10
-43.40755358448536
 20
0.3428920227445007
 30
0.0
 10
-43.99436962889168
 20
0.1387372506126514
 30
0.0
 10
-44.54993052077193
 20
0.0500360469878085
 30
0.0
 10
-44.75263007318663
 20
0.0176729081560757
 30
0.0
 10
-44.95529584102555
 20
0.0023146372580413
 30
0.0
 10
-45.15151542616716
 20
0.0000000000038437
 30
0.0
  0
LINE
  5
3A84
330
3A6E
100
AcDbEntity
  8
0
100
AcDbLine
 10
-44.0
 20
0.0
 30
0.0
 11
-45.15151542587664
 21
0.0
 31
0.0
  0
ARC
  5
3A85
330
3A6E
100
AcDbEntity
  8
0
100
AcDbCircle
 10
-44.0
 20
4.000000000000004
 30
0.0
 40
4.000000000000002
100
AcDbArc
 50
288.9333448167469
 51
317.9313945597873
  0
ARC
  5
3A86
330
3A6E
100
AcDbEntity
  8
0
100
AcDbCircle
 10
-44.0
 20
4.000000000000004
 30
0.0
 40
4.000000000000002
100
AcDbArc
 50
272.0866470120902
 51
273.7023504989102
  0
ARC
  5
3A87
330
3A6E
100
AcDbEntity
  8
0
100
AcDbCircle
 10
-44.0
 20
4.000000000000004
 30
0.0
 40
4.000000000000002
100
AcDbArc
 50
270.0
 51
270.3726930832707
  0
LINE
  5
3A88
330
3A6E
100
AcDbEntity
  8
0
100
AcDbLine
 10
-38.00000000000001
 20
4.000000000000003
 30
0.0
 11
-38.00000000000001
 21
1.999999999999992
 31
0.0
  0
ARC
  5
3A89
330
3A6E
100
AcDbEntity
  8
0
100
AcDbCircle
 10
-44.0
 20
4.000000000000004
 30
0.0
 40
2.000000000000001
100
AcDbArc
 50
312.1074988216356
 51
355.5417827272488
  0
ARC
  5
3A8A
330
3A6E
100
AcDbEntity
  8
0
100
AcDbCircle
 10
-44.0
 20
4.000000000000004
 30
0.0
 40
2.000000000000001
100
AcDbArc
 50
356.6950004156434
 51
0.0
  0
SPLINE
  5
3A8B
330
3A6E
100
AcDbEntity
  8
0
100
AcDbSpline
210
0.0
220
0.0
230
1.0
 70
     8
 71
     3
 72
     8
 73
     4
 74
     0
 42
0.000000001
 43
0.0000000001
 40
0.0
 40
0.0
 40
0.0
 40
0.0
 40
0.1060185370367822
 40
0.1060185370367822
 40
0.1060185370367822
 40
0.1060185370367822
 10
-42.70212814815761
 20
0.2164132566585393
 30
0.0
 10
-43.03640340713797
 20
0.1017478366941412
 30
0.0
 10
-43.38915438129158
 20
0.0316261067973154
 30
0.0
 10
-43.74171213907233
 20
0.0084273307513234
 30
0.0
  0
SPLINE
  5
3A8C
330
3A6E
100
AcDbEntity
  8
0
100
AcDbSpline
210
0.0
220
0.0
230
1.0
 70
     8
 71
     3
 72
     8
 73
     4
 74
     0
 42
0.000000001
 43
0.0000000001
 40
0.0
 40
0.0
 40
0.0
 40
0.0
 40
0.0119651148871803
 40
0.0119651148871803
 40
0.0119651148871803
 40
0.0119651148871803
 10
-43.85435675958453
 20
0.0026524313835486
 30
0.0
 10
-43.89420638989769
 20
0.0012000021522834
 30
0.0
 10
-43.93421066242756
 20
0.0004522017342253
 30
0.0
 10
-43.97398171681524
 20
0.0001490275769386
 30
0.0
  0
SPLINE
  5
3A8D
330
3A6E
100
AcDbEntity
  8
0
100
AcDbSpline
210
0.0
220
0.0
230
1.0
 70
     8
 71
     3
 72
    38
 73
    34
 74
     0
 42
0.000000001
 43
0.0000000001
 40
0.0000143096149483
 40
0.0000143096149483
 40
0.0000143096149483
 40
0.0000143096149483
 40
0.0000507804886672
 40
0.0000507804886672
 40
0.0000980671657045
 40
0.0000980671657045
 40
0.000160419782188
 40
0.000160419782188
 40
0.0002539917746925
 40
0.0002539917746925
 40
0.0004125421473455
 40
0.0004125421473455
 40
0.0007113357096268
 40
0.0007113357096268
 40
0.0013259509626376
 40
0.0013259509626376
 40
0.0026354159211972
 40
0.0026354159211972
 40
0.0038475542792892
 40
0.0038475542792892
 40
0.0040634151727672
 40
0.0040634151727672
 40
0.0041816653918451
 40
0.0041816653918451
 40
0.0042264616586644
 40
0.0042264616586644
 40
0.0042688677739168
 40
0.0042688677739168
 40
0.0042928749761809
 40
0.0042928749761809
 40
0.0043130092894057
 40
0.0043130092894057
 40
0.0043218675502097
 40
0.0043218675502097
 40
0.0043218675502097
 40
0.0043218675502097
 10
-42.00605544564993
 20
3.844528892272176
 30
0.0
 10
-42.00605544563325
 20
3.844528892484669
 30
0.0
 10
-42.00605419081088
 20
3.844544874921054
 30
0.0
 10
-42.00604900170143
 20
3.844610993886339
 30
0.0
 10
-42.00604434908453
 20
3.844670289671824
 30
0.0
 10
-42.00603110480859
 20
3.844839226804126
 30
0.0
 10
-42.00602165625449
 20
3.84495984000976
 30
0.0
 10
-42.00599569576123
 20
3.845291707697476
 30
0.0
 10
-42.00597783907695
 20
3.845520374125135
 30
0.0
 10
-42.00592737795131
 20
3.846168172146901
 30
0.0
 10
-42.00589277518139
 20
3.846614024880792
 30
0.0
 10
-42.00579072115418
 20
3.847935093619809
 30
0.0
 10
-42.00572051064408
 20
3.848851288793873
 30
0.0
 10
-42.00550494579682
 20
3.851690713119304
 30
0.0
 10
-42.00535690036814
 20
3.853677051455703
 30
0.0
 10
-42.00490026649302
 20
3.859931062756754
 30
0.0
 10
-42.00459543630098
 20
3.864292773484603
 30
0.0
 10
-42.00403739310155
 20
3.872673213692478
 30
0.0
 10
-42.00377757053367
 20
3.876762807586731
 30
0.0
 10
-42.00349487990663
 20
3.88143288245339
 30
0.0
 10
-42.00345263128034
 20
3.882137202313895
 30
0.0
 10
-42.00339010907243
 20
3.883188412499161
 30
0.0
 10
-42.00336828843673
 20
3.883557142871088
 30
0.0
 10
-42.00334090614179
 20
3.88402179636596
 30
0.0
 10
-42.00333364049926
 20
3.88414530452251
 30
0.0
 10
-42.00332073948884
 20
3.88436491111839
 30
0.0
 10
-42.00331494292107
 20
3.884463739844089
 30
0.0
 10
-42.00330788605237
 20
3.884584158834796
 30
0.0
 10
-42.0033057312796
 20
3.884620952982428
 30
0.0
 10
-42.00330288260844
 20
3.884669608002095
 30
0.0
 10
-42.00330199745909
 20
3.88468473210918
 30
0.0
 10
-42.0033014118777
 20
3.884694737638071
 30
0.0
 10
-42.00330132268968
 20
3.884696261640733
 30
0.0
 10
-42.00330132269519
 20
3.884696261546549
 30
0.0
  0
SPLINE
  5
3A8E
330
3A6E
100
AcDbEntity
  8
0
100
AcDbSpline
210
0.0
220
0.0
230
1.0
 70
     8
 71
     3
 72
    18
 73
    14
 74
     0
 42
0.000000001
 43
0.0000000001
 40
0.011933030578135
 40
0.011933030578135
 40
0.011933030578135
 40
0.011933030578135
 40
0.0131863524667507
 40
0.0131863524667507
 40
0.0148242176583606
 40
0.0148242176583606
 40
0.0166935665330038
 40
0.0166935665330038
 40
0.0188712643026493
 40
0.0188712643026493
 40
0.0214817993426678
 40
0.0214817993426678
 40
0.0245824970936757
 40
0.0245824970936757
 40
0.0245824970936757
 40
0.0245824970936757
 10
-42.00138787416396
 20
3.908243065568515
 30
0.0
 10
-42.001387874165
 20
3.90824306553945
 30
0.0
 10
-42.00136839367932
 20
3.908782062772337
 30
0.0
 10
-42.00128894030876
 20
3.91109453151097
 30
0.0
 10
-42.00121762623769
 20
3.913222897397196
 30
0.0
 10
-42.00103901166844
 20
3.91905667805505
 30
0.0
 10
-42.00092662934536
 20
3.923001772619214
 30
0.0
 10
-42.00068683064305
 20
3.932650369878476
 30
0.0
 10
-42.00055793009883
 20
3.938634207101833
 30
0.0
 10
-42.00031483440517
 20
3.952585743504335
 30
0.0
 10
-42.0002062758839
 20
3.96084076584459
 30
0.0
 10
-42.00004305902311
 20
3.979252815371301
 30
0.0
 10
-41.9999999999997
 20
3.989664369747105
 30
0.0
 10
-41.9999999999997
 20
4.000000000000022
 30
0.0
  0
SPLINE
  5
3A8F
330
3A6E
100
AcDbEntity
  8
0
100
AcDbSpline
210
0.0
220
0.0
230
1.0
 70
     8
 71
     3
 72
    30
 73
    26
 74
     0
 42
0.000000001
 43
0.0000000001
 40
0.0118573710454732
 40
0.0118573710454732
 40
0.0118573710454732
 40
0.0118573710454732
 40
0.0118825154996846
 40
0.0118825154996846
 40
0.0121880366630918
 40
0.0121880366630918
 40
0.012790968670345
 40
0.012790968670345
 40
0.0139284288568369
 40
0.0139284288568369
 40
0.0173385887228152
 40
0.0173385887228152
 40
0.0198977798646074
 40
0.0198977798646074
 40
0.0216914832235729
 40
0.0216914832235729
 40
0.02281434774193
 40
0.02281434774193
 40
0.0234542360044918
 40
0.0234542360044918
 40
0.0237668219921504
 40
0.0237668219921504
 40
0.0240690951667348
 40
0.0240690951667348
 40
0.0245304339268054
 40
0.0245304339268054
 40
0.0245304339268054
 40
0.0245304339268054
 10
-42.00166234115222
 20
3.917391933670278
 30
0.0
 10
-42.00166234121165
 20
3.917391932242333
 30
0.0
 10
-42.00166225506861
 20
3.917394002033902
 30
0.0
 10
-42.00166010104805
 20
3.917445763821294
 30
0.0
 10
-42.00164724473137
 20
3.917754640623167
 30
0.0
 10
-42.00160155673849
 20
3.918862940675727
 30
0.0
 10
-42.0015603293307
 20
3.919875805812941
 30
0.0
 10
-42.00144114508169
 20
3.922875050401967
 30
0.0
 10
-42.00135941453569
 20
3.925014021465727
 30
0.0
 10
-42.00104896439921
 20
3.933541668367886
 30
0.0
 10
-42.00084861392404
 20
3.939974208630605
 30
0.0
 10
-42.00056320843839
 20
3.950865354133262
 30
0.0
 10
-42.00046099990262
 20
3.955283672796488
 30
0.0
 10
-42.00028249608758
 20
3.964929723856487
 30
0.0
 10
-42.00021243204703
 20
3.96936117002313
 30
0.0
 10
-42.00011753059661
 20
3.977335917976049
 30
0.0
 10
-42.0000849465047
 20
3.980648143096161
 30
0.0
 10
-42.00004487798089
 20
3.986212267219346
 30
0.0
 10
-42.00003240977359
 20
3.988354849393209
 30
0.0
 10
-42.0000186842698
 20
3.991529732210048
 30
0.0
 10
-42.00001489794042
 20
3.992580375260118
 30
0.0
 10
-42.00000905556723
 20
3.994573914677619
 30
0.0
 10
-42.00000690808219
 20
3.995532359011876
 30
0.0
 10
-42.00000314721278
 20
3.997773915358719
 30
0.0
 10
-42.00000233743928
 20
3.998991565904414
 30
0.0
 10
-42.00000223143686
 20
3.999999992128588
 30
0.0
  0
SPLINE
  5
3A90
330
3A6E
100
AcDbEntity
  8
0
100
AcDbSpline
210
0.0
220
0.0
230
1.0
 70
     8
 71
     3
 72
    38
 73
    34
 74
     0
 42
0.000000001
 43
0.0000000001
 40
0.0
 40
0.0
 40
0.0
 40
0.0
 40
0.0390391476113984
 40
0.0390391476113984
 40
0.0846710497845892
 40
0.0846710497845892
 40
0.1173007917939225
 40
0.1173007917939225
 40
0.144114595335821
 40
0.144114595335821
 40
0.1607652249887988
 40
0.1607652249887988
 40
0.1749696731726062
 40
0.1749696731726062
 40
0.1999976731673398
 40
0.1999976731673398
 40
0.2217980496497991
 40
0.2217980496497991
 40
0.250554824083108
 40
0.250554824083108
 40
0.2883699741062613
 40
0.2883699741062613
 40
0.2969752141317852
 40
0.2969752141317852
 40
0.3034381577419543
 40
0.3034381577419543
 40
0.3053904181973068
 40
0.3053904181973068
 40
0.306367135880925
 40
0.306367135880925
 40
0.30735211678058
 40
0.30735211678058
 40
0.3078113302628997
 40
0.3078113302628997
 40
0.3078113302628997
 40
0.3078113302628997
 10
-45.13615739329589
 20
2.000019505829789
 30
0.0
 10
-45.02828394562235
 20
2.0001369935525
 30
0.0
 10
-44.9151071820933
 20
2.000446969333678
 30
0.0
 10
-44.66177899444772
 20
2.001797591334798
 30
0.0
 10
-44.52572466260144
 20
2.002511613357753
 30
0.0
 10
-44.32282851483146
 20
2.004557376369224
 30
0.0
 10
-44.23902065556965
 20
2.005688296836768
 30
0.0
 10
-44.06801828204987
 20
2.011398140101604
 30
0.0
 10
-43.98473338521095
 20
2.015387841728721
 30
0.0
 10
-43.84581103273164
 20
2.026725287962304
 30
0.0
 10
-43.79113087548129
 20
2.032292654326993
 30
0.0
 10
-43.68960199844638
 20
2.045521028759377
 30
0.0
 10
-43.64241579971206
 20
2.052808902609158
 30
0.0
 10
-43.51422036526161
 20
2.076356600528019
 30
0.0
 10
-43.43332388292893
 20
2.095744456920143
 30
0.0
 10
-43.29744421073546
 20
2.136696118771374
 30
0.0
 10
-43.23858974420101
 20
2.158017121768017
 30
0.0
 10
-43.11517303843501
 20
2.209342995137091
 30
0.0
 10
-43.05414750911487
 20
2.239540318738931
 30
0.0
 10
-42.90583420070908
 20
2.324223381321929
 30
0.0
 10
-42.80897592763789
 20
2.389819062271917
 30
0.0
 10
-42.70144968722615
 20
2.478499703801758
 30
0.0
 10
-42.68190616987403
 20
2.495291713632256
 30
0.0
 10
-42.64891500651061
 20
2.524766737792279
 30
0.0
 10
-42.63497087451266
 20
2.537619998273114
 30
0.0
 10
-42.61874333176589
 20
2.552968932438677
 30
0.0
 10
-42.61510471530367
 20
2.556440567091255
 30
0.0
 10
-42.61027970757949
 20
2.561074316021471
 30
0.0
 10
-42.60876985812349
 20
2.562529921374256
 30
0.0
 10
-42.60619602987829
 20
2.565017536266129
 30
0.0
 10
-42.60511096726273
 20
2.566070032703919
 30
0.0
 10
-42.60429504296738
 20
2.566862051885105
 30
0.0
 10
-42.60415035518064
 20
2.567002624703322
 30
0.0
 10
-42.60415035485617
 20
2.567002625018506
 30
0.0
  0
LINE
  5
3A91
330
3A6E
100
AcDbEntity
  8
0
100
AcDbLine
 10
-37.99999999999999
 20
86.00000000000001
 30
0.0
 11
-40.13801905482676
 21
86.00000000000001
 31
0.0
  0
SPLINE
  5
3A92
330
3A6E
100
AcDbEntity
  8
0
100
AcDbSpline
210
0.0
220
0.0
230
1.0
 70
     8
 71
     3
 72
     8
 73
     4
 74
     0
 42
0.000000001
 43
0.0000000001
 40
-1.0
 40
-1.0
 40
-1.0
 40
-1.0
 40
0.0
 40
0.0
 40
0.0
 40
0.0
 10
-40.13801905482676
 20
86.00000000000006
 30
0.0
 10
-41.27265329496674
 20
84.98145379013999
 30
0.0
 10
-41.99999999999997
 20
83.96290758028076
 30
0.0
 10
-41.99999999999997
 20
82.94436137042049
 30
0.0
  0
LINE
  5
3A93
330
3A6E
100
AcDbEntity
  8
0
100
AcDbLine
 10
-41.99999999999999
 20
4.000000000000003
 30
0.0
 11
-41.99999999999997
 21
82.94436137042053
 31
0.0
  0
LINE
  5
3A94
330
3A6E
100
AcDbEntity
  8
0
100
AcDbLine
 10
41.99999999999997
 20
82.94436137042053
 30
0.0
 11
41.99999999999999
 21
4.000000000000003
 31
0.0
  0
SPLINE
  5
3A95
330
3A6E
100
AcDbEntity
  8
0
100
AcDbSpline
210
0.0
220
0.0
230
1.0
 70
     8
 71
     3
 72
     8
 73
     4
 74
     0
 42
0.000000001
 43
0.0000000001
 40
0.0
 40
0.0
 40
0.0
 40
0.0
 40
1.0
 40
1.0
 40
1.0
 40
1.0
 10
41.99999999999997
 20
82.94436137042049
 30
0.0
 10
41.99999999999997
 20
83.96290758028076
 30
0.0
 10
41.27265329496674
 20
84.98145379013999
 30
0.0
 10
40.13801905482676
 20
86.00000000000006
 30
0.0
  0
LINE
  5
3A96
330
3A6E
100
AcDbEntity
  8
0
100
AcDbLine
 10
37.99999999999999
 20
86.00000000000001
 30
0.0
 11
40.13801905482676
 21
86.00000000000001
 31
0.0
  0
LINE
  5
3A97
330
3A6E
100
AcDbEntity
  8
0
100
AcDbLine
 10
81.50000000000005
 20
0.0
 30
0.0
 11
45.15151542587664
 21
0.0
 31
0.0
  0
LINE
  5
3A98
330
3A6E
100
AcDbEntity
  8
0
100
AcDbLine
 10
81.50000000000005
 20
1.999999999999984
 30
0.0
 11
81.50000000000005
 21
0.0
 31
0.0
  0
LINE
  5
3A99
330
3A6E
100
AcDbEntity
  8
0
100
AcDbLine
 10
45.15151542587664
 20
2.000000000000002
 30
0.0
 11
81.50000000000005
 21
1.999999999999984
 31
0.0
  0
CIRCLE
  5
3A9A
330
3A6E
100
AcDbEntity
  8
0
100
AcDbCircle
 10
0.0
 20
48.0
 30
0.0
 40
2.5
  0
CIRCLE
  5
3A9B
330
3A6E
100
AcDbEntity
  8
0
100
AcDbCircle
 10
0.0
 20
68.0
 30
0.0
 40
2.5
  0
LINE
  5
3A9C
330
3A6E
100
AcDbEntity
  8
0
100
AcDbLine
 10
38.00000000000001
 20
1.999999999999984
 30
0.0
 11
-38.00000000000001
 21
1.999999999999992
 31
0.0
  0
LINE
  5
3A9D
330
3A6E
100
AcDbEntity
  8
0
100
AcDbLine
 10
37.99999999999998
 20
86.00000000000001
 30
0.0
 11
-37.99999999999999
 21
86.00000000000001
 31
0.0
  0
LINE
  5
3A9E
330
3A6E
100
AcDbEntity
  8
0
100
AcDbLine
 10
-81.50000000000005
 20
1.999999999999984
 30
0.0
 11
-45.15151542587664
 21
2.000000000000002
 31
0.0
  0
LINE
  5
3A9F
330
3A6E
100
AcDbEntity
  8
0
100
AcDbLine
 10
-81.50000000000005
 20
0.0
 30
0.0
 11
-81.50000000000005
 21
1.999999999999984
 31
0.0
  0
LINE
  5
3AA0
330
3A6E
100
AcDbEntity
  8
0
100
AcDbLine
 10
-45.15151542587664
 20
0.0
 30
0.0
 11
-81.50000000000005
 21
0.0
 31
0.0
  0
ENDBLK
  5
3A70
330
3A6E
100
AcDbEntity
  8
0
100
AcDbBlockEnd
  0
BLOCK
  5
3AA2
330
3AA1
100
AcDbEntity
  8
0
100
AcDbBlockBegin
  2
SAE200_80_2-ISO
 70
     0
 10
0.0
 20
0.0
 30
0.0
  3
SAE200_80_2-ISO
  1

  0
LINE
  5
3AA4
330
3AA1
100
AcDbEntity
  8
0
100
AcDbLine
 10
60.10477971751161
 20
-22.85801293922283
 30
0.0
 11
60.91902408378988
 21
-23.32811714327974
 31
0.0
  0
ELLIPSE
  5
3AA5
330
3AA1
100
AcDbEntity
  8
0
100
AcDbEllipse
 10
58.6905661551385
 20
-23.67450952015056
 30
0.0
 11
2.0
 21
-0.0000000000001189
 31
0.0
210
0.0
220
0.0
230
1.0
 40
0.5773502691896259
 41
0.785398163397689
 42
2.356194490192581
  0
LINE
  5
3AA6
330
3AA1
100
AcDbEntity
  8
0
100
AcDbLine
 10
57.2763525927654
 20
-23.26626122968669
 30
0.0
 11
57.2763525927654
 21
-22.85801293922283
 31
0.0
  0
ELLIPSE
  5
3AA7
330
3AA1
100
AcDbEntity
  8
0
100
AcDbEllipse
 10
54.44792546801922
 20
-21.63326806783125
 30
0.0
 11
2.0
 21
-3.464101615137757
 31
0.0
210
0.0
220
0.0
230
0.9999999999999998
 40
0.5773502691896257
 41
0.0
 42
0.7853981633974492
  0
SPLINE
  5
3AA8
330
3AA1
100
AcDbEntity
  8
0
100
AcDbSpline
210
0.0
220
0.0
230
1.0
 70
     8
 71
     3
 72
    11
 73
     7
 74
     0
 42
0.000000001
 43
0.0000000001
 40
-0.6185285630380634
 40
-0.6185285630380634
 40
-0.6185285630380634
 40
-0.6185285630380634
 40
-0.2452853041078716
 40
-0.2452853041078716
 40
-0.2452853041078716
 40
0.0
 40
0.0
 40
0.0
 40
0.0
 10
58.03496025429992
 20
-24.54162603425596
 30
0.0
 10
58.66780110059024
 20
-24.43893734692934
 30
0.0
 10
59.24253669540847
 20
-24.15283206525118
 30
0.0
 10
59.80656393316977
 20
-23.86128601203958
 30
0.0
 10
60.1772272719691
 20
-23.66968988642319
 30
0.0
 10
60.54526703613575
 20
-23.47687671484062
 30
0.0
 10
60.91902408378992
 20
-23.3281171432798
 30
0.0
  0
SPLINE
  5
3AA9
330
3AA1
100
AcDbEntity
  8
0
100
AcDbSpline
210
0.0
220
0.0
230
1.0
 70
     8
 71
     3
 72
    14
 73
    10
 74
     0
 42
0.000000001
 43
0.0000000001
 40
0.0
 40
0.0
 40
0.0
 40
0.0
 40
0.035837029448167
 40
0.035837029448167
 40
0.0693075200195777
 40
0.0693075200195777
 40
0.1091078522704357
 40
0.1091078522704357
 40
0.2022327931983153
 40
0.2022327931983153
 40
0.2022327931983153
 40
0.2022327931983153
 10
58.03385521970049
 20
-24.54117447443997
 30
0.0
 10
57.91603888371586
 20
-24.55994814008926
 30
0.0
 10
57.79627113460168
 20
-24.58448195692317
 30
0.0
 10
57.58075771353365
 20
-24.63785798799829
 30
0.0
 10
57.4822619127126
 20
-24.66656885333796
 30
0.0
 10
57.28299506402819
 20
-24.73182537595214
 30
0.0
 10
57.18287164804046
 20
-24.76943018130072
 30
0.0
 10
56.85691253969871
 20
-24.90236997682659
 30
0.0
 10
56.63641878456934
 20
-25.00986238447578
 30
0.0
 10
56.40617510989463
 20
-25.121474263471
 30
0.0
  0
SPLINE
  5
3AAA
330
3AA1
100
AcDbEntity
  8
0
100
AcDbSpline
210
0.0
220
0.0
230
1.0
 70
     8
 71
     3
 72
    11
 73
     7
 74
     0
 42
0.000000001
 43
0.0000000001
 40
-1.0
 40
-1.0
 40
-1.0
 40
-1.0
 40
-0.7271198227864827
 40
-0.7271198227864827
 40
-0.7271198227864827
 40
-0.6562525631103612
 40
-0.6562525631103612
 40
-0.6562525631103612
 40
-0.6562525631103612
 10
2.122023660214731
 20
8.577105426494675
 30
0.0
 10
1.605769617178753
 20
8.881087062507779
 30
0.0
 10
1.197004880137955
 20
9.277212517448358
 30
0.0
 10
0.8624200222870026
 20
9.742514987426829
 30
0.0
 10
0.7755279942652438
 20
9.863354512322413
 30
0.0
 10
0.6933113888586373
 20
9.988449605489357
 30
0.0
 10
0.6146561444890386
 20
10.11739295035272
 30
0.0
  0
ELLIPSE
  5
3AAB
330
3AA1
100
AcDbEntity
  8
0
100
AcDbEllipse
 10
-3.534830589277668
 20
12.25134004066939
 30
0.0
 11
4.000000000000002
 21
-0.0000000000000006
 31
0.0
210
0.0
220
0.0
230
1.0
 40
0.5773502691896259
 41
5.497787143782137
 42
6.282626177689087
  0
ELLIPSE
  5
3AAC
330
3AA1
100
AcDbEntity
  8
0
100
AcDbEllipse
 10
-3.534830589277668
 20
12.25134004066939
 30
0.0
 11
4.000000000000001
 21
0.0
 31
0.0
210
0.0
220
0.0
230
1.0
 40
0.577350269189626
 41
6.282626177689087
 42
6.283185307179586
  0
LINE
  5
3AAD
330
3AA1
100
AcDbEntity
  8
0
100
AcDbLine
 10
-0.7064034645314754
 20
10.61834687881394
 30
0.0
 11
-0.7064034645314754
 21
10.21009858835007
 31
0.0
  0
ELLIPSE
  5
3AAE
330
3AA1
100
AcDbEntity
  8
0
100
AcDbEllipse
 10
0.7078100978416125
 20
9.39360200742235
 30
0.0
 11
1.000000000000103
 21
-1.732050807568819
 31
0.0
210
0.0
220
0.0
230
1.0
 40
0.5773502691896257
 41
3.926990816987
 42
5.497787143781905
  0
LINE
  5
3AAF
330
3AA1
100
AcDbEntity
  8
0
100
AcDbLine
 10
2.122023660214717
 20
8.577105426494629
 30
0.0
 11
0.7078100978416125
 21
7.760608845566898
 31
0.0
  0
SPLINE
  5
3AB0
330
3AA1
100
AcDbEntity
  8
0
100
AcDbSpline
210
0.0
220
0.0
230
1.0
 70
     8
 71
     3
 72
    14
 73
    10
 74
     0
 42
0.000000001
 43
0.0000000001
 40
0.0
 40
0.0
 40
0.0
 40
0.0
 40
0.0440415386056266
 40
0.0440415386056266
 40
0.1267270549213866
 40
0.1267270549213866
 40
0.178448785819604
 40
0.178448785819604
 40
0.2349054908612699
 40
0.2349054908612699
 40
0.2349054908612699
 40
0.2349054908612699
 10
0.4651724743627117
 20
12.25004880006493
 30
0.0
 10
0.4650700814594311
 20
12.11175537416227
 30
0.0
 10
0.4610596654709421
 20
11.966625199937
 30
0.0
 10
0.4420796345137213
 20
11.55283313836033
 30
0.0
 10
0.4205552055554929
 20
11.28089629943398
 30
0.0
 10
0.4209599693096067
 20
10.85640185867535
 30
0.0
 10
0.4303638706440083
 20
10.69575571711316
 30
0.0
 10
0.4869937981210626
 20
10.38813869866832
 30
0.0
 10
0.5384199894892961
 20
10.24263316515466
 30
0.0
 10
0.6144529508956387
 20
10.11789443448642
 30
0.0
  0
ELLIPSE
  5
3AB1
330
3AA1
100
AcDbEntity
  8
0
100
AcDbEllipse
 10
-57.27494595945526
 20
-24.08275781061443
 30
0.0
 11
2.0
 21
-3.464101615137757
 31
0.0
210
0.0
220
0.0
230
0.9999999999999998
 40
0.5773502691896259
 41
4.933865469009053
 42
5.497787143782141
  0
SPLINE
  5
3AB2
330
3AA1
100
AcDbEntity
  8
0
100
AcDbSpline
210
0.0
220
0.0
230
1.0
 70
     8
 71
     3
 72
     8
 73
     4
 74
     0
 42
0.000000001
 43
0.0000000001
 40
-1.0
 40
-1.0
 40
-1.0
 40
-1.0
 40
0.0
 40
0.0
 40
0.0
 40
0.0
 10
-58.78675373142936
 20
-25.97021402554094
 30
0.0
 10
-58.8688403648549
 20
-24.50528637881966
 30
0.0
 10
-58.66293122031425
 20
-22.71427143195659
 30
0.0
 10
-57.9427102883702
 20
-21.2023054019578
 30
0.0
  0
LINE
  5
3AB3
330
3AA1
100
AcDbEntity
  8
0
100
AcDbLine
 10
-57.27494595945526
 20
-25.71575097246988
 30
0.0
 11
0.7078100978416213
 21
7.760608845566876
 31
0.0
  0
LINE
  5
3AB4
330
3AA1
100
AcDbEntity
  8
0
100
AcDbLine
 10
-58.03084984544232
 20
-25.02648591807769
 30
0.0
 11
-58.78675373142936
 21
-25.97021402554095
 31
0.0
  0
SPLINE
  5
3AB5
330
3AA1
100
AcDbEntity
  8
0
100
AcDbSpline
210
0.0
220
0.0
230
1.0
 70
     8
 71
     3
 72
     8
 73
     4
 74
     0
 42
0.000000001
 43
0.0000000001
 40
0.0
 40
0.0
 40
0.0
 40
0.0
 40
1.0
 40
1.0
 40
1.0
 40
1.0
 10
-56.52849672599711
 20
-22.01880198288553
 30
0.0
 10
-57.24871765794116
 20
-22.98269487235187
 30
0.0
 10
-57.71178269618315
 20
-24.08611222025014
 30
0.0
 10
-58.03084984544232
 20
-25.02648591807769
 30
0.0
  0
LINE
  5
3AB6
330
3AA1
100
AcDbEntity
  8
0
100
AcDbLine
 10
-56.52849672599711
 20
-22.01880198288554
 30
0.0
 11
-0.706403464531471
 21
10.21009858835007
 31
0.0
  0
ELLIPSE
  5
3AB7
330
3AA1
100
AcDbEntity
  8
0
100
AcDbEllipse
 10
-57.27494595945526
 20
-24.08275781061443
 30
0.0
 11
1.0
 21
-1.732050807568878
 31
0.0
210
0.0
220
0.0
230
0.9999999999999998
 40
0.5773502691896259
 41
4.933865469009051
 42
5.497787143782137
  0
LINE
  5
3AB8
330
3AA1
100
AcDbEntity
  8
0
100
AcDbLine
 10
-57.27494595945526
 20
-27.34874413432534
 30
0.0
 11
-57.27494595945526
 21
-25.71575097246988
 31
0.0
  0
LINE
  5
3AB9
330
3AA1
100
AcDbEntity
  8
0
100
AcDbLine
 10
1.454259331299727
 20
-55.49516180092227
 30
0.0
 11
57.2763525927654
 21
-23.26626122968669
 31
0.0
  0
SPLINE
  5
3ABA
330
3AA1
100
AcDbEntity
  8
0
100
AcDbSpline
210
0.0
220
0.0
230
1.0
 70
     8
 71
     3
 72
     8
 73
     4
 74
     0
 42
0.000000001
 43
0.0000000001
 40
0.0
 40
0.0
 40
0.0
 40
0.0
 40
1.0
 40
1.0
 40
1.0
 40
1.0
 10
1.454259331299736
 20
-55.49516180092227
 30
0.0
 10
0.7340383993556899
 20
-57.00712783092107
 30
0.0
 10
-0.5004943199903256
 20
-58.20426667997545
 30
0.0
 10
-2.023022817303647
 20
-58.74276934901891
 30
0.0
  0
ELLIPSE
  5
3ABB
330
3AA1
100
AcDbEntity
  8
0
100
AcDbEllipse
 10
-3.534830589277686
 20
-55.10962788586801
 30
0.0
 11
2.0
 21
-3.464101615137759
 31
0.0
210
0.0
220
0.0
230
1.0
 40
0.5773502691896254
 41
5.497787143782137
 42
6.061708818555222
  0
LINE
  5
3ABC
330
3AA1
100
AcDbEntity
  8
0
100
AcDbLine
 10
86.62128401200718
 20
-13.26417811332208
 30
0.0
 11
88.03549757438027
 21
-12.44768153239435
 31
0.0
  0
LINE
  5
3ABD
330
3AA1
100
AcDbEntity
  8
0
100
AcDbLine
 10
60.91902408378988
 20
-23.32811714327974
 30
0.0
 11
86.62128401200718
 21
-13.26417811332208
 31
0.0
  0
ELLIPSE
  5
3ABE
330
3AA1
100
AcDbEntity
  8
0
100
AcDbEllipse
 10
82.02508993429459
 20
8.985353716958464
 30
0.0
 11
1.250000000000127
 21
-2.165063509461023
 31
0.0
210
0.0
220
0.0
230
0.9999999999999996
 40
0.5773502691896255
 41
3.742856870268576
 42
5.681921090500111
  0
ELLIPSE
  5
3ABF
330
3AA1
100
AcDbEntity
  8
0
100
AcDbEllipse
 10
66.46874074819056
 20
9.801850297886183
 30
0.0
 11
1.250000000000128
 21
-2.165063509461023
 31
0.0
210
0.0
220
0.0
230
0.9999999999999998
 40
0.5773502691896254
 41
3.742856870268585
 42
5.681921090500111
  0
ELLIPSE
  5
3AC0
330
3AA1
100
AcDbEntity
  8
0
100
AcDbEllipse
 10
66.46874074819056
 20
-6.528081320668337
 30
0.0
 11
1.250000000000128
 21
-2.165063509461023
 31
0.0
210
0.0
220
0.0
230
0.9999999999999998
 40
0.5773502691896254
 41
3.742856870268587
 42
5.681921090500116
  0
ELLIPSE
  5
3AC1
330
3AA1
100
AcDbEntity
  8
0
100
AcDbEllipse
 10
82.02508993429459
 20
-7.344577901596061
 30
0.0
 11
1.250000000000127
 21
-2.165063509461023
 31
0.0
210
0.0
220
0.0
230
0.9999999999999996
 40
0.5773502691896255
 41
3.742856870268576
 42
5.681921090500111
  0
ELLIPSE
  5
3AC2
330
3AA1
100
AcDbEntity
  8
0
100
AcDbEllipse
 10
74.24691534124261
 20
1.228636198145052
 30
0.0
 11
-2.749999999999997
 21
4.763139720814415
 31
0.0
210
0.0
220
0.0
230
1.0
 40
0.5773502691896257
 41
0.2600508977279005
 42
2.881541755861893
  0
LINE
  5
3AC3
330
3AA1
100
AcDbEntity
  8
0
100
AcDbLine
 10
61.5189932798847
 20
24.90703704504913
 30
0.0
 11
88.0354975743802
 21
9.597726152654256
 31
0.0
  0
LINE
  5
3AC4
330
3AA1
100
AcDbEntity
  8
0
100
AcDbLine
 10
88.03549757438027
 20
-12.44768153239435
 30
0.0
 11
88.0354975743802
 21
9.597726152654256
 31
0.0
  0
ELLIPSE
  5
3AC5
330
3AA1
100
AcDbEntity
  8
0
100
AcDbEllipse
 10
58.6905661551385
 20
23.27404388319369
 30
0.0
 11
4.000000000000002
 21
-0.0000000000002381
 31
0.0
210
0.0
220
0.0
230
1.0
 40
0.577350269189626
 41
0.7853981633976881
 42
2.356194490192585
  0
LINE
  5
3AC6
330
3AA1
100
AcDbEntity
  8
0
100
AcDbLine
 10
-3.534830589277695
 20
-56.74262104772346
 30
0.0
 11
0.0400457689266398
 21
-54.67866521999455
 31
0.0
  0
ELLIPSE
  5
3AC7
330
3AA1
100
AcDbEntity
  8
0
100
AcDbEllipse
 10
31.4669550794564
 20
-1.424977689870052
 30
0.0
 11
1.24999999999987
 21
2.165063509461171
 31
0.0
210
0.0
220
0.0
230
1.0
 40
0.577350269189626
 41
3.742856870268578
 42
5.681921090500115
  0
ELLIPSE
  5
3AC8
330
3AA1
100
AcDbEntity
  8
0
100
AcDbEllipse
 10
32.88116864182949
 20
-2.24147427079778
 30
0.0
 11
-1.25
 21
-2.165063509461096
 31
0.0
210
0.0
220
0.0
230
1.0
 40
0.5773502691896259
 41
0.0
 42
6.283185307179586
  0
ELLIPSE
  5
3AC9
330
3AA1
100
AcDbEntity
  8
0
100
AcDbEllipse
 10
31.4669550794564
 20
-17.75490930842457
 30
0.0
 11
1.24999999999987
 21
2.165063509461171
 31
0.0
210
0.0
220
0.0
230
1.0
 40
0.577350269189626
 41
3.742856870268578
 42
5.681921090500113
  0
ELLIPSE
  5
3ACA
330
3AA1
100
AcDbEntity
  8
0
100
AcDbEllipse
 10
32.88116864182949
 20
-18.5714058893523
 30
0.0
 11
-1.25
 21
-2.165063509461096
 31
0.0
210
0.0
220
0.0
230
1.0
 40
0.5773502691896259
 41
0.0
 42
6.283185307179586
  0
LINE
  5
3ACB
330
3AA1
100
AcDbEntity
  8
0
100
AcDbLine
 10
1.454259331299727
 20
-55.49516180092227
 30
0.0
 11
0.426464838868319
 21
-54.90176437404539
 31
0.0
  0
LINE
  5
3ACC
330
3AA1
100
AcDbEntity
  8
0
100
AcDbLine
 10
0.426464838868319
 20
-54.90176437404539
 30
0.0
 11
0.0400457689266265
 21
-54.67866521999455
 31
0.0
  0
SPLINE
  5
3ACD
330
3AA1
100
AcDbEntity
  8
0
100
AcDbSpline
210
0.0
220
0.0
230
1.0
 70
     8
 71
     3
 72
     8
 73
     4
 74
     0
 42
0.000000001
 43
0.0000000001
 40
-1.0
 40
-1.0
 40
-1.0
 40
-1.0
 40
0.0
 40
0.0
 40
0.0
 40
0.0
 10
-2.778926703290687
 20
-56.92619861744346
 30
0.0
 10
-1.657551988662073
 20
-56.44903740845484
 30
0.0
 10
-0.6801751630174069
 20
-55.6425581094609
 30
0.0
 10
0.0400457689266398
 20
-54.67866521999455
 30
0.0
  0
LINE
  5
3ACE
330
3AA1
100
AcDbEntity
  8
0
100
AcDbLine
 10
-2.023022817303656
 20
-58.74276934901891
 30
0.0
 11
-2.778926703290687
 21
-56.92619861744346
 31
0.0
  0
LINE
  5
3ACF
330
3AA1
100
AcDbEntity
  8
0
100
AcDbLine
 10
26.16365422055729
 20
-14.28479883948172
 30
0.0
 11
26.16365422055729
 21
7.760608845566885
 31
0.0
  0
LINE
  5
3AD0
330
3AA1
100
AcDbEntity
  8
0
100
AcDbLine
 10
27.57786778293039
 20
-15.10129542040945
 30
0.0
 11
26.16365422055729
 21
-14.28479883948172
 31
0.0
  0
LINE
  5
3AD1
330
3AA1
100
AcDbEntity
  8
0
100
AcDbLine
 10
27.57786778293039
 20
6.944112264639148
 30
0.0
 11
27.57786778293039
 21
-15.10129542040945
 31
0.0
  0
LINE
  5
3AD2
330
3AA1
100
AcDbEntity
  8
0
100
AcDbLine
 10
26.16365422055729
 20
7.760608845566885
 30
0.0
 11
27.57786778293039
 21
6.944112264639148
 31
0.0
  0
LINE
  5
3AD3
330
3AA1
100
AcDbEntity
  8
0
100
AcDbLine
 10
0.0400457689266265
 20
-54.67866521999455
 30
0.0
 11
26.16365422055729
 21
-14.28479883948172
 31
0.0
  0
LINE
  5
3AD4
330
3AA1
100
AcDbEntity
  8
0
100
AcDbLine
 10
27.57786778293039
 20
-15.10129542040945
 30
0.0
 11
1.454259331299727
 21
-55.49516180092227
 31
0.0
  0
LINE
  5
3AD5
330
3AA1
100
AcDbEntity
  8
0
100
AcDbLine
 10
26.16365422055729
 20
7.760608845566885
 30
0.0
 11
55.86213903039231
 21
24.90703704504913
 31
0.0
  0
LINE
  5
3AD6
330
3AA1
100
AcDbEntity
  8
0
100
AcDbLine
 10
86.62128401200718
 20
-13.26417811332208
 30
0.0
 11
86.6212840120071
 21
8.781229571726534
 31
0.0
  0
LINE
  5
3AD7
330
3AA1
100
AcDbEntity
  8
0
100
AcDbLine
 10
86.6212840120071
 20
8.781229571726534
 30
0.0
 11
60.10477971751161
 21
24.09054046412141
 31
0.0
  0
LINE
  5
3AD8
330
3AA1
100
AcDbEntity
  8
0
100
AcDbLine
 10
60.10477971751161
 20
-22.85801293922283
 30
0.0
 11
60.10477971751161
 21
24.09054046412141
 31
0.0
  0
ELLIPSE
  5
3AD9
330
3AA1
100
AcDbEntity
  8
0
100
AcDbEllipse
 10
80.61087637192148
 20
8.168857136030741
 30
0.0
 11
-1.249999999999999
 21
2.165063509461097
 31
0.0
210
0.0
220
0.0
230
1.0
 40
0.5773502691896255
 41
0.0
 42
6.283185307179586
  0
ELLIPSE
  5
3ADA
330
3AA1
100
AcDbEntity
  8
0
100
AcDbEllipse
 10
65.05452718581747
 20
8.985353716958449
 30
0.0
 11
-1.249999999999999
 21
2.165063509461097
 31
0.0
210
0.0
220
0.0
230
1.0
 40
0.5773502691896255
 41
0.0
 42
6.283185307179586
  0
ELLIPSE
  5
3ADB
330
3AA1
100
AcDbEntity
  8
0
100
AcDbEllipse
 10
65.05452718581747
 20
-7.344577901596069
 30
0.0
 11
-1.249999999999999
 21
2.165063509461097
 31
0.0
210
0.0
220
0.0
230
1.0
 40
0.5773502691896255
 41
0.0
 42
6.283185307179586
  0
ELLIPSE
  5
3ADC
330
3AA1
100
AcDbEntity
  8
0
100
AcDbEllipse
 10
80.61087637192148
 20
-8.161074482523783
 30
0.0
 11
-1.249999999999999
 21
2.165063509461097
 31
0.0
210
0.0
220
0.0
230
1.0
 40
0.5773502691896255
 41
0.0
 42
6.283185307179586
  0
ELLIPSE
  5
3ADD
330
3AA1
100
AcDbEntity
  8
0
100
AcDbEllipse
 10
72.83270177886951
 20
0.4121396172173198
 30
0.0
 11
-2.749999999999996
 21
4.763139720814414
 31
0.0
210
0.0
220
0.0
230
0.9999999999999998
 40
0.5773502691896254
 41
0.0
 42
6.283185307179586
  0
ELLIPSE
  5
3ADE
330
3AA1
100
AcDbEntity
  8
0
100
AcDbEllipse
 10
-3.534830589277686
 20
-55.10962788586801
 30
0.0
 11
1.0
 21
-1.732050807568879
 31
0.0
210
0.0
220
0.0
230
1.0
 40
0.5773502691896254
 41
5.497787143782137
 42
6.061708818555222
  0
LINE
  5
3ADF
330
3AA1
100
AcDbEntity
  8
0
100
AcDbLine
 10
-3.534830589277695
 20
-56.74262104772346
 30
0.0
 11
-3.534830589277695
 21
-58.37561420957891
 31
0.0
  0
ELLIPSE
  5
3AE0
330
3AA1
100
AcDbEntity
  8
0
100
AcDbEllipse
 10
58.6905661551385
 20
23.27404388319369
 30
0.0
 11
-2.000000000000001
 21
-0.0000000000001193
 31
0.0
210
0.0
220
0.0
230
1.0
 40
0.5773502691896261
 41
3.926990816986997
 42
5.497787143781896
  0
LINE
  5
3AE1
330
3AA1
100
AcDbEntity
  8
0
100
AcDbLine
 10
57.2763525927654
 20
-22.85801293922283
 30
0.0
 11
57.2763525927654
 21
24.09054046412141
 31
0.0
  0
LINE
  5
3AE2
330
3AA1
100
AcDbEntity
  8
0
100
AcDbLine
 10
88.0354975743802
 20
9.597726152654256
 30
0.0
 11
86.6212840120071
 21
8.781229571726534
 31
0.0
  0
LINE
  5
3AE3
330
3AA1
100
AcDbEntity
  8
0
100
AcDbLine
 10
57.2763525927654
 20
24.09054046412141
 30
0.0
 11
27.57786778293039
 21
6.944112264639148
 31
0.0
  0
LINE
  5
3AE4
330
3AA1
100
AcDbEntity
  8
0
100
AcDbLine
 10
57.2763525927654
 20
24.09054046412141
 30
0.0
 11
55.86213903039231
 21
24.90703704504913
 31
0.0
  0
LINE
  5
3AE5
330
3AA1
100
AcDbEntity
  8
0
100
AcDbLine
 10
60.10477971751161
 20
24.09054046412141
 30
0.0
 11
61.5189932798847
 21
24.90703704504913
 31
0.0
  0
LINE
  5
3AE6
330
3AA1
100
AcDbEntity
  8
0
100
AcDbLine
 10
-1.059561887100017
 20
-58.29933298786608
 30
0.0
 11
56.44792546801923
 21
-25.09736968296901
 31
0.0
  0
ELLIPSE
  5
3AE7
330
3AA1
100
AcDbEntity
  8
0
100
AcDbEllipse
 10
-3.534830589277668
 20
59.19989344401364
 30
0.0
 11
2.000000000000001
 21
0.0000000000000001
 31
0.0
210
0.0
220
0.0
230
1.0
 40
0.5773502691896261
 41
5.497787143782137
 42
7.068583470577035
  0
LINE
  5
3AE8
330
3AA1
100
AcDbEntity
  8
0
100
AcDbLine
 10
-2.120617026904572
 20
58.3833968630859
 30
0.0
 11
-2.120617026904572
 21
60.01639002494137
 31
0.0
  0
LINE
  5
3AE9
330
3AA1
100
AcDbEntity
  8
0
100
AcDbLine
 10
-2.120617026904572
 20
58.3833968630859
 30
0.0
 11
-0.7064034645314754
 21
57.56690028215817
 31
0.0
  0
LINE
  5
3AEA
330
3AA1
100
AcDbEntity
  8
0
100
AcDbLine
 10
-0.7064034645314754
 20
57.56690028215817
 30
0.0
 11
-0.7064034645314754
 21
10.61834687881394
 31
0.0
  0
ELLIPSE
  5
3AEB
330
3AA1
100
AcDbEntity
  8
0
100
AcDbEllipse
 10
-3.534830589277668
 20
59.19989344401364
 30
0.0
 11
4.000000000000002
 21
-0.0000000000000001
 31
0.0
210
0.0
220
0.0
230
1.0
 40
0.5773502691896261
 41
5.497787143782137
 42
7.068583470577034
  0
LINE
  5
3AEC
330
3AA1
100
AcDbEntity
  8
0
100
AcDbLine
 10
-2.120617026904572
 20
60.01639002494137
 30
0.0
 11
-0.7064034645314754
 21
60.83288660586909
 31
0.0
  0
LINE
  5
3AED
330
3AA1
100
AcDbEntity
  8
0
100
AcDbLine
 10
0.4651694107223348
 20
12.25134004066938
 30
0.0
 11
0.4651694107223348
 21
59.19989344401364
 31
0.0
  0
ELLIPSE
  5
3AEE
330
3AA1
100
AcDbEntity
  8
0
100
AcDbEllipse
 10
-17.67696621300861
 20
-33.88071678174713
 30
0.0
 11
-2.499999999999999
 21
0.0000000000001493
 31
0.0
210
0.0
220
0.0
230
1.0
 40
0.5773502691896259
 41
0.0
 42
6.283185307179586
  0
ELLIPSE
  5
3AEF
330
3AA1
100
AcDbEntity
  8
0
100
AcDbEllipse
 10
-3.534830589277664
 20
-25.71575097246987
 30
0.0
 11
-2.499999999999999
 21
0.0000000000001493
 31
0.0
210
0.0
220
0.0
230
1.0
 40
0.5773502691896259
 41
0.0
 42
6.283185307179586
  0
LINE
  5
3AF0
330
3AA1
100
AcDbEntity
  8
0
100
AcDbLine
 10
26.16365422055728
 20
-5.303336449276682
 30
0.0
 11
2.122023660214717
 21
8.577105426494627
 31
0.0
  0
LINE
  5
3AF1
330
3AA1
100
AcDbEntity
  8
0
100
AcDbLine
 10
-57.27494595945526
 20
-25.71575097246988
 30
0.0
 11
-3.534830589277699
 21
-56.74262104772346
 31
0.0
  0
ELLIPSE
  5
3AF2
330
3AA1
100
AcDbEntity
  8
0
100
AcDbEllipse
 10
-3.534830589277664
 20
-27.34874413432532
 30
0.0
 11
-2.499999999999999
 21
-0.0000000000001497
 31
0.0
210
0.0
220
0.0
230
1.0
 40
0.577350269189626
 41
3.74285687026858
 42
5.681921090500121
  0
ELLIPSE
  5
3AF3
330
3AA1
100
AcDbEntity
  8
0
100
AcDbEllipse
 10
-17.67696621300861
 20
-35.51370994360258
 30
0.0
 11
-2.499999999999999
 21
-0.0000000000001497
 31
0.0
210
0.0
220
0.0
230
1.0
 40
0.577350269189626
 41
3.742856870268582
 42
5.681921090500121
  0
LINE
  5
3AF4
330
3AA1
100
AcDbEntity
  8
0
100
AcDbLine
 10
-3.534830589277695
 20
-58.37561420957891
 30
0.0
 11
-57.27494595945528
 21
-27.34874413432534
 31
0.0
  0
ELLIPSE
  5
3AF5
330
3AA1
100
AcDbEntity
  8
0
100
AcDbEllipse
 10
-26.51580097784045
 20
23.88641631888948
 30
0.0
 11
1.24999999999987
 21
2.165063509461172
 31
0.0
210
0.0
220
0.0
230
1.0
 40
0.5773502691896255
 41
3.742856870268584
 42
5.681921090500117
  0
ELLIPSE
  5
3AF6
330
3AA1
100
AcDbEntity
  8
0
100
AcDbEllipse
 10
-25.10158741546736
 20
23.06991973796174
 30
0.0
 11
1.249999999999999
 21
2.165063509461097
 31
0.0
210
0.0
220
0.0
230
0.9999999999999998
 40
0.5773502691896258
 41
0.0
 42
6.283185307179586
  0
ELLIPSE
  5
3AF7
330
3AA1
100
AcDbEntity
  8
0
100
AcDbEllipse
 10
-26.51580097784045
 20
40.21634793744398
 30
0.0
 11
1.24999999999987
 21
2.165063509461172
 31
0.0
210
0.0
220
0.0
230
1.0
 40
0.5773502691896255
 41
3.742856870268584
 42
5.681921090500117
  0
ELLIPSE
  5
3AF8
330
3AA1
100
AcDbEntity
  8
0
100
AcDbEllipse
 10
-25.10158741546736
 20
39.39985135651626
 30
0.0
 11
1.249999999999999
 21
2.165063509461097
 31
0.0
210
0.0
220
0.0
230
0.9999999999999998
 40
0.5773502691896258
 41
0.0
 42
6.283185307179586
  0
ELLIPSE
  5
3AF9
330
3AA1
100
AcDbEntity
  8
0
100
AcDbEllipse
 10
-26.51580097784044
 20
7.556484700334951
 30
0.0
 11
1.24999999999987
 21
2.165063509461172
 31
0.0
210
0.0
220
0.0
230
1.0
 40
0.5773502691896255
 41
3.742856870268584
 42
5.681921090500117
  0
ELLIPSE
  5
3AFA
330
3AA1
100
AcDbEntity
  8
0
100
AcDbEllipse
 10
-25.10158741546735
 20
6.739988119407223
 30
0.0
 11
1.249999999999999
 21
2.165063509461097
 31
0.0
210
0.0
220
0.0
230
0.9999999999999998
 40
0.5773502691896258
 41
0.0
 42
6.283185307179586
  0
LINE
  5
3AFB
330
3AA1
100
AcDbEntity
  8
0
100
AcDbLine
 10
-57.94271028837023
 20
-21.20230540195781
 30
0.0
 11
-56.9149157959388
 21
-21.79570282883469
 31
0.0
  0
LINE
  5
3AFC
330
3AA1
100
AcDbEntity
  8
0
100
AcDbLine
 10
-56.9149157959388
 20
-21.79570282883469
 30
0.0
 11
-56.52849672599711
 21
-22.01880198288554
 31
0.0
  0
LINE
  5
3AFD
330
3AA1
100
AcDbEntity
  8
0
100
AcDbLine
 10
-30.40488827436645
 20
40.4204720826759
 30
0.0
 11
-30.40488827436647
 21
18.3750643976273
 31
0.0
  0
LINE
  5
3AFE
330
3AA1
100
AcDbEntity
  8
0
100
AcDbLine
 10
-31.81910183673956
 20
41.23696866360363
 30
0.0
 11
-30.40488827436645
 21
40.4204720826759
 31
0.0
  0
LINE
  5
3AFF
330
3AA1
100
AcDbEntity
  8
0
100
AcDbLine
 10
-31.81910183673956
 20
19.19156097855503
 30
0.0
 11
-31.81910183673956
 21
41.23696866360363
 31
0.0
  0
LINE
  5
3B00
330
3AA1
100
AcDbEntity
  8
0
100
AcDbLine
 10
-31.81910183673956
 20
19.19156097855503
 30
0.0
 11
-30.40488827436647
 21
18.3750643976273
 31
0.0
  0
LINE
  5
3B01
330
3AA1
100
AcDbEntity
  8
0
100
AcDbLine
 10
-30.40488827436647
 20
18.3750643976273
 30
0.0
 11
-56.52849672599711
 21
-22.01880198288554
 31
0.0
  0
LINE
  5
3B02
330
3AA1
100
AcDbEntity
  8
0
100
AcDbLine
 10
-57.94271028837023
 20
-21.20230540195781
 30
0.0
 11
-31.81910183673956
 21
19.19156097855503
 31
0.0
  0
LINE
  5
3B03
330
3AA1
100
AcDbEntity
  8
0
100
AcDbLine
 10
-28.63712132140012
 20
53.28029323228763
 30
0.0
 11
-23.83105501863337
 21
45.84886964433657
 31
0.0
  0
LINE
  5
3B04
330
3AA1
100
AcDbEntity
  8
0
100
AcDbLine
 10
-30.40488827436645
 20
40.4204720826759
 30
0.0
 11
-0.7064034645314754
 21
57.56690028215817
 31
0.0
  0
LINE
  5
3B05
330
3AA1
100
AcDbEntity
  8
0
100
AcDbLine
 10
-2.120617026904572
 20
58.3833968630859
 30
0.0
 11
-31.81910183673956
 21
41.23696866360363
 31
0.0
  0
LINE
  5
3B06
330
3AA1
100
AcDbEntity
  8
0
100
AcDbLine
 10
-0.7064034645314754
 20
60.83288660586909
 30
0.0
 11
-27.222907759027
 21
76.14219749826395
 31
0.0
  0
LINE
  5
3B07
330
3AA1
100
AcDbEntity
  8
0
100
AcDbLine
 10
-28.6371213214001
 20
75.32570091733621
 30
0.0
 11
-2.120617026904572
 21
60.01639002494137
 31
0.0
  0
LINE
  5
3B08
330
3AA1
100
AcDbEntity
  8
0
100
AcDbLine
 10
-28.63712132140012
 20
53.28029323228763
 30
0.0
 11
-28.6371213214001
 21
75.32570091733621
 31
0.0
  0
LINE
  5
3B09
330
3AA1
100
AcDbEntity
  8
0
100
AcDbLine
 10
-27.222907759027
 20
76.14219749826395
 30
0.0
 11
-28.6371213214001
 21
75.32570091733621
 31
0.0
  0
ELLIPSE
  5
3B0A
330
3AA1
100
AcDbEntity
  8
0
100
AcDbEllipse
 10
-21.21250011894137
 20
68.58960412468249
 30
0.0
 11
1.250000000000129
 21
-2.165063509461022
 31
0.0
210
0.0
220
0.0
230
1.0
 40
0.5773502691896259
 41
3.742856870268573
 42
5.681921090500119
  0
ELLIPSE
  5
3B0B
330
3AA1
100
AcDbEntity
  8
0
100
AcDbEllipse
 10
-21.21250011894137
 20
52.25967250612796
 30
0.0
 11
1.250000000000129
 21
-2.165063509461022
 31
0.0
210
0.0
220
0.0
230
1.0
 40
0.5773502691896259
 41
3.742856870268573
 42
5.681921090500119
  0
ELLIPSE
  5
3B0C
330
3AA1
100
AcDbEntity
  8
0
100
AcDbEllipse
 10
-22.62671368131446
 20
51.44317592520025
 30
0.0
 11
1.25
 21
-2.165063509461096
 31
0.0
210
0.0
220
0.0
230
1.0
 40
0.5773502691896259
 41
0.0
 42
6.283185307179586
  0
ELLIPSE
  5
3B0D
330
3AA1
100
AcDbEntity
  8
0
100
AcDbEllipse
 10
-22.62671368131446
 20
67.77310754375477
 30
0.0
 11
1.25
 21
-2.165063509461096
 31
0.0
210
0.0
220
0.0
230
1.0
 40
0.5773502691896259
 41
0.0
 42
6.283185307179586
  0
ELLIPSE
  5
3B0E
330
3AA1
100
AcDbEntity
  8
0
100
AcDbEllipse
 10
-13.43432552588938
 20
51.85142421566414
 30
0.0
 11
-2.749999999999999
 21
4.763139720814413
 31
0.0
210
0.0
220
0.0
230
1.0
 40
0.577350269189626
 41
0.2600508977278991
 42
1.570796326794907
  0
ELLIPSE
  5
3B0F
330
3AA1
100
AcDbEntity
  8
0
100
AcDbEllipse
 10
-14.84853908826248
 20
51.0349276347364
 30
0.0
 11
-2.750000000000031
 21
4.763139720814395
 31
0.0
210
0.0
220
0.0
230
1.0
 40
0.5773502691896259
 41
4.712388980384682
 42
7.853981633974497
  0
ENDBLK
  5
3AA3
330
3AA1
100
AcDbEntity
  8
0
100
AcDbBlockEnd
  0
ENDSEC
  0
SECTION
  2
ENTITIES
  0
INSERT
  5
3B10
330
1F
100
AcDbEntity
  8
0
100
AcDbBlockReference
  2
SAE200_80_2-Front
 10
0.0
 20
0.0
 30
0.0
  0
INSERT
  5
3B11
330
1F
100
AcDbEntity
  8
0
100
AcDbBlockReference
  2
SAE200_80_2-Left
 10
115.0001458023986
 20
0.0
 30
0.0
  0
INSERT
  5
3B12
330
1F
100
AcDbEntity
  8
0
100
AcDbBlockReference
  2
SAE200_80_2-Right
 10
-115.0002682912839
 20
0.0
 30
0.0
  0
INSERT
  5
3B13
330
1F
100
AcDbEntity
  8
0
100
AcDbBlockReference
  2
SAE200_80_2-Top
 10
0.0
 20
-35.50040458298427
 30
0.0
  0
INSERT
  5
3B14
330
1F
100
AcDbEntity
  8
0
100
AcDbBlockReference
  2
SAE200_80_2-Bottom
 10
0.0
 20
93.50004082870825
 30
0.0
  0
INSERT
  5
3B15
330
1F
100
AcDbEntity
  8
0
100
AcDbBlockReference
  2
SAE200_80_2-ISO
 10
173.8688748726618
 20
-111.6424999046924
 30
0.0
  0
MTEXT
  5
3B16
330
1F
100
AcDbEntity
  8
0
100
AcDbMText
 10
0.0
 20
-155.0004390907912
 30
0.0
 40
11.16667816926896
 41
0.0
 71
     5
 72
     5
  1
SAE200/80/2
 73
     1
 44
1.0
1001
ACAD
1000
MTEXTBEGIN
1070
    73
1070
     1
1070
    44
1040
1.0
1070
    74
1070
     0
1000
MTEXTEND
  0
ENDSEC
  0
SECTION
  2
OBJECTS
  0
DICTIONARY
  5
C
330
0
100
AcDbDictionary
281
     1
  3
ACAD_CIP_PREVIOUS_PRODUCT_INFO
350
216
  3
ACAD_COLOR
350
6B
  3
ACAD_DETAILVIEWSTYLE
350
21B
  3
ACAD_GROUP
350
D
  3
ACAD_LAYOUT
350
1A
  3
ACAD_MATERIAL
350
6A
  3
ACAD_MLEADERSTYLE
350
12D
  3
ACAD_MLINESTYLE
350
17
  3
ACAD_PLOTSETTINGS
350
19
  3
ACAD_PLOTSTYLENAME
350
E
  3
ACAD_SCALELIST
350
10C
  3
ACAD_SECTIONVIEWSTYLE
350
219
  3
ACAD_TABLESTYLE
350
7E
  3
ACAD_VISUALSTYLE
350
EF
  3
ACDB_RECOMPOSE_DATA
350
3C17
  3
AcDbVariableDictionary
350
5E
  3
DWGPROPS
350
3C18
  0
DICTIONARY
  5
3B67
330
8
100
AcDbDictionary
280
     1
281
     1
  0
DICTIONARY
  5
1FF
330
2
100
AcDbDictionary
280
     1
281
     1
  3
ACAD_LAYERSTATES
360
200
  0
DICTIONARY
  5
13C
330
10
100
AcDbDictionary
280
     1
281
     1
  0
DICTIONARY
  5
1CE
330
1F
100
AcDbDictionary
280
     1
281
     1
  3
ACAD_LAYOUTSELFREF
360
3B6F
  0
DICTIONARY
  5
3B1A
330
D2
100
AcDbDictionary
280
     1
281
     1
  3
ACAD_LAYOUTSELFREF
360
3B78
  0
DICTIONARY
  5
3B1C
330
D6
100
AcDbDictionary
280
     1
281
     1
  3
ACAD_LAYOUTSELFREF
360
3B7B
  0
XRECORD
  5
216
102
{ACAD_REACTORS
330
C
102
}
330
C
100
AcDbXrecord
280
     1
300
ACD
300
2021
300
87393ACD_2021_0F
  0
DICTIONARY
  5
6B
102
{ACAD_REACTORS
330
C
102
}
330
C
100
AcDbDictionary
281
     1
  0
DICTIONARY
  5
21B
102
{ACAD_REACTORS
330
C
102
}
330
C
100
AcDbDictionary
281
     1
  3
Metric50
350
21C
  0
DICTIONARY
  5
D
102
{ACAD_REACTORS
330
C
102
}
330
C
100
AcDbDictionary
281
     1
  0
DICTIONARY
  5
1A
102
{ACAD_REACTORS
330
C
102
}
330
C
100
AcDbDictionary
281
     1
  3
Layout1
350
D3
  3
Layout2
350
D7
  3
Model
350
22
  0
DICTIONARY
  5
6A
102
{ACAD_REACTORS
330
C
102
}
330
C
100
AcDbDictionary
281
     1
  3
ByBlock
350
ED
  3
ByLayer
350
EC
  3
Global
350
EE
  0
DICTIONARY
  5
12D
102
{ACAD_REACTORS
330
C
102
}
330
C
100
AcDbDictionary
281
     1
  3
Standard
350
12E
  0
DICTIONARY
  5
17
102
{ACAD_REACTORS
330
C
102
}
330
C
100
AcDbDictionary
281
     1
  3
Standard
350
18
  0
DICTIONARY
  5
19
102
{ACAD_REACTORS
330
C
102
}
330
C
100
AcDbDictionary
281
     1
  0
ACDBDICTIONARYWDFLT
  5
E
102
{ACAD_REACTORS
330
C
102
}
330
C
100
AcDbDictionary
281
     1
  3
Normal
350
F
100
AcDbDictionaryWithDefault
340
F
  0
DICTIONARY
  5
10C
102
{ACAD_REACTORS
330
C
102
}
330
C
100
AcDbDictionary
281
     1
  3
A0
350
10D
  3
A1
350
1BE
  3
A2
350
1BF
  3
A3
350
1C0
  3
A4
350
1C1
  3
A5
350
1C2
  3
A6
350
1C3
  3
A7
350
1C4
  3
A8
350
1C5
  3
A9
350
1C6
  3
B0
350
1C7
  3
B1
350
1C8
  3
B2
350
1C9
  3
B3
350
1CA
  3
B4
350
1CB
  3
B5
350
1CC
  3
B6
350
1CD
  0
DICTIONARY
  5
219
102
{ACAD_REACTORS
330
C
102
}
330
C
100
AcDbDictionary
281
     1
  3
Metric50
350
21A
  0
DICTIONARY
  5
7E
102
{ACAD_REACTORS
330
C
102
}
330
C
100
AcDbDictionary
281
     1
  3
Standard
350
7F
  0
DICTIONARY
  5
EF
102
{ACAD_REACTORS
330
C
102
}
330
C
100
AcDbDictionary
281
     1
  3
2dWireframe
350
F5
  3
Basic
350
F4
  3
Brighten
350
FB
  3
ColorChange
350
FF
  3
Conceptual
350
F8
  3
Dim
350
FA
  3
EdgeColorOff
350
1E6
  3
Facepattern
350
FE
  3
Flat
350
F0
  3
FlatWithEdges
350
F1
  3
Gouraud
350
F2
  3
GouraudWithEdges
350
F3
  3
Hidden
350
F7
  3
JitterOff
350
1E4
  3
Linepattern
350
FD
  3
OverhangOff
350
1E5
  3
Realistic
350
F9
  3
Shaded
350
1F3
  3
Shaded with edges
350
1F2
  3
Shades of Gray
350
1EF
  3
Sketchy
350
1F0
  3
Thicken
350
FC
  3
Wireframe
350
F6
  3
X-Ray
350
1F1
  0
XRECORD
  5
3C17
102
{ACAD_REACTORS
330
C
102
}
330
C
100
AcDbXrecord
280
     1
 90
        1
330
7F
  0
DICTIONARY
  5
5E
102
{ACAD_REACTORS
330
C
102
}
330
C
100
AcDbDictionary
281
     1
  3
CANNOSCALE
350
146
  3
CENTEREXE
350
259
  3
CENTERLTYPEFILE
350
25A
  3
CMLEADERSTYLE
350
145
  3
CTABLESTYLE
350
84
  3
CVIEWDETAILSTYLE
350
227
  3
CVIEWSECTIONSTYLE
350
228
  3
DIMASSOC
350
5F
  3
HIDETEXT
350
63
  3
INDEXCTL
350
3BC4
  3
LAYEREVAL
350
1AE
  3
LAYERNOTIFY
350
1AF
  3
LIGHTINGUNITS
350
3BC2
  3
MSLTSCALE
350
3BC1
  3
PSOLHEIGHT
350
3C14
  3
PSOLWIDTH
350
3C13
  3
SORTENTS
350
3BC3
  3
XCLIPFRAME
350
3C15
  0
XRECORD
  5
3C18
102
{ACAD_REACTORS
330
C
102
}
330
C
100
AcDbXrecord
280
     1
  1
DWGPROPS COOKIE
  2

  3

  4

  6

  7

  8
truole
  9

300
=
301
=
302
=
303
=
304
=
305
=
306
=
307
=
308
=
309
=
 40
0.0069328703703704
 41
2460398.356956019
 42
2460398.37150463
  1

 90
        0
  0
DICTIONARY
  5
200
102
{ACAD_REACTORS
330
1FF
102
}
330
1FF
100
AcDbDictionary
281
     1
  0
XRECORD
  5
3B6F
102
{ACAD_REACTORS
330
1CE
102
}
330
1CE
100
AcDbXrecord
280
     1
340
1F
  0
XRECORD
  5
3B78
102
{ACAD_REACTORS
330
3B1A
102
}
330
3B1A
100
AcDbXrecord
280
     1
340
D2
  0
XRECORD
  5
3B7B
102
{ACAD_REACTORS
330
3B1C
102
}
330
3B1C
100
AcDbXrecord
280
     1
340
D6
  0
ACDBDETAILVIEWSTYLE
  5
21C
102
{ACAD_XDICTIONARY
360
3C57
102
}
102
{ACAD_REACTORS
330
21B
102
}
330
21B
100
AcDbModelDocViewStyle
 70
     0
  3
Metric50
290
     0
100
AcDbDetailViewStyle
 70
     0
 71
     0
 90
        3
 71
     1
340
11
 40
5.0
340
0
 40
5.0
300

 40
0.0
280
     1
 71
     2
340
16
 90
       25
 71
     3
340
11
 40
5.0
 90
        0
 40
15.0
 90
        1
300
%<\AcVar ViewDetailId>% (%<\AcVar ViewScale \f "%sn">%)
 71
     4
340
16
 90
       25
340
16
 90
       25
280
     0
  0
LAYOUT
  5
D3
102
{ACAD_XDICTIONARY
360
3C1C
102
}
102
{ACAD_REACTORS
330
1A
102
}
330
1A
100
AcDbPlotSettings
  1

  2
C:\Documents and Settings\basas\Application Data\Autodesk\AutoCAD 2005\R16.1\enu\plotters\Default Windows System Printer.pc3
  4

  6

 40
0.0
 41
0.0
 42
0.0
 43
0.0
 44
0.0
 45
0.0
 46
0.0
 47
0.0
 48
0.0
 49
0.0
140
0.0
141
0.0
142
1.0
143
1.0
 70
   688
 72
     0
 73
     0
 74
     5
  7

 75
    16
147
1.0
148
0.0
149
0.0
100
AcDbLayout
  1
Layout1
 70
     1
 71
     1
 10
0.0
 20
0.0
 11
12.0
 21
9.0
 12
0.0
 22
0.0
 32
0.0
 14
0.0
 24
0.0
 34
0.0
 15
0.0
 25
0.0
 35
0.0
146
0.0
 13
0.0
 23
0.0
 33
0.0
 16
1.0
 26
0.0
 36
0.0
 17
0.0
 27
1.0
 37
0.0
 76
     0
330
D2
  0
LAYOUT
  5
D7
102
{ACAD_XDICTIONARY
360
3C1E
102
}
102
{ACAD_REACTORS
330
1A
102
}
330
1A
100
AcDbPlotSettings
  1

  2
C:\Documents and Settings\basas\Application Data\Autodesk\AutoCAD 2005\R16.1\enu\plotters\Default Windows System Printer.pc3
  4

  6

 40
0.0
 41
0.0
 42
0.0
 43
0.0
 44
0.0
 45
0.0
 46
0.0
 47
0.0
 48
0.0
 49
0.0
140
0.0
141
0.0
142
1.0
143
1.0
 70
   688
 72
     0
 73
     0
 74
     5
  7

 75
    16
147
1.0
148
0.0
149
0.0
100
AcDbLayout
  1
Layout2
 70
     1
 71
     2
 10
0.0
 20
0.0
 11
12.0
 21
9.0
 12
0.0
 22
0.0
 32
0.0
 14
0.0
 24
0.0
 34
0.0
 15
0.0
 25
0.0
 35
0.0
146
0.0
 13
0.0
 23
0.0
 33
0.0
 16
1.0
 26
0.0
 36
0.0
 17
0.0
 27
1.0
 37
0.0
 76
     0
330
D6
  0
LAYOUT
  5
22
102
{ACAD_XDICTIONARY
360
3C19
102
}
102
{ACAD_REACTORS
330
1A
102
}
330
1A
100
AcDbPlotSettings
  1

  2
none_device
  4
ISO_A4_(210.00_x_297.00_MM)
  6

 40
7.5
 41
20.0
 42
7.5
 43
20.0
 44
210.0
 45
297.0
 46
11.54999923706054
 47
-13.65000009536743
 48
0.0
 49
0.0
140
0.0
141
0.0
142
1.0
143
8.704084754739808
 70
 11952
 72
     1
 73
     0
 74
     0
  7

 75
     0
147
0.1148885871608098
148
0.0
149
0.0
100
AcDbLayout
  1
Model
 70
     1
 71
     0
 10
0.0
 20
0.0
 11
12.0
 21
9.0
 12
0.0
 22
0.0
 32
0.0
 14
0.0
 24
0.0
 34
0.0
 15
0.0
 25
0.0
 35
0.0
146
0.0
 13
0.0
 23
0.0
 33
0.0
 16
1.0
 26
0.0
 36
0.0
 17
0.0
 27
1.0
 37
0.0
 76
     0
330
1F
331
EA
1001
ACAD_PSEXT
1000
None
1000
None
1000
Not applicable
1000
The layout will not be plotted unless a new plotter configuration name is selected.
1070
     0
  0
MATERIAL
  5
ED
102
{ACAD_XDICTIONARY
360
1F9
102
}
102
{ACAD_REACTORS
330
6A
102
}
330
6A
100
AcDbMaterial
  1
ByBlock
  0
MATERIAL
  5
EC
102
{ACAD_XDICTIONARY
360
1F7
102
}
102
{ACAD_REACTORS
330
6A
102
}
330
6A
100
AcDbMaterial
  1
ByLayer
  0
MATERIAL
  5
EE
102
{ACAD_XDICTIONARY
360
173
102
}
102
{ACAD_REACTORS
330
6A
102
}
330
6A
100
AcDbMaterial
  1
Global
 43
0.0007999999797903
 43
0.0
 43
0.0
 43
0.0
 43
0.0
 43
0.0007999999797903
 43
0.0
 43
0.0
 43
0.0
 43
0.0
 43
1.0
 43
0.0
 43
0.0
 43
0.0
 43
0.0
 43
1.0
 49
0.0007999999797903
 49
0.0
 49
0.0
 49
0.0
 49
0.0
 49
0.0007999999797903
 49
0.0
 49
0.0
 49
0.0
 49
0.0
 49
1.0
 49
0.0
 49
0.0
 49
0.0
 49
0.0
 49
1.0
142
0.0007999999797903
142
0.0
142
0.0
142
0.0
142
0.0
142
0.0007999999797903
142
0.0
142
0.0
142
0.0
142
0.0
142
1.0
142
0.0
142
0.0
142
0.0
142
0.0
142
1.0
144
0.0007999999797903
144
0.0
144
0.0
144
0.0
144
0.0
144
0.0007999999797903
144
0.0
144
0.0
144
0.0
144
0.0
144
1.0
144
0.0
144
0.0
144
0.0
144
0.0
144
1.0
1001
ACAD
1070
    -1
1070
     3
1070
     0
1000

1071
        0
1070
     0
  0
MLEADERSTYLE
  5
12E
102
{ACAD_XDICTIONARY
360
3C43
102
}
102
{ACAD_REACTORS
330
12D
102
}
330
12D
100
AcDbMLeaderStyle
170
     2
171
     1
172
     0
 90
        2
 40
0.0
 41
0.0
173
     1
 91
-1056964608
340
14
 92
       -2
290
     1
 42
2.0
291
     1
 43
8.0
  3
Standard
 44
4.0
300

342
11
174
     1
178
     1
175
     1
176
     0
 93
-1056964608
 45
4.0
292
     0
297
     0
 46
4.0
 94
-1056964608
 47
1.0
 49
1.0
140
1.0
293
     1
141
0.0
294
     1
177
     0
142
1.0
295
     0
296
     0
143
3.75
1001
ACAD_MLEADERVER
1070
     2
  0
MLINESTYLE
  5
18
102
{ACAD_REACTORS
330
17
102
}
330
17
100
AcDbMlineStyle
  2
STANDARD
 70
     0
  3

 62
   256
 51
90.0
 52
90.0
 71
     2
 49
0.5
 62
   256
  6
BYLAYER
 49
-0.5
 62
   256
  6
BYLAYER
  0
ACDBPLACEHOLDER
  5
F
102
{ACAD_REACTORS
330
E
102
}
330
E
  0
SCALE
  5
10D
102
{ACAD_REACTORS
330
10C
102
}
330
10C
100
AcDbScale
 70
     0
300
1:1
140
1.0
141
1.0
290
     1
  0
SCALE
  5
1BE
102
{ACAD_REACTORS
330
10C
102
}
330
10C
100
AcDbScale
 70
     0
300
1:2
140
1.0
141
2.0
290
     0
  0
SCALE
  5
1BF
102
{ACAD_REACTORS
330
10C
102
}
330
10C
100
AcDbScale
 70
     0
300
1:4
140
1.0
141
4.0
290
     0
  0
SCALE
  5
1C0
102
{ACAD_REACTORS
330
10C
102
}
330
10C
100
AcDbScale
 70
     0
300
1:5
140
1.0
141
5.0
290
     0
  0
SCALE
  5
1C1
102
{ACAD_REACTORS
330
10C
102
}
330
10C
100
AcDbScale
 70
     0
300
1:8
140
1.0
141
8.0
290
     0
  0
SCALE
  5
1C2
102
{ACAD_REACTORS
330
10C
102
}
330
10C
100
AcDbScale
 70
     0
300
1:10
140
1.0
141
10.0
290
     0
  0
SCALE
  5
1C3
102
{ACAD_REACTORS
330
10C
102
}
330
10C
100
AcDbScale
 70
     0
300
1:16
140
1.0
141
16.0
290
     0
  0
SCALE
  5
1C4
102
{ACAD_REACTORS
330
10C
102
}
330
10C
100
AcDbScale
 70
     0
300
1:20
140
1.0
141
20.0
290
     0
  0
SCALE
  5
1C5
102
{ACAD_REACTORS
330
10C
102
}
330
10C
100
AcDbScale
 70
     0
300
1:30
140
1.0
141
30.0
290
     0
  0
SCALE
  5
1C6
102
{ACAD_REACTORS
330
10C
102
}
330
10C
100
AcDbScale
 70
     0
300
1:40
140
1.0
141
40.0
290
     0
  0
SCALE
  5
1C7
102
{ACAD_REACTORS
330
10C
102
}
330
10C
100
AcDbScale
 70
     0
300
1:50
140
1.0
141
50.0
290
     0
  0
SCALE
  5
1C8
102
{ACAD_REACTORS
330
10C
102
}
330
10C
100
AcDbScale
 70
     0
300
1:100
140
1.0
141
100.0
290
     0
  0
SCALE
  5
1C9
102
{ACAD_REACTORS
330
10C
102
}
330
10C
100
AcDbScale
 70
     0
300
2:1
140
2.0
141
1.0
290
     0
  0
SCALE
  5
1CA
102
{ACAD_REACTORS
330
10C
102
}
330
10C
100
AcDbScale
 70
     0
300
4:1
140
4.0
141
1.0
290
     0
  0
SCALE
  5
1CB
102
{ACAD_REACTORS
330
10C
102
}
330
10C
100
AcDbScale
 70
     0
300
8:1
140
8.0
141
1.0
290
     0
  0
SCALE
  5
1CC
102
{ACAD_REACTORS
330
10C
102
}
330
10C
100
AcDbScale
 70
     0
300
10:1
140
10.0
141
1.0
290
     0
  0
SCALE
  5
1CD
102
{ACAD_REACTORS
330
10C
102
}
330
10C
100
AcDbScale
 70
     0
300
100:1
140
100.0
141
1.0
290
     0
  0
ACDBSECTIONVIEWSTYLE
  5
21A
102
{ACAD_XDICTIONARY
360
3C55
102
}
102
{ACAD_REACTORS
330
219
102
}
330
219
100
AcDbModelDocViewStyle
 70
     0
  3
Metric50
290
     0
100
AcDbSectionViewStyle
 70
     0
 71
     0
 90
      102
 71
     1
340
11
 40
5.0
340
0
340
0
 40
5.0
300
I, O, Q, S, X, Z
 40
10.0
 90
        0
 40
2.5
 90
        0
 71
     2
340
16
 90
       25
340
16
 90
       50
 40
5.0
 40
2.5
 40
5.0
 71
     3
340
11
 40
5.0
 90
        0
 40
15.0
 90
        1
300
%<\AcVar ViewSectionStartId>%-%<\AcVar ViewSectionEndId>% (%<\AcVar ViewScale \f "%sn">%)
 71
     4
300
ANSI31
 40
1.0
 90
        0
290
     0
290
     0
 90
        6
 40
0.0
 40
1.570796326794896
 40
0.2617993877991494
 40
1.308996938995747
 40
-0.2617993877991494
 40
1.832595714594046
  0
TABLESTYLE
  5
7F
102
{ACAD_XDICTIONARY
360
162
102
}
102
{ACAD_REACTORS
330
7E
102
}
330
7E
100
AcDbTableStyle
  3
Standard
 70
     0
 71
     0
 40
1.5
 41
1.5
280
     0
281
     0
  7
Standard
140
4.5
170
     2
 62
     0
 63
     7
283
     0
274
    -2
284
     1
 64
     0
275
    -2
285
     1
 65
     0
276
    -2
286
     1
 66
     0
277
    -2
287
     1
 67
     0
278
    -2
288
     1
 68
     0
279
    -2
289
     1
 69
     0
  7
Standard
140
6.0
170
     5
 62
     0
 63
     7
283
     0
274
    -2
284
     1
 64
     0
275
    -2
285
     1
 65
     0
276
    -2
286
     1
 66
     0
277
    -2
287
     1
 67
     0
278
    -2
288
     1
 68
     0
279
    -2
289
     1
 69
     0
  7
Standard
140
4.5
170
     5
 62
     0
 63
     7
283
     0
274
    -2
284
     1
 64
     0
275
    -2
285
     1
 65
     0
276
    -2
286
     1
 66
     0
277
    -2
287
     1
 67
     0
278
    -2
288
     1
 68
     0
279
    -2
289
     1
 69
     0
  0
VISUALSTYLE
  5
F5
102
{ACAD_XDICTIONARY
360
3C2D
102
}
102
{ACAD_REACTORS
330
EF
102
}
330
EF
100
AcDbVisualStyle
  2
2dWireframe
 70
     4
 71
     0
 72
     2
 73
     1
 90
        0
 40
-0.6
 41
-30.0
 62
     5
 63
     7
 74
     1
 91
        4
 64
     7
 65
   257
 75
     1
175
     1
 42
1.0
 92
        0
 66
   257
 43
1.0
 76
     1
 77
     6
 78
     2
 67
     7
 79
     5
170
     0
171
     0
290
     0
174
     0
 93
        1
 44
0.0
173
     0
291
     0
 45
0.0
1001
ACAD
1000
AcDbSavedByObjectVersion
1070
     0
  0
VISUALSTYLE
  5
F4
102
{ACAD_XDICTIONARY
360
3C2B
102
}
102
{ACAD_REACTORS
330
EF
102
}
330
EF
100
AcDbVisualStyle
  2
Basic
 70
     7
 71
     1
 72
     0
 73
     1
 90
        0
 40
-0.6
 41
-30.0
 62
     5
 63
     7
 74
     0
 91
        4
 64
     7
 65
   257
 75
     1
175
     1
 42
1.0
 92
        8
 66
     7
 43
1.0
 76
     1
 77
     6
 78
     2
 67
     7
 79
     5
170
     0
171
     0
290
     0
174
     0
 93
        1
 44
0.0
173
     0
291
     1
 45
0.0
1001
ACAD
1000
AcDbSavedByObjectVersion
1070
     0
  0
VISUALSTYLE
  5
FB
102
{ACAD_XDICTIONARY
360
3C39
102
}
102
{ACAD_REACTORS
330
EF
102
}
330
EF
100
AcDbVisualStyle
  2
Brighten
 70
    12
 71
     2
 72
     2
 73
     1
 90
        0
 40
-0.6
 41
-30.0
 62
     5
 63
     7
 74
     1
 91
        4
 64
     7
 65
   257
 75
     1
175
     1
 42
1.0
 92
        8
 66
     7
 43
1.0
 76
     1
 77
     6
 78
     2
 67
     7
 79
     5
170
     0
171
     0
290
     0
174
     0
 93
        1
 44
50.0
173
     0
291
     1
 45
0.0
1001
ACAD
1000
AcDbSavedByObjectVersion
1070
     0
  0
VISUALSTYLE
  5
FF
102
{ACAD_XDICTIONARY
360
3C41
102
}
102
{ACAD_REACTORS
330
EF
102
}
330
EF
100
AcDbVisualStyle
  2
ColorChange
 70
    16
 71
     2
 72
     2
 73
     3
 90
        0
 40
-0.6
 41
-30.0
 62
     5
 63
     8
 74
     1
 91
        4
 64
     7
 65
   257
 75
     1
175
     1
 42
1.0
 92
        8
 66
     8
 43
1.0
 76
     1
 77
     6
 78
     2
 67
     7
 79
     5
170
     0
171
     0
290
     0
174
     0
 93
        1
 44
0.0
173
     0
291
     1
 45
0.0
1001
ACAD
1000
AcDbSavedByObjectVersion
1070
     0
  0
VISUALSTYLE
  5
F8
102
{ACAD_XDICTIONARY
360
3C33
102
}
102
{ACAD_REACTORS
330
EF
102
}
330
EF
100
AcDbVisualStyle
  2
Conceptual
 70
     9
 71
     3
 72
     2
 73
     1
 90
        0
 40
-0.6
 41
-30.0
 62
     5
 63
     7
 74
     2
 91
        2
 64
     7
 65
   257
 75
     1
175
     1
 42
40.0
 92
        8
 66
     7
 43
1.0
 76
     1
 77
     6
 78
     2
 67
     7
 79
     3
170
     0
171
     0
290
     0
174
     0
 93
        1
 44
0.0
173
     0
291
     0
 45
0.0
1001
ACAD
1000
AcDbSavedByObjectVersion
1070
     0
  0
VISUALSTYLE
  5
FA
102
{ACAD_XDICTIONARY
360
3C37
102
}
102
{ACAD_REACTORS
330
EF
102
}
330
EF
100
AcDbVisualStyle
  2
Dim
 70
    11
 71
     2
 72
     2
 73
     1
 90
        0
 40
-0.6
 41
-30.0
 62
     5
 63
     7
 74
     1
 91
        4
 64
     7
 65
   257
 75
     1
175
     1
 42
1.0
 92
        8
 66
     7
 43
1.0
 76
     1
 77
     6
 78
     2
 67
     7
 79
     5
170
     0
171
     0
290
     0
174
     0
 93
        1
 44
-50.0
173
     0
291
     1
 45
0.0
1001
ACAD
1000
AcDbSavedByObjectVersion
1070
     0
  0
VISUALSTYLE
  5
1E6
102
{ACAD_XDICTIONARY
360
3C49
102
}
102
{ACAD_REACTORS
330
EF
102
}
330
EF
100
AcDbVisualStyle
  2
EdgeColorOff
 70
    22
 71
     2
 72
     2
 73
     0
 90
        0
 40
-0.6
 41
-30.0
 62
     5
 63
     7
 74
     1
 91
        4
 64
     7
 65
   257
 75
     1
175
     1
 42
1.0
 92
        8
 66
     7
 43
1.0
 76
     1
 77
     6
 78
     2
 67
     7
 79
     5
170
     0
171
     0
290
     0
174
     0
 93
        1
 44
0.0
173
     0
291
     1
 45
0.0
1001
ACAD
1000
AcDbSavedByObjectVersion
1070
     0
  0
VISUALSTYLE
  5
FE
102
{ACAD_XDICTIONARY
360
3C3F
102
}
102
{ACAD_REACTORS
330
EF
102
}
330
EF
100
AcDbVisualStyle
  2
Facepattern
 70
    15
 71
     2
 72
     2
 73
     1
 90
        0
 40
-0.6
 41
-30.0
 62
     5
 63
     7
 74
     1
 91
        4
 64
     7
 65
   257
 75
     1
175
     1
 42
1.0
 92
        8
 66
     7
 43
1.0
 76
     1
 77
     6
 78
     2
 67
     7
 79
     5
170
     0
171
     0
290
     0
174
     0
 93
        1
 44
0.0
173
     0
291
     1
 45
0.0
1001
ACAD
1000
AcDbSavedByObjectVersion
1070
     0
  0
VISUALSTYLE
  5
F0
102
{ACAD_XDICTIONARY
360
3C23
102
}
102
{ACAD_REACTORS
330
EF
102
}
330
EF
100
AcDbVisualStyle
  2
Flat
 70
     0
 71
     2
 72
     1
 73
     1
 90
        2
 40
-0.6
 41
30.0
 62
     5
 63
     7
 74
     0
 91
        0
 64
     7
 65
   257
 75
     1
175
     1
 42
1.0
 92
        8
 66
     7
 43
1.0
 76
     1
 77
     6
 78
     2
 67
     7
 79
     5
170
     0
171
     0
290
     0
174
     0
 93
       13
 44
0.0
173
     0
291
     1
 45
0.0
1001
ACAD
1000
AcDbSavedByObjectVersion
1070
     0
  0
VISUALSTYLE
  5
F1
102
{ACAD_XDICTIONARY
360
3C25
102
}
102
{ACAD_REACTORS
330
EF
102
}
330
EF
100
AcDbVisualStyle
  2
FlatWithEdges
 70
     1
 71
     2
 72
     1
 73
     1
 90
        2
 40
-0.6
 41
30.0
 62
     5
 63
     7
 74
     1
 91
        0
 64
     7
 65
   257
 75
     1
175
     1
 42
1.0
 92
        0
 66
   257
 43
1.0
 76
     1
 77
     6
 78
     2
 67
     7
 79
     5
170
     0
171
     0
290
     0
174
     0
 93
       13
 44
0.0
173
     0
291
     1
 45
0.0
1001
ACAD
1000
AcDbSavedByObjectVersion
1070
     0
  0
VISUALSTYLE
  5
F2
102
{ACAD_XDICTIONARY
360
3C27
102
}
102
{ACAD_REACTORS
330
EF
102
}
330
EF
100
AcDbVisualStyle
  2
Gouraud
 70
     2
 71
     2
 72
     2
 73
     1
 90
        2
 40
-0.6
 41
30.0
 62
     5
 63
     7
 74
     0
 91
        0
 64
     7
 65
   257
 75
     1
175
     1
 42
1.0
 92
        0
 66
     7
 43
1.0
 76
     1
 77
     6
 78
     2
 67
     7
 79
     5
170
     0
171
     0
290
     0
174
     0
 93
       13
 44
0.0
173
     0
291
     1
 45
0.0
1001
ACAD
1000
AcDbSavedByObjectVersion
1070
     0
  0
VISUALSTYLE
  5
F3
102
{ACAD_XDICTIONARY
360
3C29
102
}
102
{ACAD_REACTORS
330
EF
102
}
330
EF
100
AcDbVisualStyle
  2
GouraudWithEdges
 70
     3
 71
     2
 72
     2
 73
     1
 90
        2
 40
-0.6
 41
30.0
 62
     5
 63
     7
 74
     1
 91
        0
 64
     7
 65
   257
 75
     1
175
     1
 42
1.0
 92
        0
 66
   257
 43
1.0
 76
     1
 77
     6
 78
     2
 67
     7
 79
     5
170
     0
171
     0
290
     0
174
     0
 93
       13
 44
0.0
173
     0
291
     1
 45
0.0
1001
ACAD
1000
AcDbSavedByObjectVersion
1070
     0
  0
VISUALSTYLE
  5
F7
102
{ACAD_XDICTIONARY
360
3C31
102
}
102
{ACAD_REACTORS
330
EF
102
}
330
EF
100
AcDbVisualStyle
  2
Hidden
 70
     6
 71
     1
 72
     2
 73
     2
 90
        0
 40
-0.6
 41
-30.0
 62
     5
 63
     7
 74
     2
 91
        2
 64
     7
 65
   257
 75
     2
175
     1
 42
40.0
 92
        0
 66
   257
 43
1.0
 76
     1
 77
     6
 78
     2
 67
     7
 79
     3
170
     0
171
     0
290
     0
174
     0
 93
        1
 44
0.0
173
     0
291
     0
 45
0.0
1001
ACAD
1000
AcDbSavedByObjectVersion
1070
     0
  0
VISUALSTYLE
  5
1E4
102
{ACAD_XDICTIONARY
360
3C45
102
}
102
{ACAD_REACTORS
330
EF
102
}
330
EF
100
AcDbVisualStyle
  2
JitterOff
 70
    20
 71
     2
 72
     2
 73
     0
 90
        0
 40
-0.6
 41
-30.0
 62
     5
 63
     7
 74
     1
 91
        4
 64
     7
 65
   257
 75
     1
175
     1
 42
1.0
 92
       10
 66
     7
 43
1.0
 76
     1
 77
     6
 78
     2
 67
     7
 79
     5
170
     0
171
     0
290
     0
174
     0
 93
        1
 44
0.0
173
     0
291
     1
 45
0.0
1001
ACAD
1000
AcDbSavedByObjectVersion
1070
     0
  0
VISUALSTYLE
  5
FD
102
{ACAD_XDICTIONARY
360
3C3D
102
}
102
{ACAD_REACTORS
330
EF
102
}
330
EF
100
AcDbVisualStyle
  2
Linepattern
 70
    14
 71
     2
 72
     2
 73
     1
 90
        0
 40
-0.6
 41
-30.0
 62
     5
 63
     7
 74
     1
 91
        4
 64
     7
 65
   257
 75
     7
175
     7
 42
1.0
 92
        8
 66
     7
 43
1.0
 76
     1
 77
     6
 78
     2
 67
     7
 79
     5
170
     0
171
     0
290
     0
174
     0
 93
        1
 44
0.0
173
     0
291
     1
 45
0.0
1001
ACAD
1000
AcDbSavedByObjectVersion
1070
     0
  0
VISUALSTYLE
  5
1E5
102
{ACAD_XDICTIONARY
360
3C47
102
}
102
{ACAD_REACTORS
330
EF
102
}
330
EF
100
AcDbVisualStyle
  2
OverhangOff
 70
    21
 71
     2
 72
     2
 73
     0
 90
        0
 40
-0.6
 41
-30.0
 62
     5
 63
     7
 74
     1
 91
        4
 64
     7
 65
   257
 75
     1
175
     1
 42
1.0
 92
        9
 66
     7
 43
1.0
 76
     1
 77
     6
 78
     2
 67
     7
 79
     5
170
     0
171
     0
290
     0
174
     0
 93
        1
 44
0.0
173
     0
291
     1
 45
0.0
1001
ACAD
1000
AcDbSavedByObjectVersion
1070
     0
  0
VISUALSTYLE
  5
F9
102
{ACAD_XDICTIONARY
360
3C35
102
}
102
{ACAD_REACTORS
330
EF
102
}
330
EF
100
AcDbVisualStyle
  2
Realistic
 70
     8
 71
     2
 72
     2
 73
     0
 90
        2
 40
-0.6
 41
30.0
 62
     5
 63
     7
 74
     0
 91
        0
 64
     7
 65
   257
 75
     1
175
     1
 42
1.0
 92
        8
 66
   257
 43
1.0
 76
     1
 77
     6
 78
     2
 67
     7
 79
     3
170
     0
171
     0
290
     0
174
     0
 93
       13
 44
0.0
173
     0
291
     0
 45
0.0
1001
ACAD
1000
AcDbSavedByObjectVersion
1070
     0
  0
VISUALSTYLE
  5
1F3
102
{ACAD_XDICTIONARY
360
3C53
102
}
102
{ACAD_REACTORS
330
EF
102
}
330
EF
100
AcDbVisualStyle
  2
Shaded
 70
    27
 71
     2
 72
     2
 73
     1
 90
        2
 40
-0.6
 41
30.0
 62
     5
 63
     7
 74
     0
 91
        4
 64
     7
 65
   257
 75
     1
175
     1
 42
1.0
 92
        8
 66
   257
 43
1.0
 76
     1
 77
     6
 78
     2
 67
     8
 79
     3
170
     0
171
     0
290
     0
174
     0
 93
        5
 44
0.0
173
     0
291
     0
 45
0.0
1001
ACAD
1000
AcDbSavedByObjectVersion
1070
     0
  0
VISUALSTYLE
  5
1F2
102
{ACAD_XDICTIONARY
360
3C51
102
}
102
{ACAD_REACTORS
330
EF
102
}
330
EF
100
AcDbVisualStyle
  2
Shaded with edges
 70
    26
 71
     2
 72
     2
 73
     1
 90
        2
 40
-0.6
 41
30.0
 62
     5
 63
     7
 74
     1
 91
        2
 64
     7
 65
   257
 75
     2
175
     1
 42
1.0
 92
        8
 66
   257
 43
1.0
 76
     1
 77
     6
 78
     2
 67
     7
 79
     3
170
     0
171
     0
290
     0
174
     0
 93
        5
 44
0.0
173
     0
291
     0
 45
0.0
1001
ACAD
1000
AcDbSavedByObjectVersion
1070
     0
  0
VISUALSTYLE
  5
1EF
102
{ACAD_XDICTIONARY
360
3C4B
102
}
102
{ACAD_REACTORS
330
EF
102
}
330
EF
100
AcDbVisualStyle
  2
Shades of Gray
 70
    23
 71
     2
 72
     2
 73
     3
 90
        0
 40
-0.6
 41
-30.0
 62
     5
 63
     7
 74
     2
 91
        2
 64
     7
 65
     7
 75
     1
175
     1
 42
40.0
 92
        8
 66
     7
 43
1.0
 76
     1
 77
     6
 78
     2
 67
     7
 79
     3
170
     0
171
     0
290
     0
174
     0
 93
        1
 44
0.0
173
     0
291
     0
 45
0.0
1001
ACAD
1000
AcDbSavedByObjectVersion
1070
     0
  0
VISUALSTYLE
  5
1F0
102
{ACAD_XDICTIONARY
360
3C4D
102
}
102
{ACAD_REACTORS
330
EF
102
}
330
EF
100
AcDbVisualStyle
  2
Sketchy
 70
    24
 71
     1
 72
     2
 73
     2
 90
        0
 40
-0.6
 41
-30.0
 62
     5
 63
     7
 74
     2
 91
        2
 64
     7
 65
     7
 75
     1
175
     1
 42
40.0
 92
       11
 66
     7
 43
1.0
 76
     1
 77
     6
 78
     2
 67
     7
 79
     6
170
     0
171
     0
290
     0
174
     0
 93
        1
 44
0.0
173
     0
291
     0
 45
0.0
1001
ACAD
1000
AcDbSavedByObjectVersion
1070
     0
  0
VISUALSTYLE
  5
FC
102
{ACAD_XDICTIONARY
360
3C3B
102
}
102
{ACAD_REACTORS
330
EF
102
}
330
EF
100
AcDbVisualStyle
  2
Thicken
 70
    13
 71
     2
 72
     2
 73
     1
 90
        0
 40
-0.6
 41
-30.0
 62
     5
 63
     7
 74
     1
 91
        4
 64
     7
 65
   257
 75
     1
175
     1
 42
1.0
 92
       12
 66
     7
 43
1.0
 76
     1
 77
     6
 78
     2
 67
     7
 79
     5
170
     0
171
     0
290
     0
174
     0
 93
        1
 44
0.0
173
     0
291
     1
 45
0.0
1001
ACAD
1000
AcDbSavedByObjectVersion
1070
     0
  0
VISUALSTYLE
  5
F6
102
{ACAD_XDICTIONARY
360
3C2F
102
}
102
{ACAD_REACTORS
330
EF
102
}
330
EF
100
AcDbVisualStyle
  2
Wireframe
 70
     5
 71
     0
 72
     2
 73
     0
 90
        0
 40
-0.6
 41
-30.0
 62
     5
 63
     7
 74
     1
 91
        4
 64
     7
 65
   257
 75
     1
175
     1
 42
1.0
 92
        0
 66
   257
 43
1.0
 76
     1
 77
     6
 78
     2
 67
     7
 79
     3
170
     0
171
     0
290
     0
174
     0
 93
        1
 44
0.0
173
     0
291
     0
 45
0.0
1001
ACAD
1000
AcDbSavedByObjectVersion
1070
     0
  0
VISUALSTYLE
  5
1F1
102
{ACAD_XDICTIONARY
360
3C4F
102
}
102
{ACAD_REACTORS
330
EF
102
}
330
EF
100
AcDbVisualStyle
  2
X-Ray
 70
    25
 71
     2
 72
     2
 73
     1
 90
        1
 40
0.5
 41
-30.0
 62
     5
 63
     7
 74
     1
 91
        0
 64
     7
 65
   257
 75
     1
175
     1
 42
1.0
 92
        8
 66
     7
 43
1.0
 76
     1
 77
     6
 78
     2
 67
     7
 79
     3
170
     0
171
     0
290
     0
174
     0
 93
       13
 44
0.0
173
     0
291
     0
 45
0.0
1001
ACAD
1000
AcDbSavedByObjectVersion
1070
     0
  0
DICTIONARYVAR
  5
146
102
{ACAD_REACTORS
330
5E
102
}
330
5E
100
DictionaryVariables
280
     0
  1
1:1
  0
DICTIONARYVAR
  5
259
102
{ACAD_REACTORS
330
5E
102
}
330
5E
100
DictionaryVariables
280
     0
  1
3.500000
  0
DICTIONARYVAR
  5
25A
102
{ACAD_REACTORS
330
5E
102
}
330
5E
100
DictionaryVariables
280
     0
  1
acadiso.lin
  0
DICTIONARYVAR
  5
145
102
{ACAD_REACTORS
330
5E
102
}
330
5E
100
DictionaryVariables
280
     0
  1
STANDARD
  0
DICTIONARYVAR
  5
84
102
{ACAD_REACTORS
330
5E
102
}
330
5E
100
DictionaryVariables
280
     0
  1
STANDARD
  0
DICTIONARYVAR
  5
227
102
{ACAD_REACTORS
330
5E
102
}
330
5E
100
DictionaryVariables
280
     0
  1
Metric50
  0
DICTIONARYVAR
  5
228
102
{ACAD_REACTORS
330
5E
102
}
330
5E
100
DictionaryVariables
280
     0
  1
Metric50
  0
DICTIONARYVAR
  5
5F
102
{ACAD_REACTORS
330
5E
102
}
330
5E
100
DictionaryVariables
280
     0
  1
2
  0
DICTIONARYVAR
  5
63
102
{ACAD_REACTORS
330
5E
102
}
330
5E
100
DictionaryVariables
280
     0
  1
1
  0
DICTIONARYVAR
  5
3BC4
102
{ACAD_REACTORS
330
5E
102
}
330
5E
100
DictionaryVariables
280
     0
  1
0
  0
DICTIONARYVAR
  5
1AE
102
{ACAD_REACTORS
330
5E
102
}
330
5E
100
DictionaryVariables
280
     0
  1
0
  0
DICTIONARYVAR
  5
1AF
102
{ACAD_REACTORS
330
5E
102
}
330
5E
100
DictionaryVariables
280
     0
  1
0
  0
DICTIONARYVAR
  5
3BC2
102
{ACAD_REACTORS
330
5E
102
}
330
5E
100
DictionaryVariables
280
     0
  1
2
  0
DICTIONARYVAR
  5
3BC1
102
{ACAD_REACTORS
330
5E
102
}
330
5E
100
DictionaryVariables
280
     0
  1
1
  0
DICTIONARYVAR
  5
3C14
102
{ACAD_REACTORS
330
5E
102
}
330
5E
100
DictionaryVariables
280
     0
  1
80.000000
  0
DICTIONARYVAR
  5
3C13
102
{ACAD_REACTORS
330
5E
102
}
330
5E
100
DictionaryVariables
280
     0
  1
5.000000
  0
DICTIONARYVAR
  5
3BC3
102
{ACAD_REACTORS
330
5E
102
}
330
5E
100
DictionaryVariables
280
     0
  1
127
  0
DICTIONARYVAR
  5
3C15
102
{ACAD_REACTORS
330
5E
102
}
330
5E
100
DictionaryVariables
280
     0
  1
2
  0
DICTIONARY
  5
3C57
330
21C
100
AcDbDictionary
280
     1
281
     1
  3
ACAD_XREC_ROUNDTRIP
360
3C58
  0
DICTIONARY
  5
3C1C
330
D3
100
AcDbDictionary
280
     1
281
     1
  3
ACAD_XREC_ROUNDTRIP
360
3C1D
  0
DICTIONARY
  5
3C1E
330
D7
100
AcDbDictionary
280
     1
281
     1
  3
ACAD_XREC_ROUNDTRIP
360
3C1F
  0
DICTIONARY
  5
3C19
330
22
100
AcDbDictionary
280
     1
281
     1
  3
ACAD_XREC_ROUNDTRIP
360
3C1A
  0
DICTIONARY
  5
1F9
330
ED
100
AcDbDictionary
280
     1
281
     1
  3
ACAD_XREC_ROUNDTRIP
360
3C21
  3
FBXASSET
360
1FA
  0
DICTIONARY
  5
1F7
330
EC
100
AcDbDictionary
280
     1
281
     1
  3
ACAD_XREC_ROUNDTRIP
360
3C20
  3
FBXASSET
360
1F8
  0
DICTIONARY
  5
173
330
EE
100
AcDbDictionary
280
     1
281
     1
  3
ACAD_XREC_ROUNDTRIP
360
3C22
  3
BUMPTILE
360
175
  3
DIFFUSETILE
360
174
  3
FBXASSET
360
1FB
  3
OPACITYTILE
360
176
  3
REFLECTIONTILE
360
177
  0
DICTIONARY
  5
3C43
330
12E
100
AcDbDictionary
280
     1
281
     1
  3
ACAD_XREC_ROUNDTRIP
360
3C44
  0
DICTIONARY
  5
3C55
330
21A
100
AcDbDictionary
280
     1
281
     1
  3
ACAD_XREC_ROUNDTRIP
360
3C56
  0
DICTIONARY
  5
162
330
7F
100
AcDbDictionary
280
     1
281
     1
  3
ACAD_ROUNDTRIP_2008_TABLESTYLE_CELLSTYLEMAP
360
3C16
  3
ACAD_XREC_ROUNDTRIP
360
3C1B
  0
DICTIONARY
  5
3C2D
330
F5
100
AcDbDictionary
280
     1
281
     1
  3
ACAD_XREC_ROUNDTRIP
360
3C2E
  0
DICTIONARY
  5
3C2B
330
F4
100
AcDbDictionary
280
     1
281
     1
  3
ACAD_XREC_ROUNDTRIP
360
3C2C
  0
DICTIONARY
  5
3C39
330
FB
100
AcDbDictionary
280
     1
281
     1
  3
ACAD_XREC_ROUNDTRIP
360
3C3A
  0
DICTIONARY
  5
3C41
330
FF
100
AcDbDictionary
280
     1
281
     1
  3
ACAD_XREC_ROUNDTRIP
360
3C42
  0
DICTIONARY
  5
3C33
330
F8
100
AcDbDictionary
280
     1
281
     1
  3
ACAD_XREC_ROUNDTRIP
360
3C34
  0
DICTIONARY
  5
3C37
330
FA
100
AcDbDictionary
280
     1
281
     1
  3
ACAD_XREC_ROUNDTRIP
360
3C38
  0
DICTIONARY
  5
3C49
330
1E6
100
AcDbDictionary
280
     1
281
     1
  3
ACAD_XREC_ROUNDTRIP
360
3C4A
  0
DICTIONARY
  5
3C3F
330
FE
100
AcDbDictionary
280
     1
281
     1
  3
ACAD_XREC_ROUNDTRIP
360
3C40
  0
DICTIONARY
  5
3C23
330
F0
100
AcDbDictionary
280
     1
281
     1
  3
ACAD_XREC_ROUNDTRIP
360
3C24
  0
DICTIONARY
  5
3C25
330
F1
100
AcDbDictionary
280
     1
281
     1
  3
ACAD_XREC_ROUNDTRIP
360
3C26
  0
DICTIONARY
  5
3C27
330
F2
100
AcDbDictionary
280
     1
281
     1
  3
ACAD_XREC_ROUNDTRIP
360
3C28
  0
DICTIONARY
  5
3C29
330
F3
100
AcDbDictionary
280
     1
281
     1
  3
ACAD_XREC_ROUNDTRIP
360
3C2A
  0
DICTIONARY
  5
3C31
330
F7
100
AcDbDictionary
280
     1
281
     1
  3
ACAD_XREC_ROUNDTRIP
360
3C32
  0
DICTIONARY
  5
3C45
330
1E4
100
AcDbDictionary
280
     1
281
     1
  3
ACAD_XREC_ROUNDTRIP
360
3C46
  0
DICTIONARY
  5
3C3D
330
FD
100
AcDbDictionary
280
     1
281
     1
  3
ACAD_XREC_ROUNDTRIP
360
3C3E
  0
DICTIONARY
  5
3C47
330
1E5
100
AcDbDictionary
280
     1
281
     1
  3
ACAD_XREC_ROUNDTRIP
360
3C48
  0
DICTIONARY
  5
3C35
330
F9
100
AcDbDictionary
280
     1
281
     1
  3
ACAD_XREC_ROUNDTRIP
360
3C36
  0
DICTIONARY
  5
3C53
330
1F3
100
AcDbDictionary
280
     1
281
     1
  3
ACAD_XREC_ROUNDTRIP
360
3C54
  0
DICTIONARY
  5
3C51
330
1F2
100
AcDbDictionary
280
     1
281
     1
  3
ACAD_XREC_ROUNDTRIP
360
3C52
  0
DICTIONARY
  5
3C4B
330
1EF
100
AcDbDictionary
280
     1
281
     1
  3
ACAD_XREC_ROUNDTRIP
360
3C4C
  0
DICTIONARY
  5
3C4D
330
1F0
100
AcDbDictionary
280
     1
281
     1
  3
ACAD_XREC_ROUNDTRIP
360
3C4E
  0
DICTIONARY
  5
3C3B
330
FC
100
AcDbDictionary
280
     1
281
     1
  3
ACAD_XREC_ROUNDTRIP
360
3C3C
  0
DICTIONARY
  5
3C2F
330
F6
100
AcDbDictionary
280
     1
281
     1
  3
ACAD_XREC_ROUNDTRIP
360
3C30
  0
DICTIONARY
  5
3C4F
330
1F1
100
AcDbDictionary
280
     1
281
     1
  3
ACAD_XREC_ROUNDTRIP
360
3C50
  0
XRECORD
  5
3C58
102
{ACAD_REACTORS
330
3C57
102
}
330
3C57
100
AcDbXrecord
280
     1
102
DISPLAYNAME
  1
Metric50
102
FLAGS
 90
        0
  0
XRECORD
  5
3C1D
102
{ACAD_REACTORS
330
3C1C
102
}
330
3C1C
100
AcDbXrecord
280
     1
102
SHADEPLOT
 70
     0
102
SHADEPLOTRESLEVEL
 70
     2
102
SHADEPLOTCUSTOMDPI
 70
   300
  0
XRECORD
  5
3C1F
102
{ACAD_REACTORS
330
3C1E
102
}
330
3C1E
100
AcDbXrecord
280
     1
102
SHADEPLOT
 70
     0
102
SHADEPLOTRESLEVEL
 70
     2
102
SHADEPLOTCUSTOMDPI
 70
   300
  0
XRECORD
  5
3C1A
102
{ACAD_REACTORS
330
3C19
102
}
330
3C19
100
AcDbXrecord
280
     1
102
SHADEPLOT
 70
     0
102
SHADEPLOTRESLEVEL
 70
     2
102
SHADEPLOTCUSTOMDPI
 70
   300
  0
XRECORD
  5
3C21
102
{ACAD_REACTORS
330
1F9
102
}
330
1F9
100
AcDbXrecord
280
     1
102
MATERIAL
148
0.0
149
0.0
149
0.0
 93
        0
 94
       63
282
     0
 72
     1
 77
     1
171
     1
175
     1
179
     1
273
     0
  0
XRECORD
  5
1FA
102
{ACAD_REACTORS
330
1F9
102
}
330
1F9
100
AcDbXrecord
280
     1
 70
     1
 90
429727718
  1
D62C5603-E3A1-4AEA-B7FB-FE5D8D0755AF
310
504B03040A0000080000CC70623B3DEE336E79000000790000001B0000006175746F6465736B2D64657369676E2D7061636B6167652E786D6C3C3F786D6C2076657273696F6E3D22312E302220656E636F64696E673D227574662D3822203F3E3C666F726D6174733E3C666F726D61743E687474703A2F2F736368656D612E
310
6175746F6465736B2E636F6D2F64657369676E2D7061636B6167652F323030393C2F666F726D61743E3C2F666F726D6174733E504B0304140006080800CC70623BD486FD9CA0000000F4000000130000005B436F6E74656E745F54797065735D2E786D6C7D8EC10E82300C865F65E91D8A1E8C310C0EEA1BF002731658846E
310
D98AC1B77784ABF1D8FE5FBFBF75BBCE937A534CCEB38643598122B6FEE978D0B0485F9C41B54DDD7D022595594E1A469170414C76A4D9A4D207E29CF43ECE46F218070CC6BECC4078ACAA135ACF422C856C0E68EA1BF5669944DDD7BCDE7B1F8E415D77AECB980613C2E4AC91FC167A2B244592486606FC29C8FD7F045B9A
310
EF7053A7E60B504B0304140006080800CC70623B853B8169EB0000007C01000008000000636F72652E786D6C8D90416EC3201045AF62CDB6C206821CC7C244919D9CA01740401C94182C03558F5F9C3852BBEB6A467FFE9B197D7EFC9E1EC5975982F5AE035262288C535E5B377690E21535501C055FBC8FBF6C503839990E
310
5619041F179FE64D52DE45E362569DD7661365082642A11EB9E920A89B99642953CC8E702F67A9EE7234257977194EC9EAE275C4EABCCF5EAD5940D4AC6F0E35A568B8F43562CD7046CD199FD07E60174276A7BE677B5EADB0E0D14EEFFB6A31321A0D82627C4084204C3F096B71DD52F6819B16635EADF63F509AF53FA164
310
5DDCD1EDDD17164090FCC8732078B56691CB33A85CD7DCC40F504B0304140006080800CC70623B55019EA25F0000007C00000007000000636E782E786D6C4DCB3B0E80201045D1AD90E915ED2CF8AC45050C11660C8261F98AB1B07AC9C97D42D718D865D3E909258CFD00CCE24AC6E326A164D74DC0B4128928FF32603847
310
2BA13128B1252AC747C6BAB984FC68F0B87FE8960A5C09FE86CFB69FBA01504B0304140006080800CC70623BDBABAAF470010000D40300000C0000006662782F636F72652E786D6CC553D16E823014FD95A6AF4B694182CC941A83FA05FB810A9511A125A5257EFE2E82712ECEB8A7F100CD39F7F69E734AF9FADC366850B6
310
AF8DCE7018308C942E4C59EB2AC3DE1D498AD15A706B8CFB56869196ADCAF00863C12B6B7C374385D14E6907A836A59A41D9F7CA615434B0C8705F7CAA5606D23BA8E84F41278B93AC54100640439DE0BDB320004D43C63716C7C399D30917DCFBBA9CD9BA8469F5B156168B24CED3F7248AC8769F27244EB73B92EED8862C
310
B7F13E0C179B3C8F979C8ECD82BBBABDAA2BAC924E9558448CBD9330242CFA08E3154B5651FCC6D215639C8EE5774DBE2B5F6CF2B5768B68963BB5F5588420E442FC700B1139D4CB01F450C1E918227C2E09DF070D8140C84E1E9AAB8F1340832A9CB13130A5F1376A908D57309505ECF2A0DF179C4E9D30F5B239B87E3823
310
7A79C6F31DE1A8A5AEC08474B03C7837EAE4938639B44E5932B833D2C6B6B279CDC613877FA26EE21F4A2A4C63EC7F29A2F301D1F9F7A0E37D145F504B0304140006080800CC70623B9C113CC27E0000009D0000000B0000006662782F636E782E786D6C4DCCDF0A83201C86E15B91DFB94BFB330DD428C8FB886521330DA7
310
6397BF1A1DECE883878F57749FCDA1B7892F1BBC047A23808C7F84D9FA55424E0BE6803A256208E9EF06C84F9B91703228B1C690F78B66B34CD9A5439DF5CF0BFBF65E35BCA1B8D6A5C6F540381E886698B5741C695F9503EBA150A2F8958E3DC3EA0B504B0304140006080800CC70623B7DF2F77C2A010000120200003100
310
00006662782F41393633353835312D344632462D344230382D423046372D3739314545314133324237412F636F72652E786D6C8D51DB8EC22014FC15C2939B0D2DB4B45643319AE817EC0F6041255A68B86CFCFC856D4D76DF7CE190393373060EDB3DC707F856CE6B6B7A480A0C81328395DA5C7B18C3057510EC3873D686
310
3F34088C18550F330C39BB3A1BA7051AAC09CA84841A2BD5020AEF55806078A44B0FFD7053A328440C89E1EFC52486BBB8AA8214A99D789CF9E05200300FC927E4FB4D5B375D43103D5527440FB843077C5AA3F5861C8F645F5787F59E95B390B318B55CE45AA638FAA2957BD7248B390B7A7CC51F9C124149C82B8C378810
310
84AB2F42B7B8DD56F413775B8C5999E9FF4471926F8AA236A1AE96B8B3CC434E5839373893369E1FAF30EA395917409EB7F26AF8801C171837A4A6AC9C89E9F9C9B1A58BA30FD6A5EF5DDDCF894B9AD9B6A59C957943A9FCAE2FD5BC4DFE03504B0304140006080800CC70623BAD7543B64E01000033030000300000006662
310
782F41393633353835312D344632462D344230382D423046372D3739314545314133324237412F636E782E786D6CD593CD6EC32010845F0571AD6CE3D48AD20813A9873E410FBD12D82434182C7EAAE6EDBB2424CD25871E7B41D6EC30B3FA84F9E67BB2E40B4234DE8DB46F1925E094D7C6ED479AD3AE5951B2113C789FEE
310
6C943839C1488B4C05DF079FE72A69D8C96C13AAD6B8631503449F83828872B949AC57D26200B826A308D316B4064D6E46FCDA41C05550DC9E483A00797BFD207EFB092A45DE9514C1BBD22178396BD39D891265658C238DEA00936C654E5E433CB65A26D9F6EDB5EBC14EBF49A45CB856E66048291F6939A9A81BB5C89177
310
38143CA680F4AA299D66A042CEB3354A2684DC9D8D178FE0D9B8B41CAAD720F880EE7EF93C0C18769E099ECC04D5A102C8049A8A05632F4DDF376CF1DE0F6BB65C2F8627B65A33C6BB62177CEBBDAD973006829F89F22E814B54F4BC2BE347F8AA8F681390B50FA73F804400B5F542E796F19FF974E7F78DB802FE05E20750
310
4B0304140006080800CC70623BE75B7789680500003C100000340000006662782F41393633353835312D344632462D344230382D423046372D3739314545314133324237412F6F626A656374732E786D6CAD575B8F9B3818FD2B887D06C22499CB8AA1CA655245D5B455A356FB305264C061D8018C6C3393D95FBFC7600890
310
A4CD5EF210B0B1BFEBF98E3F7B1FF6596ABC522E1296DF9BAE3D320D9A872C4AF2F8DE2CE5CEBA358D0FBEC719939D65A691938CDE9B6ADAF4BD98B3B2D05311DD91329583D9D5FC0F438434A7A611A644887B5384CF34233629258BA878B12322891DEFF6B66BD70BFB62634E8AE781D082709A4B588AF91C528CDA28B73F
310
1C998EEF39EABBEFA97FBD6A7C7E9553F9D3D79FE442923C3C523610337627CB87ABE99D359D4CC6D6E4FACAB5E6ABF9D2726FC6A3C5F56271377BB88362213924694B38DD99FE47C48627A1E7D49F5A8BB5E1A74C0A599ED3B0F21F1E56366B89112D681E218F0915D0D6F17AD41FBA2A369DCF6335D62ABBD39779D5DDD1
310
11D4D8DE3CBB96B2E04FB8202E41051754A1AA8E8F76B4C6DFE810B580B1547F4B84911149794252234D024EF8BBE963A95AE27B3D310A9D5C215C7960FAEE415ED75694C6AFB17BCACA5D99A60A9AA65F217B0BFC53292ACB92BF283FAD0D3621576592CB5BED907C2FA8E9DF794E35E97BEA31BED21FEB401ABB94C44839
310
DCACBF0E1C5DA8DA5B2F4DFFD32AD86F543D9E565E7056502E157C00AD2671CD534549AB752FCA9CDA00677A313F04E51B22FF19E57B300579E3C97EB29F682D92935CEC18CF901B7B54FD8C51F362B56FC72FE0B3C1EAE335EDCCBF5AEC39ADB17DC238973F804BA5E6F6BFE7AF1FB32E523BE9F3BD571418E3631DCA4D48
310
5250CF639223210A9446CA30052EDF057BD35F8329C1ECD84552BF0DC8D18BE7BCE23BFE6BD960AB4A7DE79923A103BEBD80F911CBAA2C60DB19B01CF164A5583B772EE6D3FFA56666CBCDA74DC97724A48F9A58967497E489C4D979006FD7A05E227A1EBDD0F737C623387A9C844D3709995625106D157315F8B8392CD4E0
310
A0B9A720C4BE9829CEF37EA1E13111214D53925356365ADA634861B52519DD27A00AEB808EAF0628E6F435519D446F45CF2C9CF5214F0A15B2F6D06B79DA3EE3CBF7F56780D2F4E7EF73A0F5E5B02A38D07DC852C6B7C1FBB6664213E0C39E3EBA7FF4E1AD23EA2829407C85E586727488B751B2DB9502BC7B228A3FD68B6E
310
A65A22397E690AA8D158D7E404EC8CDA235CC3B7D1898680131CEC2CDF2638C65196279577750F15884AEE19F94199155B92B13297978469D4F8D358DF0AEF7631E28DC8F0D9F437D5D39A83B2231A1D52D543813A824EF8D44BCFF2FA6A31BD1E8DAD87F1CCB526B3879935BF59CDADD5C37479BB1CDD4CA7B3556B516589
310
EF352754B706114D9C885EC9131DE6EFEB43D99AFE2391C2F958179413D7CFEF6B1B6DB1E7600F00DE6E5C67454A339A4BA2E0FBA85ED26F045D454F463DBFCE484C2F90F2E5E3666003662ED8F755951A7D1BECD5B30B550B2785C8E7320B7292A4838DDA71BBC863ED7613CAF659337A3354231D4FF4A182A54904C2898C
310
98B28C4AD0CE056CCF332A80986E571EE9DBC305BB5FEB7E509220A58D25CF042D712A806AC0AD0C657FDEF80D2D9CEAA2EE4D1C76F60BFE74219A06527D6F82DF6412526107381E55E353090704D085B52408A8913C4ED159D79BDA71BB4BC506F4831350EB6F975CD22D69BF7AC49B91A2C0A9DDA3D5CA36AD20FC478E37
310
E61844E2352865EBCB61A275A65283CAAA9DD27703B4102F5AF51EF5F573B75CBB5AD38BC845F7A49F82A0966A49C2E3EA5EA0ECD326CD965F1DB402C6FA8B51A4658C5C5E2EC9E214602E55810345408596591009A82E7E7FFACA19EEA299B14A0081A705CB3296EBC14CDF658DCD336EA6D1136881AAEB87B81AB9EE53D5
310
F5EB8BC8362082DA24122F98680A4E7930C01A0079749CEA14382A0783E5EBA5A10F8C098456A03D6A4AEB6BB881E2513747552A5DB22C7EDAF83BD5528081A365F7FF06504B0304140006080000CC70623B000000000000000000000000350000006662782F41393633353835312D344632462D344230382D423046372D37
310
39314545314133324237412F76657274696365732E62696E504B0304140006080800CC70623BF270F1330600000004000000360000006662782F41393633353835312D344632462D344230382D423046372D3739314545314133324237412F747269616E676C65732E62696E636660600000504B0304140006080000CC7062
310
3B000000000000000000000000370000006662782F41393633353835312D344632462D344230382D423046372D3739314545314133324237412F617474726962757465732E62696E504B0304140006080800CC70623B08DA0BD19000000041010000360000006662782F41393633353835312D344632462D344230382D4230
310
46372D3739314545314133324237412F6469726563746F72792E786D6C858F410AC3201045AF22B36F53E9A60B35CBEEBAE80D244E44489C6234F4F835464A48035D0DF398FF9F8AF63D0E6CC63039F212F8F9020C7D47C6792B21C5FE7403D62A1188E2E60C98D7234A5830286103A55745067B9D86B8A3CF9C7F90C11DE6
310
07FB144396D7B6A82D282E9A152AD114D5EF2CB866EEE831B8EEA07A7BB5A8D7D61A2BAAEB7FD5F70921FF497D00504B0304140006080800CC70623BEDD1DC58FD000000A00100003B0000006662782F41393633353835312D344632462D344230382D423046372D3739314545314133324237412F7265736F75726365732F
310
636F72652E786D6C8D504B6E833010BD0A9A6D65B00922041947112427E8052C33A156828DFCA97AFC9A40A576D7CDCCE87D344F8F9FBFE667F689CE6B6B3A6039850C8DB2A336530731DC4903D95970676DF82583CCC8193B5861107C72362E3BA4AC096842428D1D7107A5F7182053CF7474E0D507CE32973124857FE48B
310
540F3961CEF244279DE03EB81420DB9EAC1384436FA353E879B1B182C7A8C75DA3C7F453DF353A1075D537A7BA6464B8F535A99AE14A9A2BBD90E350DD183B5CFABE3AF262350B1EF4FC9351399401471025A527C218A1E53BAB5A5AB765F5469B96525EACF23FA6B88CFF34456DC2A1DCE36E360F82A5202F42F062ED2BAD
310
579969AFDD8A6F504B010214000A0000080000CC70623B3DEE336E79000000790000001B00000000000000000000000000000000006175746F6465736B2D64657369676E2D7061636B6167652E786D6C504B01021400140006080800CC70623BD486FD9CA0000000F40000001300000000000000000000000000B20000005B
310
436F6E74656E745F54797065735D2E786D6C504B01021400140006080800CC70623B853B8169EB0000007C010000080000000000000000000000000083010000636F72652E786D6C504B01021400140006080800CC70623B55019EA25F0000007C000000070000000000000000000000000094020000636E782E786D6C504B
310
01021400140006080800CC70623BDBABAAF470010000D40300000C00000000000000000000000000180300006662782F636F72652E786D6C504B01021400140006080800CC70623B9C113CC27E0000009D0000000B00000000000000000000000000B20400006662782F636E782E786D6C504B01021400140006080800CC70
310
623B7DF2F77C2A010000120200003100000000000000000000000000590500006662782F41393633353835312D344632462D344230382D423046372D3739314545314133324237412F636F72652E786D6C504B01021400140006080800CC70623BAD7543B64E010000330300003000000000000000000000000000D2060000
310
6662782F41393633353835312D344632462D344230382D423046372D3739314545314133324237412F636E782E786D6C504B01021400140006080800CC70623BE75B7789680500003C10000034000000000000000000000000006E0800006662782F41393633353835312D344632462D344230382D423046372D3739314545
310
314133324237412F6F626A656374732E786D6C504B01021400140006080000CC70623B0000000000000000000000003500000000000000000000000000280E00006662782F41393633353835312D344632462D344230382D423046372D3739314545314133324237412F76657274696365732E62696E504B01021400140006
310
080800CC70623BF270F133060000000400000036000000000000000000000000007B0E00006662782F41393633353835312D344632462D344230382D423046372D3739314545314133324237412F747269616E676C65732E62696E504B01021400140006080000CC70623B0000000000000000000000003700000000000000
310
000000000000D50E00006662782F41393633353835312D344632462D344230382D423046372D3739314545314133324237412F617474726962757465732E62696E504B01021400140006080800CC70623B08DA0BD1900000004101000036000000000000000000000000002A0F00006662782F41393633353835312D344632
310
462D344230382D423046372D3739314545314133324237412F6469726563746F72792E786D6C504B01021400140006080800CC70623BEDD1DC58FD000000A00100003B000000000000000000000000000E1000006662782F41393633353835312D344632462D344230382D423046372D3739314545314133324237412F7265
310
736F75726365732F636F72652E786D6C504B0506000000000E000E0080040000641100000000
  0
XRECORD
  5
3C20
102
{ACAD_REACTORS
330
1F7
102
}
330
1F7
100
AcDbXrecord
280
     1
102
MATERIAL
148
0.0
149
0.0
149
0.0
 93
        0
 94
       63
282
     0
 72
     1
 77
     1
171
     1
175
     1
179
     1
273
     0
  0
XRECORD
  5
1F8
102
{ACAD_REACTORS
330
1F7
102
}
330
1F7
100
AcDbXrecord
280
     1
 70
     1
 90
429727718
  1
30362254-06B7-45E0-A893-8CFA70E3D6BC
310
504B03040A0000080000CC70623B3DEE336E79000000790000001B0000006175746F6465736B2D64657369676E2D7061636B6167652E786D6C3C3F786D6C2076657273696F6E3D22312E302220656E636F64696E673D227574662D3822203F3E3C666F726D6174733E3C666F726D61743E687474703A2F2F736368656D612E
310
6175746F6465736B2E636F6D2F64657369676E2D7061636B6167652F323030393C2F666F726D61743E3C2F666F726D6174733E504B0304140006080800CC70623BD486FD9CA0000000F4000000130000005B436F6E74656E745F54797065735D2E786D6C7D8EC10E82300C865F65E91D8A1E8C310C0EEA1BF002731658846E
310
D98AC1B77784ABF1D8FE5FBFBF75BBCE937A534CCEB38643598122B6FEE978D0B0485F9C41B54DDD7D022595594E1A469170414C76A4D9A4D207E29CF43ECE46F218070CC6BECC4078ACAA135ACF422C856C0E68EA1BF5669944DDD7BCDE7B1F8E415D77AECB980613C2E4AC91FC167A2B244592486606FC29C8FD7F045B9A
310
EF7053A7E60B504B0304140006080800CC70623B1EC5D7A3EB0000007C01000008000000636F72652E786D6C8D90416EC3201045AF82665B6103C6756C6122AB4D4ED00B204C5C94182C03558F5F9C3852BBEB6A467FFE9B197D71FC9E6FE8CBACC17AD7032D0820E3B41FAD9B7A48F1820F808E52ACDEC75F36404ECDA687
310
4D0629A6D5A76597B477D1B89855E747B38B2A041301E95B6E7A08FAD3CCAA50296647B8168BD2573599823EBB0CA76447F43862C7BCCF5EAC59410E4DDD9C7973C2755553CCCFA4C603E3040F1565ED3B1FDE4E432BCA0D9622DAF9795FAF464533826484B498524CD807E51D79ED187F21878E10516EF63F505AC67F42C9
310
BA58B1FDDD071640D2FCC87D2045B96591CB3DA85CB7DCE40F504B0304140006080800CC70623B55019EA25F0000007C00000007000000636E782E786D6C4DCB3B0E80201045D1AD90E915ED2CF8AC45050C11660C8261F98AB1B07AC9C97D42D718D865D3E909258CFD00CCE24AC6E326A164D74DC0B4128928FF32603847
310
2BA13128B1252AC747C6BAB984FC68F0B87FE8960A5C09FE86CFB69FBA01504B0304140006080800CC70623B8C9102E971010000D40300000C0000006662782F636F72652E786D6CC5535B6E833010BC8AE5DF0A6C08340F1947A84D4ED00B38C6A128602363A31CBFCB234A53A551FA553EC09AD9F5CE8C31DB9E9B1AF5CA
310
7695D1198E428A91D2D214952E33ECDD315861B4E5CC1AE3BE9561A445A3323CC098B3D21ADFCE9034DA29ED00D5A6503328BA4E398C640D8B0C77F253352214DE4145770A5B214FA2546114020D759C75CE8200340D19DE981F0F6746269C33EFAB6266AB02A655C74A59CCF365BADC27CB5D902ED22848F6340DF238A141
310
BE88E2F57B92BFEDF23523433367AE6A2EEAA455C2A902F398D2751045018D3FA264435F3771F242571B4A1919CA6F9A7C5B3CD9E42BED16F12C776AEB308F40C848FC700B1139D4891EF410CEC810227CC6846F8386402064270EF5C5C709A05E49676C024C61FC95EA45ED154CA5211D1FF4FB8291A913A68E9B83EBBB33
310
E2A7673CDE118E5AE8124C0807CB8377834E366998436B950D7A7746DAD846D4CFD978E0F04FD455FC5D49D2D4C6FE9722321F10997F0F32DC47FE05504B0304140006080800CC70623BFFEA85907E0000009D0000000B0000006662782F636E782E786D6C4DCCD10A83201886E15B91FFDC95D95A811AB6F23E625948A6C3
310
E9D8E5AF46073BFAE0E1E365ED67B3E8ADC3CB78C7815C7240DA3DFC64DCC221C519D7805AC182F7F1EF06C88D9BE6703008B6049F9E274D7A1E938DBB5AE3D6131B2589BA0D3D965551E0B2EA732C9B9A624AAEB41E3A557677029960D9AFB4EF11165F504B0304140006080800CC70623B4FEEA4082C0100001202000031
310
0000006662782F39464131463745442D413632322D343644302D413938332D3331353338454246344243312F636F72652E786D6C8D515B6EC32010BC0AE2AB55850DD871ED0813254D72825EC00192A2C460F1A872FC42ED48ED5F7E00CDCECCCEB26C731F6FE05B39AFADE921293004CA082BB5B9F43086336A21D870E6AC
310
0D7F68109861543DCC30E4ECE26C9C164858139409093556AA051CBC570102714B8F1E7AF1A5C6A11862480C7F2DA6415C878B2A4891CA89C7990F2E050073937C42DE1DB7E4F87ED8A36D4329AA9B3D46DBAEAD504556557BD81DEBDD0761E52CE42C462D17B996298E3E6BE59E35C962CE821E1FF18553435012728A7187
310
0841987E927A8D9B35ADDF70BBC6989599FE4F1427F9A4286A132ABAC49D651EF234CD5CE04CDA78BA3DC2A8FB645D00B9DF8B57E215725C60BCA2A463E54C4CE327C7A65E1C7DB02E7DEFCBF594B864C5CA6CDBD49C957943E9FA5D5FBAF336F90F504B0304140006080800CC70623BAD7543B64E01000033030000300000
310
006662782F39464131463745442D413632322D343644302D413938332D3331353338454246344243312F636E782E786D6CD593CD6EC32010845F0571AD6CE3D48AD20813A9873E410FBD12D82434182C7EAAE6EDBB2424CD25871E7B41D6EC30B3FA84F9E67BB2E40B4234DE8DB46F1925E094D7C6ED479AD3AE5951B2113C
310
789FEE6C943839C1488B4C05DF079FE72A69D8C96C13AAD6B8631503449F83828872B949AC57D26200B826A308D316B4064D6E46FCDA41C05550DC9E483A00797BFD207EFB092A45DE9514C1BBD22178396BD39D891265658C238DEA00936C654E5E433CB65A26D9F6EDB5EBC14EBF49A45CB856E66048291F6939A9A81BB5
310
C8917738143CA680F4AA299D66A042CEB3354A2684DC9D8D178FE0D9B8B41CAAD720F880EE7EF93C0C18769E099ECC04D5A102C8049A8A05632F4DDF376CF1DE0F6BB65C2F8627B65A33C6BB62177CEBBDAD973006829F89F22E814B54F4BC2BE347F8AA8F681390B50FA73F804400B5F542E796F19FF974E7F78DB802FE05
310
E207504B0304140006080800CC70623B16AB87BA640500003C100000340000006662782F39464131463745442D413632322D343644302D413938332D3331353338454246344243312F6F626A656374732E786D6CAD575B6FA33818FD2B887DE6924B3BED8A326A92B68A663B534DD4D13E548A0C38942D60649B369D5FBFC7
310
600890A493BDE42160637FD7F31D7FF63E6FB3D478A55C242CBF3247B66B1A340F5994E4F19559CA8D75611A9F7D8F33263BCB4C232719BD32D5B4E97B316765A1A722BA21652A07B3B7B33F0D11D29C9A46981221AE4C113ED38CD8A4942CA2E2C58E882476BCD9DA23BB5ED8171B73523C0F841684D35CC252CCE79062D4
310
468DFA43D7747CCF51DF7D4FFDEB5593E3AB9CCA9FBEFE241792E4E19EB28198C968BAB8199F5D5A67D3E9C49A9E8F47D6EC76B6B0469F26EEFC7C3EBFBCBEB98462213924694B38DD98FE1D62C393D073EA4FADC5DAF04326852CCF6958F90F0F2B9BB5C48816348F90C7840A68EB78EDF68723159BCEE7891A6B95DDE9D3
310
BCEAEEE8086A6C6F9E5D4B59F0175C10A7A0820BAA5055C7473B5AE3CFDD452D602CD5DF12616444529E90D448938013FE6EFA58AA96F85E4F8C42275708571E98FE6827AF6B2B4AE3D7D83D64E5A64C53054DD3AF90BD06FEA9149565C94FCA0F6B834DC85599E4F2423B24DF0B6AFA979E534DFA9E7A4CC6FA631D486393
310
921829879BF5D781A373557BCB85E97FB90DB62B558F8795179C15944B051F40AB495CF35451D26A4727654E6D8033BD98EF82F21D91FF8AF2DD9982BCF1643BDD4EB516C9492E368C67C88DED563FC36D5EACF66DFF057C3658BDBFA69DF9578B3DA735B64F18C7F20770A9D45CFCF7FCF563D6456A277DBEF78A02637CA2
310
43B90A490AEAB94F72244481D24819A6C0E59B606BFA4B3025981DBB48EAB701D97BF19C577CC77F2D1B6C55A9EF3C732474C0B727303F625995056C3B02963D9EAC146BE78EC5FCEC7FA999EBC5EACBAAE41B12D27B4D2C0BBA49F244E2ECDC81B76B502F113D8F5EE8FB1BE3111CDD4FC2AA9B844CAB1288B68AB90A7CDC
310
1C166AB0D3DC5310625FCC14E779BFD0709F8890A629C9292B1B2DED31A4B0DA928CEE135085754027E3018A397D4D5427D15BD1330B677DC8934285AC3DF45A9EB68FF8F2B8FC0A509AFEECFD0FF2DE25CC6047F7214B195F07EFEB9A094D800F7BFAE8FED187B78EA8A3A400F115961BCAD1215E47C966530AF0EE8128FE
310
58CEBB996A8964FFA529A046635D9353B0336A8F700DDF46271A024E70B0B37C9DE01847591E54DED53D54202AB947E4076556AC49C6CA5C9E1226B7F1A7B1BE15DEED62C41B91E1B3E9AFAAA735036547343A925075041DF0A9979E893B391F8FCFA6967B3EFB644DCF6E5CEBFAE272625DCC6FAF3FB93793C5F90CE1EF57
310
407342756B10D1C489E8953CD1617E5CEECAD6F4EF8914CE5D5D504E5C3F1F9736DA62CFC11E00BCDDB8CC8A9466349744C1F75EBDA4DF09BA8A9E8C7A7E9991989E20E5DBDD6A6003664ED8F7A04A8DBE0DF6EAD9B9AA858342E47399053949D2C146EDB85DE4B176BB0965FBAC19BD19AA918E27FA50C1D22402E144464C
310
59462568E704B6E71915404CB72B8FF4EDE184DDAF753F284990D2C6926782963815403548A70C657FDEF80D2D9CEAA2AE4C1C76F60BFE74219A06527D6582DF6412526107381E55E353090704D085B52408D0933C4ED159D79BDA71BB4BC506F4831350EB6F979CD22D69BF7AC49B91A2C0A9DDA3D5CA36AD20FC478E37E6
310
1844E2352865EBCB6EA275A652E3836BE04EFB400BF1A2556F515F1FBB35B2AB35BD889C744FFA1004B5544B121E57F70215746DD2F5E2C1412B602CBF19455AC6C8E5E9922C4E01E65215385004546899059180EAFCF7A707CE7017CD8CDB0410789AB32C63B91E5CEBBBACB17AC6CD347A022D5075FD106377347AAABA7E
310
7D11590744509B44E205134DC1290F06580320F78E537D3D73540E06CB970B431F185308AD40BBD794D6D77003C5A36E8EAA54BA64597CD8F83BD552A080A365F7FF06504B0304140006080000CC70623B000000000000000000000000350000006662782F39464131463745442D413632322D343644302D413938332D3331
310
353338454246344243312F76657274696365732E62696E504B0304140006080800CC70623BF270F1330600000004000000360000006662782F39464131463745442D413632322D343644302D413938332D3331353338454246344243312F747269616E676C65732E62696E636660600000504B0304140006080000CC70623B
310
000000000000000000000000370000006662782F39464131463745442D413632322D343644302D413938332D3331353338454246344243312F617474726962757465732E62696E504B0304140006080800CC70623B08DA0BD19000000041010000360000006662782F39464131463745442D413632322D343644302D413938
310
332D3331353338454246344243312F6469726563746F72792E786D6C858F410AC3201045AF22B36F53E9A60B35CBEEBAE80D244E44489C6234F4F835464A48035D0DF398FF9F8AF63D0E6CC63039F212F8F9020C7D47C6792B21C5FE7403D62A1188E2E60C98D7234A5830286103A55745067B9D86B8A3CF9C7F90C11DE607
310
FB144396D7B6A82D282E9A152AD114D5EF2CB866EEE831B8EEA07A7BB5A8D7D61A2BAAEB7FD5F70921FF497D00504B0304140006080800CC70623B0D6EF93BFE000000A00100003B0000006662782F39464131463745442D413632322D343644302D413938332D3331353338454246344243312F7265736F75726365732F63
310
6F72652E786D6C8D50596E833010BD0A9ADFCA60B334011947A8694ED00B586642AC041B79A97AFC9A40A5F6AF3F33A3B7689E1E3F7DCD8FEC139DD7D6F4C0720A191A65476DA61E62B892236427C19DB5E1970C322367EC618541F0C9D9B8EC90B226A009093576C41D94DE63804C3DD2D18357379C652E63480A7FCF17A9
310
EE72C29CE5894E3AC17D702940B63D59270887DE46A7D0F36263058F518FBB468FE9A7BE6A7420864373B8D4873369AA8691FA421B3294352543C5CAF65C0F6FEF43CB8BD52C78D0F34F46E550061C419494B6843142CB0F5677F4B52BEB177AEC28E5C52AFF638ACBF84F53D42654E51E77B379102C05791282176B5F693D
310
CB4C7BED567C03504B010214000A0000080000CC70623B3DEE336E79000000790000001B00000000000000000000000000000000006175746F6465736B2D64657369676E2D7061636B6167652E786D6C504B01021400140006080800CC70623BD486FD9CA0000000F40000001300000000000000000000000000B20000005B
310
436F6E74656E745F54797065735D2E786D6C504B01021400140006080800CC70623B1EC5D7A3EB0000007C010000080000000000000000000000000083010000636F72652E786D6C504B01021400140006080800CC70623B55019EA25F0000007C000000070000000000000000000000000094020000636E782E786D6C504B
310
01021400140006080800CC70623B8C9102E971010000D40300000C00000000000000000000000000180300006662782F636F72652E786D6C504B01021400140006080800CC70623BFFEA85907E0000009D0000000B00000000000000000000000000B30400006662782F636E782E786D6C504B01021400140006080800CC70
310
623B4FEEA4082C0100001202000031000000000000000000000000005A0500006662782F39464131463745442D413632322D343644302D413938332D3331353338454246344243312F636F72652E786D6C504B01021400140006080800CC70623BAD7543B64E010000330300003000000000000000000000000000D5060000
310
6662782F39464131463745442D413632322D343644302D413938332D3331353338454246344243312F636E782E786D6C504B01021400140006080800CC70623B16AB87BA640500003C1000003400000000000000000000000000710800006662782F39464131463745442D413632322D343644302D413938332D3331353338
310
454246344243312F6F626A656374732E786D6C504B01021400140006080000CC70623B0000000000000000000000003500000000000000000000000000270E00006662782F39464131463745442D413632322D343644302D413938332D3331353338454246344243312F76657274696365732E62696E504B01021400140006
310
080800CC70623BF270F133060000000400000036000000000000000000000000007A0E00006662782F39464131463745442D413632322D343644302D413938332D3331353338454246344243312F747269616E676C65732E62696E504B01021400140006080000CC70623B0000000000000000000000003700000000000000
310
000000000000D40E00006662782F39464131463745442D413632322D343644302D413938332D3331353338454246344243312F617474726962757465732E62696E504B01021400140006080800CC70623B08DA0BD190000000410100003600000000000000000000000000290F00006662782F39464131463745442D413632
310
322D343644302D413938332D3331353338454246344243312F6469726563746F72792E786D6C504B01021400140006080800CC70623B0D6EF93BFE000000A00100003B000000000000000000000000000D1000006662782F39464131463745442D413632322D343644302D413938332D3331353338454246344243312F7265
310
736F75726365732F636F72652E786D6C504B0506000000000E000E0080040000641100000000
  0
XRECORD
  5
3C22
102
{ACAD_REACTORS
330
173
102
}
330
173
100
AcDbXrecord
280
     1
102
MATERIAL
148
0.0
149
0.0
149
0.0
 93
        0
 94
       63
282
     0
 72
     1
 77
     1
171
     1
175
     1
179
     1
273
     0
  0
XRECORD
  5
175
102
{ACAD_REACTORS
330
173
102
}
330
173
100
AcDbXrecord
280
     1
270
     1
271
     1
  0
XRECORD
  5
174
102
{ACAD_REACTORS
330
173
102
}
330
173
100
AcDbXrecord
280
     1
270
     1
271
     1
  0
XRECORD
  5
1FB
102
{ACAD_REACTORS
330
173
102
}
330
173
100
AcDbXrecord
280
     1
 70
     0
 90
1673772943
  1
ECE7A1D2-D628-4531-984C-D00F80459256
310
504B03040A0000080000CC70623B3DEE336E79000000790000001B0000006175746F6465736B2D64657369676E2D7061636B6167652E786D6C3C3F786D6C2076657273696F6E3D22312E302220656E636F64696E673D227574662D3822203F3E3C666F726D6174733E3C666F726D61743E687474703A2F2F736368656D612E
310
6175746F6465736B2E636F6D2F64657369676E2D7061636B6167652F323030393C2F666F726D61743E3C2F666F726D6174733E504B0304140006080800CC70623BD486FD9CA0000000F4000000130000005B436F6E74656E745F54797065735D2E786D6C7D8EC10E82300C865F65E91D8A1E8C310C0EEA1BF002731658846E
310
D98AC1B77784ABF1D8FE5FBFBF75BBCE937A534CCEB38643598122B6FEE978D0B0485F9C41B54DDD7D022595594E1A469170414C76A4D9A4D207E29CF43ECE46F218070CC6BECC4078ACAA135ACF422C856C0E68EA1BF5669944DDD7BCDE7B1F8E415D77AECB980613C2E4AC91FC167A2B244592486606FC29C8FD7F045B9A
310
EF7053A7E60B504B0304140006080800CC70623BD9DDAED0EC0000007C01000008000000636F72652E786D6C8D90416EC3201045AF82665B61836D9CD8C2444DD39CA01740405C94182C03558F5F9C3852BBEB6A467FFE9B197D7EF89E6EE8CB2CC17A37002D0820E394D7D68D03A478C17B4007C117EFE32F1B20272733C0
310
2A83E0E3E2D3BC49CABB685CCCAAF3DA6CA20CC14440EA969B0182FA34932C648AD911AEC52CD5558EA6A0CF2EC329598D1E47ACCEFBECC59A050463A7EA5833865FEBDD0E37353BE3EE8DBDE3F6786A48D375FBF6CC78B9C282473B3DEFABC5C86834888A900E538A49F5419B9EB47DD5BC907D4F082F57FB1F28CDFA9F50
310
B22ED6D5F6EE030B20687EE43E10BC5CB3C8E51E54AE6B6EE207504B0304140006080800CC70623B55019EA25F0000007C00000007000000636E782E786D6C4DCB3B0E80201045D1AD90E915ED2CF8AC45050C11660C8261F98AB1B07AC9C97D42D718D865D3E909258CFD00CCE24AC6E326A164D74DC0B4128928FF326038
310
472BA13128B1252AC747C6BAB984FC68F0B87FE8960A5C09FE86CFB69FBA01504B0304140006080800CC70623BA24EB22D72010000D40300000C0000006662782F636F72652E786D6CC5535B6E833010BC8AE5DF0A6C5E49888CA3A6694ED00B38E05014B091B1518EDFE511A5A9D228FD2A1F60CDEC7A67C6986DCE4D8D7A
310
69BA4AAB0C073EC548AA5C17952A33ECECD15B61B4E1CC686DBF9561A44423333CC098B3D268D7CE50AE9595CA02AA74216750749DB418E5352C32DCE59FB211BE70162ABA93DF8AFC244AE9073ED050C759670D0840D390E18DF9F1706664C23973AE2A66B62A605A75ACA4C13C4976E1364A12EF355A2EBD384AF65EFA96
310
BC7B8BED2EA6719AAE16FB8491A199335B351775B991C2CA02F390D2D40B028F861F41BCA68B7518BFD0D59A524686F29B26D7164F36B94AD9289CE54E6D1DE6010819891F6E21228B3AD1831EC219194284CF98F06DD01008846CC5A1BEF83801D4CBDC6A1303536877A57A513B0953A94FC707FDBE6064EA84A9E3E6E0FA
310
EE8CF0E9198F7784A316AA0413C2C2F2E0ECA0934D1AE6D05A69BCDE9E91D2A611F573361E38FC1375157F5752AE6B6DFE4B11990F88CCBF0719EE23FF02504B0304140006080800CC70623B408A7D3B7C0000009D0000000B0000006662782F636E782E786D6C4DCCD10A83201886E15B91FFDC552A92A0064DBC8F581632
310
D3703A76F9ABD1C18E3E78F878E5F0D9027ABBFCF2292AE86E2D20171F69F6715550CB827B40839639A5F2770314A7CD293819B45C73AAFB45B35BA61ACAA1C1C7E7855C58C15BC331339661262CC762340413D68D77DA5B42298546CBE6573AF60CEB2F504B0304140006080800CC70623B449FB9BD290100001202000031
310
0000006662782F36394639363044362D344446342D343946362D394244322D3234314243333846323333332F636F72652E786D6C8D515B6EC32010BC0AE22B55850D98B871848994463E412FE002495162B07854397EA176A4F62F3F2C9A9D991D587EB84F37F0AD7D30CEF6905418026DA553C65E7A98E219ED203808EE9D
310
8B7F6810D871D23D2C3014FCE25D9A57483A1BB58D19B54EE9151C43D0110279CB971E06F9A5A7B11A53CC8C70ADE6515EC78BAE4895DB992778883E0700CB907242D17643D7E2538BD869608875438BBAE38922CAC8F1BDD90DB4691A5E2F42C153326A951B95E398B3D1FE599322163C9AE9115F7A3D46ADA0A018778810
310
84E907617BDCEE297BC5BB3DC6BC2EF47FA234AB2745C9D8D8D035EE220B50105E2F0DC1954B9FB747187D9F9D8FA0CCDB042D5FA0C015C65B42DF78BD10F3F3B363CB56C7109DCFDFBBB97E662ED92EB62D13BC2E1BCAE5777DB9966D8A1F504B0304140006080800CC70623BAD7543B64E01000033030000300000006662
310
782F36394639363044362D344446342D343946362D394244322D3234314243333846323333332F636E782E786D6CD593CD6EC32010845F0571AD6CE3D48AD20813A9873E410FBD12D82434182C7EAAE6EDBB2424CD25871E7B41D6EC30B3FA84F9E67BB2E40B4234DE8DB46F1925E094D7C6ED479AD3AE5951B2113C789FEE
310
6C943839C1488B4C05DF079FE72A69D8C96C13AAD6B8631503449F83828872B949AC57D26200B826A308D316B4064D6E46FCDA41C05550DC9E483A00797BFD207EFB092A45DE9514C1BBD22178396BD39D891265658C238DEA00936C654E5E433CB65A26D9F6EDB5EBC14EBF49A45CB856E66048291F6939A9A81BB5C89177
310
38143CA680F4AA299D66A042CEB3354A2684DC9D8D178FE0D9B8B41CAAD720F880EE7EF93C0C18769E099ECC04D5A102C8049A8A05632F4DDF376CF1DE0F6BB65C2F8627B65A33C6BB62177CEBBDAD973006829F89F22E814B54F4BC2BE347F8AA8F681390B50FA73F804400B5F542E796F19FF974E7F78DB802FE05E20750
310
4B0304140006080800CC70623B8D05915C650500003B100000340000006662782F36394639363044362D344446342D343946362D394244322D3234314243333846323333332F6F626A656374732E786D6CAD575B6FA33814FE2B887D06429276DA1565D4266D158D3A339A6846FB502932E050B66023DB74D2FDF5FB190C01
310
9276B2973C046C8ECFF53B17071F77456EBD502133CEAE6CDF9DD81665314F32965ED995DA3A17B6F5310C04E7AA47665B8C14F4CAD6DB7618A48257A5D94AE89654B91AEDDEDDFC61C998326A5B714EA4BCB265FC440BE2924AF184CA6737218AB8E976E7FA6E4338649B0A523E8D98964450A6A029F619B8588D52FE7039
310
B1BD30F0F4F730D0FF866AF6369557DB33949F31A9088B0F848DD8CCFCF9F2767A76E99CCDE733677E3EF59D9BBB9BA5E37F984D16E78BC5E5F5ED25044B25C0C96822E8D60EEFE11B91C581D77CEA34368A1F5329E68CD1B8B61F16D63A1B8E092D294B10C78C4A48EB593D192E7DED9BDEE7995E1B91FDEDD3ACEA9FE831
310
6A756F9F7D4D79F4274C90A7A04248AA51D5F8C718DAE06FB2F75AC4796EBE65D22A88A22223B995679120E2D50E41AA49C260C046A35368846B0BECD0DFF3EBEB8AD4F835768F69B9ADF25C43D30E6B646F807FAA64AD59F61715C7A54127C4AACA98BA3006A9D792DAE165E0D59B61A01FB3A9F9D838D2DAE62445C86166
310
F37564E842E7DE6A69879FEEA2DD5AE7E371E1A5E025154AC307D06A03D73EB5978C58FFA4C8E9033066E0F3BD53BEC1F39F91BE7B55103791EDE6BBB991A2046172CB4581D8B893FA674DDA17A77B3B7C413D1B511FD2743BFF8A38F03A658705E3ADF8015C3A3417FF3D7E439FF591DA0B5F18BC20C1B8981957AE6392A3
310
F43C640C01D1A0B4728E2DD4F26DB4B3C3152A252A3B4E913CEC1C72F012782FF88EFF8637AA552DBEF76408E8A8DE9E50F9E1CB3A2DA0DB1B6039A893B56063DC5B3E3FFB5F72E67AB9FEB4AEC496C4F4C1149625DD662C53E89D7BF0F6151A046260D1337DFDC94502430F83B0EE07A130A224BCAD7DAE1D9FB6CD422FF6
310
920702629C4BB9AE79C12F243C6432A6794E18E5552BA56B431AAB5D91317302B2B071E86C3A42B1A02F999E24061403B5D0EB639195DA655DD3EBEAB4FB862DDF579F014AD0E73C22F99E28DA57FB98E75C6CA2D74D53086D600F4786E0FE3144B771A8A7B900F03594DB8A633CBC49B2EDB69228BB479CF863B5E807AAAB
310
23872F6DFEB4129B949CA33823F58830E86D65621E10047D9DB34D862E8EAC3C2ABC2F7B2C40D67CDFE01F5545B92105AF983AC54D93D69E56FB8E797F88913F898A9FEC705D3F9D1B54EC8426FB500D40A03BD0119B06E1B95DDC7EB8F6975367793EBD70E66733DFB9BC982F9CE564727731999F5D4ECFCE3B8D6A4DC2A0
310
6D50FD148437D110834A64C6CDDF57FBACB5C307A2A477DFE4939736CFEF2B175371E0E10CF0DD1D5C15654E0BCA14D1E87DD02FF93782A162C0A3D95F1524A52770F972BF1EE9809D13CE7DD599467F8ECE9ADD85CE85A34CD45355448C64F9E8A031DC2D596ACC6E5DD93D9B82DE2EF5CAF81363A8E47996A0DE24564A79
310
4115AACE09C55E14540231FDA13C319787134EBF34E3A022514E5B4D9E0826E25C02D5805B15ABE1BEF51B26383D445DD9E875EE33FE4C22DA16427D65A3BCA92CA6D28DD01DF5DC53330704308475351050232CCD31583787BA75774AFB06E5070DD0C8EF484E19968C5D83BA5B90B244D31E54D55A372320FE4786B7EA58
310
44E135AA5467CB7EA333A61683CC6A8C3257034C10CF46F40EF9F5BE59BE5BD30C3C72D235E95D10345C1D45445A5F0BB47E46A5EBE5570F9380B5FA629579952296A773720405982B9DE04011506178964401AA8BDF1FBF0A8EAB6861DD6580C0E38217056766716DAEB2D6FA0917D3E4116581EADB879C4E7CFFB11EFACD
310
3D641311495D92C8676CB409A72D18610D803CE8A626049E8EC1887CB5B44CC39883690DDA8399B4B9855B481E7D71D4A9D22F96E5BB73BF5793020C02137BF837504B0304140006080000CC70623B000000000000000000000000350000006662782F36394639363044362D344446342D343946362D394244322D32343142
310
43333846323333332F76657274696365732E62696E504B0304140006080800CC70623BF270F1330600000004000000360000006662782F36394639363044362D344446342D343946362D394244322D3234314243333846323333332F747269616E676C65732E62696E636660600000504B0304140006080000CC70623B0000
310
00000000000000000000370000006662782F36394639363044362D344446342D343946362D394244322D3234314243333846323333332F617474726962757465732E62696E504B0304140006080800CC70623B08DA0BD19000000041010000360000006662782F36394639363044362D344446342D343946362D394244322D
310
3234314243333846323333332F6469726563746F72792E786D6C858F410AC3201045AF22B36F53E9A60B35CBEEBAE80D244E44489C6234F4F835464A48035D0DF398FF9F8AF63D0E6CC63039F212F8F9020C7D47C6792B21C5FE7403D62A1188E2E60C98D7234A5830286103A55745067B9D86B8A3CF9C7F90C11DE607FB14
310
4396D7B6A82D282E9A152AD114D5EF2CB866EEE831B8EEA07A7BB5A8D7D61A2BAAEB7FD5F70921FF497D00504B0304140006080800CC70623BCA768048FE000000A00100003B0000006662782F36394639363044362D344446342D343946362D394244322D3234314243333846323333332F7265736F75726365732F636F72
310
652E786D6C8D50596E833010BD0A9ADFCA60D600328E9AA639412F609909B1126CE4A5EAF16B0295DABFFECC8CDEA2797AECF8353F924FB44E193D409E5248504B332A3D0D10FC95B4901C39B3C6F85F3248B49871801506CE266BC2B243D2688FDA47549B11775038871E12F988C7004EDE7016A9083E2ADC3D5D84BC8B09
310
D33C8D74D471E6BC8D0192EDC93A815B742658898E651BCB59086ADC356A8C3FD555A1055ED7E7E254D615792D0F075295F585746FF53B694EE78A565DD736979A65AB9933AFE69F8CD2A2F038022F28ED489E135A7CE4554F9BBEA85E68DB53CAB255FEC71496F19FA6A0B42F8B3DEE6673C0F318E4497096AD7DC5F52C33
310
EEB55BFE0D504B010214000A0000080000CC70623B3DEE336E79000000790000001B00000000000000000000000000000000006175746F6465736B2D64657369676E2D7061636B6167652E786D6C504B01021400140006080800CC70623BD486FD9CA0000000F40000001300000000000000000000000000B20000005B436F
310
6E74656E745F54797065735D2E786D6C504B01021400140006080800CC70623BD9DDAED0EC0000007C010000080000000000000000000000000083010000636F72652E786D6C504B01021400140006080800CC70623B55019EA25F0000007C000000070000000000000000000000000095020000636E782E786D6C504B0102
310
1400140006080800CC70623BA24EB22D72010000D40300000C00000000000000000000000000190300006662782F636F72652E786D6C504B01021400140006080800CC70623B408A7D3B7C0000009D0000000B00000000000000000000000000B50400006662782F636E782E786D6C504B01021400140006080800CC70623B
310
449FB9BD290100001202000031000000000000000000000000005A0500006662782F36394639363044362D344446342D343946362D394244322D3234314243333846323333332F636F72652E786D6C504B01021400140006080800CC70623BAD7543B64E010000330300003000000000000000000000000000D20600006662
310
782F36394639363044362D344446342D343946362D394244322D3234314243333846323333332F636E782E786D6C504B01021400140006080800CC70623B8D05915C650500003B10000034000000000000000000000000006E0800006662782F36394639363044362D344446342D343946362D394244322D32343142433338
310
46323333332F6F626A656374732E786D6C504B01021400140006080000CC70623B0000000000000000000000003500000000000000000000000000250E00006662782F36394639363044362D344446342D343946362D394244322D3234314243333846323333332F76657274696365732E62696E504B010214001400060808
310
00CC70623BF270F13306000000040000003600000000000000000000000000780E00006662782F36394639363044362D344446342D343946362D394244322D3234314243333846323333332F747269616E676C65732E62696E504B01021400140006080000CC70623B00000000000000000000000037000000000000000000
310
00000000D20E00006662782F36394639363044362D344446342D343946362D394244322D3234314243333846323333332F617474726962757465732E62696E504B01021400140006080800CC70623B08DA0BD190000000410100003600000000000000000000000000270F00006662782F36394639363044362D344446342D
310
343946362D394244322D3234314243333846323333332F6469726563746F72792E786D6C504B01021400140006080800CC70623BCA768048FE000000A00100003B000000000000000000000000000B1000006662782F36394639363044362D344446342D343946362D394244322D3234314243333846323333332F7265736F
310
75726365732F636F72652E786D6C504B0506000000000E000E0080040000621100000000
  0
XRECORD
  5
176
102
{ACAD_REACTORS
330
173
102
}
330
173
100
AcDbXrecord
280
     1
270
     1
271
     1
  0
XRECORD
  5
177
102
{ACAD_REACTORS
330
173
102
}
330
173
100
AcDbXrecord
280
     1
270
     1
271
     1
  0
XRECORD
  5
3C44
102
{ACAD_REACTORS
330
3C43
102
}
330
3C43
100
AcDbXrecord
280
     1
102
ACAD_ROUNDTRIP_2012_MLEADER_STYLE
298
     1
  0
XRECORD
  5
3C56
102
{ACAD_REACTORS
330
3C55
102
}
330
3C55
100
AcDbXrecord
280
     1
102
DISPLAYNAME
  1
Metric50
102
FLAGS
 90
        0
  0
CELLSTYLEMAP
  5
3C16
102
{ACAD_REACTORS
330
162
102
}
330
162
100
AcDbCellStyleMap
 90
        3
300
CELLSTYLE
  1
TABLEFORMAT_BEGIN
 90
        5
170
     1
 91
        0
 92
    32768
 62
   257
 93
        1
300
CONTENTFORMAT
  1
CONTENTFORMAT_BEGIN
 90
        0
 91
        0
 92
      512
 93
        0
300

 40
0.0
140
1.0
 94
        5
 62
     0
340
11
144
6.0
309
CONTENTFORMAT_END
171
     1
301
MARGIN
  1
CELLMARGIN_BEGIN
 40
1.5
 40
1.5
 40
1.5
 40
1.5
 40
4.5
 40
4.5
309
CELLMARGIN_END
 94
        6
 95
        1
302
GRIDFORMAT
  1
GRIDFORMAT_BEGIN
 90
        0
 91
        1
 62
     0
 92
       -2
340
14
 93
        0
 40
1.125
309
GRIDFORMAT_END
 95
        2
302
GRIDFORMAT
  1
GRIDFORMAT_BEGIN
 90
        0
 91
        1
 62
     0
 92
       -2
340
14
 93
        0
 40
1.125
309
GRIDFORMAT_END
 95
        4
302
GRIDFORMAT
  1
GRIDFORMAT_BEGIN
 90
        0
 91
        1
 62
     0
 92
       -2
340
14
 93
        0
 40
1.125
309
GRIDFORMAT_END
 95
        8
302
GRIDFORMAT
  1
GRIDFORMAT_BEGIN
 90
        0
 91
        1
 62
     0
 92
       -2
340
14
 93
        0
 40
1.125
309
GRIDFORMAT_END
 95
       16
302
GRIDFORMAT
  1
GRIDFORMAT_BEGIN
 90
        0
 91
        1
 62
     0
 92
       -2
340
14
 93
        0
 40
1.125
309
GRIDFORMAT_END
 95
       32
302
GRIDFORMAT
  1
GRIDFORMAT_BEGIN
 90
        0
 91
        1
 62
     0
 92
       -2
340
14
 93
        0
 40
1.125
309
GRIDFORMAT_END
309
TABLEFORMAT_END
  1
CELLSTYLE_BEGIN
 90
        1
 91
        1
300
_TITLE
309
CELLSTYLE_END
300
CELLSTYLE
  1
TABLEFORMAT_BEGIN
 90
        5
170
     1
 91
        0
 92
        0
 62
   257
 93
        1
300
CONTENTFORMAT
  1
CONTENTFORMAT_BEGIN
 90
        0
 91
        0
 92
      512
 93
        0
300

 40
0.0
140
1.0
 94
        5
 62
     0
340
11
144
4.5
309
CONTENTFORMAT_END
171
     1
301
MARGIN
  1
CELLMARGIN_BEGIN
 40
1.5
 40
1.5
 40
1.5
 40
1.5
 40
4.5
 40
4.5
309
CELLMARGIN_END
 94
        6
 95
        1
302
GRIDFORMAT
  1
GRIDFORMAT_BEGIN
 90
        0
 91
        1
 62
     0
 92
       -2
340
14
 93
        0
 40
1.125
309
GRIDFORMAT_END
 95
        2
302
GRIDFORMAT
  1
GRIDFORMAT_BEGIN
 90
        0
 91
        1
 62
     0
 92
       -2
340
14
 93
        0
 40
1.125
309
GRIDFORMAT_END
 95
        4
302
GRIDFORMAT
  1
GRIDFORMAT_BEGIN
 90
        0
 91
        1
 62
     0
 92
       -2
340
14
 93
        0
 40
1.125
309
GRIDFORMAT_END
 95
        8
302
GRIDFORMAT
  1
GRIDFORMAT_BEGIN
 90
        0
 91
        1
 62
     0
 92
       -2
340
14
 93
        0
 40
1.125
309
GRIDFORMAT_END
 95
       16
302
GRIDFORMAT
  1
GRIDFORMAT_BEGIN
 90
        0
 91
        1
 62
     0
 92
       -2
340
14
 93
        0
 40
1.125
309
GRIDFORMAT_END
 95
       32
302
GRIDFORMAT
  1
GRIDFORMAT_BEGIN
 90
        0
 91
        1
 62
     0
 92
       -2
340
14
 93
        0
 40
1.125
309
GRIDFORMAT_END
309
TABLEFORMAT_END
  1
CELLSTYLE_BEGIN
 90
        2
 91
        1
300
_HEADER
309
CELLSTYLE_END
300
CELLSTYLE
  1
TABLEFORMAT_BEGIN
 90
        5
170
     1
 91
        0
 92
        0
 62
   257
 93
        1
300
CONTENTFORMAT
  1
CONTENTFORMAT_BEGIN
 90
        0
 91
        0
 92
      512
 93
        0
300

 40
0.0
140
1.0
 94
        2
 62
     0
340
11
144
4.5
309
CONTENTFORMAT_END
171
     1
301
MARGIN
  1
CELLMARGIN_BEGIN
 40
1.5
 40
1.5
 40
1.5
 40
1.5
 40
4.5
 40
4.5
309
CELLMARGIN_END
 94
        6
 95
        1
302
GRIDFORMAT
  1
GRIDFORMAT_BEGIN
 90
        0
 91
        1
 62
     0
 92
       -2
340
14
 93
        0
 40
1.125
309
GRIDFORMAT_END
 95
        2
302
GRIDFORMAT
  1
GRIDFORMAT_BEGIN
 90
        0
 91
        1
 62
     0
 92
       -2
340
14
 93
        0
 40
1.125
309
GRIDFORMAT_END
 95
        4
302
GRIDFORMAT
  1
GRIDFORMAT_BEGIN
 90
        0
 91
        1
 62
     0
 92
       -2
340
14
 93
        0
 40
1.125
309
GRIDFORMAT_END
 95
        8
302
GRIDFORMAT
  1
GRIDFORMAT_BEGIN
 90
        0
 91
        1
 62
     0
 92
       -2
340
14
 93
        0
 40
1.125
309
GRIDFORMAT_END
 95
       16
302
GRIDFORMAT
  1
GRIDFORMAT_BEGIN
 90
        0
 91
        1
 62
     0
 92
       -2
340
14
 93
        0
 40
1.125
309
GRIDFORMAT_END
 95
       32
302
GRIDFORMAT
  1
GRIDFORMAT_BEGIN
 90
        0
 91
        1
 62
     0
 92
       -2
340
14
 93
        0
 40
1.125
309
GRIDFORMAT_END
309
TABLEFORMAT_END
  1
CELLSTYLE_BEGIN
 90
        3
 91
        2
300
_DATA
309
CELLSTYLE_END
  0
XRECORD
  5
3C1B
102
{ACAD_REACTORS
330
162
102
}
330
162
100
AcDbXrecord
280
     1
102
ACAD_ROUNDTRIP_PRE2007_TABLESTYLE
 90
      512
 91
        0
  1

 92
      512
 93
        0
  2

 94
      512
 95
        0
  3

  0
XRECORD
  5
3C2E
102
{ACAD_REACTORS
330
3C2D
102
}
330
3C2D
100
AcDbXrecord
280
     1
102
RTVSPost2010Prop28
280
     1
102
RTVSPost2010PropOp28
 70
     1
102
RTVSPost2010Prop29
280
     1
102
RTVSPost2010PropOp29
 70
     1
102
RTVSPost2010Prop30
280
     0
102
RTVSPost2010PropOp30
 70
     1
102
RTVSPost2010Prop31
280
     0
102
RTVSPost2010PropOp31
 70
     1
102
RTVSPost2010Prop32
280
     0
102
RTVSPost2010PropOp32
 70
     1
102
RTVSPost2010Prop33
280
     0
102
RTVSPost2010PropOp33
 70
     1
102
RTVSPost2010Prop34
280
     0
102
RTVSPost2010PropOp34
 70
     1
102
RTVSPost2010Prop35
280
     0
102
RTVSPost2010PropOp35
 70
     1
102
RTVSPost2010Prop36
280
     0
102
RTVSPost2010PropOp36
 70
     1
102
RTVSPost2010Prop37
 90
       50
102
RTVSPost2010PropOp37
 70
     1
102
RTVSPost2010Prop38
140
0.0
102
RTVSPost2010PropOp38
 70
     1
102
RTVSPost2010Prop39
140
1.0
102
RTVSPost2010PropOp39
 70
     1
102
RTVSPost2010Prop40
 90
        0
102
RTVSPost2010PropOp40
 70
     1
102
RTVSPost2010Prop41ColorIndex
 90
       18
102
RTVSPost2010Prop41ColorRGB
 90
        0
102
RTVSPost2010PropOp41
 70
     1
102
RTVSPost2010Prop42
 90
       50
102
RTVSPost2010PropOp42
 70
     1
102
RTVSPost2010Prop43
 90
        3
102
RTVSPost2010PropOp43
 70
     1
102
RTVSPost2010Prop44ColorIndex
 90
        5
102
RTVSPost2010Prop44ColorRGB
 90
      255
102
RTVSPost2010PropOp44
 70
     1
102
RTVSPost2010Prop45
280
     0
102
RTVSPost2010PropOp45
 70
     1
102
RTVSPost2010Prop46
 90
       50
102
RTVSPost2010PropOp46
 70
     1
102
RTVSPost2010Prop47
 90
       50
102
RTVSPost2010PropOp47
 70
     1
102
RTVSPost2010Prop48
 90
       50
102
RTVSPost2010PropOp48
 70
     1
102
RTVSPost2010Prop49
280
     0
102
RTVSPost2010PropOp49
 70
     1
102
RTVSPost2010Prop50
 90
       50
102
RTVSPost2010PropOp50
 70
     1
102
RTVSPost2010Prop51ColorIndex
 90
      256
102
RTVSPost2010Prop51ColorRGB
 90
-16777216
102
RTVSPost2010PropOp51
 70
     0
102
RTVSPost2010Prop52
140
1.0
102
RTVSPost2010PropOp52
 70
     0
102
RTVSPost2010Prop53
 90
        2
102
RTVSPost2010PropOp53
 70
     1
102
RTVSPost2010Prop54
  1
strokes_ogs.tif
102
RTVSPost2010PropOp54
 70
     1
102
RTVSPost2010Prop55
280
     0
102
RTVSPost2010PropOp55
 70
     1
102
RTVSPost2010Prop56
140
1.0
102
RTVSPost2010PropOp56
 70
     1
102
RTVSPost2010Prop57
140
1.0
102
RTVSPost2010PropOp57
 70
     1
102
RTVSPropertyOp0
 70
     1
102
RTVSPropertyOp1
 70
     1
102
RTVSPropertyOp2
 70
     1
102
RTVSPropertyOp3
 70
     1
102
RTVSPropertyOp4
 70
     1
102
RTVSPropertyOp5
 70
     1
102
RTVSPropertyOp6
 70
     1
102
RTVSPropertyOp7
 70
     1
102
RTVSPropertyOp8
 70
     1
102
RTVSPropertyOp9
 70
     1
102
RTVSPropertyOp10
 70
     1
102
RTVSPropertyOp11
 70
     1
102
RTVSPropertyOp12
 70
     1
102
RTVSPropertyOp13
 70
     1
102
RTVSPropertyOp14
 70
     1
102
RTVSPropertyOp15
 70
     1
102
RTVSPropertyOp16
 70
     1
102
RTVSPropertyOp17
 70
     1
102
RTVSPropertyOp18
 70
     1
102
RTVSPropertyOp19
 70
     1
102
RTVSPropertyOp20
 70
     1
102
RTVSPropertyOp21
 70
     1
102
RTVSPropertyOp22
 70
     1
102
RTVSPropertyOp23
 70
     1
102
RTVSPropertyOp24
 70
     1
102
RTVSPropertyOp25
 70
     1
102
RTVSPropertyOp26
 70
     1
102
RTVSPropertyOp27
 70
     1
102
RTVSPropertyOp28
 70
     1
102
RTVSPropertyOp29
 70
     1
102
RTVSPropertyOp30
 70
     1
102
RTVSPropertyOp31
 70
     1
102
RTVSPropertyOp32
 70
     1
102
RTVSPropertyOp33
 70
     1
102
RTVSPropertyOp34
 70
     1
102
RTVSPropertyOp35
 70
     1
102
RTVSPropertyOp36
 70
     1
102
RTVSPropertyOp37
 70
     1
102
RTVSPropertyOp38
 70
     1
102
RTVSPropertyOp39
 70
     1
102
RTVSPropertyOp40
 70
     1
102
RTVSPropertyOp41
 70
     1
102
RTVSPropertyOp42
 70
     1
102
RTVSPropertyOp43
 70
     1
102
RTVSPropertyOp44
 70
     1
102
RTVSPropertyOp45
 70
     1
102
RTVSPropertyOp46
 70
     1
102
RTVSPropertyOp47
 70
     1
102
RTVSPropertyOp48
 70
     1
102
RTVSPropertyOp49
 70
     1
102
RTVSPropertyOp50
 70
     1
102
RTVSPropertyOp51
 70
     0
102
RTVSPropertyOp52
 70
     0
102
RTVSPropertyOp53
 70
     1
102
RTVSPropertyOp54
 70
     1
102
RTVSPropertyOp55
 70
     1
102
RTVSPropertyOp56
 70
     1
102
RTVSPropertyOp57
 70
     1
102
RTVSPropertyOp58
 70
     1
102
RTVSPropertyOp59
 70
     1
102
RTVSPropertyOp60
 70
     1
102
RTVSPropertyOp61
 70
     1
102
RTVSPropertyOp62
 70
     1
  0
XRECORD
  5
3C2C
102
{ACAD_REACTORS
330
3C2B
102
}
330
3C2B
100
AcDbXrecord
280
     1
102
RTVSPost2010Prop28
280
     0
102
RTVSPost2010PropOp28
 70
     1
102
RTVSPost2010Prop29
280
     1
102
RTVSPost2010PropOp29
 70
     1
102
RTVSPost2010Prop30
280
     1
102
RTVSPost2010PropOp30
 70
     1
102
RTVSPost2010Prop31
280
     0
102
RTVSPost2010PropOp31
 70
     1
102
RTVSPost2010Prop32
280
     0
102
RTVSPost2010PropOp32
 70
     1
102
RTVSPost2010Prop33
280
     0
102
RTVSPost2010PropOp33
 70
     1
102
RTVSPost2010Prop34
280
     0
102
RTVSPost2010PropOp34
 70
     1
102
RTVSPost2010Prop35
280
     0
102
RTVSPost2010PropOp35
 70
     1
102
RTVSPost2010Prop36
280
     0
102
RTVSPost2010PropOp36
 70
     1
102
RTVSPost2010Prop37
 90
       50
102
RTVSPost2010PropOp37
 70
     1
102
RTVSPost2010Prop38
140
0.0
102
RTVSPost2010PropOp38
 70
     1
102
RTVSPost2010Prop39
140
1.0
102
RTVSPost2010PropOp39
 70
     1
102
RTVSPost2010Prop40
 90
        0
102
RTVSPost2010PropOp40
 70
     1
102
RTVSPost2010Prop41ColorIndex
 90
       18
102
RTVSPost2010Prop41ColorRGB
 90
        0
102
RTVSPost2010PropOp41
 70
     1
102
RTVSPost2010Prop42
 90
       50
102
RTVSPost2010PropOp42
 70
     1
102
RTVSPost2010Prop43
 90
        3
102
RTVSPost2010PropOp43
 70
     1
102
RTVSPost2010Prop44ColorIndex
 90
        5
102
RTVSPost2010Prop44ColorRGB
 90
      255
102
RTVSPost2010PropOp44
 70
     1
102
RTVSPost2010Prop45
280
     0
102
RTVSPost2010PropOp45
 70
     1
102
RTVSPost2010Prop46
 90
       50
102
RTVSPost2010PropOp46
 70
     1
102
RTVSPost2010Prop47
 90
       50
102
RTVSPost2010PropOp47
 70
     1
102
RTVSPost2010Prop48
 90
       50
102
RTVSPost2010PropOp48
 70
     1
102
RTVSPost2010Prop49
280
     0
102
RTVSPost2010PropOp49
 70
     1
102
RTVSPost2010Prop50
 90
       50
102
RTVSPost2010PropOp50
 70
     1
102
RTVSPost2010Prop51ColorIndex
 90
      256
102
RTVSPost2010Prop51ColorRGB
 90
-16777216
102
RTVSPost2010PropOp51
 70
     0
102
RTVSPost2010Prop52
140
1.0
102
RTVSPost2010PropOp52
 70
     0
102
RTVSPost2010Prop53
 90
        2
102
RTVSPost2010PropOp53
 70
     1
102
RTVSPost2010Prop54
  1
strokes_ogs.tif
102
RTVSPost2010PropOp54
 70
     1
102
RTVSPost2010Prop55
280
     0
102
RTVSPost2010PropOp55
 70
     1
102
RTVSPost2010Prop56
140
1.0
102
RTVSPost2010PropOp56
 70
     1
102
RTVSPost2010Prop57
140
1.0
102
RTVSPost2010PropOp57
 70
     1
102
RTVSPropertyOp0
 70
     1
102
RTVSPropertyOp1
 70
     1
102
RTVSPropertyOp2
 70
     1
102
RTVSPropertyOp3
 70
     1
102
RTVSPropertyOp4
 70
     1
102
RTVSPropertyOp5
 70
     1
102
RTVSPropertyOp6
 70
     1
102
RTVSPropertyOp7
 70
     1
102
RTVSPropertyOp8
 70
     1
102
RTVSPropertyOp9
 70
     1
102
RTVSPropertyOp10
 70
     1
102
RTVSPropertyOp11
 70
     1
102
RTVSPropertyOp12
 70
     1
102
RTVSPropertyOp13
 70
     1
102
RTVSPropertyOp14
 70
     1
102
RTVSPropertyOp15
 70
     1
102
RTVSPropertyOp16
 70
     1
102
RTVSPropertyOp17
 70
     1
102
RTVSPropertyOp18
 70
     1
102
RTVSPropertyOp19
 70
     1
102
RTVSPropertyOp20
 70
     1
102
RTVSPropertyOp21
 70
     1
102
RTVSPropertyOp22
 70
     1
102
RTVSPropertyOp23
 70
     1
102
RTVSPropertyOp24
 70
     1
102
RTVSPropertyOp25
 70
     1
102
RTVSPropertyOp26
 70
     1
102
RTVSPropertyOp27
 70
     1
102
RTVSPropertyOp28
 70
     1
102
RTVSPropertyOp29
 70
     1
102
RTVSPropertyOp30
 70
     1
102
RTVSPropertyOp31
 70
     1
102
RTVSPropertyOp32
 70
     1
102
RTVSPropertyOp33
 70
     1
102
RTVSPropertyOp34
 70
     1
102
RTVSPropertyOp35
 70
     1
102
RTVSPropertyOp36
 70
     1
102
RTVSPropertyOp37
 70
     1
102
RTVSPropertyOp38
 70
     1
102
RTVSPropertyOp39
 70
     1
102
RTVSPropertyOp40
 70
     1
102
RTVSPropertyOp41
 70
     1
102
RTVSPropertyOp42
 70
     1
102
RTVSPropertyOp43
 70
     1
102
RTVSPropertyOp44
 70
     1
102
RTVSPropertyOp45
 70
     1
102
RTVSPropertyOp46
 70
     1
102
RTVSPropertyOp47
 70
     1
102
RTVSPropertyOp48
 70
     1
102
RTVSPropertyOp49
 70
     1
102
RTVSPropertyOp50
 70
     1
102
RTVSPropertyOp51
 70
     0
102
RTVSPropertyOp52
 70
     0
102
RTVSPropertyOp53
 70
     1
102
RTVSPropertyOp54
 70
     1
102
RTVSPropertyOp55
 70
     1
102
RTVSPropertyOp56
 70
     1
102
RTVSPropertyOp57
 70
     1
102
RTVSPropertyOp58
 70
     1
102
RTVSPropertyOp59
 70
     1
102
RTVSPropertyOp60
 70
     1
102
RTVSPropertyOp61
 70
     1
102
RTVSPropertyOp62
 70
     1
  0
XRECORD
  5
3C3A
102
{ACAD_REACTORS
330
3C39
102
}
330
3C39
100
AcDbXrecord
280
     1
102
RTVSPost2010Prop28
280
     0
102
RTVSPost2010PropOp28
 70
     1
102
RTVSPost2010Prop29
280
     1
102
RTVSPost2010PropOp29
 70
     1
102
RTVSPost2010Prop30
280
     1
102
RTVSPost2010PropOp30
 70
     1
102
RTVSPost2010Prop31
280
     0
102
RTVSPost2010PropOp31
 70
     1
102
RTVSPost2010Prop32
280
     0
102
RTVSPost2010PropOp32
 70
     1
102
RTVSPost2010Prop33
280
     0
102
RTVSPost2010PropOp33
 70
     1
102
RTVSPost2010Prop34
280
     0
102
RTVSPost2010PropOp34
 70
     1
102
RTVSPost2010Prop35
280
     0
102
RTVSPost2010PropOp35
 70
     1
102
RTVSPost2010Prop36
280
     0
102
RTVSPost2010PropOp36
 70
     1
102
RTVSPost2010Prop37
 90
       50
102
RTVSPost2010PropOp37
 70
     1
102
RTVSPost2010Prop38
140
0.0
102
RTVSPost2010PropOp38
 70
     1
102
RTVSPost2010Prop39
140
1.0
102
RTVSPost2010PropOp39
 70
     1
102
RTVSPost2010Prop40
 90
        0
102
RTVSPost2010PropOp40
 70
     1
102
RTVSPost2010Prop41ColorIndex
 90
       18
102
RTVSPost2010Prop41ColorRGB
 90
        0
102
RTVSPost2010PropOp41
 70
     1
102
RTVSPost2010Prop42
 90
       50
102
RTVSPost2010PropOp42
 70
     1
102
RTVSPost2010Prop43
 90
        3
102
RTVSPost2010PropOp43
 70
     1
102
RTVSPost2010Prop44ColorIndex
 90
        5
102
RTVSPost2010Prop44ColorRGB
 90
      255
102
RTVSPost2010PropOp44
 70
     1
102
RTVSPost2010Prop45
280
     0
102
RTVSPost2010PropOp45
 70
     1
102
RTVSPost2010Prop46
 90
       50
102
RTVSPost2010PropOp46
 70
     1
102
RTVSPost2010Prop47
 90
       50
102
RTVSPost2010PropOp47
 70
     1
102
RTVSPost2010Prop48
 90
       50
102
RTVSPost2010PropOp48
 70
     1
102
RTVSPost2010Prop49
280
     0
102
RTVSPost2010PropOp49
 70
     1
102
RTVSPost2010Prop50
 90
       50
102
RTVSPost2010PropOp50
 70
     1
102
RTVSPost2010Prop51ColorIndex
 90
      256
102
RTVSPost2010Prop51ColorRGB
 90
-16777216
102
RTVSPost2010PropOp51
 70
     0
102
RTVSPost2010Prop52
140
1.0
102
RTVSPost2010PropOp52
 70
     0
102
RTVSPost2010Prop53
 90
        2
102
RTVSPost2010PropOp53
 70
     1
102
RTVSPost2010Prop54
  1
strokes_ogs.tif
102
RTVSPost2010PropOp54
 70
     1
102
RTVSPost2010Prop55
280
     0
102
RTVSPost2010PropOp55
 70
     1
102
RTVSPost2010Prop56
140
1.0
102
RTVSPost2010PropOp56
 70
     1
102
RTVSPost2010Prop57
140
1.0
102
RTVSPost2010PropOp57
 70
     1
102
RTVSPropertyOp0
 70
     1
102
RTVSPropertyOp1
 70
     1
102
RTVSPropertyOp2
 70
     1
102
RTVSPropertyOp3
 70
     1
102
RTVSPropertyOp4
 70
     1
102
RTVSPropertyOp5
 70
     1
102
RTVSPropertyOp6
 70
     1
102
RTVSPropertyOp7
 70
     1
102
RTVSPropertyOp8
 70
     1
102
RTVSPropertyOp9
 70
     1
102
RTVSPropertyOp10
 70
     1
102
RTVSPropertyOp11
 70
     1
102
RTVSPropertyOp12
 70
     1
102
RTVSPropertyOp13
 70
     1
102
RTVSPropertyOp14
 70
     1
102
RTVSPropertyOp15
 70
     1
102
RTVSPropertyOp16
 70
     1
102
RTVSPropertyOp17
 70
     1
102
RTVSPropertyOp18
 70
     1
102
RTVSPropertyOp19
 70
     1
102
RTVSPropertyOp20
 70
     1
102
RTVSPropertyOp21
 70
     1
102
RTVSPropertyOp22
 70
     1
102
RTVSPropertyOp23
 70
     1
102
RTVSPropertyOp24
 70
     1
102
RTVSPropertyOp25
 70
     1
102
RTVSPropertyOp26
 70
     1
102
RTVSPropertyOp27
 70
     1
102
RTVSPropertyOp28
 70
     1
102
RTVSPropertyOp29
 70
     1
102
RTVSPropertyOp30
 70
     1
102
RTVSPropertyOp31
 70
     1
102
RTVSPropertyOp32
 70
     1
102
RTVSPropertyOp33
 70
     1
102
RTVSPropertyOp34
 70
     1
102
RTVSPropertyOp35
 70
     1
102
RTVSPropertyOp36
 70
     1
102
RTVSPropertyOp37
 70
     1
102
RTVSPropertyOp38
 70
     1
102
RTVSPropertyOp39
 70
     1
102
RTVSPropertyOp40
 70
     1
102
RTVSPropertyOp41
 70
     1
102
RTVSPropertyOp42
 70
     1
102
RTVSPropertyOp43
 70
     1
102
RTVSPropertyOp44
 70
     1
102
RTVSPropertyOp45
 70
     1
102
RTVSPropertyOp46
 70
     1
102
RTVSPropertyOp47
 70
     1
102
RTVSPropertyOp48
 70
     1
102
RTVSPropertyOp49
 70
     1
102
RTVSPropertyOp50
 70
     1
102
RTVSPropertyOp51
 70
     0
102
RTVSPropertyOp52
 70
     0
102
RTVSPropertyOp53
 70
     1
102
RTVSPropertyOp54
 70
     1
102
RTVSPropertyOp55
 70
     1
102
RTVSPropertyOp56
 70
     1
102
RTVSPropertyOp57
 70
     1
102
RTVSPropertyOp58
 70
     1
102
RTVSPropertyOp59
 70
     1
102
RTVSPropertyOp60
 70
     1
102
RTVSPropertyOp61
 70
     1
102
RTVSPropertyOp62
 70
     1
  0
XRECORD
  5
3C42
102
{ACAD_REACTORS
330
3C41
102
}
330
3C41
100
AcDbXrecord
280
     1
102
RTVSPost2010Prop28
280
     0
102
RTVSPost2010PropOp28
 70
     1
102
RTVSPost2010Prop29
280
     1
102
RTVSPost2010PropOp29
 70
     1
102
RTVSPost2010Prop30
280
     1
102
RTVSPost2010PropOp30
 70
     1
102
RTVSPost2010Prop31
280
     0
102
RTVSPost2010PropOp31
 70
     1
102
RTVSPost2010Prop32
280
     0
102
RTVSPost2010PropOp32
 70
     1
102
RTVSPost2010Prop33
280
     0
102
RTVSPost2010PropOp33
 70
     1
102
RTVSPost2010Prop34
280
     0
102
RTVSPost2010PropOp34
 70
     1
102
RTVSPost2010Prop35
280
     0
102
RTVSPost2010PropOp35
 70
     1
102
RTVSPost2010Prop36
280
     0
102
RTVSPost2010PropOp36
 70
     1
102
RTVSPost2010Prop37
 90
       50
102
RTVSPost2010PropOp37
 70
     1
102
RTVSPost2010Prop38
140
0.0
102
RTVSPost2010PropOp38
 70
     1
102
RTVSPost2010Prop39
140
1.0
102
RTVSPost2010PropOp39
 70
     1
102
RTVSPost2010Prop40
 90
        0
102
RTVSPost2010PropOp40
 70
     1
102
RTVSPost2010Prop41ColorIndex
 90
       18
102
RTVSPost2010Prop41ColorRGB
 90
        0
102
RTVSPost2010PropOp41
 70
     1
102
RTVSPost2010Prop42
 90
       50
102
RTVSPost2010PropOp42
 70
     1
102
RTVSPost2010Prop43
 90
        3
102
RTVSPost2010PropOp43
 70
     1
102
RTVSPost2010Prop44ColorIndex
 90
        5
102
RTVSPost2010Prop44ColorRGB
 90
      255
102
RTVSPost2010PropOp44
 70
     1
102
RTVSPost2010Prop45
280
     0
102
RTVSPost2010PropOp45
 70
     1
102
RTVSPost2010Prop46
 90
       50
102
RTVSPost2010PropOp46
 70
     1
102
RTVSPost2010Prop47
 90
       50
102
RTVSPost2010PropOp47
 70
     1
102
RTVSPost2010Prop48
 90
       50
102
RTVSPost2010PropOp48
 70
     1
102
RTVSPost2010Prop49
280
     0
102
RTVSPost2010PropOp49
 70
     1
102
RTVSPost2010Prop50
 90
       50
102
RTVSPost2010PropOp50
 70
     1
102
RTVSPost2010Prop51ColorIndex
 90
      256
102
RTVSPost2010Prop51ColorRGB
 90
-16777216
102
RTVSPost2010PropOp51
 70
     0
102
RTVSPost2010Prop52
140
1.0
102
RTVSPost2010PropOp52
 70
     0
102
RTVSPost2010Prop53
 90
        2
102
RTVSPost2010PropOp53
 70
     1
102
RTVSPost2010Prop54
  1
strokes_ogs.tif
102
RTVSPost2010PropOp54
 70
     1
102
RTVSPost2010Prop55
280
     0
102
RTVSPost2010PropOp55
 70
     1
102
RTVSPost2010Prop56
140
1.0
102
RTVSPost2010PropOp56
 70
     1
102
RTVSPost2010Prop57
140
1.0
102
RTVSPost2010PropOp57
 70
     1
102
RTVSPropertyOp0
 70
     1
102
RTVSPropertyOp1
 70
     1
102
RTVSPropertyOp2
 70
     1
102
RTVSPropertyOp3
 70
     1
102
RTVSPropertyOp4
 70
     1
102
RTVSPropertyOp5
 70
     1
102
RTVSPropertyOp6
 70
     1
102
RTVSPropertyOp7
 70
     1
102
RTVSPropertyOp8
 70
     1
102
RTVSPropertyOp9
 70
     1
102
RTVSPropertyOp10
 70
     1
102
RTVSPropertyOp11
 70
     1
102
RTVSPropertyOp12
 70
     1
102
RTVSPropertyOp13
 70
     1
102
RTVSPropertyOp14
 70
     1
102
RTVSPropertyOp15
 70
     1
102
RTVSPropertyOp16
 70
     1
102
RTVSPropertyOp17
 70
     1
102
RTVSPropertyOp18
 70
     1
102
RTVSPropertyOp19
 70
     1
102
RTVSPropertyOp20
 70
     1
102
RTVSPropertyOp21
 70
     1
102
RTVSPropertyOp22
 70
     1
102
RTVSPropertyOp23
 70
     1
102
RTVSPropertyOp24
 70
     1
102
RTVSPropertyOp25
 70
     1
102
RTVSPropertyOp26
 70
     1
102
RTVSPropertyOp27
 70
     1
102
RTVSPropertyOp28
 70
     1
102
RTVSPropertyOp29
 70
     1
102
RTVSPropertyOp30
 70
     1
102
RTVSPropertyOp31
 70
     1
102
RTVSPropertyOp32
 70
     1
102
RTVSPropertyOp33
 70
     1
102
RTVSPropertyOp34
 70
     1
102
RTVSPropertyOp35
 70
     1
102
RTVSPropertyOp36
 70
     1
102
RTVSPropertyOp37
 70
     1
102
RTVSPropertyOp38
 70
     1
102
RTVSPropertyOp39
 70
     1
102
RTVSPropertyOp40
 70
     1
102
RTVSPropertyOp41
 70
     1
102
RTVSPropertyOp42
 70
     1
102
RTVSPropertyOp43
 70
     1
102
RTVSPropertyOp44
 70
     1
102
RTVSPropertyOp45
 70
     1
102
RTVSPropertyOp46
 70
     1
102
RTVSPropertyOp47
 70
     1
102
RTVSPropertyOp48
 70
     1
102
RTVSPropertyOp49
 70
     1
102
RTVSPropertyOp50
 70
     1
102
RTVSPropertyOp51
 70
     0
102
RTVSPropertyOp52
 70
     0
102
RTVSPropertyOp53
 70
     1
102
RTVSPropertyOp54
 70
     1
102
RTVSPropertyOp55
 70
     1
102
RTVSPropertyOp56
 70
     1
102
RTVSPropertyOp57
 70
     1
102
RTVSPropertyOp58
 70
     1
102
RTVSPropertyOp59
 70
     1
102
RTVSPropertyOp60
 70
     1
102
RTVSPropertyOp61
 70
     1
102
RTVSPropertyOp62
 70
     1
  0
XRECORD
  5
3C34
102
{ACAD_REACTORS
330
3C33
102
}
330
3C33
100
AcDbXrecord
280
     1
102
RTVSPost2010Prop28
280
     0
102
RTVSPost2010PropOp28
 70
     1
102
RTVSPost2010Prop29
280
     1
102
RTVSPost2010PropOp29
 70
     1
102
RTVSPost2010Prop30
280
     1
102
RTVSPost2010PropOp30
 70
     1
102
RTVSPost2010Prop31
280
     0
102
RTVSPost2010PropOp31
 70
     1
102
RTVSPost2010Prop32
280
     0
102
RTVSPost2010PropOp32
 70
     1
102
RTVSPost2010Prop33
280
     0
102
RTVSPost2010PropOp33
 70
     1
102
RTVSPost2010Prop34
280
     0
102
RTVSPost2010PropOp34
 70
     1
102
RTVSPost2010Prop35
280
     0
102
RTVSPost2010PropOp35
 70
     1
102
RTVSPost2010Prop36
280
     0
102
RTVSPost2010PropOp36
 70
     1
102
RTVSPost2010Prop37
 90
       50
102
RTVSPost2010PropOp37
 70
     1
102
RTVSPost2010Prop38
140
0.0
102
RTVSPost2010PropOp38
 70
     1
102
RTVSPost2010Prop39
140
1.0
102
RTVSPost2010PropOp39
 70
     1
102
RTVSPost2010Prop40
 90
        0
102
RTVSPost2010PropOp40
 70
     1
102
RTVSPost2010Prop41ColorIndex
 90
       18
102
RTVSPost2010Prop41ColorRGB
 90
        0
102
RTVSPost2010PropOp41
 70
     1
102
RTVSPost2010Prop42
 90
       50
102
RTVSPost2010PropOp42
 70
     1
102
RTVSPost2010Prop43
 90
        3
102
RTVSPost2010PropOp43
 70
     1
102
RTVSPost2010Prop44ColorIndex
 90
        5
102
RTVSPost2010Prop44ColorRGB
 90
      255
102
RTVSPost2010PropOp44
 70
     1
102
RTVSPost2010Prop45
280
     0
102
RTVSPost2010PropOp45
 70
     1
102
RTVSPost2010Prop46
 90
       50
102
RTVSPost2010PropOp46
 70
     1
102
RTVSPost2010Prop47
 90
       50
102
RTVSPost2010PropOp47
 70
     1
102
RTVSPost2010Prop48
 90
       50
102
RTVSPost2010PropOp48
 70
     1
102
RTVSPost2010Prop49
280
     0
102
RTVSPost2010PropOp49
 70
     1
102
RTVSPost2010Prop50
 90
       50
102
RTVSPost2010PropOp50
 70
     1
102
RTVSPost2010Prop51ColorIndex
 90
      256
102
RTVSPost2010Prop51ColorRGB
 90
-16777216
102
RTVSPost2010PropOp51
 70
     0
102
RTVSPost2010Prop52
140
1.0
102
RTVSPost2010PropOp52
 70
     0
102
RTVSPost2010Prop53
 90
        2
102
RTVSPost2010PropOp53
 70
     1
102
RTVSPost2010Prop54
  1
strokes_ogs.tif
102
RTVSPost2010PropOp54
 70
     1
102
RTVSPost2010Prop55
280
     0
102
RTVSPost2010PropOp55
 70
     1
102
RTVSPost2010Prop56
140
1.0
102
RTVSPost2010PropOp56
 70
     1
102
RTVSPost2010Prop57
140
1.0
102
RTVSPost2010PropOp57
 70
     1
102
RTVSPropertyOp0
 70
     1
102
RTVSPropertyOp1
 70
     1
102
RTVSPropertyOp2
 70
     1
102
RTVSPropertyOp3
 70
     1
102
RTVSPropertyOp4
 70
     1
102
RTVSPropertyOp5
 70
     1
102
RTVSPropertyOp6
 70
     1
102
RTVSPropertyOp7
 70
     1
102
RTVSPropertyOp8
 70
     1
102
RTVSPropertyOp9
 70
     1
102
RTVSPropertyOp10
 70
     1
102
RTVSPropertyOp11
 70
     1
102
RTVSPropertyOp12
 70
     1
102
RTVSPropertyOp13
 70
     1
102
RTVSPropertyOp14
 70
     1
102
RTVSPropertyOp15
 70
     1
102
RTVSPropertyOp16
 70
     1
102
RTVSPropertyOp17
 70
     1
102
RTVSPropertyOp18
 70
     1
102
RTVSPropertyOp19
 70
     1
102
RTVSPropertyOp20
 70
     1
102
RTVSPropertyOp21
 70
     1
102
RTVSPropertyOp22
 70
     1
102
RTVSPropertyOp23
 70
     1
102
RTVSPropertyOp24
 70
     1
102
RTVSPropertyOp25
 70
     1
102
RTVSPropertyOp26
 70
     1
102
RTVSPropertyOp27
 70
     1
102
RTVSPropertyOp28
 70
     1
102
RTVSPropertyOp29
 70
     1
102
RTVSPropertyOp30
 70
     1
102
RTVSPropertyOp31
 70
     1
102
RTVSPropertyOp32
 70
     1
102
RTVSPropertyOp33
 70
     1
102
RTVSPropertyOp34
 70
     1
102
RTVSPropertyOp35
 70
     1
102
RTVSPropertyOp36
 70
     1
102
RTVSPropertyOp37
 70
     1
102
RTVSPropertyOp38
 70
     1
102
RTVSPropertyOp39
 70
     1
102
RTVSPropertyOp40
 70
     1
102
RTVSPropertyOp41
 70
     1
102
RTVSPropertyOp42
 70
     1
102
RTVSPropertyOp43
 70
     1
102
RTVSPropertyOp44
 70
     1
102
RTVSPropertyOp45
 70
     1
102
RTVSPropertyOp46
 70
     1
102
RTVSPropertyOp47
 70
     1
102
RTVSPropertyOp48
 70
     1
102
RTVSPropertyOp49
 70
     1
102
RTVSPropertyOp50
 70
     1
102
RTVSPropertyOp51
 70
     0
102
RTVSPropertyOp52
 70
     0
102
RTVSPropertyOp53
 70
     1
102
RTVSPropertyOp54
 70
     1
102
RTVSPropertyOp55
 70
     1
102
RTVSPropertyOp56
 70
     1
102
RTVSPropertyOp57
 70
     1
102
RTVSPropertyOp58
 70
     1
102
RTVSPropertyOp59
 70
     1
102
RTVSPropertyOp60
 70
     1
102
RTVSPropertyOp61
 70
     1
102
RTVSPropertyOp62
 70
     1
  0
XRECORD
  5
3C38
102
{ACAD_REACTORS
330
3C37
102
}
330
3C37
100
AcDbXrecord
280
     1
102
RTVSPost2010Prop28
280
     0
102
RTVSPost2010PropOp28
 70
     1
102
RTVSPost2010Prop29
280
     1
102
RTVSPost2010PropOp29
 70
     1
102
RTVSPost2010Prop30
280
     1
102
RTVSPost2010PropOp30
 70
     1
102
RTVSPost2010Prop31
280
     0
102
RTVSPost2010PropOp31
 70
     1
102
RTVSPost2010Prop32
280
     0
102
RTVSPost2010PropOp32
 70
     1
102
RTVSPost2010Prop33
280
     0
102
RTVSPost2010PropOp33
 70
     1
102
RTVSPost2010Prop34
280
     0
102
RTVSPost2010PropOp34
 70
     1
102
RTVSPost2010Prop35
280
     0
102
RTVSPost2010PropOp35
 70
     1
102
RTVSPost2010Prop36
280
     0
102
RTVSPost2010PropOp36
 70
     1
102
RTVSPost2010Prop37
 90
       50
102
RTVSPost2010PropOp37
 70
     1
102
RTVSPost2010Prop38
140
0.0
102
RTVSPost2010PropOp38
 70
     1
102
RTVSPost2010Prop39
140
1.0
102
RTVSPost2010PropOp39
 70
     1
102
RTVSPost2010Prop40
 90
        0
102
RTVSPost2010PropOp40
 70
     1
102
RTVSPost2010Prop41ColorIndex
 90
       18
102
RTVSPost2010Prop41ColorRGB
 90
        0
102
RTVSPost2010PropOp41
 70
     1
102
RTVSPost2010Prop42
 90
       50
102
RTVSPost2010PropOp42
 70
     1
102
RTVSPost2010Prop43
 90
        3
102
RTVSPost2010PropOp43
 70
     1
102
RTVSPost2010Prop44ColorIndex
 90
        5
102
RTVSPost2010Prop44ColorRGB
 90
      255
102
RTVSPost2010PropOp44
 70
     1
102
RTVSPost2010Prop45
280
     0
102
RTVSPost2010PropOp45
 70
     1
102
RTVSPost2010Prop46
 90
       50
102
RTVSPost2010PropOp46
 70
     1
102
RTVSPost2010Prop47
 90
       50
102
RTVSPost2010PropOp47
 70
     1
102
RTVSPost2010Prop48
 90
       50
102
RTVSPost2010PropOp48
 70
     1
102
RTVSPost2010Prop49
280
     0
102
RTVSPost2010PropOp49
 70
     1
102
RTVSPost2010Prop50
 90
       50
102
RTVSPost2010PropOp50
 70
     1
102
RTVSPost2010Prop51ColorIndex
 90
      256
102
RTVSPost2010Prop51ColorRGB
 90
-16777216
102
RTVSPost2010PropOp51
 70
     0
102
RTVSPost2010Prop52
140
1.0
102
RTVSPost2010PropOp52
 70
     0
102
RTVSPost2010Prop53
 90
        2
102
RTVSPost2010PropOp53
 70
     1
102
RTVSPost2010Prop54
  1
strokes_ogs.tif
102
RTVSPost2010PropOp54
 70
     1
102
RTVSPost2010Prop55
280
     0
102
RTVSPost2010PropOp55
 70
     1
102
RTVSPost2010Prop56
140
1.0
102
RTVSPost2010PropOp56
 70
     1
102
RTVSPost2010Prop57
140
1.0
102
RTVSPost2010PropOp57
 70
     1
102
RTVSPropertyOp0
 70
     1
102
RTVSPropertyOp1
 70
     1
102
RTVSPropertyOp2
 70
     1
102
RTVSPropertyOp3
 70
     1
102
RTVSPropertyOp4
 70
     1
102
RTVSPropertyOp5
 70
     1
102
RTVSPropertyOp6
 70
     1
102
RTVSPropertyOp7
 70
     1
102
RTVSPropertyOp8
 70
     1
102
RTVSPropertyOp9
 70
     1
102
RTVSPropertyOp10
 70
     1
102
RTVSPropertyOp11
 70
     1
102
RTVSPropertyOp12
 70
     1
102
RTVSPropertyOp13
 70
     1
102
RTVSPropertyOp14
 70
     1
102
RTVSPropertyOp15
 70
     1
102
RTVSPropertyOp16
 70
     1
102
RTVSPropertyOp17
 70
     1
102
RTVSPropertyOp18
 70
     1
102
RTVSPropertyOp19
 70
     1
102
RTVSPropertyOp20
 70
     1
102
RTVSPropertyOp21
 70
     1
102
RTVSPropertyOp22
 70
     1
102
RTVSPropertyOp23
 70
     1
102
RTVSPropertyOp24
 70
     1
102
RTVSPropertyOp25
 70
     1
102
RTVSPropertyOp26
 70
     1
102
RTVSPropertyOp27
 70
     1
102
RTVSPropertyOp28
 70
     1
102
RTVSPropertyOp29
 70
     1
102
RTVSPropertyOp30
 70
     1
102
RTVSPropertyOp31
 70
     1
102
RTVSPropertyOp32
 70
     1
102
RTVSPropertyOp33
 70
     1
102
RTVSPropertyOp34
 70
     1
102
RTVSPropertyOp35
 70
     1
102
RTVSPropertyOp36
 70
     1
102
RTVSPropertyOp37
 70
     1
102
RTVSPropertyOp38
 70
     1
102
RTVSPropertyOp39
 70
     1
102
RTVSPropertyOp40
 70
     1
102
RTVSPropertyOp41
 70
     1
102
RTVSPropertyOp42
 70
     1
102
RTVSPropertyOp43
 70
     1
102
RTVSPropertyOp44
 70
     1
102
RTVSPropertyOp45
 70
     1
102
RTVSPropertyOp46
 70
     1
102
RTVSPropertyOp47
 70
     1
102
RTVSPropertyOp48
 70
     1
102
RTVSPropertyOp49
 70
     1
102
RTVSPropertyOp50
 70
     1
102
RTVSPropertyOp51
 70
     0
102
RTVSPropertyOp52
 70
     0
102
RTVSPropertyOp53
 70
     1
102
RTVSPropertyOp54
 70
     1
102
RTVSPropertyOp55
 70
     1
102
RTVSPropertyOp56
 70
     1
102
RTVSPropertyOp57
 70
     1
102
RTVSPropertyOp58
 70
     1
102
RTVSPropertyOp59
 70
     1
102
RTVSPropertyOp60
 70
     1
102
RTVSPropertyOp61
 70
     1
102
RTVSPropertyOp62
 70
     1
  0
XRECORD
  5
3C4A
102
{ACAD_REACTORS
330
3C49
102
}
330
3C49
100
AcDbXrecord
280
     1
102
RTVSPost2010Prop28
280
     0
102
RTVSPost2010PropOp28
 70
     1
102
RTVSPost2010Prop29
280
     1
102
RTVSPost2010PropOp29
 70
     1
102
RTVSPost2010Prop30
280
     1
102
RTVSPost2010PropOp30
 70
     1
102
RTVSPost2010Prop31
280
     0
102
RTVSPost2010PropOp31
 70
     1
102
RTVSPost2010Prop32
280
     0
102
RTVSPost2010PropOp32
 70
     1
102
RTVSPost2010Prop33
280
     0
102
RTVSPost2010PropOp33
 70
     1
102
RTVSPost2010Prop34
280
     0
102
RTVSPost2010PropOp34
 70
     1
102
RTVSPost2010Prop35
280
     0
102
RTVSPost2010PropOp35
 70
     1
102
RTVSPost2010Prop36
280
     0
102
RTVSPost2010PropOp36
 70
     1
102
RTVSPost2010Prop37
 90
       50
102
RTVSPost2010PropOp37
 70
     1
102
RTVSPost2010Prop38
140
0.0
102
RTVSPost2010PropOp38
 70
     1
102
RTVSPost2010Prop39
140
1.0
102
RTVSPost2010PropOp39
 70
     1
102
RTVSPost2010Prop40
 90
        0
102
RTVSPost2010PropOp40
 70
     1
102
RTVSPost2010Prop41ColorIndex
 90
       18
102
RTVSPost2010Prop41ColorRGB
 90
        0
102
RTVSPost2010PropOp41
 70
     1
102
RTVSPost2010Prop42
 90
       50
102
RTVSPost2010PropOp42
 70
     1
102
RTVSPost2010Prop43
 90
        3
102
RTVSPost2010PropOp43
 70
     1
102
RTVSPost2010Prop44ColorIndex
 90
        5
102
RTVSPost2010Prop44ColorRGB
 90
      255
102
RTVSPost2010PropOp44
 70
     1
102
RTVSPost2010Prop45
280
     0
102
RTVSPost2010PropOp45
 70
     1
102
RTVSPost2010Prop46
 90
       50
102
RTVSPost2010PropOp46
 70
     1
102
RTVSPost2010Prop47
 90
       50
102
RTVSPost2010PropOp47
 70
     1
102
RTVSPost2010Prop48
 90
       50
102
RTVSPost2010PropOp48
 70
     1
102
RTVSPost2010Prop49
280
     0
102
RTVSPost2010PropOp49
 70
     1
102
RTVSPost2010Prop50
 90
       50
102
RTVSPost2010PropOp50
 70
     1
102
RTVSPost2010Prop51ColorIndex
 90
      256
102
RTVSPost2010Prop51ColorRGB
 90
-16777216
102
RTVSPost2010PropOp51
 70
     0
102
RTVSPost2010Prop52
140
1.0
102
RTVSPost2010PropOp52
 70
     0
102
RTVSPost2010Prop53
 90
        2
102
RTVSPost2010PropOp53
 70
     1
102
RTVSPost2010Prop54
  1
strokes_ogs.tif
102
RTVSPost2010PropOp54
 70
     1
102
RTVSPost2010Prop55
280
     0
102
RTVSPost2010PropOp55
 70
     1
102
RTVSPost2010Prop56
140
1.0
102
RTVSPost2010PropOp56
 70
     1
102
RTVSPost2010Prop57
140
1.0
102
RTVSPost2010PropOp57
 70
     1
102
RTVSPropertyOp0
 70
     0
102
RTVSPropertyOp1
 70
     0
102
RTVSPropertyOp2
 70
     0
102
RTVSPropertyOp3
 70
     0
102
RTVSPropertyOp4
 70
     0
102
RTVSPropertyOp5
 70
     0
102
RTVSPropertyOp6
 70
     0
102
RTVSPropertyOp7
 70
     0
102
RTVSPropertyOp8
 70
     0
102
RTVSPropertyOp9
 70
     0
102
RTVSPropertyOp10
 70
     0
102
RTVSPropertyOp11
 70
     0
102
RTVSPropertyOp12
 70
     0
102
RTVSPropertyOp13
 70
     0
102
RTVSPropertyOp14
 70
     2
102
RTVSPropertyOp15
 70
     0
102
RTVSPropertyOp16
 70
     0
102
RTVSPropertyOp17
 70
     0
102
RTVSPropertyOp18
 70
     0
102
RTVSPropertyOp19
 70
     0
102
RTVSPropertyOp20
 70
     0
102
RTVSPropertyOp21
 70
     0
102
RTVSPropertyOp22
 70
     0
102
RTVSPropertyOp23
 70
     0
102
RTVSPropertyOp24
 70
     0
102
RTVSPropertyOp25
 70
     0
102
RTVSPropertyOp26
 70
     0
102
RTVSPropertyOp27
 70
     0
102
RTVSPropertyOp28
 70
     1
102
RTVSPropertyOp29
 70
     1
102
RTVSPropertyOp30
 70
     1
102
RTVSPropertyOp31
 70
     1
102
RTVSPropertyOp32
 70
     1
102
RTVSPropertyOp33
 70
     1
102
RTVSPropertyOp34
 70
     1
102
RTVSPropertyOp35
 70
     1
102
RTVSPropertyOp36
 70
     1
102
RTVSPropertyOp37
 70
     1
102
RTVSPropertyOp38
 70
     1
102
RTVSPropertyOp39
 70
     1
102
RTVSPropertyOp40
 70
     1
102
RTVSPropertyOp41
 70
     1
102
RTVSPropertyOp42
 70
     1
102
RTVSPropertyOp43
 70
     1
102
RTVSPropertyOp44
 70
     1
102
RTVSPropertyOp45
 70
     1
102
RTVSPropertyOp46
 70
     1
102
RTVSPropertyOp47
 70
     1
102
RTVSPropertyOp48
 70
     1
102
RTVSPropertyOp49
 70
     1
102
RTVSPropertyOp50
 70
     1
102
RTVSPropertyOp51
 70
     0
102
RTVSPropertyOp52
 70
     0
102
RTVSPropertyOp53
 70
     1
102
RTVSPropertyOp54
 70
     1
102
RTVSPropertyOp55
 70
     1
102
RTVSPropertyOp56
 70
     1
102
RTVSPropertyOp57
 70
     1
102
RTVSPropertyOp58
 70
     1
102
RTVSPropertyOp59
 70
     1
102
RTVSPropertyOp60
 70
     1
102
RTVSPropertyOp61
 70
     1
102
RTVSPropertyOp62
 70
     1
  0
XRECORD
  5
3C40
102
{ACAD_REACTORS
330
3C3F
102
}
330
3C3F
100
AcDbXrecord
280
     1
102
RTVSPost2010Prop28
280
     0
102
RTVSPost2010PropOp28
 70
     1
102
RTVSPost2010Prop29
280
     1
102
RTVSPost2010PropOp29
 70
     1
102
RTVSPost2010Prop30
280
     1
102
RTVSPost2010PropOp30
 70
     1
102
RTVSPost2010Prop31
280
     0
102
RTVSPost2010PropOp31
 70
     1
102
RTVSPost2010Prop32
280
     0
102
RTVSPost2010PropOp32
 70
     1
102
RTVSPost2010Prop33
280
     0
102
RTVSPost2010PropOp33
 70
     1
102
RTVSPost2010Prop34
280
     0
102
RTVSPost2010PropOp34
 70
     1
102
RTVSPost2010Prop35
280
     0
102
RTVSPost2010PropOp35
 70
     1
102
RTVSPost2010Prop36
280
     0
102
RTVSPost2010PropOp36
 70
     1
102
RTVSPost2010Prop37
 90
       50
102
RTVSPost2010PropOp37
 70
     1
102
RTVSPost2010Prop38
140
0.0
102
RTVSPost2010PropOp38
 70
     1
102
RTVSPost2010Prop39
140
1.0
102
RTVSPost2010PropOp39
 70
     1
102
RTVSPost2010Prop40
 90
        0
102
RTVSPost2010PropOp40
 70
     1
102
RTVSPost2010Prop41ColorIndex
 90
       18
102
RTVSPost2010Prop41ColorRGB
 90
        0
102
RTVSPost2010PropOp41
 70
     1
102
RTVSPost2010Prop42
 90
       50
102
RTVSPost2010PropOp42
 70
     1
102
RTVSPost2010Prop43
 90
        3
102
RTVSPost2010PropOp43
 70
     1
102
RTVSPost2010Prop44ColorIndex
 90
        5
102
RTVSPost2010Prop44ColorRGB
 90
      255
102
RTVSPost2010PropOp44
 70
     1
102
RTVSPost2010Prop45
280
     0
102
RTVSPost2010PropOp45
 70
     1
102
RTVSPost2010Prop46
 90
       50
102
RTVSPost2010PropOp46
 70
     1
102
RTVSPost2010Prop47
 90
       50
102
RTVSPost2010PropOp47
 70
     1
102
RTVSPost2010Prop48
 90
       50
102
RTVSPost2010PropOp48
 70
     1
102
RTVSPost2010Prop49
280
     0
102
RTVSPost2010PropOp49
 70
     1
102
RTVSPost2010Prop50
 90
       50
102
RTVSPost2010PropOp50
 70
     1
102
RTVSPost2010Prop51ColorIndex
 90
      256
102
RTVSPost2010Prop51ColorRGB
 90
-16777216
102
RTVSPost2010PropOp51
 70
     0
102
RTVSPost2010Prop52
140
1.0
102
RTVSPost2010PropOp52
 70
     0
102
RTVSPost2010Prop53
 90
        2
102
RTVSPost2010PropOp53
 70
     1
102
RTVSPost2010Prop54
  1
strokes_ogs.tif
102
RTVSPost2010PropOp54
 70
     1
102
RTVSPost2010Prop55
280
     0
102
RTVSPost2010PropOp55
 70
     1
102
RTVSPost2010Prop56
140
1.0
102
RTVSPost2010PropOp56
 70
     1
102
RTVSPost2010Prop57
140
1.0
102
RTVSPost2010PropOp57
 70
     1
102
RTVSPropertyOp0
 70
     1
102
RTVSPropertyOp1
 70
     1
102
RTVSPropertyOp2
 70
     1
102
RTVSPropertyOp3
 70
     1
102
RTVSPropertyOp4
 70
     1
102
RTVSPropertyOp5
 70
     1
102
RTVSPropertyOp6
 70
     1
102
RTVSPropertyOp7
 70
     1
102
RTVSPropertyOp8
 70
     1
102
RTVSPropertyOp9
 70
     1
102
RTVSPropertyOp10
 70
     1
102
RTVSPropertyOp11
 70
     1
102
RTVSPropertyOp12
 70
     1
102
RTVSPropertyOp13
 70
     1
102
RTVSPropertyOp14
 70
     1
102
RTVSPropertyOp15
 70
     1
102
RTVSPropertyOp16
 70
     1
102
RTVSPropertyOp17
 70
     1
102
RTVSPropertyOp18
 70
     1
102
RTVSPropertyOp19
 70
     1
102
RTVSPropertyOp20
 70
     1
102
RTVSPropertyOp21
 70
     1
102
RTVSPropertyOp22
 70
     1
102
RTVSPropertyOp23
 70
     1
102
RTVSPropertyOp24
 70
     1
102
RTVSPropertyOp25
 70
     1
102
RTVSPropertyOp26
 70
     1
102
RTVSPropertyOp27
 70
     1
102
RTVSPropertyOp28
 70
     1
102
RTVSPropertyOp29
 70
     1
102
RTVSPropertyOp30
 70
     1
102
RTVSPropertyOp31
 70
     1
102
RTVSPropertyOp32
 70
     1
102
RTVSPropertyOp33
 70
     1
102
RTVSPropertyOp34
 70
     1
102
RTVSPropertyOp35
 70
     1
102
RTVSPropertyOp36
 70
     1
102
RTVSPropertyOp37
 70
     1
102
RTVSPropertyOp38
 70
     1
102
RTVSPropertyOp39
 70
     1
102
RTVSPropertyOp40
 70
     1
102
RTVSPropertyOp41
 70
     1
102
RTVSPropertyOp42
 70
     1
102
RTVSPropertyOp43
 70
     1
102
RTVSPropertyOp44
 70
     1
102
RTVSPropertyOp45
 70
     1
102
RTVSPropertyOp46
 70
     1
102
RTVSPropertyOp47
 70
     1
102
RTVSPropertyOp48
 70
     1
102
RTVSPropertyOp49
 70
     1
102
RTVSPropertyOp50
 70
     1
102
RTVSPropertyOp51
 70
     0
102
RTVSPropertyOp52
 70
     0
102
RTVSPropertyOp53
 70
     1
102
RTVSPropertyOp54
 70
     1
102
RTVSPropertyOp55
 70
     1
102
RTVSPropertyOp56
 70
     1
102
RTVSPropertyOp57
 70
     1
102
RTVSPropertyOp58
 70
     1
102
RTVSPropertyOp59
 70
     1
102
RTVSPropertyOp60
 70
     1
102
RTVSPropertyOp61
 70
     1
102
RTVSPropertyOp62
 70
     1
  0
XRECORD
  5
3C24
102
{ACAD_REACTORS
330
3C23
102
}
330
3C23
100
AcDbXrecord
280
     1
102
RTVSPost2010Prop28
280
     0
102
RTVSPost2010PropOp28
 70
     1
102
RTVSPost2010Prop29
280
     1
102
RTVSPost2010PropOp29
 70
     1
102
RTVSPost2010Prop30
280
     1
102
RTVSPost2010PropOp30
 70
     1
102
RTVSPost2010Prop31
280
     0
102
RTVSPost2010PropOp31
 70
     1
102
RTVSPost2010Prop32
280
     0
102
RTVSPost2010PropOp32
 70
     1
102
RTVSPost2010Prop33
280
     0
102
RTVSPost2010PropOp33
 70
     1
102
RTVSPost2010Prop34
280
     0
102
RTVSPost2010PropOp34
 70
     1
102
RTVSPost2010Prop35
280
     0
102
RTVSPost2010PropOp35
 70
     1
102
RTVSPost2010Prop36
280
     0
102
RTVSPost2010PropOp36
 70
     1
102
RTVSPost2010Prop37
 90
       50
102
RTVSPost2010PropOp37
 70
     1
102
RTVSPost2010Prop38
140
0.0
102
RTVSPost2010PropOp38
 70
     1
102
RTVSPost2010Prop39
140
1.0
102
RTVSPost2010PropOp39
 70
     1
102
RTVSPost2010Prop40
 90
        0
102
RTVSPost2010PropOp40
 70
     1
102
RTVSPost2010Prop41ColorIndex
 90
       18
102
RTVSPost2010Prop41ColorRGB
 90
        0
102
RTVSPost2010PropOp41
 70
     1
102
RTVSPost2010Prop42
 90
       50
102
RTVSPost2010PropOp42
 70
     1
102
RTVSPost2010Prop43
 90
        3
102
RTVSPost2010PropOp43
 70
     1
102
RTVSPost2010Prop44ColorIndex
 90
        5
102
RTVSPost2010Prop44ColorRGB
 90
      255
102
RTVSPost2010PropOp44
 70
     1
102
RTVSPost2010Prop45
280
     0
102
RTVSPost2010PropOp45
 70
     1
102
RTVSPost2010Prop46
 90
       50
102
RTVSPost2010PropOp46
 70
     1
102
RTVSPost2010Prop47
 90
       50
102
RTVSPost2010PropOp47
 70
     1
102
RTVSPost2010Prop48
 90
       50
102
RTVSPost2010PropOp48
 70
     1
102
RTVSPost2010Prop49
280
     0
102
RTVSPost2010PropOp49
 70
     1
102
RTVSPost2010Prop50
 90
       50
102
RTVSPost2010PropOp50
 70
     1
102
RTVSPost2010Prop51ColorIndex
 90
      256
102
RTVSPost2010Prop51ColorRGB
 90
-16777216
102
RTVSPost2010PropOp51
 70
     0
102
RTVSPost2010Prop52
140
1.0
102
RTVSPost2010PropOp52
 70
     0
102
RTVSPost2010Prop53
 90
        2
102
RTVSPost2010PropOp53
 70
     1
102
RTVSPost2010Prop54
  1
strokes_ogs.tif
102
RTVSPost2010PropOp54
 70
     1
102
RTVSPost2010Prop55
280
     0
102
RTVSPost2010PropOp55
 70
     1
102
RTVSPost2010Prop56
140
1.0
102
RTVSPost2010PropOp56
 70
     1
102
RTVSPost2010Prop57
140
1.0
102
RTVSPost2010PropOp57
 70
     1
102
RTVSPropertyOp0
 70
     1
102
RTVSPropertyOp1
 70
     1
102
RTVSPropertyOp2
 70
     1
102
RTVSPropertyOp3
 70
     1
102
RTVSPropertyOp4
 70
     1
102
RTVSPropertyOp5
 70
     1
102
RTVSPropertyOp6
 70
     1
102
RTVSPropertyOp7
 70
     1
102
RTVSPropertyOp8
 70
     1
102
RTVSPropertyOp9
 70
     1
102
RTVSPropertyOp10
 70
     1
102
RTVSPropertyOp11
 70
     1
102
RTVSPropertyOp12
 70
     1
102
RTVSPropertyOp13
 70
     1
102
RTVSPropertyOp14
 70
     1
102
RTVSPropertyOp15
 70
     1
102
RTVSPropertyOp16
 70
     1
102
RTVSPropertyOp17
 70
     1
102
RTVSPropertyOp18
 70
     1
102
RTVSPropertyOp19
 70
     1
102
RTVSPropertyOp20
 70
     1
102
RTVSPropertyOp21
 70
     1
102
RTVSPropertyOp22
 70
     1
102
RTVSPropertyOp23
 70
     1
102
RTVSPropertyOp24
 70
     1
102
RTVSPropertyOp25
 70
     1
102
RTVSPropertyOp26
 70
     1
102
RTVSPropertyOp27
 70
     1
102
RTVSPropertyOp28
 70
     1
102
RTVSPropertyOp29
 70
     1
102
RTVSPropertyOp30
 70
     1
102
RTVSPropertyOp31
 70
     1
102
RTVSPropertyOp32
 70
     1
102
RTVSPropertyOp33
 70
     1
102
RTVSPropertyOp34
 70
     1
102
RTVSPropertyOp35
 70
     1
102
RTVSPropertyOp36
 70
     1
102
RTVSPropertyOp37
 70
     1
102
RTVSPropertyOp38
 70
     1
102
RTVSPropertyOp39
 70
     1
102
RTVSPropertyOp40
 70
     1
102
RTVSPropertyOp41
 70
     1
102
RTVSPropertyOp42
 70
     1
102
RTVSPropertyOp43
 70
     1
102
RTVSPropertyOp44
 70
     1
102
RTVSPropertyOp45
 70
     1
102
RTVSPropertyOp46
 70
     1
102
RTVSPropertyOp47
 70
     1
102
RTVSPropertyOp48
 70
     1
102
RTVSPropertyOp49
 70
     1
102
RTVSPropertyOp50
 70
     1
102
RTVSPropertyOp51
 70
     0
102
RTVSPropertyOp52
 70
     0
102
RTVSPropertyOp53
 70
     1
102
RTVSPropertyOp54
 70
     1
102
RTVSPropertyOp55
 70
     1
102
RTVSPropertyOp56
 70
     1
102
RTVSPropertyOp57
 70
     1
102
RTVSPropertyOp58
 70
     1
102
RTVSPropertyOp59
 70
     1
102
RTVSPropertyOp60
 70
     1
102
RTVSPropertyOp61
 70
     1
102
RTVSPropertyOp62
 70
     1
  0
XRECORD
  5
3C26
102
{ACAD_REACTORS
330
3C25
102
}
330
3C25
100
AcDbXrecord
280
     1
102
RTVSPost2010Prop28
280
     0
102
RTVSPost2010PropOp28
 70
     1
102
RTVSPost2010Prop29
280
     1
102
RTVSPost2010PropOp29
 70
     1
102
RTVSPost2010Prop30
280
     1
102
RTVSPost2010PropOp30
 70
     1
102
RTVSPost2010Prop31
280
     0
102
RTVSPost2010PropOp31
 70
     1
102
RTVSPost2010Prop32
280
     0
102
RTVSPost2010PropOp32
 70
     1
102
RTVSPost2010Prop33
280
     0
102
RTVSPost2010PropOp33
 70
     1
102
RTVSPost2010Prop34
280
     0
102
RTVSPost2010PropOp34
 70
     1
102
RTVSPost2010Prop35
280
     0
102
RTVSPost2010PropOp35
 70
     1
102
RTVSPost2010Prop36
280
     0
102
RTVSPost2010PropOp36
 70
     1
102
RTVSPost2010Prop37
 90
       50
102
RTVSPost2010PropOp37
 70
     1
102
RTVSPost2010Prop38
140
0.0
102
RTVSPost2010PropOp38
 70
     1
102
RTVSPost2010Prop39
140
1.0
102
RTVSPost2010PropOp39
 70
     1
102
RTVSPost2010Prop40
 90
        0
102
RTVSPost2010PropOp40
 70
     1
102
RTVSPost2010Prop41ColorIndex
 90
       18
102
RTVSPost2010Prop41ColorRGB
 90
        0
102
RTVSPost2010PropOp41
 70
     1
102
RTVSPost2010Prop42
 90
       50
102
RTVSPost2010PropOp42
 70
     1
102
RTVSPost2010Prop43
 90
        3
102
RTVSPost2010PropOp43
 70
     1
102
RTVSPost2010Prop44ColorIndex
 90
        5
102
RTVSPost2010Prop44ColorRGB
 90
      255
102
RTVSPost2010PropOp44
 70
     1
102
RTVSPost2010Prop45
280
     0
102
RTVSPost2010PropOp45
 70
     1
102
RTVSPost2010Prop46
 90
       50
102
RTVSPost2010PropOp46
 70
     1
102
RTVSPost2010Prop47
 90
       50
102
RTVSPost2010PropOp47
 70
     1
102
RTVSPost2010Prop48
 90
       50
102
RTVSPost2010PropOp48
 70
     1
102
RTVSPost2010Prop49
280
     0
102
RTVSPost2010PropOp49
 70
     1
102
RTVSPost2010Prop50
 90
       50
102
RTVSPost2010PropOp50
 70
     1
102
RTVSPost2010Prop51ColorIndex
 90
      256
102
RTVSPost2010Prop51ColorRGB
 90
-16777216
102
RTVSPost2010PropOp51
 70
     0
102
RTVSPost2010Prop52
140
1.0
102
RTVSPost2010PropOp52
 70
     0
102
RTVSPost2010Prop53
 90
        2
102
RTVSPost2010PropOp53
 70
     1
102
RTVSPost2010Prop54
  1
strokes_ogs.tif
102
RTVSPost2010PropOp54
 70
     1
102
RTVSPost2010Prop55
280
     0
102
RTVSPost2010PropOp55
 70
     1
102
RTVSPost2010Prop56
140
1.0
102
RTVSPost2010PropOp56
 70
     1
102
RTVSPost2010Prop57
140
1.0
102
RTVSPost2010PropOp57
 70
     1
102
RTVSPropertyOp0
 70
     1
102
RTVSPropertyOp1
 70
     1
102
RTVSPropertyOp2
 70
     1
102
RTVSPropertyOp3
 70
     1
102
RTVSPropertyOp4
 70
     1
102
RTVSPropertyOp5
 70
     1
102
RTVSPropertyOp6
 70
     1
102
RTVSPropertyOp7
 70
     1
102
RTVSPropertyOp8
 70
     1
102
RTVSPropertyOp9
 70
     1
102
RTVSPropertyOp10
 70
     1
102
RTVSPropertyOp11
 70
     1
102
RTVSPropertyOp12
 70
     1
102
RTVSPropertyOp13
 70
     1
102
RTVSPropertyOp14
 70
     1
102
RTVSPropertyOp15
 70
     1
102
RTVSPropertyOp16
 70
     1
102
RTVSPropertyOp17
 70
     1
102
RTVSPropertyOp18
 70
     1
102
RTVSPropertyOp19
 70
     1
102
RTVSPropertyOp20
 70
     1
102
RTVSPropertyOp21
 70
     1
102
RTVSPropertyOp22
 70
     1
102
RTVSPropertyOp23
 70
     1
102
RTVSPropertyOp24
 70
     1
102
RTVSPropertyOp25
 70
     1
102
RTVSPropertyOp26
 70
     1
102
RTVSPropertyOp27
 70
     1
102
RTVSPropertyOp28
 70
     1
102
RTVSPropertyOp29
 70
     1
102
RTVSPropertyOp30
 70
     1
102
RTVSPropertyOp31
 70
     1
102
RTVSPropertyOp32
 70
     1
102
RTVSPropertyOp33
 70
     1
102
RTVSPropertyOp34
 70
     1
102
RTVSPropertyOp35
 70
     1
102
RTVSPropertyOp36
 70
     1
102
RTVSPropertyOp37
 70
     1
102
RTVSPropertyOp38
 70
     1
102
RTVSPropertyOp39
 70
     1
102
RTVSPropertyOp40
 70
     1
102
RTVSPropertyOp41
 70
     1
102
RTVSPropertyOp42
 70
     1
102
RTVSPropertyOp43
 70
     1
102
RTVSPropertyOp44
 70
     1
102
RTVSPropertyOp45
 70
     1
102
RTVSPropertyOp46
 70
     1
102
RTVSPropertyOp47
 70
     1
102
RTVSPropertyOp48
 70
     1
102
RTVSPropertyOp49
 70
     1
102
RTVSPropertyOp50
 70
     1
102
RTVSPropertyOp51
 70
     0
102
RTVSPropertyOp52
 70
     0
102
RTVSPropertyOp53
 70
     1
102
RTVSPropertyOp54
 70
     1
102
RTVSPropertyOp55
 70
     1
102
RTVSPropertyOp56
 70
     1
102
RTVSPropertyOp57
 70
     1
102
RTVSPropertyOp58
 70
     1
102
RTVSPropertyOp59
 70
     1
102
RTVSPropertyOp60
 70
     1
102
RTVSPropertyOp61
 70
     1
102
RTVSPropertyOp62
 70
     1
  0
XRECORD
  5
3C28
102
{ACAD_REACTORS
330
3C27
102
}
330
3C27
100
AcDbXrecord
280
     1
102
RTVSPost2010Prop28
280
     0
102
RTVSPost2010PropOp28
 70
     1
102
RTVSPost2010Prop29
280
     1
102
RTVSPost2010PropOp29
 70
     1
102
RTVSPost2010Prop30
280
     1
102
RTVSPost2010PropOp30
 70
     1
102
RTVSPost2010Prop31
280
     0
102
RTVSPost2010PropOp31
 70
     1
102
RTVSPost2010Prop32
280
     0
102
RTVSPost2010PropOp32
 70
     1
102
RTVSPost2010Prop33
280
     0
102
RTVSPost2010PropOp33
 70
     1
102
RTVSPost2010Prop34
280
     0
102
RTVSPost2010PropOp34
 70
     1
102
RTVSPost2010Prop35
280
     0
102
RTVSPost2010PropOp35
 70
     1
102
RTVSPost2010Prop36
280
     0
102
RTVSPost2010PropOp36
 70
     1
102
RTVSPost2010Prop37
 90
       50
102
RTVSPost2010PropOp37
 70
     1
102
RTVSPost2010Prop38
140
0.0
102
RTVSPost2010PropOp38
 70
     1
102
RTVSPost2010Prop39
140
1.0
102
RTVSPost2010PropOp39
 70
     1
102
RTVSPost2010Prop40
 90
        0
102
RTVSPost2010PropOp40
 70
     1
102
RTVSPost2010Prop41ColorIndex
 90
       18
102
RTVSPost2010Prop41ColorRGB
 90
        0
102
RTVSPost2010PropOp41
 70
     1
102
RTVSPost2010Prop42
 90
       50
102
RTVSPost2010PropOp42
 70
     1
102
RTVSPost2010Prop43
 90
        3
102
RTVSPost2010PropOp43
 70
     1
102
RTVSPost2010Prop44ColorIndex
 90
        5
102
RTVSPost2010Prop44ColorRGB
 90
      255
102
RTVSPost2010PropOp44
 70
     1
102
RTVSPost2010Prop45
280
     0
102
RTVSPost2010PropOp45
 70
     1
102
RTVSPost2010Prop46
 90
       50
102
RTVSPost2010PropOp46
 70
     1
102
RTVSPost2010Prop47
 90
       50
102
RTVSPost2010PropOp47
 70
     1
102
RTVSPost2010Prop48
 90
       50
102
RTVSPost2010PropOp48
 70
     1
102
RTVSPost2010Prop49
280
     0
102
RTVSPost2010PropOp49
 70
     1
102
RTVSPost2010Prop50
 90
       50
102
RTVSPost2010PropOp50
 70
     1
102
RTVSPost2010Prop51ColorIndex
 90
      256
102
RTVSPost2010Prop51ColorRGB
 90
-16777216
102
RTVSPost2010PropOp51
 70
     0
102
RTVSPost2010Prop52
140
1.0
102
RTVSPost2010PropOp52
 70
     0
102
RTVSPost2010Prop53
 90
        2
102
RTVSPost2010PropOp53
 70
     1
102
RTVSPost2010Prop54
  1
strokes_ogs.tif
102
RTVSPost2010PropOp54
 70
     1
102
RTVSPost2010Prop55
280
     0
102
RTVSPost2010PropOp55
 70
     1
102
RTVSPost2010Prop56
140
1.0
102
RTVSPost2010PropOp56
 70
     1
102
RTVSPost2010Prop57
140
1.0
102
RTVSPost2010PropOp57
 70
     1
102
RTVSPropertyOp0
 70
     1
102
RTVSPropertyOp1
 70
     1
102
RTVSPropertyOp2
 70
     1
102
RTVSPropertyOp3
 70
     1
102
RTVSPropertyOp4
 70
     1
102
RTVSPropertyOp5
 70
     1
102
RTVSPropertyOp6
 70
     1
102
RTVSPropertyOp7
 70
     1
102
RTVSPropertyOp8
 70
     1
102
RTVSPropertyOp9
 70
     1
102
RTVSPropertyOp10
 70
     1
102
RTVSPropertyOp11
 70
     1
102
RTVSPropertyOp12
 70
     1
102
RTVSPropertyOp13
 70
     1
102
RTVSPropertyOp14
 70
     1
102
RTVSPropertyOp15
 70
     1
102
RTVSPropertyOp16
 70
     1
102
RTVSPropertyOp17
 70
     1
102
RTVSPropertyOp18
 70
     1
102
RTVSPropertyOp19
 70
     1
102
RTVSPropertyOp20
 70
     1
102
RTVSPropertyOp21
 70
     1
102
RTVSPropertyOp22
 70
     1
102
RTVSPropertyOp23
 70
     1
102
RTVSPropertyOp24
 70
     1
102
RTVSPropertyOp25
 70
     1
102
RTVSPropertyOp26
 70
     1
102
RTVSPropertyOp27
 70
     1
102
RTVSPropertyOp28
 70
     1
102
RTVSPropertyOp29
 70
     1
102
RTVSPropertyOp30
 70
     1
102
RTVSPropertyOp31
 70
     1
102
RTVSPropertyOp32
 70
     1
102
RTVSPropertyOp33
 70
     1
102
RTVSPropertyOp34
 70
     1
102
RTVSPropertyOp35
 70
     1
102
RTVSPropertyOp36
 70
     1
102
RTVSPropertyOp37
 70
     1
102
RTVSPropertyOp38
 70
     1
102
RTVSPropertyOp39
 70
     1
102
RTVSPropertyOp40
 70
     1
102
RTVSPropertyOp41
 70
     1
102
RTVSPropertyOp42
 70
     1
102
RTVSPropertyOp43
 70
     1
102
RTVSPropertyOp44
 70
     1
102
RTVSPropertyOp45
 70
     1
102
RTVSPropertyOp46
 70
     1
102
RTVSPropertyOp47
 70
     1
102
RTVSPropertyOp48
 70
     1
102
RTVSPropertyOp49
 70
     1
102
RTVSPropertyOp50
 70
     1
102
RTVSPropertyOp51
 70
     0
102
RTVSPropertyOp52
 70
     0
102
RTVSPropertyOp53
 70
     1
102
RTVSPropertyOp54
 70
     1
102
RTVSPropertyOp55
 70
     1
102
RTVSPropertyOp56
 70
     1
102
RTVSPropertyOp57
 70
     1
102
RTVSPropertyOp58
 70
     1
102
RTVSPropertyOp59
 70
     1
102
RTVSPropertyOp60
 70
     1
102
RTVSPropertyOp61
 70
     1
102
RTVSPropertyOp62
 70
     1
  0
XRECORD
  5
3C2A
102
{ACAD_REACTORS
330
3C29
102
}
330
3C29
100
AcDbXrecord
280
     1
102
RTVSPost2010Prop28
280
     0
102
RTVSPost2010PropOp28
 70
     1
102
RTVSPost2010Prop29
280
     1
102
RTVSPost2010PropOp29
 70
     1
102
RTVSPost2010Prop30
280
     1
102
RTVSPost2010PropOp30
 70
     1
102
RTVSPost2010Prop31
280
     0
102
RTVSPost2010PropOp31
 70
     1
102
RTVSPost2010Prop32
280
     0
102
RTVSPost2010PropOp32
 70
     1
102
RTVSPost2010Prop33
280
     0
102
RTVSPost2010PropOp33
 70
     1
102
RTVSPost2010Prop34
280
     0
102
RTVSPost2010PropOp34
 70
     1
102
RTVSPost2010Prop35
280
     0
102
RTVSPost2010PropOp35
 70
     1
102
RTVSPost2010Prop36
280
     0
102
RTVSPost2010PropOp36
 70
     1
102
RTVSPost2010Prop37
 90
       50
102
RTVSPost2010PropOp37
 70
     1
102
RTVSPost2010Prop38
140
0.0
102
RTVSPost2010PropOp38
 70
     1
102
RTVSPost2010Prop39
140
1.0
102
RTVSPost2010PropOp39
 70
     1
102
RTVSPost2010Prop40
 90
        0
102
RTVSPost2010PropOp40
 70
     1
102
RTVSPost2010Prop41ColorIndex
 90
       18
102
RTVSPost2010Prop41ColorRGB
 90
        0
102
RTVSPost2010PropOp41
 70
     1
102
RTVSPost2010Prop42
 90
       50
102
RTVSPost2010PropOp42
 70
     1
102
RTVSPost2010Prop43
 90
        3
102
RTVSPost2010PropOp43
 70
     1
102
RTVSPost2010Prop44ColorIndex
 90
        5
102
RTVSPost2010Prop44ColorRGB
 90
      255
102
RTVSPost2010PropOp44
 70
     1
102
RTVSPost2010Prop45
280
     0
102
RTVSPost2010PropOp45
 70
     1
102
RTVSPost2010Prop46
 90
       50
102
RTVSPost2010PropOp46
 70
     1
102
RTVSPost2010Prop47
 90
       50
102
RTVSPost2010PropOp47
 70
     1
102
RTVSPost2010Prop48
 90
       50
102
RTVSPost2010PropOp48
 70
     1
102
RTVSPost2010Prop49
280
     0
102
RTVSPost2010PropOp49
 70
     1
102
RTVSPost2010Prop50
 90
       50
102
RTVSPost2010PropOp50
 70
     1
102
RTVSPost2010Prop51ColorIndex
 90
      256
102
RTVSPost2010Prop51ColorRGB
 90
-16777216
102
RTVSPost2010PropOp51
 70
     0
102
RTVSPost2010Prop52
140
1.0
102
RTVSPost2010PropOp52
 70
     0
102
RTVSPost2010Prop53
 90
        2
102
RTVSPost2010PropOp53
 70
     1
102
RTVSPost2010Prop54
  1
strokes_ogs.tif
102
RTVSPost2010PropOp54
 70
     1
102
RTVSPost2010Prop55
280
     0
102
RTVSPost2010PropOp55
 70
     1
102
RTVSPost2010Prop56
140
1.0
102
RTVSPost2010PropOp56
 70
     1
102
RTVSPost2010Prop57
140
1.0
102
RTVSPost2010PropOp57
 70
     1
102
RTVSPropertyOp0
 70
     1
102
RTVSPropertyOp1
 70
     1
102
RTVSPropertyOp2
 70
     1
102
RTVSPropertyOp3
 70
     1
102
RTVSPropertyOp4
 70
     1
102
RTVSPropertyOp5
 70
     1
102
RTVSPropertyOp6
 70
     1
102
RTVSPropertyOp7
 70
     1
102
RTVSPropertyOp8
 70
     1
102
RTVSPropertyOp9
 70
     1
102
RTVSPropertyOp10
 70
     1
102
RTVSPropertyOp11
 70
     1
102
RTVSPropertyOp12
 70
     1
102
RTVSPropertyOp13
 70
     1
102
RTVSPropertyOp14
 70
     1
102
RTVSPropertyOp15
 70
     1
102
RTVSPropertyOp16
 70
     1
102
RTVSPropertyOp17
 70
     1
102
RTVSPropertyOp18
 70
     1
102
RTVSPropertyOp19
 70
     1
102
RTVSPropertyOp20
 70
     1
102
RTVSPropertyOp21
 70
     1
102
RTVSPropertyOp22
 70
     1
102
RTVSPropertyOp23
 70
     1
102
RTVSPropertyOp24
 70
     1
102
RTVSPropertyOp25
 70
     1
102
RTVSPropertyOp26
 70
     1
102
RTVSPropertyOp27
 70
     1
102
RTVSPropertyOp28
 70
     1
102
RTVSPropertyOp29
 70
     1
102
RTVSPropertyOp30
 70
     1
102
RTVSPropertyOp31
 70
     1
102
RTVSPropertyOp32
 70
     1
102
RTVSPropertyOp33
 70
     1
102
RTVSPropertyOp34
 70
     1
102
RTVSPropertyOp35
 70
     1
102
RTVSPropertyOp36
 70
     1
102
RTVSPropertyOp37
 70
     1
102
RTVSPropertyOp38
 70
     1
102
RTVSPropertyOp39
 70
     1
102
RTVSPropertyOp40
 70
     1
102
RTVSPropertyOp41
 70
     1
102
RTVSPropertyOp42
 70
     1
102
RTVSPropertyOp43
 70
     1
102
RTVSPropertyOp44
 70
     1
102
RTVSPropertyOp45
 70
     1
102
RTVSPropertyOp46
 70
     1
102
RTVSPropertyOp47
 70
     1
102
RTVSPropertyOp48
 70
     1
102
RTVSPropertyOp49
 70
     1
102
RTVSPropertyOp50
 70
     1
102
RTVSPropertyOp51
 70
     0
102
RTVSPropertyOp52
 70
     0
102
RTVSPropertyOp53
 70
     1
102
RTVSPropertyOp54
 70
     1
102
RTVSPropertyOp55
 70
     1
102
RTVSPropertyOp56
 70
     1
102
RTVSPropertyOp57
 70
     1
102
RTVSPropertyOp58
 70
     1
102
RTVSPropertyOp59
 70
     1
102
RTVSPropertyOp60
 70
     1
102
RTVSPropertyOp61
 70
     1
102
RTVSPropertyOp62
 70
     1
  0
XRECORD
  5
3C32
102
{ACAD_REACTORS
330
3C31
102
}
330
3C31
100
AcDbXrecord
280
     1
102
RTVSPost2010Prop28
280
     0
102
RTVSPost2010PropOp28
 70
     1
102
RTVSPost2010Prop29
280
     1
102
RTVSPost2010PropOp29
 70
     1
102
RTVSPost2010Prop30
280
     1
102
RTVSPost2010PropOp30
 70
     1
102
RTVSPost2010Prop31
280
     0
102
RTVSPost2010PropOp31
 70
     1
102
RTVSPost2010Prop32
280
     0
102
RTVSPost2010PropOp32
 70
     1
102
RTVSPost2010Prop33
280
     0
102
RTVSPost2010PropOp33
 70
     1
102
RTVSPost2010Prop34
280
     0
102
RTVSPost2010PropOp34
 70
     1
102
RTVSPost2010Prop35
280
     0
102
RTVSPost2010PropOp35
 70
     1
102
RTVSPost2010Prop36
280
     0
102
RTVSPost2010PropOp36
 70
     1
102
RTVSPost2010Prop37
 90
       50
102
RTVSPost2010PropOp37
 70
     1
102
RTVSPost2010Prop38
140
0.0
102
RTVSPost2010PropOp38
 70
     1
102
RTVSPost2010Prop39
140
1.0
102
RTVSPost2010PropOp39
 70
     1
102
RTVSPost2010Prop40
 90
        0
102
RTVSPost2010PropOp40
 70
     1
102
RTVSPost2010Prop41ColorIndex
 90
       18
102
RTVSPost2010Prop41ColorRGB
 90
        0
102
RTVSPost2010PropOp41
 70
     1
102
RTVSPost2010Prop42
 90
       50
102
RTVSPost2010PropOp42
 70
     1
102
RTVSPost2010Prop43
 90
        3
102
RTVSPost2010PropOp43
 70
     1
102
RTVSPost2010Prop44ColorIndex
 90
        5
102
RTVSPost2010Prop44ColorRGB
 90
      255
102
RTVSPost2010PropOp44
 70
     1
102
RTVSPost2010Prop45
280
     0
102
RTVSPost2010PropOp45
 70
     1
102
RTVSPost2010Prop46
 90
       50
102
RTVSPost2010PropOp46
 70
     1
102
RTVSPost2010Prop47
 90
       50
102
RTVSPost2010PropOp47
 70
     1
102
RTVSPost2010Prop48
 90
       50
102
RTVSPost2010PropOp48
 70
     1
102
RTVSPost2010Prop49
280
     0
102
RTVSPost2010PropOp49
 70
     1
102
RTVSPost2010Prop50
 90
       50
102
RTVSPost2010PropOp50
 70
     1
102
RTVSPost2010Prop51ColorIndex
 90
      256
102
RTVSPost2010Prop51ColorRGB
 90
-16777216
102
RTVSPost2010PropOp51
 70
     0
102
RTVSPost2010Prop52
140
1.0
102
RTVSPost2010PropOp52
 70
     0
102
RTVSPost2010Prop53
 90
        2
102
RTVSPost2010PropOp53
 70
     1
102
RTVSPost2010Prop54
  1
strokes_ogs.tif
102
RTVSPost2010PropOp54
 70
     1
102
RTVSPost2010Prop55
280
     0
102
RTVSPost2010PropOp55
 70
     1
102
RTVSPost2010Prop56
140
1.0
102
RTVSPost2010PropOp56
 70
     1
102
RTVSPost2010Prop57
140
1.0
102
RTVSPost2010PropOp57
 70
     1
102
RTVSPropertyOp0
 70
     1
102
RTVSPropertyOp1
 70
     1
102
RTVSPropertyOp2
 70
     1
102
RTVSPropertyOp3
 70
     1
102
RTVSPropertyOp4
 70
     1
102
RTVSPropertyOp5
 70
     1
102
RTVSPropertyOp6
 70
     1
102
RTVSPropertyOp7
 70
     1
102
RTVSPropertyOp8
 70
     1
102
RTVSPropertyOp9
 70
     1
102
RTVSPropertyOp10
 70
     1
102
RTVSPropertyOp11
 70
     1
102
RTVSPropertyOp12
 70
     1
102
RTVSPropertyOp13
 70
     1
102
RTVSPropertyOp14
 70
     1
102
RTVSPropertyOp15
 70
     1
102
RTVSPropertyOp16
 70
     1
102
RTVSPropertyOp17
 70
     1
102
RTVSPropertyOp18
 70
     1
102
RTVSPropertyOp19
 70
     1
102
RTVSPropertyOp20
 70
     1
102
RTVSPropertyOp21
 70
     1
102
RTVSPropertyOp22
 70
     1
102
RTVSPropertyOp23
 70
     1
102
RTVSPropertyOp24
 70
     1
102
RTVSPropertyOp25
 70
     1
102
RTVSPropertyOp26
 70
     1
102
RTVSPropertyOp27
 70
     1
102
RTVSPropertyOp28
 70
     1
102
RTVSPropertyOp29
 70
     1
102
RTVSPropertyOp30
 70
     1
102
RTVSPropertyOp31
 70
     1
102
RTVSPropertyOp32
 70
     1
102
RTVSPropertyOp33
 70
     1
102
RTVSPropertyOp34
 70
     1
102
RTVSPropertyOp35
 70
     1
102
RTVSPropertyOp36
 70
     1
102
RTVSPropertyOp37
 70
     1
102
RTVSPropertyOp38
 70
     1
102
RTVSPropertyOp39
 70
     1
102
RTVSPropertyOp40
 70
     1
102
RTVSPropertyOp41
 70
     1
102
RTVSPropertyOp42
 70
     1
102
RTVSPropertyOp43
 70
     1
102
RTVSPropertyOp44
 70
     1
102
RTVSPropertyOp45
 70
     1
102
RTVSPropertyOp46
 70
     1
102
RTVSPropertyOp47
 70
     1
102
RTVSPropertyOp48
 70
     1
102
RTVSPropertyOp49
 70
     1
102
RTVSPropertyOp50
 70
     1
102
RTVSPropertyOp51
 70
     0
102
RTVSPropertyOp52
 70
     0
102
RTVSPropertyOp53
 70
     1
102
RTVSPropertyOp54
 70
     1
102
RTVSPropertyOp55
 70
     1
102
RTVSPropertyOp56
 70
     1
102
RTVSPropertyOp57
 70
     1
102
RTVSPropertyOp58
 70
     1
102
RTVSPropertyOp59
 70
     1
102
RTVSPropertyOp60
 70
     1
102
RTVSPropertyOp61
 70
     1
102
RTVSPropertyOp62
 70
     1
  0
XRECORD
  5
3C46
102
{ACAD_REACTORS
330
3C45
102
}
330
3C45
100
AcDbXrecord
280
     1
102
RTVSPost2010Prop28
280
     0
102
RTVSPost2010PropOp28
 70
     1
102
RTVSPost2010Prop29
280
     1
102
RTVSPost2010PropOp29
 70
     1
102
RTVSPost2010Prop30
280
     1
102
RTVSPost2010PropOp30
 70
     1
102
RTVSPost2010Prop31
280
     0
102
RTVSPost2010PropOp31
 70
     1
102
RTVSPost2010Prop32
280
     0
102
RTVSPost2010PropOp32
 70
     1
102
RTVSPost2010Prop33
280
     0
102
RTVSPost2010PropOp33
 70
     1
102
RTVSPost2010Prop34
280
     0
102
RTVSPost2010PropOp34
 70
     1
102
RTVSPost2010Prop35
280
     0
102
RTVSPost2010PropOp35
 70
     1
102
RTVSPost2010Prop36
280
     0
102
RTVSPost2010PropOp36
 70
     1
102
RTVSPost2010Prop37
 90
       50
102
RTVSPost2010PropOp37
 70
     1
102
RTVSPost2010Prop38
140
0.0
102
RTVSPost2010PropOp38
 70
     1
102
RTVSPost2010Prop39
140
1.0
102
RTVSPost2010PropOp39
 70
     1
102
RTVSPost2010Prop40
 90
        0
102
RTVSPost2010PropOp40
 70
     1
102
RTVSPost2010Prop41ColorIndex
 90
       18
102
RTVSPost2010Prop41ColorRGB
 90
        0
102
RTVSPost2010PropOp41
 70
     1
102
RTVSPost2010Prop42
 90
       50
102
RTVSPost2010PropOp42
 70
     1
102
RTVSPost2010Prop43
 90
        3
102
RTVSPost2010PropOp43
 70
     1
102
RTVSPost2010Prop44ColorIndex
 90
        5
102
RTVSPost2010Prop44ColorRGB
 90
      255
102
RTVSPost2010PropOp44
 70
     1
102
RTVSPost2010Prop45
280
     0
102
RTVSPost2010PropOp45
 70
     1
102
RTVSPost2010Prop46
 90
       50
102
RTVSPost2010PropOp46
 70
     1
102
RTVSPost2010Prop47
 90
       50
102
RTVSPost2010PropOp47
 70
     1
102
RTVSPost2010Prop48
 90
       50
102
RTVSPost2010PropOp48
 70
     1
102
RTVSPost2010Prop49
280
     0
102
RTVSPost2010PropOp49
 70
     1
102
RTVSPost2010Prop50
 90
       50
102
RTVSPost2010PropOp50
 70
     1
102
RTVSPost2010Prop51ColorIndex
 90
      256
102
RTVSPost2010Prop51ColorRGB
 90
-16777216
102
RTVSPost2010PropOp51
 70
     0
102
RTVSPost2010Prop52
140
1.0
102
RTVSPost2010PropOp52
 70
     0
102
RTVSPost2010Prop53
 90
        2
102
RTVSPost2010PropOp53
 70
     1
102
RTVSPost2010Prop54
  1
strokes_ogs.tif
102
RTVSPost2010PropOp54
 70
     1
102
RTVSPost2010Prop55
280
     0
102
RTVSPost2010PropOp55
 70
     1
102
RTVSPost2010Prop56
140
1.0
102
RTVSPost2010PropOp56
 70
     1
102
RTVSPost2010Prop57
140
1.0
102
RTVSPost2010PropOp57
 70
     1
102
RTVSPropertyOp0
 70
     0
102
RTVSPropertyOp1
 70
     0
102
RTVSPropertyOp2
 70
     0
102
RTVSPropertyOp3
 70
     0
102
RTVSPropertyOp4
 70
     0
102
RTVSPropertyOp5
 70
     0
102
RTVSPropertyOp6
 70
     0
102
RTVSPropertyOp7
 70
     0
102
RTVSPropertyOp8
 70
     0
102
RTVSPropertyOp9
 70
     0
102
RTVSPropertyOp10
 70
     0
102
RTVSPropertyOp11
 70
     0
102
RTVSPropertyOp12
 70
     0
102
RTVSPropertyOp13
 70
     0
102
RTVSPropertyOp14
 70
     2
102
RTVSPropertyOp15
 70
     0
102
RTVSPropertyOp16
 70
     0
102
RTVSPropertyOp17
 70
     0
102
RTVSPropertyOp18
 70
     0
102
RTVSPropertyOp19
 70
     0
102
RTVSPropertyOp20
 70
     0
102
RTVSPropertyOp21
 70
     0
102
RTVSPropertyOp22
 70
     0
102
RTVSPropertyOp23
 70
     0
102
RTVSPropertyOp24
 70
     0
102
RTVSPropertyOp25
 70
     0
102
RTVSPropertyOp26
 70
     0
102
RTVSPropertyOp27
 70
     0
102
RTVSPropertyOp28
 70
     1
102
RTVSPropertyOp29
 70
     1
102
RTVSPropertyOp30
 70
     1
102
RTVSPropertyOp31
 70
     1
102
RTVSPropertyOp32
 70
     1
102
RTVSPropertyOp33
 70
     1
102
RTVSPropertyOp34
 70
     1
102
RTVSPropertyOp35
 70
     1
102
RTVSPropertyOp36
 70
     1
102
RTVSPropertyOp37
 70
     1
102
RTVSPropertyOp38
 70
     1
102
RTVSPropertyOp39
 70
     1
102
RTVSPropertyOp40
 70
     1
102
RTVSPropertyOp41
 70
     1
102
RTVSPropertyOp42
 70
     1
102
RTVSPropertyOp43
 70
     1
102
RTVSPropertyOp44
 70
     1
102
RTVSPropertyOp45
 70
     1
102
RTVSPropertyOp46
 70
     1
102
RTVSPropertyOp47
 70
     1
102
RTVSPropertyOp48
 70
     1
102
RTVSPropertyOp49
 70
     1
102
RTVSPropertyOp50
 70
     1
102
RTVSPropertyOp51
 70
     0
102
RTVSPropertyOp52
 70
     0
102
RTVSPropertyOp53
 70
     1
102
RTVSPropertyOp54
 70
     1
102
RTVSPropertyOp55
 70
     1
102
RTVSPropertyOp56
 70
     1
102
RTVSPropertyOp57
 70
     1
102
RTVSPropertyOp58
 70
     1
102
RTVSPropertyOp59
 70
     1
102
RTVSPropertyOp60
 70
     1
102
RTVSPropertyOp61
 70
     1
102
RTVSPropertyOp62
 70
     1
  0
XRECORD
  5
3C3E
102
{ACAD_REACTORS
330
3C3D
102
}
330
3C3D
100
AcDbXrecord
280
     1
102
RTVSPost2010Prop28
280
     0
102
RTVSPost2010PropOp28
 70
     1
102
RTVSPost2010Prop29
280
     1
102
RTVSPost2010PropOp29
 70
     1
102
RTVSPost2010Prop30
280
     1
102
RTVSPost2010PropOp30
 70
     1
102
RTVSPost2010Prop31
280
     0
102
RTVSPost2010PropOp31
 70
     1
102
RTVSPost2010Prop32
280
     0
102
RTVSPost2010PropOp32
 70
     1
102
RTVSPost2010Prop33
280
     0
102
RTVSPost2010PropOp33
 70
     1
102
RTVSPost2010Prop34
280
     0
102
RTVSPost2010PropOp34
 70
     1
102
RTVSPost2010Prop35
280
     0
102
RTVSPost2010PropOp35
 70
     1
102
RTVSPost2010Prop36
280
     0
102
RTVSPost2010PropOp36
 70
     1
102
RTVSPost2010Prop37
 90
       50
102
RTVSPost2010PropOp37
 70
     1
102
RTVSPost2010Prop38
140
0.0
102
RTVSPost2010PropOp38
 70
     1
102
RTVSPost2010Prop39
140
1.0
102
RTVSPost2010PropOp39
 70
     1
102
RTVSPost2010Prop40
 90
        0
102
RTVSPost2010PropOp40
 70
     1
102
RTVSPost2010Prop41ColorIndex
 90
       18
102
RTVSPost2010Prop41ColorRGB
 90
        0
102
RTVSPost2010PropOp41
 70
     1
102
RTVSPost2010Prop42
 90
       50
102
RTVSPost2010PropOp42
 70
     1
102
RTVSPost2010Prop43
 90
        3
102
RTVSPost2010PropOp43
 70
     1
102
RTVSPost2010Prop44ColorIndex
 90
        5
102
RTVSPost2010Prop44ColorRGB
 90
      255
102
RTVSPost2010PropOp44
 70
     1
102
RTVSPost2010Prop45
280
     0
102
RTVSPost2010PropOp45
 70
     1
102
RTVSPost2010Prop46
 90
       50
102
RTVSPost2010PropOp46
 70
     1
102
RTVSPost2010Prop47
 90
       50
102
RTVSPost2010PropOp47
 70
     1
102
RTVSPost2010Prop48
 90
       50
102
RTVSPost2010PropOp48
 70
     1
102
RTVSPost2010Prop49
280
     0
102
RTVSPost2010PropOp49
 70
     1
102
RTVSPost2010Prop50
 90
       50
102
RTVSPost2010PropOp50
 70
     1
102
RTVSPost2010Prop51ColorIndex
 90
      256
102
RTVSPost2010Prop51ColorRGB
 90
-16777216
102
RTVSPost2010PropOp51
 70
     0
102
RTVSPost2010Prop52
140
1.0
102
RTVSPost2010PropOp52
 70
     0
102
RTVSPost2010Prop53
 90
        2
102
RTVSPost2010PropOp53
 70
     1
102
RTVSPost2010Prop54
  1
strokes_ogs.tif
102
RTVSPost2010PropOp54
 70
     1
102
RTVSPost2010Prop55
280
     0
102
RTVSPost2010PropOp55
 70
     1
102
RTVSPost2010Prop56
140
1.0
102
RTVSPost2010PropOp56
 70
     1
102
RTVSPost2010Prop57
140
1.0
102
RTVSPost2010PropOp57
 70
     1
102
RTVSPropertyOp0
 70
     1
102
RTVSPropertyOp1
 70
     1
102
RTVSPropertyOp2
 70
     1
102
RTVSPropertyOp3
 70
     1
102
RTVSPropertyOp4
 70
     1
102
RTVSPropertyOp5
 70
     1
102
RTVSPropertyOp6
 70
     1
102
RTVSPropertyOp7
 70
     1
102
RTVSPropertyOp8
 70
     1
102
RTVSPropertyOp9
 70
     1
102
RTVSPropertyOp10
 70
     1
102
RTVSPropertyOp11
 70
     1
102
RTVSPropertyOp12
 70
     1
102
RTVSPropertyOp13
 70
     1
102
RTVSPropertyOp14
 70
     1
102
RTVSPropertyOp15
 70
     1
102
RTVSPropertyOp16
 70
     1
102
RTVSPropertyOp17
 70
     1
102
RTVSPropertyOp18
 70
     1
102
RTVSPropertyOp19
 70
     1
102
RTVSPropertyOp20
 70
     1
102
RTVSPropertyOp21
 70
     1
102
RTVSPropertyOp22
 70
     1
102
RTVSPropertyOp23
 70
     1
102
RTVSPropertyOp24
 70
     1
102
RTVSPropertyOp25
 70
     1
102
RTVSPropertyOp26
 70
     1
102
RTVSPropertyOp27
 70
     1
102
RTVSPropertyOp28
 70
     1
102
RTVSPropertyOp29
 70
     1
102
RTVSPropertyOp30
 70
     1
102
RTVSPropertyOp31
 70
     1
102
RTVSPropertyOp32
 70
     1
102
RTVSPropertyOp33
 70
     1
102
RTVSPropertyOp34
 70
     1
102
RTVSPropertyOp35
 70
     1
102
RTVSPropertyOp36
 70
     1
102
RTVSPropertyOp37
 70
     1
102
RTVSPropertyOp38
 70
     1
102
RTVSPropertyOp39
 70
     1
102
RTVSPropertyOp40
 70
     1
102
RTVSPropertyOp41
 70
     1
102
RTVSPropertyOp42
 70
     1
102
RTVSPropertyOp43
 70
     1
102
RTVSPropertyOp44
 70
     1
102
RTVSPropertyOp45
 70
     1
102
RTVSPropertyOp46
 70
     1
102
RTVSPropertyOp47
 70
     1
102
RTVSPropertyOp48
 70
     1
102
RTVSPropertyOp49
 70
     1
102
RTVSPropertyOp50
 70
     1
102
RTVSPropertyOp51
 70
     0
102
RTVSPropertyOp52
 70
     0
102
RTVSPropertyOp53
 70
     1
102
RTVSPropertyOp54
 70
     1
102
RTVSPropertyOp55
 70
     1
102
RTVSPropertyOp56
 70
     1
102
RTVSPropertyOp57
 70
     1
102
RTVSPropertyOp58
 70
     1
102
RTVSPropertyOp59
 70
     1
102
RTVSPropertyOp60
 70
     1
102
RTVSPropertyOp61
 70
     1
102
RTVSPropertyOp62
 70
     1
  0
XRECORD
  5
3C48
102
{ACAD_REACTORS
330
3C47
102
}
330
3C47
100
AcDbXrecord
280
     1
102
RTVSPost2010Prop28
280
     0
102
RTVSPost2010PropOp28
 70
     1
102
RTVSPost2010Prop29
280
     1
102
RTVSPost2010PropOp29
 70
     1
102
RTVSPost2010Prop30
280
     1
102
RTVSPost2010PropOp30
 70
     1
102
RTVSPost2010Prop31
280
     0
102
RTVSPost2010PropOp31
 70
     1
102
RTVSPost2010Prop32
280
     0
102
RTVSPost2010PropOp32
 70
     1
102
RTVSPost2010Prop33
280
     0
102
RTVSPost2010PropOp33
 70
     1
102
RTVSPost2010Prop34
280
     0
102
RTVSPost2010PropOp34
 70
     1
102
RTVSPost2010Prop35
280
     0
102
RTVSPost2010PropOp35
 70
     1
102
RTVSPost2010Prop36
280
     0
102
RTVSPost2010PropOp36
 70
     1
102
RTVSPost2010Prop37
 90
       50
102
RTVSPost2010PropOp37
 70
     1
102
RTVSPost2010Prop38
140
0.0
102
RTVSPost2010PropOp38
 70
     1
102
RTVSPost2010Prop39
140
1.0
102
RTVSPost2010PropOp39
 70
     1
102
RTVSPost2010Prop40
 90
        0
102
RTVSPost2010PropOp40
 70
     1
102
RTVSPost2010Prop41ColorIndex
 90
       18
102
RTVSPost2010Prop41ColorRGB
 90
        0
102
RTVSPost2010PropOp41
 70
     1
102
RTVSPost2010Prop42
 90
       50
102
RTVSPost2010PropOp42
 70
     1
102
RTVSPost2010Prop43
 90
        3
102
RTVSPost2010PropOp43
 70
     1
102
RTVSPost2010Prop44ColorIndex
 90
        5
102
RTVSPost2010Prop44ColorRGB
 90
      255
102
RTVSPost2010PropOp44
 70
     1
102
RTVSPost2010Prop45
280
     0
102
RTVSPost2010PropOp45
 70
     1
102
RTVSPost2010Prop46
 90
       50
102
RTVSPost2010PropOp46
 70
     1
102
RTVSPost2010Prop47
 90
       50
102
RTVSPost2010PropOp47
 70
     1
102
RTVSPost2010Prop48
 90
       50
102
RTVSPost2010PropOp48
 70
     1
102
RTVSPost2010Prop49
280
     0
102
RTVSPost2010PropOp49
 70
     1
102
RTVSPost2010Prop50
 90
       50
102
RTVSPost2010PropOp50
 70
     1
102
RTVSPost2010Prop51ColorIndex
 90
      256
102
RTVSPost2010Prop51ColorRGB
 90
-16777216
102
RTVSPost2010PropOp51
 70
     0
102
RTVSPost2010Prop52
140
1.0
102
RTVSPost2010PropOp52
 70
     0
102
RTVSPost2010Prop53
 90
        2
102
RTVSPost2010PropOp53
 70
     1
102
RTVSPost2010Prop54
  1
strokes_ogs.tif
102
RTVSPost2010PropOp54
 70
     1
102
RTVSPost2010Prop55
280
     0
102
RTVSPost2010PropOp55
 70
     1
102
RTVSPost2010Prop56
140
1.0
102
RTVSPost2010PropOp56
 70
     1
102
RTVSPost2010Prop57
140
1.0
102
RTVSPost2010PropOp57
 70
     1
102
RTVSPropertyOp0
 70
     0
102
RTVSPropertyOp1
 70
     0
102
RTVSPropertyOp2
 70
     0
102
RTVSPropertyOp3
 70
     0
102
RTVSPropertyOp4
 70
     0
102
RTVSPropertyOp5
 70
     0
102
RTVSPropertyOp6
 70
     0
102
RTVSPropertyOp7
 70
     0
102
RTVSPropertyOp8
 70
     0
102
RTVSPropertyOp9
 70
     0
102
RTVSPropertyOp10
 70
     0
102
RTVSPropertyOp11
 70
     0
102
RTVSPropertyOp12
 70
     0
102
RTVSPropertyOp13
 70
     0
102
RTVSPropertyOp14
 70
     2
102
RTVSPropertyOp15
 70
     0
102
RTVSPropertyOp16
 70
     0
102
RTVSPropertyOp17
 70
     0
102
RTVSPropertyOp18
 70
     0
102
RTVSPropertyOp19
 70
     0
102
RTVSPropertyOp20
 70
     0
102
RTVSPropertyOp21
 70
     0
102
RTVSPropertyOp22
 70
     0
102
RTVSPropertyOp23
 70
     0
102
RTVSPropertyOp24
 70
     0
102
RTVSPropertyOp25
 70
     0
102
RTVSPropertyOp26
 70
     0
102
RTVSPropertyOp27
 70
     0
102
RTVSPropertyOp28
 70
     1
102
RTVSPropertyOp29
 70
     1
102
RTVSPropertyOp30
 70
     1
102
RTVSPropertyOp31
 70
     1
102
RTVSPropertyOp32
 70
     1
102
RTVSPropertyOp33
 70
     1
102
RTVSPropertyOp34
 70
     1
102
RTVSPropertyOp35
 70
     1
102
RTVSPropertyOp36
 70
     1
102
RTVSPropertyOp37
 70
     1
102
RTVSPropertyOp38
 70
     1
102
RTVSPropertyOp39
 70
     1
102
RTVSPropertyOp40
 70
     1
102
RTVSPropertyOp41
 70
     1
102
RTVSPropertyOp42
 70
     1
102
RTVSPropertyOp43
 70
     1
102
RTVSPropertyOp44
 70
     1
102
RTVSPropertyOp45
 70
     1
102
RTVSPropertyOp46
 70
     1
102
RTVSPropertyOp47
 70
     1
102
RTVSPropertyOp48
 70
     1
102
RTVSPropertyOp49
 70
     1
102
RTVSPropertyOp50
 70
     1
102
RTVSPropertyOp51
 70
     0
102
RTVSPropertyOp52
 70
     0
102
RTVSPropertyOp53
 70
     1
102
RTVSPropertyOp54
 70
     1
102
RTVSPropertyOp55
 70
     1
102
RTVSPropertyOp56
 70
     1
102
RTVSPropertyOp57
 70
     1
102
RTVSPropertyOp58
 70
     1
102
RTVSPropertyOp59
 70
     1
102
RTVSPropertyOp60
 70
     1
102
RTVSPropertyOp61
 70
     1
102
RTVSPropertyOp62
 70
     1
  0
XRECORD
  5
3C36
102
{ACAD_REACTORS
330
3C35
102
}
330
3C35
100
AcDbXrecord
280
     1
102
RTVSPost2010Prop28
280
     0
102
RTVSPost2010PropOp28
 70
     1
102
RTVSPost2010Prop29
280
     1
102
RTVSPost2010PropOp29
 70
     1
102
RTVSPost2010Prop30
280
     1
102
RTVSPost2010PropOp30
 70
     1
102
RTVSPost2010Prop31
280
     0
102
RTVSPost2010PropOp31
 70
     1
102
RTVSPost2010Prop32
280
     0
102
RTVSPost2010PropOp32
 70
     1
102
RTVSPost2010Prop33
280
     0
102
RTVSPost2010PropOp33
 70
     1
102
RTVSPost2010Prop34
280
     0
102
RTVSPost2010PropOp34
 70
     1
102
RTVSPost2010Prop35
280
     0
102
RTVSPost2010PropOp35
 70
     1
102
RTVSPost2010Prop36
280
     0
102
RTVSPost2010PropOp36
 70
     1
102
RTVSPost2010Prop37
 90
       50
102
RTVSPost2010PropOp37
 70
     1
102
RTVSPost2010Prop38
140
0.0
102
RTVSPost2010PropOp38
 70
     1
102
RTVSPost2010Prop39
140
1.0
102
RTVSPost2010PropOp39
 70
     1
102
RTVSPost2010Prop40
 90
        0
102
RTVSPost2010PropOp40
 70
     1
102
RTVSPost2010Prop41ColorIndex
 90
       18
102
RTVSPost2010Prop41ColorRGB
 90
        0
102
RTVSPost2010PropOp41
 70
     1
102
RTVSPost2010Prop42
 90
       50
102
RTVSPost2010PropOp42
 70
     1
102
RTVSPost2010Prop43
 90
        3
102
RTVSPost2010PropOp43
 70
     1
102
RTVSPost2010Prop44ColorIndex
 90
        5
102
RTVSPost2010Prop44ColorRGB
 90
      255
102
RTVSPost2010PropOp44
 70
     1
102
RTVSPost2010Prop45
280
     0
102
RTVSPost2010PropOp45
 70
     1
102
RTVSPost2010Prop46
 90
       50
102
RTVSPost2010PropOp46
 70
     1
102
RTVSPost2010Prop47
 90
       50
102
RTVSPost2010PropOp47
 70
     1
102
RTVSPost2010Prop48
 90
       50
102
RTVSPost2010PropOp48
 70
     1
102
RTVSPost2010Prop49
280
     0
102
RTVSPost2010PropOp49
 70
     1
102
RTVSPost2010Prop50
 90
       50
102
RTVSPost2010PropOp50
 70
     1
102
RTVSPost2010Prop51ColorIndex
 90
      256
102
RTVSPost2010Prop51ColorRGB
 90
-16777216
102
RTVSPost2010PropOp51
 70
     0
102
RTVSPost2010Prop52
140
1.0
102
RTVSPost2010PropOp52
 70
     0
102
RTVSPost2010Prop53
 90
        2
102
RTVSPost2010PropOp53
 70
     1
102
RTVSPost2010Prop54
  1
strokes_ogs.tif
102
RTVSPost2010PropOp54
 70
     1
102
RTVSPost2010Prop55
280
     0
102
RTVSPost2010PropOp55
 70
     1
102
RTVSPost2010Prop56
140
1.0
102
RTVSPost2010PropOp56
 70
     1
102
RTVSPost2010Prop57
140
1.0
102
RTVSPost2010PropOp57
 70
     1
102
RTVSPropertyOp0
 70
     1
102
RTVSPropertyOp1
 70
     1
102
RTVSPropertyOp2
 70
     1
102
RTVSPropertyOp3
 70
     1
102
RTVSPropertyOp4
 70
     1
102
RTVSPropertyOp5
 70
     1
102
RTVSPropertyOp6
 70
     1
102
RTVSPropertyOp7
 70
     1
102
RTVSPropertyOp8
 70
     1
102
RTVSPropertyOp9
 70
     1
102
RTVSPropertyOp10
 70
     1
102
RTVSPropertyOp11
 70
     1
102
RTVSPropertyOp12
 70
     1
102
RTVSPropertyOp13
 70
     1
102
RTVSPropertyOp14
 70
     1
102
RTVSPropertyOp15
 70
     1
102
RTVSPropertyOp16
 70
     1
102
RTVSPropertyOp17
 70
     1
102
RTVSPropertyOp18
 70
     1
102
RTVSPropertyOp19
 70
     1
102
RTVSPropertyOp20
 70
     1
102
RTVSPropertyOp21
 70
     1
102
RTVSPropertyOp22
 70
     1
102
RTVSPropertyOp23
 70
     1
102
RTVSPropertyOp24
 70
     1
102
RTVSPropertyOp25
 70
     1
102
RTVSPropertyOp26
 70
     1
102
RTVSPropertyOp27
 70
     1
102
RTVSPropertyOp28
 70
     1
102
RTVSPropertyOp29
 70
     1
102
RTVSPropertyOp30
 70
     1
102
RTVSPropertyOp31
 70
     1
102
RTVSPropertyOp32
 70
     1
102
RTVSPropertyOp33
 70
     1
102
RTVSPropertyOp34
 70
     1
102
RTVSPropertyOp35
 70
     1
102
RTVSPropertyOp36
 70
     1
102
RTVSPropertyOp37
 70
     1
102
RTVSPropertyOp38
 70
     1
102
RTVSPropertyOp39
 70
     1
102
RTVSPropertyOp40
 70
     1
102
RTVSPropertyOp41
 70
     1
102
RTVSPropertyOp42
 70
     1
102
RTVSPropertyOp43
 70
     1
102
RTVSPropertyOp44
 70
     1
102
RTVSPropertyOp45
 70
     1
102
RTVSPropertyOp46
 70
     1
102
RTVSPropertyOp47
 70
     1
102
RTVSPropertyOp48
 70
     1
102
RTVSPropertyOp49
 70
     1
102
RTVSPropertyOp50
 70
     1
102
RTVSPropertyOp51
 70
     0
102
RTVSPropertyOp52
 70
     0
102
RTVSPropertyOp53
 70
     1
102
RTVSPropertyOp54
 70
     1
102
RTVSPropertyOp55
 70
     1
102
RTVSPropertyOp56
 70
     1
102
RTVSPropertyOp57
 70
     1
102
RTVSPropertyOp58
 70
     1
102
RTVSPropertyOp59
 70
     1
102
RTVSPropertyOp60
 70
     1
102
RTVSPropertyOp61
 70
     1
102
RTVSPropertyOp62
 70
     1
  0
XRECORD
  5
3C54
102
{ACAD_REACTORS
330
3C53
102
}
330
3C53
100
AcDbXrecord
280
     1
102
RTVSPost2010Prop28
280
     0
102
RTVSPost2010PropOp28
 70
     1
102
RTVSPost2010Prop29
280
     1
102
RTVSPost2010PropOp29
 70
     1
102
RTVSPost2010Prop30
280
     1
102
RTVSPost2010PropOp30
 70
     1
102
RTVSPost2010Prop31
280
     0
102
RTVSPost2010PropOp31
 70
     1
102
RTVSPost2010Prop32
280
     0
102
RTVSPost2010PropOp32
 70
     1
102
RTVSPost2010Prop33
280
     0
102
RTVSPost2010PropOp33
 70
     1
102
RTVSPost2010Prop34
280
     0
102
RTVSPost2010PropOp34
 70
     1
102
RTVSPost2010Prop35
280
     0
102
RTVSPost2010PropOp35
 70
     1
102
RTVSPost2010Prop36
280
     0
102
RTVSPost2010PropOp36
 70
     1
102
RTVSPost2010Prop37
 90
       50
102
RTVSPost2010PropOp37
 70
     1
102
RTVSPost2010Prop38
140
0.0
102
RTVSPost2010PropOp38
 70
     1
102
RTVSPost2010Prop39
140
1.0
102
RTVSPost2010PropOp39
 70
     1
102
RTVSPost2010Prop40
 90
        0
102
RTVSPost2010PropOp40
 70
     1
102
RTVSPost2010Prop41ColorIndex
 90
       18
102
RTVSPost2010Prop41ColorRGB
 90
        0
102
RTVSPost2010PropOp41
 70
     1
102
RTVSPost2010Prop42
 90
       50
102
RTVSPost2010PropOp42
 70
     1
102
RTVSPost2010Prop43
 90
        3
102
RTVSPost2010PropOp43
 70
     1
102
RTVSPost2010Prop44ColorIndex
 90
        5
102
RTVSPost2010Prop44ColorRGB
 90
      255
102
RTVSPost2010PropOp44
 70
     1
102
RTVSPost2010Prop45
280
     0
102
RTVSPost2010PropOp45
 70
     1
102
RTVSPost2010Prop46
 90
       50
102
RTVSPost2010PropOp46
 70
     1
102
RTVSPost2010Prop47
 90
       50
102
RTVSPost2010PropOp47
 70
     1
102
RTVSPost2010Prop48
 90
       50
102
RTVSPost2010PropOp48
 70
     1
102
RTVSPost2010Prop49
280
     0
102
RTVSPost2010PropOp49
 70
     1
102
RTVSPost2010Prop50
 90
       50
102
RTVSPost2010PropOp50
 70
     1
102
RTVSPost2010Prop51ColorIndex
 90
      256
102
RTVSPost2010Prop51ColorRGB
 90
-16777216
102
RTVSPost2010PropOp51
 70
     0
102
RTVSPost2010Prop52
140
1.0
102
RTVSPost2010PropOp52
 70
     0
102
RTVSPost2010Prop53
 90
        2
102
RTVSPost2010PropOp53
 70
     1
102
RTVSPost2010Prop54
  1
strokes_ogs.tif
102
RTVSPost2010PropOp54
 70
     1
102
RTVSPost2010Prop55
280
     0
102
RTVSPost2010PropOp55
 70
     1
102
RTVSPost2010Prop56
140
1.0
102
RTVSPost2010PropOp56
 70
     1
102
RTVSPost2010Prop57
140
1.0
102
RTVSPost2010PropOp57
 70
     1
102
RTVSPropertyOp0
 70
     1
102
RTVSPropertyOp1
 70
     1
102
RTVSPropertyOp2
 70
     1
102
RTVSPropertyOp3
 70
     1
102
RTVSPropertyOp4
 70
     1
102
RTVSPropertyOp5
 70
     1
102
RTVSPropertyOp6
 70
     1
102
RTVSPropertyOp7
 70
     1
102
RTVSPropertyOp8
 70
     1
102
RTVSPropertyOp9
 70
     1
102
RTVSPropertyOp10
 70
     1
102
RTVSPropertyOp11
 70
     1
102
RTVSPropertyOp12
 70
     1
102
RTVSPropertyOp13
 70
     1
102
RTVSPropertyOp14
 70
     1
102
RTVSPropertyOp15
 70
     1
102
RTVSPropertyOp16
 70
     1
102
RTVSPropertyOp17
 70
     1
102
RTVSPropertyOp18
 70
     1
102
RTVSPropertyOp19
 70
     1
102
RTVSPropertyOp20
 70
     1
102
RTVSPropertyOp21
 70
     1
102
RTVSPropertyOp22
 70
     1
102
RTVSPropertyOp23
 70
     1
102
RTVSPropertyOp24
 70
     1
102
RTVSPropertyOp25
 70
     1
102
RTVSPropertyOp26
 70
     1
102
RTVSPropertyOp27
 70
     1
102
RTVSPropertyOp28
 70
     1
102
RTVSPropertyOp29
 70
     1
102
RTVSPropertyOp30
 70
     1
102
RTVSPropertyOp31
 70
     1
102
RTVSPropertyOp32
 70
     1
102
RTVSPropertyOp33
 70
     1
102
RTVSPropertyOp34
 70
     1
102
RTVSPropertyOp35
 70
     1
102
RTVSPropertyOp36
 70
     1
102
RTVSPropertyOp37
 70
     1
102
RTVSPropertyOp38
 70
     1
102
RTVSPropertyOp39
 70
     1
102
RTVSPropertyOp40
 70
     1
102
RTVSPropertyOp41
 70
     1
102
RTVSPropertyOp42
 70
     1
102
RTVSPropertyOp43
 70
     1
102
RTVSPropertyOp44
 70
     1
102
RTVSPropertyOp45
 70
     1
102
RTVSPropertyOp46
 70
     1
102
RTVSPropertyOp47
 70
     1
102
RTVSPropertyOp48
 70
     1
102
RTVSPropertyOp49
 70
     1
102
RTVSPropertyOp50
 70
     1
102
RTVSPropertyOp51
 70
     0
102
RTVSPropertyOp52
 70
     0
102
RTVSPropertyOp53
 70
     1
102
RTVSPropertyOp54
 70
     1
102
RTVSPropertyOp55
 70
     1
102
RTVSPropertyOp56
 70
     1
102
RTVSPropertyOp57
 70
     1
102
RTVSPropertyOp58
 70
     1
102
RTVSPropertyOp59
 70
     1
102
RTVSPropertyOp60
 70
     1
102
RTVSPropertyOp61
 70
     1
102
RTVSPropertyOp62
 70
     1
  0
XRECORD
  5
3C52
102
{ACAD_REACTORS
330
3C51
102
}
330
3C51
100
AcDbXrecord
280
     1
102
RTVSPost2010Prop28
280
     0
102
RTVSPost2010PropOp28
 70
     1
102
RTVSPost2010Prop29
280
     1
102
RTVSPost2010PropOp29
 70
     1
102
RTVSPost2010Prop30
280
     1
102
RTVSPost2010PropOp30
 70
     1
102
RTVSPost2010Prop31
280
     0
102
RTVSPost2010PropOp31
 70
     1
102
RTVSPost2010Prop32
280
     0
102
RTVSPost2010PropOp32
 70
     1
102
RTVSPost2010Prop33
280
     0
102
RTVSPost2010PropOp33
 70
     1
102
RTVSPost2010Prop34
280
     0
102
RTVSPost2010PropOp34
 70
     1
102
RTVSPost2010Prop35
280
     0
102
RTVSPost2010PropOp35
 70
     1
102
RTVSPost2010Prop36
280
     0
102
RTVSPost2010PropOp36
 70
     1
102
RTVSPost2010Prop37
 90
       50
102
RTVSPost2010PropOp37
 70
     1
102
RTVSPost2010Prop38
140
0.0
102
RTVSPost2010PropOp38
 70
     1
102
RTVSPost2010Prop39
140
1.0
102
RTVSPost2010PropOp39
 70
     1
102
RTVSPost2010Prop40
 90
        0
102
RTVSPost2010PropOp40
 70
     1
102
RTVSPost2010Prop41ColorIndex
 90
       18
102
RTVSPost2010Prop41ColorRGB
 90
        0
102
RTVSPost2010PropOp41
 70
     1
102
RTVSPost2010Prop42
 90
       50
102
RTVSPost2010PropOp42
 70
     1
102
RTVSPost2010Prop43
 90
        3
102
RTVSPost2010PropOp43
 70
     1
102
RTVSPost2010Prop44ColorIndex
 90
        5
102
RTVSPost2010Prop44ColorRGB
 90
      255
102
RTVSPost2010PropOp44
 70
     1
102
RTVSPost2010Prop45
280
     0
102
RTVSPost2010PropOp45
 70
     1
102
RTVSPost2010Prop46
 90
       50
102
RTVSPost2010PropOp46
 70
     1
102
RTVSPost2010Prop47
 90
       50
102
RTVSPost2010PropOp47
 70
     1
102
RTVSPost2010Prop48
 90
       50
102
RTVSPost2010PropOp48
 70
     1
102
RTVSPost2010Prop49
280
     0
102
RTVSPost2010PropOp49
 70
     1
102
RTVSPost2010Prop50
 90
       50
102
RTVSPost2010PropOp50
 70
     1
102
RTVSPost2010Prop51ColorIndex
 90
      256
102
RTVSPost2010Prop51ColorRGB
 90
-16777216
102
RTVSPost2010PropOp51
 70
     0
102
RTVSPost2010Prop52
140
1.0
102
RTVSPost2010PropOp52
 70
     0
102
RTVSPost2010Prop53
 90
        2
102
RTVSPost2010PropOp53
 70
     1
102
RTVSPost2010Prop54
  1
strokes_ogs.tif
102
RTVSPost2010PropOp54
 70
     1
102
RTVSPost2010Prop55
280
     0
102
RTVSPost2010PropOp55
 70
     1
102
RTVSPost2010Prop56
140
1.0
102
RTVSPost2010PropOp56
 70
     1
102
RTVSPost2010Prop57
140
1.0
102
RTVSPost2010PropOp57
 70
     1
102
RTVSPropertyOp0
 70
     1
102
RTVSPropertyOp1
 70
     1
102
RTVSPropertyOp2
 70
     1
102
RTVSPropertyOp3
 70
     1
102
RTVSPropertyOp4
 70
     1
102
RTVSPropertyOp5
 70
     1
102
RTVSPropertyOp6
 70
     1
102
RTVSPropertyOp7
 70
     1
102
RTVSPropertyOp8
 70
     1
102
RTVSPropertyOp9
 70
     1
102
RTVSPropertyOp10
 70
     1
102
RTVSPropertyOp11
 70
     1
102
RTVSPropertyOp12
 70
     1
102
RTVSPropertyOp13
 70
     1
102
RTVSPropertyOp14
 70
     1
102
RTVSPropertyOp15
 70
     1
102
RTVSPropertyOp16
 70
     1
102
RTVSPropertyOp17
 70
     1
102
RTVSPropertyOp18
 70
     1
102
RTVSPropertyOp19
 70
     1
102
RTVSPropertyOp20
 70
     1
102
RTVSPropertyOp21
 70
     1
102
RTVSPropertyOp22
 70
     1
102
RTVSPropertyOp23
 70
     1
102
RTVSPropertyOp24
 70
     1
102
RTVSPropertyOp25
 70
     1
102
RTVSPropertyOp26
 70
     1
102
RTVSPropertyOp27
 70
     1
102
RTVSPropertyOp28
 70
     1
102
RTVSPropertyOp29
 70
     1
102
RTVSPropertyOp30
 70
     1
102
RTVSPropertyOp31
 70
     1
102
RTVSPropertyOp32
 70
     1
102
RTVSPropertyOp33
 70
     1
102
RTVSPropertyOp34
 70
     1
102
RTVSPropertyOp35
 70
     1
102
RTVSPropertyOp36
 70
     1
102
RTVSPropertyOp37
 70
     1
102
RTVSPropertyOp38
 70
     1
102
RTVSPropertyOp39
 70
     1
102
RTVSPropertyOp40
 70
     1
102
RTVSPropertyOp41
 70
     1
102
RTVSPropertyOp42
 70
     1
102
RTVSPropertyOp43
 70
     1
102
RTVSPropertyOp44
 70
     1
102
RTVSPropertyOp45
 70
     1
102
RTVSPropertyOp46
 70
     1
102
RTVSPropertyOp47
 70
     1
102
RTVSPropertyOp48
 70
     1
102
RTVSPropertyOp49
 70
     1
102
RTVSPropertyOp50
 70
     1
102
RTVSPropertyOp51
 70
     0
102
RTVSPropertyOp52
 70
     0
102
RTVSPropertyOp53
 70
     1
102
RTVSPropertyOp54
 70
     1
102
RTVSPropertyOp55
 70
     1
102
RTVSPropertyOp56
 70
     1
102
RTVSPropertyOp57
 70
     1
102
RTVSPropertyOp58
 70
     1
102
RTVSPropertyOp59
 70
     1
102
RTVSPropertyOp60
 70
     1
102
RTVSPropertyOp61
 70
     1
102
RTVSPropertyOp62
 70
     1
  0
XRECORD
  5
3C4C
102
{ACAD_REACTORS
330
3C4B
102
}
330
3C4B
100
AcDbXrecord
280
     1
102
RTVSPost2010Prop28
280
     0
102
RTVSPost2010PropOp28
 70
     1
102
RTVSPost2010Prop29
280
     1
102
RTVSPost2010PropOp29
 70
     1
102
RTVSPost2010Prop30
280
     1
102
RTVSPost2010PropOp30
 70
     1
102
RTVSPost2010Prop31
280
     0
102
RTVSPost2010PropOp31
 70
     1
102
RTVSPost2010Prop32
280
     0
102
RTVSPost2010PropOp32
 70
     1
102
RTVSPost2010Prop33
280
     0
102
RTVSPost2010PropOp33
 70
     1
102
RTVSPost2010Prop34
280
     0
102
RTVSPost2010PropOp34
 70
     1
102
RTVSPost2010Prop35
280
     0
102
RTVSPost2010PropOp35
 70
     1
102
RTVSPost2010Prop36
280
     0
102
RTVSPost2010PropOp36
 70
     1
102
RTVSPost2010Prop37
 90
       50
102
RTVSPost2010PropOp37
 70
     1
102
RTVSPost2010Prop38
140
0.0
102
RTVSPost2010PropOp38
 70
     1
102
RTVSPost2010Prop39
140
1.0
102
RTVSPost2010PropOp39
 70
     1
102
RTVSPost2010Prop40
 90
        0
102
RTVSPost2010PropOp40
 70
     1
102
RTVSPost2010Prop41ColorIndex
 90
       18
102
RTVSPost2010Prop41ColorRGB
 90
        0
102
RTVSPost2010PropOp41
 70
     1
102
RTVSPost2010Prop42
 90
       50
102
RTVSPost2010PropOp42
 70
     1
102
RTVSPost2010Prop43
 90
        3
102
RTVSPost2010PropOp43
 70
     1
102
RTVSPost2010Prop44ColorIndex
 90
        5
102
RTVSPost2010Prop44ColorRGB
 90
      255
102
RTVSPost2010PropOp44
 70
     1
102
RTVSPost2010Prop45
280
     0
102
RTVSPost2010PropOp45
 70
     1
102
RTVSPost2010Prop46
 90
       50
102
RTVSPost2010PropOp46
 70
     1
102
RTVSPost2010Prop47
 90
       50
102
RTVSPost2010PropOp47
 70
     1
102
RTVSPost2010Prop48
 90
       50
102
RTVSPost2010PropOp48
 70
     1
102
RTVSPost2010Prop49
280
     0
102
RTVSPost2010PropOp49
 70
     1
102
RTVSPost2010Prop50
 90
       50
102
RTVSPost2010PropOp50
 70
     1
102
RTVSPost2010Prop51ColorIndex
 90
      256
102
RTVSPost2010Prop51ColorRGB
 90
-16777216
102
RTVSPost2010PropOp51
 70
     0
102
RTVSPost2010Prop52
140
1.0
102
RTVSPost2010PropOp52
 70
     0
102
RTVSPost2010Prop53
 90
        2
102
RTVSPost2010PropOp53
 70
     1
102
RTVSPost2010Prop54
  1
strokes_ogs.tif
102
RTVSPost2010PropOp54
 70
     1
102
RTVSPost2010Prop55
280
     0
102
RTVSPost2010PropOp55
 70
     1
102
RTVSPost2010Prop56
140
1.0
102
RTVSPost2010PropOp56
 70
     1
102
RTVSPost2010Prop57
140
1.0
102
RTVSPost2010PropOp57
 70
     1
102
RTVSPropertyOp0
 70
     1
102
RTVSPropertyOp1
 70
     1
102
RTVSPropertyOp2
 70
     1
102
RTVSPropertyOp3
 70
     1
102
RTVSPropertyOp4
 70
     1
102
RTVSPropertyOp5
 70
     1
102
RTVSPropertyOp6
 70
     1
102
RTVSPropertyOp7
 70
     1
102
RTVSPropertyOp8
 70
     1
102
RTVSPropertyOp9
 70
     1
102
RTVSPropertyOp10
 70
     1
102
RTVSPropertyOp11
 70
     1
102
RTVSPropertyOp12
 70
     1
102
RTVSPropertyOp13
 70
     1
102
RTVSPropertyOp14
 70
     1
102
RTVSPropertyOp15
 70
     1
102
RTVSPropertyOp16
 70
     1
102
RTVSPropertyOp17
 70
     1
102
RTVSPropertyOp18
 70
     1
102
RTVSPropertyOp19
 70
     1
102
RTVSPropertyOp20
 70
     1
102
RTVSPropertyOp21
 70
     1
102
RTVSPropertyOp22
 70
     1
102
RTVSPropertyOp23
 70
     1
102
RTVSPropertyOp24
 70
     1
102
RTVSPropertyOp25
 70
     1
102
RTVSPropertyOp26
 70
     1
102
RTVSPropertyOp27
 70
     1
102
RTVSPropertyOp28
 70
     1
102
RTVSPropertyOp29
 70
     1
102
RTVSPropertyOp30
 70
     1
102
RTVSPropertyOp31
 70
     1
102
RTVSPropertyOp32
 70
     1
102
RTVSPropertyOp33
 70
     1
102
RTVSPropertyOp34
 70
     1
102
RTVSPropertyOp35
 70
     1
102
RTVSPropertyOp36
 70
     1
102
RTVSPropertyOp37
 70
     1
102
RTVSPropertyOp38
 70
     1
102
RTVSPropertyOp39
 70
     1
102
RTVSPropertyOp40
 70
     1
102
RTVSPropertyOp41
 70
     1
102
RTVSPropertyOp42
 70
     1
102
RTVSPropertyOp43
 70
     1
102
RTVSPropertyOp44
 70
     1
102
RTVSPropertyOp45
 70
     1
102
RTVSPropertyOp46
 70
     1
102
RTVSPropertyOp47
 70
     1
102
RTVSPropertyOp48
 70
     1
102
RTVSPropertyOp49
 70
     1
102
RTVSPropertyOp50
 70
     1
102
RTVSPropertyOp51
 70
     0
102
RTVSPropertyOp52
 70
     0
102
RTVSPropertyOp53
 70
     1
102
RTVSPropertyOp54
 70
     1
102
RTVSPropertyOp55
 70
     1
102
RTVSPropertyOp56
 70
     1
102
RTVSPropertyOp57
 70
     1
102
RTVSPropertyOp58
 70
     1
102
RTVSPropertyOp59
 70
     1
102
RTVSPropertyOp60
 70
     1
102
RTVSPropertyOp61
 70
     1
102
RTVSPropertyOp62
 70
     1
  0
XRECORD
  5
3C4E
102
{ACAD_REACTORS
330
3C4D
102
}
330
3C4D
100
AcDbXrecord
280
     1
102
RTVSPost2010Prop28
280
     0
102
RTVSPost2010PropOp28
 70
     1
102
RTVSPost2010Prop29
280
     1
102
RTVSPost2010PropOp29
 70
     1
102
RTVSPost2010Prop30
280
     1
102
RTVSPost2010PropOp30
 70
     1
102
RTVSPost2010Prop31
280
     0
102
RTVSPost2010PropOp31
 70
     1
102
RTVSPost2010Prop32
280
     0
102
RTVSPost2010PropOp32
 70
     1
102
RTVSPost2010Prop33
280
     0
102
RTVSPost2010PropOp33
 70
     1
102
RTVSPost2010Prop34
280
     0
102
RTVSPost2010PropOp34
 70
     1
102
RTVSPost2010Prop35
280
     0
102
RTVSPost2010PropOp35
 70
     1
102
RTVSPost2010Prop36
280
     0
102
RTVSPost2010PropOp36
 70
     1
102
RTVSPost2010Prop37
 90
       50
102
RTVSPost2010PropOp37
 70
     1
102
RTVSPost2010Prop38
140
0.0
102
RTVSPost2010PropOp38
 70
     1
102
RTVSPost2010Prop39
140
1.0
102
RTVSPost2010PropOp39
 70
     1
102
RTVSPost2010Prop40
 90
        0
102
RTVSPost2010PropOp40
 70
     1
102
RTVSPost2010Prop41ColorIndex
 90
       18
102
RTVSPost2010Prop41ColorRGB
 90
        0
102
RTVSPost2010PropOp41
 70
     1
102
RTVSPost2010Prop42
 90
       50
102
RTVSPost2010PropOp42
 70
     1
102
RTVSPost2010Prop43
 90
        3
102
RTVSPost2010PropOp43
 70
     1
102
RTVSPost2010Prop44ColorIndex
 90
        5
102
RTVSPost2010Prop44ColorRGB
 90
      255
102
RTVSPost2010PropOp44
 70
     1
102
RTVSPost2010Prop45
280
     0
102
RTVSPost2010PropOp45
 70
     1
102
RTVSPost2010Prop46
 90
       50
102
RTVSPost2010PropOp46
 70
     1
102
RTVSPost2010Prop47
 90
       50
102
RTVSPost2010PropOp47
 70
     1
102
RTVSPost2010Prop48
 90
       50
102
RTVSPost2010PropOp48
 70
     1
102
RTVSPost2010Prop49
280
     0
102
RTVSPost2010PropOp49
 70
     1
102
RTVSPost2010Prop50
 90
       50
102
RTVSPost2010PropOp50
 70
     1
102
RTVSPost2010Prop51ColorIndex
 90
      256
102
RTVSPost2010Prop51ColorRGB
 90
-16777216
102
RTVSPost2010PropOp51
 70
     0
102
RTVSPost2010Prop52
140
1.0
102
RTVSPost2010PropOp52
 70
     0
102
RTVSPost2010Prop53
 90
        2
102
RTVSPost2010PropOp53
 70
     1
102
RTVSPost2010Prop54
  1
strokes_ogs.tif
102
RTVSPost2010PropOp54
 70
     1
102
RTVSPost2010Prop55
280
     0
102
RTVSPost2010PropOp55
 70
     1
102
RTVSPost2010Prop56
140
1.0
102
RTVSPost2010PropOp56
 70
     1
102
RTVSPost2010Prop57
140
1.0
102
RTVSPost2010PropOp57
 70
     1
102
RTVSPropertyOp0
 70
     1
102
RTVSPropertyOp1
 70
     1
102
RTVSPropertyOp2
 70
     1
102
RTVSPropertyOp3
 70
     1
102
RTVSPropertyOp4
 70
     1
102
RTVSPropertyOp5
 70
     1
102
RTVSPropertyOp6
 70
     1
102
RTVSPropertyOp7
 70
     1
102
RTVSPropertyOp8
 70
     1
102
RTVSPropertyOp9
 70
     1
102
RTVSPropertyOp10
 70
     1
102
RTVSPropertyOp11
 70
     1
102
RTVSPropertyOp12
 70
     1
102
RTVSPropertyOp13
 70
     1
102
RTVSPropertyOp14
 70
     1
102
RTVSPropertyOp15
 70
     1
102
RTVSPropertyOp16
 70
     1
102
RTVSPropertyOp17
 70
     1
102
RTVSPropertyOp18
 70
     1
102
RTVSPropertyOp19
 70
     1
102
RTVSPropertyOp20
 70
     1
102
RTVSPropertyOp21
 70
     1
102
RTVSPropertyOp22
 70
     1
102
RTVSPropertyOp23
 70
     1
102
RTVSPropertyOp24
 70
     1
102
RTVSPropertyOp25
 70
     1
102
RTVSPropertyOp26
 70
     1
102
RTVSPropertyOp27
 70
     1
102
RTVSPropertyOp28
 70
     1
102
RTVSPropertyOp29
 70
     1
102
RTVSPropertyOp30
 70
     1
102
RTVSPropertyOp31
 70
     1
102
RTVSPropertyOp32
 70
     1
102
RTVSPropertyOp33
 70
     1
102
RTVSPropertyOp34
 70
     1
102
RTVSPropertyOp35
 70
     1
102
RTVSPropertyOp36
 70
     1
102
RTVSPropertyOp37
 70
     1
102
RTVSPropertyOp38
 70
     1
102
RTVSPropertyOp39
 70
     1
102
RTVSPropertyOp40
 70
     1
102
RTVSPropertyOp41
 70
     1
102
RTVSPropertyOp42
 70
     1
102
RTVSPropertyOp43
 70
     1
102
RTVSPropertyOp44
 70
     1
102
RTVSPropertyOp45
 70
     1
102
RTVSPropertyOp46
 70
     1
102
RTVSPropertyOp47
 70
     1
102
RTVSPropertyOp48
 70
     1
102
RTVSPropertyOp49
 70
     1
102
RTVSPropertyOp50
 70
     1
102
RTVSPropertyOp51
 70
     0
102
RTVSPropertyOp52
 70
     0
102
RTVSPropertyOp53
 70
     1
102
RTVSPropertyOp54
 70
     1
102
RTVSPropertyOp55
 70
     1
102
RTVSPropertyOp56
 70
     1
102
RTVSPropertyOp57
 70
     1
102
RTVSPropertyOp58
 70
     1
102
RTVSPropertyOp59
 70
     1
102
RTVSPropertyOp60
 70
     1
102
RTVSPropertyOp61
 70
     1
102
RTVSPropertyOp62
 70
     1
  0
XRECORD
  5
3C3C
102
{ACAD_REACTORS
330
3C3B
102
}
330
3C3B
100
AcDbXrecord
280
     1
102
RTVSPost2010Prop28
280
     0
102
RTVSPost2010PropOp28
 70
     1
102
RTVSPost2010Prop29
280
     1
102
RTVSPost2010PropOp29
 70
     1
102
RTVSPost2010Prop30
280
     1
102
RTVSPost2010PropOp30
 70
     1
102
RTVSPost2010Prop31
280
     0
102
RTVSPost2010PropOp31
 70
     1
102
RTVSPost2010Prop32
280
     0
102
RTVSPost2010PropOp32
 70
     1
102
RTVSPost2010Prop33
280
     0
102
RTVSPost2010PropOp33
 70
     1
102
RTVSPost2010Prop34
280
     0
102
RTVSPost2010PropOp34
 70
     1
102
RTVSPost2010Prop35
280
     0
102
RTVSPost2010PropOp35
 70
     1
102
RTVSPost2010Prop36
280
     0
102
RTVSPost2010PropOp36
 70
     1
102
RTVSPost2010Prop37
 90
       50
102
RTVSPost2010PropOp37
 70
     1
102
RTVSPost2010Prop38
140
0.0
102
RTVSPost2010PropOp38
 70
     1
102
RTVSPost2010Prop39
140
1.0
102
RTVSPost2010PropOp39
 70
     1
102
RTVSPost2010Prop40
 90
        0
102
RTVSPost2010PropOp40
 70
     1
102
RTVSPost2010Prop41ColorIndex
 90
       18
102
RTVSPost2010Prop41ColorRGB
 90
        0
102
RTVSPost2010PropOp41
 70
     1
102
RTVSPost2010Prop42
 90
       50
102
RTVSPost2010PropOp42
 70
     1
102
RTVSPost2010Prop43
 90
        3
102
RTVSPost2010PropOp43
 70
     1
102
RTVSPost2010Prop44ColorIndex
 90
        5
102
RTVSPost2010Prop44ColorRGB
 90
      255
102
RTVSPost2010PropOp44
 70
     1
102
RTVSPost2010Prop45
280
     0
102
RTVSPost2010PropOp45
 70
     1
102
RTVSPost2010Prop46
 90
       50
102
RTVSPost2010PropOp46
 70
     1
102
RTVSPost2010Prop47
 90
       50
102
RTVSPost2010PropOp47
 70
     1
102
RTVSPost2010Prop48
 90
       50
102
RTVSPost2010PropOp48
 70
     1
102
RTVSPost2010Prop49
280
     0
102
RTVSPost2010PropOp49
 70
     1
102
RTVSPost2010Prop50
 90
       50
102
RTVSPost2010PropOp50
 70
     1
102
RTVSPost2010Prop51ColorIndex
 90
      256
102
RTVSPost2010Prop51ColorRGB
 90
-16777216
102
RTVSPost2010PropOp51
 70
     0
102
RTVSPost2010Prop52
140
1.0
102
RTVSPost2010PropOp52
 70
     0
102
RTVSPost2010Prop53
 90
        2
102
RTVSPost2010PropOp53
 70
     1
102
RTVSPost2010Prop54
  1
strokes_ogs.tif
102
RTVSPost2010PropOp54
 70
     1
102
RTVSPost2010Prop55
280
     0
102
RTVSPost2010PropOp55
 70
     1
102
RTVSPost2010Prop56
140
1.0
102
RTVSPost2010PropOp56
 70
     1
102
RTVSPost2010Prop57
140
1.0
102
RTVSPost2010PropOp57
 70
     1
102
RTVSPropertyOp0
 70
     1
102
RTVSPropertyOp1
 70
     1
102
RTVSPropertyOp2
 70
     1
102
RTVSPropertyOp3
 70
     1
102
RTVSPropertyOp4
 70
     1
102
RTVSPropertyOp5
 70
     1
102
RTVSPropertyOp6
 70
     1
102
RTVSPropertyOp7
 70
     1
102
RTVSPropertyOp8
 70
     1
102
RTVSPropertyOp9
 70
     1
102
RTVSPropertyOp10
 70
     1
102
RTVSPropertyOp11
 70
     1
102
RTVSPropertyOp12
 70
     1
102
RTVSPropertyOp13
 70
     1
102
RTVSPropertyOp14
 70
     1
102
RTVSPropertyOp15
 70
     1
102
RTVSPropertyOp16
 70
     1
102
RTVSPropertyOp17
 70
     1
102
RTVSPropertyOp18
 70
     1
102
RTVSPropertyOp19
 70
     1
102
RTVSPropertyOp20
 70
     1
102
RTVSPropertyOp21
 70
     1
102
RTVSPropertyOp22
 70
     1
102
RTVSPropertyOp23
 70
     1
102
RTVSPropertyOp24
 70
     1
102
RTVSPropertyOp25
 70
     1
102
RTVSPropertyOp26
 70
     1
102
RTVSPropertyOp27
 70
     1
102
RTVSPropertyOp28
 70
     1
102
RTVSPropertyOp29
 70
     1
102
RTVSPropertyOp30
 70
     1
102
RTVSPropertyOp31
 70
     1
102
RTVSPropertyOp32
 70
     1
102
RTVSPropertyOp33
 70
     1
102
RTVSPropertyOp34
 70
     1
102
RTVSPropertyOp35
 70
     1
102
RTVSPropertyOp36
 70
     1
102
RTVSPropertyOp37
 70
     1
102
RTVSPropertyOp38
 70
     1
102
RTVSPropertyOp39
 70
     1
102
RTVSPropertyOp40
 70
     1
102
RTVSPropertyOp41
 70
     1
102
RTVSPropertyOp42
 70
     1
102
RTVSPropertyOp43
 70
     1
102
RTVSPropertyOp44
 70
     1
102
RTVSPropertyOp45
 70
     1
102
RTVSPropertyOp46
 70
     1
102
RTVSPropertyOp47
 70
     1
102
RTVSPropertyOp48
 70
     1
102
RTVSPropertyOp49
 70
     1
102
RTVSPropertyOp50
 70
     1
102
RTVSPropertyOp51
 70
     0
102
RTVSPropertyOp52
 70
     0
102
RTVSPropertyOp53
 70
     1
102
RTVSPropertyOp54
 70
     1
102
RTVSPropertyOp55
 70
     1
102
RTVSPropertyOp56
 70
     1
102
RTVSPropertyOp57
 70
     1
102
RTVSPropertyOp58
 70
     1
102
RTVSPropertyOp59
 70
     1
102
RTVSPropertyOp60
 70
     1
102
RTVSPropertyOp61
 70
     1
102
RTVSPropertyOp62
 70
     1
  0
XRECORD
  5
3C30
102
{ACAD_REACTORS
330
3C2F
102
}
330
3C2F
100
AcDbXrecord
280
     1
102
RTVSPost2010Prop28
280
     0
102
RTVSPost2010PropOp28
 70
     1
102
RTVSPost2010Prop29
280
     1
102
RTVSPost2010PropOp29
 70
     1
102
RTVSPost2010Prop30
280
     1
102
RTVSPost2010PropOp30
 70
     1
102
RTVSPost2010Prop31
280
     0
102
RTVSPost2010PropOp31
 70
     1
102
RTVSPost2010Prop32
280
     0
102
RTVSPost2010PropOp32
 70
     1
102
RTVSPost2010Prop33
280
     0
102
RTVSPost2010PropOp33
 70
     1
102
RTVSPost2010Prop34
280
     0
102
RTVSPost2010PropOp34
 70
     1
102
RTVSPost2010Prop35
280
     0
102
RTVSPost2010PropOp35
 70
     1
102
RTVSPost2010Prop36
280
     0
102
RTVSPost2010PropOp36
 70
     1
102
RTVSPost2010Prop37
 90
       50
102
RTVSPost2010PropOp37
 70
     1
102
RTVSPost2010Prop38
140
0.0
102
RTVSPost2010PropOp38
 70
     1
102
RTVSPost2010Prop39
140
1.0
102
RTVSPost2010PropOp39
 70
     1
102
RTVSPost2010Prop40
 90
        0
102
RTVSPost2010PropOp40
 70
     1
102
RTVSPost2010Prop41ColorIndex
 90
       18
102
RTVSPost2010Prop41ColorRGB
 90
        0
102
RTVSPost2010PropOp41
 70
     1
102
RTVSPost2010Prop42
 90
       50
102
RTVSPost2010PropOp42
 70
     1
102
RTVSPost2010Prop43
 90
        3
102
RTVSPost2010PropOp43
 70
     1
102
RTVSPost2010Prop44ColorIndex
 90
        5
102
RTVSPost2010Prop44ColorRGB
 90
      255
102
RTVSPost2010PropOp44
 70
     1
102
RTVSPost2010Prop45
280
     0
102
RTVSPost2010PropOp45
 70
     1
102
RTVSPost2010Prop46
 90
       50
102
RTVSPost2010PropOp46
 70
     1
102
RTVSPost2010Prop47
 90
       50
102
RTVSPost2010PropOp47
 70
     1
102
RTVSPost2010Prop48
 90
       50
102
RTVSPost2010PropOp48
 70
     1
102
RTVSPost2010Prop49
280
     0
102
RTVSPost2010PropOp49
 70
     1
102
RTVSPost2010Prop50
 90
       50
102
RTVSPost2010PropOp50
 70
     1
102
RTVSPost2010Prop51ColorIndex
 90
      256
102
RTVSPost2010Prop51ColorRGB
 90
-16777216
102
RTVSPost2010PropOp51
 70
     0
102
RTVSPost2010Prop52
140
1.0
102
RTVSPost2010PropOp52
 70
     0
102
RTVSPost2010Prop53
 90
        2
102
RTVSPost2010PropOp53
 70
     1
102
RTVSPost2010Prop54
  1
strokes_ogs.tif
102
RTVSPost2010PropOp54
 70
     1
102
RTVSPost2010Prop55
280
     0
102
RTVSPost2010PropOp55
 70
     1
102
RTVSPost2010Prop56
140
1.0
102
RTVSPost2010PropOp56
 70
     1
102
RTVSPost2010Prop57
140
1.0
102
RTVSPost2010PropOp57
 70
     1
102
RTVSPropertyOp0
 70
     1
102
RTVSPropertyOp1
 70
     1
102
RTVSPropertyOp2
 70
     1
102
RTVSPropertyOp3
 70
     1
102
RTVSPropertyOp4
 70
     1
102
RTVSPropertyOp5
 70
     1
102
RTVSPropertyOp6
 70
     1
102
RTVSPropertyOp7
 70
     1
102
RTVSPropertyOp8
 70
     1
102
RTVSPropertyOp9
 70
     1
102
RTVSPropertyOp10
 70
     1
102
RTVSPropertyOp11
 70
     1
102
RTVSPropertyOp12
 70
     1
102
RTVSPropertyOp13
 70
     1
102
RTVSPropertyOp14
 70
     1
102
RTVSPropertyOp15
 70
     1
102
RTVSPropertyOp16
 70
     1
102
RTVSPropertyOp17
 70
     1
102
RTVSPropertyOp18
 70
     1
102
RTVSPropertyOp19
 70
     1
102
RTVSPropertyOp20
 70
     1
102
RTVSPropertyOp21
 70
     1
102
RTVSPropertyOp22
 70
     1
102
RTVSPropertyOp23
 70
     1
102
RTVSPropertyOp24
 70
     1
102
RTVSPropertyOp25
 70
     1
102
RTVSPropertyOp26
 70
     1
102
RTVSPropertyOp27
 70
     1
102
RTVSPropertyOp28
 70
     1
102
RTVSPropertyOp29
 70
     1
102
RTVSPropertyOp30
 70
     1
102
RTVSPropertyOp31
 70
     1
102
RTVSPropertyOp32
 70
     1
102
RTVSPropertyOp33
 70
     1
102
RTVSPropertyOp34
 70
     1
102
RTVSPropertyOp35
 70
     1
102
RTVSPropertyOp36
 70
     1
102
RTVSPropertyOp37
 70
     1
102
RTVSPropertyOp38
 70
     1
102
RTVSPropertyOp39
 70
     1
102
RTVSPropertyOp40
 70
     1
102
RTVSPropertyOp41
 70
     1
102
RTVSPropertyOp42
 70
     1
102
RTVSPropertyOp43
 70
     1
102
RTVSPropertyOp44
 70
     1
102
RTVSPropertyOp45
 70
     1
102
RTVSPropertyOp46
 70
     1
102
RTVSPropertyOp47
 70
     1
102
RTVSPropertyOp48
 70
     1
102
RTVSPropertyOp49
 70
     1
102
RTVSPropertyOp50
 70
     1
102
RTVSPropertyOp51
 70
     0
102
RTVSPropertyOp52
 70
     0
102
RTVSPropertyOp53
 70
     1
102
RTVSPropertyOp54
 70
     1
102
RTVSPropertyOp55
 70
     1
102
RTVSPropertyOp56
 70
     1
102
RTVSPropertyOp57
 70
     1
102
RTVSPropertyOp58
 70
     1
102
RTVSPropertyOp59
 70
     1
102
RTVSPropertyOp60
 70
     1
102
RTVSPropertyOp61
 70
     1
102
RTVSPropertyOp62
 70
     1
  0
XRECORD
  5
3C50
102
{ACAD_REACTORS
330
3C4F
102
}
330
3C4F
100
AcDbXrecord
280
     1
102
RTVSPost2010Prop28
280
     0
102
RTVSPost2010PropOp28
 70
     1
102
RTVSPost2010Prop29
280
     1
102
RTVSPost2010PropOp29
 70
     1
102
RTVSPost2010Prop30
280
     1
102
RTVSPost2010PropOp30
 70
     1
102
RTVSPost2010Prop31
280
     0
102
RTVSPost2010PropOp31
 70
     1
102
RTVSPost2010Prop32
280
     0
102
RTVSPost2010PropOp32
 70
     1
102
RTVSPost2010Prop33
280
     0
102
RTVSPost2010PropOp33
 70
     1
102
RTVSPost2010Prop34
280
     0
102
RTVSPost2010PropOp34
 70
     1
102
RTVSPost2010Prop35
280
     0
102
RTVSPost2010PropOp35
 70
     1
102
RTVSPost2010Prop36
280
     0
102
RTVSPost2010PropOp36
 70
     1
102
RTVSPost2010Prop37
 90
       50
102
RTVSPost2010PropOp37
 70
     1
102
RTVSPost2010Prop38
140
0.0
102
RTVSPost2010PropOp38
 70
     1
102
RTVSPost2010Prop39
140
1.0
102
RTVSPost2010PropOp39
 70
     1
102
RTVSPost2010Prop40
 90
        0
102
RTVSPost2010PropOp40
 70
     1
102
RTVSPost2010Prop41ColorIndex
 90
       18
102
RTVSPost2010Prop41ColorRGB
 90
        0
102
RTVSPost2010PropOp41
 70
     1
102
RTVSPost2010Prop42
 90
       50
102
RTVSPost2010PropOp42
 70
     1
102
RTVSPost2010Prop43
 90
        3
102
RTVSPost2010PropOp43
 70
     1
102
RTVSPost2010Prop44ColorIndex
 90
        5
102
RTVSPost2010Prop44ColorRGB
 90
      255
102
RTVSPost2010PropOp44
 70
     1
102
RTVSPost2010Prop45
280
     0
102
RTVSPost2010PropOp45
 70
     1
102
RTVSPost2010Prop46
 90
       50
102
RTVSPost2010PropOp46
 70
     1
102
RTVSPost2010Prop47
 90
       50
102
RTVSPost2010PropOp47
 70
     1
102
RTVSPost2010Prop48
 90
       50
102
RTVSPost2010PropOp48
 70
     1
102
RTVSPost2010Prop49
280
     0
102
RTVSPost2010PropOp49
 70
     1
102
RTVSPost2010Prop50
 90
       50
102
RTVSPost2010PropOp50
 70
     1
102
RTVSPost2010Prop51ColorIndex
 90
      256
102
RTVSPost2010Prop51ColorRGB
 90
-16777216
102
RTVSPost2010PropOp51
 70
     0
102
RTVSPost2010Prop52
140
1.0
102
RTVSPost2010PropOp52
 70
     0
102
RTVSPost2010Prop53
 90
        2
102
RTVSPost2010PropOp53
 70
     1
102
RTVSPost2010Prop54
  1
strokes_ogs.tif
102
RTVSPost2010PropOp54
 70
     1
102
RTVSPost2010Prop55
280
     0
102
RTVSPost2010PropOp55
 70
     1
102
RTVSPost2010Prop56
140
1.0
102
RTVSPost2010PropOp56
 70
     1
102
RTVSPost2010Prop57
140
1.0
102
RTVSPost2010PropOp57
 70
     1
102
RTVSPropertyOp0
 70
     1
102
RTVSPropertyOp1
 70
     1
102
RTVSPropertyOp2
 70
     1
102
RTVSPropertyOp3
 70
     1
102
RTVSPropertyOp4
 70
     1
102
RTVSPropertyOp5
 70
     1
102
RTVSPropertyOp6
 70
     1
102
RTVSPropertyOp7
 70
     1
102
RTVSPropertyOp8
 70
     1
102
RTVSPropertyOp9
 70
     1
102
RTVSPropertyOp10
 70
     1
102
RTVSPropertyOp11
 70
     1
102
RTVSPropertyOp12
 70
     1
102
RTVSPropertyOp13
 70
     1
102
RTVSPropertyOp14
 70
     1
102
RTVSPropertyOp15
 70
     1
102
RTVSPropertyOp16
 70
     1
102
RTVSPropertyOp17
 70
     1
102
RTVSPropertyOp18
 70
     1
102
RTVSPropertyOp19
 70
     1
102
RTVSPropertyOp20
 70
     1
102
RTVSPropertyOp21
 70
     1
102
RTVSPropertyOp22
 70
     1
102
RTVSPropertyOp23
 70
     1
102
RTVSPropertyOp24
 70
     1
102
RTVSPropertyOp25
 70
     1
102
RTVSPropertyOp26
 70
     1
102
RTVSPropertyOp27
 70
     1
102
RTVSPropertyOp28
 70
     1
102
RTVSPropertyOp29
 70
     1
102
RTVSPropertyOp30
 70
     1
102
RTVSPropertyOp31
 70
     1
102
RTVSPropertyOp32
 70
     1
102
RTVSPropertyOp33
 70
     1
102
RTVSPropertyOp34
 70
     1
102
RTVSPropertyOp35
 70
     1
102
RTVSPropertyOp36
 70
     1
102
RTVSPropertyOp37
 70
     1
102
RTVSPropertyOp38
 70
     1
102
RTVSPropertyOp39
 70
     1
102
RTVSPropertyOp40
 70
     1
102
RTVSPropertyOp41
 70
     1
102
RTVSPropertyOp42
 70
     1
102
RTVSPropertyOp43
 70
     1
102
RTVSPropertyOp44
 70
     1
102
RTVSPropertyOp45
 70
     1
102
RTVSPropertyOp46
 70
     1
102
RTVSPropertyOp47
 70
     1
102
RTVSPropertyOp48
 70
     1
102
RTVSPropertyOp49
 70
     1
102
RTVSPropertyOp50
 70
     1
102
RTVSPropertyOp51
 70
     0
102
RTVSPropertyOp52
 70
     0
102
RTVSPropertyOp53
 70
     1
102
RTVSPropertyOp54
 70
     1
102
RTVSPropertyOp55
 70
     1
102
RTVSPropertyOp56
 70
     1
102
RTVSPropertyOp57
 70
     1
102
RTVSPropertyOp58
 70
     1
102
RTVSPropertyOp59
 70
     1
102
RTVSPropertyOp60
 70
     1
102
RTVSPropertyOp61
 70
     1
102
RTVSPropertyOp62
 70
     1
  0
ENDSEC
  0
EOF
