  0
SECTION
  2
HEADER
  9
$ACADVER
  1
AC1015
  9
$ACADMAINTVER
 70
    18
  9
$DWGCODEPAGE
  3
ANSI_1252
  9
$INSBASE
 10
0.0
 20
0.0
 30
0.0
  9
$EXTMIN
 10
-201.0214225959747
 20
-191.6387782181133
 30
-0.0015258207003583
  9
$EXTMAX
 10
259.7314461038116
 20
208.5018316431691
 30
0.0000000349246037
  9
$LIMMIN
 10
0.0
 20
0.0
  9
$LIMMAX
 10
420.0
 20
297.0
  9
$ORTHOMODE
 70
     0
  9
$REGENMODE
 70
     1
  9
$FILLMODE
 70
     1
  9
$QTEXTMODE
 70
     0
  9
$MIRRTEXT
 70
     0
  9
$LTSCALE
 40
1.0
  9
$ATTMODE
 70
     1
  9
$TEXTSIZE
 40
2.5
  9
$TRACEWID
 40
1.0
  9
$TEXTSTYLE
  7
Standard
  9
$CLAYER
  8
0
  9
$CELTYPE
  6
ByLayer
  9
$CECOLOR
 62
   256
  9
$CELTSCALE
 40
1.0
  9
$DISPSILH
 70
     0
  9
$DIMSCALE
 40
1.0
  9
$DIMASZ
 40
2.5
  9
$DIMEXO
 40
0.625
  9
$DIMDLI
 40
3.75
  9
$DIMRND
 40
0.0
  9
$DIMDLE
 40
0.0
  9
$DIMEXE
 40
1.25
  9
$DIMTP
 40
0.0
  9
$DIMTM
 40
0.0
  9
$DIMTXT
 40
2.5
  9
$DIMCEN
 40
2.5
  9
$DIMTSZ
 40
0.0
  9
$DIMTOL
 70
     0
  9
$DIMLIM
 70
     0
  9
$DIMTIH
 70
     0
  9
$DIMTOH
 70
     0
  9
$DIMSE1
 70
     0
  9
$DIMSE2
 70
     0
  9
$DIMTAD
 70
     1
  9
$DIMZIN
 70
     8
  9
$DIMBLK
  1

  9
$DIMASO
 70
     1
  9
$DIMSHO
 70
     1
  9
$DIMPOST
  1

  9
$DIMAPOST
  1

  9
$DIMALT
 70
     0
  9
$DIMALTD
 70
     3
  9
$DIMALTF
 40
0.03937007874016
  9
$DIMLFAC
 40
1.0
  9
$DIMTOFL
 70
     1
  9
$DIMTVP
 40
0.0
  9
$DIMTIX
 70
     0
  9
$DIMSOXD
 70
     0
  9
$DIMSAH
 70
     0
  9
$DIMBLK1
  1

  9
$DIMBLK2
  1

  9
$DIMSTYLE
  2
ISO-25
  9
$DIMCLRD
 70
     0
  9
$DIMCLRE
 70
     0
  9
$DIMCLRT
 70
     0
  9
$DIMTFAC
 40
1.0
  9
$DIMGAP
 40
0.625
  9
$DIMJUST
 70
     0
  9
$DIMSD1
 70
     0
  9
$DIMSD2
 70
     0
  9
$DIMTOLJ
 70
     0
  9
$DIMTZIN
 70
     8
  9
$DIMALTZ
 70
     0
  9
$DIMALTTZ
 70
     0
  9
$DIMUPT
 70
     0
  9
$DIMDEC
 70
     2
  9
$DIMTDEC
 70
     2
  9
$DIMALTU
 70
     2
  9
$DIMALTTD
 70
     3
  9
$DIMTXSTY
  7
Standard
  9
$DIMAUNIT
 70
     0
  9
$DIMADEC
 70
     0
  9
$DIMALTRND
 40
0.0
  9
$DIMAZIN
 70
     0
  9
$DIMDSEP
 70
    44
  9
$DIMATFIT
 70
     3
  9
$DIMFRAC
 70
     0
  9
$DIMLDRBLK
  1

  9
$DIMLUNIT
 70
     2
  9
$DIMLWD
 70
    -2
  9
$DIMLWE
 70
    -2
  9
$DIMTMOVE
 70
     0
  9
$LUNITS
 70
     2
  9
$LUPREC
 70
     4
  9
$SKETCHINC
 40
1.0
  9
$FILLETRAD
 40
0.0
  9
$AUNITS
 70
     0
  9
$AUPREC
 70
     0
  9
$MENU
  1
.
  9
$ELEVATION
 40
0.0
  9
$PELEVATION
 40
0.0
  9
$THICKNESS
 40
0.0
  9
$LIMCHECK
 70
     0
  9
$CHAMFERA
 40
0.0
  9
$CHAMFERB
 40
0.0
  9
$CHAMFERC
 40
0.0
  9
$CHAMFERD
 40
0.0
  9
$SKPOLY
 70
     0
  9
$TDCREATE
 40
2460398.356956019
  9
$TDUCREATE
 40
2460398.065289352
  9
$TDUPDATE
 40
2460398.373460648
  9
$TDUUPDATE
 40
2460398.081793982
  9
$TDINDWG
 40
0.0075694444
  9
$TDUSRTIMER
 40
0.0075694444
  9
$USRTIMER
 70
     1
  9
$ANGBASE
 50
0.0
  9
$ANGDIR
 70
     0
  9
$PDMODE
 70
     0
  9
$PDSIZE
 40
0.0
  9
$PLINEWID
 40
0.0
  9
$SPLFRAME
 70
     0
  9
$SPLINETYPE
 70
     6
  9
$SPLINESEGS
 70
     8
  9
$HANDSEED
  5
6C72
  9
$SURFTAB1
 70
     6
  9
$SURFTAB2
 70
     6
  9
$SURFTYPE
 70
     6
  9
$SURFU
 70
     6
  9
$SURFV
 70
     6
  9
$UCSBASE
  2

  9
$UCSNAME
  2

  9
$UCSORG
 10
0.0
 20
0.0
 30
0.0
  9
$UCSXDIR
 10
1.0
 20
0.0
 30
0.0
  9
$UCSYDIR
 10
0.0
 20
1.0
 30
0.0
  9
$UCSORTHOREF
  2

  9
$UCSORTHOVIEW
 70
     0
  9
$UCSORGTOP
 10
0.0
 20
0.0
 30
0.0
  9
$UCSORGBOTTOM
 10
0.0
 20
0.0
 30
0.0
  9
$UCSORGLEFT
 10
0.0
 20
0.0
 30
0.0
  9
$UCSORGRIGHT
 10
0.0
 20
0.0
 30
0.0
  9
$UCSORGFRONT
 10
0.0
 20
0.0
 30
0.0
  9
$UCSORGBACK
 10
0.0
 20
0.0
 30
0.0
  9
$PUCSBASE
  2

  9
$PUCSNAME
  2

  9
$PUCSORG
 10
0.0
 20
0.0
 30
0.0
  9
$PUCSXDIR
 10
1.0
 20
0.0
 30
0.0
  9
$PUCSYDIR
 10
0.0
 20
1.0
 30
0.0
  9
$PUCSORTHOREF
  2

  9
$PUCSORTHOVIEW
 70
     0
  9
$PUCSORGTOP
 10
0.0
 20
0.0
 30
0.0
  9
$PUCSORGBOTTOM
 10
0.0
 20
0.0
 30
0.0
  9
$PUCSORGLEFT
 10
0.0
 20
0.0
 30
0.0
  9
$PUCSORGRIGHT
 10
0.0
 20
0.0
 30
0.0
  9
$PUCSORGFRONT
 10
0.0
 20
0.0
 30
0.0
  9
$PUCSORGBACK
 10
0.0
 20
0.0
 30
0.0
  9
$USERI1
 70
     0
  9
$USERI2
 70
     0
  9
$USERI3
 70
     0
  9
$USERI4
 70
     0
  9
$USERI5
 70
     0
  9
$USERR1
 40
0.0
  9
$USERR2
 40
0.0
  9
$USERR3
 40
0.0
  9
$USERR4
 40
0.0
  9
$USERR5
 40
0.0
  9
$WORLDVIEW
 70
     1
  9
$SHADEDGE
 70
     3
  9
$SHADEDIF
 70
    70
  9
$TILEMODE
 70
     1
  9
$MAXACTVP
 70
    48
  9
$PINSBASE
 10
0.0
 20
0.0
 30
0.0
  9
$PLIMCHECK
 70
     0
  9
$PEXTMIN
 10
0.0
 20
0.0
 30
0.0
  9
$PEXTMAX
 10
0.0
 20
0.0
 30
0.0
  9
$PLIMMIN
 10
0.0
 20
0.0
  9
$PLIMMAX
 10
12.0
 20
9.0
  9
$UNITMODE
 70
     0
  9
$VISRETAIN
 70
     1
  9
$PLINEGEN
 70
     0
  9
$PSLTSCALE
 70
     1
  9
$TREEDEPTH
 70
  3020
  9
$CMLSTYLE
  2
Standard
  9
$CMLJUST
 70
     0
  9
$CMLSCALE
 40
20.0
  9
$PROXYGRAPHICS
 70
     1
  9
$MEASUREMENT
 70
     1
  9
$CELWEIGHT
370
    -1
  9
$ENDCAPS
280
     0
  9
$JOINSTYLE
280
     0
  9
$LWDISPLAY
290
     0
  9
$INSUNITS
 70
     4
  9
$HYPERLINKBASE
  1

  9
$STYLESHEET
  1

  9
$XEDIT
290
     1
  9
$CEPSNTYPE
380
     0
  9
$PSTYLEMODE
290
     1
  9
$FINGERPRINTGUID
  2
{6C1266EE-7BC1-BF4A-B059-A6E7702B10CE}
  9
$VERSIONGUID
  2
{62295CEA-55E0-1140-8770-F3C9B8185C0B}
  9
$EXTNAMES
290
     1
  9
$PSVPSCALE
 40
0.0
  9
$OLESTARTUP
290
     0
  0
ENDSEC
  0
SECTION
  2
CLASSES
  0
CLASS
  1
ACDBDICTIONARYWDFLT
  2
AcDbDictionaryWithDefault
  3
ObjectDBX Classes
 90
        0
280
     0
281
     0
  0
CLASS
  1
ACDBPLACEHOLDER
  2
AcDbPlaceHolder
  3
ObjectDBX Classes
 90
        0
280
     0
281
     0
  0
CLASS
  1
LAYOUT
  2
AcDbLayout
  3
ObjectDBX Classes
 90
        0
280
     0
281
     0
  0
CLASS
  1
DICTIONARYVAR
  2
AcDbDictionaryVar
  3
ObjectDBX Classes
 90
        0
280
     0
281
     0
  0
CLASS
  1
TABLESTYLE
  2
AcDbTableStyle
  3
ObjectDBX Classes
 90
     4095
280
     0
281
     0
  0
CLASS
  1
MATERIAL
  2
AcDbMaterial
  3
ObjectDBX Classes
 90
     1153
280
     0
281
     0
  0
CLASS
  1
VISUALSTYLE
  2
AcDbVisualStyle
  3
ObjectDBX Classes
 90
     4095
280
     0
281
     0
  0
CLASS
  1
SCALE
  2
AcDbScale
  3
ObjectDBX Classes
 90
     1153
280
     0
281
     0
  0
CLASS
  1
MLEADERSTYLE
  2
AcDbMLeaderStyle
  3
ACDB_MLEADERSTYLE_CLASS
 90
     4095
280
     0
281
     0
  0
CLASS
  1
CELLSTYLEMAP
  2
AcDbCellStyleMap
  3
ObjectDBX Classes
 90
     1152
280
     0
281
     0
  0
CLASS
  1
EXACXREFPANELOBJECT
  2
ExAcXREFPanelObject
  3
EXAC_ESW
 90
    33793
280
     0
281
     0
  0
CLASS
  1
NPOCOLLECTION
  2
AcDbImpNonPersistentObjectsCollection
  3
ObjectDBX Classes
 90
    33921
280
     0
281
     0
  0
CLASS
  1
LAYER_INDEX
  2
AcDbLayerIndex
  3
ObjectDBX Classes
 90
    32768
280
     0
281
     0
  0
CLASS
  1
SPATIAL_INDEX
  2
AcDbSpatialIndex
  3
ObjectDBX Classes
 90
    32768
280
     0
281
     0
  0
CLASS
  1
IDBUFFER
  2
AcDbIdBuffer
  3
ObjectDBX Classes
 90
    32768
280
     0
281
     0
  0
CLASS
  1
ACDBSECTIONVIEWSTYLE
  2
AcDbSectionViewStyle
  3
ObjectDBX Classes
 90
     1025
280
     0
281
     0
  0
CLASS
  1
ACDBDETAILVIEWSTYLE
  2
AcDbDetailViewStyle
  3
ObjectDBX Classes
 90
     1025
280
     0
281
     0
  0
CLASS
  1
XRECORD
  2
AcDbXrecord
  3
ObjectDBX Classes
 90
        0
280
     0
281
     0
  0
ENDSEC
  0
SECTION
  2
TABLES
  0
TABLE
  2
VPORT
  5
8
102
{ACAD_XDICTIONARY
360
6B80
102
}
330
0
100
AcDbSymbolTable
 70
     1
  0
VPORT
  5
EA
330
8
100
AcDbSymbolTableRecord
100
AcDbViewportTableRecord
  2
*Active
 70
     0
 10
0.0
 20
0.0
 11
1.0
 21
1.0
 12
29.3550117539184
 22
8.431526712527897
 13
0.0
 23
0.0
 14
10.0
 24
10.0
 15
10.0
 25
10.0
 16
0.0
 26
0.0
 36
1.0
 17
0.0
 27
0.0
 37
0.0
 40
497.7034898835047
 41
0.9846153846153846
 42
50.0
 43
0.0
 44
0.0
 50
0.0
 51
0.0
 71
     0
 72
  1000
 73
     1
 74
     3
 75
     0
 76
     1
 77
     0
 78
     0
281
     0
 65
     1
110
0.0
120
0.0
130
0.0
111
1.0
121
0.0
131
0.0
112
0.0
122
1.0
132
0.0
 79
     0
146
0.0
1001
ACAD_NAV_VCDISPLAY
1070
     3
  0
ENDTAB
  0
TABLE
  2
LTYPE
  5
5
330
0
100
AcDbSymbolTable
 70
     1
  0
LTYPE
  5
14
330
5
100
AcDbSymbolTableRecord
100
AcDbLinetypeTableRecord
  2
ByBlock
 70
     0
  3

 72
    65
 73
     0
 40
0.0
  0
LTYPE
  5
15
330
5
100
AcDbSymbolTableRecord
100
AcDbLinetypeTableRecord
  2
ByLayer
 70
     0
  3

 72
    65
 73
     0
 40
0.0
  0
LTYPE
  5
16
330
5
100
AcDbSymbolTableRecord
100
AcDbLinetypeTableRecord
  2
Continuous
 70
     0
  3
Solid line
 72
    65
 73
     0
 40
0.0
  0
ENDTAB
  0
TABLE
  2
LAYER
  5
2
102
{ACAD_XDICTIONARY
360
1FF
102
}
330
0
100
AcDbSymbolTable
 70
     1
  0
LAYER
  5
10
102
{ACAD_XDICTIONARY
360
13C
102
}
330
2
100
AcDbSymbolTableRecord
100
AcDbLayerTableRecord
  2
0
 70
     0
 62
     7
  6
Continuous
370
    -3
390
F
  0
ENDTAB
  0
TABLE
  2
STYLE
  5
3
330
0
100
AcDbSymbolTable
 70
     1
  0
STYLE
  5
11
330
3
100
AcDbSymbolTableRecord
100
AcDbTextStyleTableRecord
  2
Standard
 70
     0
 40
0.0
 41
1.0
 50
0.0
 71
     0
 42
2.5
  3
arial.ttf
  4

1001
ACAD
1000
Arial
1071
       34
  0
ENDTAB
  0
TABLE
  2
VIEW
  5
6
330
0
100
AcDbSymbolTable
 70
     0
  0
ENDTAB
  0
TABLE
  2
UCS
  5
7
330
0
100
AcDbSymbolTable
 70
     0
  0
ENDTAB
  0
TABLE
  2
APPID
  5
9
330
0
100
AcDbSymbolTable
 70
     8
  0
APPID
  5
12
330
9
100
AcDbSymbolTableRecord
100
AcDbRegAppTableRecord
  2
ACAD
 70
     0
  0
APPID
  5
9E
330
9
100
AcDbSymbolTableRecord
100
AcDbRegAppTableRecord
  2
ACAD_PSEXT
 70
     0
  0
APPID
  5
133
330
9
100
AcDbSymbolTableRecord
100
AcDbRegAppTableRecord
  2
AcadAnnoPO
 70
     0
  0
APPID
  5
134
330
9
100
AcDbSymbolTableRecord
100
AcDbRegAppTableRecord
  2
AcadAnnotative
 70
     0
  0
APPID
  5
135
330
9
100
AcDbSymbolTableRecord
100
AcDbRegAppTableRecord
  2
ACAD_DSTYLE_DIMJAG
 70
     0
  0
APPID
  5
136
330
9
100
AcDbSymbolTableRecord
100
AcDbRegAppTableRecord
  2
ACAD_DSTYLE_DIMTALN
 70
     0
  0
APPID
  5
165
330
9
100
AcDbSymbolTableRecord
100
AcDbRegAppTableRecord
  2
ACAD_MLEADERVER
 70
     0
  0
APPID
  5
217
330
9
100
AcDbSymbolTableRecord
100
AcDbRegAppTableRecord
  2
ACAD_NAV_VCDISPLAY
 70
     0
  0
ENDTAB
  0
TABLE
  2
DIMSTYLE
  5
A
330
0
100
AcDbSymbolTable
 70
     1
100
AcDbDimStyleTable
 71
     0
  0
DIMSTYLE
105
27
330
A
100
AcDbSymbolTableRecord
100
AcDbDimStyleTableRecord
  2
ISO-25
 70
     0
 41
2.5
 42
0.625
 43
3.75
 44
1.25
 73
     0
 74
     0
 77
     1
 78
     8
140
2.5
141
2.5
143
0.03937007874016
147
0.625
171
     3
172
     1
271
     2
272
     2
274
     3
278
    44
283
     0
284
     8
340
11
  0
ENDTAB
  0
TABLE
  2
BLOCK_RECORD
  5
1
330
0
100
AcDbSymbolTable
 70
     7
  0
BLOCK_RECORD
  5
1F
102
{ACAD_XDICTIONARY
360
1CE
102
}
330
1
100
AcDbSymbolTableRecord
100
AcDbBlockTableRecord
  2
*Model_Space
340
22
  0
BLOCK_RECORD
  5
D2
102
{ACAD_XDICTIONARY
360
6B33
102
}
330
1
100
AcDbSymbolTableRecord
100
AcDbBlockTableRecord
  2
*Paper_Space
340
D3
  0
BLOCK_RECORD
  5
D6
102
{ACAD_XDICTIONARY
360
6B35
102
}
330
1
100
AcDbSymbolTableRecord
100
AcDbBlockTableRecord
  2
*Paper_Space0
340
D7
  0
BLOCK_RECORD
  5
69BC
330
1
100
AcDbSymbolTableRecord
100
AcDbBlockTableRecord
  2
SAE250_76_2-Front
340
0
102
{BLKREFS
331
6B29
102
}
  0
BLOCK_RECORD
  5
6A0F
330
1
100
AcDbSymbolTableRecord
100
AcDbBlockTableRecord
  2
SAE250_76_2-Left
340
0
102
{BLKREFS
331
6B2A
102
}
  0
BLOCK_RECORD
  5
6A29
330
1
100
AcDbSymbolTableRecord
100
AcDbBlockTableRecord
  2
SAE250_76_2-Right
340
0
102
{BLKREFS
331
6B2B
102
}
  0
BLOCK_RECORD
  5
6A43
330
1
100
AcDbSymbolTableRecord
100
AcDbBlockTableRecord
  2
SAE250_76_2-Top
340
0
102
{BLKREFS
331
6B2C
102
}
  0
BLOCK_RECORD
  5
6A80
330
1
100
AcDbSymbolTableRecord
100
AcDbBlockTableRecord
  2
SAE250_76_2-Bottom
340
0
102
{BLKREFS
331
6B2D
102
}
  0
BLOCK_RECORD
  5
6AB0
330
1
100
AcDbSymbolTableRecord
100
AcDbBlockTableRecord
  2
SAE250_76_2-ISO
340
0
102
{BLKREFS
331
6B2E
102
}
  0
ENDTAB
  0
ENDSEC
  0
SECTION
  2
BLOCKS
  0
BLOCK
  5
20
330
1F
100
AcDbEntity
  8
0
100
AcDbBlockBegin
  2
*Model_Space
 70
     0
 10
0.0
 20
0.0
 30
0.0
  3
*Model_Space
  1

  0
ENDBLK
  5
21
330
1F
100
AcDbEntity
  8
0
100
AcDbBlockEnd
  0
BLOCK
  5
D4
330
D2
100
AcDbEntity
 67
     1
  8
0
100
AcDbBlockBegin
  2
*Paper_Space
 70
     0
 10
0.0
 20
0.0
 30
0.0
  3
*Paper_Space
  1

  0
ENDBLK
  5
D5
330
D2
100
AcDbEntity
 67
     1
  8
0
100
AcDbBlockEnd
  0
BLOCK
  5
D8
330
D6
100
AcDbEntity
 67
     1
  8
0
100
AcDbBlockBegin
  2
*Paper_Space0
 70
     0
 10
0.0
 20
0.0
 30
0.0
  3
*Paper_Space0
  1

  0
ENDBLK
  5
D9
330
D6
100
AcDbEntity
 67
     1
  8
0
100
AcDbBlockEnd
  0
BLOCK
  5
69BD
330
69BC
100
AcDbEntity
  8
0
100
AcDbBlockBegin
  2
SAE250_76_2-Front
 70
     0
 10
0.0
 20
0.0
 30
0.0
  3
SAE250_76_2-Front
  1

  0
SPLINE
  5
69BF
330
69BC
100
AcDbEntity
  8
0
100
AcDbSpline
210
0.0
220
0.0
230
1.0
 70
     8
 71
     3
 72
    16
 73
    12
 74
     0
 42
0.000000001
 43
0.0000000001
 40
0.0070778392101709
 40
0.0070778392101709
 40
0.0070778392101709
 40
0.0070778392101709
 40
0.0718750345617814
 40
0.0718750345617814
 40
0.166544107970277
 40
0.166544107970277
 40
0.2578547156094737
 40
0.2578547156094737
 40
0.2835425802448492
 40
0.2835425802448492
 40
0.3161076508500028
 40
0.3161076508500028
 40
0.3161076508500028
 40
0.3161076508500028
 10
-38.88105194330105
 20
-0.7747315722085818
 30
0.0
 10
-39.04993875463772
 20
-0.6000831754119861
 30
0.0
 10
-39.29206290355981
 20
-0.3244216020742931
 30
0.0
 10
-39.89911048117414
 20
0.7677124003073401
 30
0.0
 10
-40.11218065143339
 20
1.484736659367831
 30
0.0
 10
-40.54937195951009
 20
2.880756895278539
 30
0.0
 10
-40.77403829972951
 20
3.574469809076006
 30
0.0
 10
-41.29444413069115
 20
4.362392422798765
 30
0.0
 10
-41.42074791079532
 20
4.526304091816387
 30
0.0
 10
-41.74310436125042
 20
4.878798463703814
 30
0.0
 10
-41.90272663673735
 20
5.011324398837542
 30
0.0
 10
-41.99999999999997
 20
5.090361445782987
 30
0.0
  0
LINE
  5
69C0
330
69BC
100
AcDbEntity
  8
0
100
AcDbLine
 10
-41.99999999999999
 20
5.090361445782916
 30
0.0
 11
-41.99999999999999
 21
7.987090138478974
 31
0.0
  0
LINE
  5
69C1
330
69BC
100
AcDbEntity
  8
0
100
AcDbLine
 10
-41.99999999999999
 20
8.090361445782988
 30
0.0
 11
-40.0
 21
8.090361445782988
 31
0.0
  0
SPLINE
  5
69C2
330
69BC
100
AcDbEntity
  8
0
100
AcDbSpline
210
0.0
220
0.0
230
1.0
 70
     8
 71
     3
 72
     8
 73
     4
 74
     0
 42
0.000000001
 43
0.0000000001
 40
0.0
 40
0.0
 40
0.0
 40
0.0
 40
0.0007791850686879
 40
0.0007791850686879
 40
0.0007791850686879
 40
0.0007791850686879
 10
-37.99982532044845
 20
8.090356308406885
 30
0.0
 10
-37.99988363812233
 20
8.08791070933
 30
0.0
 10
-37.99994192351383
 20
8.08547798550869
 30
0.0
 10
-38.00000000000038
 20
8.083064126093642
 30
0.0
  0
SPLINE
  5
69C3
330
69BC
100
AcDbEntity
  8
0
100
AcDbSpline
210
0.0
220
0.0
230
1.0
 70
     8
 71
     3
 72
     8
 73
     4
 74
     0
 42
0.000000001
 43
0.0000000001
 40
0.0447277390334681
 40
0.0447277390334681
 40
0.0447277390334681
 40
0.0447277390334681
 40
0.0497347848232734
 40
0.0497347848232734
 40
0.0497347848232734
 40
0.0497347848232734
 10
-37.44684893413758
 20
0.6196216730486947
 30
0.0
 10
-37.43632428335363
 20
0.6088809032800297
 30
0.0
 10
-37.42523830562364
 20
0.5976451073958924
 30
0.0
 10
-37.41385169227497
 20
0.5861815724418813
 30
0.0
  0
SPLINE
  5
69C4
330
69BC
100
AcDbEntity
  8
0
100
AcDbSpline
210
0.0
220
0.0
230
1.0
 70
     8
 71
     3
 72
    12
 73
     8
 74
     0
 42
0.000000001
 43
0.0000000001
 40
0.0349488970552279
 40
0.0349488970552279
 40
0.0349488970552279
 40
0.0349488970552279
 40
0.0358245940911295
 40
0.0358245940911295
 40
0.041588105154125
 40
0.041588105154125
 40
0.0422278362688983
 40
0.0422278362688983
 40
0.0422278362688983
 40
0.0422278362688983
 10
-37.46459893755372
 20
0.6380345260923184
 30
0.0
 10
-37.46260279861452
 20
0.6359494309011648
 30
0.0
 10
-37.46059841291604
 20
0.6338608042161127
 30
0.0
 10
-37.44537997038803
 20
0.6180401171393529
 30
0.0
 10
-37.43191977768846
 20
0.6042618616847642
 30
0.0
 10
-37.41692314796511
 20
0.5890943424537241
 30
0.0
 10
-37.41542388133737
 20
0.5875800009826769
 30
0.0
 10
-37.41392370787358
 20
0.5860666858748363
 30
0.0
  0
SPLINE
  5
69C5
330
69BC
100
AcDbEntity
  8
0
100
AcDbSpline
210
0.0
220
0.0
230
1.0
 70
     8
 71
     3
 72
    10
 73
     6
 74
     0
 42
0.000000001
 43
0.0000000001
 40
0.0309465656887611
 40
0.0309465656887611
 40
0.0309465656887611
 40
0.0309465656887611
 40
0.0340003507762242
 40
0.0340003507762242
 40
0.0354058004554262
 40
0.0354058004554262
 40
0.0354058004554262
 40
0.0354058004554262
 10
-41.96683645498516
 20
5.063281980705562
 30
0.0
 10
-41.97408765092262
 20
5.069131346121937
 30
0.0
 10
-41.98177400437401
 20
5.075319790217639
 30
0.0
 10
-41.99303391219083
 20
5.084371832081847
 30
0.0
 10
-41.9966066762041
 20
5.08724216644774
 30
0.0
 10
-42.00019261259945
 20
5.090121545686288
 30
0.0
  0
SPLINE
  5
69C6
330
69BC
100
AcDbEntity
  8
0
100
AcDbSpline
210
0.0
220
0.0
230
1.0
 70
     8
 71
     3
 72
    14
 73
    10
 74
     0
 42
0.000000001
 43
0.0000000001
 40
0.1435439655136835
 40
0.1435439655136835
 40
0.1435439655136835
 40
0.1435439655136835
 40
0.1473534630322824
 40
0.1473534630322824
 40
0.150736902624378
 40
0.150736902624378
 40
0.1520778137853777
 40
0.1520778137853777
 40
0.1528288205652411
 40
0.1528288205652411
 40
0.1528288205652411
 40
0.1528288205652411
 10
-41.91236690927731
 20
5.01798773021251
 30
0.0
 10
-41.92187175867167
 20
5.025882625917418
 30
0.0
 10
-41.93140203419573
 20
5.033783083473307
 30
0.0
 10
-41.94935459862366
 20
5.048637238915598
 30
0.0
 10
-41.95791641273972
 20
5.055709175542904
 30
0.0
 10
-41.96890496795474
 20
5.0647727994361
 30
0.0
 10
-41.97192178945027
 20
5.067259608960962
 30
0.0
 10
-41.97603201615262
 20
5.070646241955394
 30
0.0
 10
-41.97738745943527
 20
5.071762749958135
 30
0.0
 10
-41.97861372612472
 20
5.072772644615599
 30
0.0
  0
SPLINE
  5
69C7
330
69BC
100
AcDbEntity
  8
0
100
AcDbSpline
210
0.0
220
0.0
230
1.0
 70
     8
 71
     3
 72
    12
 73
     8
 74
     0
 42
0.000000001
 43
0.0000000001
 40
0.1570214609869057
 40
0.1570214609869057
 40
0.1570214609869057
 40
0.1570214609869057
 40
0.1573283042836675
 40
0.1573283042836675
 40
0.162498024309737
 40
0.162498024309737
 40
0.1766027585490253
 40
0.1766027585490253
 40
0.1766027585490253
 40
0.1766027585490253
 10
-41.989377067847
 20
5.081630980290602
 30
0.0
 10
-41.98950196259485
 20
5.081733697046868
 30
0.0
 10
-41.9896204401776
 20
5.081831130539404
 30
0.0
 10
-41.99168311236306
 20
5.083527431341775
 30
0.0
 10
-41.99260472766207
 20
5.084284820681901
 30
0.0
 10
-41.9957373059442
 20
5.086858943356271
 30
0.0
 10
-41.99715550631494
 20
5.088023686252808
 30
0.0
 10
-42.00000348167982
 20
5.090357191099678
 30
0.0
  0
SPLINE
  5
69C8
330
69BC
100
AcDbEntity
  8
0
100
AcDbSpline
210
0.0
220
0.0
230
1.0
 70
     8
 71
     3
 72
     8
 73
     4
 74
     0
 42
0.000000001
 43
0.0000000001
 40
0.0
 40
0.0
 40
0.0
 40
0.0
 40
0.0008764311218
 40
0.0008764311218
 40
0.0008764311218
 40
0.0008764311218
 10
-38.82844036872251
 20
-0.8284304069109198
 30
0.0
 10
-38.82917652043211
 20
-0.8276888307162487
 30
0.0
 10
-38.82997265190058
 20
-0.8268865842303121
 30
0.0
 10
-38.8308345538429
 20
-0.8260176448085054
 30
0.0
  0
SPLINE
  5
69C9
330
69BC
100
AcDbEntity
  8
0
100
AcDbSpline
210
0.0
220
0.0
230
1.0
 70
     8
 71
     3
 72
    14
 73
    10
 74
     0
 42
0.000000001
 43
0.0000000001
 40
0.0109502757850959
 40
0.0109502757850959
 40
0.0109502757850959
 40
0.0109502757850959
 40
0.0187305148761307
 40
0.0187305148761307
 40
0.0265819090259742
 40
0.0265819090259742
 40
0.0326702784682785
 40
0.0326702784682785
 40
0.0342248108168018
 40
0.0342248108168018
 40
0.0342248108168018
 40
0.0342248108168018
 10
-38.88011226913049
 20
-0.7757797674174841
 30
0.0
 10
-38.89401849076119
 20
-0.7614210637310189
 30
0.0
 10
-38.90596690867879
 20
-0.7489097136736247
 30
0.0
 10
-38.92479801367269
 20
-0.7290504323179637
 30
0.0
 10
-38.93233693542722
 20
-0.7210162084361093
 30
0.0
 10
-38.94312427126993
 20
-0.7094719449081817
 30
0.0
 10
-38.94706637874783
 20
-0.705228175162639
 30
0.0
 10
-38.94903952662938
 20
-0.7031026682950501
 30
0.0
 10
-38.94927388357834
 20
-0.7028500856844184
 30
0.0
 10
-38.94927388345408
 20
-0.7028500858183279
 30
0.0
  0
LINE
  5
69CA
330
69BC
100
AcDbEntity
  8
0
100
AcDbLine
 10
-38.93246365632793
 20
-0.720860364555128
 30
0.0
 11
-38.93252413332483
 21
-0.7207959302512256
 31
0.0
  0
SPLINE
  5
69CB
330
69BC
100
AcDbEntity
  8
0
100
AcDbSpline
210
0.0
220
0.0
230
1.0
 70
     8
 71
     3
 72
    50
 73
    46
 74
     0
 42
0.000000001
 43
0.0000000001
 40
0.0
 40
0.0
 40
0.0
 40
0.0
 40
0.0156082448321216
 40
0.0156082448321216
 40
0.0220010663270063
 40
0.0220010663270063
 40
0.0268238510494688
 40
0.0268238510494688
 40
0.0295966284813128
 40
0.0295966284813128
 40
0.0320261283670655
 40
0.0320261283670655
 40
0.0344645251336804
 40
0.0344645251336804
 40
0.0382826359582166
 40
0.0382826359582166
 40
0.0449658085519536
 40
0.0449658085519536
 40
0.0506009556539671
 40
0.0506009556539671
 40
0.0543353921317362
 40
0.0543353921317362
 40
0.0561865837172091
 40
0.0561865837172091
 40
0.0580247185749821
 40
0.0580247185749821
 40
0.0605175839340434
 40
0.0605175839340434
 40
0.0667204795375741
 40
0.0667204795375741
 40
0.0853215159310143
 40
0.0853215159310143
 40
0.1133628185593162
 40
0.1133628185593162
 40
0.1331505800767055
 40
0.1331505800767055
 40
0.1385884287637379
 40
0.1385884287637379
 40
0.14204041128844
 40
0.14204041128844
 40
0.1437744618102507
 40
0.1437744618102507
 40
0.146073393836601
 40
0.146073393836601
 40
0.1466358569669476
 40
0.1466358569669476
 40
0.1466358569669476
 40
0.1466358569669476
 10
-38.82847275481589
 20
-0.8284716291108424
 30
0.0
 10
-38.85967836829769
 20
-0.7970957726184951
 30
0.0
 10
-38.89312787195657
 20
-0.7628199591194886
 30
0.0
 10
-38.94017468125996
 20
-0.7129110969864536
 30
0.0
 10
-38.95372284879787
 20
-0.698346098425678
 30
0.0
 10
-38.9778968839947
 20
-0.6719601130041869
 30
0.0
 10
-38.98860887550227
 20
-0.6601364570688702
 30
0.0
 10
-39.0054873494483
 20
-0.6412676063895452
 30
0.0
 10
-39.01176865773033
 20
-0.6341928221768967
 30
0.0
 10
-39.0225367417695
 20
-0.6219825584374083
 30
0.0
 10
-39.02724541656099
 20
-0.6166085173753189
 30
0.0
 10
-39.03561923471389
 20
-0.6070076597178425
 30
0.0
 10
-39.0393870668229
 20
-0.6026640540408032
 30
0.0
 10
-39.04815970296691
 20
-0.5925141676772775
 30
0.0
 10
-39.05275095180781
 20
-0.5871640962418332
 30
0.0
 10
-39.06397147909073
 20
-0.5740361986136673
 30
0.0
 10
-39.06960507965877
 20
-0.5673790207731555
 30
0.0
 10
-39.07810818898172
 20
-0.5572932154874168
 30
0.0
 10
-39.08109772901731
 20
-0.5537310424463336
 30
0.0
 10
-39.08690330190473
 20
-0.5467887077351321
 30
0.0
 10
-39.08954085188205
 20
-0.5436335711215241
 30
0.0
 10
-39.09643605303493
 20
-0.5353233167054985
 30
0.0
 10
-39.09927280449709
 20
-0.5318962349024793
 30
0.0
 10
-39.1055852618421
 20
-0.5242346174837306
 30
0.0
 10
-39.10907809389641
 20
-0.5199790348679417
 30
0.0
 10
-39.11750114886093
 20
-0.5096653568061602
 30
0.0
 10
-39.12255922621272
 20
-0.5034332710185611
 30
0.0
 10
-39.14009709932806
 20
-0.4816768828058166
 30
0.0
 10
-39.15266764442886
 20
-0.4658236031078089
 30
0.0
 10
-39.20235833062191
 20
-0.4020837195923802
 30
0.0
 10
-39.23833309988252
 20
-0.353525112468494
 30
0.0
 10
-39.32567775317633
 20
-0.2296281551648676
 30
0.0
 10
-39.37691417258907
 20
-0.1512217770583648
 30
0.0
 10
-39.45933583993904
 20
-0.0147571441061366
 30
0.0
 10
-39.49275675297796
 20
0.0438859950044041
 30
0.0
 10
-39.53120838136546
 20
0.1151180712910529
 30
0.0
 10
-39.53931234097705
 20
0.1303757569006652
 30
0.0
 10
-39.55120560225663
 20
0.1530628710784171
 30
0.0
 10
-39.5555729693815
 20
0.1614759253390015
 30
0.0
 10
-39.56083986540898
 20
0.1716815740622324
 30
0.0
 10
-39.56239804449978
 20
0.1747124075906316
 30
0.0
 10
-39.56524534142179
 20
0.1802608596321904
 30
0.0
 10
-39.56629341318588
 20
0.1823115078966516
 30
0.0
 10
-39.56669608675113
 20
0.1830989354281114
 30
0.0
 10
-39.56673511363032
 20
0.1831752620082152
 30
0.0
 10
-39.56673511573676
 20
0.1831752661275387
 30
0.0
  0
SPLINE
  5
69CC
330
69BC
100
AcDbEntity
  8
0
100
AcDbSpline
210
0.0
220
0.0
230
1.0
 70
     8
 71
     3
 72
     8
 73
     4
 74
     0
 42
0.000000001
 43
0.0000000001
 40
0.0280143740367691
 40
0.0280143740367691
 40
0.0280143740367691
 40
0.0280143740367691
 40
0.0294283061234056
 40
0.0294283061234056
 40
0.0294283061234056
 40
0.0294283061234056
 10
-40.0
 20
8.077354452941886
 30
0.0
 10
-40.00003536929628
 20
8.081686427650105
 30
0.0
 10
-40.00007017155245
 20
8.086024910710404
 30
0.0
 10
-40.00010435854239
 20
8.09036069909661
 30
0.0
  0
SPLINE
  5
69CD
330
69BC
100
AcDbEntity
  8
0
100
AcDbSpline
210
0.0
220
0.0
230
1.0
 70
     8
 71
     3
 72
     8
 73
     4
 74
     0
 42
0.000000001
 43
0.0000000001
 40
0.0202003828787361
 40
0.0202003828787361
 40
0.0202003828787361
 40
0.0202003828787361
 40
0.021343976118838
 40
0.021343976118838
 40
0.021343976118838
 40
0.021343976118838
 10
-40.0
 20
8.085023344876121
 30
0.0
 10
-40.00000471299501
 20
8.086872440585846
 30
0.0
 10
-40.00000923928794
 20
8.088660644973908
 30
0.0
 10
-40.00001352189038
 20
8.090361222228668
 30
0.0
  0
SPLINE
  5
69CE
330
69BC
100
AcDbEntity
  8
0
100
AcDbSpline
210
0.0
220
0.0
230
1.0
 70
     8
 71
     3
 72
    10
 73
     6
 74
     0
 42
0.000000001
 43
0.0000000001
 40
0.0
 40
0.0
 40
0.0
 40
0.0
 40
0.0125685529009637
 40
0.0125685529009637
 40
0.0251371058018179
 40
0.0251371058018179
 40
0.0251371058018179
 40
0.0251371058018179
 10
-38.00000000000002
 20
1.999999999999999
 30
0.0
 10
-38.00000000000002
 20
1.976946077972627
 30
0.0
 10
-37.99960138750936
 20
1.953893877853681
 30
0.0
 10
-37.99800729476434
 20
1.90781359375034
 30
0.0
 10
-37.99681193373532
 20
1.884788956201486
 30
0.0
 10
-37.99521879414746
 20
1.861790146947464
 30
0.0
  0
ARC
  5
69CF
330
69BC
100
AcDbEntity
  8
0
100
AcDbCircle
 10
-36.00000000000001
 20
1.999999999999998
 30
0.0
 40
2.0
100
AcDbArc
 50
183.9625787878646
 51
270.0
  0
LINE
  5
69D0
330
69BC
100
AcDbEntity
  8
0
100
AcDbLine
 10
-40.0
 20
1.999999999999986
 30
0.0
 11
-38.54647958216029
 21
1.999999999999982
 31
0.0
  0
LINE
  5
69D1
330
69BC
100
AcDbEntity
  8
0
100
AcDbLine
 10
-38.54647958216029
 20
1.999999999999982
 30
0.0
 11
-38.00000000000002
 21
1.999999999999986
 31
0.0
  0
ARC
  5
69D2
330
69BC
100
AcDbEntity
  8
0
100
AcDbCircle
 10
-36.00000000000001
 20
1.999999999999998
 30
0.0
 40
4.0
100
AcDbArc
 50
183.9625787878646
 51
270.0
  0
SPLINE
  5
69D3
330
69BC
100
AcDbEntity
  8
0
100
AcDbSpline
210
0.0
220
0.0
230
1.0
 70
     8
 71
     3
 72
    10
 73
     6
 74
     0
 42
0.000000001
 43
0.0000000001
 40
0.0
 40
0.0
 40
0.0
 40
0.0
 40
0.0173628638240743
 40
0.0173628638240743
 40
0.0347257276482705
 40
0.0347257276482705
 40
0.0347257276482705
 40
0.0347257276482705
 10
-39.99043758829491
 20
1.72358029389493
 30
0.0
 10
-39.99362386750188
 20
1.769577912854335
 30
0.0
 10
-39.9960145895443
 20
1.815627187952755
 30
0.0
 10
-39.99920277500307
 20
1.907787755255215
 30
0.0
 10
-40.0
 20
1.953892155492749
 30
0.0
 10
-40.0
 20
2.0
 30
0.0
  0
LINE
  5
69D4
330
69BC
100
AcDbEntity
  8
0
100
AcDbLine
 10
-37.99521879414746
 20
1.861790146947464
 30
0.0
 11
-39.99043758829491
 21
1.72358029389493
 31
0.0
  0
LINE
  5
69D5
330
69BC
100
AcDbEntity
  8
0
100
AcDbLine
 10
-38.0
 20
36.22697026547447
 30
0.0
 11
-38.0
 21
87.0
 31
0.0
  0
LINE
  5
69D6
330
69BC
100
AcDbEntity
  8
0
100
AcDbLine
 10
-38.00000000000002
 20
1.999999999999986
 30
0.0
 11
-38.0
 21
36.22697026547447
 31
0.0
  0
LINE
  5
69D7
330
69BC
100
AcDbEntity
  8
0
100
AcDbLine
 10
-36.00000000000001
 20
0.0
 30
0.0
 11
36.0
 21
0.0
 31
0.0
  0
LINE
  5
69D8
330
69BC
100
AcDbEntity
  8
0
100
AcDbLine
 10
36.0
 20
-1.999999999999993
 30
0.0
 11
-36.00000000000001
 21
-2.000000000000001
 31
0.0
  0
LINE
  5
69D9
330
69BC
100
AcDbEntity
  8
0
100
AcDbLine
 10
-40.0
 20
36.22697026547447
 30
0.0
 11
-40.0
 21
1.999999999999988
 31
0.0
  0
LINE
  5
69DA
330
69BC
100
AcDbEntity
  8
0
100
AcDbLine
 10
-40.0
 20
87.0
 30
0.0
 11
-40.0
 21
36.22697026547446
 31
0.0
  0
LINE
  5
69DB
330
69BC
100
AcDbEntity
  8
0
100
AcDbLine
 10
-38.0
 20
36.22697026547447
 30
0.0
 11
-40.0
 21
36.22697026547447
 31
0.0
  0
LINE
  5
69DC
330
69BC
100
AcDbEntity
  8
0
100
AcDbLine
 10
-79.50000000000007
 20
87.0
 30
0.0
 11
-41.99999999999999
 21
87.0
 31
0.0
  0
LINE
  5
69DD
330
69BC
100
AcDbEntity
  8
0
100
AcDbLine
 10
-79.50000000000006
 20
34.99999999999997
 30
0.0
 11
-79.50000000000007
 21
87.0
 31
0.0
  0
LINE
  5
69DE
330
69BC
100
AcDbEntity
  8
0
100
AcDbLine
 10
-41.99999999999998
 20
5.090361445782907
 30
0.0
 11
-79.50000000000006
 21
34.99999999999997
 31
0.0
  0
LINE
  5
69DF
330
69BC
100
AcDbEntity
  8
0
100
AcDbLine
 10
-38.0
 20
87.0
 30
0.0
 11
-40.0
 21
87.0
 31
0.0
  0
LINE
  5
69E0
330
69BC
100
AcDbEntity
  8
0
100
AcDbLine
 10
42.0
 20
8.090361445782999
 30
0.0
 11
42.0
 21
5.090361445782987
 31
0.0
  0
LINE
  5
69E1
330
69BC
100
AcDbEntity
  8
0
100
AcDbLine
 10
40.0
 20
8.090361445782999
 30
0.0
 11
41.99999999999999
 21
8.090361445782999
 31
0.0
  0
SPLINE
  5
69E2
330
69BC
100
AcDbEntity
  8
0
100
AcDbSpline
210
0.0
220
0.0
230
1.0
 70
     8
 71
     3
 72
     8
 73
     4
 74
     0
 42
0.000000001
 43
0.0000000001
 40
-0.9734986697674989
 40
-0.9734986697674989
 40
-0.9734986697674989
 40
-0.9734986697674989
 40
-0.9418685033584861
 40
-0.9418685033584861
 40
-0.9418685033584861
 40
-0.9418685033584861
 10
38.96528208811689
 20
-0.6853226160319132
 30
0.0
 10
39.01734257580403
 20
-0.6283248601356842
 30
0.0
 10
39.06665558615261
 20
-0.5711931159558168
 30
0.0
 10
39.1135819423811
 20
-0.5137233571133024
 30
0.0
  0
SPLINE
  5
69E3
330
69BC
100
AcDbEntity
  8
0
100
AcDbSpline
210
0.0
220
0.0
230
1.0
 70
     8
 71
     3
 72
    17
 73
    13
 74
     0
 42
0.000000001
 43
0.0000000001
 40
-0.9023847780433843
 40
-0.9023847780433843
 40
-0.9023847780433843
 40
-0.9023847780433843
 40
-0.8075008026557741
 40
-0.8075008026557741
 40
-0.8075008026557741
 40
-0.3673043690199931
 40
-0.3673043690199931
 40
-0.3673043690199931
 40
-0.0692670293203787
 40
-0.0692670293203787
 40
-0.0692670293203787
 40
0.0
 40
0.0
 40
0.0
 40
0.0
 10
39.27886045047735
 20
-0.2965290305175615
 30
0.0
 10
39.40344223051212
 20
-0.1206464344327548
 30
0.0
 10
39.51060023843189
 20
0.0605697230493234
 30
0.0
 10
39.61007469190258
 20
0.2526270180476395
 30
0.0
 10
40.07156778888531
 20
1.14364086908653
 30
0.0
 10
40.27516509505095
 20
2.119331615198827
 30
0.0
 10
40.61677552502001
 20
3.039309415785435
 30
0.0
 10
40.84806468590826
 20
3.662185285098811
 30
0.0
 10
41.14842043713536
 20
4.254430285342476
 30
0.0
 10
41.6344007423846
 20
4.757824391673471
 30
0.0
 10
41.74734770428794
 20
4.874818505089187
 30
0.0
 10
41.869808041935
 20
4.984607737574647
 30
0.0
 10
41.99999999997358
 20
5.090361445761849
 30
0.0
  0
SPLINE
  5
69E4
330
69BC
100
AcDbEntity
  8
0
100
AcDbSpline
210
0.0
220
0.0
230
1.0
 70
     8
 71
     3
 72
     8
 73
     4
 74
     0
 42
0.000000001
 43
0.0000000001
 40
0.0
 40
0.0
 40
0.0
 40
0.0
 40
0.0014136254956734
 40
0.0014136254956734
 40
0.0014136254956734
 40
0.0014136254956734
 10
40.0001043585424
 20
8.090360699096628
 30
0.0
 10
40.00007017896542
 20
8.086025850864157
 30
0.0
 10
40.00003537704013
 20
8.081686867410621
 30
0.0
 10
40.0
 20
8.077354105373366
 30
0.0
  0
SPLINE
  5
69E5
330
69BC
100
AcDbEntity
  8
0
100
AcDbSpline
210
0.0
220
0.0
230
1.0
 70
     8
 71
     3
 72
    54
 73
    50
 74
     0
 42
0.000000001
 43
0.0000000001
 40
0.1382363004925062
 40
0.1382363004925062
 40
0.1382363004925062
 40
0.1382363004925062
 40
0.1388089230738
 40
0.1388089230738
 40
0.1408470001573646
 40
0.1408470001573646
 40
0.1427160128928093
 40
0.1427160128928093
 40
0.144922902329729
 40
0.144922902329729
 40
0.1480049594135532
 40
0.1480049594135532
 40
0.1528383046470392
 40
0.1528383046470392
 40
0.1611232973305535
 40
0.1611232973305535
 40
0.1787101807733991
 40
0.1787101807733991
 40
0.212638034305273
 40
0.212638034305273
 40
0.2228922628575808
 40
0.2228922628575808
 40
0.2267411383800023
 40
0.2267411383800023
 40
0.2288407269499428
 40
0.2288407269499428
 40
0.230105512730926
 40
0.230105512730926
 40
0.2319430285352867
 40
0.2319430285352867
 40
0.2341455927404042
 40
0.2341455927404042
 40
0.2392197216024041
 40
0.2392197216024041
 40
0.246230380342869
 40
0.246230380342869
 40
0.252205491508763
 40
0.252205491508763
 40
0.2550854195569898
 40
0.2550854195569898
 40
0.2577289623234883
 40
0.2577289623234883
 40
0.2600509575153674
 40
0.2600509575153674
 40
0.263779707347469
 40
0.263779707347469
 40
0.2721052884556714
 40
0.2721052884556714
 40
0.2849519398557207
 40
0.2849519398557207
 40
0.2849519398557207
 40
0.2849519398557207
 10
39.56673511573633
 20
0.1831752661266914
 30
0.0
 10
39.56673511906108
 20
0.1831752726285341
 30
0.0
 10
39.56669474892861
 20
0.1830963187532114
 30
0.0
 10
39.56632080473662
 20
0.1823650741103
 30
0.0
 10
39.56546693557551
 20
0.1806946379818958
 30
0.0
 10
39.5629269327813
 20
0.1757418550976142
 30
0.0
 10
39.56130428383416
 20
0.1725832613797348
 30
0.0
 10
39.55723524599981
 20
0.1646951481632437
 30
0.0
 10
39.55466394345918
 20
0.1597290518797834
 30
0.0
 10
39.54808483353658
 20
0.1470948113953622
 30
0.0
 10
39.54386121087924
 20
0.1390392942060068
 30
0.0
 10
39.53262952773243
 20
0.1178031864834134
 30
0.0
 10
39.52531452005556
 20
0.1041434421780245
 30
0.0
 10
39.5050429457767
 20
0.0668212955980079
 30
0.0
 10
39.49166486985325
 20
0.0427506490359963
 30
0.0
 10
39.44917409675624
 20
-0.031883234849575
 30
0.0
 10
39.41887109572258
 20
-0.082542956371638
 30
0.0
 10
39.32770112206199
 20
-0.2275694576904955
 30
0.0
 10
39.26494484249059
 20
-0.318522983151964
 30
0.0
 10
39.1781676485987
 20
-0.4332586957559918
 30
0.0
 10
39.15755729898457
 20
-0.4597591205071087
 30
0.0
 10
39.12906543453277
 20
-0.495394232326217
 30
0.0
 10
39.12118142297373
 20
-0.5051504862862264
 30
0.0
 10
39.10954540711
 20
-0.5194106617565685
 30
0.0
 10
39.1055206537284
 20
-0.5243146615526647
 30
0.0
 10
39.09982700863918
 20
-0.5312224146989538
 30
0.0
 10
39.09784426995171
 20
-0.5336207111843836
 30
0.0
 10
39.09357876041678
 20
-0.5387700694837262
 30
0.0
 10
39.09153818097792
 20
-0.5412242762208246
 30
0.0
 10
39.08788320050788
 20
-0.5456136896132762
 30
0.0
 10
39.08635991422298
 20
-0.5474379200694142
 30
0.0
 10
39.08176867717997
 20
-0.5529298121036995
 30
0.0
 10
39.07910312514972
 20
-0.5561072006433636
 30
0.0
 10
39.07115019299904
 20
-0.5655518147190754
 30
0.0
 10
39.0654890815456
 20
-0.5722504129439681
 30
0.0
 10
39.05200534539877
 20
-0.5880435112857449
 30
0.0
 10
39.04460884487855
 20
-0.5966640537786923
 30
0.0
 10
39.03026999255801
 20
-0.6131500924636725
 30
0.0
 10
39.02489772557929
 20
-0.6192963568178306
 30
0.0
 10
39.01362900832089
 20
-0.6320896109675618
 30
0.0
 10
39.00769712590327
 20
-0.6387818037951007
 30
0.0
 10
38.99667796087614
 20
-0.6511242967173966
 30
0.0
 10
38.9914802027101
 20
-0.6569110994017084
 30
0.0
 10
38.97815779939243
 20
-0.6716577174929308
 30
0.0
 10
38.97006274535531
 20
-0.680533739454145
 30
0.0
 10
38.94419179335211
 20
-0.7086607900654052
 30
0.0
 10
38.92662389513876
 20
-0.7273951750056633
 30
0.0
 10
38.88079664843448
 20
-0.7754540157175876
 30
0.0
 10
38.85415710577474
 20
-0.8026471565282221
 30
0.0
 10
38.82847275481587
 20
-0.8284716291108393
 30
0.0
  0
LINE
  5
69E6
330
69BC
100
AcDbEntity
  8
0
100
AcDbLine
 10
38.93252413330578
 20
-0.7207959302715083
 30
0.0
 11
38.93246365629318
 21
-0.7208603645921567
 31
0.0
  0
SPLINE
  5
69E7
330
69BC
100
AcDbEntity
  8
0
100
AcDbSpline
210
0.0
220
0.0
230
1.0
 70
     8
 71
     3
 72
    18
 73
    14
 74
     0
 42
0.000000001
 43
0.0000000001
 40
0.0310071979255941
 40
0.0310071979255941
 40
0.0310071979255941
 40
0.0310071979255941
 40
0.0310521572850847
 40
0.0310521572850847
 40
0.0339409602729965
 40
0.0339409602729965
 40
0.0389204352058916
 40
0.0389204352058916
 40
0.0486649957497083
 40
0.0486649957497083
 40
0.0541971470043819
 40
0.0541971470043819
 40
0.0543044315279864
 40
0.0543044315279864
 40
0.0543044315279864
 40
0.0543044315279864
 10
38.94927388345711
 20
-0.7028500858150579
 30
0.0
 10
38.94927388359676
 20
-0.7028500856645693
 30
0.0
 10
38.94927368693443
 20
-0.7028502975875584
 30
0.0
 10
38.94924815095176
 20
-0.7028778151615724
 30
0.0
 10
38.94843582077853
 20
-0.7037534951488694
 30
0.0
 10
38.94507644037807
 20
-0.7073690076351412
 30
0.0
 10
38.94171598756985
 20
-0.7109805882694856
 30
0.0
 10
38.93011557590467
 20
-0.723390025771033
 30
0.0
 10
38.92026252535131
 20
-0.7338832584820278
 30
0.0
 10
38.89942064859399
 20
-0.7557492013252074
 30
0.0
 10
38.89050979650196
 20
-0.7650405331512498
 30
0.0
 10
38.88049427050996
 20
-0.7753853043750421
 30
0.0
 10
38.88030342273341
 20
-0.7755823940391445
 30
0.0
 10
38.88011226912473
 20
-0.7757797674234156
 30
0.0
  0
SPLINE
  5
69E8
330
69BC
100
AcDbEntity
  8
0
100
AcDbSpline
210
0.0
220
0.0
230
1.0
 70
     8
 71
     3
 72
     8
 73
     4
 74
     0
 42
0.000000001
 43
0.0000000001
 40
0.0643729565641298
 40
0.0643729565641298
 40
0.0643729565641298
 40
0.0643729565641298
 40
0.0652519340467301
 40
0.0652519340467301
 40
0.0652519340467301
 40
0.0652519340467301
 10
38.83085869994749
 20
-0.8259934573405468
 30
0.0
 10
38.82998471777008
 20
-0.8268745097822517
 30
0.0
 10
38.82917865922872
 20
-0.8276866761594805
 30
0.0
 10
38.82844036872253
 20
-0.8284304069109127
 30
0.0
  0
SPLINE
  5
69E9
330
69BC
100
AcDbEntity
  8
0
100
AcDbSpline
210
0.0
220
0.0
230
1.0
 70
     8
 71
     3
 72
     8
 73
     4
 74
     0
 42
0.000000001
 43
0.0000000001
 40
0.0
 40
0.0
 40
0.0
 40
0.0
 40
0.007270691915519
 40
0.007270691915519
 40
0.007270691915519
 40
0.007270691915519
 10
37.41392370787359
 20
0.5860666858748472
 30
0.0
 10
37.43097352587242
 20
0.6032658616943763
 30
0.0
 10
37.44807914881216
 20
0.6207785468676424
 30
0.0
 10
37.46459893757072
 20
0.6380345261100768
 30
0.0
  0
SPLINE
  5
69EA
330
69BC
100
AcDbEntity
  8
0
100
AcDbSpline
210
0.0
220
0.0
230
1.0
 70
     8
 71
     3
 72
     8
 73
     4
 74
     0
 42
0.000000001
 43
0.0000000001
 40
0.0
 40
0.0
 40
0.0
 40
0.0
 40
0.0049979162474391
 40
0.0049979162474391
 40
0.0049979162474391
 40
0.0049979162474391
 10
37.41385169227497
 20
0.5861815724418842
 30
0.0
 10
37.42521754396627
 20
0.5976242054843591
 30
0.0
 10
37.43629696308348
 20
0.6088526817474066
 30
0.0
 10
37.44684070776844
 20
0.6196131963845389
 30
0.0
  0
SPLINE
  5
69EB
330
69BC
100
AcDbEntity
  8
0
100
AcDbSpline
210
0.0
220
0.0
230
1.0
 70
     8
 71
     3
 72
     8
 73
     4
 74
     0
 42
0.000000001
 43
0.0000000001
 40
0.0334646650056584
 40
0.0334646650056584
 40
0.0334646650056584
 40
0.0334646650056584
 40
0.0342455381309237
 40
0.0342455381309237
 40
0.0342455381309237
 40
0.0342455381309237
 10
37.99999999999999
 20
8.083064151136781
 30
0.0
 10
37.99994204063871
 20
8.085473147523948
 30
0.0
 10
37.99988376446397
 20
8.087905411089872
 30
0.0
 10
37.99982532044844
 20
8.090356308406896
 30
0.0
  0
SPLINE
  5
69EC
330
69BC
100
AcDbEntity
  8
0
100
AcDbSpline
210
0.0
220
0.0
230
1.0
 70
     8
 71
     3
 72
     8
 73
     4
 74
     0
 42
0.000000001
 43
0.0000000001
 40
0.0
 40
0.0
 40
0.0
 40
0.0
 40
0.0038282608510041
 40
0.0038282608510041
 40
0.0038282608510041
 40
0.0038282608510041
 10
42.00019261259947
 20
5.09012154568631
 30
0.0
 10
41.99042499151732
 20
5.082278493759771
 30
0.0
 10
41.98058282778752
 20
5.074363204960405
 30
0.0
 10
41.97128076356856
 20
5.066865291574027
 30
0.0
  0
SPLINE
  5
69ED
330
69BC
100
AcDbEntity
  8
0
100
AcDbSpline
210
0.0
220
0.0
230
1.0
 70
     8
 71
     3
 72
     8
 73
     4
 74
     0
 42
0.000000001
 43
0.0000000001
 40
0.0
 40
0.0
 40
0.0
 40
0.0
 40
0.0195729414953605
 40
0.0195729414953605
 40
0.0195729414953605
 40
0.0195729414953605
 10
42.00000348167981
 20
5.090357191099692
 30
0.0
 10
41.99605138628879
 20
5.087119019216625
 30
0.0
 10
41.99740706146236
 20
5.088235143036406
 30
0.0
 10
41.98945506901857
 20
5.08169521334553
 30
0.0
  0
SPLINE
  5
69EE
330
69BC
100
AcDbEntity
  8
0
100
AcDbSpline
210
0.0
220
0.0
230
1.0
 70
     8
 71
     3
 72
    12
 73
     8
 74
     0
 42
0.000000001
 43
0.0000000001
 40
0.0237701517750063
 40
0.0237701517750063
 40
0.0237701517750063
 40
0.0237701517750063
 40
0.0246201001273953
 40
0.0246201001273953
 40
0.0267026074654751
 40
0.0267026074654751
 40
0.0292975215730991
 40
0.0292975215730991
 40
0.0292975215730991
 40
0.0292975215730991
 10
41.97862803482553
 20
5.072784422985354
 30
0.0
 10
41.97724990145619
 20
5.071649458186147
 30
0.0
 10
41.97567974651072
 20
5.070356068999263
 30
0.0
 10
41.96980609512436
 20
5.065516122074797
 30
0.0
 10
41.96479684501108
 20
5.061385559741109
 30
0.0
 10
41.95348708958509
 20
5.052050106488278
 30
0.0
 10
41.94702532626706
 20
5.046710138336162
 30
0.0
 10
41.94053711318566
 20
5.041341449052691
 30
0.0
  0
SPLINE
  5
69EF
330
69BC
100
AcDbEntity
  8
0
100
AcDbSpline
210
0.0
220
0.0
230
1.0
 70
     8
 71
     3
 72
    10
 73
     6
 74
     0
 42
0.000000001
 43
0.0000000001
 40
0.0
 40
0.0
 40
0.0
 40
0.0
 40
0.0173628638240116
 40
0.0173628638240116
 40
0.0347257276479012
 40
0.0347257276479012
 40
0.0347257276479012
 40
0.0347257276479012
 10
40.0
 20
2.000000000000009
 30
0.0
 10
40.0
 20
1.953892155492757
 30
0.0
 10
39.99920277500305
 20
1.907787755255224
 30
0.0
 10
39.99601458954428
 20
1.815627187952764
 30
0.0
 10
39.99362386750186
 20
1.769577912854344
 30
0.0
 10
39.9904375882949
 20
1.723580293894939
 30
0.0
  0
ARC
  5
69F0
330
69BC
100
AcDbEntity
  8
0
100
AcDbCircle
 10
36.0
 20
2.000000000000006
 30
0.0
 40
4.0
100
AcDbArc
 50
269.9999999999998
 51
356.0374212121354
  0
LINE
  5
69F1
330
69BC
100
AcDbEntity
  8
0
100
AcDbLine
 10
37.99521879414744
 20
1.861790146947473
 30
0.0
 11
39.99043758829489
 21
1.72358029389494
 31
0.0
  0
ARC
  5
69F2
330
69BC
100
AcDbEntity
  8
0
100
AcDbCircle
 10
36.0
 20
2.000000000000006
 30
0.0
 40
2.0
100
AcDbArc
 50
269.9999999999994
 51
356.0374212121354
  0
LINE
  5
69F3
330
69BC
100
AcDbEntity
  8
0
100
AcDbLine
 10
38.54647958216027
 20
1.99999999999999
 30
0.0
 11
40.0
 21
1.999999999999995
 31
0.0
  0
LINE
  5
69F4
330
69BC
100
AcDbEntity
  8
0
100
AcDbLine
 10
37.99999999999999
 20
1.999999999999995
 30
0.0
 11
38.54647958216027
 21
1.99999999999999
 31
0.0
  0
SPLINE
  5
69F5
330
69BC
100
AcDbEntity
  8
0
100
AcDbSpline
210
0.0
220
0.0
230
1.0
 70
     8
 71
     3
 72
    10
 73
     6
 74
     0
 42
0.000000001
 43
0.0000000001
 40
0.0
 40
0.0
 40
0.0
 40
0.0
 40
0.0125685529010063
 40
0.0125685529010063
 40
0.025137105802112
 40
0.025137105802112
 40
0.025137105802112
 40
0.025137105802112
 10
37.99521879414745
 20
1.861790146947473
 30
0.0
 10
37.9968119337353
 20
1.884788956201494
 30
0.0
 10
37.99800729476431
 20
1.907813593750349
 30
0.0
 10
37.99960138750935
 20
1.953893877853671
 30
0.0
 10
37.99999999999999
 20
1.976946077972624
 30
0.0
 10
37.99999999999999
 20
2.000000000000007
 30
0.0
  0
LINE
  5
69F6
330
69BC
100
AcDbEntity
  8
0
100
AcDbLine
 10
39.99999999999997
 20
87.0
 30
0.0
 11
39.99999999999999
 21
36.22697026547448
 31
0.0
  0
LINE
  5
69F7
330
69BC
100
AcDbEntity
  8
0
100
AcDbLine
 10
39.99999999999999
 20
36.22697026547448
 30
0.0
 11
40.0
 21
1.999999999999997
 31
0.0
  0
LINE
  5
69F8
330
69BC
100
AcDbEntity
  8
0
100
AcDbLine
 10
37.99999999999999
 20
1.999999999999995
 30
0.0
 11
37.99999999999999
 21
36.22697026547448
 31
0.0
  0
LINE
  5
69F9
330
69BC
100
AcDbEntity
  8
0
100
AcDbLine
 10
37.99999999999999
 20
36.22697026547448
 30
0.0
 11
37.99999999999997
 21
87.0
 31
0.0
  0
LINE
  5
69FA
330
69BC
100
AcDbEntity
  8
0
100
AcDbLine
 10
37.99999999999999
 20
36.22697026547448
 30
0.0
 11
39.99999999999999
 21
36.22697026547448
 31
0.0
  0
LINE
  5
69FB
330
69BC
100
AcDbEntity
  8
0
100
AcDbLine
 10
79.5
 20
35.0
 30
0.0
 11
79.49999999999997
 21
87.00000000000002
 31
0.0
  0
LINE
  5
69FC
330
69BC
100
AcDbEntity
  8
0
100
AcDbLine
 10
41.99999999999999
 20
5.090361445782978
 30
0.0
 11
79.5
 21
35.0
 31
0.0
  0
LINE
  5
69FD
330
69BC
100
AcDbEntity
  8
0
100
AcDbLine
 10
79.49999999999997
 20
87.00000000000002
 30
0.0
 11
41.99999999999997
 21
87.0
 31
0.0
  0
LINE
  5
69FE
330
69BC
100
AcDbEntity
  8
0
100
AcDbLine
 10
37.99999999999997
 20
87.0
 30
0.0
 11
39.99999999999997
 21
87.0
 31
0.0
  0
LINE
  5
69FF
330
69BC
100
AcDbEntity
  8
0
100
AcDbLine
 10
41.99999999999997
 20
86.99999999999995
 30
0.0
 11
39.99999999999997
 21
87.0
 31
0.0
  0
CIRCLE
  5
6A00
330
69BC
100
AcDbEntity
  8
0
100
AcDbCircle
 10
70.99999999999997
 20
77.0
 30
0.0
 40
2.5
  0
CIRCLE
  5
6A01
330
69BC
100
AcDbEntity
  8
0
100
AcDbCircle
 10
48.99999999999998
 20
67.0
 30
0.0
 40
2.5
  0
CIRCLE
  5
6A02
330
69BC
100
AcDbEntity
  8
0
100
AcDbCircle
 10
70.99999999999997
 20
56.99999999999999
 30
0.0
 40
2.5
  0
CIRCLE
  5
6A03
330
69BC
100
AcDbEntity
  8
0
100
AcDbCircle
 10
48.99999999999998
 20
46.99999999999999
 30
0.0
 40
2.5
  0
CIRCLE
  5
6A04
330
69BC
100
AcDbEntity
  8
0
100
AcDbCircle
 10
70.99999999999998
 20
37.0
 30
0.0
 40
2.5
  0
CIRCLE
  5
6A05
330
69BC
100
AcDbEntity
  8
0
100
AcDbCircle
 10
48.99999999999998
 20
26.99999999999999
 30
0.0
 40
2.5
  0
CIRCLE
  5
6A06
330
69BC
100
AcDbEntity
  8
0
100
AcDbCircle
 10
59.99999999999997
 20
61.99999999999999
 30
0.0
 40
5.5
  0
CIRCLE
  5
6A07
330
69BC
100
AcDbEntity
  8
0
100
AcDbCircle
 10
-60.00000000000007
 20
61.99999999999997
 30
0.0
 40
5.5
  0
LINE
  5
6A08
330
69BC
100
AcDbEntity
  8
0
100
AcDbLine
 10
-40.0
 20
86.99999999999992
 30
0.0
 11
-42.00000000000001
 21
87.00000000000002
 31
0.0
  0
CIRCLE
  5
6A09
330
69BC
100
AcDbEntity
  8
0
100
AcDbCircle
 10
-49.00000000000006
 20
26.99999999999997
 30
0.0
 40
2.5
  0
CIRCLE
  5
6A0A
330
69BC
100
AcDbEntity
  8
0
100
AcDbCircle
 10
-71.00000000000007
 20
36.99999999999997
 30
0.0
 40
2.5
  0
CIRCLE
  5
6A0B
330
69BC
100
AcDbEntity
  8
0
100
AcDbCircle
 10
-49.00000000000007
 20
46.99999999999997
 30
0.0
 40
2.5
  0
CIRCLE
  5
6A0C
330
69BC
100
AcDbEntity
  8
0
100
AcDbCircle
 10
-71.00000000000007
 20
56.99999999999997
 30
0.0
 40
2.5
  0
CIRCLE
  5
6A0D
330
69BC
100
AcDbEntity
  8
0
100
AcDbCircle
 10
-49.00000000000007
 20
66.99999999999997
 30
0.0
 40
2.5
  0
CIRCLE
  5
6A0E
330
69BC
100
AcDbEntity
  8
0
100
AcDbCircle
 10
-71.00000000000007
 20
76.99999999999997
 30
0.0
 40
2.5
  0
ENDBLK
  5
69BE
330
69BC
100
AcDbEntity
  8
0
100
AcDbBlockEnd
  0
BLOCK
  5
6A10
330
6A0F
100
AcDbEntity
  8
0
100
AcDbBlockBegin
  2
SAE250_76_2-Left
 70
     0
 10
0.0
 20
0.0
 30
0.0
  3
SAE250_76_2-Left
  1

  0
SPLINE
  5
6A12
330
6A0F
100
AcDbEntity
  8
0
100
AcDbSpline
210
0.0
220
0.0
230
1.0
 70
     8
 71
     3
 72
    18
 73
    14
 74
     0
 42
0.000000001
 43
0.0000000001
 40
-0.60000419236694
 40
-0.60000419236694
 40
-0.60000419236694
 40
-0.60000419236694
 40
-0.537994192116034
 40
-0.537994192116034
 40
-0.49566586678215
 40
-0.49566586678215
 40
-0.4228394172969669
 40
-0.4228394172969669
 40
-0.2953422376600528
 40
-0.2953422376600528
 40
-0.2621877360074494
 40
-0.2621877360074494
 40
-0.2161491612353789
 40
-0.2161491612353789
 40
-0.2161491612353789
 40
-0.2161491612353789
 10
-0.0000000000000347
 20
5.090361445782956
 30
0.0
 10
0.0014238972905649
 20
5.014560698150977
 30
0.0
 10
0.0055916371960103
 20
4.926656209074901
 30
0.0
 10
0.0541308627261792
 20
4.73577018180095
 30
0.0
 10
0.0863346004993629
 20
4.641441569065934
 30
0.0
 10
0.2346834892425638
 20
4.356765149894722
 30
0.0
 10
0.3715143672100232
 20
4.189059578260199
 30
0.0
 10
0.8257434558627194
 20
3.740919952542852
 30
0.0
 10
1.222072859692235
 20
3.449832117926017
 30
0.0
 10
1.772528112709688
 20
3.07413442558662
 30
0.0
 10
1.883620905096397
 20
2.999596827056639
 30
0.0
 10
2.160235977010393
 20
2.813419156024599
 30
0.0
 10
2.330173694795048
 20
2.698822529987127
 30
0.0
 10
2.500051791033726
 20
2.57831327530587
 30
0.0
  0
SPLINE
  5
6A13
330
6A0F
100
AcDbEntity
  8
0
100
AcDbSpline
210
0.0
220
0.0
230
1.0
 70
     8
 71
     3
 72
    16
 73
    12
 74
     0
 42
0.000000001
 43
0.0000000001
 40
0.0000009999911858
 40
0.0000009999911858
 40
0.0000009999911858
 40
0.0000009999911858
 40
0.0718750345617814
 40
0.0718750345617814
 40
0.166544107970277
 40
0.166544107970277
 40
0.2578547156094737
 40
0.2578547156094737
 40
0.2835425802448492
 40
0.2835425802448492
 40
0.3161076508500028
 40
0.3161076508500028
 40
0.3161076508500028
 40
0.3161076508500028
 10
4.00000000000002
 20
-0.828427124746207
 30
0.0
 10
3.998644442753987
 20
-0.6582907916967985
 30
0.0
 10
3.986431646800215
 20
-0.372888634008604
 30
0.0
 10
3.661413701975482
 20
0.7677124003073401
 30
0.0
 10
3.332345902530296
 20
1.484736659367831
 30
0.0
 10
2.682314141160293
 20
2.880756895278539
 30
0.0
 10
2.345681831982785
 20
3.574469809076006
 30
0.0
 10
2.103519489129976
 20
4.362392422798765
 30
0.0
 10
2.06344332595941
 20
4.526304091816387
 30
0.0
 10
2.003732316800818
 20
4.878798463703814
 30
0.0
 10
2.001178405688847
 20
5.011324398837542
 30
0.0
 10
1.999999999999883
 20
5.090361445782987
 30
0.0
  0
SPLINE
  5
6A14
330
6A0F
100
AcDbEntity
  8
0
100
AcDbSpline
210
0.0
220
0.0
230
1.0
 70
     8
 71
     3
 72
    14
 73
    10
 74
     0
 42
0.000000001
 43
0.0000000001
 40
0.0
 40
0.0
 40
0.0
 40
0.0
 40
0.0640136865654339
 40
0.0640136865654339
 40
0.1094428367714257
 40
0.1094428367714257
 40
0.1732098365116222
 40
0.1732098365116222
 40
0.1804627870640435
 40
0.1804627870640435
 40
0.1804627870640435
 40
0.1804627870640435
 10
3.418146773797617
 20
1.276120237014971
 30
0.0
 10
3.334159498021667
 20
1.470821295066324
 30
0.0
 10
3.241385084425032
 20
1.662251933666316
 30
0.0
 10
3.066552465050352
 20
1.963091580028368
 30
0.0
 10
2.988279977707795
 20
2.081113621188941
 30
0.0
 10
2.790521247237897
 20
2.33282484712905
 30
0.0
 10
2.663435888507446
 20
2.45574893210506
 30
0.0
 10
2.527660113175939
 20
2.558074528774865
 30
0.0
 10
2.513837780654982
 20
2.568178101960107
 30
0.0
 10
2.500044347318737
 20
2.577973285888358
 30
0.0
  0
LINE
  5
6A15
330
6A0F
100
AcDbEntity
  8
0
100
AcDbLine
 10
4.000000000000071
 20
-2.000000000000012
 30
0.0
 11
4.000000000000071
 21
-0.8284271247462088
 31
0.0
  0
SPLINE
  5
6A16
330
6A0F
100
AcDbEntity
  8
0
100
AcDbSpline
210
0.0
220
0.0
230
1.0
 70
     8
 71
     3
 72
    10
 73
     6
 74
     0
 42
0.000000001
 43
0.0000000001
 40
0.0
 40
0.0
 40
0.0
 40
0.0
 40
0.0125685529009637
 40
0.0125685529009637
 40
0.0251371058018179
 40
0.0251371058018179
 40
0.0251371058018179
 40
0.0251371058018179
 10
87.79011477749447
 20
1.999999999999998
 30
0.0
 10
87.82509652243987
 20
1.976946077972626
 30
0.0
 10
87.86007564513409
 20
1.95389387785368
 30
0.0
 10
87.9300391323601
 20
1.90781359375034
 30
0.0
 10
87.96501825505451
 20
1.884788956201485
 30
0.0
 10
88.0
 20
1.861790146947464
 30
0.0
  0
LINE
  5
6A17
330
6A0F
100
AcDbEntity
  8
0
100
AcDbLine
 10
88.0
 20
-2.000000000000002
 30
0.0
 11
4.000000000000056
 21
-2.000000000000012
 31
0.0
  0
LINE
  5
6A18
330
6A0F
100
AcDbEntity
  8
0
100
AcDbLine
 10
88.00000000000004
 20
1.723580293894929
 30
0.0
 11
88.00000000000004
 21
-2.000000000000002
 31
0.0
  0
SPLINE
  5
6A19
330
6A0F
100
AcDbEntity
  8
0
100
AcDbSpline
210
0.0
220
0.0
230
1.0
 70
     8
 71
     3
 72
    10
 73
     6
 74
     0
 42
0.000000001
 43
0.0000000001
 40
0.0
 40
0.0
 40
0.0
 40
0.0
 40
0.0173628638240743
 40
0.0173628638240743
 40
0.0347257276482705
 40
0.0347257276482705
 40
0.0347257276482705
 40
0.0347257276482705
 10
88.0
 20
1.723580293894929
 30
0.0
 10
87.96501825223343
 20
1.769577912854334
 30
0.0
 10
87.93003913201633
 20
1.815627187952754
 30
0.0
 10
87.86007564547787
 20
1.907787755255214
 30
0.0
 10
87.82509652526091
 20
1.953892155492748
 30
0.0
 10
87.79011477749447
 20
1.999999999999999
 30
0.0
  0
LINE
  5
6A1A
330
6A0F
100
AcDbEntity
  8
0
100
AcDbLine
 10
88.0
 20
1.861790146947464
 30
0.0
 11
88.0
 21
1.723580293894929
 31
0.0
  0
LINE
  5
6A1B
330
6A0F
100
AcDbEntity
  8
0
100
AcDbLine
 10
47.0
 20
36.22697026547447
 30
0.0
 11
87.79011477749447
 21
1.999999999999984
 31
0.0
  0
LINE
  5
6A1C
330
6A0F
100
AcDbEntity
  8
0
100
AcDbLine
 10
46.99999999999999
 20
87.0
 30
0.0
 11
47.0
 21
36.22697026547446
 31
0.0
  0
LINE
  5
6A1D
330
6A0F
100
AcDbEntity
  8
0
100
AcDbLine
 10
4.000000000000076
 20
87.0
 30
0.0
 11
46.99999999999999
 21
87.0
 31
0.0
  0
LINE
  5
6A1E
330
6A0F
100
AcDbEntity
  8
0
100
AcDbLine
 10
2.000000000000075
 20
34.99999999999997
 30
0.0
 11
2.000000000000079
 21
87.0
 31
0.0
  0
LINE
  5
6A1F
330
6A0F
100
AcDbEntity
  8
0
100
AcDbLine
 10
2.000000000000068
 20
5.090361445782907
 30
0.0
 11
2.000000000000075
 21
34.99999999999997
 31
0.0
  0
LINE
  5
6A20
330
6A0F
100
AcDbEntity
  8
0
100
AcDbLine
 10
0.0
 20
87.0
 30
0.0
 11
2.000000000000079
 21
87.0
 31
0.0
  0
LINE
  5
6A21
330
6A0F
100
AcDbEntity
  8
0
100
AcDbLine
 10
0.0
 20
87.0
 30
0.0
 11
0.0
 21
34.99999999999996
 31
0.0
  0
LINE
  5
6A22
330
6A0F
100
AcDbEntity
  8
0
100
AcDbLine
 10
0.0
 20
34.99999999999997
 30
0.0
 11
2.000000000000075
 21
34.99999999999997
 31
0.0
  0
LINE
  5
6A23
330
6A0F
100
AcDbEntity
  8
0
100
AcDbLine
 10
0.0
 20
34.99999999999997
 30
0.0
 11
0.0
 21
5.090361445782907
 31
0.0
  0
CIRCLE
  5
6A24
330
6A0F
100
AcDbEntity
  8
0
100
AcDbCircle
 10
39.5
 20
76.99999999999999
 30
0.0
 40
2.5
  0
CIRCLE
  5
6A25
330
6A0F
100
AcDbEntity
  8
0
100
AcDbCircle
 10
39.5
 20
56.99999999999999
 30
0.0
 40
2.5
  0
CIRCLE
  5
6A26
330
6A0F
100
AcDbEntity
  8
0
100
AcDbCircle
 10
39.5
 20
36.99999999999998
 30
0.0
 40
2.5
  0
CIRCLE
  5
6A27
330
6A0F
100
AcDbEntity
  8
0
100
AcDbCircle
 10
39.50000000000001
 20
16.99999999999998
 30
0.0
 40
2.5
  0
LINE
  5
6A28
330
6A0F
100
AcDbEntity
  8
0
100
AcDbLine
 10
4.000000000000076
 20
86.99999999999992
 30
0.0
 11
2.000000000000076
 21
87.00000000000002
 31
0.0
  0
ENDBLK
  5
6A11
330
6A0F
100
AcDbEntity
  8
0
100
AcDbBlockEnd
  0
BLOCK
  5
6A2A
330
6A29
100
AcDbEntity
  8
0
100
AcDbBlockBegin
  2
SAE250_76_2-Right
 70
     0
 10
0.0
 20
0.0
 30
0.0
  3
SAE250_76_2-Right
  1

  0
SPLINE
  5
6A2C
330
6A29
100
AcDbEntity
  8
0
100
AcDbSpline
210
0.0
220
0.0
230
1.0
 70
     8
 71
     3
 72
    18
 73
    14
 74
     0
 42
0.000000001
 43
0.0000000001
 40
-0.5750813576207797
 40
-0.5750813576207797
 40
-0.5750813576207797
 40
-0.5750813576207797
 40
-0.537994192116034
 40
-0.537994192116034
 40
-0.49566586678215
 40
-0.49566586678215
 40
-0.4228394172969669
 40
-0.4228394172969669
 40
-0.2953422376600528
 40
-0.2953422376600528
 40
-0.2621877360074494
 40
-0.2621877360074494
 40
-0.1698566507268244
 40
-0.1698566507268244
 40
-0.1698566507268244
 40
-0.1698566507268244
 10
-0.0044707418650145
 20
4.992226676396777
 30
0.0
 10
-0.0087607791722884
 20
4.939774177907439
 30
0.0
 10
-0.0171859874964847
 20
4.881060107293167
 30
0.0
 10
-0.0541308627261792
 20
4.73577018180095
 30
0.0
 10
-0.0863346004993629
 20
4.641441569065934
 30
0.0
 10
-0.2346834892425638
 20
4.356765149894722
 30
0.0
 10
-0.3715143672100232
 20
4.189059578260199
 30
0.0
 10
-0.8257434558627194
 20
3.740919952542852
 30
0.0
 10
-1.222072859692235
 20
3.449832117926017
 30
0.0
 10
-1.772528112709688
 20
3.07413442558662
 30
0.0
 10
-1.883620905096397
 20
2.999596827056639
 30
0.0
 10
-2.321932007793882
 20
2.704588533679642
 30
0.0
 10
-2.681153431146079
 20
2.461931736610816
 30
0.0
 10
-3.002975069075525
 20
2.197315181147656
 30
0.0
  0
SPLINE
  5
6A2D
330
6A29
100
AcDbEntity
  8
0
100
AcDbSpline
210
0.0
220
0.0
230
1.0
 70
     8
 71
     3
 72
    17
 73
    13
 74
     0
 42
0.000000001
 43
0.0000000001
 40
-1.0
 40
-1.0
 40
-1.0
 40
-1.0
 40
-0.8075008026557741
 40
-0.8075008026557741
 40
-0.8075008026557741
 40
-0.3673043690199931
 40
-0.3673043690199931
 40
-0.3673043690199931
 40
-0.0692670293203787
 40
-0.0692670293203787
 40
-0.0692670293203787
 40
0.0
 40
0.0
 40
0.0
 40
0.0
 10
-4.000000000000029
 20
-0.8284271247462314
 30
0.0
 10
-3.997232375251095
 20
-0.4820371597121903
 30
0.0
 10
-3.927192702826199
 20
-0.1370159641340143
 30
0.0
 10
-3.806530202499282
 20
0.2526270180476394
 30
0.0
 10
-3.530605923072263
 20
1.14364086908653
 30
0.0
 10
-3.025804898946334
 20
2.119331615198827
 30
0.0
 10
-2.611893434375413
 20
3.039309415785435
 30
0.0
 10
-2.331652472964177
 20
3.662185285098811
 30
0.0
 10
-2.096581487341904
 20
4.254430285342476
 30
0.0
 10
-2.025254235799761
 20
4.757824391673471
 30
0.0
 10
-2.00867702829653
 20
4.874818505089187
 30
0.0
 10
-1.999977827456585
 20
4.984607737574647
 30
0.0
 10
-1.999999999984505
 20
5.090361445761849
 30
0.0
  0
SPLINE
  5
6A2E
330
6A29
100
AcDbEntity
  8
0
100
AcDbSpline
210
0.0
220
0.0
230
1.0
 70
     8
 71
     3
 72
    11
 73
     7
 74
     0
 42
0.000000001
 43
0.0000000001
 40
0.0
 40
0.0
 40
0.0
 40
0.0
 40
0.3116856401116683
 40
0.3116856401116683
 40
0.3116856401116683
 40
0.5841416327282886
 40
0.5841416327282886
 40
0.5841416327282886
 40
0.5841416327282886
 10
-0.0000000000000116
 20
5.090361445782948
 30
0.0
 10
0.0000007684604946
 20
4.570410773708856
 30
0.0
 10
-0.3893676363601152
 20
4.113345933852975
 30
0.0
 10
-0.9255882594725862
 20
3.685144390483191
 30
0.0
 10
-1.394318618943971
 20
3.310837519954973
 30
0.0
 10
-1.971651605686697
 20
2.954289807602641
 30
0.0
 10
-2.499648942656038
 20
2.578582997783725
 30
0.0
  0
SPLINE
  5
6A2F
330
6A29
100
AcDbEntity
  8
0
100
AcDbSpline
210
0.0
220
0.0
230
1.0
 70
     8
 71
     3
 72
    14
 73
    10
 74
     0
 42
0.000000001
 43
0.0000000001
 40
0.0
 40
0.0
 40
0.0
 40
0.0
 40
0.0382307919031798
 40
0.0382307919031798
 40
0.1006855746424429
 40
0.1006855746424429
 40
0.1602620543176374
 40
0.1602620543176374
 40
0.1746602543730456
 40
0.1746602543730456
 40
0.1746602543730456
 40
0.1746602543730456
 10
-2.500044784340861
 20
2.57797297554407
 30
0.0
 10
-2.572750905195912
 20
2.526341865908659
 30
0.0
 10
-2.647415071513636
 20
2.465045198682024
 30
0.0
 10
-2.840285269940125
 20
2.276456695429431
 30
0.0
 10
-2.956882370566633
 20
2.129343928210712
 30
0.0
 10
-3.161215580089633
 20
1.809693196040664
 30
0.0
 10
-3.252789250935499
 20
1.636683320005239
 30
0.0
 10
-3.356028693789145
 20
1.41621931118973
 30
0.0
 10
-3.375686078792287
 20
1.372930104405132
 30
0.0
 10
-3.39491930080642
 20
1.329354563237438
 30
0.0
  0
SPLINE
  5
6A30
330
6A29
100
AcDbEntity
  8
0
100
AcDbSpline
210
0.0
220
0.0
230
1.0
 70
     8
 71
     3
 72
    10
 73
     6
 74
     0
 42
0.000000001
 43
0.0000000001
 40
0.0
 40
0.0
 40
0.0
 40
0.0
 40
0.0173628638240116
 40
0.0173628638240116
 40
0.0347257276479012
 40
0.0347257276479012
 40
0.0347257276479012
 40
0.0347257276479012
 10
-87.79011477749447
 20
2.000000000000008
 30
0.0
 10
-87.82509652526091
 20
1.953892155492756
 30
0.0
 10
-87.86007564547787
 20
1.907787755255223
 30
0.0
 10
-87.93003913201633
 20
1.815627187952763
 30
0.0
 10
-87.96501825223343
 20
1.769577912854343
 30
0.0
 10
-88.0
 20
1.723580293894938
 30
0.0
  0
LINE
  5
6A31
330
6A29
100
AcDbEntity
  8
0
100
AcDbLine
 10
-88.0
 20
-1.999999999999994
 30
0.0
 11
-87.99999999999986
 21
1.723580293894939
 31
0.0
  0
LINE
  5
6A32
330
6A29
100
AcDbEntity
  8
0
100
AcDbLine
 10
-4.000000000000079
 20
-2.000000000000004
 30
0.0
 11
-88.0
 21
-1.999999999999994
 31
0.0
  0
LINE
  5
6A33
330
6A29
100
AcDbEntity
  8
0
100
AcDbLine
 10
-4.000000000000044
 20
-0.828427124746199
 30
0.0
 11
-4.000000000000044
 21
-2.000000000000004
 31
0.0
  0
LINE
  5
6A34
330
6A29
100
AcDbEntity
  8
0
100
AcDbLine
 10
-87.9999999999999
 20
1.861790146947472
 30
0.0
 11
-87.99999999999982
 21
1.723580293894939
 31
0.0
  0
SPLINE
  5
6A35
330
6A29
100
AcDbEntity
  8
0
100
AcDbSpline
210
0.0
220
0.0
230
1.0
 70
     8
 71
     3
 72
    10
 73
     6
 74
     0
 42
0.000000001
 43
0.0000000001
 40
0.0
 40
0.0
 40
0.0
 40
0.0
 40
0.0125685529010063
 40
0.0125685529010063
 40
0.025137105802112
 40
0.025137105802112
 40
0.025137105802112
 40
0.025137105802112
 10
-88.0
 20
1.861790146947472
 30
0.0
 10
-87.96501825505451
 20
1.884788956201493
 30
0.0
 10
-87.9300391323601
 20
1.907813593750348
 30
0.0
 10
-87.86007564513411
 20
1.95389387785367
 30
0.0
 10
-87.82509652243987
 20
1.976946077972623
 30
0.0
 10
-87.79011477749447
 20
2.000000000000007
 30
0.0
  0
LINE
  5
6A36
330
6A29
100
AcDbEntity
  8
0
100
AcDbLine
 10
-3.999999999999998
 20
87.0
 30
0.0
 11
-47.00000000000001
 21
87.0
 31
0.0
  0
LINE
  5
6A37
330
6A29
100
AcDbEntity
  8
0
100
AcDbLine
 10
-47.00000000000001
 20
87.0
 30
0.0
 11
-47.00000000000001
 21
36.22697026547448
 31
0.0
  0
LINE
  5
6A38
330
6A29
100
AcDbEntity
  8
0
100
AcDbLine
 10
-47.00000000000001
 20
36.22697026547448
 30
0.0
 11
-87.79011477749447
 21
1.999999999999992
 31
0.0
  0
LINE
  5
6A39
330
6A29
100
AcDbEntity
  8
0
100
AcDbLine
 10
-2.000000000000018
 20
35.0
 30
0.0
 11
-2.000000000000014
 21
87.00000000000002
 31
0.0
  0
LINE
  5
6A3A
330
6A29
100
AcDbEntity
  8
0
100
AcDbLine
 10
0.0
 20
35.0
 30
0.0
 11
-2.000000000000018
 21
35.0
 31
0.0
  0
LINE
  5
6A3B
330
6A29
100
AcDbEntity
  8
0
100
AcDbLine
 10
0.0
 20
87.0
 30
0.0
 11
0.0
 21
35.0
 31
0.0
  0
LINE
  5
6A3C
330
6A29
100
AcDbEntity
  8
0
100
AcDbLine
 10
0.0
 20
87.0
 30
0.0
 11
-2.000000000000014
 21
87.00000000000002
 31
0.0
  0
LINE
  5
6A3D
330
6A29
100
AcDbEntity
  8
0
100
AcDbLine
 10
0.0
 20
35.0
 30
0.0
 11
0.0
 21
5.090361445782978
 31
0.0
  0
LINE
  5
6A3E
330
6A29
100
AcDbEntity
  8
0
100
AcDbLine
 10
-2.000000000000007
 20
5.090361445782978
 30
0.0
 11
-2.000000000000018
 21
35.0
 31
0.0
  0
CIRCLE
  5
6A3F
330
6A29
100
AcDbEntity
  8
0
100
AcDbCircle
 10
-39.50000000000001
 20
67.0
 30
0.0
 40
2.5
  0
CIRCLE
  5
6A40
330
6A29
100
AcDbEntity
  8
0
100
AcDbCircle
 10
-39.50000000000001
 20
46.99999999999999
 30
0.0
 40
2.5
  0
CIRCLE
  5
6A41
330
6A29
100
AcDbEntity
  8
0
100
AcDbCircle
 10
-39.50000000000001
 20
26.99999999999999
 30
0.0
 40
2.5
  0
LINE
  5
6A42
330
6A29
100
AcDbEntity
  8
0
100
AcDbLine
 10
-2.000000000000002
 20
86.99999999999995
 30
0.0
 11
-3.999999999999995
 21
87.0
 31
0.0
  0
ENDBLK
  5
6A2B
330
6A29
100
AcDbEntity
  8
0
100
AcDbBlockEnd
  0
BLOCK
  5
6A44
330
6A43
100
AcDbEntity
  8
0
100
AcDbBlockBegin
  2
SAE250_76_2-Top
 70
     0
 10
0.0
 20
0.0
 30
0.0
  3
SAE250_76_2-Top
  1

  0
SPLINE
  5
6A46
330
6A43
100
AcDbEntity
  8
0
100
AcDbSpline
210
0.0
220
0.0
230
1.0
 70
     8
 71
     3
 72
    10
 73
     6
 74
     0
 42
0.000000001
 43
0.0000000001
 40
-0.0634224320995511
 40
-0.0634224320995511
 40
-0.0634224320995511
 40
-0.0634224320995511
 40
-0.0407968752836024
 40
-0.0407968752836024
 40
-0.000001000059102
 40
-0.000001000059102
 40
-0.000001000059102
 40
-0.000001000059102
 10
-38.00226393840071
 20
-3.864971324766463
 30
0.0
 10
-37.92632171013906
 20
-3.901144871092645
 30
0.0
 10
-37.84887913684546
 20
-3.93026762494171
 30
0.0
 10
-37.62492486987929
 20
-3.992010544073397
 30
0.0
 10
-37.51041334264924
 20
-3.998443238970466
 30
0.0
 10
-37.41421356486146
 20
-4.0000000000327
 30
0.0
  0
LINE
  5
6A47
330
6A43
100
AcDbEntity
  8
0
100
AcDbLine
 10
-37.41421356237309
 20
-5.000000000000031
 30
0.0
 11
-37.99998257674034
 21
-5.000000000000031
 31
0.0
  0
SPLINE
  5
6A48
330
6A43
100
AcDbEntity
  8
0
100
AcDbSpline
210
0.0
220
0.0
230
1.0
 70
     8
 71
     3
 72
     8
 73
     4
 74
     0
 42
0.000000001
 43
0.0000000001
 40
0.0
 40
0.0
 40
0.0
 40
0.0
 40
0.00126116658633
 40
0.00126116658633
 40
0.00126116658633
 40
0.00126116658633
 10
-41.99999911111112
 20
0.0000431688935344
 30
0.0
 10
-41.99612262502478
 20
0.0000260291068664
 30
0.0
 10
-41.99221263630614
 20
0.0000059884238498
 30
0.0
 10
-41.98828488306748
 20
-0.0000171555323987
 30
0.0
  0
SPLINE
  5
6A49
330
6A43
100
AcDbEntity
  8
0
100
AcDbSpline
210
0.0
220
0.0
230
1.0
 70
     8
 71
     3
 72
    24
 73
    20
 74
     0
 42
0.000000001
 43
0.0000000001
 40
0.0070386863316878
 40
0.0070386863316878
 40
0.0070386863316878
 40
0.0070386863316878
 40
0.0113276042003246
 40
0.0113276042003246
 40
0.0169743079761684
 40
0.0169743079761684
 40
0.0339241539782895
 40
0.0339241539782895
 40
0.0848811292898493
 40
0.0848811292898493
 40
0.1101990115804876
 40
0.1101990115804876
 40
0.1405249797849631
 40
0.1405249797849631
 40
0.1776900355231422
 40
0.1776900355231422
 40
0.2421095939728586
 40
0.2421095939728586
 40
0.300040747199026
 40
0.300040747199026
 40
0.300040747199026
 40
0.300040747199026
 10
-41.93409480033162
 20
-0.0005429737705647
 30
0.0
 10
-41.92077797231961
 20
-0.0007270085901601
 30
0.0
 10
-41.90760369689006
 20
-0.0009526303540727
 30
0.0
 10
-41.8774800014412
 20
-0.0015769525991502
 30
0.0
 10
-41.86064996101314
 20
-0.0020079727865507
 30
0.0
 10
-41.79445208515532
 20
-0.004047153438105
 30
0.0
 10
-41.74671604754734
 20
-0.0062993395278819
 30
0.0
 10
-41.55633104129379
 20
-0.0187411207370174
 30
0.0
 10
-41.41404179881662
 20
-0.035606447050907
 30
0.0
 10
-41.17821019295221
 20
-0.079043377837665
 30
0.0
 10
-41.09565524065124
 20
-0.0967702233549964
 30
0.0
 10
-40.91629395468721
 20
-0.1416389290459914
 30
0.0
 10
-40.81770344006244
 20
-0.1705499810178215
 30
0.0
 10
-40.60754341870931
 20
-0.2414875736763467
 30
0.0
 10
-40.49625447445998
 20
-0.2853388901336275
 30
0.0
 10
-40.20266163948967
 20
-0.4163664540734668
 30
0.0
 10
-40.02617991213837
 20
-0.5123511915542132
 30
0.0
 10
-39.70410031544625
 20
-0.7189019137020387
 30
0.0
 10
-39.55659386330419
 20
-0.8276420194633931
 30
0.0
 10
-39.41567151878025
 20
-0.946928445819536
 30
0.0
  0
SPLINE
  5
6A4A
330
6A43
100
AcDbEntity
  8
0
100
AcDbSpline
210
0.0
220
0.0
230
1.0
 70
     8
 71
     3
 72
     8
 73
     4
 74
     0
 42
0.000000001
 43
0.0000000001
 40
0.0300223217636063
 40
0.0300223217636063
 40
0.0300223217636063
 40
0.0300223217636063
 40
0.0302698774851536
 40
0.0302698774851536
 40
0.0302698774851536
 40
0.0302698774851536
 10
-37.99992044561619
 20
-4.999439258962052
 30
0.0
 10
-37.99987033830712
 20
-4.999602544870253
 30
0.0
 10
-37.99982020314276
 20
-4.999765936681074
 30
0.0
 10
-37.99977004285968
 20
-4.999929425652222
 30
0.0
  0
SPLINE
  5
6A4B
330
6A43
100
AcDbEntity
  8
0
100
AcDbSpline
210
0.0
220
0.0
230
1.0
 70
     8
 71
     3
 72
     8
 73
     4
 74
     0
 42
0.000000001
 43
0.0000000001
 40
0.0711521693311247
 40
0.0711521693311247
 40
0.0711521693311247
 40
0.0711521693311247
 40
0.0930992666698687
 40
0.0930992666698687
 40
0.0930992666698687
 40
0.0930992666698687
 10
-37.99999999999999
 20
-4.996211939956036
 30
0.0
 10
-37.99997146444221
 20
-4.997542163641931
 30
0.0
 10
-37.99993583356738
 20
-4.999042569406027
 30
0.0
 10
-37.99990246541185
 20
-4.999996566197156
 30
0.0
  0
SPLINE
  5
6A4C
330
6A43
100
AcDbEntity
  8
0
100
AcDbSpline
210
0.0
220
0.0
230
1.0
 70
     8
 71
     3
 72
     8
 73
     4
 74
     0
 42
0.000000001
 43
0.0000000001
 40
0.0
 40
0.0
 40
0.0
 40
0.0
 40
0.0337503820731254
 40
0.0337503820731254
 40
0.0337503820731254
 40
0.0337503820731254
 10
-40.00000413305323
 20
-5.000000073237591
 30
0.0
 10
-40.00001119243481
 20
-4.999609051407412
 30
0.0
 10
-40.00002297049505
 20
-4.999059466530825
 30
0.0
 10
-40.00002297049507
 20
-4.999059466530184
 30
0.0
  0
SPLINE
  5
6A4D
330
6A43
100
AcDbEntity
  8
0
100
AcDbSpline
210
0.0
220
0.0
230
1.0
 70
     8
 71
     3
 72
     8
 73
     4
 74
     0
 42
0.000000001
 43
0.0000000001
 40
0.0
 40
0.0
 40
0.0
 40
0.0
 40
0.0367512339836551
 40
0.0367512339836551
 40
0.0367512339836551
 40
0.0367512339836551
 10
-40.00000002133941
 20
-5.000000000854191
 30
0.0
 10
-40.00000575076757
 20
-4.999815083907542
 30
0.0
 10
-40.00007716014475
 20
-4.997577676262283
 30
0.0
 10
-40.00007716014578
 20
-4.997577676230663
 30
0.0
  0
SPLINE
  5
6A4E
330
6A43
100
AcDbEntity
  8
0
100
AcDbSpline
210
0.0
220
0.0
230
1.0
 70
     8
 71
     3
 72
    70
 73
    66
 74
     0
 42
0.000000001
 43
0.0000000001
 40
0.0000322584031797
 40
0.0000322584031797
 40
0.0000322584031797
 40
0.0000322584031797
 40
0.0046229100062646
 40
0.0046229100062646
 40
0.0123441997088616
 40
0.0123441997088616
 40
0.0214412206871491
 40
0.0214412206871491
 40
0.0490277375712841
 40
0.0490277375712841
 40
0.082073783639686
 40
0.082073783639686
 40
0.1814883145509908
 40
0.1814883145509908
 40
0.2200616228420619
 40
0.2200616228420619
 40
0.2408879292045659
 40
0.2408879292045659
 40
0.2509256372149262
 40
0.2509256372149262
 40
0.2614249786322825
 40
0.2614249786322825
 40
0.2748611761013695
 40
0.2748611761013695
 40
0.2865800497242487
 40
0.2865800497242487
 40
0.3086876626254951
 40
0.3086876626254951
 40
0.3686133363640887
 40
0.3686133363640887
 40
0.4404229593101638
 40
0.4404229593101638
 40
0.4892857924416635
 40
0.4892857924416635
 40
0.5129224434114795
 40
0.5129224434114795
 40
0.531346971063254
 40
0.531346971063254
 40
0.5559374405052675
 40
0.5559374405052675
 40
0.5778338138738618
 40
0.5778338138738618
 40
0.6089664599173556
 40
0.6089664599173556
 40
0.6096864913351558
 40
0.6096864913351558
 40
0.6102289597673886
 40
0.6102289597673886
 40
0.6103924059174929
 40
0.6103924059174929
 40
0.610520849839927
 40
0.610520849839927
 40
0.6107543271766015
 40
0.6107543271766015
 40
0.6109851716552875
 40
0.6109851716552875
 40
0.6113836853702545
 40
0.6113836853702545
 40
0.6123559366806108
 40
0.6123559366806108
 40
0.6152694830895208
 40
0.6152694830895208
 40
0.6240083109380925
 40
0.6240083109380925
 40
0.6254960244336606
 40
0.6254960244336606
 40
0.6254960244336606
 40
0.6254960244336606
 10
-40.0000090271675
 20
-4.999711715203077
 30
0.0
 10
-40.00045760569019
 20
-4.986028540068362
 30
0.0
 10
-40.00096938681171
 20
-4.971327294326707
 30
0.0
 10
-40.00243844681171
 20
-4.931847140092994
 30
0.0
 10
-40.00349200368462
 20
-4.906164868779266
 30
0.0
 10
-40.00602967650334
 20
-4.850161827844236
 30
0.0
 10
-40.00755310508259
 20
-4.819852549087164
 30
0.0
 10
-40.01431392348229
 20
-4.697902515122349
 30
0.0
 10
-40.02083308236701
 20
-4.606896205094262
 30
0.0
 10
-40.03778444982947
 20
-4.415190296728557
 30
0.0
 10
-40.04888479503374
 20
-4.31337362332372
 30
0.0
 10
-40.1030365994353
 20
-3.905327494032706
 30
0.0
 10
-40.16561939309941
 20
-3.594459989242214
 30
0.0
 10
-40.30862896600631
 20
-3.183451871289618
 30
0.0
 10
-40.35509630255151
 20
-3.07058496566053
 30
0.0
 10
-40.43600473058536
 20
-2.907537644668284
 30
0.0
 10
-40.46637998109136
 20
-2.852046998898391
 30
0.0
 10
-40.51157257895559
 20
-2.776832765055864
 30
0.0
 10
-40.52633161580181
 20
-2.753402789346406
 30
0.0
 10
-40.5550621043791
 20
-2.709582360527859
 30
0.0
 10
-40.56909949337117
 20
-2.689192918030227
 30
0.0
 10
-40.59594546936664
 20
-2.65135768361365
 30
0.0
 10
-40.60719954810006
 20
-2.636363310591277
 30
0.0
 10
-40.62015308299215
 20
-2.619251162929222
 30
0.0
 10
-40.62339509215004
 20
-2.615076511892303
 30
0.0
 10
-40.629601772566
 20
-2.607072004807715
 30
0.0
 10
-40.63040987886904
 20
-2.606053107758066
 30
0.0
 10
-40.64134154312498
 20
-2.592254485416962
 30
0.0
 10
-40.66836206921611
 20
-2.557797557694669
 30
0.0
 10
-40.76465710581484
 20
-2.454953743028495
 30
0.0
 10
-40.82892646766094
 20
-2.39683859292469
 30
0.0
 10
-40.92643650388613
 20
-2.322487855914895
 30
0.0
 10
-40.96715155098613
 20
-2.293769296983824
 30
0.0
 10
-41.05973451109142
 20
-2.239769842844936
 30
0.0
 10
-41.0953124936639
 20
-2.220367027972093
 30
0.0
 10
-41.17286440956054
 20
-2.183074125208892
 30
0.0
 10
-41.21225799525972
 20
-2.165584758333118
 30
0.0
 10
-41.31660444699438
 20
-2.124750210193179
 30
0.0
 10
-41.38736200960851
 20
-2.101058005834936
 30
0.0
 10
-41.52887287199782
 20
-2.063194056275953
 30
0.0
 10
-41.59967345035029
 20
-2.04790185842864
 30
0.0
 10
-41.77252233498461
 20
-2.018623762800704
 30
0.0
 10
-41.87651656623643
 20
-2.007535193808987
 30
0.0
 10
-41.98242727544303
 20
-2.001023572573159
 30
0.0
 10
-41.98482449735171
 20
-2.000878667259419
 30
0.0
 10
-41.98899973005082
 20
-2.000630521512131
 30
0.0
 10
-41.9908231733743
 20
-2.000523608560648
 30
0.0
 10
-41.99300814826728
 20
-2.000397029261801
 30
0.0
 10
-41.99350141492856
 20
-2.000368565227203
 30
0.0
 10
-41.99431403669175
 20
-2.00032182216027
 30
0.0
 10
-41.99465052308683
 20
-2.000302522131458
 30
0.0
 10
-41.99549966242229
 20
-2.000253916740613
 30
0.0
 10
-41.99593640492107
 20
-2.000229038223662
 30
0.0
 10
-41.99659692874361
 20
-2.000191474239716
 30
0.0
 10
-41.99683846705615
 20
-2.000177778338805
 30
0.0
 10
-41.99737034592993
 20
-2.000147645068165
 30
0.0
 10
-41.9975780859113
 20
-2.000135913646395
 30
0.0
 10
-41.99815048695522
 20
-2.000103599882344
 30
0.0
 10
-41.99831880461168
 20
-2.000094141999934
 30
0.0
 10
-41.99890455542116
 20
-2.000061197493773
 30
0.0
 10
-41.99902284213614
 20
-2.000054590168373
 30
0.0
 10
-41.9995959628678
 20
-2.000022496783491
 30
0.0
 10
-41.99978996477412
 20
-2.000011729840702
 30
0.0
 10
-41.99995918780505
 20
-2.000002355054262
 30
0.0
 10
-41.99998099849048
 20
-2.000001148196695
 30
0.0
 10
-41.99999999999923
 20
-2.000000097789835
 30
0.0
  0
SPLINE
  5
6A4F
330
6A43
100
AcDbEntity
  8
0
100
AcDbSpline
210
0.0
220
0.0
230
1.0
 70
     8
 71
     3
 72
     8
 73
     4
 74
     0
 42
0.000000001
 43
0.0000000001
 40
0.0
 40
0.0
 40
0.0
 40
0.0
 40
0.0031568798384673
 40
0.0031568798384673
 40
0.0031568798384673
 40
0.0031568798384673
 10
-40.00010908786651
 20
-5.000003407241994
 30
0.0
 10
-40.0004229443353
 20
-4.989485769756212
 30
0.0
 10
-40.00074870189989
 20
-4.978938016165931
 30
0.0
 10
-40.00108216515697
 20
-4.968493517142257
 30
0.0
  0
LINE
  5
6A50
330
6A43
100
AcDbEntity
  8
0
100
AcDbLine
 10
-35.99999999999998
 20
-4.00000000000007
 30
0.0
 11
-37.41421356237309
 21
-4.000000000000071
 31
0.0
  0
SPLINE
  5
6A51
330
6A43
100
AcDbEntity
  8
0
100
AcDbSpline
210
0.0
220
0.0
230
1.0
 70
     8
 71
     3
 72
    10
 73
     6
 74
     0
 42
0.000000001
 43
0.0000000001
 40
0.0
 40
0.0
 40
0.0
 40
0.0
 40
0.0125685529009637
 40
0.0125685529009637
 40
0.0251371058018179
 40
0.0251371058018179
 40
0.0251371058018179
 40
0.0251371058018179
 10
-38.00000000000002
 20
-87.79011477749447
 30
0.0
 10
-38.00000000000002
 20
-87.82509652243987
 30
0.0
 10
-37.99960138750936
 20
-87.86007564513409
 30
0.0
 10
-37.99800729476434
 20
-87.9300391323601
 30
0.0
 10
-37.99681193373532
 20
-87.96501825505451
 30
0.0
 10
-37.99521879414746
 20
-88.0
 30
0.0
  0
LINE
  5
6A52
330
6A43
100
AcDbEntity
  8
0
100
AcDbLine
 10
-37.99521879414746
 20
-88.00000000000004
 30
0.0
 11
-36.00000000000001
 21
-88.0
 31
0.0
  0
LINE
  5
6A53
330
6A43
100
AcDbEntity
  8
0
100
AcDbLine
 10
-40.0
 20
-87.79011477749447
 30
0.0
 11
-38.54647958216029
 21
-87.79011477749447
 31
0.0
  0
LINE
  5
6A54
330
6A43
100
AcDbEntity
  8
0
100
AcDbLine
 10
-38.54647958216029
 20
-87.79011477749447
 30
0.0
 11
-38.00000000000002
 21
-87.79011477749447
 31
0.0
  0
SPLINE
  5
6A55
330
6A43
100
AcDbEntity
  8
0
100
AcDbSpline
210
0.0
220
0.0
230
1.0
 70
     8
 71
     3
 72
    10
 73
     6
 74
     0
 42
0.000000001
 43
0.0000000001
 40
0.0
 40
0.0
 40
0.0
 40
0.0
 40
0.0173628638240743
 40
0.0173628638240743
 40
0.0347257276482705
 40
0.0347257276482705
 40
0.0347257276482705
 40
0.0347257276482705
 10
-39.99043758829491
 20
-88.0
 30
0.0
 10
-39.99362386750188
 20
-87.96501825223343
 30
0.0
 10
-39.9960145895443
 20
-87.93003913201633
 30
0.0
 10
-39.99920277500307
 20
-87.86007564547787
 30
0.0
 10
-40.0
 20
-87.82509652526091
 30
0.0
 10
-40.0
 20
-87.79011477749447
 30
0.0
  0
LINE
  5
6A56
330
6A43
100
AcDbEntity
  8
0
100
AcDbLine
 10
-37.99521879414746
 20
-88.0
 30
0.0
 11
-39.99043758829491
 21
-88.0
 31
0.0
  0
LINE
  5
6A57
330
6A43
100
AcDbEntity
  8
0
100
AcDbLine
 10
-38.0
 20
-46.99999999999999
 30
0.0
 11
-37.99999999999999
 21
-4.000000000000074
 31
0.0
  0
LINE
  5
6A58
330
6A43
100
AcDbEntity
  8
0
100
AcDbLine
 10
-38.00000000000002
 20
-87.79011477749447
 30
0.0
 11
-38.0
 21
-46.99999999999999
 31
0.0
  0
LINE
  5
6A59
330
6A43
100
AcDbEntity
  8
0
100
AcDbLine
 10
-36.00000000000001
 20
-88.0
 30
0.0
 11
36.0
 21
-88.0
 31
0.0
  0
LINE
  5
6A5A
330
6A43
100
AcDbEntity
  8
0
100
AcDbLine
 10
-40.0
 20
-46.99999999999999
 30
0.0
 11
-40.0
 21
-87.79011477749447
 31
0.0
  0
LINE
  5
6A5B
330
6A43
100
AcDbEntity
  8
0
100
AcDbLine
 10
-40.0
 20
-4.000000000000075
 30
0.0
 11
-40.0
 21
-46.99999999999999
 31
0.0
  0
LINE
  5
6A5C
330
6A43
100
AcDbEntity
  8
0
100
AcDbLine
 10
-79.50000000000007
 20
-2.000000000000078
 30
0.0
 11
-41.99999999999999
 21
-2.000000000000074
 31
0.0
  0
LINE
  5
6A5D
330
6A43
100
AcDbEntity
  8
0
100
AcDbLine
 10
-79.50000000000007
 20
0.0
 30
0.0
 11
-79.50000000000007
 21
-2.000000000000078
 31
0.0
  0
LINE
  5
6A5E
330
6A43
100
AcDbEntity
  8
0
100
AcDbLine
 10
-42.0
 20
0.0
 30
0.0
 11
-79.50000000000007
 21
0.0
 31
0.0
  0
LINE
  5
6A5F
330
6A43
100
AcDbEntity
  8
0
100
AcDbLine
 10
-38.0
 20
-46.99999999999999
 30
0.0
 11
-40.0
 21
-46.99999999999999
 31
0.0
  0
LINE
  5
6A60
330
6A43
100
AcDbEntity
  8
0
100
AcDbLine
 10
36.0
 20
-4.000000000000079
 30
0.0
 11
-36.0
 21
-4.00000000000007
 31
0.0
  0
ARC
  5
6A61
330
6A43
100
AcDbEntity
  8
0
100
AcDbCircle
 10
-41.99999999999999
 20
-4.000000000000075
 30
0.0
 40
4.0
100
AcDbArc
 50
0.0
 51
90.00000000000024
  0
ARC
  5
6A62
330
6A43
100
AcDbEntity
  8
0
100
AcDbCircle
 10
-41.99999999999999
 20
-4.000000000000075
 30
0.0
 40
2.0
100
AcDbArc
 50
0.0
 51
90.00000000000079
  0
SPLINE
  5
6A63
330
6A43
100
AcDbEntity
  8
0
100
AcDbSpline
210
0.0
220
0.0
230
1.0
 70
     8
 71
     3
 72
    11
 73
     7
 74
     0
 42
0.000000001
 43
0.0000000001
 40
0.8897815180249793
 40
0.8897815180249793
 40
0.8897815180249793
 40
0.8897815180249793
 40
0.9257875621510233
 40
0.9257875621510233
 40
0.9257875621510233
 40
1.0
 40
1.0
 40
1.0
 40
1.0
 10
38.00308060102575
 20
-3.864557907356685
 30
0.0
 10
37.94380635802534
 20
-3.892834136374741
 30
0.0
 10
37.88326603062067
 20
-3.91702915750268
 30
0.0
 10
37.82135037482366
 20
-3.936753427400165
 30
0.0
 10
37.69373536269878
 20
-3.977407328416322
 30
0.0
 10
37.55913361298305
 20
-3.997653159118835
 30
0.0
 10
37.41421356424558
 20
-4.000000000042676
 30
0.0
  0
LINE
  5
6A64
330
6A43
100
AcDbEntity
  8
0
100
AcDbLine
 10
38.0
 20
-5.000000000000039
 30
0.0
 11
37.41421356237309
 21
-5.000000000000039
 31
0.0
  0
SPLINE
  5
6A65
330
6A43
100
AcDbEntity
  8
0
100
AcDbSpline
210
0.0
220
0.0
230
1.0
 70
     8
 71
     3
 72
    44
 73
    40
 74
     0
 42
0.000000001
 43
0.0000000001
 40
0.0996216871137292
 40
0.0996216871137292
 40
0.0996216871137292
 40
0.0996216871137292
 40
0.134480372596671
 40
0.134480372596671
 40
0.1567174898575194
 40
0.1567174898575194
 40
0.174399505071275
 40
0.174399505071275
 40
0.1920752379812981
 40
0.1920752379812981
 40
0.2276496720833377
 40
0.2276496720833377
 40
0.26564909696499
 40
0.26564909696499
 40
0.3211627611654788
 40
0.3211627611654788
 40
0.4050953287942776
 40
0.4050953287942776
 40
0.4266086407636511
 40
0.4266086407636511
 40
0.4376369744422405
 40
0.4376369744422405
 40
0.4464726303416312
 40
0.4464726303416312
 40
0.4644129348408857
 40
0.4644129348408857
 40
0.4998884778415326
 40
0.4998884778415326
 40
0.5415348943504787
 40
0.5415348943504787
 40
0.6431127189547707
 40
0.6431127189547707
 40
0.674106739818909
 40
0.674106739818909
 40
0.6905297305108034
 40
0.6905297305108034
 40
0.6991182803432207
 40
0.6991182803432207
 40
0.7080832682992565
 40
0.7080832682992565
 40
0.7080832682992565
 40
0.7080832682992565
 10
41.97795898544021
 20
-2.001298910848816
 30
0.0
 10
41.8620031531775
 20
-2.008497265002634
 30
0.0
 10
41.74533233596757
 20
-2.021691335310158
 30
0.0
 10
41.5605032620175
 20
-2.056032331615088
 30
0.0
 10
41.48933130551284
 20
-2.07279167781419
 30
0.0
 10
41.37089547059282
 20
-2.106973437504025
 30
0.0
 10
41.32118810566904
 20
-2.12369054360923
 30
0.0
 10
41.23245454800595
 20
-2.157216767066659
 30
0.0
 10
41.19281300919877
 20
-2.174191250696622
 30
0.0
 10
41.08916557336187
 20
-2.222368822240876
 30
0.0
 10
41.03881479202191
 20
-2.251127935297114
 30
0.0
 10
40.95559341390934
 20
-2.302481158991115
 30
0.0
 10
40.92342781495774
 20
-2.325058563611507
 30
0.0
 10
40.84745235794776
 20
-2.382365355140614
 30
0.0
 10
40.80127948336181
 20
-2.421727297412816
 30
0.0
 10
40.68700614687762
 20
-2.53383503926268
 30
0.0
 10
40.64018368115188
 20
-2.593660189354063
 30
0.0
 10
40.62911113970431
 20
-2.60771554742798
 30
0.0
 10
40.62826552595089
 20
-2.608750314102796
 30
0.0
 10
40.61884222418907
 20
-2.620998437968982
 30
0.0
 10
40.61396286239791
 20
-2.62734894597706
 30
0.0
 10
40.59991527411742
 20
-2.646199772767778
 30
0.0
 10
40.59168019897537
 20
-2.657396947744036
 30
0.0
 10
40.56196239561447
 20
-2.699198755283926
 30
0.0
 10
40.5354414373346
 20
-2.73844873481415
 30
0.0
 10
40.45750560797657
 20
-2.864932800893288
 30
0.0
 10
40.40561771374547
 20
-2.963600665834935
 30
0.0
 10
40.30813979498049
 20
-3.182837736508596
 30
0.0
 10
40.26304718238815
 20
-3.307177993167552
 30
0.0
 10
40.13169898340253
 20
-3.740074910245976
 30
0.0
 10
40.07758933071348
 20
-4.054986898834145
 30
0.0
 10
40.03282122390749
 20
-4.466140538339738
 30
0.0
 10
40.02414301877517
 20
-4.563746741370247
 30
0.0
 10
40.01329179453329
 20
-4.718491104304734
 30
0.0
 10
40.00997654080978
 20
-4.773367454259092
 30
0.0
 10
40.0057227048361
 20
-4.856617326383494
 30
0.0
 10
40.00438406290388
 20
-4.885566828952726
 30
0.0
 10
40.0019774876172
 20
-4.943248161291996
 30
0.0
 10
40.00088505370505
 20
-4.972989917501637
 30
0.0
 10
40.00000902716696
 20
-4.999711715219882
 30
0.0
  0
SPLINE
  5
6A66
330
6A43
100
AcDbEntity
  8
0
100
AcDbSpline
210
0.0
220
0.0
230
1.0
 70
     8
 71
     3
 72
    10
 73
     6
 74
     0
 42
0.000000001
 43
0.0000000001
 40
0.0618658549719643
 40
0.0618658549719643
 40
0.0618658549719643
 40
0.0618658549719643
 40
0.0629807934721496
 40
0.0629807934721496
 40
0.0650275576458015
 40
0.0650275576458015
 40
0.0650275576458015
 40
0.0650275576458015
 10
40.00108119502375
 20
-4.968520483021
 30
0.0
 10
40.00096370755329
 20
-4.972198594513084
 30
0.0
 10
40.00084730923472
 20
-4.975886532888216
 30
0.0
 10
40.00052071159301
 20
-4.986361197303609
 30
0.0
 10
40.00031257682042
 20
-4.993184293212054
 30
0.0
 10
40.0001090878665
 20
-5.000003407242003
 30
0.0
  0
SPLINE
  5
6A67
330
6A43
100
AcDbEntity
  8
0
100
AcDbSpline
210
0.0
220
0.0
230
1.0
 70
     8
 71
     3
 72
     8
 73
     4
 74
     0
 42
0.000000001
 43
0.0000000001
 40
0.0151299098981678
 40
0.0151299098981678
 40
0.0151299098981678
 40
0.0151299098981678
 40
0.0518811444137067
 40
0.0518811444137067
 40
0.0518811444137067
 40
0.0518811444137067
 10
40.00007716014582
 20
-4.997577676229003
 30
0.0
 10
40.00007716014491
 20
-4.997577676257066
 30
0.0
 10
40.00000575076743
 20
-4.999815083911967
 30
0.0
 10
40.00000002133941
 20
-5.0000000008542
 30
0.0
  0
SPLINE
  5
6A68
330
6A43
100
AcDbEntity
  8
0
100
AcDbSpline
210
0.0
220
0.0
230
1.0
 70
     8
 71
     3
 72
     8
 73
     4
 74
     0
 42
0.000000001
 43
0.0000000001
 40
0.0290475149060084
 40
0.0290475149060084
 40
0.0290475149060084
 40
0.0290475149060084
 40
0.062797896990013
 40
0.062797896990013
 40
0.062797896990013
 40
0.062797896990013
 10
40.00002297049506
 20
-4.999059466531313
 30
0.0
 10
40.00002297049504
 20
-4.999059466532257
 30
0.0
 10
40.00001119243481
 20
-4.999609051407023
 30
0.0
 10
40.00000413305322
 20
-5.000000073237601
 30
0.0
  0
SPLINE
  5
6A69
330
6A43
100
AcDbEntity
  8
0
100
AcDbSpline
210
0.0
220
0.0
230
1.0
 70
     8
 71
     3
 72
     8
 73
     4
 74
     0
 42
0.000000001
 43
0.0000000001
 40
0.0
 40
0.0
 40
0.0
 40
0.0
 40
0.029005144559728
 40
0.029005144559728
 40
0.029005144559728
 40
0.029005144559728
 10
37.99990246541183
 20
-4.999996566197163
 30
0.0
 10
37.99994656455444
 20
-4.998735770091665
 30
0.0
 10
37.99996231477526
 20
-4.998231603248044
 30
0.0
 10
38.0
 20
-4.996458509277323
 30
0.0
  0
SPLINE
  5
6A6A
330
6A43
100
AcDbEntity
  8
0
100
AcDbSpline
210
0.0
220
0.0
230
1.0
 70
     8
 71
     3
 72
     8
 73
     4
 74
     0
 42
0.000000001
 43
0.0000000001
 40
0.0
 40
0.0
 40
0.0
 40
0.0
 40
0.0002491599031108
 40
0.0002491599031108
 40
0.0002491599031108
 40
0.0002491599031108
 10
37.99977004285968
 20
-4.99992942565223
 30
0.0
 10
37.99982052818554
 20
-4.999764877259019
 30
0.0
 10
37.99987098877762
 20
-4.999600424970295
 30
0.0
 10
37.99992142176871
 20
-4.999436077951942
 30
0.0
  0
SPLINE
  5
6A6B
330
6A43
100
AcDbEntity
  8
0
100
AcDbSpline
210
0.0
220
0.0
230
1.0
 70
     8
 71
     3
 72
    18
 73
    14
 74
     0
 42
0.000000001
 43
0.0000000001
 40
0.0
 40
0.0
 40
0.0
 40
0.0
 40
0.1282929227364058
 40
0.1282929227364058
 40
0.1571918223385593
 40
0.1571918223385593
 40
0.1892284977366007
 40
0.1892284977366007
 40
0.2270336227034692
 40
0.2270336227034692
 40
0.2578561537518075
 40
0.2578561537518075
 40
0.2905858877631903
 40
0.2905858877631903
 40
0.2905858877631903
 40
0.2905858877631903
 10
39.41567151878039
 20
-0.9469284458194291
 30
0.0
 10
39.72775471497109
 20
-0.6827596277008384
 30
0.0
 10
40.06859176721421
 20
-0.4698230757811295
 30
0.0
 10
40.52807729298382
 20
-0.2731900892495406
 30
0.0
 10
40.61495220290911
 20
-0.2395688411274619
 30
0.0
 10
40.80386900738343
 20
-0.1746904725308779
 30
0.0
 10
40.90805510549881
 20
-0.1437810157903411
 30
0.0
 10
41.13317912545741
 20
-0.0872899476674778
 30
0.0
 10
41.25700283206131
 20
-0.0628580171103383
 30
0.0
 10
41.46022944111876
 20
-0.0315186489336206
 30
0.0
 10
41.54695561192179
 20
-0.0214214488930357
 30
0.0
 10
41.72472615366581
 20
-0.0067161598304054
 30
0.0
 10
41.81983597103666
 20
-0.0025447749829704
 30
0.0
 10
41.91850018331108
 20
-0.0008303637030364
 30
0.0
  0
SPLINE
  5
6A6C
330
6A43
100
AcDbEntity
  8
0
100
AcDbSpline
210
0.0
220
0.0
230
1.0
 70
     8
 71
     3
 72
     8
 73
     4
 74
     0
 42
0.000000001
 43
0.0000000001
 40
0.298290328370065
 40
0.298290328370065
 40
0.298290328370065
 40
0.298290328370065
 40
0.2995101126226428
 40
0.2995101126226428
 40
0.2995101126226428
 40
0.2995101126226428
 10
41.98876641914922
 20
-0.0000157741984517
 30
0.0
 10
41.99250583331179
 20
0.0000069613458189
 30
0.0
 10
41.99625018340391
 20
0.0000265932666543
 30
0.0
 10
41.99999946928556
 20
0.0000431704771755
 30
0.0
  0
SPLINE
  5
6A6D
330
6A43
100
AcDbEntity
  8
0
100
AcDbSpline
210
0.0
220
0.0
230
1.0
 70
     8
 71
     3
 72
    10
 73
     6
 74
     0
 42
0.000000001
 43
0.0000000001
 40
0.0
 40
0.0
 40
0.0
 40
0.0
 40
0.0173628638240116
 40
0.0173628638240116
 40
0.0347257276479012
 40
0.0347257276479012
 40
0.0347257276479012
 40
0.0347257276479012
 10
40.0
 20
-87.79011477749447
 30
0.0
 10
40.0
 20
-87.82509652526091
 30
0.0
 10
39.99920277500305
 20
-87.86007564547787
 30
0.0
 10
39.99601458954428
 20
-87.93003913201633
 30
0.0
 10
39.99362386750186
 20
-87.96501825223343
 30
0.0
 10
39.9904375882949
 20
-88.0
 30
0.0
  0
LINE
  5
6A6E
330
6A43
100
AcDbEntity
  8
0
100
AcDbLine
 10
37.41421356237309
 20
-4.000000000000043
 30
0.0
 11
36.0
 21
-4.000000000000047
 31
0.0
  0
LINE
  5
6A6F
330
6A43
100
AcDbEntity
  8
0
100
AcDbLine
 10
37.99521879414744
 20
-87.9999999999999
 30
0.0
 11
39.99043758829489
 21
-87.99999999999982
 31
0.0
  0
LINE
  5
6A70
330
6A43
100
AcDbEntity
  8
0
100
AcDbLine
 10
35.99999999999997
 20
-88.0
 30
0.0
 11
37.99521879414744
 21
-87.99999999999995
 31
0.0
  0
LINE
  5
6A71
330
6A43
100
AcDbEntity
  8
0
100
AcDbLine
 10
38.54647958216027
 20
-87.79011477749447
 30
0.0
 11
40.0
 21
-87.79011477749447
 31
0.0
  0
LINE
  5
6A72
330
6A43
100
AcDbEntity
  8
0
100
AcDbLine
 10
37.99999999999999
 20
-87.79011477749447
 30
0.0
 11
38.54647958216027
 21
-87.79011477749447
 31
0.0
  0
SPLINE
  5
6A73
330
6A43
100
AcDbEntity
  8
0
100
AcDbSpline
210
0.0
220
0.0
230
1.0
 70
     8
 71
     3
 72
    10
 73
     6
 74
     0
 42
0.000000001
 43
0.0000000001
 40
0.0
 40
0.0
 40
0.0
 40
0.0
 40
0.0125685529010063
 40
0.0125685529010063
 40
0.025137105802112
 40
0.025137105802112
 40
0.025137105802112
 40
0.025137105802112
 10
37.99521879414745
 20
-88.0
 30
0.0
 10
37.9968119337353
 20
-87.96501825505451
 30
0.0
 10
37.99800729476431
 20
-87.9300391323601
 30
0.0
 10
37.99960138750935
 20
-87.86007564513411
 30
0.0
 10
37.99999999999999
 20
-87.82509652243987
 30
0.0
 10
37.99999999999999
 20
-87.79011477749447
 30
0.0
  0
LINE
  5
6A74
330
6A43
100
AcDbEntity
  8
0
100
AcDbLine
 10
39.99999999999997
 20
-3.999999999999996
 30
0.0
 11
39.99999999999997
 21
-47.00000000000001
 31
0.0
  0
LINE
  5
6A75
330
6A43
100
AcDbEntity
  8
0
100
AcDbLine
 10
39.99999999999999
 20
-47.00000000000001
 30
0.0
 11
40.0
 21
-87.79011477749447
 31
0.0
  0
LINE
  5
6A76
330
6A43
100
AcDbEntity
  8
0
100
AcDbLine
 10
37.99999999999999
 20
-87.79011477749447
 30
0.0
 11
37.99999999999999
 21
-47.00000000000001
 31
0.0
  0
LINE
  5
6A77
330
6A43
100
AcDbEntity
  8
0
100
AcDbLine
 10
37.99999999999997
 20
-47.00000000000001
 30
0.0
 11
37.99999999999998
 21
-4.000000000000003
 31
0.0
  0
LINE
  5
6A78
330
6A43
100
AcDbEntity
  8
0
100
AcDbLine
 10
79.49999999999997
 20
0.0
 30
0.0
 11
79.49999999999997
 21
-2.000000000000013
 31
0.0
  0
LINE
  5
6A79
330
6A43
100
AcDbEntity
  8
0
100
AcDbLine
 10
79.49999999999997
 20
-2.000000000000013
 30
0.0
 11
41.99999999999997
 21
-2.0
 31
0.0
  0
LINE
  5
6A7A
330
6A43
100
AcDbEntity
  8
0
100
AcDbLine
 10
41.99999999999997
 20
0.0
 30
0.0
 11
79.49999999999997
 21
0.0
 31
0.0
  0
LINE
  5
6A7B
330
6A43
100
AcDbEntity
  8
0
100
AcDbLine
 10
37.99999999999997
 20
-47.00000000000001
 30
0.0
 11
39.99999999999997
 21
-47.00000000000001
 31
0.0
  0
ARC
  5
6A7C
330
6A43
100
AcDbEntity
  8
0
100
AcDbCircle
 10
41.99999999999997
 20
-4.000000000000001
 30
0.0
 40
2.0
100
AcDbArc
 50
90.0
 51
180.0
  0
ARC
  5
6A7D
330
6A43
100
AcDbEntity
  8
0
100
AcDbCircle
 10
41.99999999999997
 20
-4.000000000000001
 30
0.0
 40
4.0
100
AcDbArc
 50
90.00000000000012
 51
180.0
  0
CIRCLE
  5
6A7E
330
6A43
100
AcDbEntity
  8
0
100
AcDbCircle
 10
-0.0000000000000058
 20
-50.00000000000001
 30
0.0
 40
2.5
  0
CIRCLE
  5
6A7F
330
6A43
100
AcDbEntity
  8
0
100
AcDbCircle
 10
-0.0000000000000083
 20
-70.00000000000001
 30
0.0
 40
2.5
  0
ENDBLK
  5
6A45
330
6A43
100
AcDbEntity
  8
0
100
AcDbBlockEnd
  0
BLOCK
  5
6A81
330
6A80
100
AcDbEntity
  8
0
100
AcDbBlockBegin
  2
SAE250_76_2-Bottom
 70
     0
 10
0.0
 20
0.0
 30
0.0
  3
SAE250_76_2-Bottom
  1

  0
SPLINE
  5
6A83
330
6A80
100
AcDbEntity
  8
0
100
AcDbSpline
210
0.0
220
0.0
230
1.0
 70
     8
 71
     3
 72
    24
 73
    20
 74
     0
 42
0.000000001
 43
0.0000000001
 40
-0.60000419236694
 40
-0.60000419236694
 40
-0.60000419236694
 40
-0.60000419236694
 40
-0.537994192116034
 40
-0.537994192116034
 40
-0.49566586678215
 40
-0.49566586678215
 40
-0.4228394172969669
 40
-0.4228394172969669
 40
-0.2953422376600528
 40
-0.2953422376600528
 40
-0.2621877360074494
 40
-0.2621877360074494
 40
-0.1299515430622342
 40
-0.1299515430622342
 40
-0.0726851470703916
 40
-0.0726851470703916
 40
-0.0407968752836024
 40
-0.0407968752836024
 40
-0.000001000059102
 40
-0.000001000059102
 40
-0.000001000059102
 40
-0.000001000059102
 10
-42.00000000000002
 20
-0.0000000000000348
 30
0.0
 10
-41.90513639985249
 20
0.0014238972905649
 30
0.0
 10
-41.79554175471122
 20
0.0055916371960102
 30
0.0
 10
-41.56353367553162
 20
0.0541308627261792
 30
0.0
 10
-41.45020582317534
 20
0.0863346004993629
 30
0.0
 10
-41.11575298427699
 20
0.2346834892425637
 30
0.0
 10
-40.92623443485856
 20
0.3715143672100231
 30
0.0
 10
-40.43798862140982
 20
0.8257434558627192
 30
0.0
 10
-40.14147485907749
 20
1.222072859692235
 30
0.0
 10
-39.77371860879566
 20
1.772528112709688
 30
0.0
 10
-39.70170835740759
 20
1.883620905096397
 30
0.0
 10
-39.33177577532728
 20
2.461317352128569
 30
0.0
 10
-39.00264963161659
 20
2.998519778054968
 30
0.0
 10
-38.45979783019649
 20
3.564268947436482
 30
0.0
 10
-38.28435361102085
 20
3.710852036153889
 30
0.0
 10
-37.98931928007534
 20
3.876110342621144
 30
0.0
 10
-37.88158770987307
 20
3.921250057173456
 30
0.0
 10
-37.62492486987929
 20
3.992010544073397
 30
0.0
 10
-37.51041334264924
 20
3.998443238970466
 30
0.0
 10
-37.41421356486146
 20
4.0000000000327
 30
0.0
  0
ARC
  5
6A84
330
6A80
100
AcDbEntity
  8
0
100
AcDbCircle
 10
-42.0
 20
4.000000000000069
 30
0.0
 40
4.0
100
AcDbArc
 50
359.9998160736932
 51
0.0
  0
ARC
  5
6A85
330
6A80
100
AcDbEntity
  8
0
100
AcDbCircle
 10
-42.0
 20
4.000000000000069
 30
0.0
 40
4.0
100
AcDbArc
 50
310.2468582822744
 51
358.065591277352
  0
SPLINE
  5
6A86
330
6A80
100
AcDbEntity
  8
0
100
AcDbSpline
210
0.0
220
0.0
230
1.0
 70
     8
 71
     3
 72
    16
 73
    12
 74
     0
 42
0.000000001
 43
0.0000000001
 40
0.0000009999911858
 40
0.0000009999911858
 40
0.0000009999911858
 40
0.0000009999911858
 40
0.0718750345617814
 40
0.0718750345617814
 40
0.166544107970277
 40
0.166544107970277
 40
0.2578547156094737
 40
0.2578547156094737
 40
0.2835425802448492
 40
0.2835425802448492
 40
0.3161076508500028
 40
0.3161076508500028
 40
0.3161076508500028
 40
0.3161076508500028
 10
-38.82842712474618
 20
4.00000000000002
 30
0.0
 10
-38.99710565623337
 20
3.998644442753987
 30
0.0
 10
-39.2651231743089
 20
3.986431646800215
 30
0.0
 10
-39.89911048117414
 20
3.661413701975482
 30
0.0
 10
-40.11218065143339
 20
3.332345902530296
 30
0.0
 10
-40.54937195951009
 20
2.682314141160293
 30
0.0
 10
-40.77403829972951
 20
2.345681831982785
 30
0.0
 10
-41.29444413069115
 20
2.103519489129976
 30
0.0
 10
-41.42074791079532
 20
2.06344332595941
 30
0.0
 10
-41.74310436125042
 20
2.003732316800818
 30
0.0
 10
-41.90272663673735
 20
2.001178405688847
 30
0.0
 10
-41.99999999999997
 20
1.999999999999883
 30
0.0
  0
LINE
  5
6A87
330
6A80
100
AcDbEntity
  8
0
100
AcDbLine
 10
-38.82842712474618
 20
5.000000000000031
 30
0.0
 11
-40.0
 21
5.000000000000031
 31
0.0
  0
ARC
  5
6A88
330
6A80
100
AcDbEntity
  8
0
100
AcDbCircle
 10
-42.0
 20
4.000000000000069
 30
0.0
 40
2.0
100
AcDbArc
 50
339.7110128503399
 51
339.7159771847183
  0
SPLINE
  5
6A89
330
6A80
100
AcDbEntity
  8
0
100
AcDbSpline
210
0.0
220
0.0
230
1.0
 70
     8
 71
     3
 72
    26
 73
    22
 74
     0
 42
0.000000001
 43
0.0000000001
 40
0.1651836007890062
 40
0.1651836007890062
 40
0.1651836007890062
 40
0.1651836007890062
 40
0.1704450118482069
 40
0.1704450118482069
 40
0.1764623920249527
 40
0.1764623920249527
 40
0.1886425646744038
 40
0.1886425646744038
 40
0.2007510452196346
 40
0.2007510452196346
 40
0.2037530699663798
 40
0.2037530699663798
 40
0.2063124120322135
 40
0.2063124120322135
 40
0.2088065401367897
 40
0.2088065401367897
 40
0.2112342360444129
 40
0.2112342360444129
 40
0.2156279022479469
 40
0.2156279022479469
 40
0.2206056627316676
 40
0.2206056627316676
 40
0.2206056627316676
 40
0.2206056627316676
 10
-41.66599840854767
 20
0.0179419852646998
 30
0.0
 10
-41.66599840855902
 20
0.0179419852635965
 30
0.0
 10
-41.66707469704165
 20
0.0178366425407442
 30
0.0
 10
-41.67261935385819
 20
0.0172961638309582
 30
0.0
 10
-41.67762231224716
 20
0.0168081771237553
 30
0.0
 10
-41.69874325435817
 20
0.0148149284387071
 30
0.0
 10
-41.72114583241351
 20
0.0127767597623165
 30
0.0
 10
-41.77334577807299
 20
0.0087613698271447
 30
0.0
 10
-41.80355319040864
 20
0.0067310485172367
 30
0.0
 10
-41.84707748149782
 20
0.0045360285329866
 30
0.0
 10
-41.85610673189209
 20
0.0041120447544628
 30
0.0
 10
-41.87347854449341
 20
0.0033634724739334
 30
0.0
 10
-41.88181160623824
 20
0.0030301667430522
 30
0.0
 10
-41.89849989225105
 20
0.0024164486137195
 30
0.0
 10
-41.90698716708106
 20
0.0021304242585836
 30
0.0
 10
-41.92317277891356
 20
0.0016301932069249
 30
0.0
 10
-41.93102701194381
 20
0.0014096297419227
 30
0.0
 10
-41.95140333025665
 20
0.0008805669298051
 30
0.0
 10
-41.96297958771167
 20
0.000631399716091
 30
0.0
 10
-41.98362122548177
 20
0.0002272531131443
 30
0.0
 10
-41.99264515218324
 20
0.0000789269440364
 30
0.0
 10
-41.99999907360385
 20
-0.0000342878470434
 30
0.0
  0
SPLINE
  5
6A8A
330
6A80
100
AcDbEntity
  8
0
100
AcDbSpline
210
0.0
220
0.0
230
1.0
 70
     8
 71
     3
 72
    12
 73
     8
 74
     0
 42
0.000000001
 43
0.0000000001
 40
0.0075391081050746
 40
0.0075391081050746
 40
0.0075391081050746
 40
0.0075391081050746
 40
0.0082856681657918
 40
0.0082856681657918
 40
0.0102486121721366
 40
0.0102486121721366
 40
0.0136153496581706
 40
0.0136153496581706
 40
0.0136153496581706
 40
0.0136153496581706
 10
-41.95156193338497
 20
0.000997794032426
 30
0.0
 10
-41.95156193338992
 20
0.000997794032305
 30
0.0
 10
-41.95172230581136
 20
0.0009938699240824
 30
0.0
 10
-41.95270953225047
 20
0.000969619322449
 30
0.0
 10
-41.95417995215963
 20
0.0009333701873986
 30
0.0
 10
-41.95920547285237
 20
0.000810751450819
 30
0.0
 10
-41.96354971425761
 20
0.0007060679270942
 30
0.0
 10
-41.96847972212315
 20
0.0005915031263281
 30
0.0
  0
SPLINE
  5
6A8B
330
6A80
100
AcDbEntity
  8
0
100
AcDbSpline
210
0.0
220
0.0
230
1.0
 70
     8
 71
     3
 72
    18
 73
    14
 74
     0
 42
0.000000001
 43
0.0000000001
 40
0.0
 40
0.0
 40
0.0
 40
0.0
 40
0.1282929053724411
 40
0.1282929053724411
 40
0.1571918086121979
 40
0.1571918086121979
 40
0.1892284982904986
 40
0.1892284982904986
 40
0.2270336248820521
 40
0.2270336248820521
 40
0.2578561561690341
 40
0.2578561561690341
 40
0.2995100740196942
 40
0.2995100740196942
 40
0.2995100740196942
 40
0.2995100740196942
 10
-39.41567151878027
 20
0.9469284458195371
 30
0.0
 10
-39.72775467273203
 20
0.6827596634548882
 30
0.0
 10
-40.06859167617554
 20
0.4698231339621937
 30
0.0
 10
-40.52807714694878
 20
0.2731901474141396
 30
0.0
 10
-40.61495206483723
 20
0.2395688921987275
 30
0.0
 10
-40.80386891904648
 20
0.1746904988168241
 30
0.0
 10
-40.90805506420472
 20
0.1437810260132055
 30
0.0
 10
-41.13317913543624
 20
0.0872899453277121
 30
0.0
 10
-41.25700284710688
 20
0.062858014218113
 30
0.0
 10
-41.46022946024049
 20
0.0315186464512719
 30
0.0
 10
-41.54695563127135
 20
0.021421446832177
 30
0.0
 10
-41.74968920195393
 20
0.0046512016725874
 30
0.0
 10
-41.87196619719006
 20
0.0005229254460833
 30
0.0
 10
-41.99999911111116
 20
-0.0000431688935344
 30
0.0
  0
SPLINE
  5
6A8C
330
6A80
100
AcDbEntity
  8
0
100
AcDbSpline
210
0.0
220
0.0
230
1.0
 70
     8
 71
     3
 72
    16
 73
    12
 74
     0
 42
0.000000001
 43
0.0000000001
 40
0.0
 40
0.0
 40
0.0
 40
0.0
 40
0.0049733516430309
 40
0.0049733516430309
 40
0.0071136831367473
 40
0.0071136831367473
 40
0.0085842268639489
 40
0.0085842268639489
 40
0.0096367294212023
 40
0.0096367294212023
 40
0.0108132463876393
 40
0.0108132463876393
 40
0.0108132463876393
 40
0.0108132463876393
 10
-42.00000359214718
 20
2.000203272810701
 30
0.0
 10
-41.98408736126038
 20
2.000512748783282
 30
0.0
 10
-41.9685761989952
 20
2.000896381366628
 30
0.0
 10
-41.94972246540188
 20
2.001465650026588
 30
0.0
 10
-41.944416484987
 20
2.001640626933953
 30
0.0
 10
-41.9367874385244
 20
2.001908172338829
 30
0.0
 10
-41.934022236837
 20
2.002010261591954
 30
0.0
 10
-41.93026375837102
 20
2.00215307844669
 30
0.0
 10
-41.92897838610671
 20
2.002203386309277
 30
0.0
 10
-41.92705908266903
 20
2.0022794055929
 30
0.0
 10
-41.92650980032442
 20
2.002301833128556
 30
0.0
 10
-41.92650980034823
 20
2.002301833127587
 30
0.0
  0
SPLINE
  5
6A8D
330
6A80
100
AcDbEntity
  8
0
100
AcDbSpline
210
0.0
220
0.0
230
1.0
 70
     8
 71
     3
 72
    10
 73
     6
 74
     0
 42
0.000000001
 43
0.0000000001
 40
0.0
 40
0.0
 40
0.0
 40
0.0
 40
0.0139236014253321
 40
0.0139236014253321
 40
0.0150111009496226
 40
0.0150111009496226
 40
0.0150111009496226
 40
0.0150111009496226
 10
-42.00000765931489
 20
2.000201067541383
 30
0.0
 10
-41.9851949830118
 20
2.000759780798091
 30
0.0
 10
-41.97494005876329
 20
2.001267712149171
 30
0.0
 10
-41.97372127025508
 20
2.001327971860729
 30
0.0
 10
-41.97367831613506
 20
2.001330114405755
 30
0.0
 10
-41.97367831610202
 20
2.001330114407402
 30
0.0
  0
SPLINE
  5
6A8E
330
6A80
100
AcDbEntity
  8
0
100
AcDbSpline
210
0.0
220
0.0
230
1.0
 70
     8
 71
     3
 72
    46
 73
    42
 74
     0
 42
0.000000001
 43
0.0000000001
 40
0.0985608015199428
 40
0.0985608015199428
 40
0.0985608015199428
 40
0.0985608015199428
 40
0.0993416715175332
 40
0.0993416715175332
 40
0.1344867300385575
 40
0.1344867300385575
 40
0.1567453792192812
 40
0.1567453792192812
 40
0.174429340645509
 40
0.174429340645509
 40
0.1921068786838341
 40
0.1921068786838341
 40
0.227684415480618
 40
0.227684415480618
 40
0.2657126514535337
 40
0.2657126514535337
 40
0.3213020884043794
 40
0.3213020884043794
 40
0.4053564431299158
 40
0.4053564431299158
 40
0.4268874636526076
 40
0.4268874636526076
 40
0.4377327367390408
 40
0.4377327367390408
 40
0.4465695507903513
 40
0.4465695507903513
 40
0.4645089095015375
 40
0.4645089095015375
 40
0.4999848215680239
 40
0.4999848215680239
 40
0.5417933823703678
 40
0.5417933823703678
 40
0.6435567926050271
 40
0.6435567926050271
 40
0.6743353535576641
 40
0.6743353535576641
 40
0.6906513634260607
 40
0.6906513634260607
 40
0.6991801263949955
 40
0.6991801263949955
 40
0.7047313049012648
 40
0.7047313049012648
 40
0.7047313049012648
 40
0.7047313049012648
 10
-41.98856286612382
 20
2.000656747298937
 30
0.0
 10
-41.98599011313445
 20
2.000808661112572
 30
0.0
 10
-41.98335442092916
 20
2.000967185294212
 30
0.0
 10
-41.86391516093614
 20
2.008285718631818
 30
0.0
 10
-41.74620155652365
 20
2.021527037966662
 30
0.0
 10
-41.56037785644206
 20
2.056057404584108
 30
0.0
 10
-41.48913789057084
 20
2.072838540340892
 30
0.0
 10
-41.37065395640731
 20
2.107050288484674
 30
0.0
 10
-41.32095462435778
 20
2.123772163839918
 30
0.0
 10
-41.23224375044931
 20
2.157303039571058
 30
0.0
 10
-41.19261678426041
 20
2.174277389833715
 30
0.0
 10
-41.08901069872675
 20
2.222451056766353
 30
0.0
 10
-41.03868340703124
 20
2.251203717520898
 30
0.0
 10
-40.95546452681957
 20
2.302566362574512
 30
0.0
 10
-40.92329230283798
 20
2.325153874929103
 30
0.0
 10
-40.84724487920809
 20
2.382531985110206
 30
0.0
 10
-40.8009789430048
 20
2.421992853572838
 30
0.0
 10
-40.68659740294769
 20
2.534280599892567
 30
0.0
 10
-40.64004120388751
 20
2.593838371667007
 30
0.0
 10
-40.62904525845225
 20
2.607799877931328
 30
0.0
 10
-40.62818417601028
 20
2.608851736304853
 30
0.0
 10
-40.61856592293766
 20
2.621359867299834
 30
0.0
 10
-40.61367436914036
 20
2.62773191082672
 30
0.0
 10
-40.59966501832867
 20
2.646539100612268
 30
0.0
 10
-40.59138488532318
 20
2.657803615567635
 30
0.0
 10
-40.56156170528575
 20
2.699780546985079
 30
0.0
 10
-40.53501901994365
 20
2.739097922450751
 30
0.0
 10
-40.45706704607802
 20
2.865717356195069
 30
0.0
 10
-40.40522017523483
 20
2.96440477544365
 30
0.0
 10
-40.30760105206424
 20
3.184156285906202
 30
0.0
 10
-40.2623991485137
 20
3.30901604247507
 30
0.0
 10
-40.13101837521723
 20
3.743052375482258
 30
0.0
 10
-40.07702675791451
 20
4.058450524633315
 30
0.0
 10
-40.03249713732851
 20
4.469646732250465
 30
0.0
 10
-40.02391195460798
 20
4.566654165508639
 30
0.0
 10
-40.01317115116285
 20
4.720423787338797
 30
0.0
 10
-40.00988846824307
 20
4.774947124246628
 30
0.0
 10
-40.0056742349131
 20
4.857643659339679
 30
0.0
 10
-40.00434757986886
 20
4.886397064155596
 30
0.0
 10
-40.00242098549998
 20
4.93264789470781
 30
0.0
 10
-40.00171802162222
 20
4.950818528476342
 30
0.0
 10
-40.00108119502367
 20
4.968520483023909
 30
0.0
  0
SPLINE
  5
6A8F
330
6A80
100
AcDbEntity
  8
0
100
AcDbSpline
210
0.0
220
0.0
230
1.0
 70
     8
 71
     3
 72
    20
 73
    16
 74
     0
 42
0.000000001
 43
0.0000000001
 40
0.0296914789654151
 40
0.0296914789654151
 40
0.0296914789654151
 40
0.0296914789654151
 40
0.0309061045848314
 40
0.0309061045848314
 40
0.0341089536017843
 40
0.0341089536017843
 40
0.0385232617991339
 40
0.0385232617991339
 40
0.0447939543131378
 40
0.0447939543131378
 40
0.0532619873005504
 40
0.0532619873005504
 40
0.0629807934732905
 40
0.0629807934732905
 40
0.0650275576458237
 40
0.0650275576458237
 40
0.0650275576458237
 40
0.0650275576458237
 10
-40.01024851868469
 20
4.750370114866769
 30
0.0
 10
-40.01024851868463
 20
4.750370114867678
 30
0.0
 10
-40.01023453634717
 20
4.750615213950559
 30
0.0
 10
-40.01014132625235
 20
4.752262692203768
 30
0.0
 10
-40.00999208251245
 20
4.754915364441055
 30
0.0
 10
-40.00952329631551
 20
4.763474604623542
 30
0.0
 10
-40.0091576113185
 20
4.770294498874455
 30
0.0
 10
-40.00817187685512
 20
4.789481752537995
 30
0.0
 10
-40.00750044972057
 20
4.803162173928436
 30
0.0
 10
-40.00587685448995
 20
4.838614625521278
 30
0.0
 10
-40.00488965149634
 20
4.861983460553219
 30
0.0
 10
-40.00283326640779
 20
4.91562705389367
 30
0.0
 10
-40.00173607177187
 20
4.94738207316923
 30
0.0
 10
-40.00052071159276
 20
4.986361197311084
 30
0.0
 10
-40.00031257682032
 20
4.993184293215771
 30
0.0
 10
-40.0001090878665
 20
5.000003407241994
 30
0.0
  0
LINE
  5
6A90
330
6A80
100
AcDbEntity
  8
0
100
AcDbLine
 10
-35.99999999999999
 20
4.00000000000007
 30
0.0
 11
-38.82842712474618
 21
4.000000000000071
 31
0.0
  0
LINE
  5
6A91
330
6A80
100
AcDbEntity
  8
0
100
AcDbLine
 10
-40.0
 20
5.000000000000034
 30
0.0
 11
-40.0
 21
87.79011477749447
 31
0.0
  0
LINE
  5
6A92
330
6A80
100
AcDbEntity
  8
0
100
AcDbLine
 10
-39.99043758829491
 20
88.00000000000004
 30
0.0
 11
-36.00000000000001
 21
88.00000000000004
 31
0.0
  0
SPLINE
  5
6A93
330
6A80
100
AcDbEntity
  8
0
100
AcDbSpline
210
0.0
220
0.0
230
1.0
 70
     8
 71
     3
 72
    10
 73
     6
 74
     0
 42
0.000000001
 43
0.0000000001
 40
0.0
 40
0.0
 40
0.0
 40
0.0
 40
0.0173628638240743
 40
0.0173628638240743
 40
0.0347257276482705
 40
0.0347257276482705
 40
0.0347257276482705
 40
0.0347257276482705
 10
-39.99043758829491
 20
88.0
 30
0.0
 10
-39.99362386750188
 20
87.96501825223343
 30
0.0
 10
-39.9960145895443
 20
87.93003913201633
 30
0.0
 10
-39.99920277500307
 20
87.86007564547787
 30
0.0
 10
-40.0
 20
87.82509652526091
 30
0.0
 10
-40.0
 20
87.79011477749447
 30
0.0
  0
ARC
  5
6A94
330
6A80
100
AcDbEntity
  8
0
100
AcDbCircle
 10
42.0
 20
4.000000000000007
 30
0.0
 40
2.0
100
AcDbArc
 50
200.2862773476863
 51
200.288877039901
  0
LINE
  5
6A95
330
6A80
100
AcDbEntity
  8
0
100
AcDbLine
 10
40.0
 20
5.000000000000039
 30
0.0
 11
38.82842712474618
 21
5.000000000000039
 31
0.0
  0
SPLINE
  5
6A96
330
6A80
100
AcDbEntity
  8
0
100
AcDbSpline
210
0.0
220
0.0
230
1.0
 70
     8
 71
     3
 72
    17
 73
    13
 74
     0
 42
0.000000001
 43
0.0000000001
 40
-1.0
 40
-1.0
 40
-1.0
 40
-1.0
 40
-0.8075008026557741
 40
-0.8075008026557741
 40
-0.8075008026557741
 40
-0.3673043690199931
 40
-0.3673043690199931
 40
-0.3673043690199931
 40
-0.0692670293203787
 40
-0.0692670293203787
 40
-0.0692670293203787
 40
0.0
 40
0.0
 40
0.0
 40
0.0
 10
38.82842712474616
 20
4.000000000000029
 30
0.0
 10
39.1748248375702
 20
3.997232375251095
 30
0.0
 10
39.40826240093207
 20
3.927192702826199
 30
0.0
 10
39.61007469190258
 20
3.806530202499282
 30
0.0
 10
40.07156778888531
 20
3.530605923072263
 30
0.0
 10
40.27516509505095
 20
3.025804898946333
 30
0.0
 10
40.61677552502001
 20
2.611893434375413
 30
0.0
 10
40.84806468590826
 20
2.331652472964177
 30
0.0
 10
41.14842043713536
 20
2.096581487341904
 30
0.0
 10
41.6344007423846
 20
2.025254235799761
 30
0.0
 10
41.74734770428794
 20
2.00867702829653
 30
0.0
 10
41.869808041935
 20
1.999977827456585
 30
0.0
 10
41.99999999997358
 20
1.999999999984505
 30
0.0
  0
SPLINE
  5
6A97
330
6A80
100
AcDbEntity
  8
0
100
AcDbSpline
210
0.0
220
0.0
230
1.0
 70
     8
 71
     3
 72
    17
 73
    13
 74
     0
 42
0.000000001
 43
0.0000000001
 40
0.0
 40
0.0
 40
0.0
 40
0.0
 40
0.3116856401116683
 40
0.3116856401116683
 40
0.3116856401116683
 40
0.676515214451788
 40
0.676515214451788
 40
0.676515214451788
 40
0.9257875621510233
 40
0.9257875621510233
 40
0.9257875621510233
 40
1.0
 40
1.0
 40
1.0
 40
1.0
 10
42.0
 20
0.0000000000000115
 30
0.0
 10
41.34927248127997
 20
-0.0000007684604947
 30
0.0
 10
40.83059195556017
 20
0.3893676363601151
 30
0.0
 10
40.38653810845722
 20
0.9255882594725862
 30
0.0
 10
39.86677089696609
 20
1.553237135476075
 30
0.0
 10
39.43324272183915
 20
2.375613685127512
 30
0.0
 10
38.94578445049862
 20
3.01351783590392
 30
0.0
 10
38.61272519146723
 20
3.449370289912708
 30
0.0
 10
38.24999676613034
 20
3.800200935080044
 30
0.0
 10
37.82135037482366
 20
3.936753427400165
 30
0.0
 10
37.69373536269878
 20
3.977407328416322
 30
0.0
 10
37.55913361298305
 20
3.997653159118835
 30
0.0
 10
37.41421356424558
 20
4.000000000042676
 30
0.0
  0
ARC
  5
6A98
330
6A80
100
AcDbEntity
  8
0
100
AcDbCircle
 10
42.0
 20
4.000000000000007
 30
0.0
 40
4.0
100
AcDbArc
 50
181.9339575463598
 51
229.7523465820707
  0
ARC
  5
6A99
330
6A80
100
AcDbEntity
  8
0
100
AcDbCircle
 10
42.0
 20
4.000000000000007
 30
0.0
 40
4.000000000000001
100
AcDbArc
 50
180.0
 51
180.0001839263067
  0
ARC
  5
6A9A
330
6A80
100
AcDbEntity
  8
0
100
AcDbCircle
 10
42.0
 20
4.000000000000007
 30
0.0
 40
4.0
100
AcDbArc
 50
229.7523465820707
 51
229.7531417177182
  0
SPLINE
  5
6A9B
330
6A80
100
AcDbEntity
  8
0
100
AcDbSpline
210
0.0
220
0.0
230
1.0
 70
     8
 71
     3
 72
     8
 73
     4
 74
     0
 42
0.000000001
 43
0.0000000001
 40
0.0534501705287171
 40
0.0534501705287171
 40
0.0534501705287171
 40
0.0534501705287171
 40
0.0684053592964932
 40
0.0684053592964932
 40
0.0684053592964932
 40
0.0684053592964932
 10
41.97367831610259
 20
2.001330114407385
 30
0.0
 10
41.97367831548466
 20
2.001330114438192
 30
0.0
 10
41.98409788147059
 20
2.000801159533458
 30
0.0
 10
42.00000807915665
 20
2.000201051705587
 30
0.0
  0
SPLINE
  5
6A9C
330
6A80
100
AcDbEntity
  8
0
100
AcDbSpline
210
0.0
220
0.0
230
1.0
 70
     8
 71
     3
 72
    18
 73
    14
 74
     0
 42
0.000000001
 43
0.0000000001
 40
0.0128596669983275
 40
0.0128596669983275
 40
0.0128596669983275
 40
0.0128596669983275
 40
0.0133921374884658
 40
0.0133921374884658
 40
0.0148032865054555
 40
0.0148032865054555
 40
0.0163503526799143
 40
0.0163503526799143
 40
0.0183531320349787
 40
0.0183531320349787
 40
0.0211591712142521
 40
0.0211591712142521
 40
0.0236932427752975
 40
0.0236932427752975
 40
0.0236932427752975
 40
0.0236932427752975
 10
41.92650980034834
 20
2.002301833127593
 30
0.0
 10
41.92650980035392
 20
2.002301833127366
 30
0.0
 10
41.92661989581214
 20
2.002297351893444
 30
0.0
 10
41.92740125559582
 20
2.002265863968193
 30
0.0
 10
41.92872910756584
 20
2.002212613279576
 30
0.0
 10
41.93267519830237
 20
2.002060732227084
 30
0.0
 10
41.93542768052828
 20
2.001957576358433
 30
0.0
 10
41.94266816893765
 20
2.001700391436692
 30
0.0
 10
41.9474848929235
 20
2.001538496662256
 30
0.0
 10
41.95990746775776
 20
2.001153364831374
 30
0.0
 10
41.96796908338282
 20
2.000928180869465
 30
0.0
 10
41.98395022039893
 20
2.000535011031849
 30
0.0
 10
41.99189328509278
 20
2.000360970837695
 30
0.0
 10
42.00000307272
 20
2.000203282910505
 30
0.0
  0
SPLINE
  5
6A9D
330
6A80
100
AcDbEntity
  8
0
100
AcDbSpline
210
0.0
220
0.0
230
1.0
 70
     8
 71
     3
 72
    20
 73
    16
 74
     0
 42
0.000000001
 43
0.0000000001
 40
0.0
 40
0.0
 40
0.0
 40
0.0
 40
0.0069081279591438
 40
0.0069081279591438
 40
0.0142318305238026
 40
0.0142318305238026
 40
0.0235350792117431
 40
0.0235350792117431
 40
0.028194888449726
 40
0.028194888449726
 40
0.0319845688874767
 40
0.0319845688874767
 40
0.0347900771555982
 40
0.0347900771555982
 40
0.0353499342692335
 40
0.0353499342692335
 40
0.0353499342692335
 40
0.0353499342692335
 10
40.0001090878665
 20
5.000003407242003
 30
0.0
 10
40.00079589279991
 20
4.976987901648687
 30
0.0
 10
40.00153968680663
 20
4.953828183378194
 30
0.0
 10
40.00309885663405
 20
4.908697591519373
 30
0.0
 10
40.00393493522051
 20
4.886340288332132
 30
0.0
 10
40.00582555302124
 20
4.839545094063887
 30
0.0
 10
40.00690919916657
 20
4.815506852683263
 30
0.0
 10
40.00835202567432
 20
4.785928288483352
 30
0.0
 10
40.00880690666675
 20
4.777037180936366
 30
0.0
 10
40.00950876810527
 20
4.763731816392217
 30
0.0
 10
40.00978184193715
 20
4.758731029624318
 30
0.0
 10
40.01011415838563
 20
4.752737515076408
 30
0.0
 10
40.01021143106439
 20
4.751022427886007
 30
0.0
 10
40.01024556433931
 20
4.750421915594324
 30
0.0
 10
40.01024851887727
 20
4.750370111489933
 30
0.0
 10
40.01024851868453
 20
4.750370114869783
 30
0.0
  0
SPLINE
  5
6A9E
330
6A80
100
AcDbEntity
  8
0
100
AcDbSpline
210
0.0
220
0.0
230
1.0
 70
     8
 71
     3
 72
    52
 73
    48
 74
     0
 42
0.000000001
 43
0.0000000001
 40
0.0033837507721109
 40
0.0033837507721109
 40
0.0033837507721109
 40
0.0033837507721109
 40
0.0046229100128108
 40
0.0046229100128108
 40
0.0123441997262579
 40
0.0123441997262579
 40
0.021441220713489
 40
0.021441220713489
 40
0.0490277376250507
 40
0.0490277376250507
 40
0.0820737837142027
 40
0.0820737837142027
 40
0.1814883146899437
 40
0.1814883146899437
 40
0.2200616229357102
 40
0.2200616229357102
 40
0.2408879292587034
 40
0.2408879292587034
 40
0.2509256372419257
 40
0.2509256372419257
 40
0.2614249786392914
 40
0.2614249786392914
 40
0.2748611760994019
 40
0.2748611760994019
 40
0.2865800497228197
 40
0.2865800497228197
 40
0.3086876626208994
 40
0.3086876626208994
 40
0.3686133363447018
 40
0.3686133363447018
 40
0.4404229592902083
 40
0.4404229592902083
 40
0.4892857923393386
 40
0.4892857923393386
 40
0.5129224433566587
 40
0.5129224433566587
 40
0.5313469710405706
 40
0.5313469710405706
 40
0.5559374404978385
 40
0.5559374404978385
 40
0.5778338138638991
 40
0.5778338138638991
 40
0.6089664599028091
 40
0.6089664599028091
 40
0.6096864913252853
 40
0.6096864913252853
 40
0.6098230614175403
 40
0.6098230614175403
 40
0.6098230614175403
 40
0.6098230614175403
 10
40.00108216515703
 20
4.968493517140856
 30
0.0
 10
40.00122415249777
 20
4.964546981540329
 30
0.0
 10
40.00136928665508
 20
4.960580212863069
 30
0.0
 10
40.00243844681563
 20
4.931847139992139
 30
0.0
 10
40.00349200369035
 20
4.906164868642043
 30
0.0
 10
40.00602967651312
 20
4.850161827641107
 30
0.0
 10
40.00755310509457
 20
4.819852548854473
 30
0.0
 10
40.01431392350451
 20
4.697902514770447
 30
0.0
 10
40.02083308239954
 20
4.606896204660527
 30
0.0
 10
40.03778444988633
 20
4.415190296164495
 30
0.0
 10
40.04888479510579
 20
4.313373622697226
 30
0.0
 10
40.10303659958609
 20
3.90532749314852
 30
0.0
 10
40.16561939335161
 20
3.594459988139511
 30
0.0
 10
40.30862896643754
 20
3.183451870196878
 30
0.0
 10
40.35509630296989
 20
3.070584964725174
 30
0.0
 10
40.43600473093173
 20
2.907537644020096
 30
0.0
 10
40.46637998139009
 20
2.852046998376295
 30
0.0
 10
40.51157257915614
 20
2.776832764734121
 30
0.0
 10
40.52633161595803
 20
2.75340278910334
 30
0.0
 10
40.55506210446147
 20
2.709582360407311
 30
0.0
 10
40.56909949342145
 20
2.689192917958571
 30
0.0
 10
40.59594546937751
 20
2.651357683599379
 30
0.0
 10
40.60719954810117
 20
2.636363310589882
 30
0.0
 10
40.62015308299084
 20
2.619251162930921
 30
0.0
 10
40.623395092149
 20
2.615076511893685
 30
0.0
 10
40.62960177256508
 20
2.607072004808932
 30
0.0
 10
40.63040987886779
 20
2.606053107759676
 30
0.0
 10
40.64134154312029
 20
2.592254485422848
 30
0.0
 10
40.66836206919439
 20
2.557797557721819
 30
0.0
 10
40.76465710575941
 20
2.454953743082965
 30
0.0
 10
40.8289264676153
 20
2.396838592963635
 30
0.0
 10
40.92643650376966
 20
2.322487856000904
 30
0.0
 10
40.96715155079144
 20
2.293769297123214
 30
0.0
 10
41.05973451071297
 20
2.239769843053165
 30
0.0
 10
41.09531249330941
 20
2.220367028153688
 30
0.0
 10
41.17286440928544
 20
2.183074125332525
 30
0.0
 10
41.21225799502923
 20
2.165584758428438
 30
0.0
 10
41.31660444684739
 20
2.124750210243878
 30
0.0
 10
41.38736200949839
 20
2.101058005867037
 30
0.0
 10
41.52887287192131
 20
2.063194056294093
 30
0.0
 10
41.59967345026365
 20
2.047901858446176
 30
0.0
 10
41.77252233487218
 20
2.018623762815701
 30
0.0
 10
41.87651656610622
 20
2.007535193821258
 30
0.0
 10
41.98242727531522
 20
2.001023572580931
 30
0.0
 10
41.98482449723925
 20
2.000878667266175
 30
0.0
 10
41.9876573773025
 20
2.000710301287258
 30
0.0
 10
41.98811055938822
 20
2.000683454737018
 30
0.0
 10
41.98856286612575
 20
2.000656747298832
 30
0.0
  0
SPLINE
  5
6A9F
330
6A80
100
AcDbEntity
  8
0
100
AcDbSpline
210
0.0
220
0.0
230
1.0
 70
     8
 71
     3
 72
     8
 73
     4
 74
     0
 42
0.000000001
 43
0.0000000001
 40
0.0
 40
0.0
 40
0.0
 40
0.0
 40
0.0005089483123221
 40
0.0005089483123221
 40
0.0005089483123221
 40
0.0005089483123221
 10
41.99999941705505
 20
-0.000034293134511
 30
0.0
 10
41.99924752467057
 20
-0.0000227176669057
 30
0.0
 10
41.99847816207024
 20
-0.000010757249959
 30
0.0
 10
41.99769119944512
 20
0.000001609578183
 30
0.0
  0
SPLINE
  5
6AA0
330
6A80
100
AcDbEntity
  8
0
100
AcDbSpline
210
0.0
220
0.0
230
1.0
 70
     8
 71
     3
 72
    24
 73
    20
 74
     0
 42
0.000000001
 43
0.0000000001
 40
0.010097597899876
 40
0.010097597899876
 40
0.010097597899876
 40
0.010097597899876
 40
0.0108101296881926
 40
0.0108101296881926
 40
0.0135300737147687
 40
0.0135300737147687
 40
0.0161110679028559
 40
0.0161110679028559
 40
0.0193982405181078
 40
0.0193982405181078
 40
0.0244822257037687
 40
0.0244822257037687
 40
0.0333049294735527
 40
0.0333049294735527
 40
0.0399825094323263
 40
0.0399825094323263
 40
0.0460135338354776
 40
0.0460135338354776
 40
0.0555032815426276
 40
0.0555032815426276
 40
0.0555032815426276
 40
0.0555032815426276
 10
41.93186817220619
 20
0.00139200327448
 30
0.0
 10
41.92965567825795
 20
0.0014523731118029
 30
0.0
 10
41.92740639707483
 20
0.0015152870100766
 30
0.0
 10
41.91644595641377
 20
0.0018300363425472
 30
0.0
 10
41.90719037094696
 20
0.0021217039026104
 30
0.0
 10
41.88954964643006
 20
0.0027367425584974
 30
0.0
 10
41.88097748979539
 20
0.0030628634408401
 30
0.0
 10
41.8622841415024
 20
0.0038328984830318
 30
0.0
 10
41.85220360349943
 20
0.0042910694487635
 30
0.0
 10
41.82778072146243
 20
0.0054944184718196
 30
0.0
 10
41.81389287959017
 20
0.0062696511192058
 30
0.0
 10
41.77811744081326
 20
0.0084585100567072
 30
0.0
 10
41.75746765611562
 20
0.0099489335212738
 30
0.0
 10
41.7253479611709
 20
0.0124961626155914
 30
0.0
 10
41.71280141863447
 20
0.0135763424768033
 30
0.0
 10
41.69271736822821
 20
0.0153796447359721
 30
0.0
 10
41.68477849568504
 20
0.0161288892420549
 30
0.0
 10
41.66978127241652
 20
0.017564155000086
 30
0.0
 10
41.66599840451309
 20
0.0179419856570316
 30
0.0
 10
41.66599840854745
 20
0.0179419852647314
 30
0.0
  0
SPLINE
  5
6AA1
330
6A80
100
AcDbEntity
  8
0
100
AcDbSpline
210
0.0
220
0.0
230
1.0
 70
     8
 71
     3
 72
    24
 73
    20
 74
     0
 42
0.000000001
 43
0.0000000001
 40
0.0
 40
0.0
 40
0.0
 40
0.0
 40
0.0113273976803417
 40
0.0113273976803417
 40
0.0168957416399209
 40
0.0168957416399209
 40
0.0336106526882985
 40
0.0336106526882985
 40
0.0838464802615391
 40
0.0838464802615391
 40
0.1096589463328893
 40
0.1096589463328893
 40
0.1397736166481254
 40
0.1397736166481254
 40
0.1769213576391805
 40
0.1769213576391805
 40
0.2400129585961245
 40
0.2400129585961245
 40
0.3000470331897124
 40
0.3000470331897124
 40
0.3000470331897124
 40
0.3000470331897124
 10
41.99999946928556
 20
-0.0000431704771755
 30
0.0
 10
41.96518212178419
 20
0.0001107720381574
 30
0.0
 10
41.92894586691225
 20
0.0005103220433426
 30
0.0
 10
41.87771978981571
 20
0.0015719758891051
 30
0.0
 10
41.86111851892792
 20
0.0019959819024541
 30
0.0
 10
41.79581140888962
 20
0.003998150698436
 30
0.0
 10
41.74870806263478
 20
0.0062019273587195
 30
0.0
 10
41.56095341268562
 20
0.0183441588217882
 30
0.0
 10
41.42097021927826
 20
0.0347423046173387
 30
0.0
 10
41.18667744237473
 20
0.0772911151599102
 30
0.0
 10
41.10255037674236
 20
0.0951744719107474
 30
0.0
 10
40.92227516797943
 20
0.1400006739059385
 30
0.0
 10
40.82432105175712
 20
0.168533724805435
 30
0.0
 10
40.61453106556021
 20
0.2388784611191989
 30
0.0
 10
40.50309492835693
 20
0.2825379665182844
 30
0.0
 10
40.2129910435493
 20
0.4113493849768526
 30
0.0
 10
40.03979464716043
 20
0.5047995072708806
 30
0.0
 10
39.71481164755603
 20
0.711020219851283
 30
0.0
 10
39.56170939429084
 20
0.8233118799643934
 30
0.0
 10
39.41567151877988
 20
0.9469284458198636
 30
0.0
  0
LINE
  5
6AA2
330
6A80
100
AcDbEntity
  8
0
100
AcDbLine
 10
40.0
 20
87.79011477749447
 30
0.0
 11
40.0
 21
5.000000000000035
 31
0.0
  0
SPLINE
  5
6AA3
330
6A80
100
AcDbEntity
  8
0
100
AcDbSpline
210
0.0
220
0.0
230
1.0
 70
     8
 71
     3
 72
    10
 73
     6
 74
     0
 42
0.000000001
 43
0.0000000001
 40
0.0
 40
0.0
 40
0.0
 40
0.0
 40
0.0173628638240116
 40
0.0173628638240116
 40
0.0347257276479012
 40
0.0347257276479012
 40
0.0347257276479012
 40
0.0347257276479012
 10
40.0
 20
87.79011477749447
 30
0.0
 10
40.0
 20
87.82509652526091
 30
0.0
 10
39.99920277500305
 20
87.86007564547787
 30
0.0
 10
39.99601458954428
 20
87.93003913201633
 30
0.0
 10
39.99362386750186
 20
87.96501825223343
 30
0.0
 10
39.9904375882949
 20
88.0
 30
0.0
  0
LINE
  5
6AA4
330
6A80
100
AcDbEntity
  8
0
100
AcDbLine
 10
35.99999999999997
 20
88.0
 30
0.0
 11
39.99043758829489
 21
87.99999999999986
 31
0.0
  0
LINE
  5
6AA5
330
6A80
100
AcDbEntity
  8
0
100
AcDbLine
 10
38.82842712474618
 20
4.000000000000044
 30
0.0
 11
36.0
 21
4.000000000000044
 31
0.0
  0
LINE
  5
6AA6
330
6A80
100
AcDbEntity
  8
0
100
AcDbLine
 10
79.5
 20
0.0
 30
0.0
 11
79.5
 21
2.000000000000017
 31
0.0
  0
LINE
  5
6AA7
330
6A80
100
AcDbEntity
  8
0
100
AcDbLine
 10
79.5
 20
0.0
 30
0.0
 11
41.99999999999999
 21
0.0
 31
0.0
  0
LINE
  5
6AA8
330
6A80
100
AcDbEntity
  8
0
100
AcDbLine
 10
41.99999999999999
 20
2.000000000000007
 30
0.0
 11
79.5
 21
2.000000000000017
 31
0.0
  0
LINE
  5
6AA9
330
6A80
100
AcDbEntity
  8
0
100
AcDbLine
 10
36.0
 20
88.0
 30
0.0
 11
-36.00000000000001
 21
88.0
 31
0.0
  0
LINE
  5
6AAA
330
6A80
100
AcDbEntity
  8
0
100
AcDbLine
 10
-36.0
 20
4.00000000000007
 30
0.0
 11
36.0
 21
4.000000000000079
 31
0.0
  0
LINE
  5
6AAB
330
6A80
100
AcDbEntity
  8
0
100
AcDbLine
 10
-41.99999999999998
 20
2.000000000000068
 30
0.0
 11
-79.50000000000006
 21
2.000000000000074
 31
0.0
  0
LINE
  5
6AAC
330
6A80
100
AcDbEntity
  8
0
100
AcDbLine
 10
-79.50000000000006
 20
0.0
 30
0.0
 11
-79.50000000000006
 21
2.000000000000074
 31
0.0
  0
LINE
  5
6AAD
330
6A80
100
AcDbEntity
  8
0
100
AcDbLine
 10
-79.50000000000006
 20
0.0
 30
0.0
 11
-41.99999999999998
 21
0.0
 31
0.0
  0
CIRCLE
  5
6AAE
330
6A80
100
AcDbEntity
  8
0
100
AcDbCircle
 10
-0.0000000000000056
 20
50.00000000000001
 30
0.0
 40
2.5
  0
CIRCLE
  5
6AAF
330
6A80
100
AcDbEntity
  8
0
100
AcDbCircle
 10
-0.0000000000000081
 20
70.00000000000001
 30
0.0
 40
2.5
  0
ENDBLK
  5
6A82
330
6A80
100
AcDbEntity
  8
0
100
AcDbBlockEnd
  0
BLOCK
  5
6AB1
330
6AB0
100
AcDbEntity
  8
0
100
AcDbBlockBegin
  2
SAE250_76_2-ISO
 70
     0
 10
0.0
 20
0.0
 30
0.0
  3
SAE250_76_2-ISO
  1

  0
SPLINE
  5
6AB3
330
6AB0
100
AcDbEntity
  8
0
100
AcDbSpline
210
0.0
220
0.0
230
1.0
 70
     8
 71
     3
 72
    18
 73
    14
 74
     0
 42
0.000000001
 43
0.0000000001
 40
-0.3247247981423875
 40
-0.3247247981423875
 40
-0.3247247981423875
 40
-0.3247247981423875
 40
-0.2953422376600528
 40
-0.2953422376600528
 40
-0.2621877360074494
 40
-0.2621877360074494
 40
-0.1299515430622342
 40
-0.1299515430622342
 40
-0.0726851470703916
 40
-0.0726851470703916
 40
-0.0407968752836024
 40
-0.0407968752836024
 40
-0.000001000059102
 40
-0.000001000059102
 40
-0.000001000059102
 40
-0.000001000059102
 10
1.699417878527289
 20
1.723317159263069
 30
0.0
 10
1.679843543220393
 20
1.601095190607755
 30
0.0
 10
1.657912293726129
 20
1.477515245328091
 30
0.0
 10
1.607623249804159
 20
1.21218252926827
 30
0.0
 10
1.579987720038023
 20
1.076571330318194
 30
0.0
 10
1.433076482245034
 20
0.3722311122703714
 30
0.0
 10
1.285944332086219
 20
-0.2781393038925572
 30
0.0
 10
1.269753447929384
 20
-1.20484010452631
 30
0.0
 10
1.290161348989107
 20
-1.488109795200882
 30
0.0
 10
1.381926855933111
 20
-1.928784259785219
 30
0.0
 10
1.426185981510248
 20
-2.082328645328457
 30
0.0
 10
1.557638796021434
 20
-2.429804657065302
 30
0.0
 10
1.634062071266808
 20
-2.573793822373684
 30
0.0
 10
1.700984790185393
 20
-2.692170587743927
 30
0.0
  0
ELLIPSE
  5
6AB4
330
6AB0
100
AcDbEntity
  8
0
100
AcDbEllipse
 10
-1.541655895151277
 20
5.307428722423952
 30
0.0
 11
4.0
 21
-0.0000000000000014
 31
0.0
210
0.0
220
0.0
230
1.0
 40
0.5773502691896259
 41
5.497787143782137
 42
6.283185307179587
  0
LINE
  5
6AB5
330
6AB0
100
AcDbEntity
  8
0
100
AcDbLine
 10
0.5796644484083835
 20
3.266187270104645
 30
0.0
 11
1.286771229594911
 21
3.674435560568496
 31
0.0
  0
LINE
  5
6AB6
330
6AB0
100
AcDbEntity
  8
0
100
AcDbLine
 10
0.579664448408388
 20
-1.706572026991222
 30
0.0
 11
0.579664448408388
 21
3.26618727010465
 31
0.0
  0
ELLIPSE
  5
6AB7
330
6AB0
100
AcDbEntity
  8
0
100
AcDbEllipse
 10
1.993878010781489
 20
-2.523068607918936
 30
0.0
 11
-1.000000000000002
 21
1.732050807568876
 31
0.0
210
0.0
220
0.0
230
1.0
 40
0.5773502691896258
 41
0.7853981633974528
 42
1.5707963267949
  0
LINE
  5
6AB8
330
6AB0
100
AcDbEntity
  8
0
100
AcDbLine
 10
1.700984791968016
 20
-2.692170586644719
 30
0.0
 11
0.9938780107814837
 21
-3.100418877108574
 31
0.0
  0
SPLINE
  5
6AB9
330
6AB0
100
AcDbEntity
  8
0
100
AcDbSpline
210
0.0
220
0.0
230
1.0
 70
     8
 71
     3
 72
    14
 73
    10
 74
     0
 42
0.000000001
 43
0.0000000001
 40
0.0
 40
0.0
 40
0.0
 40
0.0
 40
0.2487451488262673
 40
0.2487451488262673
 40
0.3648473265535708
 40
0.3648473265535708
 40
0.4288033835705873
 40
0.4288033835705873
 40
0.4987049857424104
 40
0.4987049857424104
 40
0.4987049857424104
 40
0.4987049857424104
 10
2.458231391063203
 20
5.290131758155109
 30
0.0
 10
2.448410673977616
 20
4.533287675066408
 30
0.0
 10
2.302408801572073
 20
3.824876988044878
 30
0.0
 10
2.028122230677293
 20
2.860487940629137
 30
0.0
 10
1.928627124130675
 20
2.551634920522967
 30
0.0
 10
1.806483903503304
 20
2.153813192002309
 30
0.0
 10
1.770947553629729
 20
2.031921229999538
 30
0.0
 10
1.721767949979704
 20
1.843986888435433
 30
0.0
 10
1.708742193022181
 20
1.781877259695565
 30
0.0
 10
1.699367096832262
 20
1.72327773863572
 30
0.0
  0
ELLIPSE
  5
6ABA
330
6AB0
100
AcDbEntity
  8
0
100
AcDbEllipse
 10
2.700984791968008
 20
-2.11482031745509
 30
0.0
 11
-0.9999999999998973
 21
1.732050807568937
 31
0.0
210
0.0
220
0.0
230
1.0
 40
0.5773502691896261
 41
1.570796326795003
 42
2.356194490192597
  0
LINE
  5
6ABB
330
6AB0
100
AcDbEntity
  8
0
100
AcDbLine
 10
-57.9617871259705
 20
-35.50549485221031
 30
0.0
 11
0.5796644484083924
 21
-1.706572026991222
 31
0.0
  0
SPLINE
  5
6ABC
330
6AB0
100
AcDbEntity
  8
0
100
AcDbSpline
210
0.0
220
0.0
230
1.0
 70
     8
 71
     3
 72
    10
 73
     6
 74
     0
 42
0.000000001
 43
0.0000000001
 40
0.0
 40
0.0
 40
0.0
 40
0.0
 40
0.0125685529009637
 40
0.0125685529009637
 40
0.0251371058018179
 40
0.0251371058018179
 40
0.0251371058018179
 40
0.0251371058018179
 10
-57.9617871259705
 20
-35.5054948522103
 30
0.0
 10
-57.98652295503917
 20
-35.53859953829404
 30
0.0
 10
-58.01097506830098
 20
-35.57186448078372
 30
0.0
 10
-58.05931953076409
 20
-35.63870213489519
 30
0.0
 10
-58.08320825773171
 20
-35.67226984386943
 30
0.0
 10
-58.10681756699446
 20
-35.7059799270754
 30
0.0
  0
ELLIPSE
  5
6ABD
330
6AB0
100
AcDbEntity
  8
0
100
AcDbEllipse
 10
-56.69598482770196
 20
-36.40767671641956
 30
0.0
 11
1.000000000000137
 21
-1.732050807568798
 31
0.0
210
0.0
220
0.0
230
1.0
 40
0.5773502691896147
 41
3.996150863704949
 42
5.497787143781902
  0
LINE
  5
6ABE
330
6AB0
100
AcDbEntity
  8
0
100
AcDbLine
 10
2.700984791968008
 20
-3.747813479310542
 30
0.0
 11
-56.69598482770196
 21
-38.04066987827501
 31
0.0
  0
LINE
  5
6ABF
330
6AB0
100
AcDbEntity
  8
0
100
AcDbLine
 10
-56.69598482770196
 20
-38.04066987827501
 30
0.0
 11
-56.69598482770196
 21
-39.67366304013046
 31
0.0
  0
LINE
  5
6AC0
330
6AB0
100
AcDbEntity
  8
0
100
AcDbLine
 10
-59.3760006883436
 20
-34.68899827128259
 30
0.0
 11
-58.34820654429605
 21
-35.28239549701998
 31
0.0
  0
LINE
  5
6AC1
330
6AB0
100
AcDbEntity
  8
0
100
AcDbLine
 10
-58.34820654429605
 20
-35.28239549701998
 30
0.0
 11
-57.9617871259705
 21
-35.50549485221031
 31
0.0
  0
ELLIPSE
  5
6AC2
330
6AB0
100
AcDbEntity
  8
0
100
AcDbEllipse
 10
-56.69598482770196
 20
-36.40767671641956
 30
0.0
 11
-1.999999999999792
 21
3.464101615137876
 31
0.0
210
0.0
220
0.0
230
1.0
 40
0.5773502691896257
 41
0.8545582101155959
 42
2.356194490192587
  0
SPLINE
  5
6AC3
330
6AB0
100
AcDbEntity
  8
0
100
AcDbSpline
210
0.0
220
0.0
230
1.0
 70
     8
 71
     3
 72
    10
 73
     6
 74
     0
 42
0.000000001
 43
0.0000000001
 40
0.0
 40
0.0
 40
0.0
 40
0.0
 40
0.0173628638240743
 40
0.0173628638240743
 40
0.0347257276482705
 40
0.0347257276482705
 40
0.0347257276482705
 40
0.0347257276482705
 10
-59.51765030628698
 20
-35.00428313773126
 30
0.0
 10
-59.49516751485745
 20
-34.95114420735774
 30
0.0
 10
-59.47212403752015
 20
-34.89828895746835
 30
0.0
 10
-59.42490676931093
 20
-34.79317612433208
 30
0.0
 10
-59.40073651940704
 20
-34.74092640739979
 30
0.0
 10
-59.3760006883436
 20
-34.68899827128257
 30
0.0
  0
LINE
  5
6AC4
330
6AB0
100
AcDbEntity
  8
0
100
AcDbLine
 10
-58.10681756699446
 20
-35.70597992707541
 30
0.0
 11
-59.51765030628695
 21
-35.00428313773126
 31
0.0
  0
ELLIPSE
  5
6AC5
330
6AB0
100
AcDbEntity
  8
0
100
AcDbEllipse
 10
-23.81551950252748
 20
45.44610552158498
 30
0.0
 11
-1.25
 21
-2.165063509461097
 31
0.0
210
0.0
220
0.0
230
1.0
 40
0.5773502691896259
 41
0.0
 42
6.283185307179586
  0
ELLIPSE
  5
6AC6
330
6AB0
100
AcDbEntity
  8
0
100
AcDbEllipse
 10
-25.22973306490056
 20
46.2626021025127
 30
0.0
 11
1.24999999999987
 21
2.165063509461171
 31
0.0
210
0.0
220
0.0
230
1.0
 40
0.5773502691896259
 41
3.742856870268578
 42
5.681921090500117
  0
ELLIPSE
  5
6AC7
330
6AB0
100
AcDbEntity
  8
0
100
AcDbEllipse
 10
-23.81551950252748
 20
29.11617390303046
 30
0.0
 11
-1.25
 21
-2.165063509461097
 31
0.0
210
0.0
220
0.0
230
1.0
 40
0.5773502691896259
 41
0.0
 42
6.283185307179586
  0
ELLIPSE
  5
6AC8
330
6AB0
100
AcDbEntity
  8
0
100
AcDbEllipse
 10
-23.81551950252748
 20
12.78624228447593
 30
0.0
 11
-1.25
 21
-2.165063509461097
 31
0.0
210
0.0
220
0.0
230
1.0
 40
0.5773502691896259
 41
0.0
 42
6.283185307179586
  0
ELLIPSE
  5
6AC9
330
6AB0
100
AcDbEntity
  8
0
100
AcDbEllipse
 10
-23.81551950252748
 20
-3.54368933407859
 30
0.0
 11
-1.25
 21
-2.165063509461097
 31
0.0
210
0.0
220
0.0
230
1.0
 40
0.5773502691896259
 41
0.0
 42
6.283185307179586
  0
ELLIPSE
  5
6ACA
330
6AB0
100
AcDbEntity
  8
0
100
AcDbEllipse
 10
-25.22973306490057
 20
29.93267048395819
 30
0.0
 11
1.24999999999987
 21
2.165063509461171
 31
0.0
210
0.0
220
0.0
230
1.0
 40
0.5773502691896259
 41
3.742856870268578
 42
5.681921090500117
  0
ELLIPSE
  5
6ACB
330
6AB0
100
AcDbEntity
  8
0
100
AcDbEllipse
 10
-25.22973306490057
 20
13.60273886540365
 30
0.0
 11
1.24999999999987
 21
2.165063509461171
 31
0.0
210
0.0
220
0.0
230
1.0
 40
0.5773502691896259
 41
3.742856870268578
 42
5.681921090500117
  0
ELLIPSE
  5
6ACC
330
6AB0
100
AcDbEntity
  8
0
100
AcDbEllipse
 10
-25.22973306490057
 20
-2.727192753150866
 30
0.0
 11
1.24999999999987
 21
2.165063509461171
 31
0.0
210
0.0
220
0.0
230
1.0
 40
0.5773502691896259
 41
3.742856870268578
 42
5.681921090500118
  0
LINE
  5
6ACD
330
6AB0
100
AcDbEntity
  8
0
100
AcDbLine
 10
1.286771229594916
 20
3.6744355605685
 30
0.0
 11
1.286771229594916
 21
68.10388564232936
 31
0.0
  0
ELLIPSE
  5
6ACE
330
6AB0
100
AcDbEntity
  8
0
100
AcDbEllipse
 10
-1.541655895151272
 20
69.73687880418475
 30
0.0
 11
4.0
 21
0.0000000000002137
 31
0.0
210
0.0
220
0.0
230
1.0
 40
0.5773502691896518
 41
5.497787143782105
 42
7.068583470577007
  0
ELLIPSE
  5
6ACF
330
6AB0
100
AcDbEntity
  8
0
100
AcDbEllipse
 10
-1.541655895151272
 20
69.73687880418475
 30
0.0
 11
2.0
 21
0.0000000000000899
 31
0.0
210
0.0
220
0.0
230
1.0
 40
0.5773502691896555
 41
5.497787143782108
 42
7.068583470577017
  0
LINE
  5
6AD0
330
6AB0
100
AcDbEntity
  8
0
100
AcDbLine
 10
1.286771229594916
 20
68.10388564232936
 30
0.0
 11
-0.127442332778176
 21
68.92038222325708
 31
0.0
  0
LINE
  5
6AD1
330
6AB0
100
AcDbEntity
  8
0
100
AcDbLine
 10
-0.127442332778176
 20
70.55337538511253
 30
0.0
 11
1.286771229594911
 21
71.36987196604026
 31
0.0
  0
LINE
  5
6AD2
330
6AB0
100
AcDbEntity
  8
0
100
AcDbLine
 10
-0.1274423327781715
 20
68.92038222325706
 30
0.0
 11
-0.127442332778176
 21
70.55337538511253
 31
0.0
  0
LINE
  5
6AD3
330
6AB0
100
AcDbEntity
  8
0
100
AcDbLine
 10
2.458344104848722
 20
5.307428722423952
 30
0.0
 11
2.458344104848726
 21
69.7368788041849
 31
0.0
  0
LINE
  5
6AD4
330
6AB0
100
AcDbEntity
  8
0
100
AcDbLine
 10
-29.11882036142657
 20
50.54920915238328
 30
0.0
 11
1.28677122959492
 21
68.10388564232936
 31
0.0
  0
LINE
  5
6AD5
330
6AB0
100
AcDbEntity
  8
0
100
AcDbLine
 10
-29.11882036142658
 20
9.093203970801418
 30
0.0
 11
-29.11882036142657
 21
50.54920915238328
 31
0.0
  0
LINE
  5
6AD6
330
6AB0
100
AcDbEntity
  8
0
100
AcDbLine
 10
-57.9617871259705
 20
-35.50549485221031
 30
0.0
 11
-29.11882036142658
 21
9.093203970801418
 31
0.0
  0
LINE
  5
6AD7
330
6AB0
100
AcDbEntity
  8
0
100
AcDbLine
 10
-56.69598482770196
 20
-38.04066987827501
 30
0.0
 11
-5.784296582270531
 21
-67.43454679167314
 31
0.0
  0
LINE
  5
6AD8
330
6AB0
100
AcDbEntity
  8
0
100
AcDbLine
 10
-5.784296582270531
 20
-69.06753995352859
 30
0.0
 11
-56.69598482770196
 21
-39.67366304013046
 31
0.0
  0
LINE
  5
6AD9
330
6AB0
100
AcDbEntity
  8
0
100
AcDbLine
 10
-30.53303392379968
 20
9.909700551729144
 30
0.0
 11
-59.3760006883436
 21
-34.6889982712826
 31
0.0
  0
LINE
  5
6ADA
330
6AB0
100
AcDbEntity
  8
0
100
AcDbLine
 10
-30.53303392379966
 20
51.365705733311
 30
0.0
 11
-30.53303392379968
 21
9.909700551729141
 31
0.0
  0
LINE
  5
6ADB
330
6AB0
100
AcDbEntity
  8
0
100
AcDbLine
 10
-0.127442332778176
 20
68.92038222325708
 30
0.0
 11
-30.53303392379966
 21
51.365705733311
 31
0.0
  0
LINE
  5
6ADC
330
6AB0
100
AcDbEntity
  8
0
100
AcDbLine
 10
-29.11882036142658
 20
9.093203970801418
 30
0.0
 11
-30.53303392379968
 21
9.909700551729144
 31
0.0
  0
LINE
  5
6ADD
330
6AB0
100
AcDbEntity
  8
0
100
AcDbLine
 10
-26.64394662727378
 20
85.86268627750744
 30
0.0
 11
-0.127442332778176
 21
70.55337538511253
 31
0.0
  0
LINE
  5
6ADE
330
6AB0
100
AcDbEntity
  8
0
100
AcDbLine
 10
-26.64394662727377
 20
53.61107133086216
 30
0.0
 11
-26.64394662727378
 21
85.86268627750744
 31
0.0
  0
LINE
  5
6ADF
330
6AB0
100
AcDbEntity
  8
0
100
AcDbLine
 10
-25.22973306490067
 20
86.67918285843516
 30
0.0
 11
-26.64394662727378
 21
85.86268627750744
 31
0.0
  0
LINE
  5
6AE0
330
6AB0
100
AcDbEntity
  8
0
100
AcDbLine
 10
1.286771229594911
 20
71.36987196604026
 30
0.0
 11
-25.22973306490067
 21
86.67918285843516
 31
0.0
  0
LINE
  5
6AE1
330
6AB0
100
AcDbEntity
  8
0
100
AcDbLine
 10
-29.11882036142657
 20
50.54920915238328
 30
0.0
 11
-30.53303392379966
 21
51.365705733311
 31
0.0
  0
LINE
  5
6AE2
330
6AB0
100
AcDbEntity
  8
0
100
AcDbLine
 10
24.621295008751
 20
-16.4035104836903
 30
0.0
 11
2.700984791968008
 21
-3.747813479310542
 31
0.0
  0
LINE
  5
6AE3
330
6AB0
100
AcDbEntity
  8
0
100
AcDbLine
 10
59.26952728689186
 20
-28.16893109561279
 30
0.0
 11
59.26952728689187
 21
-30.61842083839597
 31
0.0
  0
ELLIPSE
  5
6AE4
330
6AB0
100
AcDbEntity
  8
0
100
AcDbEllipse
 10
57.85531372451877
 20
-28.98542767654051
 30
0.0
 11
2.0
 21
-0.0000000000001195
 31
0.0
210
0.0
220
0.0
230
1.0
 40
0.5773502691896258
 41
0.7853981633976961
 42
2.356194490192612
  0
LINE
  5
6AE5
330
6AB0
100
AcDbEntity
  8
0
100
AcDbLine
 10
55.73399338095909
 20
-28.57717938607667
 30
0.0
 11
56.44110016214563
 21
-28.16893109561281
 31
0.0
  0
LINE
  5
6AE6
330
6AB0
100
AcDbEntity
  8
0
100
AcDbLine
 10
55.7339933809591
 20
-30.2307227839212
 30
0.0
 11
55.7339933809591
 21
-28.57717938607667
 31
0.0
  0
LINE
  5
6AE7
330
6AB0
100
AcDbEntity
  8
0
100
AcDbLine
 10
55.7339933809591
 20
-33.54993868317254
 30
0.0
 11
55.7339933809591
 21
-30.2307227839212
 31
0.0
  0
ELLIPSE
  5
6AE8
330
6AB0
100
AcDbEntity
  8
0
100
AcDbEllipse
 10
52.90556625621291
 20
-31.91694552131707
 30
0.0
 11
1.999999999999996
 21
-3.464101615137757
 31
0.0
210
0.0
220
0.0
230
1.0
 40
0.5773502691896257
 41
0.0000000000000018
 42
0.7853981633974508
  0
LINE
  5
6AE9
330
6AB0
100
AcDbEntity
  8
0
100
AcDbLine
 10
55.61267303739945
 20
-34.97279884599098
 30
0.0
 11
54.90556625621289
 21
-35.38104713645484
 31
0.0
  0
SPLINE
  5
6AEA
330
6AB0
100
AcDbEntity
  8
0
100
AcDbSpline
210
0.0
220
0.0
230
1.0
 70
     8
 71
     3
 72
    17
 73
    13
 74
     0
 42
0.000000001
 43
0.0000000001
 40
-1.0
 40
-1.0
 40
-1.0
 40
-1.0
 40
-0.8075008026557741
 40
-0.8075008026557741
 40
-0.8075008026557741
 40
-0.3673043690199931
 40
-0.3673043690199931
 40
-0.3673043690199931
 40
-0.0692670293203787
 40
-0.0692670293203787
 40
-0.0692670293203787
 40
0.0
 40
0.0
 40
0.0
 40
0.0
 10
55.61267303739945
 20
-34.97279884599098
 30
0.0
 10
55.85957021535258
 20
-34.83025901988162
 30
0.0
 10
56.07416102671315
 20
-34.61525730298486
 30
0.0
 10
56.30218513840127
 20
-34.33024440355281
 30
0.0
 10
56.82361796582541
 20
-33.67849279315083
 30
0.0
 10
57.32453122895581
 20
-32.75887873196867
 30
0.0
 10
57.85876588391993
 20
-31.97820322948532
 30
0.0
 10
58.22047230217909
 20
-31.44964272296992
 30
0.0
 10
58.59907617863385
 20
-30.99272909915093
 30
0.0
 10
58.99315213124755
 20
-30.75099093278405
 30
0.0
 10
59.0847395497625
 20
-30.69480842667772
 30
0.0
 10
59.17748334884395
 20
-30.65160868335339
 30
0.0
 10
59.26952728688414
 20
-30.61842083839612
 30
0.0
  0
LINE
  5
6AEB
330
6AB0
100
AcDbEntity
  8
0
100
AcDbLine
 10
-2.807458193419805
 20
-67.34886150839161
 30
0.0
 11
55.73399338095909
 21
-33.54993868317253
 31
0.0
  0
SPLINE
  5
6AEC
330
6AB0
100
AcDbEntity
  8
0
100
AcDbSpline
210
0.0
220
0.0
230
1.0
 70
     8
 71
     3
 72
    10
 73
     6
 74
     0
 42
0.000000001
 43
0.0000000001
 40
0.0
 40
0.0
 40
0.0
 40
0.0
 40
0.0173628638240116
 40
0.0173628638240116
 40
0.0347257276479012
 40
0.0347257276479012
 40
0.0347257276479012
 40
0.0347257276479012
 10
-2.807458193419805
 20
-67.34886150839161
 30
0.0
 10
-2.832194024483234
 20
-67.40078964450882
 30
0.0
 10
-2.857491720790061
 20
-67.45238842995688
 30
0.0
 10
-2.90921776411444
 20
-67.55489812056669
 30
0.0
 10
-2.935642232987984
 20
-67.6058013540825
 30
0.0
 10
-2.962631103685513
 20
-67.65633869837765
 30
0.0
  0
ELLIPSE
  5
6AED
330
6AB0
100
AcDbEntity
  8
0
100
AcDbEllipse
 10
-5.784296582270513
 20
-65.80155362981767
 30
0.0
 11
2.000000000000101
 21
-3.464101615137696
 31
0.0
210
0.0
220
0.0
230
0.9999999999999998
 40
0.5773502691896475
 41
5.497787143782116
 42
6.999423423859093
  0
LINE
  5
6AEE
330
6AB0
100
AcDbEntity
  8
0
100
AcDbLine
 10
-4.373463842977942
 20
-66.72894616409762
 30
0.0
 11
-2.962631103685389
 21
-67.65633869837758
 31
0.0
  0
ELLIPSE
  5
6AEF
330
6AB0
100
AcDbEntity
  8
0
100
AcDbEllipse
 10
-5.784296582270513
 20
-65.80155362981767
 30
0.0
 11
1.000000000000057
 21
-1.732050807568845
 31
0.0
210
0.0
220
0.0
230
1.0
 40
0.5773502691896476
 41
5.497787143782108
 42
6.999423423859093
  0
LINE
  5
6AF0
330
6AB0
100
AcDbEntity
  8
0
100
AcDbLine
 10
-5.784296582270531
 20
-69.06753995352859
 30
0.0
 11
-5.784296582270531
 21
-67.43454679167314
 31
0.0
  0
LINE
  5
6AF1
330
6AB0
100
AcDbEntity
  8
0
100
AcDbLine
 10
-3.835252337467376
 20
-66.75546428265423
 30
0.0
 11
-2.807458193419805
 21
-67.34886150839161
 31
0.0
  0
LINE
  5
6AF2
330
6AB0
100
AcDbEntity
  8
0
100
AcDbLine
 10
-4.221671755792901
 20
-66.53236492746389
 30
0.0
 11
-3.835252337467376
 21
-66.75546428265423
 31
0.0
  0
SPLINE
  5
6AF3
330
6AB0
100
AcDbEntity
  8
0
100
AcDbSpline
210
0.0
220
0.0
230
1.0
 70
     8
 71
     3
 72
    10
 73
     6
 74
     0
 42
0.000000001
 43
0.0000000001
 40
0.0
 40
0.0
 40
0.0
 40
0.0
 40
0.0125685529010063
 40
0.0125685529010063
 40
0.025137105802112
 40
0.025137105802112
 40
0.025137105802112
 40
0.025137105802112
 10
-4.373463842978018
 20
-66.72894616409767
 30
0.0
 10
-4.347601494103368
 20
-66.69653687391812
 30
0.0
 10
-4.322022271356598
 20
-66.66394517313705
 30
0.0
 10
-4.271423421313795
 20
-66.5984090903016
 30
0.0
 10
-4.246407584861553
 20
-66.56546961354765
 30
0.0
 10
-4.221671755792901
 20
-66.53236492746389
 30
0.0
  0
LINE
  5
6AF4
330
6AB0
100
AcDbEntity
  8
0
100
AcDbLine
 10
-5.784296582270531
 20
-67.43454679167314
 30
0.0
 11
-4.22167175579287
 21
-66.53236492746387
 31
0.0
  0
LINE
  5
6AF5
330
6AB0
100
AcDbEntity
  8
0
100
AcDbLine
 10
54.90556625621289
 20
-35.38104713645484
 30
0.0
 11
-3.784296582270441
 21
-69.26565524495538
 31
0.0
  0
LINE
  5
6AF6
330
6AB0
100
AcDbEntity
  8
0
100
AcDbLine
 10
56.44110016214563
 20
-28.16893109561281
 30
0.0
 11
56.44110016214566
 21
36.26051898614808
 31
0.0
  0
LINE
  5
6AF7
330
6AB0
100
AcDbEntity
  8
0
100
AcDbLine
 10
59.26952728689186
 20
36.26051898614809
 30
0.0
 11
59.26952728689186
 21
-28.16893109561279
 31
0.0
  0
ELLIPSE
  5
6AF8
330
6AB0
100
AcDbEntity
  8
0
100
AcDbEllipse
 10
57.85531372451875
 20
35.44402240522035
 30
0.0
 11
-2.0
 21
-0.0000000000000903
 31
0.0
210
0.0
220
0.0
230
1.0
 40
0.5773502691896148
 41
3.926990816987007
 42
5.4977871437819
  0
LINE
  5
6AF9
330
6AB0
100
AcDbEntity
  8
0
100
AcDbLine
 10
60.68374084926495
 20
37.07701556707581
 30
0.0
 11
59.26952728689186
 21
36.26051898614809
 31
0.0
  0
ELLIPSE
  5
6AFA
330
6AB0
100
AcDbEntity
  8
0
100
AcDbEllipse
 10
57.85531372451875
 20
35.44402240522035
 30
0.0
 11
4.000000000000001
 21
-0.0000000000002907
 31
0.0
210
0.0
220
0.0
230
1.0
 40
0.5773502691896169
 41
0.7853981633976988
 42
2.356194490192592
  0
LINE
  5
6AFB
330
6AB0
100
AcDbEntity
  8
0
100
AcDbLine
 10
56.44110016214566
 20
36.26051898614809
 30
0.0
 11
55.02688659977256
 21
37.07701556707581
 31
0.0
  0
LINE
  5
6AFC
330
6AB0
100
AcDbEntity
  8
0
100
AcDbLine
 10
56.44110016214566
 20
36.26051898614809
 30
0.0
 11
26.0355085711241
 21
18.70584249620197
 31
0.0
  0
LINE
  5
6AFD
330
6AB0
100
AcDbEntity
  8
0
100
AcDbLine
 10
26.0355085711241
 20
18.70584249620197
 30
0.0
 11
26.03550857112411
 21
-22.75016268537989
 31
0.0
  0
LINE
  5
6AFE
330
6AB0
100
AcDbEntity
  8
0
100
AcDbLine
 10
26.03550857112411
 20
-22.75016268537989
 30
0.0
 11
-2.807458193419805
 21
-67.34886150839161
 31
0.0
  0
LINE
  5
6AFF
330
6AB0
100
AcDbEntity
  8
0
100
AcDbLine
 10
-4.221671755792901
 20
-66.53236492746389
 30
0.0
 11
24.62129500875101
 21
-21.93366610445217
 31
0.0
  0
LINE
  5
6B00
330
6AB0
100
AcDbEntity
  8
0
100
AcDbLine
 10
24.62129500875101
 20
-21.93366610445217
 30
0.0
 11
24.621295008751
 21
19.52233907712969
 31
0.0
  0
LINE
  5
6B01
330
6AB0
100
AcDbEntity
  8
0
100
AcDbLine
 10
24.621295008751
 20
19.5223390771297
 30
0.0
 11
55.02688659977255
 21
37.07701556707581
 31
0.0
  0
LINE
  5
6B02
330
6AB0
100
AcDbEntity
  8
0
100
AcDbLine
 10
24.62129500875101
 20
-21.93366610445217
 30
0.0
 11
26.03550857112411
 21
-22.75016268537989
 31
0.0
  0
LINE
  5
6B03
330
6AB0
100
AcDbEntity
  8
0
100
AcDbLine
 10
85.78603158138736
 20
-21.50661411448855
 30
0.0
 11
85.78603158138736
 21
20.95120809375323
 31
0.0
  0
LINE
  5
6B04
330
6AB0
100
AcDbEntity
  8
0
100
AcDbLine
 10
87.20024514376047
 20
-20.69011753356083
 30
0.0
 11
85.78603158138736
 21
-21.50661411448855
 31
0.0
  0
LINE
  5
6B05
330
6AB0
100
AcDbEntity
  8
0
100
AcDbLine
 10
87.20024514376047
 20
21.76770467468096
 30
0.0
 11
87.20024514376047
 21
-20.69011753356083
 31
0.0
  0
LINE
  5
6B06
330
6AB0
100
AcDbEntity
  8
0
100
AcDbLine
 10
87.20024514376047
 20
21.76770467468096
 30
0.0
 11
85.78603158138736
 21
20.95120809375324
 31
0.0
  0
LINE
  5
6B07
330
6AB0
100
AcDbEntity
  8
0
100
AcDbLine
 10
59.26952728689186
 20
-30.61842083839598
 30
0.0
 11
85.78603158138736
 21
-21.50661411448855
 31
0.0
  0
LINE
  5
6B08
330
6AB0
100
AcDbEntity
  8
0
100
AcDbLine
 10
85.78603158138736
 20
20.95120809375324
 30
0.0
 11
59.26952728689186
 21
36.26051898614809
 31
0.0
  0
LINE
  5
6B09
330
6AB0
100
AcDbEntity
  8
0
100
AcDbLine
 10
60.68374084926495
 20
37.07701556707581
 30
0.0
 11
87.20024514376047
 21
21.76770467468096
 31
0.0
  0
LINE
  5
6B0A
330
6AB0
100
AcDbEntity
  8
0
100
AcDbLine
 10
24.621295008751
 20
19.5223390771297
 30
0.0
 11
26.0355085711241
 21
18.70584249620197
 31
0.0
  0
ELLIPSE
  5
6B0B
330
6AB0
100
AcDbEntity
  8
0
100
AcDbEllipse
 10
31.33880943002321
 20
5.437773056126418
 30
0.0
 11
1.249999999999999
 21
2.165063509461097
 31
0.0
210
0.0
220
0.0
230
1.0
 40
0.5773502691896261
 41
0.0
 42
6.283185307179586
  0
ELLIPSE
  5
6B0C
330
6AB0
100
AcDbEntity
  8
0
100
AcDbEllipse
 10
29.92459586765012
 20
6.254269637054146
 30
0.0
 11
1.24999999999987
 21
2.165063509461171
 31
0.0
210
0.0
220
0.0
230
1.0
 40
0.5773502691896259
 41
3.742856870268578
 42
5.681921090500118
  0
ELLIPSE
  5
6B0D
330
6AB0
100
AcDbEntity
  8
0
100
AcDbEllipse
 10
31.33880943002321
 20
-10.89215856242811
 30
0.0
 11
1.249999999999999
 21
2.165063509461097
 31
0.0
210
0.0
220
0.0
230
1.0
 40
0.5773502691896261
 41
0.0
 42
6.283185307179586
  0
ELLIPSE
  5
6B0E
330
6AB0
100
AcDbEntity
  8
0
100
AcDbEllipse
 10
31.33880943002321
 20
-27.22209018098264
 30
0.0
 11
1.249999999999999
 21
2.165063509461097
 31
0.0
210
0.0
220
0.0
230
1.0
 40
0.5773502691896261
 41
0.0
 42
6.283185307179586
  0
ELLIPSE
  5
6B0F
330
6AB0
100
AcDbEntity
  8
0
100
AcDbEllipse
 10
29.92459586765012
 20
-26.40559360005492
 30
0.0
 11
1.24999999999987
 21
2.165063509461171
 31
0.0
210
0.0
220
0.0
230
1.0
 40
0.5773502691896259
 41
3.742856870268578
 42
5.681921090500117
  0
ELLIPSE
  5
6B10
330
6AB0
100
AcDbEntity
  8
0
100
AcDbEllipse
 10
29.92459586765012
 20
-10.07566198150038
 30
0.0
 11
1.24999999999987
 21
2.165063509461171
 31
0.0
210
0.0
220
0.0
230
1.0
 40
0.5773502691896259
 41
3.742856870268578
 42
5.681921090500118
  0
ELLIPSE
  5
6B11
330
6AB0
100
AcDbEntity
  8
0
100
AcDbEllipse
 10
81.1898375036748
 20
17.07284933434651
 30
0.0
 11
1.250000000000128
 21
-2.165063509461023
 31
0.0
210
0.0
220
0.0
230
1.0
 40
0.5773502691896255
 41
3.742856870268578
 42
5.681921090500122
  0
ELLIPSE
  5
6B12
330
6AB0
100
AcDbEntity
  8
0
100
AcDbEllipse
 10
79.77562394130171
 20
16.25635275341879
 30
0.0
 11
1.24999999999987
 21
-2.165063509461171
 31
0.0
210
0.0
220
0.0
230
0.9999999999999998
 40
0.5773502691896258
 41
0.0
 42
6.283185307179586
  0
ELLIPSE
  5
6B13
330
6AB0
100
AcDbEntity
  8
0
100
AcDbEllipse
 10
65.63348831757076
 20
17.88934591527424
 30
0.0
 11
1.250000000000128
 21
-2.165063509461023
 31
0.0
210
0.0
220
0.0
230
1.0
 40
0.5773502691896255
 41
3.742856870268578
 42
5.681921090500122
  0
ELLIPSE
  5
6B14
330
6AB0
100
AcDbEntity
  8
0
100
AcDbEllipse
 10
64.21927475519769
 20
17.07284933434651
 30
0.0
 11
1.24999999999987
 21
-2.165063509461171
 31
0.0
210
0.0
220
0.0
230
0.9999999999999998
 40
0.5773502691896258
 41
0.0
 42
6.283185307179586
  0
ELLIPSE
  5
6B15
330
6AB0
100
AcDbEntity
  8
0
100
AcDbEllipse
 10
81.1898375036748
 20
0.7429177157919931
 30
0.0
 11
1.250000000000128
 21
-2.165063509461023
 31
0.0
210
0.0
220
0.0
230
1.0
 40
0.5773502691896255
 41
3.742856870268578
 42
5.681921090500122
  0
ELLIPSE
  5
6B16
330
6AB0
100
AcDbEntity
  8
0
100
AcDbEllipse
 10
79.77562394130171
 20
-0.0735788651357305
 30
0.0
 11
1.24999999999987
 21
-2.165063509461171
 31
0.0
210
0.0
220
0.0
230
0.9999999999999998
 40
0.5773502691896258
 41
0.0
 42
6.283185307179586
  0
ELLIPSE
  5
6B17
330
6AB0
100
AcDbEntity
  8
0
100
AcDbEllipse
 10
65.63348831757076
 20
1.559414296719716
 30
0.0
 11
1.250000000000128
 21
-2.165063509461023
 31
0.0
210
0.0
220
0.0
230
1.0
 40
0.5773502691896255
 41
3.742856870268578
 42
5.681921090500122
  0
ELLIPSE
  5
6B18
330
6AB0
100
AcDbEntity
  8
0
100
AcDbEllipse
 10
64.21927475519769
 20
0.7429177157919931
 30
0.0
 11
1.24999999999987
 21
-2.165063509461171
 31
0.0
210
0.0
220
0.0
230
0.9999999999999998
 40
0.5773502691896258
 41
0.0
 42
6.283185307179586
  0
ELLIPSE
  5
6B19
330
6AB0
100
AcDbEntity
  8
0
100
AcDbEllipse
 10
81.18983750367481
 20
-15.58701390276253
 30
0.0
 11
1.250000000000128
 21
-2.165063509461023
 31
0.0
210
0.0
220
0.0
230
1.0
 40
0.5773502691896255
 41
3.742856870268578
 42
5.681921090500122
  0
ELLIPSE
  5
6B1A
330
6AB0
100
AcDbEntity
  8
0
100
AcDbEllipse
 10
79.77562394130173
 20
-16.40351048369025
 30
0.0
 11
1.24999999999987
 21
-2.165063509461171
 31
0.0
210
0.0
220
0.0
230
0.9999999999999998
 40
0.5773502691896258
 41
0.0
 42
6.283185307179586
  0
ELLIPSE
  5
6B1B
330
6AB0
100
AcDbEntity
  8
0
100
AcDbEllipse
 10
65.63348831757078
 20
-14.77051732183481
 30
0.0
 11
1.250000000000128
 21
-2.165063509461023
 31
0.0
210
0.0
220
0.0
230
1.0
 40
0.5773502691896255
 41
3.742856870268578
 42
5.681921090500122
  0
ELLIPSE
  5
6B1C
330
6AB0
100
AcDbEntity
  8
0
100
AcDbEllipse
 10
64.21927475519769
 20
-15.58701390276253
 30
0.0
 11
1.24999999999987
 21
-2.165063509461171
 31
0.0
210
0.0
220
0.0
230
0.9999999999999998
 40
0.5773502691896258
 41
0.0
 42
6.283185307179586
  0
ELLIPSE
  5
6B1D
330
6AB0
100
AcDbEntity
  8
0
100
AcDbEllipse
 10
71.9974493482497
 20
8.499635234605392
 30
0.0
 11
-2.749999999999714
 21
4.763139720814578
 31
0.0
210
0.0
220
0.0
230
1.0
 40
0.5773502691896255
 41
0.0
 42
6.283185307179586
  0
ELLIPSE
  5
6B1E
330
6AB0
100
AcDbEntity
  8
0
100
AcDbEllipse
 10
73.41166291062278
 20
9.316131815533115
 30
0.0
 11
-2.75
 21
4.763139720814416
 31
0.0
210
0.0
220
0.0
230
1.0
 40
0.5773502691896257
 41
0.2600508977278952
 42
2.881541755861895
  0
ELLIPSE
  5
6B1F
330
6AB0
100
AcDbEntity
  8
0
100
AcDbEllipse
 10
-12.85536439413609
 20
57.48943009026894
 30
0.0
 11
-2.750000000000003
 21
4.763139720814413
 31
0.0
210
0.0
220
0.0
230
1.0
 40
0.5773502691896259
 41
5.41056863869481
 42
7.155801975664362
  0
ELLIPSE
  5
6B20
330
6AB0
100
AcDbEntity
  8
0
100
AcDbEllipse
 10
-11.441150831763
 20
58.30592667119666
 30
0.0
 11
-2.750000000000001
 21
4.763139720814414
 31
0.0
210
0.0
220
0.0
230
1.0
 40
0.5773502691896257
 41
0.2600508977278992
 42
0.8726166684847761
  0
ELLIPSE
  5
6B21
330
6AB0
100
AcDbEntity
  8
0
100
AcDbEllipse
 10
-4.370083019897434
 20
-38.85716645920273
 30
0.0
 11
-2.5
 21
-0.000000000000149
 31
0.0
210
0.0
220
0.0
230
1.0
 40
0.5773502691896258
 41
3.742856870268582
 42
5.681921090500122
  0
ELLIPSE
  5
6B22
330
6AB0
100
AcDbEntity
  8
0
100
AcDbEllipse
 10
-4.370083019897434
 20
-37.22417329734728
 30
0.0
 11
2.5
 21
-0.0000000000001486
 31
0.0
210
0.0
220
0.0
230
1.0
 40
0.5773502691896258
 41
0.0
 42
6.283185307179586
  0
ELLIPSE
  5
6B23
330
6AB0
100
AcDbEntity
  8
0
100
AcDbEllipse
 10
-18.51221864362839
 20
-47.02213226847998
 30
0.0
 11
-2.5
 21
-0.000000000000149
 31
0.0
210
0.0
220
0.0
230
1.0
 40
0.5773502691896258
 41
3.742856870268575
 42
5.681921090500122
  0
ELLIPSE
  5
6B24
330
6AB0
100
AcDbEntity
  8
0
100
AcDbEllipse
 10
-18.51221864362839
 20
-45.38913910662453
 30
0.0
 11
2.5
 21
-0.0000000000001486
 31
0.0
210
0.0
220
0.0
230
1.0
 40
0.5773502691896258
 41
0.0
 42
6.283185307179586
  0
ELLIPSE
  5
6B25
330
6AB0
100
AcDbEntity
  8
0
100
AcDbEllipse
 10
-20.63353898718811
 20
57.8976783807328
 30
0.0
 11
-1.25
 21
2.165063509461097
 31
0.0
210
0.0
220
0.0
230
1.0
 40
0.5773502691896259
 41
4.425632428173118
 42
8.14073818618605
  0
ELLIPSE
  5
6B26
330
6AB0
100
AcDbEntity
  8
0
100
AcDbEllipse
 10
-19.21932542481501
 20
58.71417496166053
 30
0.0
 11
1.250000000000129
 21
-2.165063509461022
 31
0.0
210
0.0
220
0.0
230
1.0
 40
0.5773502691896259
 41
3.742856870268571
 42
4.999145532596077
  0
ELLIPSE
  5
6B27
330
6AB0
100
AcDbEntity
  8
0
100
AcDbEllipse
 10
-20.63353898718811
 20
74.22760999928733
 30
0.0
 11
-1.249999999999871
 21
2.165063509461171
 31
0.0
210
0.0
220
0.0
230
1.0
 40
0.5773502691896259
 41
0.0
 42
6.283185307179586
  0
ELLIPSE
  5
6B28
330
6AB0
100
AcDbEntity
  8
0
100
AcDbEllipse
 10
-19.21932542481501
 20
75.04410658021505
 30
0.0
 11
1.250000000000129
 21
-2.165063509461022
 31
0.0
210
0.0
220
0.0
230
1.0
 40
0.5773502691896259
 41
3.742856870268571
 42
5.681921090500118
  0
ENDBLK
  5
6AB2
330
6AB0
100
AcDbEntity
  8
0
100
AcDbBlockEnd
  0
ENDSEC
  0
SECTION
  2
ENTITIES
  0
INSERT
  5
6B29
330
1F
100
AcDbEntity
  8
0
100
AcDbBlockReference
  2
SAE250_76_2-Front
 10
0.0
 20
0.0
 30
0.0
  0
INSERT
  5
6B2A
330
1F
100
AcDbEntity
  8
0
100
AcDbBlockReference
  2
SAE250_76_2-Left
 10
113.0000000768461
 20
0.0
 30
0.0
  0
INSERT
  5
6B2B
330
1F
100
AcDbEntity
  8
0
100
AcDbBlockReference
  2
SAE250_76_2-Right
 10
-113.0000008453066
 20
0.0
 30
0.0
  0
INSERT
  5
6B2C
330
1F
100
AcDbEntity
  8
0
100
AcDbBlockReference
  2
SAE250_76_2-Top
 10
0.0
 20
-35.50004324732324
 30
0.0
  0
INSERT
  5
6B2D
330
1F
100
AcDbEntity
  8
0
100
AcDbBlockReference
  2
SAE250_76_2-Bottom
 10
0.0
 20
120.5000432473232
 30
0.0
  0
INSERT
  5
6B2E
330
1F
100
AcDbEntity
  8
0
100
AcDbBlockReference
  2
SAE250_76_2-ISO
 10
172.517650383133
 20
-122.1791829352812
 30
0.0
  0
MTEXT
  5
6B2F
330
1F
100
AcDbEntity
  8
0
100
AcDbMText
 10
0.0
 20
-157.0000433241693
 30
0.0
 40
11.16666669228202
 41
0.0
 71
     5
 72
     5
  1
SAE250/76/2
 73
     1
 44
1.0
1001
ACAD
1000
MTEXTBEGIN
1070
    73
1070
     1
1070
    44
1040
1.0
1070
    74
1070
     0
1000
MTEXTEND
  0
ENDSEC
  0
SECTION
  2
OBJECTS
  0
DICTIONARY
  5
C
330
0
100
AcDbDictionary
281
     1
  3
ACAD_CIP_PREVIOUS_PRODUCT_INFO
350
216
  3
ACAD_COLOR
350
6B
  3
ACAD_DETAILVIEWSTYLE
350
21B
  3
ACAD_GROUP
350
D
  3
ACAD_LAYOUT
350
1A
  3
ACAD_MATERIAL
350
6A
  3
ACAD_MLEADERSTYLE
350
12D
  3
ACAD_MLINESTYLE
350
17
  3
ACAD_PLOTSETTINGS
350
19
  3
ACAD_PLOTSTYLENAME
350
E
  3
ACAD_SCALELIST
350
10C
  3
ACAD_SECTIONVIEWSTYLE
350
219
  3
ACAD_TABLESTYLE
350
7E
  3
ACAD_VISUALSTYLE
350
EF
  3
ACDB_RECOMPOSE_DATA
350
6C30
  3
AcDbVariableDictionary
350
5E
  3
DWGPROPS
350
6C31
  0
DICTIONARY
  5
6B80
330
8
100
AcDbDictionary
280
     1
281
     1
  0
DICTIONARY
  5
1FF
330
2
100
AcDbDictionary
280
     1
281
     1
  3
ACAD_LAYERSTATES
360
200
  0
DICTIONARY
  5
13C
330
10
100
AcDbDictionary
280
     1
281
     1
  0
DICTIONARY
  5
1CE
330
1F
100
AcDbDictionary
280
     1
281
     1
  3
ACAD_LAYOUTSELFREF
360
6B88
  0
DICTIONARY
  5
6B33
330
D2
100
AcDbDictionary
280
     1
281
     1
  3
ACAD_LAYOUTSELFREF
360
6B91
  0
DICTIONARY
  5
6B35
330
D6
100
AcDbDictionary
280
     1
281
     1
  3
ACAD_LAYOUTSELFREF
360
6B94
  0
XRECORD
  5
216
102
{ACAD_REACTORS
330
C
102
}
330
C
100
AcDbXrecord
280
     1
300
ACD
300
2021
300
87393ACD_2021_0F
  0
DICTIONARY
  5
6B
102
{ACAD_REACTORS
330
C
102
}
330
C
100
AcDbDictionary
281
     1
  0
DICTIONARY
  5
21B
102
{ACAD_REACTORS
330
C
102
}
330
C
100
AcDbDictionary
281
     1
  3
Metric50
350
21C
  0
DICTIONARY
  5
D
102
{ACAD_REACTORS
330
C
102
}
330
C
100
AcDbDictionary
281
     1
  0
DICTIONARY
  5
1A
102
{ACAD_REACTORS
330
C
102
}
330
C
100
AcDbDictionary
281
     1
  3
Layout1
350
D3
  3
Layout2
350
D7
  3
Model
350
22
  0
DICTIONARY
  5
6A
102
{ACAD_REACTORS
330
C
102
}
330
C
100
AcDbDictionary
281
     1
  3
ByBlock
350
ED
  3
ByLayer
350
EC
  3
Global
350
EE
  0
DICTIONARY
  5
12D
102
{ACAD_REACTORS
330
C
102
}
330
C
100
AcDbDictionary
281
     1
  3
Standard
350
12E
  0
DICTIONARY
  5
17
102
{ACAD_REACTORS
330
C
102
}
330
C
100
AcDbDictionary
281
     1
  3
Standard
350
18
  0
DICTIONARY
  5
19
102
{ACAD_REACTORS
330
C
102
}
330
C
100
AcDbDictionary
281
     1
  0
ACDBDICTIONARYWDFLT
  5
E
102
{ACAD_REACTORS
330
C
102
}
330
C
100
AcDbDictionary
281
     1
  3
Normal
350
F
100
AcDbDictionaryWithDefault
340
F
  0
DICTIONARY
  5
10C
102
{ACAD_REACTORS
330
C
102
}
330
C
100
AcDbDictionary
281
     1
  3
A0
350
10D
  3
A1
350
1BE
  3
A2
350
1BF
  3
A3
350
1C0
  3
A4
350
1C1
  3
A5
350
1C2
  3
A6
350
1C3
  3
A7
350
1C4
  3
A8
350
1C5
  3
A9
350
1C6
  3
B0
350
1C7
  3
B1
350
1C8
  3
B2
350
1C9
  3
B3
350
1CA
  3
B4
350
1CB
  3
B5
350
1CC
  3
B6
350
1CD
  0
DICTIONARY
  5
219
102
{ACAD_REACTORS
330
C
102
}
330
C
100
AcDbDictionary
281
     1
  3
Metric50
350
21A
  0
DICTIONARY
  5
7E
102
{ACAD_REACTORS
330
C
102
}
330
C
100
AcDbDictionary
281
     1
  3
Standard
350
7F
  0
DICTIONARY
  5
EF
102
{ACAD_REACTORS
330
C
102
}
330
C
100
AcDbDictionary
281
     1
  3
2dWireframe
350
F5
  3
Basic
350
F4
  3
Brighten
350
FB
  3
ColorChange
350
FF
  3
Conceptual
350
F8
  3
Dim
350
FA
  3
EdgeColorOff
350
1E6
  3
Facepattern
350
FE
  3
Flat
350
F0
  3
FlatWithEdges
350
F1
  3
Gouraud
350
F2
  3
GouraudWithEdges
350
F3
  3
Hidden
350
F7
  3
JitterOff
350
1E4
  3
Linepattern
350
FD
  3
OverhangOff
350
1E5
  3
Realistic
350
F9
  3
Shaded
350
1F3
  3
Shaded with edges
350
1F2
  3
Shades of Gray
350
1EF
  3
Sketchy
350
1F0
  3
Thicken
350
FC
  3
Wireframe
350
F6
  3
X-Ray
350
1F1
  0
XRECORD
  5
6C30
102
{ACAD_REACTORS
330
C
102
}
330
C
100
AcDbXrecord
280
     1
 90
        1
330
7F
  0
DICTIONARY
  5
5E
102
{ACAD_REACTORS
330
C
102
}
330
C
100
AcDbDictionary
281
     1
  3
CANNOSCALE
350
146
  3
CENTEREXE
350
259
  3
CENTERLTYPEFILE
350
25A
  3
CMLEADERSTYLE
350
145
  3
CTABLESTYLE
350
84
  3
CVIEWDETAILSTYLE
350
227
  3
CVIEWSECTIONSTYLE
350
228
  3
DIMASSOC
350
5F
  3
HIDETEXT
350
63
  3
INDEXCTL
350
6BDD
  3
LAYEREVAL
350
1AE
  3
LAYERNOTIFY
350
1AF
  3
LIGHTINGUNITS
350
6BDB
  3
MSLTSCALE
350
6BDA
  3
PSOLHEIGHT
350
6C2D
  3
PSOLWIDTH
350
6C2C
  3
SORTENTS
350
6BDC
  3
XCLIPFRAME
350
6C2E
  0
XRECORD
  5
6C31
102
{ACAD_REACTORS
330
C
102
}
330
C
100
AcDbXrecord
280
     1
  1
DWGPROPS COOKIE
  2

  3

  4

  6

  7

  8
truole
  9

300
=
301
=
302
=
303
=
304
=
305
=
306
=
307
=
308
=
309
=
 40
0.0075694444444444
 41
2460398.356956019
 42
2460398.373460648
  1

 90
        0
  0
DICTIONARY
  5
200
102
{ACAD_REACTORS
330
1FF
102
}
330
1FF
100
AcDbDictionary
281
     1
  0
XRECORD
  5
6B88
102
{ACAD_REACTORS
330
1CE
102
}
330
1CE
100
AcDbXrecord
280
     1
340
1F
  0
XRECORD
  5
6B91
102
{ACAD_REACTORS
330
6B33
102
}
330
6B33
100
AcDbXrecord
280
     1
340
D2
  0
XRECORD
  5
6B94
102
{ACAD_REACTORS
330
6B35
102
}
330
6B35
100
AcDbXrecord
280
     1
340
D6
  0
ACDBDETAILVIEWSTYLE
  5
21C
102
{ACAD_XDICTIONARY
360
6C70
102
}
102
{ACAD_REACTORS
330
21B
102
}
330
21B
100
AcDbModelDocViewStyle
 70
     0
  3
Metric50
290
     0
100
AcDbDetailViewStyle
 70
     0
 71
     0
 90
        3
 71
     1
340
11
 40
5.0
340
0
 40
5.0
300

 40
0.0
280
     1
 71
     2
340
16
 90
       25
 71
     3
340
11
 40
5.0
 90
        0
 40
15.0
 90
        1
300
%<\AcVar ViewDetailId>% (%<\AcVar ViewScale \f "%sn">%)
 71
     4
340
16
 90
       25
340
16
 90
       25
280
     0
  0
LAYOUT
  5
D3
102
{ACAD_XDICTIONARY
360
6C35
102
}
102
{ACAD_REACTORS
330
1A
102
}
330
1A
100
AcDbPlotSettings
  1

  2
C:\Documents and Settings\basas\Application Data\Autodesk\AutoCAD 2005\R16.1\enu\plotters\Default Windows System Printer.pc3
  4

  6

 40
0.0
 41
0.0
 42
0.0
 43
0.0
 44
0.0
 45
0.0
 46
0.0
 47
0.0
 48
0.0
 49
0.0
140
0.0
141
0.0
142
1.0
143
1.0
 70
   688
 72
     0
 73
     0
 74
     5
  7

 75
    16
147
1.0
148
0.0
149
0.0
100
AcDbLayout
  1
Layout1
 70
     1
 71
     1
 10
0.0
 20
0.0
 11
12.0
 21
9.0
 12
0.0
 22
0.0
 32
0.0
 14
0.0
 24
0.0
 34
0.0
 15
0.0
 25
0.0
 35
0.0
146
0.0
 13
0.0
 23
0.0
 33
0.0
 16
1.0
 26
0.0
 36
0.0
 17
0.0
 27
1.0
 37
0.0
 76
     0
330
D2
  0
LAYOUT
  5
D7
102
{ACAD_XDICTIONARY
360
6C37
102
}
102
{ACAD_REACTORS
330
1A
102
}
330
1A
100
AcDbPlotSettings
  1

  2
C:\Documents and Settings\basas\Application Data\Autodesk\AutoCAD 2005\R16.1\enu\plotters\Default Windows System Printer.pc3
  4

  6

 40
0.0
 41
0.0
 42
0.0
 43
0.0
 44
0.0
 45
0.0
 46
0.0
 47
0.0
 48
0.0
 49
0.0
140
0.0
141
0.0
142
1.0
143
1.0
 70
   688
 72
     0
 73
     0
 74
     5
  7

 75
    16
147
1.0
148
0.0
149
0.0
100
AcDbLayout
  1
Layout2
 70
     1
 71
     2
 10
0.0
 20
0.0
 11
12.0
 21
9.0
 12
0.0
 22
0.0
 32
0.0
 14
0.0
 24
0.0
 34
0.0
 15
0.0
 25
0.0
 35
0.0
146
0.0
 13
0.0
 23
0.0
 33
0.0
 16
1.0
 26
0.0
 36
0.0
 17
0.0
 27
1.0
 37
0.0
 76
     0
330
D6
  0
LAYOUT
  5
22
102
{ACAD_XDICTIONARY
360
6C32
102
}
102
{ACAD_REACTORS
330
1A
102
}
330
1A
100
AcDbPlotSettings
  1

  2
none_device
  4
ISO_A4_(210.00_x_297.00_MM)
  6

 40
7.5
 41
20.0
 42
7.5
 43
20.0
 44
210.0
 45
297.0
 46
11.54999923706054
 47
-13.65000009536743
 48
0.0
 49
0.0
140
0.0
141
0.0
142
1.0
143
8.704084754739808
 70
 11952
 72
     1
 73
     0
 74
     0
  7

 75
     0
147
0.1148885871608098
148
0.0
149
0.0
100
AcDbLayout
  1
Model
 70
     1
 71
     0
 10
0.0
 20
0.0
 11
12.0
 21
9.0
 12
0.0
 22
0.0
 32
0.0
 14
0.0
 24
0.0
 34
0.0
 15
0.0
 25
0.0
 35
0.0
146
0.0
 13
0.0
 23
0.0
 33
0.0
 16
1.0
 26
0.0
 36
0.0
 17
0.0
 27
1.0
 37
0.0
 76
     0
330
1F
331
EA
1001
ACAD_PSEXT
1000
None
1000
None
1000
Not applicable
1000
The layout will not be plotted unless a new plotter configuration name is selected.
1070
     0
  0
MATERIAL
  5
ED
102
{ACAD_XDICTIONARY
360
1F9
102
}
102
{ACAD_REACTORS
330
6A
102
}
330
6A
100
AcDbMaterial
  1
ByBlock
  0
MATERIAL
  5
EC
102
{ACAD_XDICTIONARY
360
1F7
102
}
102
{ACAD_REACTORS
330
6A
102
}
330
6A
100
AcDbMaterial
  1
ByLayer
  0
MATERIAL
  5
EE
102
{ACAD_XDICTIONARY
360
173
102
}
102
{ACAD_REACTORS
330
6A
102
}
330
6A
100
AcDbMaterial
  1
Global
 43
0.0007999999797903
 43
0.0
 43
0.0
 43
0.0
 43
0.0
 43
0.0007999999797903
 43
0.0
 43
0.0
 43
0.0
 43
0.0
 43
1.0
 43
0.0
 43
0.0
 43
0.0
 43
0.0
 43
1.0
 49
0.0007999999797903
 49
0.0
 49
0.0
 49
0.0
 49
0.0
 49
0.0007999999797903
 49
0.0
 49
0.0
 49
0.0
 49
0.0
 49
1.0
 49
0.0
 49
0.0
 49
0.0
 49
0.0
 49
1.0
142
0.0007999999797903
142
0.0
142
0.0
142
0.0
142
0.0
142
0.0007999999797903
142
0.0
142
0.0
142
0.0
142
0.0
142
1.0
142
0.0
142
0.0
142
0.0
142
0.0
142
1.0
144
0.0007999999797903
144
0.0
144
0.0
144
0.0
144
0.0
144
0.0007999999797903
144
0.0
144
0.0
144
0.0
144
0.0
144
1.0
144
0.0
144
0.0
144
0.0
144
0.0
144
1.0
1001
ACAD
1070
    -1
1070
     3
1070
     0
1000

1071
        0
1070
     0
  0
MLEADERSTYLE
  5
12E
102
{ACAD_XDICTIONARY
360
6C5C
102
}
102
{ACAD_REACTORS
330
12D
102
}
330
12D
100
AcDbMLeaderStyle
170
     2
171
     1
172
     0
 90
        2
 40
0.0
 41
0.0
173
     1
 91
-1056964608
340
14
 92
       -2
290
     1
 42
2.0
291
     1
 43
8.0
  3
Standard
 44
4.0
300

342
11
174
     1
178
     1
175
     1
176
     0
 93
-1056964608
 45
4.0
292
     0
297
     0
 46
4.0
 94
-1056964608
 47
1.0
 49
1.0
140
1.0
293
     1
141
0.0
294
     1
177
     0
142
1.0
295
     0
296
     0
143
3.75
1001
ACAD_MLEADERVER
1070
     2
  0
MLINESTYLE
  5
18
102
{ACAD_REACTORS
330
17
102
}
330
17
100
AcDbMlineStyle
  2
STANDARD
 70
     0
  3

 62
   256
 51
90.0
 52
90.0
 71
     2
 49
0.5
 62
   256
  6
BYLAYER
 49
-0.5
 62
   256
  6
BYLAYER
  0
ACDBPLACEHOLDER
  5
F
102
{ACAD_REACTORS
330
E
102
}
330
E
  0
SCALE
  5
10D
102
{ACAD_REACTORS
330
10C
102
}
330
10C
100
AcDbScale
 70
     0
300
1:1
140
1.0
141
1.0
290
     1
  0
SCALE
  5
1BE
102
{ACAD_REACTORS
330
10C
102
}
330
10C
100
AcDbScale
 70
     0
300
1:2
140
1.0
141
2.0
290
     0
  0
SCALE
  5
1BF
102
{ACAD_REACTORS
330
10C
102
}
330
10C
100
AcDbScale
 70
     0
300
1:4
140
1.0
141
4.0
290
     0
  0
SCALE
  5
1C0
102
{ACAD_REACTORS
330
10C
102
}
330
10C
100
AcDbScale
 70
     0
300
1:5
140
1.0
141
5.0
290
     0
  0
SCALE
  5
1C1
102
{ACAD_REACTORS
330
10C
102
}
330
10C
100
AcDbScale
 70
     0
300
1:8
140
1.0
141
8.0
290
     0
  0
SCALE
  5
1C2
102
{ACAD_REACTORS
330
10C
102
}
330
10C
100
AcDbScale
 70
     0
300
1:10
140
1.0
141
10.0
290
     0
  0
SCALE
  5
1C3
102
{ACAD_REACTORS
330
10C
102
}
330
10C
100
AcDbScale
 70
     0
300
1:16
140
1.0
141
16.0
290
     0
  0
SCALE
  5
1C4
102
{ACAD_REACTORS
330
10C
102
}
330
10C
100
AcDbScale
 70
     0
300
1:20
140
1.0
141
20.0
290
     0
  0
SCALE
  5
1C5
102
{ACAD_REACTORS
330
10C
102
}
330
10C
100
AcDbScale
 70
     0
300
1:30
140
1.0
141
30.0
290
     0
  0
SCALE
  5
1C6
102
{ACAD_REACTORS
330
10C
102
}
330
10C
100
AcDbScale
 70
     0
300
1:40
140
1.0
141
40.0
290
     0
  0
SCALE
  5
1C7
102
{ACAD_REACTORS
330
10C
102
}
330
10C
100
AcDbScale
 70
     0
300
1:50
140
1.0
141
50.0
290
     0
  0
SCALE
  5
1C8
102
{ACAD_REACTORS
330
10C
102
}
330
10C
100
AcDbScale
 70
     0
300
1:100
140
1.0
141
100.0
290
     0
  0
SCALE
  5
1C9
102
{ACAD_REACTORS
330
10C
102
}
330
10C
100
AcDbScale
 70
     0
300
2:1
140
2.0
141
1.0
290
     0
  0
SCALE
  5
1CA
102
{ACAD_REACTORS
330
10C
102
}
330
10C
100
AcDbScale
 70
     0
300
4:1
140
4.0
141
1.0
290
     0
  0
SCALE
  5
1CB
102
{ACAD_REACTORS
330
10C
102
}
330
10C
100
AcDbScale
 70
     0
300
8:1
140
8.0
141
1.0
290
     0
  0
SCALE
  5
1CC
102
{ACAD_REACTORS
330
10C
102
}
330
10C
100
AcDbScale
 70
     0
300
10:1
140
10.0
141
1.0
290
     0
  0
SCALE
  5
1CD
102
{ACAD_REACTORS
330
10C
102
}
330
10C
100
AcDbScale
 70
     0
300
100:1
140
100.0
141
1.0
290
     0
  0
ACDBSECTIONVIEWSTYLE
  5
21A
102
{ACAD_XDICTIONARY
360
6C6E
102
}
102
{ACAD_REACTORS
330
219
102
}
330
219
100
AcDbModelDocViewStyle
 70
     0
  3
Metric50
290
     0
100
AcDbSectionViewStyle
 70
     0
 71
     0
 90
      102
 71
     1
340
11
 40
5.0
340
0
340
0
 40
5.0
300
I, O, Q, S, X, Z
 40
10.0
 90
        0
 40
2.5
 90
        0
 71
     2
340
16
 90
       25
340
16
 90
       50
 40
5.0
 40
2.5
 40
5.0
 71
     3
340
11
 40
5.0
 90
        0
 40
15.0
 90
        1
300
%<\AcVar ViewSectionStartId>%-%<\AcVar ViewSectionEndId>% (%<\AcVar ViewScale \f "%sn">%)
 71
     4
300
ANSI31
 40
1.0
 90
        0
290
     0
290
     0
 90
        6
 40
0.0
 40
1.570796326794896
 40
0.2617993877991494
 40
1.308996938995747
 40
-0.2617993877991494
 40
1.832595714594046
  0
TABLESTYLE
  5
7F
102
{ACAD_XDICTIONARY
360
162
102
}
102
{ACAD_REACTORS
330
7E
102
}
330
7E
100
AcDbTableStyle
  3
Standard
 70
     0
 71
     0
 40
1.5
 41
1.5
280
     0
281
     0
  7
Standard
140
4.5
170
     2
 62
     0
 63
     7
283
     0
274
    -2
284
     1
 64
     0
275
    -2
285
     1
 65
     0
276
    -2
286
     1
 66
     0
277
    -2
287
     1
 67
     0
278
    -2
288
     1
 68
     0
279
    -2
289
     1
 69
     0
  7
Standard
140
6.0
170
     5
 62
     0
 63
     7
283
     0
274
    -2
284
     1
 64
     0
275
    -2
285
     1
 65
     0
276
    -2
286
     1
 66
     0
277
    -2
287
     1
 67
     0
278
    -2
288
     1
 68
     0
279
    -2
289
     1
 69
     0
  7
Standard
140
4.5
170
     5
 62
     0
 63
     7
283
     0
274
    -2
284
     1
 64
     0
275
    -2
285
     1
 65
     0
276
    -2
286
     1
 66
     0
277
    -2
287
     1
 67
     0
278
    -2
288
     1
 68
     0
279
    -2
289
     1
 69
     0
  0
VISUALSTYLE
  5
F5
102
{ACAD_XDICTIONARY
360
6C46
102
}
102
{ACAD_REACTORS
330
EF
102
}
330
EF
100
AcDbVisualStyle
  2
2dWireframe
 70
     4
 71
     0
 72
     2
 73
     1
 90
        0
 40
-0.6
 41
-30.0
 62
     5
 63
     7
 74
     1
 91
        4
 64
     7
 65
   257
 75
     1
175
     1
 42
1.0
 92
        0
 66
   257
 43
1.0
 76
     1
 77
     6
 78
     2
 67
     7
 79
     5
170
     0
171
     0
290
     0
174
     0
 93
        1
 44
0.0
173
     0
291
     0
 45
0.0
1001
ACAD
1000
AcDbSavedByObjectVersion
1070
     0
  0
VISUALSTYLE
  5
F4
102
{ACAD_XDICTIONARY
360
6C44
102
}
102
{ACAD_REACTORS
330
EF
102
}
330
EF
100
AcDbVisualStyle
  2
Basic
 70
     7
 71
     1
 72
     0
 73
     1
 90
        0
 40
-0.6
 41
-30.0
 62
     5
 63
     7
 74
     0
 91
        4
 64
     7
 65
   257
 75
     1
175
     1
 42
1.0
 92
        8
 66
     7
 43
1.0
 76
     1
 77
     6
 78
     2
 67
     7
 79
     5
170
     0
171
     0
290
     0
174
     0
 93
        1
 44
0.0
173
     0
291
     1
 45
0.0
1001
ACAD
1000
AcDbSavedByObjectVersion
1070
     0
  0
VISUALSTYLE
  5
FB
102
{ACAD_XDICTIONARY
360
6C52
102
}
102
{ACAD_REACTORS
330
EF
102
}
330
EF
100
AcDbVisualStyle
  2
Brighten
 70
    12
 71
     2
 72
     2
 73
     1
 90
        0
 40
-0.6
 41
-30.0
 62
     5
 63
     7
 74
     1
 91
        4
 64
     7
 65
   257
 75
     1
175
     1
 42
1.0
 92
        8
 66
     7
 43
1.0
 76
     1
 77
     6
 78
     2
 67
     7
 79
     5
170
     0
171
     0
290
     0
174
     0
 93
        1
 44
50.0
173
     0
291
     1
 45
0.0
1001
ACAD
1000
AcDbSavedByObjectVersion
1070
     0
  0
VISUALSTYLE
  5
FF
102
{ACAD_XDICTIONARY
360
6C5A
102
}
102
{ACAD_REACTORS
330
EF
102
}
330
EF
100
AcDbVisualStyle
  2
ColorChange
 70
    16
 71
     2
 72
     2
 73
     3
 90
        0
 40
-0.6
 41
-30.0
 62
     5
 63
     8
 74
     1
 91
        4
 64
     7
 65
   257
 75
     1
175
     1
 42
1.0
 92
        8
 66
     8
 43
1.0
 76
     1
 77
     6
 78
     2
 67
     7
 79
     5
170
     0
171
     0
290
     0
174
     0
 93
        1
 44
0.0
173
     0
291
     1
 45
0.0
1001
ACAD
1000
AcDbSavedByObjectVersion
1070
     0
  0
VISUALSTYLE
  5
F8
102
{ACAD_XDICTIONARY
360
6C4C
102
}
102
{ACAD_REACTORS
330
EF
102
}
330
EF
100
AcDbVisualStyle
  2
Conceptual
 70
     9
 71
     3
 72
     2
 73
     1
 90
        0
 40
-0.6
 41
-30.0
 62
     5
 63
     7
 74
     2
 91
        2
 64
     7
 65
   257
 75
     1
175
     1
 42
40.0
 92
        8
 66
     7
 43
1.0
 76
     1
 77
     6
 78
     2
 67
     7
 79
     3
170
     0
171
     0
290
     0
174
     0
 93
        1
 44
0.0
173
     0
291
     0
 45
0.0
1001
ACAD
1000
AcDbSavedByObjectVersion
1070
     0
  0
VISUALSTYLE
  5
FA
102
{ACAD_XDICTIONARY
360
6C50
102
}
102
{ACAD_REACTORS
330
EF
102
}
330
EF
100
AcDbVisualStyle
  2
Dim
 70
    11
 71
     2
 72
     2
 73
     1
 90
        0
 40
-0.6
 41
-30.0
 62
     5
 63
     7
 74
     1
 91
        4
 64
     7
 65
   257
 75
     1
175
     1
 42
1.0
 92
        8
 66
     7
 43
1.0
 76
     1
 77
     6
 78
     2
 67
     7
 79
     5
170
     0
171
     0
290
     0
174
     0
 93
        1
 44
-50.0
173
     0
291
     1
 45
0.0
1001
ACAD
1000
AcDbSavedByObjectVersion
1070
     0
  0
VISUALSTYLE
  5
1E6
102
{ACAD_XDICTIONARY
360
6C62
102
}
102
{ACAD_REACTORS
330
EF
102
}
330
EF
100
AcDbVisualStyle
  2
EdgeColorOff
 70
    22
 71
     2
 72
     2
 73
     0
 90
        0
 40
-0.6
 41
-30.0
 62
     5
 63
     7
 74
     1
 91
        4
 64
     7
 65
   257
 75
     1
175
     1
 42
1.0
 92
        8
 66
     7
 43
1.0
 76
     1
 77
     6
 78
     2
 67
     7
 79
     5
170
     0
171
     0
290
     0
174
     0
 93
        1
 44
0.0
173
     0
291
     1
 45
0.0
1001
ACAD
1000
AcDbSavedByObjectVersion
1070
     0
  0
VISUALSTYLE
  5
FE
102
{ACAD_XDICTIONARY
360
6C58
102
}
102
{ACAD_REACTORS
330
EF
102
}
330
EF
100
AcDbVisualStyle
  2
Facepattern
 70
    15
 71
     2
 72
     2
 73
     1
 90
        0
 40
-0.6
 41
-30.0
 62
     5
 63
     7
 74
     1
 91
        4
 64
     7
 65
   257
 75
     1
175
     1
 42
1.0
 92
        8
 66
     7
 43
1.0
 76
     1
 77
     6
 78
     2
 67
     7
 79
     5
170
     0
171
     0
290
     0
174
     0
 93
        1
 44
0.0
173
     0
291
     1
 45
0.0
1001
ACAD
1000
AcDbSavedByObjectVersion
1070
     0
  0
VISUALSTYLE
  5
F0
102
{ACAD_XDICTIONARY
360
6C3C
102
}
102
{ACAD_REACTORS
330
EF
102
}
330
EF
100
AcDbVisualStyle
  2
Flat
 70
     0
 71
     2
 72
     1
 73
     1
 90
        2
 40
-0.6
 41
30.0
 62
     5
 63
     7
 74
     0
 91
        0
 64
     7
 65
   257
 75
     1
175
     1
 42
1.0
 92
        8
 66
     7
 43
1.0
 76
     1
 77
     6
 78
     2
 67
     7
 79
     5
170
     0
171
     0
290
     0
174
     0
 93
       13
 44
0.0
173
     0
291
     1
 45
0.0
1001
ACAD
1000
AcDbSavedByObjectVersion
1070
     0
  0
VISUALSTYLE
  5
F1
102
{ACAD_XDICTIONARY
360
6C3E
102
}
102
{ACAD_REACTORS
330
EF
102
}
330
EF
100
AcDbVisualStyle
  2
FlatWithEdges
 70
     1
 71
     2
 72
     1
 73
     1
 90
        2
 40
-0.6
 41
30.0
 62
     5
 63
     7
 74
     1
 91
        0
 64
     7
 65
   257
 75
     1
175
     1
 42
1.0
 92
        0
 66
   257
 43
1.0
 76
     1
 77
     6
 78
     2
 67
     7
 79
     5
170
     0
171
     0
290
     0
174
     0
 93
       13
 44
0.0
173
     0
291
     1
 45
0.0
1001
ACAD
1000
AcDbSavedByObjectVersion
1070
     0
  0
VISUALSTYLE
  5
F2
102
{ACAD_XDICTIONARY
360
6C40
102
}
102
{ACAD_REACTORS
330
EF
102
}
330
EF
100
AcDbVisualStyle
  2
Gouraud
 70
     2
 71
     2
 72
     2
 73
     1
 90
        2
 40
-0.6
 41
30.0
 62
     5
 63
     7
 74
     0
 91
        0
 64
     7
 65
   257
 75
     1
175
     1
 42
1.0
 92
        0
 66
     7
 43
1.0
 76
     1
 77
     6
 78
     2
 67
     7
 79
     5
170
     0
171
     0
290
     0
174
     0
 93
       13
 44
0.0
173
     0
291
     1
 45
0.0
1001
ACAD
1000
AcDbSavedByObjectVersion
1070
     0
  0
VISUALSTYLE
  5
F3
102
{ACAD_XDICTIONARY
360
6C42
102
}
102
{ACAD_REACTORS
330
EF
102
}
330
EF
100
AcDbVisualStyle
  2
GouraudWithEdges
 70
     3
 71
     2
 72
     2
 73
     1
 90
        2
 40
-0.6
 41
30.0
 62
     5
 63
     7
 74
     1
 91
        0
 64
     7
 65
   257
 75
     1
175
     1
 42
1.0
 92
        0
 66
   257
 43
1.0
 76
     1
 77
     6
 78
     2
 67
     7
 79
     5
170
     0
171
     0
290
     0
174
     0
 93
       13
 44
0.0
173
     0
291
     1
 45
0.0
1001
ACAD
1000
AcDbSavedByObjectVersion
1070
     0
  0
VISUALSTYLE
  5
F7
102
{ACAD_XDICTIONARY
360
6C4A
102
}
102
{ACAD_REACTORS
330
EF
102
}
330
EF
100
AcDbVisualStyle
  2
Hidden
 70
     6
 71
     1
 72
     2
 73
     2
 90
        0
 40
-0.6
 41
-30.0
 62
     5
 63
     7
 74
     2
 91
        2
 64
     7
 65
   257
 75
     2
175
     1
 42
40.0
 92
        0
 66
   257
 43
1.0
 76
     1
 77
     6
 78
     2
 67
     7
 79
     3
170
     0
171
     0
290
     0
174
     0
 93
        1
 44
0.0
173
     0
291
     0
 45
0.0
1001
ACAD
1000
AcDbSavedByObjectVersion
1070
     0
  0
VISUALSTYLE
  5
1E4
102
{ACAD_XDICTIONARY
360
6C5E
102
}
102
{ACAD_REACTORS
330
EF
102
}
330
EF
100
AcDbVisualStyle
  2
JitterOff
 70
    20
 71
     2
 72
     2
 73
     0
 90
        0
 40
-0.6
 41
-30.0
 62
     5
 63
     7
 74
     1
 91
        4
 64
     7
 65
   257
 75
     1
175
     1
 42
1.0
 92
       10
 66
     7
 43
1.0
 76
     1
 77
     6
 78
     2
 67
     7
 79
     5
170
     0
171
     0
290
     0
174
     0
 93
        1
 44
0.0
173
     0
291
     1
 45
0.0
1001
ACAD
1000
AcDbSavedByObjectVersion
1070
     0
  0
VISUALSTYLE
  5
FD
102
{ACAD_XDICTIONARY
360
6C56
102
}
102
{ACAD_REACTORS
330
EF
102
}
330
EF
100
AcDbVisualStyle
  2
Linepattern
 70
    14
 71
     2
 72
     2
 73
     1
 90
        0
 40
-0.6
 41
-30.0
 62
     5
 63
     7
 74
     1
 91
        4
 64
     7
 65
   257
 75
     7
175
     7
 42
1.0
 92
        8
 66
     7
 43
1.0
 76
     1
 77
     6
 78
     2
 67
     7
 79
     5
170
     0
171
     0
290
     0
174
     0
 93
        1
 44
0.0
173
     0
291
     1
 45
0.0
1001
ACAD
1000
AcDbSavedByObjectVersion
1070
     0
  0
VISUALSTYLE
  5
1E5
102
{ACAD_XDICTIONARY
360
6C60
102
}
102
{ACAD_REACTORS
330
EF
102
}
330
EF
100
AcDbVisualStyle
  2
OverhangOff
 70
    21
 71
     2
 72
     2
 73
     0
 90
        0
 40
-0.6
 41
-30.0
 62
     5
 63
     7
 74
     1
 91
        4
 64
     7
 65
   257
 75
     1
175
     1
 42
1.0
 92
        9
 66
     7
 43
1.0
 76
     1
 77
     6
 78
     2
 67
     7
 79
     5
170
     0
171
     0
290
     0
174
     0
 93
        1
 44
0.0
173
     0
291
     1
 45
0.0
1001
ACAD
1000
AcDbSavedByObjectVersion
1070
     0
  0
VISUALSTYLE
  5
F9
102
{ACAD_XDICTIONARY
360
6C4E
102
}
102
{ACAD_REACTORS
330
EF
102
}
330
EF
100
AcDbVisualStyle
  2
Realistic
 70
     8
 71
     2
 72
     2
 73
     0
 90
        2
 40
-0.6
 41
30.0
 62
     5
 63
     7
 74
     0
 91
        0
 64
     7
 65
   257
 75
     1
175
     1
 42
1.0
 92
        8
 66
   257
 43
1.0
 76
     1
 77
     6
 78
     2
 67
     7
 79
     3
170
     0
171
     0
290
     0
174
     0
 93
       13
 44
0.0
173
     0
291
     0
 45
0.0
1001
ACAD
1000
AcDbSavedByObjectVersion
1070
     0
  0
VISUALSTYLE
  5
1F3
102
{ACAD_XDICTIONARY
360
6C6C
102
}
102
{ACAD_REACTORS
330
EF
102
}
330
EF
100
AcDbVisualStyle
  2
Shaded
 70
    27
 71
     2
 72
     2
 73
     1
 90
        2
 40
-0.6
 41
30.0
 62
     5
 63
     7
 74
     0
 91
        4
 64
     7
 65
   257
 75
     1
175
     1
 42
1.0
 92
        8
 66
   257
 43
1.0
 76
     1
 77
     6
 78
     2
 67
     8
 79
     3
170
     0
171
     0
290
     0
174
     0
 93
        5
 44
0.0
173
     0
291
     0
 45
0.0
1001
ACAD
1000
AcDbSavedByObjectVersion
1070
     0
  0
VISUALSTYLE
  5
1F2
102
{ACAD_XDICTIONARY
360
6C6A
102
}
102
{ACAD_REACTORS
330
EF
102
}
330
EF
100
AcDbVisualStyle
  2
Shaded with edges
 70
    26
 71
     2
 72
     2
 73
     1
 90
        2
 40
-0.6
 41
30.0
 62
     5
 63
     7
 74
     1
 91
        2
 64
     7
 65
   257
 75
     2
175
     1
 42
1.0
 92
        8
 66
   257
 43
1.0
 76
     1
 77
     6
 78
     2
 67
     7
 79
     3
170
     0
171
     0
290
     0
174
     0
 93
        5
 44
0.0
173
     0
291
     0
 45
0.0
1001
ACAD
1000
AcDbSavedByObjectVersion
1070
     0
  0
VISUALSTYLE
  5
1EF
102
{ACAD_XDICTIONARY
360
6C64
102
}
102
{ACAD_REACTORS
330
EF
102
}
330
EF
100
AcDbVisualStyle
  2
Shades of Gray
 70
    23
 71
     2
 72
     2
 73
     3
 90
        0
 40
-0.6
 41
-30.0
 62
     5
 63
     7
 74
     2
 91
        2
 64
     7
 65
     7
 75
     1
175
     1
 42
40.0
 92
        8
 66
     7
 43
1.0
 76
     1
 77
     6
 78
     2
 67
     7
 79
     3
170
     0
171
     0
290
     0
174
     0
 93
        1
 44
0.0
173
     0
291
     0
 45
0.0
1001
ACAD
1000
AcDbSavedByObjectVersion
1070
     0
  0
VISUALSTYLE
  5
1F0
102
{ACAD_XDICTIONARY
360
6C66
102
}
102
{ACAD_REACTORS
330
EF
102
}
330
EF
100
AcDbVisualStyle
  2
Sketchy
 70
    24
 71
     1
 72
     2
 73
     2
 90
        0
 40
-0.6
 41
-30.0
 62
     5
 63
     7
 74
     2
 91
        2
 64
     7
 65
     7
 75
     1
175
     1
 42
40.0
 92
       11
 66
     7
 43
1.0
 76
     1
 77
     6
 78
     2
 67
     7
 79
     6
170
     0
171
     0
290
     0
174
     0
 93
        1
 44
0.0
173
     0
291
     0
 45
0.0
1001
ACAD
1000
AcDbSavedByObjectVersion
1070
     0
  0
VISUALSTYLE
  5
FC
102
{ACAD_XDICTIONARY
360
6C54
102
}
102
{ACAD_REACTORS
330
EF
102
}
330
EF
100
AcDbVisualStyle
  2
Thicken
 70
    13
 71
     2
 72
     2
 73
     1
 90
        0
 40
-0.6
 41
-30.0
 62
     5
 63
     7
 74
     1
 91
        4
 64
     7
 65
   257
 75
     1
175
     1
 42
1.0
 92
       12
 66
     7
 43
1.0
 76
     1
 77
     6
 78
     2
 67
     7
 79
     5
170
     0
171
     0
290
     0
174
     0
 93
        1
 44
0.0
173
     0
291
     1
 45
0.0
1001
ACAD
1000
AcDbSavedByObjectVersion
1070
     0
  0
VISUALSTYLE
  5
F6
102
{ACAD_XDICTIONARY
360
6C48
102
}
102
{ACAD_REACTORS
330
EF
102
}
330
EF
100
AcDbVisualStyle
  2
Wireframe
 70
     5
 71
     0
 72
     2
 73
     0
 90
        0
 40
-0.6
 41
-30.0
 62
     5
 63
     7
 74
     1
 91
        4
 64
     7
 65
   257
 75
     1
175
     1
 42
1.0
 92
        0
 66
   257
 43
1.0
 76
     1
 77
     6
 78
     2
 67
     7
 79
     3
170
     0
171
     0
290
     0
174
     0
 93
        1
 44
0.0
173
     0
291
     0
 45
0.0
1001
ACAD
1000
AcDbSavedByObjectVersion
1070
     0
  0
VISUALSTYLE
  5
1F1
102
{ACAD_XDICTIONARY
360
6C68
102
}
102
{ACAD_REACTORS
330
EF
102
}
330
EF
100
AcDbVisualStyle
  2
X-Ray
 70
    25
 71
     2
 72
     2
 73
     1
 90
        1
 40
0.5
 41
-30.0
 62
     5
 63
     7
 74
     1
 91
        0
 64
     7
 65
   257
 75
     1
175
     1
 42
1.0
 92
        8
 66
     7
 43
1.0
 76
     1
 77
     6
 78
     2
 67
     7
 79
     3
170
     0
171
     0
290
     0
174
     0
 93
       13
 44
0.0
173
     0
291
     0
 45
0.0
1001
ACAD
1000
AcDbSavedByObjectVersion
1070
     0
  0
DICTIONARYVAR
  5
146
102
{ACAD_REACTORS
330
5E
102
}
330
5E
100
DictionaryVariables
280
     0
  1
1:1
  0
DICTIONARYVAR
  5
259
102
{ACAD_REACTORS
330
5E
102
}
330
5E
100
DictionaryVariables
280
     0
  1
3.500000
  0
DICTIONARYVAR
  5
25A
102
{ACAD_REACTORS
330
5E
102
}
330
5E
100
DictionaryVariables
280
     0
  1
acadiso.lin
  0
DICTIONARYVAR
  5
145
102
{ACAD_REACTORS
330
5E
102
}
330
5E
100
DictionaryVariables
280
     0
  1
STANDARD
  0
DICTIONARYVAR
  5
84
102
{ACAD_REACTORS
330
5E
102
}
330
5E
100
DictionaryVariables
280
     0
  1
STANDARD
  0
DICTIONARYVAR
  5
227
102
{ACAD_REACTORS
330
5E
102
}
330
5E
100
DictionaryVariables
280
     0
  1
Metric50
  0
DICTIONARYVAR
  5
228
102
{ACAD_REACTORS
330
5E
102
}
330
5E
100
DictionaryVariables
280
     0
  1
Metric50
  0
DICTIONARYVAR
  5
5F
102
{ACAD_REACTORS
330
5E
102
}
330
5E
100
DictionaryVariables
280
     0
  1
2
  0
DICTIONARYVAR
  5
63
102
{ACAD_REACTORS
330
5E
102
}
330
5E
100
DictionaryVariables
280
     0
  1
1
  0
DICTIONARYVAR
  5
6BDD
102
{ACAD_REACTORS
330
5E
102
}
330
5E
100
DictionaryVariables
280
     0
  1
0
  0
DICTIONARYVAR
  5
1AE
102
{ACAD_REACTORS
330
5E
102
}
330
5E
100
DictionaryVariables
280
     0
  1
0
  0
DICTIONARYVAR
  5
1AF
102
{ACAD_REACTORS
330
5E
102
}
330
5E
100
DictionaryVariables
280
     0
  1
0
  0
DICTIONARYVAR
  5
6BDB
102
{ACAD_REACTORS
330
5E
102
}
330
5E
100
DictionaryVariables
280
     0
  1
2
  0
DICTIONARYVAR
  5
6BDA
102
{ACAD_REACTORS
330
5E
102
}
330
5E
100
DictionaryVariables
280
     0
  1
1
  0
DICTIONARYVAR
  5
6C2D
102
{ACAD_REACTORS
330
5E
102
}
330
5E
100
DictionaryVariables
280
     0
  1
80.000000
  0
DICTIONARYVAR
  5
6C2C
102
{ACAD_REACTORS
330
5E
102
}
330
5E
100
DictionaryVariables
280
     0
  1
5.000000
  0
DICTIONARYVAR
  5
6BDC
102
{ACAD_REACTORS
330
5E
102
}
330
5E
100
DictionaryVariables
280
     0
  1
127
  0
DICTIONARYVAR
  5
6C2E
102
{ACAD_REACTORS
330
5E
102
}
330
5E
100
DictionaryVariables
280
     0
  1
2
  0
DICTIONARY
  5
6C70
330
21C
100
AcDbDictionary
280
     1
281
     1
  3
ACAD_XREC_ROUNDTRIP
360
6C71
  0
DICTIONARY
  5
6C35
330
D3
100
AcDbDictionary
280
     1
281
     1
  3
ACAD_XREC_ROUNDTRIP
360
6C36
  0
DICTIONARY
  5
6C37
330
D7
100
AcDbDictionary
280
     1
281
     1
  3
ACAD_XREC_ROUNDTRIP
360
6C38
  0
DICTIONARY
  5
6C32
330
22
100
AcDbDictionary
280
     1
281
     1
  3
ACAD_XREC_ROUNDTRIP
360
6C33
  0
DICTIONARY
  5
1F9
330
ED
100
AcDbDictionary
280
     1
281
     1
  3
ACAD_XREC_ROUNDTRIP
360
6C3A
  3
FBXASSET
360
1FA
  0
DICTIONARY
  5
1F7
330
EC
100
AcDbDictionary
280
     1
281
     1
  3
ACAD_XREC_ROUNDTRIP
360
6C39
  3
FBXASSET
360
1F8
  0
DICTIONARY
  5
173
330
EE
100
AcDbDictionary
280
     1
281
     1
  3
ACAD_XREC_ROUNDTRIP
360
6C3B
  3
BUMPTILE
360
175
  3
DIFFUSETILE
360
174
  3
FBXASSET
360
1FB
  3
OPACITYTILE
360
176
  3
REFLECTIONTILE
360
177
  0
DICTIONARY
  5
6C5C
330
12E
100
AcDbDictionary
280
     1
281
     1
  3
ACAD_XREC_ROUNDTRIP
360
6C5D
  0
DICTIONARY
  5
6C6E
330
21A
100
AcDbDictionary
280
     1
281
     1
  3
ACAD_XREC_ROUNDTRIP
360
6C6F
  0
DICTIONARY
  5
162
330
7F
100
AcDbDictionary
280
     1
281
     1
  3
ACAD_ROUNDTRIP_2008_TABLESTYLE_CELLSTYLEMAP
360
6C2F
  3
ACAD_XREC_ROUNDTRIP
360
6C34
  0
DICTIONARY
  5
6C46
330
F5
100
AcDbDictionary
280
     1
281
     1
  3
ACAD_XREC_ROUNDTRIP
360
6C47
  0
DICTIONARY
  5
6C44
330
F4
100
AcDbDictionary
280
     1
281
     1
  3
ACAD_XREC_ROUNDTRIP
360
6C45
  0
DICTIONARY
  5
6C52
330
FB
100
AcDbDictionary
280
     1
281
     1
  3
ACAD_XREC_ROUNDTRIP
360
6C53
  0
DICTIONARY
  5
6C5A
330
FF
100
AcDbDictionary
280
     1
281
     1
  3
ACAD_XREC_ROUNDTRIP
360
6C5B
  0
DICTIONARY
  5
6C4C
330
F8
100
AcDbDictionary
280
     1
281
     1
  3
ACAD_XREC_ROUNDTRIP
360
6C4D
  0
DICTIONARY
  5
6C50
330
FA
100
AcDbDictionary
280
     1
281
     1
  3
ACAD_XREC_ROUNDTRIP
360
6C51
  0
DICTIONARY
  5
6C62
330
1E6
100
AcDbDictionary
280
     1
281
     1
  3
ACAD_XREC_ROUNDTRIP
360
6C63
  0
DICTIONARY
  5
6C58
330
FE
100
AcDbDictionary
280
     1
281
     1
  3
ACAD_XREC_ROUNDTRIP
360
6C59
  0
DICTIONARY
  5
6C3C
330
F0
100
AcDbDictionary
280
     1
281
     1
  3
ACAD_XREC_ROUNDTRIP
360
6C3D
  0
DICTIONARY
  5
6C3E
330
F1
100
AcDbDictionary
280
     1
281
     1
  3
ACAD_XREC_ROUNDTRIP
360
6C3F
  0
DICTIONARY
  5
6C40
330
F2
100
AcDbDictionary
280
     1
281
     1
  3
ACAD_XREC_ROUNDTRIP
360
6C41
  0
DICTIONARY
  5
6C42
330
F3
100
AcDbDictionary
280
     1
281
     1
  3
ACAD_XREC_ROUNDTRIP
360
6C43
  0
DICTIONARY
  5
6C4A
330
F7
100
AcDbDictionary
280
     1
281
     1
  3
ACAD_XREC_ROUNDTRIP
360
6C4B
  0
DICTIONARY
  5
6C5E
330
1E4
100
AcDbDictionary
280
     1
281
     1
  3
ACAD_XREC_ROUNDTRIP
360
6C5F
  0
DICTIONARY
  5
6C56
330
FD
100
AcDbDictionary
280
     1
281
     1
  3
ACAD_XREC_ROUNDTRIP
360
6C57
  0
DICTIONARY
  5
6C60
330
1E5
100
AcDbDictionary
280
     1
281
     1
  3
ACAD_XREC_ROUNDTRIP
360
6C61
  0
DICTIONARY
  5
6C4E
330
F9
100
AcDbDictionary
280
     1
281
     1
  3
ACAD_XREC_ROUNDTRIP
360
6C4F
  0
DICTIONARY
  5
6C6C
330
1F3
100
AcDbDictionary
280
     1
281
     1
  3
ACAD_XREC_ROUNDTRIP
360
6C6D
  0
DICTIONARY
  5
6C6A
330
1F2
100
AcDbDictionary
280
     1
281
     1
  3
ACAD_XREC_ROUNDTRIP
360
6C6B
  0
DICTIONARY
  5
6C64
330
1EF
100
AcDbDictionary
280
     1
281
     1
  3
ACAD_XREC_ROUNDTRIP
360
6C65
  0
DICTIONARY
  5
6C66
330
1F0
100
AcDbDictionary
280
     1
281
     1
  3
ACAD_XREC_ROUNDTRIP
360
6C67
  0
DICTIONARY
  5
6C54
330
FC
100
AcDbDictionary
280
     1
281
     1
  3
ACAD_XREC_ROUNDTRIP
360
6C55
  0
DICTIONARY
  5
6C48
330
F6
100
AcDbDictionary
280
     1
281
     1
  3
ACAD_XREC_ROUNDTRIP
360
6C49
  0
DICTIONARY
  5
6C68
330
1F1
100
AcDbDictionary
280
     1
281
     1
  3
ACAD_XREC_ROUNDTRIP
360
6C69
  0
XRECORD
  5
6C71
102
{ACAD_REACTORS
330
6C70
102
}
330
6C70
100
AcDbXrecord
280
     1
102
DISPLAYNAME
  1
Metric50
102
FLAGS
 90
        0
  0
XRECORD
  5
6C36
102
{ACAD_REACTORS
330
6C35
102
}
330
6C35
100
AcDbXrecord
280
     1
102
SHADEPLOT
 70
     0
102
SHADEPLOTRESLEVEL
 70
     2
102
SHADEPLOTCUSTOMDPI
 70
   300
  0
XRECORD
  5
6C38
102
{ACAD_REACTORS
330
6C37
102
}
330
6C37
100
AcDbXrecord
280
     1
102
SHADEPLOT
 70
     0
102
SHADEPLOTRESLEVEL
 70
     2
102
SHADEPLOTCUSTOMDPI
 70
   300
  0
XRECORD
  5
6C33
102
{ACAD_REACTORS
330
6C32
102
}
330
6C32
100
AcDbXrecord
280
     1
102
SHADEPLOT
 70
     0
102
SHADEPLOTRESLEVEL
 70
     2
102
SHADEPLOTCUSTOMDPI
 70
   300
  0
XRECORD
  5
6C3A
102
{ACAD_REACTORS
330
1F9
102
}
330
1F9
100
AcDbXrecord
280
     1
102
MATERIAL
148
0.0
149
0.0
149
0.0
 93
        0
 94
       63
282
     0
 72
     1
 77
     1
171
     1
175
     1
179
     1
273
     0
  0
XRECORD
  5
1FA
102
{ACAD_REACTORS
330
1F9
102
}
330
1F9
100
AcDbXrecord
280
     1
 70
     1
 90
429727718
  1
D62C5603-E3A1-4AEA-B7FB-FE5D8D0755AF
310
504B03040A0000080000CC70623B3DEE336E79000000790000001B0000006175746F6465736B2D64657369676E2D7061636B6167652E786D6C3C3F786D6C2076657273696F6E3D22312E302220656E636F64696E673D227574662D3822203F3E3C666F726D6174733E3C666F726D61743E687474703A2F2F736368656D612E
310
6175746F6465736B2E636F6D2F64657369676E2D7061636B6167652F323030393C2F666F726D61743E3C2F666F726D6174733E504B0304140006080800CC70623BD486FD9CA0000000F4000000130000005B436F6E74656E745F54797065735D2E786D6C7D8EC10E82300C865F65E91D8A1E8C310C0EEA1BF002731658846E
310
D98AC1B77784ABF1D8FE5FBFBF75BBCE937A534CCEB38643598122B6FEE978D0B0485F9C41B54DDD7D022595594E1A469170414C76A4D9A4D207E29CF43ECE46F218070CC6BECC4078ACAA135ACF422C856C0E68EA1BF5669944DDD7BCDE7B1F8E415D77AECB980613C2E4AC91FC167A2B244592486606FC29C8FD7F045B9A
310
EF7053A7E60B504B0304140006080800CC70623B853B8169EB0000007C01000008000000636F72652E786D6C8D90416EC3201045AF62CDB6C206821CC7C244919D9CA01740401C94182C03558F5F9C3852BBEB6A467FFE9B197D7EFC9E1EC5975982F5AE035262288C535E5B377690E21535501C055FBC8FBF6C503839990E
310
5619041F179FE64D52DE45E362569DD7661365082642A11EB9E920A89B99642953CC8E702F67A9EE7234257977194EC9EAE275C4EABCCF5EAD5940D4AC6F0E35A568B8F43562CD7046CD199FD07E60174276A7BE677B5EADB0E0D14EEFFB6A31321A0D82627C4084204C3F096B71DD52F6819B16635EADF63F509AF53FA164
310
5DDCD1EDDD17164090FCC8732078B56691CB33A85CD7DCC40F504B0304140006080800CC70623B55019EA25F0000007C00000007000000636E782E786D6C4DCB3B0E80201045D1AD90E915ED2CF8AC45050C11660C8261F98AB1B07AC9C97D42D718D865D3E909258CFD00CCE24AC6E326A164D74DC0B4128928FF32603847
310
2BA13128B1252AC747C6BAB984FC68F0B87FE8960A5C09FE86CFB69FBA01504B0304140006080800CC70623BDBABAAF470010000D40300000C0000006662782F636F72652E786D6CC553D16E823014FD95A6AF4B694182CC941A83FA05FB810A9511A125A5257EFE2E82712ECEB8A7F100CD39F7F69E734AF9FADC366850B6
310
AF8DCE7018308C942E4C59EB2AC3DE1D498AD15A706B8CFB56869196ADCAF00863C12B6B7C374385D14E6907A836A59A41D9F7CA615434B0C8705F7CAA5606D23BA8E84F41278B93AC54100640439DE0BDB320004D43C63716C7C399D30917DCFBBA9CD9BA8469F5B156168B24CED3F7248AC8769F27244EB73B92EED8862C
310
B7F13E0C179B3C8F979C8ECD82BBBABDAA2BAC924E9558448CBD9330242CFA08E3154B5651FCC6D215639C8EE5774DBE2B5F6CF2B5768B68963BB5F5588420E442FC700B1139D4CB01F450C1E918227C2E09DF070D8140C84E1E9AAB8F1340832A9CB13130A5F1376A908D57309505ECF2A0DF179C4E9D30F5B239B87E3823
310
7A79C6F31DE1A8A5AEC08474B03C7837EAE4938639B44E5932B833D2C6B6B279CDC613877FA26EE21F4A2A4C63EC7F29A2F301D1F9F7A0E37D145F504B0304140006080800CC70623B9C113CC27E0000009D0000000B0000006662782F636E782E786D6C4DCCDF0A83201C86E15B91DFB94BFB330DD428C8FB886521330DA7
310
6397BF1A1DECE883878F57749FCDA1B7892F1BBC047A23808C7F84D9FA55424E0BE6803A256208E9EF06C84F9B91703228B1C690F78B66B34CD9A5439DF5CF0BFBF65E35BCA1B8D6A5C6F540381E886698B5741C695F9503EBA150A2F8958E3DC3EA0B504B0304140006080800CC70623B7DF2F77C2A010000120200003100
310
00006662782F41393633353835312D344632462D344230382D423046372D3739314545314133324237412F636F72652E786D6C8D51DB8EC22014FC15C2939B0D2DB4B45643319AE817EC0F6041255A68B86CFCFC856D4D76DF7CE190393373060EDB3DC707F856CE6B6B7A480A0C81328395DA5C7B18C3057510EC3873D686
310
3F34088C18550F330C39BB3A1BA7051AAC09CA84841A2BD5020AEF55806078A44B0FFD7053A328440C89E1EFC52486BBB8AA8214A99D789CF9E05200300FC927E4FB4D5B375D43103D5527440FB843077C5AA3F5861C8F645F5787F59E95B390B318B55CE45AA638FAA2957BD7248B390B7A7CC51F9C124149C82B8C378810
310
84AB2F42B7B8DD56F413775B8C5999E9FF4471926F8AA236A1AE96B8B3CC434E5839373893369E1FAF30EA395917409EB7F26AF8801C171837A4A6AC9C89E9F9C9B1A58BA30FD6A5EF5DDDCF894B9AD9B6A59C957943A9FCAE2FD5BC4DFE03504B0304140006080800CC70623BAD7543B64E01000033030000300000006662
310
782F41393633353835312D344632462D344230382D423046372D3739314545314133324237412F636E782E786D6CD593CD6EC32010845F0571AD6CE3D48AD20813A9873E410FBD12D82434182C7EAAE6EDBB2424CD25871E7B41D6EC30B3FA84F9E67BB2E40B4234DE8DB46F1925E094D7C6ED479AD3AE5951B2113C789FEE
310
6C943839C1488B4C05DF079FE72A69D8C96C13AAD6B8631503449F83828872B949AC57D26200B826A308D316B4064D6E46FCDA41C05550DC9E483A00797BFD207EFB092A45DE9514C1BBD22178396BD39D891265658C238DEA00936C654E5E433CB65A26D9F6EDB5EBC14EBF49A45CB856E66048291F6939A9A81BB5C89177
310
38143CA680F4AA299D66A042CEB3354A2684DC9D8D178FE0D9B8B41CAAD720F880EE7EF93C0C18769E099ECC04D5A102C8049A8A05632F4DDF376CF1DE0F6BB65C2F8627B65A33C6BB62177CEBBDAD973006829F89F22E814B54F4BC2BE347F8AA8F681390B50FA73F804400B5F542E796F19FF974E7F78DB802FE05E20750
310
4B0304140006080800CC70623BE75B7789680500003C100000340000006662782F41393633353835312D344632462D344230382D423046372D3739314545314133324237412F6F626A656374732E786D6CAD575B8F9B3818FD2B887D06C22499CB8AA1CA655245D5B455A356FB305264C061D8018C6C3393D95FBFC7600890
310
A4CD5EF210B0B1BFEBF98E3F7B1FF6596ABC522E1296DF9BAE3D320D9A872C4AF2F8DE2CE5CEBA358D0FBEC719939D65A691938CDE9B6ADAF4BD98B3B2D05311DD91329583D9D5FC0F438434A7A611A644887B5384CF34233629258BA878B12322891DEFF6B66BD70BFB62634E8AE781D082709A4B588AF91C528CDA28B73F
310
1C998EEF39EABBEFA97FBD6A7C7E9553F9D3D79FE442923C3C523610337627CB87ABE99D359D4CC6D6E4FACAB5E6ABF9D2726FC6A3C5F56271377BB88362213924694B38DD99FE47C48627A1E7D49F5A8BB5E1A74C0A599ED3B0F21F1E56366B89112D681E218F0915D0D6F17AD41FBA2A369DCF6335D62ABBD39779D5DDD1
310
11D4D8DE3CBB96B2E04FB8202E41051754A1AA8E8F76B4C6DFE810B580B1547F4B84911149794252234D024EF8BBE963A95AE27B3D310A9D5C215C7960FAEE415ED75694C6AFB17BCACA5D99A60A9AA65F217B0BFC53292ACB92BF283FAD0D3621576592CB5BED907C2FA8E9DF794E35E97BEA31BED21FEB401ABB94C44839
310
DCACBF0E1C5DA8DA5B2F4DFFD32AD86F543D9E565E7056502E157C00AD2671CD534549AB752FCA9CDA00677A313F04E51B22FF19E57B300579E3C97EB29F682D92935CEC18CF901B7B54FD8C51F362B56FC72FE0B3C1EAE335EDCCBF5AEC39ADB17DC238973F804BA5E6F6BFE7AF1FB32E523BE9F3BD571418E3631DCA4D48
310
5250CF639223210A9446CA30052EDF057BD35F8329C1ECD84552BF0DC8D18BE7BCE23BFE6BD960AB4A7DE79923A103BEBD80F911CBAA2C60DB19B01CF164A5583B772EE6D3FFA56666CBCDA74DC97724A48F9A58967497E489C4D979006FD7A05E227A1EBDD0F737C623387A9C844D3709995625106D157315F8B8392CD4E0
310
A0B9A720C4BE9829CEF37EA1E13111214D53925356365ADA634861B52519DD27A00AEB808EAF0628E6F435519D446F45CF2C9CF5214F0A15B2F6D06B79DA3EE3CBF7F56780D2F4E7EF73A0F5E5B02A38D07DC852C6B7C1FBB6664213E0C39E3EBA7FF4E1AD23EA2829407C85E586727488B751B2DB9502BC7B228A3FD68B6E
310
A65A22397E690AA8D158D7E404EC8CDA235CC3B7D1898680131CEC2CDF2638C65196279577750F15884AEE19F94199155B92B13297978469D4F8D358DF0AEF7631E28DC8F0D9F437D5D39A83B2231A1D52D543813A824EF8D44BCFF2FA6A31BD1E8DAD87F1CCB526B3879935BF59CDADD5C37479BB1CDD4CA7B3556B516589
310
EF352754B706114D9C885EC9131DE6EFEB43D99AFE2391C2F958179413D7CFEF6B1B6DB1E7600F00DE6E5C67454A339A4BA2E0FBA85ED26F045D454F463DBFCE484C2F90F2E5E3666003662ED8F755951A7D1BECD5B30B550B2785C8E7320B7292A4838DDA71BBC863ED7613CAF659337A3354231D4FF4A182A54904C2898C
310
98B28C4AD0CE056CCF332A80986E571EE9DBC305BB5FEB7E509220A58D25CF042D712A806AC0AD0C657FDEF80D2D9CEAA2EE4D1C76F60BFE74219A06527D6F82DF6412526107381E55E353090704D085B52408A8913C4ED159D79BDA71BB4BC506F4831350EB6F975CD22D69BF7AC49B91A2C0A9DDA3D5CA36AD20FC478E37
310
E61844E2352865EBCB61A275A65283CAAA9DD27703B4102F5AF51EF5F573B75CBB5AD38BC845F7A49F82A0966A49C2E3EA5EA0ECD326CD965F1DB402C6FA8B51A4658C5C5E2EC9E214602E55810345408596591009A82E7E7FFACA19EEA299B14A0081A705CB3296EBC14CDF658DCD336EA6D1136881AAEB87B81AB9EE53D5
310
F5EB8BC8362082DA24122F98680A4E7930C01A0079749CEA14382A0783E5EBA5A10F8C098456A03D6A4AEB6BB881E2513747552A5DB22C7EDAF83BD5528081A365F7FF06504B0304140006080000CC70623B000000000000000000000000350000006662782F41393633353835312D344632462D344230382D423046372D37
310
39314545314133324237412F76657274696365732E62696E504B0304140006080800CC70623BF270F1330600000004000000360000006662782F41393633353835312D344632462D344230382D423046372D3739314545314133324237412F747269616E676C65732E62696E636660600000504B0304140006080000CC7062
310
3B000000000000000000000000370000006662782F41393633353835312D344632462D344230382D423046372D3739314545314133324237412F617474726962757465732E62696E504B0304140006080800CC70623B08DA0BD19000000041010000360000006662782F41393633353835312D344632462D344230382D4230
310
46372D3739314545314133324237412F6469726563746F72792E786D6C858F410AC3201045AF22B36F53E9A60B35CBEEBAE80D244E44489C6234F4F835464A48035D0DF398FF9F8AF63D0E6CC63039F212F8F9020C7D47C6792B21C5FE7403D62A1188E2E60C98D7234A5830286103A55745067B9D86B8A3CF9C7F90C11DE6
310
07FB144396D7B6A82D282E9A152AD114D5EF2CB866EEE831B8EEA07A7BB5A8D7D61A2BAAEB7FD5F70921FF497D00504B0304140006080800CC70623BEDD1DC58FD000000A00100003B0000006662782F41393633353835312D344632462D344230382D423046372D3739314545314133324237412F7265736F75726365732F
310
636F72652E786D6C8D504B6E833010BD0A9A6D65B00922041947112427E8052C33A156828DFCA97AFC9A40A576D7CDCCE87D344F8F9FBFE667F689CE6B6B3A6039850C8DB2A336530731DC4903D95970676DF82583CCC8193B5861107C72362E3BA4AC096842428D1D7107A5F7182053CF7474E0D507CE32973124857FE48B
310
540F3961CEF244279DE03EB81420DB9EAC1384436FA353E879B1B182C7A8C75DA3C7F453DF353A1075D537A7BA6464B8F535A99AE14A9A2BBD90E350DD183B5CFABE3AF262350B1EF4FC9351399401471025A527C218A1E53BAB5A5AB765F5469B96525EACF23FA6B88CFF34456DC2A1DCE36E360F82A5202F42F062ED2BAD
310
579969AFDD8A6F504B010214000A0000080000CC70623B3DEE336E79000000790000001B00000000000000000000000000000000006175746F6465736B2D64657369676E2D7061636B6167652E786D6C504B01021400140006080800CC70623BD486FD9CA0000000F40000001300000000000000000000000000B20000005B
310
436F6E74656E745F54797065735D2E786D6C504B01021400140006080800CC70623B853B8169EB0000007C010000080000000000000000000000000083010000636F72652E786D6C504B01021400140006080800CC70623B55019EA25F0000007C000000070000000000000000000000000094020000636E782E786D6C504B
310
01021400140006080800CC70623BDBABAAF470010000D40300000C00000000000000000000000000180300006662782F636F72652E786D6C504B01021400140006080800CC70623B9C113CC27E0000009D0000000B00000000000000000000000000B20400006662782F636E782E786D6C504B01021400140006080800CC70
310
623B7DF2F77C2A010000120200003100000000000000000000000000590500006662782F41393633353835312D344632462D344230382D423046372D3739314545314133324237412F636F72652E786D6C504B01021400140006080800CC70623BAD7543B64E010000330300003000000000000000000000000000D2060000
310
6662782F41393633353835312D344632462D344230382D423046372D3739314545314133324237412F636E782E786D6C504B01021400140006080800CC70623BE75B7789680500003C10000034000000000000000000000000006E0800006662782F41393633353835312D344632462D344230382D423046372D3739314545
310
314133324237412F6F626A656374732E786D6C504B01021400140006080000CC70623B0000000000000000000000003500000000000000000000000000280E00006662782F41393633353835312D344632462D344230382D423046372D3739314545314133324237412F76657274696365732E62696E504B01021400140006
310
080800CC70623BF270F133060000000400000036000000000000000000000000007B0E00006662782F41393633353835312D344632462D344230382D423046372D3739314545314133324237412F747269616E676C65732E62696E504B01021400140006080000CC70623B0000000000000000000000003700000000000000
310
000000000000D50E00006662782F41393633353835312D344632462D344230382D423046372D3739314545314133324237412F617474726962757465732E62696E504B01021400140006080800CC70623B08DA0BD1900000004101000036000000000000000000000000002A0F00006662782F41393633353835312D344632
310
462D344230382D423046372D3739314545314133324237412F6469726563746F72792E786D6C504B01021400140006080800CC70623BEDD1DC58FD000000A00100003B000000000000000000000000000E1000006662782F41393633353835312D344632462D344230382D423046372D3739314545314133324237412F7265
310
736F75726365732F636F72652E786D6C504B0506000000000E000E0080040000641100000000
  0
XRECORD
  5
6C39
102
{ACAD_REACTORS
330
1F7
102
}
330
1F7
100
AcDbXrecord
280
     1
102
MATERIAL
148
0.0
149
0.0
149
0.0
 93
        0
 94
       63
282
     0
 72
     1
 77
     1
171
     1
175
     1
179
     1
273
     0
  0
XRECORD
  5
1F8
102
{ACAD_REACTORS
330
1F7
102
}
330
1F7
100
AcDbXrecord
280
     1
 70
     1
 90
429727718
  1
30362254-06B7-45E0-A893-8CFA70E3D6BC
310
504B03040A0000080000CC70623B3DEE336E79000000790000001B0000006175746F6465736B2D64657369676E2D7061636B6167652E786D6C3C3F786D6C2076657273696F6E3D22312E302220656E636F64696E673D227574662D3822203F3E3C666F726D6174733E3C666F726D61743E687474703A2F2F736368656D612E
310
6175746F6465736B2E636F6D2F64657369676E2D7061636B6167652F323030393C2F666F726D61743E3C2F666F726D6174733E504B0304140006080800CC70623BD486FD9CA0000000F4000000130000005B436F6E74656E745F54797065735D2E786D6C7D8EC10E82300C865F65E91D8A1E8C310C0EEA1BF002731658846E
310
D98AC1B77784ABF1D8FE5FBFBF75BBCE937A534CCEB38643598122B6FEE978D0B0485F9C41B54DDD7D022595594E1A469170414C76A4D9A4D207E29CF43ECE46F218070CC6BECC4078ACAA135ACF422C856C0E68EA1BF5669944DDD7BCDE7B1F8E415D77AECB980613C2E4AC91FC167A2B244592486606FC29C8FD7F045B9A
310
EF7053A7E60B504B0304140006080800CC70623B1EC5D7A3EB0000007C01000008000000636F72652E786D6C8D90416EC3201045AF82665B6103C6756C6122AB4D4ED00B204C5C94182C03558F5F9C3852BBEB6A467FFE9B197D71FC9E6FE8CBACC17AD7032D0820E3B41FAD9B7A48F1820F808E52ACDEC75F36404ECDA687
310
4D0629A6D5A76597B477D1B89855E747B38B2A041301E95B6E7A08FAD3CCAA50296647B8168BD2573599823EBB0CA76447F43862C7BCCF5EAC59410E4DDD9C7973C2755553CCCFA4C603E3040F1565ED3B1FDE4E432BCA0D9622DAF9795FAF464533826484B498524CD807E51D79ED187F21878E10516EF63F505AC67F42C9
310
BA58B1FDDD071640D2FCC87D2045B96591CB3DA85CB7DCE40F504B0304140006080800CC70623B55019EA25F0000007C00000007000000636E782E786D6C4DCB3B0E80201045D1AD90E915ED2CF8AC45050C11660C8261F98AB1B07AC9C97D42D718D865D3E909258CFD00CCE24AC6E326A164D74DC0B4128928FF32603847
310
2BA13128B1252AC747C6BAB984FC68F0B87FE8960A5C09FE86CFB69FBA01504B0304140006080800CC70623B8C9102E971010000D40300000C0000006662782F636F72652E786D6CC5535B6E833010BC8AE5DF0A6C08340F1947A84D4ED00B38C6A128602363A31CBFCB234A53A551FA553EC09AD9F5CE8C31DB9E9B1AF5CA
310
7695D1198E428A91D2D214952E33ECDD315861B4E5CC1AE3BE9561A445A3323CC098B3D21ADFCE9034DA29ED00D5A6503328BA4E398C640D8B0C77F253352214DE4145770A5B214FA2546114020D759C75CE8200340D19DE981F0F6746269C33EFAB6266AB02A655C74A59CCF365BADC27CB5D902ED22848F6340DF238A141
310
BE88E2F57B92BFEDF23523433367AE6A2EEAA455C2A902F398D2751045018D3FA264435F3771F242571B4A1919CA6F9A7C5B3CD9E42BED16F12C776AEB308F40C848FC700B1139D4891EF410CEC810227CC6846F8386402064270EF5C5C709A05E49676C024C61FC95EA45ED154CA5211D1FF4FB8291A913A68E9B83EBBB33
310
E2A7673CDE118E5AE8124C0807CB8377834E366998436B950D7A7746DAD846D4CFD978E0F04FD455FC5D49D2D4C6FE9722321F10997F0F32DC47FE05504B0304140006080800CC70623BFFEA85907E0000009D0000000B0000006662782F636E782E786D6C4DCCD10A83201886E15B91FFDC95D95A811AB6F23E625948A6C3
310
E9D8E5AF46073BFAE0E1E365ED67B3E8ADC3CB78C7815C7240DA3DFC64DCC221C519D7805AC182F7F1EF06C88D9BE6703008B6049F9E274D7A1E938DBB5AE3D6131B2589BA0D3D965551E0B2EA732C9B9A624AAEB41E3A557677029960D9AFB4EF11165F504B0304140006080800CC70623B4FEEA4082C0100001202000031
310
0000006662782F39464131463745442D413632322D343644302D413938332D3331353338454246344243312F636F72652E786D6C8D515B6EC32010BC0AE2AB55850DD871ED0813254D72825EC00192A2C460F1A872FC42ED48ED5F7E00CDCECCCEB26C731F6FE05B39AFADE921293004CA082BB5B9F43086336A21D870E6AC
310
0D7F68109861543DCC30E4ECE26C9C164858139409093556AA051CBC570102714B8F1E7AF1A5C6A11862480C7F2DA6415C878B2A4891CA89C7990F2E050073937C42DE1DB7E4F87ED8A36D4329AA9B3D46DBAEAD504556557BD81DEBDD0761E52CE42C462D17B996298E3E6BE59E35C962CE821E1FF18553435012728A7187
310
0841987E927A8D9B35ADDF70BBC6989599FE4F1427F9A4286A132ABAC49D651EF234CD5CE04CDA78BA3DC2A8FB645D00B9DF8B57E215725C60BCA2A463E54C4CE327C7A65E1C7DB02E7DEFCBF594B864C5CA6CDBD49C957943E9FA5D5FBAF336F90F504B0304140006080800CC70623BAD7543B64E01000033030000300000
310
006662782F39464131463745442D413632322D343644302D413938332D3331353338454246344243312F636E782E786D6CD593CD6EC32010845F0571AD6CE3D48AD20813A9873E410FBD12D82434182C7EAAE6EDBB2424CD25871E7B41D6EC30B3FA84F9E67BB2E40B4234DE8DB46F1925E094D7C6ED479AD3AE5951B2113C
310
789FEE6C943839C1488B4C05DF079FE72A69D8C96C13AAD6B8631503449F83828872B949AC57D26200B826A308D316B4064D6E46FCDA41C05550DC9E483A00797BFD207EFB092A45DE9514C1BBD22178396BD39D891265658C238DEA00936C654E5E433CB65A26D9F6EDB5EBC14EBF49A45CB856E66048291F6939A9A81BB5
310
C8917738143CA680F4AA299D66A042CEB3354A2684DC9D8D178FE0D9B8B41CAAD720F880EE7EF93C0C18769E099ECC04D5A102C8049A8A05632F4DDF376CF1DE0F6BB65C2F8627B65A33C6BB62177CEBBDAD973006829F89F22E814B54F4BC2BE347F8AA8F681390B50FA73F804400B5F542E796F19FF974E7F78DB802FE05
310
E207504B0304140006080800CC70623B16AB87BA640500003C100000340000006662782F39464131463745442D413632322D343644302D413938332D3331353338454246344243312F6F626A656374732E786D6CAD575B6FA33818FD2B887DE6924B3BED8A326A92B68A663B534DD4D13E548A0C38942D60649B369D5FBFC7
310
600890A493BDE42160637FD7F31D7FF63E6FB3D478A55C242CBF3247B66B1A340F5994E4F19559CA8D75611A9F7D8F33263BCB4C232719BD32D5B4E97B316765A1A722BA21652A07B3B7B33F0D11D29C9A46981221AE4C113ED38CD8A4942CA2E2C58E882476BCD9DA23BB5ED8171B73523C0F841684D35CC252CCE79062D4
310
468DFA43D7747CCF51DF7D4FFDEB5593E3AB9CCA9FBEFE241792E4E19EB28198C968BAB8199F5D5A67D3E9C49A9E8F47D6EC76B6B0469F26EEFC7C3EBFBCBEB98462213924694B38DD98FE1D62C393D073EA4FADC5DAF04326852CCF6958F90F0F2B9BB5C48816348F90C7840A68EB78EDF68723159BCEE7891A6B95DDE9D3
310
BCEAEEE8086A6C6F9E5D4B59F0175C10A7A0820BAA5055C7473B5AE3CFDD452D602CD5DF12616444529E90D448938013FE6EFA58AA96F85E4F8C42275708571E98FE6827AF6B2B4AE3D7D83D64E5A64C53054DD3AF90BD06FEA9149565C94FCA0F6B834DC85599E4F2423B24DF0B6AFA979E534DFA9E7A4CC6FA631D486393
310
921829879BF5D781A373557BCB85E97FB90DB62B558F8795179C15944B051F40AB495CF35451D26A4727654E6D8033BD98EF82F21D91FF8AF2DD9982BCF1643BDD4EB516C9492E368C67C88DED563FC36D5EACF66DFF057C3658BDBFA69DF9578B3DA735B64F18C7F20770A9D45CFCF7FCF563D6456A277DBEF78A02637CA2
310
43B90A490AEAB94F72244481D24819A6C0E59B606BFA4B3025981DBB48EAB701D97BF19C577CC77F2D1B6C55A9EF3C732474C0B727303F625995056C3B02963D9EAC146BE78EC5FCEC7FA999EBC5EACBAAE41B12D27B4D2C0BBA49F244E2ECDC81B76B502F113D8F5EE8FB1BE3111CDD4FC2AA9B844CAB1288B68AB90A7CDC
310
1C166AB0D3DC5310625FCC14E779BFD0709F8890A629C9292B1B2DED31A4B0DA928CEE135085754027E3018A397D4D5427D15BD1330B677DC8934285AC3DF45A9EB68FF8F2B8FC0A509AFEECFD0FF2DE25CC6047F7214B195F07EFEB9A094D800F7BFAE8FED187B78EA8A3A400F115961BCAD1215E47C966530AF0EE8128FE
310
58CEBB996A8964FFA529A046635D9353B0336A8F700DDF46271A024E70B0B37C9DE01847591E54DED53D54202AB947E4076556AC49C6CA5C9E1226B7F1A7B1BE15DEED62C41B91E1B3E9AFAAA735036547343A925075041DF0A9979E893B391F8FCFA6967B3EFB644DCF6E5CEBFAE272625DCC6FAF3FB93793C5F90CE1EF57
310
407342756B10D1C489E8953CD1617E5CEECAD6F4EF8914CE5D5D504E5C3F1F9736DA62CFC11E00BCDDB8CC8A9466349744C1F75EBDA4DF09BA8A9E8C7A7E9991989E20E5DBDD6A6003664ED8F7A04A8DBE0DF6EAD9B9AA858342E47399053949D2C146EDB85DE4B176BB0965FBAC19BD19AA918E27FA50C1D22402E144464C
310
59462568E704B6E71915404CB72B8FF4EDE184DDAF753F284990D2C6926782963815403548A70C657FDEF80D2D9CEAA2AE4C1C76F60BFE74219A06527D6582DF6412526107381E55E353090704D085B52408D0933C4ED159D79BDA71BB4BC506F4831350EB6F979CD22D69BF7AC49B91A2C0A9DDA3D5CA36AD20FC478E37E6
310
1844E2352865EBCB6EA275A652E3836BE04EFB400BF1A2556F515F1FBB35B2AB35BD889C744FFA1004B5544B121E57F70215746DD2F5E2C1412B602CBF19455AC6C8E5E9922C4E01E65215385004546899059180EAFCF7A707CE7017CD8CDB0410789AB32C63B91E5CEBBBACB17AC6CD347A022D5075FD106377347AAABA7E
310
7D11590744509B44E205134DC1290F06580320F78E537D3D73540E06CB970B431F185308AD40BBD794D6D77003C5A36E8EAA54BA64597CD8F83BD552A080A365F7FF06504B0304140006080000CC70623B000000000000000000000000350000006662782F39464131463745442D413632322D343644302D413938332D3331
310
353338454246344243312F76657274696365732E62696E504B0304140006080800CC70623BF270F1330600000004000000360000006662782F39464131463745442D413632322D343644302D413938332D3331353338454246344243312F747269616E676C65732E62696E636660600000504B0304140006080000CC70623B
310
000000000000000000000000370000006662782F39464131463745442D413632322D343644302D413938332D3331353338454246344243312F617474726962757465732E62696E504B0304140006080800CC70623B08DA0BD19000000041010000360000006662782F39464131463745442D413632322D343644302D413938
310
332D3331353338454246344243312F6469726563746F72792E786D6C858F410AC3201045AF22B36F53E9A60B35CBEEBAE80D244E44489C6234F4F835464A48035D0DF398FF9F8AF63D0E6CC63039F212F8F9020C7D47C6792B21C5FE7403D62A1188E2E60C98D7234A5830286103A55745067B9D86B8A3CF9C7F90C11DE607
310
FB144396D7B6A82D282E9A152AD114D5EF2CB866EEE831B8EEA07A7BB5A8D7D61A2BAAEB7FD5F70921FF497D00504B0304140006080800CC70623B0D6EF93BFE000000A00100003B0000006662782F39464131463745442D413632322D343644302D413938332D3331353338454246344243312F7265736F75726365732F63
310
6F72652E786D6C8D50596E833010BD0A9ADFCA60B334011947A8694ED00B586642AC041B79A97AFC9A40A5F6AF3F33A3B7689E1E3F7DCD8FEC139DD7D6F4C0720A191A65476DA61E62B892236427C19DB5E1970C322367EC618541F0C9D9B8EC90B226A009093576C41D94DE63804C3DD2D18357379C652E63480A7FCF17A9
310
EE72C29CE5894E3AC17D702940B63D59270887DE46A7D0F36263058F518FBB468FE9A7BE6A7420864373B8D4873369AA8691FA421B3294352543C5CAF65C0F6FEF43CB8BD52C78D0F34F46E550061C419494B6843142CB0F5677F4B52BEB177AEC28E5C52AFF638ACBF84F53D42654E51E77B379102C05791282176B5F693D
310
CB4C7BED567C03504B010214000A0000080000CC70623B3DEE336E79000000790000001B00000000000000000000000000000000006175746F6465736B2D64657369676E2D7061636B6167652E786D6C504B01021400140006080800CC70623BD486FD9CA0000000F40000001300000000000000000000000000B20000005B
310
436F6E74656E745F54797065735D2E786D6C504B01021400140006080800CC70623B1EC5D7A3EB0000007C010000080000000000000000000000000083010000636F72652E786D6C504B01021400140006080800CC70623B55019EA25F0000007C000000070000000000000000000000000094020000636E782E786D6C504B
310
01021400140006080800CC70623B8C9102E971010000D40300000C00000000000000000000000000180300006662782F636F72652E786D6C504B01021400140006080800CC70623BFFEA85907E0000009D0000000B00000000000000000000000000B30400006662782F636E782E786D6C504B01021400140006080800CC70
310
623B4FEEA4082C0100001202000031000000000000000000000000005A0500006662782F39464131463745442D413632322D343644302D413938332D3331353338454246344243312F636F72652E786D6C504B01021400140006080800CC70623BAD7543B64E010000330300003000000000000000000000000000D5060000
310
6662782F39464131463745442D413632322D343644302D413938332D3331353338454246344243312F636E782E786D6C504B01021400140006080800CC70623B16AB87BA640500003C1000003400000000000000000000000000710800006662782F39464131463745442D413632322D343644302D413938332D3331353338
310
454246344243312F6F626A656374732E786D6C504B01021400140006080000CC70623B0000000000000000000000003500000000000000000000000000270E00006662782F39464131463745442D413632322D343644302D413938332D3331353338454246344243312F76657274696365732E62696E504B01021400140006
310
080800CC70623BF270F133060000000400000036000000000000000000000000007A0E00006662782F39464131463745442D413632322D343644302D413938332D3331353338454246344243312F747269616E676C65732E62696E504B01021400140006080000CC70623B0000000000000000000000003700000000000000
310
000000000000D40E00006662782F39464131463745442D413632322D343644302D413938332D3331353338454246344243312F617474726962757465732E62696E504B01021400140006080800CC70623B08DA0BD190000000410100003600000000000000000000000000290F00006662782F39464131463745442D413632
310
322D343644302D413938332D3331353338454246344243312F6469726563746F72792E786D6C504B01021400140006080800CC70623B0D6EF93BFE000000A00100003B000000000000000000000000000D1000006662782F39464131463745442D413632322D343644302D413938332D3331353338454246344243312F7265
310
736F75726365732F636F72652E786D6C504B0506000000000E000E0080040000641100000000
  0
XRECORD
  5
6C3B
102
{ACAD_REACTORS
330
173
102
}
330
173
100
AcDbXrecord
280
     1
102
MATERIAL
148
0.0
149
0.0
149
0.0
 93
        0
 94
       63
282
     0
 72
     1
 77
     1
171
     1
175
     1
179
     1
273
     0
  0
XRECORD
  5
175
102
{ACAD_REACTORS
330
173
102
}
330
173
100
AcDbXrecord
280
     1
270
     1
271
     1
  0
XRECORD
  5
174
102
{ACAD_REACTORS
330
173
102
}
330
173
100
AcDbXrecord
280
     1
270
     1
271
     1
  0
XRECORD
  5
1FB
102
{ACAD_REACTORS
330
173
102
}
330
173
100
AcDbXrecord
280
     1
 70
     0
 90
1673772943
  1
ECE7A1D2-D628-4531-984C-D00F80459256
310
504B03040A0000080000CC70623B3DEE336E79000000790000001B0000006175746F6465736B2D64657369676E2D7061636B6167652E786D6C3C3F786D6C2076657273696F6E3D22312E302220656E636F64696E673D227574662D3822203F3E3C666F726D6174733E3C666F726D61743E687474703A2F2F736368656D612E
310
6175746F6465736B2E636F6D2F64657369676E2D7061636B6167652F323030393C2F666F726D61743E3C2F666F726D6174733E504B0304140006080800CC70623BD486FD9CA0000000F4000000130000005B436F6E74656E745F54797065735D2E786D6C7D8EC10E82300C865F65E91D8A1E8C310C0EEA1BF002731658846E
310
D98AC1B77784ABF1D8FE5FBFBF75BBCE937A534CCEB38643598122B6FEE978D0B0485F9C41B54DDD7D022595594E1A469170414C76A4D9A4D207E29CF43ECE46F218070CC6BECC4078ACAA135ACF422C856C0E68EA1BF5669944DDD7BCDE7B1F8E415D77AECB980613C2E4AC91FC167A2B244592486606FC29C8FD7F045B9A
310
EF7053A7E60B504B0304140006080800CC70623BD9DDAED0EC0000007C01000008000000636F72652E786D6C8D90416EC3201045AF82665B61836D9CD8C2444DD39CA01740405C94182C03558F5F9C3852BBEB6A467FFE9B197D7EF89E6EE8CB2CC17A37002D0820E394D7D68D03A478C17B4007C117EFE32F1B20272733C0
310
2A83E0E3E2D3BC49CABB685CCCAAF3DA6CA20CC14440EA969B0182FA34932C648AD911AEC52CD5558EA6A0CF2EC329598D1E47ACCEFBECC59A050463A7EA5833865FEBDD0E37353BE3EE8DBDE3F6786A48D375FBF6CC78B9C282473B3DEFABC5C86834888A900E538A49F5419B9EB47DD5BC907D4F082F57FB1F28CDFA9F50
310
B22ED6D5F6EE030B20687EE43E10BC5CB3C8E51E54AE6B6EE207504B0304140006080800CC70623B55019EA25F0000007C00000007000000636E782E786D6C4DCB3B0E80201045D1AD90E915ED2CF8AC45050C11660C8261F98AB1B07AC9C97D42D718D865D3E909258CFD00CCE24AC6E326A164D74DC0B4128928FF326038
310
472BA13128B1252AC747C6BAB984FC68F0B87FE8960A5C09FE86CFB69FBA01504B0304140006080800CC70623BA24EB22D72010000D40300000C0000006662782F636F72652E786D6CC5535B6E833010BC8AE5DF0A6C5E49888CA3A6694ED00B38E05014B091B1518EDFE511A5A9D228FD2A1F60CDEC7A67C6986DCE4D8D7A
310
69BA4AAB0C073EC548AA5C17952A33ECECD15B61B4E1CC686DBF9561A44423333CC098B3D268D7CE50AE9595CA02AA74216750749DB418E5352C32DCE59FB211BE70162ABA93DF8AFC244AE9073ED050C759670D0840D390E18DF9F1706664C23973AE2A66B62A605A75ACA4C13C4976E1364A12EF355A2EBD384AF65EFA96
310
BC7B8BED2EA6719AAE16FB8491A199335B351775B991C2CA02F390D2D40B028F861F41BCA68B7518BFD0D59A524686F29B26D7164F36B94AD9289CE54E6D1DE6010819891F6E21228B3AD1831EC219194284CF98F06DD01008846CC5A1BEF83801D4CBDC6A1303536877A57A513B0953A94FC707FDBE6064EA84A9E3E6E0FA
310
EE8CF0E9198F7784A316AA0413C2C2F2E0ECA0934D1AE6D05A69BCDE9E91D2A611F573361E38FC1375157F5752AE6B6DFE4B11990F88CCBF0719EE23FF02504B0304140006080800CC70623B408A7D3B7C0000009D0000000B0000006662782F636E782E786D6C4DCCD10A83201886E15B91FFDC552A92A0064DBC8F581632
310
D3703A76F9ABD1C18E3E78F878E5F0D9027ABBFCF2292AE86E2D20171F69F6715550CB827B40839639A5F2770314A7CD293819B45C73AAFB45B35BA61ACAA1C1C7E7855C58C15BC331339661262CC762340413D68D77DA5B42298546CBE6573AF60CEB2F504B0304140006080800CC70623B449FB9BD290100001202000031
310
0000006662782F36394639363044362D344446342D343946362D394244322D3234314243333846323333332F636F72652E786D6C8D515B6EC32010BC0AE22B55850D98B871848994463E412FE002495162B07854397EA176A4F62F3F2C9A9D991D587EB84F37F0AD7D30CEF6905418026DA553C65E7A98E219ED203808EE9D
310
8B7F6810D871D23D2C3014FCE25D9A57483A1BB58D19B54EE9151C43D0110279CB971E06F9A5A7B11A53CC8C70ADE6515EC78BAE4895DB992778883E0700CB907242D17643D7E2538BD869608875438BBAE38922CAC8F1BDD90DB4691A5E2F42C153326A951B95E398B3D1FE599322163C9AE9115F7A3D46ADA0A018778810
310
84E907617BDCEE297BC5BB3DC6BC2EF47FA234AB2745C9D8D8D035EE220B50105E2F0DC1954B9FB747187D9F9D8FA0CCDB042D5FA0C015C65B42DF78BD10F3F3B363CB56C7109DCFDFBBB97E662ED92EB62D13BC2E1BCAE5777DB9966D8A1F504B0304140006080800CC70623BAD7543B64E01000033030000300000006662
310
782F36394639363044362D344446342D343946362D394244322D3234314243333846323333332F636E782E786D6CD593CD6EC32010845F0571AD6CE3D48AD20813A9873E410FBD12D82434182C7EAAE6EDBB2424CD25871E7B41D6EC30B3FA84F9E67BB2E40B4234DE8DB46F1925E094D7C6ED479AD3AE5951B2113C789FEE
310
6C943839C1488B4C05DF079FE72A69D8C96C13AAD6B8631503449F83828872B949AC57D26200B826A308D316B4064D6E46FCDA41C05550DC9E483A00797BFD207EFB092A45DE9514C1BBD22178396BD39D891265658C238DEA00936C654E5E433CB65A26D9F6EDB5EBC14EBF49A45CB856E66048291F6939A9A81BB5C89177
310
38143CA680F4AA299D66A042CEB3354A2684DC9D8D178FE0D9B8B41CAAD720F880EE7EF93C0C18769E099ECC04D5A102C8049A8A05632F4DDF376CF1DE0F6BB65C2F8627B65A33C6BB62177CEBBDAD973006829F89F22E814B54F4BC2BE347F8AA8F681390B50FA73F804400B5F542E796F19FF974E7F78DB802FE05E20750
310
4B0304140006080800CC70623B8D05915C650500003B100000340000006662782F36394639363044362D344446342D343946362D394244322D3234314243333846323333332F6F626A656374732E786D6CAD575B6FA33814FE2B887D06429276DA1565D4266D158D3A339A6846FB502932E050B66023DB74D2FDF5FB190C01
310
9276B2973C046C8ECFF53B17071F77456EBD502133CEAE6CDF9DD81665314F32965ED995DA3A17B6F5310C04E7AA47665B8C14F4CAD6DB7618A48257A5D94AE89654B91AEDDEDDFC61C998326A5B714EA4BCB265FC440BE2924AF184CA6737218AB8E976E7FA6E4338649B0A523E8D98964450A6A029F619B8588D52FE7039
310
B1BD30F0F4F730D0FF866AF6369557DB33949F31A9088B0F848DD8CCFCF9F2767A76E99CCDE733677E3EF59D9BBB9BA5E37F984D16E78BC5E5F5ED25044B25C0C96822E8D60EEFE11B91C581D77CEA34368A1F5329E68CD1B8B61F16D63A1B8E092D294B10C78C4A48EB593D192E7DED9BDEE7995E1B91FDEDD3ACEA9FE831
310
6A756F9F7D4D79F4274C90A7A04248AA51D5F8C718DAE06FB2F75AC4796EBE65D22A88A22223B995679120E2D50E41AA49C260C046A35368846B0BECD0DFF3EBEB8AD4F835768F69B9ADF25C43D30E6B646F807FAA64AD59F61715C7A54127C4AACA98BA3006A9D792DAE165E0D59B61A01FB3A9F9D838D2DAE62445C86166
310
F37564E842E7DE6A69879FEEA2DD5AE7E371E1A5E025154AC307D06A03D73EB5978C58FFA4C8E9033066E0F3BD53BEC1F39F91BE7B55103791EDE6BBB991A2046172CB4581D8B893FA674DDA17A77B3B7C413D1B511FD2743BFF8A38F03A658705E3ADF8015C3A3417FF3D7E439FF591DA0B5F18BC20C1B8981957AE6392A3
310
F43C640C01D1A0B4728E2DD4F26DB4B3C3152A252A3B4E913CEC1C72F012782FF88EFF8637AA552DBEF76408E8A8DE9E50F9E1CB3A2DA0DB1B6039A893B56063DC5B3E3FFB5F72E67AB9FEB4AEC496C4F4C1149625DD662C53E89D7BF0F6151A046260D1337DFDC94502430F83B0EE07A130A224BCAD7DAE1D9FB6CD422FF6
310
920702629C4BB9AE79C12F243C6432A6794E18E5552BA56B431AAB5D91317302B2B071E86C3A42B1A02F999E24061403B5D0EB639195DA655DD3EBEAB4FB862DDF579F014AD0E73C22F99E28DA57FB98E75C6CA2D74D53086D600F4786E0FE3144B771A8A7B900F03594DB8A633CBC49B2EDB69228BB479CF863B5E807AAAB
310
23872F6DFEB4129B949CA33823F58830E86D65621E10047D9DB34D862E8EAC3C2ABC2F7B2C40D67CDFE01F5545B92105AF983AC54D93D69E56FB8E797F88913F898A9FEC705D3F9D1B54EC8426FB500D40A03BD0119B06E1B95DDC7EB8F6975367793EBD70E66733DFB9BC982F9CE564727731999F5D4ECFCE3B8D6A4DC2A0
310
6D50FD148437D110834A64C6CDDF57FBACB5C307A2A477DFE4939736CFEF2B175371E0E10CF0DD1D5C15654E0BCA14D1E87DD02FF93782A162C0A3D95F1524A52770F972BF1EE9809D13CE7DD599467F8ECE9ADD85CE85A34CD45355448C64F9E8A031DC2D596ACC6E5DD93D9B82DE2EF5CAF81363A8E47996A0DE24564A79
310
4115AACE09C55E14540231FDA13C319787134EBF34E3A022514E5B4D9E0826E25C02D5805B15ABE1BEF51B26383D445DD9E875EE33FE4C22DA16427D65A3BCA92CA6D28DD01DF5DC53330704308475351050232CCD31583787BA75774AFB06E5070DD0C8EF484E19968C5D83BA5B90B244D31E54D55A372320FE4786B7EA58
310
44E135AA5467CB7EA333A61683CC6A8C3257034C10CF46F40EF9F5BE59BE5BD30C3C72D235E95D10345C1D45445A5F0BB47E46A5EBE5570F9380B5FA629579952296A773720405982B9DE04011506178964401AA8BDF1FBF0A8EAB6861DD6580C0E38217056766716DAEB2D6FA0917D3E4116581EADB879C4E7CFFB11EFACD
310
3D641311495D92C8676CB409A72D18610D803CE8A626049E8EC1887CB5B44CC39883690DDA8399B4B9855B481E7D71D4A9D22F96E5BB73BF5793020C02137BF837504B0304140006080000CC70623B000000000000000000000000350000006662782F36394639363044362D344446342D343946362D394244322D32343142
310
43333846323333332F76657274696365732E62696E504B0304140006080800CC70623BF270F1330600000004000000360000006662782F36394639363044362D344446342D343946362D394244322D3234314243333846323333332F747269616E676C65732E62696E636660600000504B0304140006080000CC70623B0000
310
00000000000000000000370000006662782F36394639363044362D344446342D343946362D394244322D3234314243333846323333332F617474726962757465732E62696E504B0304140006080800CC70623B08DA0BD19000000041010000360000006662782F36394639363044362D344446342D343946362D394244322D
310
3234314243333846323333332F6469726563746F72792E786D6C858F410AC3201045AF22B36F53E9A60B35CBEEBAE80D244E44489C6234F4F835464A48035D0DF398FF9F8AF63D0E6CC63039F212F8F9020C7D47C6792B21C5FE7403D62A1188E2E60C98D7234A5830286103A55745067B9D86B8A3CF9C7F90C11DE607FB14
310
4396D7B6A82D282E9A152AD114D5EF2CB866EEE831B8EEA07A7BB5A8D7D61A2BAAEB7FD5F70921FF497D00504B0304140006080800CC70623BCA768048FE000000A00100003B0000006662782F36394639363044362D344446342D343946362D394244322D3234314243333846323333332F7265736F75726365732F636F72
310
652E786D6C8D50596E833010BD0A9ADFCA60D600328E9AA639412F609909B1126CE4A5EAF16B0295DABFFECC8CDEA2797AECF8353F924FB44E193D409E5248504B332A3D0D10FC95B4901C39B3C6F85F3248B49871801506CE266BC2B243D2688FDA47549B11775038871E12F988C7004EDE7016A9083E2ADC3D5D84BC8B09
310
D33C8D74D471E6BC8D0192EDC93A815B742658898E651BCB59086ADC356A8C3FD555A1055ED7E7E254D615792D0F075295F585746FF53B694EE78A565DD736979A65AB9933AFE69F8CD2A2F038022F28ED489E135A7CE4554F9BBEA85E68DB53CAB255FEC71496F19FA6A0B42F8B3DEE6673C0F318E4497096AD7DC5F52C33
310
EEB55BFE0D504B010214000A0000080000CC70623B3DEE336E79000000790000001B00000000000000000000000000000000006175746F6465736B2D64657369676E2D7061636B6167652E786D6C504B01021400140006080800CC70623BD486FD9CA0000000F40000001300000000000000000000000000B20000005B436F
310
6E74656E745F54797065735D2E786D6C504B01021400140006080800CC70623BD9DDAED0EC0000007C010000080000000000000000000000000083010000636F72652E786D6C504B01021400140006080800CC70623B55019EA25F0000007C000000070000000000000000000000000095020000636E782E786D6C504B0102
310
1400140006080800CC70623BA24EB22D72010000D40300000C00000000000000000000000000190300006662782F636F72652E786D6C504B01021400140006080800CC70623B408A7D3B7C0000009D0000000B00000000000000000000000000B50400006662782F636E782E786D6C504B01021400140006080800CC70623B
310
449FB9BD290100001202000031000000000000000000000000005A0500006662782F36394639363044362D344446342D343946362D394244322D3234314243333846323333332F636F72652E786D6C504B01021400140006080800CC70623BAD7543B64E010000330300003000000000000000000000000000D20600006662
310
782F36394639363044362D344446342D343946362D394244322D3234314243333846323333332F636E782E786D6C504B01021400140006080800CC70623B8D05915C650500003B10000034000000000000000000000000006E0800006662782F36394639363044362D344446342D343946362D394244322D32343142433338
310
46323333332F6F626A656374732E786D6C504B01021400140006080000CC70623B0000000000000000000000003500000000000000000000000000250E00006662782F36394639363044362D344446342D343946362D394244322D3234314243333846323333332F76657274696365732E62696E504B010214001400060808
310
00CC70623BF270F13306000000040000003600000000000000000000000000780E00006662782F36394639363044362D344446342D343946362D394244322D3234314243333846323333332F747269616E676C65732E62696E504B01021400140006080000CC70623B00000000000000000000000037000000000000000000
310
00000000D20E00006662782F36394639363044362D344446342D343946362D394244322D3234314243333846323333332F617474726962757465732E62696E504B01021400140006080800CC70623B08DA0BD190000000410100003600000000000000000000000000270F00006662782F36394639363044362D344446342D
310
343946362D394244322D3234314243333846323333332F6469726563746F72792E786D6C504B01021400140006080800CC70623BCA768048FE000000A00100003B000000000000000000000000000B1000006662782F36394639363044362D344446342D343946362D394244322D3234314243333846323333332F7265736F
310
75726365732F636F72652E786D6C504B0506000000000E000E0080040000621100000000
  0
XRECORD
  5
176
102
{ACAD_REACTORS
330
173
102
}
330
173
100
AcDbXrecord
280
     1
270
     1
271
     1
  0
XRECORD
  5
177
102
{ACAD_REACTORS
330
173
102
}
330
173
100
AcDbXrecord
280
     1
270
     1
271
     1
  0
XRECORD
  5
6C5D
102
{ACAD_REACTORS
330
6C5C
102
}
330
6C5C
100
AcDbXrecord
280
     1
102
ACAD_ROUNDTRIP_2012_MLEADER_STYLE
298
     1
  0
XRECORD
  5
6C6F
102
{ACAD_REACTORS
330
6C6E
102
}
330
6C6E
100
AcDbXrecord
280
     1
102
DISPLAYNAME
  1
Metric50
102
FLAGS
 90
        0
  0
CELLSTYLEMAP
  5
6C2F
102
{ACAD_REACTORS
330
162
102
}
330
162
100
AcDbCellStyleMap
 90
        3
300
CELLSTYLE
  1
TABLEFORMAT_BEGIN
 90
        5
170
     1
 91
        0
 92
    32768
 62
   257
 93
        1
300
CONTENTFORMAT
  1
CONTENTFORMAT_BEGIN
 90
        0
 91
        0
 92
      512
 93
        0
300

 40
0.0
140
1.0
 94
        5
 62
     0
340
11
144
6.0
309
CONTENTFORMAT_END
171
     1
301
MARGIN
  1
CELLMARGIN_BEGIN
 40
1.5
 40
1.5
 40
1.5
 40
1.5
 40
4.5
 40
4.5
309
CELLMARGIN_END
 94
        6
 95
        1
302
GRIDFORMAT
  1
GRIDFORMAT_BEGIN
 90
        0
 91
        1
 62
     0
 92
       -2
340
14
 93
        0
 40
1.125
309
GRIDFORMAT_END
 95
        2
302
GRIDFORMAT
  1
GRIDFORMAT_BEGIN
 90
        0
 91
        1
 62
     0
 92
       -2
340
14
 93
        0
 40
1.125
309
GRIDFORMAT_END
 95
        4
302
GRIDFORMAT
  1
GRIDFORMAT_BEGIN
 90
        0
 91
        1
 62
     0
 92
       -2
340
14
 93
        0
 40
1.125
309
GRIDFORMAT_END
 95
        8
302
GRIDFORMAT
  1
GRIDFORMAT_BEGIN
 90
        0
 91
        1
 62
     0
 92
       -2
340
14
 93
        0
 40
1.125
309
GRIDFORMAT_END
 95
       16
302
GRIDFORMAT
  1
GRIDFORMAT_BEGIN
 90
        0
 91
        1
 62
     0
 92
       -2
340
14
 93
        0
 40
1.125
309
GRIDFORMAT_END
 95
       32
302
GRIDFORMAT
  1
GRIDFORMAT_BEGIN
 90
        0
 91
        1
 62
     0
 92
       -2
340
14
 93
        0
 40
1.125
309
GRIDFORMAT_END
309
TABLEFORMAT_END
  1
CELLSTYLE_BEGIN
 90
        1
 91
        1
300
_TITLE
309
CELLSTYLE_END
300
CELLSTYLE
  1
TABLEFORMAT_BEGIN
 90
        5
170
     1
 91
        0
 92
        0
 62
   257
 93
        1
300
CONTENTFORMAT
  1
CONTENTFORMAT_BEGIN
 90
        0
 91
        0
 92
      512
 93
        0
300

 40
0.0
140
1.0
 94
        5
 62
     0
340
11
144
4.5
309
CONTENTFORMAT_END
171
     1
301
MARGIN
  1
CELLMARGIN_BEGIN
 40
1.5
 40
1.5
 40
1.5
 40
1.5
 40
4.5
 40
4.5
309
CELLMARGIN_END
 94
        6
 95
        1
302
GRIDFORMAT
  1
GRIDFORMAT_BEGIN
 90
        0
 91
        1
 62
     0
 92
       -2
340
14
 93
        0
 40
1.125
309
GRIDFORMAT_END
 95
        2
302
GRIDFORMAT
  1
GRIDFORMAT_BEGIN
 90
        0
 91
        1
 62
     0
 92
       -2
340
14
 93
        0
 40
1.125
309
GRIDFORMAT_END
 95
        4
302
GRIDFORMAT
  1
GRIDFORMAT_BEGIN
 90
        0
 91
        1
 62
     0
 92
       -2
340
14
 93
        0
 40
1.125
309
GRIDFORMAT_END
 95
        8
302
GRIDFORMAT
  1
GRIDFORMAT_BEGIN
 90
        0
 91
        1
 62
     0
 92
       -2
340
14
 93
        0
 40
1.125
309
GRIDFORMAT_END
 95
       16
302
GRIDFORMAT
  1
GRIDFORMAT_BEGIN
 90
        0
 91
        1
 62
     0
 92
       -2
340
14
 93
        0
 40
1.125
309
GRIDFORMAT_END
 95
       32
302
GRIDFORMAT
  1
GRIDFORMAT_BEGIN
 90
        0
 91
        1
 62
     0
 92
       -2
340
14
 93
        0
 40
1.125
309
GRIDFORMAT_END
309
TABLEFORMAT_END
  1
CELLSTYLE_BEGIN
 90
        2
 91
        1
300
_HEADER
309
CELLSTYLE_END
300
CELLSTYLE
  1
TABLEFORMAT_BEGIN
 90
        5
170
     1
 91
        0
 92
        0
 62
   257
 93
        1
300
CONTENTFORMAT
  1
CONTENTFORMAT_BEGIN
 90
        0
 91
        0
 92
      512
 93
        0
300

 40
0.0
140
1.0
 94
        2
 62
     0
340
11
144
4.5
309
CONTENTFORMAT_END
171
     1
301
MARGIN
  1
CELLMARGIN_BEGIN
 40
1.5
 40
1.5
 40
1.5
 40
1.5
 40
4.5
 40
4.5
309
CELLMARGIN_END
 94
        6
 95
        1
302
GRIDFORMAT
  1
GRIDFORMAT_BEGIN
 90
        0
 91
        1
 62
     0
 92
       -2
340
14
 93
        0
 40
1.125
309
GRIDFORMAT_END
 95
        2
302
GRIDFORMAT
  1
GRIDFORMAT_BEGIN
 90
        0
 91
        1
 62
     0
 92
       -2
340
14
 93
        0
 40
1.125
309
GRIDFORMAT_END
 95
        4
302
GRIDFORMAT
  1
GRIDFORMAT_BEGIN
 90
        0
 91
        1
 62
     0
 92
       -2
340
14
 93
        0
 40
1.125
309
GRIDFORMAT_END
 95
        8
302
GRIDFORMAT
  1
GRIDFORMAT_BEGIN
 90
        0
 91
        1
 62
     0
 92
       -2
340
14
 93
        0
 40
1.125
309
GRIDFORMAT_END
 95
       16
302
GRIDFORMAT
  1
GRIDFORMAT_BEGIN
 90
        0
 91
        1
 62
     0
 92
       -2
340
14
 93
        0
 40
1.125
309
GRIDFORMAT_END
 95
       32
302
GRIDFORMAT
  1
GRIDFORMAT_BEGIN
 90
        0
 91
        1
 62
     0
 92
       -2
340
14
 93
        0
 40
1.125
309
GRIDFORMAT_END
309
TABLEFORMAT_END
  1
CELLSTYLE_BEGIN
 90
        3
 91
        2
300
_DATA
309
CELLSTYLE_END
  0
XRECORD
  5
6C34
102
{ACAD_REACTORS
330
162
102
}
330
162
100
AcDbXrecord
280
     1
102
ACAD_ROUNDTRIP_PRE2007_TABLESTYLE
 90
      512
 91
        0
  1

 92
      512
 93
        0
  2

 94
      512
 95
        0
  3

  0
XRECORD
  5
6C47
102
{ACAD_REACTORS
330
6C46
102
}
330
6C46
100
AcDbXrecord
280
     1
102
RTVSPost2010Prop28
280
     1
102
RTVSPost2010PropOp28
 70
     1
102
RTVSPost2010Prop29
280
     1
102
RTVSPost2010PropOp29
 70
     1
102
RTVSPost2010Prop30
280
     0
102
RTVSPost2010PropOp30
 70
     1
102
RTVSPost2010Prop31
280
     0
102
RTVSPost2010PropOp31
 70
     1
102
RTVSPost2010Prop32
280
     0
102
RTVSPost2010PropOp32
 70
     1
102
RTVSPost2010Prop33
280
     0
102
RTVSPost2010PropOp33
 70
     1
102
RTVSPost2010Prop34
280
     0
102
RTVSPost2010PropOp34
 70
     1
102
RTVSPost2010Prop35
280
     0
102
RTVSPost2010PropOp35
 70
     1
102
RTVSPost2010Prop36
280
     0
102
RTVSPost2010PropOp36
 70
     1
102
RTVSPost2010Prop37
 90
       50
102
RTVSPost2010PropOp37
 70
     1
102
RTVSPost2010Prop38
140
0.0
102
RTVSPost2010PropOp38
 70
     1
102
RTVSPost2010Prop39
140
1.0
102
RTVSPost2010PropOp39
 70
     1
102
RTVSPost2010Prop40
 90
        0
102
RTVSPost2010PropOp40
 70
     1
102
RTVSPost2010Prop41ColorIndex
 90
       18
102
RTVSPost2010Prop41ColorRGB
 90
        0
102
RTVSPost2010PropOp41
 70
     1
102
RTVSPost2010Prop42
 90
       50
102
RTVSPost2010PropOp42
 70
     1
102
RTVSPost2010Prop43
 90
        3
102
RTVSPost2010PropOp43
 70
     1
102
RTVSPost2010Prop44ColorIndex
 90
        5
102
RTVSPost2010Prop44ColorRGB
 90
      255
102
RTVSPost2010PropOp44
 70
     1
102
RTVSPost2010Prop45
280
     0
102
RTVSPost2010PropOp45
 70
     1
102
RTVSPost2010Prop46
 90
       50
102
RTVSPost2010PropOp46
 70
     1
102
RTVSPost2010Prop47
 90
       50
102
RTVSPost2010PropOp47
 70
     1
102
RTVSPost2010Prop48
 90
       50
102
RTVSPost2010PropOp48
 70
     1
102
RTVSPost2010Prop49
280
     0
102
RTVSPost2010PropOp49
 70
     1
102
RTVSPost2010Prop50
 90
       50
102
RTVSPost2010PropOp50
 70
     1
102
RTVSPost2010Prop51ColorIndex
 90
      256
102
RTVSPost2010Prop51ColorRGB
 90
-16777216
102
RTVSPost2010PropOp51
 70
     0
102
RTVSPost2010Prop52
140
1.0
102
RTVSPost2010PropOp52
 70
     0
102
RTVSPost2010Prop53
 90
        2
102
RTVSPost2010PropOp53
 70
     1
102
RTVSPost2010Prop54
  1
strokes_ogs.tif
102
RTVSPost2010PropOp54
 70
     1
102
RTVSPost2010Prop55
280
     0
102
RTVSPost2010PropOp55
 70
     1
102
RTVSPost2010Prop56
140
1.0
102
RTVSPost2010PropOp56
 70
     1
102
RTVSPost2010Prop57
140
1.0
102
RTVSPost2010PropOp57
 70
     1
102
RTVSPropertyOp0
 70
     1
102
RTVSPropertyOp1
 70
     1
102
RTVSPropertyOp2
 70
     1
102
RTVSPropertyOp3
 70
     1
102
RTVSPropertyOp4
 70
     1
102
RTVSPropertyOp5
 70
     1
102
RTVSPropertyOp6
 70
     1
102
RTVSPropertyOp7
 70
     1
102
RTVSPropertyOp8
 70
     1
102
RTVSPropertyOp9
 70
     1
102
RTVSPropertyOp10
 70
     1
102
RTVSPropertyOp11
 70
     1
102
RTVSPropertyOp12
 70
     1
102
RTVSPropertyOp13
 70
     1
102
RTVSPropertyOp14
 70
     1
102
RTVSPropertyOp15
 70
     1
102
RTVSPropertyOp16
 70
     1
102
RTVSPropertyOp17
 70
     1
102
RTVSPropertyOp18
 70
     1
102
RTVSPropertyOp19
 70
     1
102
RTVSPropertyOp20
 70
     1
102
RTVSPropertyOp21
 70
     1
102
RTVSPropertyOp22
 70
     1
102
RTVSPropertyOp23
 70
     1
102
RTVSPropertyOp24
 70
     1
102
RTVSPropertyOp25
 70
     1
102
RTVSPropertyOp26
 70
     1
102
RTVSPropertyOp27
 70
     1
102
RTVSPropertyOp28
 70
     1
102
RTVSPropertyOp29
 70
     1
102
RTVSPropertyOp30
 70
     1
102
RTVSPropertyOp31
 70
     1
102
RTVSPropertyOp32
 70
     1
102
RTVSPropertyOp33
 70
     1
102
RTVSPropertyOp34
 70
     1
102
RTVSPropertyOp35
 70
     1
102
RTVSPropertyOp36
 70
     1
102
RTVSPropertyOp37
 70
     1
102
RTVSPropertyOp38
 70
     1
102
RTVSPropertyOp39
 70
     1
102
RTVSPropertyOp40
 70
     1
102
RTVSPropertyOp41
 70
     1
102
RTVSPropertyOp42
 70
     1
102
RTVSPropertyOp43
 70
     1
102
RTVSPropertyOp44
 70
     1
102
RTVSPropertyOp45
 70
     1
102
RTVSPropertyOp46
 70
     1
102
RTVSPropertyOp47
 70
     1
102
RTVSPropertyOp48
 70
     1
102
RTVSPropertyOp49
 70
     1
102
RTVSPropertyOp50
 70
     1
102
RTVSPropertyOp51
 70
     0
102
RTVSPropertyOp52
 70
     0
102
RTVSPropertyOp53
 70
     1
102
RTVSPropertyOp54
 70
     1
102
RTVSPropertyOp55
 70
     1
102
RTVSPropertyOp56
 70
     1
102
RTVSPropertyOp57
 70
     1
102
RTVSPropertyOp58
 70
     1
102
RTVSPropertyOp59
 70
     1
102
RTVSPropertyOp60
 70
     1
102
RTVSPropertyOp61
 70
     1
102
RTVSPropertyOp62
 70
     1
  0
XRECORD
  5
6C45
102
{ACAD_REACTORS
330
6C44
102
}
330
6C44
100
AcDbXrecord
280
     1
102
RTVSPost2010Prop28
280
     0
102
RTVSPost2010PropOp28
 70
     1
102
RTVSPost2010Prop29
280
     1
102
RTVSPost2010PropOp29
 70
     1
102
RTVSPost2010Prop30
280
     1
102
RTVSPost2010PropOp30
 70
     1
102
RTVSPost2010Prop31
280
     0
102
RTVSPost2010PropOp31
 70
     1
102
RTVSPost2010Prop32
280
     0
102
RTVSPost2010PropOp32
 70
     1
102
RTVSPost2010Prop33
280
     0
102
RTVSPost2010PropOp33
 70
     1
102
RTVSPost2010Prop34
280
     0
102
RTVSPost2010PropOp34
 70
     1
102
RTVSPost2010Prop35
280
     0
102
RTVSPost2010PropOp35
 70
     1
102
RTVSPost2010Prop36
280
     0
102
RTVSPost2010PropOp36
 70
     1
102
RTVSPost2010Prop37
 90
       50
102
RTVSPost2010PropOp37
 70
     1
102
RTVSPost2010Prop38
140
0.0
102
RTVSPost2010PropOp38
 70
     1
102
RTVSPost2010Prop39
140
1.0
102
RTVSPost2010PropOp39
 70
     1
102
RTVSPost2010Prop40
 90
        0
102
RTVSPost2010PropOp40
 70
     1
102
RTVSPost2010Prop41ColorIndex
 90
       18
102
RTVSPost2010Prop41ColorRGB
 90
        0
102
RTVSPost2010PropOp41
 70
     1
102
RTVSPost2010Prop42
 90
       50
102
RTVSPost2010PropOp42
 70
     1
102
RTVSPost2010Prop43
 90
        3
102
RTVSPost2010PropOp43
 70
     1
102
RTVSPost2010Prop44ColorIndex
 90
        5
102
RTVSPost2010Prop44ColorRGB
 90
      255
102
RTVSPost2010PropOp44
 70
     1
102
RTVSPost2010Prop45
280
     0
102
RTVSPost2010PropOp45
 70
     1
102
RTVSPost2010Prop46
 90
       50
102
RTVSPost2010PropOp46
 70
     1
102
RTVSPost2010Prop47
 90
       50
102
RTVSPost2010PropOp47
 70
     1
102
RTVSPost2010Prop48
 90
       50
102
RTVSPost2010PropOp48
 70
     1
102
RTVSPost2010Prop49
280
     0
102
RTVSPost2010PropOp49
 70
     1
102
RTVSPost2010Prop50
 90
       50
102
RTVSPost2010PropOp50
 70
     1
102
RTVSPost2010Prop51ColorIndex
 90
      256
102
RTVSPost2010Prop51ColorRGB
 90
-16777216
102
RTVSPost2010PropOp51
 70
     0
102
RTVSPost2010Prop52
140
1.0
102
RTVSPost2010PropOp52
 70
     0
102
RTVSPost2010Prop53
 90
        2
102
RTVSPost2010PropOp53
 70
     1
102
RTVSPost2010Prop54
  1
strokes_ogs.tif
102
RTVSPost2010PropOp54
 70
     1
102
RTVSPost2010Prop55
280
     0
102
RTVSPost2010PropOp55
 70
     1
102
RTVSPost2010Prop56
140
1.0
102
RTVSPost2010PropOp56
 70
     1
102
RTVSPost2010Prop57
140
1.0
102
RTVSPost2010PropOp57
 70
     1
102
RTVSPropertyOp0
 70
     1
102
RTVSPropertyOp1
 70
     1
102
RTVSPropertyOp2
 70
     1
102
RTVSPropertyOp3
 70
     1
102
RTVSPropertyOp4
 70
     1
102
RTVSPropertyOp5
 70
     1
102
RTVSPropertyOp6
 70
     1
102
RTVSPropertyOp7
 70
     1
102
RTVSPropertyOp8
 70
     1
102
RTVSPropertyOp9
 70
     1
102
RTVSPropertyOp10
 70
     1
102
RTVSPropertyOp11
 70
     1
102
RTVSPropertyOp12
 70
     1
102
RTVSPropertyOp13
 70
     1
102
RTVSPropertyOp14
 70
     1
102
RTVSPropertyOp15
 70
     1
102
RTVSPropertyOp16
 70
     1
102
RTVSPropertyOp17
 70
     1
102
RTVSPropertyOp18
 70
     1
102
RTVSPropertyOp19
 70
     1
102
RTVSPropertyOp20
 70
     1
102
RTVSPropertyOp21
 70
     1
102
RTVSPropertyOp22
 70
     1
102
RTVSPropertyOp23
 70
     1
102
RTVSPropertyOp24
 70
     1
102
RTVSPropertyOp25
 70
     1
102
RTVSPropertyOp26
 70
     1
102
RTVSPropertyOp27
 70
     1
102
RTVSPropertyOp28
 70
     1
102
RTVSPropertyOp29
 70
     1
102
RTVSPropertyOp30
 70
     1
102
RTVSPropertyOp31
 70
     1
102
RTVSPropertyOp32
 70
     1
102
RTVSPropertyOp33
 70
     1
102
RTVSPropertyOp34
 70
     1
102
RTVSPropertyOp35
 70
     1
102
RTVSPropertyOp36
 70
     1
102
RTVSPropertyOp37
 70
     1
102
RTVSPropertyOp38
 70
     1
102
RTVSPropertyOp39
 70
     1
102
RTVSPropertyOp40
 70
     1
102
RTVSPropertyOp41
 70
     1
102
RTVSPropertyOp42
 70
     1
102
RTVSPropertyOp43
 70
     1
102
RTVSPropertyOp44
 70
     1
102
RTVSPropertyOp45
 70
     1
102
RTVSPropertyOp46
 70
     1
102
RTVSPropertyOp47
 70
     1
102
RTVSPropertyOp48
 70
     1
102
RTVSPropertyOp49
 70
     1
102
RTVSPropertyOp50
 70
     1
102
RTVSPropertyOp51
 70
     0
102
RTVSPropertyOp52
 70
     0
102
RTVSPropertyOp53
 70
     1
102
RTVSPropertyOp54
 70
     1
102
RTVSPropertyOp55
 70
     1
102
RTVSPropertyOp56
 70
     1
102
RTVSPropertyOp57
 70
     1
102
RTVSPropertyOp58
 70
     1
102
RTVSPropertyOp59
 70
     1
102
RTVSPropertyOp60
 70
     1
102
RTVSPropertyOp61
 70
     1
102
RTVSPropertyOp62
 70
     1
  0
XRECORD
  5
6C53
102
{ACAD_REACTORS
330
6C52
102
}
330
6C52
100
AcDbXrecord
280
     1
102
RTVSPost2010Prop28
280
     0
102
RTVSPost2010PropOp28
 70
     1
102
RTVSPost2010Prop29
280
     1
102
RTVSPost2010PropOp29
 70
     1
102
RTVSPost2010Prop30
280
     1
102
RTVSPost2010PropOp30
 70
     1
102
RTVSPost2010Prop31
280
     0
102
RTVSPost2010PropOp31
 70
     1
102
RTVSPost2010Prop32
280
     0
102
RTVSPost2010PropOp32
 70
     1
102
RTVSPost2010Prop33
280
     0
102
RTVSPost2010PropOp33
 70
     1
102
RTVSPost2010Prop34
280
     0
102
RTVSPost2010PropOp34
 70
     1
102
RTVSPost2010Prop35
280
     0
102
RTVSPost2010PropOp35
 70
     1
102
RTVSPost2010Prop36
280
     0
102
RTVSPost2010PropOp36
 70
     1
102
RTVSPost2010Prop37
 90
       50
102
RTVSPost2010PropOp37
 70
     1
102
RTVSPost2010Prop38
140
0.0
102
RTVSPost2010PropOp38
 70
     1
102
RTVSPost2010Prop39
140
1.0
102
RTVSPost2010PropOp39
 70
     1
102
RTVSPost2010Prop40
 90
        0
102
RTVSPost2010PropOp40
 70
     1
102
RTVSPost2010Prop41ColorIndex
 90
       18
102
RTVSPost2010Prop41ColorRGB
 90
        0
102
RTVSPost2010PropOp41
 70
     1
102
RTVSPost2010Prop42
 90
       50
102
RTVSPost2010PropOp42
 70
     1
102
RTVSPost2010Prop43
 90
        3
102
RTVSPost2010PropOp43
 70
     1
102
RTVSPost2010Prop44ColorIndex
 90
        5
102
RTVSPost2010Prop44ColorRGB
 90
      255
102
RTVSPost2010PropOp44
 70
     1
102
RTVSPost2010Prop45
280
     0
102
RTVSPost2010PropOp45
 70
     1
102
RTVSPost2010Prop46
 90
       50
102
RTVSPost2010PropOp46
 70
     1
102
RTVSPost2010Prop47
 90
       50
102
RTVSPost2010PropOp47
 70
     1
102
RTVSPost2010Prop48
 90
       50
102
RTVSPost2010PropOp48
 70
     1
102
RTVSPost2010Prop49
280
     0
102
RTVSPost2010PropOp49
 70
     1
102
RTVSPost2010Prop50
 90
       50
102
RTVSPost2010PropOp50
 70
     1
102
RTVSPost2010Prop51ColorIndex
 90
      256
102
RTVSPost2010Prop51ColorRGB
 90
-16777216
102
RTVSPost2010PropOp51
 70
     0
102
RTVSPost2010Prop52
140
1.0
102
RTVSPost2010PropOp52
 70
     0
102
RTVSPost2010Prop53
 90
        2
102
RTVSPost2010PropOp53
 70
     1
102
RTVSPost2010Prop54
  1
strokes_ogs.tif
102
RTVSPost2010PropOp54
 70
     1
102
RTVSPost2010Prop55
280
     0
102
RTVSPost2010PropOp55
 70
     1
102
RTVSPost2010Prop56
140
1.0
102
RTVSPost2010PropOp56
 70
     1
102
RTVSPost2010Prop57
140
1.0
102
RTVSPost2010PropOp57
 70
     1
102
RTVSPropertyOp0
 70
     1
102
RTVSPropertyOp1
 70
     1
102
RTVSPropertyOp2
 70
     1
102
RTVSPropertyOp3
 70
     1
102
RTVSPropertyOp4
 70
     1
102
RTVSPropertyOp5
 70
     1
102
RTVSPropertyOp6
 70
     1
102
RTVSPropertyOp7
 70
     1
102
RTVSPropertyOp8
 70
     1
102
RTVSPropertyOp9
 70
     1
102
RTVSPropertyOp10
 70
     1
102
RTVSPropertyOp11
 70
     1
102
RTVSPropertyOp12
 70
     1
102
RTVSPropertyOp13
 70
     1
102
RTVSPropertyOp14
 70
     1
102
RTVSPropertyOp15
 70
     1
102
RTVSPropertyOp16
 70
     1
102
RTVSPropertyOp17
 70
     1
102
RTVSPropertyOp18
 70
     1
102
RTVSPropertyOp19
 70
     1
102
RTVSPropertyOp20
 70
     1
102
RTVSPropertyOp21
 70
     1
102
RTVSPropertyOp22
 70
     1
102
RTVSPropertyOp23
 70
     1
102
RTVSPropertyOp24
 70
     1
102
RTVSPropertyOp25
 70
     1
102
RTVSPropertyOp26
 70
     1
102
RTVSPropertyOp27
 70
     1
102
RTVSPropertyOp28
 70
     1
102
RTVSPropertyOp29
 70
     1
102
RTVSPropertyOp30
 70
     1
102
RTVSPropertyOp31
 70
     1
102
RTVSPropertyOp32
 70
     1
102
RTVSPropertyOp33
 70
     1
102
RTVSPropertyOp34
 70
     1
102
RTVSPropertyOp35
 70
     1
102
RTVSPropertyOp36
 70
     1
102
RTVSPropertyOp37
 70
     1
102
RTVSPropertyOp38
 70
     1
102
RTVSPropertyOp39
 70
     1
102
RTVSPropertyOp40
 70
     1
102
RTVSPropertyOp41
 70
     1
102
RTVSPropertyOp42
 70
     1
102
RTVSPropertyOp43
 70
     1
102
RTVSPropertyOp44
 70
     1
102
RTVSPropertyOp45
 70
     1
102
RTVSPropertyOp46
 70
     1
102
RTVSPropertyOp47
 70
     1
102
RTVSPropertyOp48
 70
     1
102
RTVSPropertyOp49
 70
     1
102
RTVSPropertyOp50
 70
     1
102
RTVSPropertyOp51
 70
     0
102
RTVSPropertyOp52
 70
     0
102
RTVSPropertyOp53
 70
     1
102
RTVSPropertyOp54
 70
     1
102
RTVSPropertyOp55
 70
     1
102
RTVSPropertyOp56
 70
     1
102
RTVSPropertyOp57
 70
     1
102
RTVSPropertyOp58
 70
     1
102
RTVSPropertyOp59
 70
     1
102
RTVSPropertyOp60
 70
     1
102
RTVSPropertyOp61
 70
     1
102
RTVSPropertyOp62
 70
     1
  0
XRECORD
  5
6C5B
102
{ACAD_REACTORS
330
6C5A
102
}
330
6C5A
100
AcDbXrecord
280
     1
102
RTVSPost2010Prop28
280
     0
102
RTVSPost2010PropOp28
 70
     1
102
RTVSPost2010Prop29
280
     1
102
RTVSPost2010PropOp29
 70
     1
102
RTVSPost2010Prop30
280
     1
102
RTVSPost2010PropOp30
 70
     1
102
RTVSPost2010Prop31
280
     0
102
RTVSPost2010PropOp31
 70
     1
102
RTVSPost2010Prop32
280
     0
102
RTVSPost2010PropOp32
 70
     1
102
RTVSPost2010Prop33
280
     0
102
RTVSPost2010PropOp33
 70
     1
102
RTVSPost2010Prop34
280
     0
102
RTVSPost2010PropOp34
 70
     1
102
RTVSPost2010Prop35
280
     0
102
RTVSPost2010PropOp35
 70
     1
102
RTVSPost2010Prop36
280
     0
102
RTVSPost2010PropOp36
 70
     1
102
RTVSPost2010Prop37
 90
       50
102
RTVSPost2010PropOp37
 70
     1
102
RTVSPost2010Prop38
140
0.0
102
RTVSPost2010PropOp38
 70
     1
102
RTVSPost2010Prop39
140
1.0
102
RTVSPost2010PropOp39
 70
     1
102
RTVSPost2010Prop40
 90
        0
102
RTVSPost2010PropOp40
 70
     1
102
RTVSPost2010Prop41ColorIndex
 90
       18
102
RTVSPost2010Prop41ColorRGB
 90
        0
102
RTVSPost2010PropOp41
 70
     1
102
RTVSPost2010Prop42
 90
       50
102
RTVSPost2010PropOp42
 70
     1
102
RTVSPost2010Prop43
 90
        3
102
RTVSPost2010PropOp43
 70
     1
102
RTVSPost2010Prop44ColorIndex
 90
        5
102
RTVSPost2010Prop44ColorRGB
 90
      255
102
RTVSPost2010PropOp44
 70
     1
102
RTVSPost2010Prop45
280
     0
102
RTVSPost2010PropOp45
 70
     1
102
RTVSPost2010Prop46
 90
       50
102
RTVSPost2010PropOp46
 70
     1
102
RTVSPost2010Prop47
 90
       50
102
RTVSPost2010PropOp47
 70
     1
102
RTVSPost2010Prop48
 90
       50
102
RTVSPost2010PropOp48
 70
     1
102
RTVSPost2010Prop49
280
     0
102
RTVSPost2010PropOp49
 70
     1
102
RTVSPost2010Prop50
 90
       50
102
RTVSPost2010PropOp50
 70
     1
102
RTVSPost2010Prop51ColorIndex
 90
      256
102
RTVSPost2010Prop51ColorRGB
 90
-16777216
102
RTVSPost2010PropOp51
 70
     0
102
RTVSPost2010Prop52
140
1.0
102
RTVSPost2010PropOp52
 70
     0
102
RTVSPost2010Prop53
 90
        2
102
RTVSPost2010PropOp53
 70
     1
102
RTVSPost2010Prop54
  1
strokes_ogs.tif
102
RTVSPost2010PropOp54
 70
     1
102
RTVSPost2010Prop55
280
     0
102
RTVSPost2010PropOp55
 70
     1
102
RTVSPost2010Prop56
140
1.0
102
RTVSPost2010PropOp56
 70
     1
102
RTVSPost2010Prop57
140
1.0
102
RTVSPost2010PropOp57
 70
     1
102
RTVSPropertyOp0
 70
     1
102
RTVSPropertyOp1
 70
     1
102
RTVSPropertyOp2
 70
     1
102
RTVSPropertyOp3
 70
     1
102
RTVSPropertyOp4
 70
     1
102
RTVSPropertyOp5
 70
     1
102
RTVSPropertyOp6
 70
     1
102
RTVSPropertyOp7
 70
     1
102
RTVSPropertyOp8
 70
     1
102
RTVSPropertyOp9
 70
     1
102
RTVSPropertyOp10
 70
     1
102
RTVSPropertyOp11
 70
     1
102
RTVSPropertyOp12
 70
     1
102
RTVSPropertyOp13
 70
     1
102
RTVSPropertyOp14
 70
     1
102
RTVSPropertyOp15
 70
     1
102
RTVSPropertyOp16
 70
     1
102
RTVSPropertyOp17
 70
     1
102
RTVSPropertyOp18
 70
     1
102
RTVSPropertyOp19
 70
     1
102
RTVSPropertyOp20
 70
     1
102
RTVSPropertyOp21
 70
     1
102
RTVSPropertyOp22
 70
     1
102
RTVSPropertyOp23
 70
     1
102
RTVSPropertyOp24
 70
     1
102
RTVSPropertyOp25
 70
     1
102
RTVSPropertyOp26
 70
     1
102
RTVSPropertyOp27
 70
     1
102
RTVSPropertyOp28
 70
     1
102
RTVSPropertyOp29
 70
     1
102
RTVSPropertyOp30
 70
     1
102
RTVSPropertyOp31
 70
     1
102
RTVSPropertyOp32
 70
     1
102
RTVSPropertyOp33
 70
     1
102
RTVSPropertyOp34
 70
     1
102
RTVSPropertyOp35
 70
     1
102
RTVSPropertyOp36
 70
     1
102
RTVSPropertyOp37
 70
     1
102
RTVSPropertyOp38
 70
     1
102
RTVSPropertyOp39
 70
     1
102
RTVSPropertyOp40
 70
     1
102
RTVSPropertyOp41
 70
     1
102
RTVSPropertyOp42
 70
     1
102
RTVSPropertyOp43
 70
     1
102
RTVSPropertyOp44
 70
     1
102
RTVSPropertyOp45
 70
     1
102
RTVSPropertyOp46
 70
     1
102
RTVSPropertyOp47
 70
     1
102
RTVSPropertyOp48
 70
     1
102
RTVSPropertyOp49
 70
     1
102
RTVSPropertyOp50
 70
     1
102
RTVSPropertyOp51
 70
     0
102
RTVSPropertyOp52
 70
     0
102
RTVSPropertyOp53
 70
     1
102
RTVSPropertyOp54
 70
     1
102
RTVSPropertyOp55
 70
     1
102
RTVSPropertyOp56
 70
     1
102
RTVSPropertyOp57
 70
     1
102
RTVSPropertyOp58
 70
     1
102
RTVSPropertyOp59
 70
     1
102
RTVSPropertyOp60
 70
     1
102
RTVSPropertyOp61
 70
     1
102
RTVSPropertyOp62
 70
     1
  0
XRECORD
  5
6C4D
102
{ACAD_REACTORS
330
6C4C
102
}
330
6C4C
100
AcDbXrecord
280
     1
102
RTVSPost2010Prop28
280
     0
102
RTVSPost2010PropOp28
 70
     1
102
RTVSPost2010Prop29
280
     1
102
RTVSPost2010PropOp29
 70
     1
102
RTVSPost2010Prop30
280
     1
102
RTVSPost2010PropOp30
 70
     1
102
RTVSPost2010Prop31
280
     0
102
RTVSPost2010PropOp31
 70
     1
102
RTVSPost2010Prop32
280
     0
102
RTVSPost2010PropOp32
 70
     1
102
RTVSPost2010Prop33
280
     0
102
RTVSPost2010PropOp33
 70
     1
102
RTVSPost2010Prop34
280
     0
102
RTVSPost2010PropOp34
 70
     1
102
RTVSPost2010Prop35
280
     0
102
RTVSPost2010PropOp35
 70
     1
102
RTVSPost2010Prop36
280
     0
102
RTVSPost2010PropOp36
 70
     1
102
RTVSPost2010Prop37
 90
       50
102
RTVSPost2010PropOp37
 70
     1
102
RTVSPost2010Prop38
140
0.0
102
RTVSPost2010PropOp38
 70
     1
102
RTVSPost2010Prop39
140
1.0
102
RTVSPost2010PropOp39
 70
     1
102
RTVSPost2010Prop40
 90
        0
102
RTVSPost2010PropOp40
 70
     1
102
RTVSPost2010Prop41ColorIndex
 90
       18
102
RTVSPost2010Prop41ColorRGB
 90
        0
102
RTVSPost2010PropOp41
 70
     1
102
RTVSPost2010Prop42
 90
       50
102
RTVSPost2010PropOp42
 70
     1
102
RTVSPost2010Prop43
 90
        3
102
RTVSPost2010PropOp43
 70
     1
102
RTVSPost2010Prop44ColorIndex
 90
        5
102
RTVSPost2010Prop44ColorRGB
 90
      255
102
RTVSPost2010PropOp44
 70
     1
102
RTVSPost2010Prop45
280
     0
102
RTVSPost2010PropOp45
 70
     1
102
RTVSPost2010Prop46
 90
       50
102
RTVSPost2010PropOp46
 70
     1
102
RTVSPost2010Prop47
 90
       50
102
RTVSPost2010PropOp47
 70
     1
102
RTVSPost2010Prop48
 90
       50
102
RTVSPost2010PropOp48
 70
     1
102
RTVSPost2010Prop49
280
     0
102
RTVSPost2010PropOp49
 70
     1
102
RTVSPost2010Prop50
 90
       50
102
RTVSPost2010PropOp50
 70
     1
102
RTVSPost2010Prop51ColorIndex
 90
      256
102
RTVSPost2010Prop51ColorRGB
 90
-16777216
102
RTVSPost2010PropOp51
 70
     0
102
RTVSPost2010Prop52
140
1.0
102
RTVSPost2010PropOp52
 70
     0
102
RTVSPost2010Prop53
 90
        2
102
RTVSPost2010PropOp53
 70
     1
102
RTVSPost2010Prop54
  1
strokes_ogs.tif
102
RTVSPost2010PropOp54
 70
     1
102
RTVSPost2010Prop55
280
     0
102
RTVSPost2010PropOp55
 70
     1
102
RTVSPost2010Prop56
140
1.0
102
RTVSPost2010PropOp56
 70
     1
102
RTVSPost2010Prop57
140
1.0
102
RTVSPost2010PropOp57
 70
     1
102
RTVSPropertyOp0
 70
     1
102
RTVSPropertyOp1
 70
     1
102
RTVSPropertyOp2
 70
     1
102
RTVSPropertyOp3
 70
     1
102
RTVSPropertyOp4
 70
     1
102
RTVSPropertyOp5
 70
     1
102
RTVSPropertyOp6
 70
     1
102
RTVSPropertyOp7
 70
     1
102
RTVSPropertyOp8
 70
     1
102
RTVSPropertyOp9
 70
     1
102
RTVSPropertyOp10
 70
     1
102
RTVSPropertyOp11
 70
     1
102
RTVSPropertyOp12
 70
     1
102
RTVSPropertyOp13
 70
     1
102
RTVSPropertyOp14
 70
     1
102
RTVSPropertyOp15
 70
     1
102
RTVSPropertyOp16
 70
     1
102
RTVSPropertyOp17
 70
     1
102
RTVSPropertyOp18
 70
     1
102
RTVSPropertyOp19
 70
     1
102
RTVSPropertyOp20
 70
     1
102
RTVSPropertyOp21
 70
     1
102
RTVSPropertyOp22
 70
     1
102
RTVSPropertyOp23
 70
     1
102
RTVSPropertyOp24
 70
     1
102
RTVSPropertyOp25
 70
     1
102
RTVSPropertyOp26
 70
     1
102
RTVSPropertyOp27
 70
     1
102
RTVSPropertyOp28
 70
     1
102
RTVSPropertyOp29
 70
     1
102
RTVSPropertyOp30
 70
     1
102
RTVSPropertyOp31
 70
     1
102
RTVSPropertyOp32
 70
     1
102
RTVSPropertyOp33
 70
     1
102
RTVSPropertyOp34
 70
     1
102
RTVSPropertyOp35
 70
     1
102
RTVSPropertyOp36
 70
     1
102
RTVSPropertyOp37
 70
     1
102
RTVSPropertyOp38
 70
     1
102
RTVSPropertyOp39
 70
     1
102
RTVSPropertyOp40
 70
     1
102
RTVSPropertyOp41
 70
     1
102
RTVSPropertyOp42
 70
     1
102
RTVSPropertyOp43
 70
     1
102
RTVSPropertyOp44
 70
     1
102
RTVSPropertyOp45
 70
     1
102
RTVSPropertyOp46
 70
     1
102
RTVSPropertyOp47
 70
     1
102
RTVSPropertyOp48
 70
     1
102
RTVSPropertyOp49
 70
     1
102
RTVSPropertyOp50
 70
     1
102
RTVSPropertyOp51
 70
     0
102
RTVSPropertyOp52
 70
     0
102
RTVSPropertyOp53
 70
     1
102
RTVSPropertyOp54
 70
     1
102
RTVSPropertyOp55
 70
     1
102
RTVSPropertyOp56
 70
     1
102
RTVSPropertyOp57
 70
     1
102
RTVSPropertyOp58
 70
     1
102
RTVSPropertyOp59
 70
     1
102
RTVSPropertyOp60
 70
     1
102
RTVSPropertyOp61
 70
     1
102
RTVSPropertyOp62
 70
     1
  0
XRECORD
  5
6C51
102
{ACAD_REACTORS
330
6C50
102
}
330
6C50
100
AcDbXrecord
280
     1
102
RTVSPost2010Prop28
280
     0
102
RTVSPost2010PropOp28
 70
     1
102
RTVSPost2010Prop29
280
     1
102
RTVSPost2010PropOp29
 70
     1
102
RTVSPost2010Prop30
280
     1
102
RTVSPost2010PropOp30
 70
     1
102
RTVSPost2010Prop31
280
     0
102
RTVSPost2010PropOp31
 70
     1
102
RTVSPost2010Prop32
280
     0
102
RTVSPost2010PropOp32
 70
     1
102
RTVSPost2010Prop33
280
     0
102
RTVSPost2010PropOp33
 70
     1
102
RTVSPost2010Prop34
280
     0
102
RTVSPost2010PropOp34
 70
     1
102
RTVSPost2010Prop35
280
     0
102
RTVSPost2010PropOp35
 70
     1
102
RTVSPost2010Prop36
280
     0
102
RTVSPost2010PropOp36
 70
     1
102
RTVSPost2010Prop37
 90
       50
102
RTVSPost2010PropOp37
 70
     1
102
RTVSPost2010Prop38
140
0.0
102
RTVSPost2010PropOp38
 70
     1
102
RTVSPost2010Prop39
140
1.0
102
RTVSPost2010PropOp39
 70
     1
102
RTVSPost2010Prop40
 90
        0
102
RTVSPost2010PropOp40
 70
     1
102
RTVSPost2010Prop41ColorIndex
 90
       18
102
RTVSPost2010Prop41ColorRGB
 90
        0
102
RTVSPost2010PropOp41
 70
     1
102
RTVSPost2010Prop42
 90
       50
102
RTVSPost2010PropOp42
 70
     1
102
RTVSPost2010Prop43
 90
        3
102
RTVSPost2010PropOp43
 70
     1
102
RTVSPost2010Prop44ColorIndex
 90
        5
102
RTVSPost2010Prop44ColorRGB
 90
      255
102
RTVSPost2010PropOp44
 70
     1
102
RTVSPost2010Prop45
280
     0
102
RTVSPost2010PropOp45
 70
     1
102
RTVSPost2010Prop46
 90
       50
102
RTVSPost2010PropOp46
 70
     1
102
RTVSPost2010Prop47
 90
       50
102
RTVSPost2010PropOp47
 70
     1
102
RTVSPost2010Prop48
 90
       50
102
RTVSPost2010PropOp48
 70
     1
102
RTVSPost2010Prop49
280
     0
102
RTVSPost2010PropOp49
 70
     1
102
RTVSPost2010Prop50
 90
       50
102
RTVSPost2010PropOp50
 70
     1
102
RTVSPost2010Prop51ColorIndex
 90
      256
102
RTVSPost2010Prop51ColorRGB
 90
-16777216
102
RTVSPost2010PropOp51
 70
     0
102
RTVSPost2010Prop52
140
1.0
102
RTVSPost2010PropOp52
 70
     0
102
RTVSPost2010Prop53
 90
        2
102
RTVSPost2010PropOp53
 70
     1
102
RTVSPost2010Prop54
  1
strokes_ogs.tif
102
RTVSPost2010PropOp54
 70
     1
102
RTVSPost2010Prop55
280
     0
102
RTVSPost2010PropOp55
 70
     1
102
RTVSPost2010Prop56
140
1.0
102
RTVSPost2010PropOp56
 70
     1
102
RTVSPost2010Prop57
140
1.0
102
RTVSPost2010PropOp57
 70
     1
102
RTVSPropertyOp0
 70
     1
102
RTVSPropertyOp1
 70
     1
102
RTVSPropertyOp2
 70
     1
102
RTVSPropertyOp3
 70
     1
102
RTVSPropertyOp4
 70
     1
102
RTVSPropertyOp5
 70
     1
102
RTVSPropertyOp6
 70
     1
102
RTVSPropertyOp7
 70
     1
102
RTVSPropertyOp8
 70
     1
102
RTVSPropertyOp9
 70
     1
102
RTVSPropertyOp10
 70
     1
102
RTVSPropertyOp11
 70
     1
102
RTVSPropertyOp12
 70
     1
102
RTVSPropertyOp13
 70
     1
102
RTVSPropertyOp14
 70
     1
102
RTVSPropertyOp15
 70
     1
102
RTVSPropertyOp16
 70
     1
102
RTVSPropertyOp17
 70
     1
102
RTVSPropertyOp18
 70
     1
102
RTVSPropertyOp19
 70
     1
102
RTVSPropertyOp20
 70
     1
102
RTVSPropertyOp21
 70
     1
102
RTVSPropertyOp22
 70
     1
102
RTVSPropertyOp23
 70
     1
102
RTVSPropertyOp24
 70
     1
102
RTVSPropertyOp25
 70
     1
102
RTVSPropertyOp26
 70
     1
102
RTVSPropertyOp27
 70
     1
102
RTVSPropertyOp28
 70
     1
102
RTVSPropertyOp29
 70
     1
102
RTVSPropertyOp30
 70
     1
102
RTVSPropertyOp31
 70
     1
102
RTVSPropertyOp32
 70
     1
102
RTVSPropertyOp33
 70
     1
102
RTVSPropertyOp34
 70
     1
102
RTVSPropertyOp35
 70
     1
102
RTVSPropertyOp36
 70
     1
102
RTVSPropertyOp37
 70
     1
102
RTVSPropertyOp38
 70
     1
102
RTVSPropertyOp39
 70
     1
102
RTVSPropertyOp40
 70
     1
102
RTVSPropertyOp41
 70
     1
102
RTVSPropertyOp42
 70
     1
102
RTVSPropertyOp43
 70
     1
102
RTVSPropertyOp44
 70
     1
102
RTVSPropertyOp45
 70
     1
102
RTVSPropertyOp46
 70
     1
102
RTVSPropertyOp47
 70
     1
102
RTVSPropertyOp48
 70
     1
102
RTVSPropertyOp49
 70
     1
102
RTVSPropertyOp50
 70
     1
102
RTVSPropertyOp51
 70
     0
102
RTVSPropertyOp52
 70
     0
102
RTVSPropertyOp53
 70
     1
102
RTVSPropertyOp54
 70
     1
102
RTVSPropertyOp55
 70
     1
102
RTVSPropertyOp56
 70
     1
102
RTVSPropertyOp57
 70
     1
102
RTVSPropertyOp58
 70
     1
102
RTVSPropertyOp59
 70
     1
102
RTVSPropertyOp60
 70
     1
102
RTVSPropertyOp61
 70
     1
102
RTVSPropertyOp62
 70
     1
  0
XRECORD
  5
6C63
102
{ACAD_REACTORS
330
6C62
102
}
330
6C62
100
AcDbXrecord
280
     1
102
RTVSPost2010Prop28
280
     0
102
RTVSPost2010PropOp28
 70
     1
102
RTVSPost2010Prop29
280
     1
102
RTVSPost2010PropOp29
 70
     1
102
RTVSPost2010Prop30
280
     1
102
RTVSPost2010PropOp30
 70
     1
102
RTVSPost2010Prop31
280
     0
102
RTVSPost2010PropOp31
 70
     1
102
RTVSPost2010Prop32
280
     0
102
RTVSPost2010PropOp32
 70
     1
102
RTVSPost2010Prop33
280
     0
102
RTVSPost2010PropOp33
 70
     1
102
RTVSPost2010Prop34
280
     0
102
RTVSPost2010PropOp34
 70
     1
102
RTVSPost2010Prop35
280
     0
102
RTVSPost2010PropOp35
 70
     1
102
RTVSPost2010Prop36
280
     0
102
RTVSPost2010PropOp36
 70
     1
102
RTVSPost2010Prop37
 90
       50
102
RTVSPost2010PropOp37
 70
     1
102
RTVSPost2010Prop38
140
0.0
102
RTVSPost2010PropOp38
 70
     1
102
RTVSPost2010Prop39
140
1.0
102
RTVSPost2010PropOp39
 70
     1
102
RTVSPost2010Prop40
 90
        0
102
RTVSPost2010PropOp40
 70
     1
102
RTVSPost2010Prop41ColorIndex
 90
       18
102
RTVSPost2010Prop41ColorRGB
 90
        0
102
RTVSPost2010PropOp41
 70
     1
102
RTVSPost2010Prop42
 90
       50
102
RTVSPost2010PropOp42
 70
     1
102
RTVSPost2010Prop43
 90
        3
102
RTVSPost2010PropOp43
 70
     1
102
RTVSPost2010Prop44ColorIndex
 90
        5
102
RTVSPost2010Prop44ColorRGB
 90
      255
102
RTVSPost2010PropOp44
 70
     1
102
RTVSPost2010Prop45
280
     0
102
RTVSPost2010PropOp45
 70
     1
102
RTVSPost2010Prop46
 90
       50
102
RTVSPost2010PropOp46
 70
     1
102
RTVSPost2010Prop47
 90
       50
102
RTVSPost2010PropOp47
 70
     1
102
RTVSPost2010Prop48
 90
       50
102
RTVSPost2010PropOp48
 70
     1
102
RTVSPost2010Prop49
280
     0
102
RTVSPost2010PropOp49
 70
     1
102
RTVSPost2010Prop50
 90
       50
102
RTVSPost2010PropOp50
 70
     1
102
RTVSPost2010Prop51ColorIndex
 90
      256
102
RTVSPost2010Prop51ColorRGB
 90
-16777216
102
RTVSPost2010PropOp51
 70
     0
102
RTVSPost2010Prop52
140
1.0
102
RTVSPost2010PropOp52
 70
     0
102
RTVSPost2010Prop53
 90
        2
102
RTVSPost2010PropOp53
 70
     1
102
RTVSPost2010Prop54
  1
strokes_ogs.tif
102
RTVSPost2010PropOp54
 70
     1
102
RTVSPost2010Prop55
280
     0
102
RTVSPost2010PropOp55
 70
     1
102
RTVSPost2010Prop56
140
1.0
102
RTVSPost2010PropOp56
 70
     1
102
RTVSPost2010Prop57
140
1.0
102
RTVSPost2010PropOp57
 70
     1
102
RTVSPropertyOp0
 70
     0
102
RTVSPropertyOp1
 70
     0
102
RTVSPropertyOp2
 70
     0
102
RTVSPropertyOp3
 70
     0
102
RTVSPropertyOp4
 70
     0
102
RTVSPropertyOp5
 70
     0
102
RTVSPropertyOp6
 70
     0
102
RTVSPropertyOp7
 70
     0
102
RTVSPropertyOp8
 70
     0
102
RTVSPropertyOp9
 70
     0
102
RTVSPropertyOp10
 70
     0
102
RTVSPropertyOp11
 70
     0
102
RTVSPropertyOp12
 70
     0
102
RTVSPropertyOp13
 70
     0
102
RTVSPropertyOp14
 70
     2
102
RTVSPropertyOp15
 70
     0
102
RTVSPropertyOp16
 70
     0
102
RTVSPropertyOp17
 70
     0
102
RTVSPropertyOp18
 70
     0
102
RTVSPropertyOp19
 70
     0
102
RTVSPropertyOp20
 70
     0
102
RTVSPropertyOp21
 70
     0
102
RTVSPropertyOp22
 70
     0
102
RTVSPropertyOp23
 70
     0
102
RTVSPropertyOp24
 70
     0
102
RTVSPropertyOp25
 70
     0
102
RTVSPropertyOp26
 70
     0
102
RTVSPropertyOp27
 70
     0
102
RTVSPropertyOp28
 70
     1
102
RTVSPropertyOp29
 70
     1
102
RTVSPropertyOp30
 70
     1
102
RTVSPropertyOp31
 70
     1
102
RTVSPropertyOp32
 70
     1
102
RTVSPropertyOp33
 70
     1
102
RTVSPropertyOp34
 70
     1
102
RTVSPropertyOp35
 70
     1
102
RTVSPropertyOp36
 70
     1
102
RTVSPropertyOp37
 70
     1
102
RTVSPropertyOp38
 70
     1
102
RTVSPropertyOp39
 70
     1
102
RTVSPropertyOp40
 70
     1
102
RTVSPropertyOp41
 70
     1
102
RTVSPropertyOp42
 70
     1
102
RTVSPropertyOp43
 70
     1
102
RTVSPropertyOp44
 70
     1
102
RTVSPropertyOp45
 70
     1
102
RTVSPropertyOp46
 70
     1
102
RTVSPropertyOp47
 70
     1
102
RTVSPropertyOp48
 70
     1
102
RTVSPropertyOp49
 70
     1
102
RTVSPropertyOp50
 70
     1
102
RTVSPropertyOp51
 70
     0
102
RTVSPropertyOp52
 70
     0
102
RTVSPropertyOp53
 70
     1
102
RTVSPropertyOp54
 70
     1
102
RTVSPropertyOp55
 70
     1
102
RTVSPropertyOp56
 70
     1
102
RTVSPropertyOp57
 70
     1
102
RTVSPropertyOp58
 70
     1
102
RTVSPropertyOp59
 70
     1
102
RTVSPropertyOp60
 70
     1
102
RTVSPropertyOp61
 70
     1
102
RTVSPropertyOp62
 70
     1
  0
XRECORD
  5
6C59
102
{ACAD_REACTORS
330
6C58
102
}
330
6C58
100
AcDbXrecord
280
     1
102
RTVSPost2010Prop28
280
     0
102
RTVSPost2010PropOp28
 70
     1
102
RTVSPost2010Prop29
280
     1
102
RTVSPost2010PropOp29
 70
     1
102
RTVSPost2010Prop30
280
     1
102
RTVSPost2010PropOp30
 70
     1
102
RTVSPost2010Prop31
280
     0
102
RTVSPost2010PropOp31
 70
     1
102
RTVSPost2010Prop32
280
     0
102
RTVSPost2010PropOp32
 70
     1
102
RTVSPost2010Prop33
280
     0
102
RTVSPost2010PropOp33
 70
     1
102
RTVSPost2010Prop34
280
     0
102
RTVSPost2010PropOp34
 70
     1
102
RTVSPost2010Prop35
280
     0
102
RTVSPost2010PropOp35
 70
     1
102
RTVSPost2010Prop36
280
     0
102
RTVSPost2010PropOp36
 70
     1
102
RTVSPost2010Prop37
 90
       50
102
RTVSPost2010PropOp37
 70
     1
102
RTVSPost2010Prop38
140
0.0
102
RTVSPost2010PropOp38
 70
     1
102
RTVSPost2010Prop39
140
1.0
102
RTVSPost2010PropOp39
 70
     1
102
RTVSPost2010Prop40
 90
        0
102
RTVSPost2010PropOp40
 70
     1
102
RTVSPost2010Prop41ColorIndex
 90
       18
102
RTVSPost2010Prop41ColorRGB
 90
        0
102
RTVSPost2010PropOp41
 70
     1
102
RTVSPost2010Prop42
 90
       50
102
RTVSPost2010PropOp42
 70
     1
102
RTVSPost2010Prop43
 90
        3
102
RTVSPost2010PropOp43
 70
     1
102
RTVSPost2010Prop44ColorIndex
 90
        5
102
RTVSPost2010Prop44ColorRGB
 90
      255
102
RTVSPost2010PropOp44
 70
     1
102
RTVSPost2010Prop45
280
     0
102
RTVSPost2010PropOp45
 70
     1
102
RTVSPost2010Prop46
 90
       50
102
RTVSPost2010PropOp46
 70
     1
102
RTVSPost2010Prop47
 90
       50
102
RTVSPost2010PropOp47
 70
     1
102
RTVSPost2010Prop48
 90
       50
102
RTVSPost2010PropOp48
 70
     1
102
RTVSPost2010Prop49
280
     0
102
RTVSPost2010PropOp49
 70
     1
102
RTVSPost2010Prop50
 90
       50
102
RTVSPost2010PropOp50
 70
     1
102
RTVSPost2010Prop51ColorIndex
 90
      256
102
RTVSPost2010Prop51ColorRGB
 90
-16777216
102
RTVSPost2010PropOp51
 70
     0
102
RTVSPost2010Prop52
140
1.0
102
RTVSPost2010PropOp52
 70
     0
102
RTVSPost2010Prop53
 90
        2
102
RTVSPost2010PropOp53
 70
     1
102
RTVSPost2010Prop54
  1
strokes_ogs.tif
102
RTVSPost2010PropOp54
 70
     1
102
RTVSPost2010Prop55
280
     0
102
RTVSPost2010PropOp55
 70
     1
102
RTVSPost2010Prop56
140
1.0
102
RTVSPost2010PropOp56
 70
     1
102
RTVSPost2010Prop57
140
1.0
102
RTVSPost2010PropOp57
 70
     1
102
RTVSPropertyOp0
 70
     1
102
RTVSPropertyOp1
 70
     1
102
RTVSPropertyOp2
 70
     1
102
RTVSPropertyOp3
 70
     1
102
RTVSPropertyOp4
 70
     1
102
RTVSPropertyOp5
 70
     1
102
RTVSPropertyOp6
 70
     1
102
RTVSPropertyOp7
 70
     1
102
RTVSPropertyOp8
 70
     1
102
RTVSPropertyOp9
 70
     1
102
RTVSPropertyOp10
 70
     1
102
RTVSPropertyOp11
 70
     1
102
RTVSPropertyOp12
 70
     1
102
RTVSPropertyOp13
 70
     1
102
RTVSPropertyOp14
 70
     1
102
RTVSPropertyOp15
 70
     1
102
RTVSPropertyOp16
 70
     1
102
RTVSPropertyOp17
 70
     1
102
RTVSPropertyOp18
 70
     1
102
RTVSPropertyOp19
 70
     1
102
RTVSPropertyOp20
 70
     1
102
RTVSPropertyOp21
 70
     1
102
RTVSPropertyOp22
 70
     1
102
RTVSPropertyOp23
 70
     1
102
RTVSPropertyOp24
 70
     1
102
RTVSPropertyOp25
 70
     1
102
RTVSPropertyOp26
 70
     1
102
RTVSPropertyOp27
 70
     1
102
RTVSPropertyOp28
 70
     1
102
RTVSPropertyOp29
 70
     1
102
RTVSPropertyOp30
 70
     1
102
RTVSPropertyOp31
 70
     1
102
RTVSPropertyOp32
 70
     1
102
RTVSPropertyOp33
 70
     1
102
RTVSPropertyOp34
 70
     1
102
RTVSPropertyOp35
 70
     1
102
RTVSPropertyOp36
 70
     1
102
RTVSPropertyOp37
 70
     1
102
RTVSPropertyOp38
 70
     1
102
RTVSPropertyOp39
 70
     1
102
RTVSPropertyOp40
 70
     1
102
RTVSPropertyOp41
 70
     1
102
RTVSPropertyOp42
 70
     1
102
RTVSPropertyOp43
 70
     1
102
RTVSPropertyOp44
 70
     1
102
RTVSPropertyOp45
 70
     1
102
RTVSPropertyOp46
 70
     1
102
RTVSPropertyOp47
 70
     1
102
RTVSPropertyOp48
 70
     1
102
RTVSPropertyOp49
 70
     1
102
RTVSPropertyOp50
 70
     1
102
RTVSPropertyOp51
 70
     0
102
RTVSPropertyOp52
 70
     0
102
RTVSPropertyOp53
 70
     1
102
RTVSPropertyOp54
 70
     1
102
RTVSPropertyOp55
 70
     1
102
RTVSPropertyOp56
 70
     1
102
RTVSPropertyOp57
 70
     1
102
RTVSPropertyOp58
 70
     1
102
RTVSPropertyOp59
 70
     1
102
RTVSPropertyOp60
 70
     1
102
RTVSPropertyOp61
 70
     1
102
RTVSPropertyOp62
 70
     1
  0
XRECORD
  5
6C3D
102
{ACAD_REACTORS
330
6C3C
102
}
330
6C3C
100
AcDbXrecord
280
     1
102
RTVSPost2010Prop28
280
     0
102
RTVSPost2010PropOp28
 70
     1
102
RTVSPost2010Prop29
280
     1
102
RTVSPost2010PropOp29
 70
     1
102
RTVSPost2010Prop30
280
     1
102
RTVSPost2010PropOp30
 70
     1
102
RTVSPost2010Prop31
280
     0
102
RTVSPost2010PropOp31
 70
     1
102
RTVSPost2010Prop32
280
     0
102
RTVSPost2010PropOp32
 70
     1
102
RTVSPost2010Prop33
280
     0
102
RTVSPost2010PropOp33
 70
     1
102
RTVSPost2010Prop34
280
     0
102
RTVSPost2010PropOp34
 70
     1
102
RTVSPost2010Prop35
280
     0
102
RTVSPost2010PropOp35
 70
     1
102
RTVSPost2010Prop36
280
     0
102
RTVSPost2010PropOp36
 70
     1
102
RTVSPost2010Prop37
 90
       50
102
RTVSPost2010PropOp37
 70
     1
102
RTVSPost2010Prop38
140
0.0
102
RTVSPost2010PropOp38
 70
     1
102
RTVSPost2010Prop39
140
1.0
102
RTVSPost2010PropOp39
 70
     1
102
RTVSPost2010Prop40
 90
        0
102
RTVSPost2010PropOp40
 70
     1
102
RTVSPost2010Prop41ColorIndex
 90
       18
102
RTVSPost2010Prop41ColorRGB
 90
        0
102
RTVSPost2010PropOp41
 70
     1
102
RTVSPost2010Prop42
 90
       50
102
RTVSPost2010PropOp42
 70
     1
102
RTVSPost2010Prop43
 90
        3
102
RTVSPost2010PropOp43
 70
     1
102
RTVSPost2010Prop44ColorIndex
 90
        5
102
RTVSPost2010Prop44ColorRGB
 90
      255
102
RTVSPost2010PropOp44
 70
     1
102
RTVSPost2010Prop45
280
     0
102
RTVSPost2010PropOp45
 70
     1
102
RTVSPost2010Prop46
 90
       50
102
RTVSPost2010PropOp46
 70
     1
102
RTVSPost2010Prop47
 90
       50
102
RTVSPost2010PropOp47
 70
     1
102
RTVSPost2010Prop48
 90
       50
102
RTVSPost2010PropOp48
 70
     1
102
RTVSPost2010Prop49
280
     0
102
RTVSPost2010PropOp49
 70
     1
102
RTVSPost2010Prop50
 90
       50
102
RTVSPost2010PropOp50
 70
     1
102
RTVSPost2010Prop51ColorIndex
 90
      256
102
RTVSPost2010Prop51ColorRGB
 90
-16777216
102
RTVSPost2010PropOp51
 70
     0
102
RTVSPost2010Prop52
140
1.0
102
RTVSPost2010PropOp52
 70
     0
102
RTVSPost2010Prop53
 90
        2
102
RTVSPost2010PropOp53
 70
     1
102
RTVSPost2010Prop54
  1
strokes_ogs.tif
102
RTVSPost2010PropOp54
 70
     1
102
RTVSPost2010Prop55
280
     0
102
RTVSPost2010PropOp55
 70
     1
102
RTVSPost2010Prop56
140
1.0
102
RTVSPost2010PropOp56
 70
     1
102
RTVSPost2010Prop57
140
1.0
102
RTVSPost2010PropOp57
 70
     1
102
RTVSPropertyOp0
 70
     1
102
RTVSPropertyOp1
 70
     1
102
RTVSPropertyOp2
 70
     1
102
RTVSPropertyOp3
 70
     1
102
RTVSPropertyOp4
 70
     1
102
RTVSPropertyOp5
 70
     1
102
RTVSPropertyOp6
 70
     1
102
RTVSPropertyOp7
 70
     1
102
RTVSPropertyOp8
 70
     1
102
RTVSPropertyOp9
 70
     1
102
RTVSPropertyOp10
 70
     1
102
RTVSPropertyOp11
 70
     1
102
RTVSPropertyOp12
 70
     1
102
RTVSPropertyOp13
 70
     1
102
RTVSPropertyOp14
 70
     1
102
RTVSPropertyOp15
 70
     1
102
RTVSPropertyOp16
 70
     1
102
RTVSPropertyOp17
 70
     1
102
RTVSPropertyOp18
 70
     1
102
RTVSPropertyOp19
 70
     1
102
RTVSPropertyOp20
 70
     1
102
RTVSPropertyOp21
 70
     1
102
RTVSPropertyOp22
 70
     1
102
RTVSPropertyOp23
 70
     1
102
RTVSPropertyOp24
 70
     1
102
RTVSPropertyOp25
 70
     1
102
RTVSPropertyOp26
 70
     1
102
RTVSPropertyOp27
 70
     1
102
RTVSPropertyOp28
 70
     1
102
RTVSPropertyOp29
 70
     1
102
RTVSPropertyOp30
 70
     1
102
RTVSPropertyOp31
 70
     1
102
RTVSPropertyOp32
 70
     1
102
RTVSPropertyOp33
 70
     1
102
RTVSPropertyOp34
 70
     1
102
RTVSPropertyOp35
 70
     1
102
RTVSPropertyOp36
 70
     1
102
RTVSPropertyOp37
 70
     1
102
RTVSPropertyOp38
 70
     1
102
RTVSPropertyOp39
 70
     1
102
RTVSPropertyOp40
 70
     1
102
RTVSPropertyOp41
 70
     1
102
RTVSPropertyOp42
 70
     1
102
RTVSPropertyOp43
 70
     1
102
RTVSPropertyOp44
 70
     1
102
RTVSPropertyOp45
 70
     1
102
RTVSPropertyOp46
 70
     1
102
RTVSPropertyOp47
 70
     1
102
RTVSPropertyOp48
 70
     1
102
RTVSPropertyOp49
 70
     1
102
RTVSPropertyOp50
 70
     1
102
RTVSPropertyOp51
 70
     0
102
RTVSPropertyOp52
 70
     0
102
RTVSPropertyOp53
 70
     1
102
RTVSPropertyOp54
 70
     1
102
RTVSPropertyOp55
 70
     1
102
RTVSPropertyOp56
 70
     1
102
RTVSPropertyOp57
 70
     1
102
RTVSPropertyOp58
 70
     1
102
RTVSPropertyOp59
 70
     1
102
RTVSPropertyOp60
 70
     1
102
RTVSPropertyOp61
 70
     1
102
RTVSPropertyOp62
 70
     1
  0
XRECORD
  5
6C3F
102
{ACAD_REACTORS
330
6C3E
102
}
330
6C3E
100
AcDbXrecord
280
     1
102
RTVSPost2010Prop28
280
     0
102
RTVSPost2010PropOp28
 70
     1
102
RTVSPost2010Prop29
280
     1
102
RTVSPost2010PropOp29
 70
     1
102
RTVSPost2010Prop30
280
     1
102
RTVSPost2010PropOp30
 70
     1
102
RTVSPost2010Prop31
280
     0
102
RTVSPost2010PropOp31
 70
     1
102
RTVSPost2010Prop32
280
     0
102
RTVSPost2010PropOp32
 70
     1
102
RTVSPost2010Prop33
280
     0
102
RTVSPost2010PropOp33
 70
     1
102
RTVSPost2010Prop34
280
     0
102
RTVSPost2010PropOp34
 70
     1
102
RTVSPost2010Prop35
280
     0
102
RTVSPost2010PropOp35
 70
     1
102
RTVSPost2010Prop36
280
     0
102
RTVSPost2010PropOp36
 70
     1
102
RTVSPost2010Prop37
 90
       50
102
RTVSPost2010PropOp37
 70
     1
102
RTVSPost2010Prop38
140
0.0
102
RTVSPost2010PropOp38
 70
     1
102
RTVSPost2010Prop39
140
1.0
102
RTVSPost2010PropOp39
 70
     1
102
RTVSPost2010Prop40
 90
        0
102
RTVSPost2010PropOp40
 70
     1
102
RTVSPost2010Prop41ColorIndex
 90
       18
102
RTVSPost2010Prop41ColorRGB
 90
        0
102
RTVSPost2010PropOp41
 70
     1
102
RTVSPost2010Prop42
 90
       50
102
RTVSPost2010PropOp42
 70
     1
102
RTVSPost2010Prop43
 90
        3
102
RTVSPost2010PropOp43
 70
     1
102
RTVSPost2010Prop44ColorIndex
 90
        5
102
RTVSPost2010Prop44ColorRGB
 90
      255
102
RTVSPost2010PropOp44
 70
     1
102
RTVSPost2010Prop45
280
     0
102
RTVSPost2010PropOp45
 70
     1
102
RTVSPost2010Prop46
 90
       50
102
RTVSPost2010PropOp46
 70
     1
102
RTVSPost2010Prop47
 90
       50
102
RTVSPost2010PropOp47
 70
     1
102
RTVSPost2010Prop48
 90
       50
102
RTVSPost2010PropOp48
 70
     1
102
RTVSPost2010Prop49
280
     0
102
RTVSPost2010PropOp49
 70
     1
102
RTVSPost2010Prop50
 90
       50
102
RTVSPost2010PropOp50
 70
     1
102
RTVSPost2010Prop51ColorIndex
 90
      256
102
RTVSPost2010Prop51ColorRGB
 90
-16777216
102
RTVSPost2010PropOp51
 70
     0
102
RTVSPost2010Prop52
140
1.0
102
RTVSPost2010PropOp52
 70
     0
102
RTVSPost2010Prop53
 90
        2
102
RTVSPost2010PropOp53
 70
     1
102
RTVSPost2010Prop54
  1
strokes_ogs.tif
102
RTVSPost2010PropOp54
 70
     1
102
RTVSPost2010Prop55
280
     0
102
RTVSPost2010PropOp55
 70
     1
102
RTVSPost2010Prop56
140
1.0
102
RTVSPost2010PropOp56
 70
     1
102
RTVSPost2010Prop57
140
1.0
102
RTVSPost2010PropOp57
 70
     1
102
RTVSPropertyOp0
 70
     1
102
RTVSPropertyOp1
 70
     1
102
RTVSPropertyOp2
 70
     1
102
RTVSPropertyOp3
 70
     1
102
RTVSPropertyOp4
 70
     1
102
RTVSPropertyOp5
 70
     1
102
RTVSPropertyOp6
 70
     1
102
RTVSPropertyOp7
 70
     1
102
RTVSPropertyOp8
 70
     1
102
RTVSPropertyOp9
 70
     1
102
RTVSPropertyOp10
 70
     1
102
RTVSPropertyOp11
 70
     1
102
RTVSPropertyOp12
 70
     1
102
RTVSPropertyOp13
 70
     1
102
RTVSPropertyOp14
 70
     1
102
RTVSPropertyOp15
 70
     1
102
RTVSPropertyOp16
 70
     1
102
RTVSPropertyOp17
 70
     1
102
RTVSPropertyOp18
 70
     1
102
RTVSPropertyOp19
 70
     1
102
RTVSPropertyOp20
 70
     1
102
RTVSPropertyOp21
 70
     1
102
RTVSPropertyOp22
 70
     1
102
RTVSPropertyOp23
 70
     1
102
RTVSPropertyOp24
 70
     1
102
RTVSPropertyOp25
 70
     1
102
RTVSPropertyOp26
 70
     1
102
RTVSPropertyOp27
 70
     1
102
RTVSPropertyOp28
 70
     1
102
RTVSPropertyOp29
 70
     1
102
RTVSPropertyOp30
 70
     1
102
RTVSPropertyOp31
 70
     1
102
RTVSPropertyOp32
 70
     1
102
RTVSPropertyOp33
 70
     1
102
RTVSPropertyOp34
 70
     1
102
RTVSPropertyOp35
 70
     1
102
RTVSPropertyOp36
 70
     1
102
RTVSPropertyOp37
 70
     1
102
RTVSPropertyOp38
 70
     1
102
RTVSPropertyOp39
 70
     1
102
RTVSPropertyOp40
 70
     1
102
RTVSPropertyOp41
 70
     1
102
RTVSPropertyOp42
 70
     1
102
RTVSPropertyOp43
 70
     1
102
RTVSPropertyOp44
 70
     1
102
RTVSPropertyOp45
 70
     1
102
RTVSPropertyOp46
 70
     1
102
RTVSPropertyOp47
 70
     1
102
RTVSPropertyOp48
 70
     1
102
RTVSPropertyOp49
 70
     1
102
RTVSPropertyOp50
 70
     1
102
RTVSPropertyOp51
 70
     0
102
RTVSPropertyOp52
 70
     0
102
RTVSPropertyOp53
 70
     1
102
RTVSPropertyOp54
 70
     1
102
RTVSPropertyOp55
 70
     1
102
RTVSPropertyOp56
 70
     1
102
RTVSPropertyOp57
 70
     1
102
RTVSPropertyOp58
 70
     1
102
RTVSPropertyOp59
 70
     1
102
RTVSPropertyOp60
 70
     1
102
RTVSPropertyOp61
 70
     1
102
RTVSPropertyOp62
 70
     1
  0
XRECORD
  5
6C41
102
{ACAD_REACTORS
330
6C40
102
}
330
6C40
100
AcDbXrecord
280
     1
102
RTVSPost2010Prop28
280
     0
102
RTVSPost2010PropOp28
 70
     1
102
RTVSPost2010Prop29
280
     1
102
RTVSPost2010PropOp29
 70
     1
102
RTVSPost2010Prop30
280
     1
102
RTVSPost2010PropOp30
 70
     1
102
RTVSPost2010Prop31
280
     0
102
RTVSPost2010PropOp31
 70
     1
102
RTVSPost2010Prop32
280
     0
102
RTVSPost2010PropOp32
 70
     1
102
RTVSPost2010Prop33
280
     0
102
RTVSPost2010PropOp33
 70
     1
102
RTVSPost2010Prop34
280
     0
102
RTVSPost2010PropOp34
 70
     1
102
RTVSPost2010Prop35
280
     0
102
RTVSPost2010PropOp35
 70
     1
102
RTVSPost2010Prop36
280
     0
102
RTVSPost2010PropOp36
 70
     1
102
RTVSPost2010Prop37
 90
       50
102
RTVSPost2010PropOp37
 70
     1
102
RTVSPost2010Prop38
140
0.0
102
RTVSPost2010PropOp38
 70
     1
102
RTVSPost2010Prop39
140
1.0
102
RTVSPost2010PropOp39
 70
     1
102
RTVSPost2010Prop40
 90
        0
102
RTVSPost2010PropOp40
 70
     1
102
RTVSPost2010Prop41ColorIndex
 90
       18
102
RTVSPost2010Prop41ColorRGB
 90
        0
102
RTVSPost2010PropOp41
 70
     1
102
RTVSPost2010Prop42
 90
       50
102
RTVSPost2010PropOp42
 70
     1
102
RTVSPost2010Prop43
 90
        3
102
RTVSPost2010PropOp43
 70
     1
102
RTVSPost2010Prop44ColorIndex
 90
        5
102
RTVSPost2010Prop44ColorRGB
 90
      255
102
RTVSPost2010PropOp44
 70
     1
102
RTVSPost2010Prop45
280
     0
102
RTVSPost2010PropOp45
 70
     1
102
RTVSPost2010Prop46
 90
       50
102
RTVSPost2010PropOp46
 70
     1
102
RTVSPost2010Prop47
 90
       50
102
RTVSPost2010PropOp47
 70
     1
102
RTVSPost2010Prop48
 90
       50
102
RTVSPost2010PropOp48
 70
     1
102
RTVSPost2010Prop49
280
     0
102
RTVSPost2010PropOp49
 70
     1
102
RTVSPost2010Prop50
 90
       50
102
RTVSPost2010PropOp50
 70
     1
102
RTVSPost2010Prop51ColorIndex
 90
      256
102
RTVSPost2010Prop51ColorRGB
 90
-16777216
102
RTVSPost2010PropOp51
 70
     0
102
RTVSPost2010Prop52
140
1.0
102
RTVSPost2010PropOp52
 70
     0
102
RTVSPost2010Prop53
 90
        2
102
RTVSPost2010PropOp53
 70
     1
102
RTVSPost2010Prop54
  1
strokes_ogs.tif
102
RTVSPost2010PropOp54
 70
     1
102
RTVSPost2010Prop55
280
     0
102
RTVSPost2010PropOp55
 70
     1
102
RTVSPost2010Prop56
140
1.0
102
RTVSPost2010PropOp56
 70
     1
102
RTVSPost2010Prop57
140
1.0
102
RTVSPost2010PropOp57
 70
     1
102
RTVSPropertyOp0
 70
     1
102
RTVSPropertyOp1
 70
     1
102
RTVSPropertyOp2
 70
     1
102
RTVSPropertyOp3
 70
     1
102
RTVSPropertyOp4
 70
     1
102
RTVSPropertyOp5
 70
     1
102
RTVSPropertyOp6
 70
     1
102
RTVSPropertyOp7
 70
     1
102
RTVSPropertyOp8
 70
     1
102
RTVSPropertyOp9
 70
     1
102
RTVSPropertyOp10
 70
     1
102
RTVSPropertyOp11
 70
     1
102
RTVSPropertyOp12
 70
     1
102
RTVSPropertyOp13
 70
     1
102
RTVSPropertyOp14
 70
     1
102
RTVSPropertyOp15
 70
     1
102
RTVSPropertyOp16
 70
     1
102
RTVSPropertyOp17
 70
     1
102
RTVSPropertyOp18
 70
     1
102
RTVSPropertyOp19
 70
     1
102
RTVSPropertyOp20
 70
     1
102
RTVSPropertyOp21
 70
     1
102
RTVSPropertyOp22
 70
     1
102
RTVSPropertyOp23
 70
     1
102
RTVSPropertyOp24
 70
     1
102
RTVSPropertyOp25
 70
     1
102
RTVSPropertyOp26
 70
     1
102
RTVSPropertyOp27
 70
     1
102
RTVSPropertyOp28
 70
     1
102
RTVSPropertyOp29
 70
     1
102
RTVSPropertyOp30
 70
     1
102
RTVSPropertyOp31
 70
     1
102
RTVSPropertyOp32
 70
     1
102
RTVSPropertyOp33
 70
     1
102
RTVSPropertyOp34
 70
     1
102
RTVSPropertyOp35
 70
     1
102
RTVSPropertyOp36
 70
     1
102
RTVSPropertyOp37
 70
     1
102
RTVSPropertyOp38
 70
     1
102
RTVSPropertyOp39
 70
     1
102
RTVSPropertyOp40
 70
     1
102
RTVSPropertyOp41
 70
     1
102
RTVSPropertyOp42
 70
     1
102
RTVSPropertyOp43
 70
     1
102
RTVSPropertyOp44
 70
     1
102
RTVSPropertyOp45
 70
     1
102
RTVSPropertyOp46
 70
     1
102
RTVSPropertyOp47
 70
     1
102
RTVSPropertyOp48
 70
     1
102
RTVSPropertyOp49
 70
     1
102
RTVSPropertyOp50
 70
     1
102
RTVSPropertyOp51
 70
     0
102
RTVSPropertyOp52
 70
     0
102
RTVSPropertyOp53
 70
     1
102
RTVSPropertyOp54
 70
     1
102
RTVSPropertyOp55
 70
     1
102
RTVSPropertyOp56
 70
     1
102
RTVSPropertyOp57
 70
     1
102
RTVSPropertyOp58
 70
     1
102
RTVSPropertyOp59
 70
     1
102
RTVSPropertyOp60
 70
     1
102
RTVSPropertyOp61
 70
     1
102
RTVSPropertyOp62
 70
     1
  0
XRECORD
  5
6C43
102
{ACAD_REACTORS
330
6C42
102
}
330
6C42
100
AcDbXrecord
280
     1
102
RTVSPost2010Prop28
280
     0
102
RTVSPost2010PropOp28
 70
     1
102
RTVSPost2010Prop29
280
     1
102
RTVSPost2010PropOp29
 70
     1
102
RTVSPost2010Prop30
280
     1
102
RTVSPost2010PropOp30
 70
     1
102
RTVSPost2010Prop31
280
     0
102
RTVSPost2010PropOp31
 70
     1
102
RTVSPost2010Prop32
280
     0
102
RTVSPost2010PropOp32
 70
     1
102
RTVSPost2010Prop33
280
     0
102
RTVSPost2010PropOp33
 70
     1
102
RTVSPost2010Prop34
280
     0
102
RTVSPost2010PropOp34
 70
     1
102
RTVSPost2010Prop35
280
     0
102
RTVSPost2010PropOp35
 70
     1
102
RTVSPost2010Prop36
280
     0
102
RTVSPost2010PropOp36
 70
     1
102
RTVSPost2010Prop37
 90
       50
102
RTVSPost2010PropOp37
 70
     1
102
RTVSPost2010Prop38
140
0.0
102
RTVSPost2010PropOp38
 70
     1
102
RTVSPost2010Prop39
140
1.0
102
RTVSPost2010PropOp39
 70
     1
102
RTVSPost2010Prop40
 90
        0
102
RTVSPost2010PropOp40
 70
     1
102
RTVSPost2010Prop41ColorIndex
 90
       18
102
RTVSPost2010Prop41ColorRGB
 90
        0
102
RTVSPost2010PropOp41
 70
     1
102
RTVSPost2010Prop42
 90
       50
102
RTVSPost2010PropOp42
 70
     1
102
RTVSPost2010Prop43
 90
        3
102
RTVSPost2010PropOp43
 70
     1
102
RTVSPost2010Prop44ColorIndex
 90
        5
102
RTVSPost2010Prop44ColorRGB
 90
      255
102
RTVSPost2010PropOp44
 70
     1
102
RTVSPost2010Prop45
280
     0
102
RTVSPost2010PropOp45
 70
     1
102
RTVSPost2010Prop46
 90
       50
102
RTVSPost2010PropOp46
 70
     1
102
RTVSPost2010Prop47
 90
       50
102
RTVSPost2010PropOp47
 70
     1
102
RTVSPost2010Prop48
 90
       50
102
RTVSPost2010PropOp48
 70
     1
102
RTVSPost2010Prop49
280
     0
102
RTVSPost2010PropOp49
 70
     1
102
RTVSPost2010Prop50
 90
       50
102
RTVSPost2010PropOp50
 70
     1
102
RTVSPost2010Prop51ColorIndex
 90
      256
102
RTVSPost2010Prop51ColorRGB
 90
-16777216
102
RTVSPost2010PropOp51
 70
     0
102
RTVSPost2010Prop52
140
1.0
102
RTVSPost2010PropOp52
 70
     0
102
RTVSPost2010Prop53
 90
        2
102
RTVSPost2010PropOp53
 70
     1
102
RTVSPost2010Prop54
  1
strokes_ogs.tif
102
RTVSPost2010PropOp54
 70
     1
102
RTVSPost2010Prop55
280
     0
102
RTVSPost2010PropOp55
 70
     1
102
RTVSPost2010Prop56
140
1.0
102
RTVSPost2010PropOp56
 70
     1
102
RTVSPost2010Prop57
140
1.0
102
RTVSPost2010PropOp57
 70
     1
102
RTVSPropertyOp0
 70
     1
102
RTVSPropertyOp1
 70
     1
102
RTVSPropertyOp2
 70
     1
102
RTVSPropertyOp3
 70
     1
102
RTVSPropertyOp4
 70
     1
102
RTVSPropertyOp5
 70
     1
102
RTVSPropertyOp6
 70
     1
102
RTVSPropertyOp7
 70
     1
102
RTVSPropertyOp8
 70
     1
102
RTVSPropertyOp9
 70
     1
102
RTVSPropertyOp10
 70
     1
102
RTVSPropertyOp11
 70
     1
102
RTVSPropertyOp12
 70
     1
102
RTVSPropertyOp13
 70
     1
102
RTVSPropertyOp14
 70
     1
102
RTVSPropertyOp15
 70
     1
102
RTVSPropertyOp16
 70
     1
102
RTVSPropertyOp17
 70
     1
102
RTVSPropertyOp18
 70
     1
102
RTVSPropertyOp19
 70
     1
102
RTVSPropertyOp20
 70
     1
102
RTVSPropertyOp21
 70
     1
102
RTVSPropertyOp22
 70
     1
102
RTVSPropertyOp23
 70
     1
102
RTVSPropertyOp24
 70
     1
102
RTVSPropertyOp25
 70
     1
102
RTVSPropertyOp26
 70
     1
102
RTVSPropertyOp27
 70
     1
102
RTVSPropertyOp28
 70
     1
102
RTVSPropertyOp29
 70
     1
102
RTVSPropertyOp30
 70
     1
102
RTVSPropertyOp31
 70
     1
102
RTVSPropertyOp32
 70
     1
102
RTVSPropertyOp33
 70
     1
102
RTVSPropertyOp34
 70
     1
102
RTVSPropertyOp35
 70
     1
102
RTVSPropertyOp36
 70
     1
102
RTVSPropertyOp37
 70
     1
102
RTVSPropertyOp38
 70
     1
102
RTVSPropertyOp39
 70
     1
102
RTVSPropertyOp40
 70
     1
102
RTVSPropertyOp41
 70
     1
102
RTVSPropertyOp42
 70
     1
102
RTVSPropertyOp43
 70
     1
102
RTVSPropertyOp44
 70
     1
102
RTVSPropertyOp45
 70
     1
102
RTVSPropertyOp46
 70
     1
102
RTVSPropertyOp47
 70
     1
102
RTVSPropertyOp48
 70
     1
102
RTVSPropertyOp49
 70
     1
102
RTVSPropertyOp50
 70
     1
102
RTVSPropertyOp51
 70
     0
102
RTVSPropertyOp52
 70
     0
102
RTVSPropertyOp53
 70
     1
102
RTVSPropertyOp54
 70
     1
102
RTVSPropertyOp55
 70
     1
102
RTVSPropertyOp56
 70
     1
102
RTVSPropertyOp57
 70
     1
102
RTVSPropertyOp58
 70
     1
102
RTVSPropertyOp59
 70
     1
102
RTVSPropertyOp60
 70
     1
102
RTVSPropertyOp61
 70
     1
102
RTVSPropertyOp62
 70
     1
  0
XRECORD
  5
6C4B
102
{ACAD_REACTORS
330
6C4A
102
}
330
6C4A
100
AcDbXrecord
280
     1
102
RTVSPost2010Prop28
280
     0
102
RTVSPost2010PropOp28
 70
     1
102
RTVSPost2010Prop29
280
     1
102
RTVSPost2010PropOp29
 70
     1
102
RTVSPost2010Prop30
280
     1
102
RTVSPost2010PropOp30
 70
     1
102
RTVSPost2010Prop31
280
     0
102
RTVSPost2010PropOp31
 70
     1
102
RTVSPost2010Prop32
280
     0
102
RTVSPost2010PropOp32
 70
     1
102
RTVSPost2010Prop33
280
     0
102
RTVSPost2010PropOp33
 70
     1
102
RTVSPost2010Prop34
280
     0
102
RTVSPost2010PropOp34
 70
     1
102
RTVSPost2010Prop35
280
     0
102
RTVSPost2010PropOp35
 70
     1
102
RTVSPost2010Prop36
280
     0
102
RTVSPost2010PropOp36
 70
     1
102
RTVSPost2010Prop37
 90
       50
102
RTVSPost2010PropOp37
 70
     1
102
RTVSPost2010Prop38
140
0.0
102
RTVSPost2010PropOp38
 70
     1
102
RTVSPost2010Prop39
140
1.0
102
RTVSPost2010PropOp39
 70
     1
102
RTVSPost2010Prop40
 90
        0
102
RTVSPost2010PropOp40
 70
     1
102
RTVSPost2010Prop41ColorIndex
 90
       18
102
RTVSPost2010Prop41ColorRGB
 90
        0
102
RTVSPost2010PropOp41
 70
     1
102
RTVSPost2010Prop42
 90
       50
102
RTVSPost2010PropOp42
 70
     1
102
RTVSPost2010Prop43
 90
        3
102
RTVSPost2010PropOp43
 70
     1
102
RTVSPost2010Prop44ColorIndex
 90
        5
102
RTVSPost2010Prop44ColorRGB
 90
      255
102
RTVSPost2010PropOp44
 70
     1
102
RTVSPost2010Prop45
280
     0
102
RTVSPost2010PropOp45
 70
     1
102
RTVSPost2010Prop46
 90
       50
102
RTVSPost2010PropOp46
 70
     1
102
RTVSPost2010Prop47
 90
       50
102
RTVSPost2010PropOp47
 70
     1
102
RTVSPost2010Prop48
 90
       50
102
RTVSPost2010PropOp48
 70
     1
102
RTVSPost2010Prop49
280
     0
102
RTVSPost2010PropOp49
 70
     1
102
RTVSPost2010Prop50
 90
       50
102
RTVSPost2010PropOp50
 70
     1
102
RTVSPost2010Prop51ColorIndex
 90
      256
102
RTVSPost2010Prop51ColorRGB
 90
-16777216
102
RTVSPost2010PropOp51
 70
     0
102
RTVSPost2010Prop52
140
1.0
102
RTVSPost2010PropOp52
 70
     0
102
RTVSPost2010Prop53
 90
        2
102
RTVSPost2010PropOp53
 70
     1
102
RTVSPost2010Prop54
  1
strokes_ogs.tif
102
RTVSPost2010PropOp54
 70
     1
102
RTVSPost2010Prop55
280
     0
102
RTVSPost2010PropOp55
 70
     1
102
RTVSPost2010Prop56
140
1.0
102
RTVSPost2010PropOp56
 70
     1
102
RTVSPost2010Prop57
140
1.0
102
RTVSPost2010PropOp57
 70
     1
102
RTVSPropertyOp0
 70
     1
102
RTVSPropertyOp1
 70
     1
102
RTVSPropertyOp2
 70
     1
102
RTVSPropertyOp3
 70
     1
102
RTVSPropertyOp4
 70
     1
102
RTVSPropertyOp5
 70
     1
102
RTVSPropertyOp6
 70
     1
102
RTVSPropertyOp7
 70
     1
102
RTVSPropertyOp8
 70
     1
102
RTVSPropertyOp9
 70
     1
102
RTVSPropertyOp10
 70
     1
102
RTVSPropertyOp11
 70
     1
102
RTVSPropertyOp12
 70
     1
102
RTVSPropertyOp13
 70
     1
102
RTVSPropertyOp14
 70
     1
102
RTVSPropertyOp15
 70
     1
102
RTVSPropertyOp16
 70
     1
102
RTVSPropertyOp17
 70
     1
102
RTVSPropertyOp18
 70
     1
102
RTVSPropertyOp19
 70
     1
102
RTVSPropertyOp20
 70
     1
102
RTVSPropertyOp21
 70
     1
102
RTVSPropertyOp22
 70
     1
102
RTVSPropertyOp23
 70
     1
102
RTVSPropertyOp24
 70
     1
102
RTVSPropertyOp25
 70
     1
102
RTVSPropertyOp26
 70
     1
102
RTVSPropertyOp27
 70
     1
102
RTVSPropertyOp28
 70
     1
102
RTVSPropertyOp29
 70
     1
102
RTVSPropertyOp30
 70
     1
102
RTVSPropertyOp31
 70
     1
102
RTVSPropertyOp32
 70
     1
102
RTVSPropertyOp33
 70
     1
102
RTVSPropertyOp34
 70
     1
102
RTVSPropertyOp35
 70
     1
102
RTVSPropertyOp36
 70
     1
102
RTVSPropertyOp37
 70
     1
102
RTVSPropertyOp38
 70
     1
102
RTVSPropertyOp39
 70
     1
102
RTVSPropertyOp40
 70
     1
102
RTVSPropertyOp41
 70
     1
102
RTVSPropertyOp42
 70
     1
102
RTVSPropertyOp43
 70
     1
102
RTVSPropertyOp44
 70
     1
102
RTVSPropertyOp45
 70
     1
102
RTVSPropertyOp46
 70
     1
102
RTVSPropertyOp47
 70
     1
102
RTVSPropertyOp48
 70
     1
102
RTVSPropertyOp49
 70
     1
102
RTVSPropertyOp50
 70
     1
102
RTVSPropertyOp51
 70
     0
102
RTVSPropertyOp52
 70
     0
102
RTVSPropertyOp53
 70
     1
102
RTVSPropertyOp54
 70
     1
102
RTVSPropertyOp55
 70
     1
102
RTVSPropertyOp56
 70
     1
102
RTVSPropertyOp57
 70
     1
102
RTVSPropertyOp58
 70
     1
102
RTVSPropertyOp59
 70
     1
102
RTVSPropertyOp60
 70
     1
102
RTVSPropertyOp61
 70
     1
102
RTVSPropertyOp62
 70
     1
  0
XRECORD
  5
6C5F
102
{ACAD_REACTORS
330
6C5E
102
}
330
6C5E
100
AcDbXrecord
280
     1
102
RTVSPost2010Prop28
280
     0
102
RTVSPost2010PropOp28
 70
     1
102
RTVSPost2010Prop29
280
     1
102
RTVSPost2010PropOp29
 70
     1
102
RTVSPost2010Prop30
280
     1
102
RTVSPost2010PropOp30
 70
     1
102
RTVSPost2010Prop31
280
     0
102
RTVSPost2010PropOp31
 70
     1
102
RTVSPost2010Prop32
280
     0
102
RTVSPost2010PropOp32
 70
     1
102
RTVSPost2010Prop33
280
     0
102
RTVSPost2010PropOp33
 70
     1
102
RTVSPost2010Prop34
280
     0
102
RTVSPost2010PropOp34
 70
     1
102
RTVSPost2010Prop35
280
     0
102
RTVSPost2010PropOp35
 70
     1
102
RTVSPost2010Prop36
280
     0
102
RTVSPost2010PropOp36
 70
     1
102
RTVSPost2010Prop37
 90
       50
102
RTVSPost2010PropOp37
 70
     1
102
RTVSPost2010Prop38
140
0.0
102
RTVSPost2010PropOp38
 70
     1
102
RTVSPost2010Prop39
140
1.0
102
RTVSPost2010PropOp39
 70
     1
102
RTVSPost2010Prop40
 90
        0
102
RTVSPost2010PropOp40
 70
     1
102
RTVSPost2010Prop41ColorIndex
 90
       18
102
RTVSPost2010Prop41ColorRGB
 90
        0
102
RTVSPost2010PropOp41
 70
     1
102
RTVSPost2010Prop42
 90
       50
102
RTVSPost2010PropOp42
 70
     1
102
RTVSPost2010Prop43
 90
        3
102
RTVSPost2010PropOp43
 70
     1
102
RTVSPost2010Prop44ColorIndex
 90
        5
102
RTVSPost2010Prop44ColorRGB
 90
      255
102
RTVSPost2010PropOp44
 70
     1
102
RTVSPost2010Prop45
280
     0
102
RTVSPost2010PropOp45
 70
     1
102
RTVSPost2010Prop46
 90
       50
102
RTVSPost2010PropOp46
 70
     1
102
RTVSPost2010Prop47
 90
       50
102
RTVSPost2010PropOp47
 70
     1
102
RTVSPost2010Prop48
 90
       50
102
RTVSPost2010PropOp48
 70
     1
102
RTVSPost2010Prop49
280
     0
102
RTVSPost2010PropOp49
 70
     1
102
RTVSPost2010Prop50
 90
       50
102
RTVSPost2010PropOp50
 70
     1
102
RTVSPost2010Prop51ColorIndex
 90
      256
102
RTVSPost2010Prop51ColorRGB
 90
-16777216
102
RTVSPost2010PropOp51
 70
     0
102
RTVSPost2010Prop52
140
1.0
102
RTVSPost2010PropOp52
 70
     0
102
RTVSPost2010Prop53
 90
        2
102
RTVSPost2010PropOp53
 70
     1
102
RTVSPost2010Prop54
  1
strokes_ogs.tif
102
RTVSPost2010PropOp54
 70
     1
102
RTVSPost2010Prop55
280
     0
102
RTVSPost2010PropOp55
 70
     1
102
RTVSPost2010Prop56
140
1.0
102
RTVSPost2010PropOp56
 70
     1
102
RTVSPost2010Prop57
140
1.0
102
RTVSPost2010PropOp57
 70
     1
102
RTVSPropertyOp0
 70
     0
102
RTVSPropertyOp1
 70
     0
102
RTVSPropertyOp2
 70
     0
102
RTVSPropertyOp3
 70
     0
102
RTVSPropertyOp4
 70
     0
102
RTVSPropertyOp5
 70
     0
102
RTVSPropertyOp6
 70
     0
102
RTVSPropertyOp7
 70
     0
102
RTVSPropertyOp8
 70
     0
102
RTVSPropertyOp9
 70
     0
102
RTVSPropertyOp10
 70
     0
102
RTVSPropertyOp11
 70
     0
102
RTVSPropertyOp12
 70
     0
102
RTVSPropertyOp13
 70
     0
102
RTVSPropertyOp14
 70
     2
102
RTVSPropertyOp15
 70
     0
102
RTVSPropertyOp16
 70
     0
102
RTVSPropertyOp17
 70
     0
102
RTVSPropertyOp18
 70
     0
102
RTVSPropertyOp19
 70
     0
102
RTVSPropertyOp20
 70
     0
102
RTVSPropertyOp21
 70
     0
102
RTVSPropertyOp22
 70
     0
102
RTVSPropertyOp23
 70
     0
102
RTVSPropertyOp24
 70
     0
102
RTVSPropertyOp25
 70
     0
102
RTVSPropertyOp26
 70
     0
102
RTVSPropertyOp27
 70
     0
102
RTVSPropertyOp28
 70
     1
102
RTVSPropertyOp29
 70
     1
102
RTVSPropertyOp30
 70
     1
102
RTVSPropertyOp31
 70
     1
102
RTVSPropertyOp32
 70
     1
102
RTVSPropertyOp33
 70
     1
102
RTVSPropertyOp34
 70
     1
102
RTVSPropertyOp35
 70
     1
102
RTVSPropertyOp36
 70
     1
102
RTVSPropertyOp37
 70
     1
102
RTVSPropertyOp38
 70
     1
102
RTVSPropertyOp39
 70
     1
102
RTVSPropertyOp40
 70
     1
102
RTVSPropertyOp41
 70
     1
102
RTVSPropertyOp42
 70
     1
102
RTVSPropertyOp43
 70
     1
102
RTVSPropertyOp44
 70
     1
102
RTVSPropertyOp45
 70
     1
102
RTVSPropertyOp46
 70
     1
102
RTVSPropertyOp47
 70
     1
102
RTVSPropertyOp48
 70
     1
102
RTVSPropertyOp49
 70
     1
102
RTVSPropertyOp50
 70
     1
102
RTVSPropertyOp51
 70
     0
102
RTVSPropertyOp52
 70
     0
102
RTVSPropertyOp53
 70
     1
102
RTVSPropertyOp54
 70
     1
102
RTVSPropertyOp55
 70
     1
102
RTVSPropertyOp56
 70
     1
102
RTVSPropertyOp57
 70
     1
102
RTVSPropertyOp58
 70
     1
102
RTVSPropertyOp59
 70
     1
102
RTVSPropertyOp60
 70
     1
102
RTVSPropertyOp61
 70
     1
102
RTVSPropertyOp62
 70
     1
  0
XRECORD
  5
6C57
102
{ACAD_REACTORS
330
6C56
102
}
330
6C56
100
AcDbXrecord
280
     1
102
RTVSPost2010Prop28
280
     0
102
RTVSPost2010PropOp28
 70
     1
102
RTVSPost2010Prop29
280
     1
102
RTVSPost2010PropOp29
 70
     1
102
RTVSPost2010Prop30
280
     1
102
RTVSPost2010PropOp30
 70
     1
102
RTVSPost2010Prop31
280
     0
102
RTVSPost2010PropOp31
 70
     1
102
RTVSPost2010Prop32
280
     0
102
RTVSPost2010PropOp32
 70
     1
102
RTVSPost2010Prop33
280
     0
102
RTVSPost2010PropOp33
 70
     1
102
RTVSPost2010Prop34
280
     0
102
RTVSPost2010PropOp34
 70
     1
102
RTVSPost2010Prop35
280
     0
102
RTVSPost2010PropOp35
 70
     1
102
RTVSPost2010Prop36
280
     0
102
RTVSPost2010PropOp36
 70
     1
102
RTVSPost2010Prop37
 90
       50
102
RTVSPost2010PropOp37
 70
     1
102
RTVSPost2010Prop38
140
0.0
102
RTVSPost2010PropOp38
 70
     1
102
RTVSPost2010Prop39
140
1.0
102
RTVSPost2010PropOp39
 70
     1
102
RTVSPost2010Prop40
 90
        0
102
RTVSPost2010PropOp40
 70
     1
102
RTVSPost2010Prop41ColorIndex
 90
       18
102
RTVSPost2010Prop41ColorRGB
 90
        0
102
RTVSPost2010PropOp41
 70
     1
102
RTVSPost2010Prop42
 90
       50
102
RTVSPost2010PropOp42
 70
     1
102
RTVSPost2010Prop43
 90
        3
102
RTVSPost2010PropOp43
 70
     1
102
RTVSPost2010Prop44ColorIndex
 90
        5
102
RTVSPost2010Prop44ColorRGB
 90
      255
102
RTVSPost2010PropOp44
 70
     1
102
RTVSPost2010Prop45
280
     0
102
RTVSPost2010PropOp45
 70
     1
102
RTVSPost2010Prop46
 90
       50
102
RTVSPost2010PropOp46
 70
     1
102
RTVSPost2010Prop47
 90
       50
102
RTVSPost2010PropOp47
 70
     1
102
RTVSPost2010Prop48
 90
       50
102
RTVSPost2010PropOp48
 70
     1
102
RTVSPost2010Prop49
280
     0
102
RTVSPost2010PropOp49
 70
     1
102
RTVSPost2010Prop50
 90
       50
102
RTVSPost2010PropOp50
 70
     1
102
RTVSPost2010Prop51ColorIndex
 90
      256
102
RTVSPost2010Prop51ColorRGB
 90
-16777216
102
RTVSPost2010PropOp51
 70
     0
102
RTVSPost2010Prop52
140
1.0
102
RTVSPost2010PropOp52
 70
     0
102
RTVSPost2010Prop53
 90
        2
102
RTVSPost2010PropOp53
 70
     1
102
RTVSPost2010Prop54
  1
strokes_ogs.tif
102
RTVSPost2010PropOp54
 70
     1
102
RTVSPost2010Prop55
280
     0
102
RTVSPost2010PropOp55
 70
     1
102
RTVSPost2010Prop56
140
1.0
102
RTVSPost2010PropOp56
 70
     1
102
RTVSPost2010Prop57
140
1.0
102
RTVSPost2010PropOp57
 70
     1
102
RTVSPropertyOp0
 70
     1
102
RTVSPropertyOp1
 70
     1
102
RTVSPropertyOp2
 70
     1
102
RTVSPropertyOp3
 70
     1
102
RTVSPropertyOp4
 70
     1
102
RTVSPropertyOp5
 70
     1
102
RTVSPropertyOp6
 70
     1
102
RTVSPropertyOp7
 70
     1
102
RTVSPropertyOp8
 70
     1
102
RTVSPropertyOp9
 70
     1
102
RTVSPropertyOp10
 70
     1
102
RTVSPropertyOp11
 70
     1
102
RTVSPropertyOp12
 70
     1
102
RTVSPropertyOp13
 70
     1
102
RTVSPropertyOp14
 70
     1
102
RTVSPropertyOp15
 70
     1
102
RTVSPropertyOp16
 70
     1
102
RTVSPropertyOp17
 70
     1
102
RTVSPropertyOp18
 70
     1
102
RTVSPropertyOp19
 70
     1
102
RTVSPropertyOp20
 70
     1
102
RTVSPropertyOp21
 70
     1
102
RTVSPropertyOp22
 70
     1
102
RTVSPropertyOp23
 70
     1
102
RTVSPropertyOp24
 70
     1
102
RTVSPropertyOp25
 70
     1
102
RTVSPropertyOp26
 70
     1
102
RTVSPropertyOp27
 70
     1
102
RTVSPropertyOp28
 70
     1
102
RTVSPropertyOp29
 70
     1
102
RTVSPropertyOp30
 70
     1
102
RTVSPropertyOp31
 70
     1
102
RTVSPropertyOp32
 70
     1
102
RTVSPropertyOp33
 70
     1
102
RTVSPropertyOp34
 70
     1
102
RTVSPropertyOp35
 70
     1
102
RTVSPropertyOp36
 70
     1
102
RTVSPropertyOp37
 70
     1
102
RTVSPropertyOp38
 70
     1
102
RTVSPropertyOp39
 70
     1
102
RTVSPropertyOp40
 70
     1
102
RTVSPropertyOp41
 70
     1
102
RTVSPropertyOp42
 70
     1
102
RTVSPropertyOp43
 70
     1
102
RTVSPropertyOp44
 70
     1
102
RTVSPropertyOp45
 70
     1
102
RTVSPropertyOp46
 70
     1
102
RTVSPropertyOp47
 70
     1
102
RTVSPropertyOp48
 70
     1
102
RTVSPropertyOp49
 70
     1
102
RTVSPropertyOp50
 70
     1
102
RTVSPropertyOp51
 70
     0
102
RTVSPropertyOp52
 70
     0
102
RTVSPropertyOp53
 70
     1
102
RTVSPropertyOp54
 70
     1
102
RTVSPropertyOp55
 70
     1
102
RTVSPropertyOp56
 70
     1
102
RTVSPropertyOp57
 70
     1
102
RTVSPropertyOp58
 70
     1
102
RTVSPropertyOp59
 70
     1
102
RTVSPropertyOp60
 70
     1
102
RTVSPropertyOp61
 70
     1
102
RTVSPropertyOp62
 70
     1
  0
XRECORD
  5
6C61
102
{ACAD_REACTORS
330
6C60
102
}
330
6C60
100
AcDbXrecord
280
     1
102
RTVSPost2010Prop28
280
     0
102
RTVSPost2010PropOp28
 70
     1
102
RTVSPost2010Prop29
280
     1
102
RTVSPost2010PropOp29
 70
     1
102
RTVSPost2010Prop30
280
     1
102
RTVSPost2010PropOp30
 70
     1
102
RTVSPost2010Prop31
280
     0
102
RTVSPost2010PropOp31
 70
     1
102
RTVSPost2010Prop32
280
     0
102
RTVSPost2010PropOp32
 70
     1
102
RTVSPost2010Prop33
280
     0
102
RTVSPost2010PropOp33
 70
     1
102
RTVSPost2010Prop34
280
     0
102
RTVSPost2010PropOp34
 70
     1
102
RTVSPost2010Prop35
280
     0
102
RTVSPost2010PropOp35
 70
     1
102
RTVSPost2010Prop36
280
     0
102
RTVSPost2010PropOp36
 70
     1
102
RTVSPost2010Prop37
 90
       50
102
RTVSPost2010PropOp37
 70
     1
102
RTVSPost2010Prop38
140
0.0
102
RTVSPost2010PropOp38
 70
     1
102
RTVSPost2010Prop39
140
1.0
102
RTVSPost2010PropOp39
 70
     1
102
RTVSPost2010Prop40
 90
        0
102
RTVSPost2010PropOp40
 70
     1
102
RTVSPost2010Prop41ColorIndex
 90
       18
102
RTVSPost2010Prop41ColorRGB
 90
        0
102
RTVSPost2010PropOp41
 70
     1
102
RTVSPost2010Prop42
 90
       50
102
RTVSPost2010PropOp42
 70
     1
102
RTVSPost2010Prop43
 90
        3
102
RTVSPost2010PropOp43
 70
     1
102
RTVSPost2010Prop44ColorIndex
 90
        5
102
RTVSPost2010Prop44ColorRGB
 90
      255
102
RTVSPost2010PropOp44
 70
     1
102
RTVSPost2010Prop45
280
     0
102
RTVSPost2010PropOp45
 70
     1
102
RTVSPost2010Prop46
 90
       50
102
RTVSPost2010PropOp46
 70
     1
102
RTVSPost2010Prop47
 90
       50
102
RTVSPost2010PropOp47
 70
     1
102
RTVSPost2010Prop48
 90
       50
102
RTVSPost2010PropOp48
 70
     1
102
RTVSPost2010Prop49
280
     0
102
RTVSPost2010PropOp49
 70
     1
102
RTVSPost2010Prop50
 90
       50
102
RTVSPost2010PropOp50
 70
     1
102
RTVSPost2010Prop51ColorIndex
 90
      256
102
RTVSPost2010Prop51ColorRGB
 90
-16777216
102
RTVSPost2010PropOp51
 70
     0
102
RTVSPost2010Prop52
140
1.0
102
RTVSPost2010PropOp52
 70
     0
102
RTVSPost2010Prop53
 90
        2
102
RTVSPost2010PropOp53
 70
     1
102
RTVSPost2010Prop54
  1
strokes_ogs.tif
102
RTVSPost2010PropOp54
 70
     1
102
RTVSPost2010Prop55
280
     0
102
RTVSPost2010PropOp55
 70
     1
102
RTVSPost2010Prop56
140
1.0
102
RTVSPost2010PropOp56
 70
     1
102
RTVSPost2010Prop57
140
1.0
102
RTVSPost2010PropOp57
 70
     1
102
RTVSPropertyOp0
 70
     0
102
RTVSPropertyOp1
 70
     0
102
RTVSPropertyOp2
 70
     0
102
RTVSPropertyOp3
 70
     0
102
RTVSPropertyOp4
 70
     0
102
RTVSPropertyOp5
 70
     0
102
RTVSPropertyOp6
 70
     0
102
RTVSPropertyOp7
 70
     0
102
RTVSPropertyOp8
 70
     0
102
RTVSPropertyOp9
 70
     0
102
RTVSPropertyOp10
 70
     0
102
RTVSPropertyOp11
 70
     0
102
RTVSPropertyOp12
 70
     0
102
RTVSPropertyOp13
 70
     0
102
RTVSPropertyOp14
 70
     2
102
RTVSPropertyOp15
 70
     0
102
RTVSPropertyOp16
 70
     0
102
RTVSPropertyOp17
 70
     0
102
RTVSPropertyOp18
 70
     0
102
RTVSPropertyOp19
 70
     0
102
RTVSPropertyOp20
 70
     0
102
RTVSPropertyOp21
 70
     0
102
RTVSPropertyOp22
 70
     0
102
RTVSPropertyOp23
 70
     0
102
RTVSPropertyOp24
 70
     0
102
RTVSPropertyOp25
 70
     0
102
RTVSPropertyOp26
 70
     0
102
RTVSPropertyOp27
 70
     0
102
RTVSPropertyOp28
 70
     1
102
RTVSPropertyOp29
 70
     1
102
RTVSPropertyOp30
 70
     1
102
RTVSPropertyOp31
 70
     1
102
RTVSPropertyOp32
 70
     1
102
RTVSPropertyOp33
 70
     1
102
RTVSPropertyOp34
 70
     1
102
RTVSPropertyOp35
 70
     1
102
RTVSPropertyOp36
 70
     1
102
RTVSPropertyOp37
 70
     1
102
RTVSPropertyOp38
 70
     1
102
RTVSPropertyOp39
 70
     1
102
RTVSPropertyOp40
 70
     1
102
RTVSPropertyOp41
 70
     1
102
RTVSPropertyOp42
 70
     1
102
RTVSPropertyOp43
 70
     1
102
RTVSPropertyOp44
 70
     1
102
RTVSPropertyOp45
 70
     1
102
RTVSPropertyOp46
 70
     1
102
RTVSPropertyOp47
 70
     1
102
RTVSPropertyOp48
 70
     1
102
RTVSPropertyOp49
 70
     1
102
RTVSPropertyOp50
 70
     1
102
RTVSPropertyOp51
 70
     0
102
RTVSPropertyOp52
 70
     0
102
RTVSPropertyOp53
 70
     1
102
RTVSPropertyOp54
 70
     1
102
RTVSPropertyOp55
 70
     1
102
RTVSPropertyOp56
 70
     1
102
RTVSPropertyOp57
 70
     1
102
RTVSPropertyOp58
 70
     1
102
RTVSPropertyOp59
 70
     1
102
RTVSPropertyOp60
 70
     1
102
RTVSPropertyOp61
 70
     1
102
RTVSPropertyOp62
 70
     1
  0
XRECORD
  5
6C4F
102
{ACAD_REACTORS
330
6C4E
102
}
330
6C4E
100
AcDbXrecord
280
     1
102
RTVSPost2010Prop28
280
     0
102
RTVSPost2010PropOp28
 70
     1
102
RTVSPost2010Prop29
280
     1
102
RTVSPost2010PropOp29
 70
     1
102
RTVSPost2010Prop30
280
     1
102
RTVSPost2010PropOp30
 70
     1
102
RTVSPost2010Prop31
280
     0
102
RTVSPost2010PropOp31
 70
     1
102
RTVSPost2010Prop32
280
     0
102
RTVSPost2010PropOp32
 70
     1
102
RTVSPost2010Prop33
280
     0
102
RTVSPost2010PropOp33
 70
     1
102
RTVSPost2010Prop34
280
     0
102
RTVSPost2010PropOp34
 70
     1
102
RTVSPost2010Prop35
280
     0
102
RTVSPost2010PropOp35
 70
     1
102
RTVSPost2010Prop36
280
     0
102
RTVSPost2010PropOp36
 70
     1
102
RTVSPost2010Prop37
 90
       50
102
RTVSPost2010PropOp37
 70
     1
102
RTVSPost2010Prop38
140
0.0
102
RTVSPost2010PropOp38
 70
     1
102
RTVSPost2010Prop39
140
1.0
102
RTVSPost2010PropOp39
 70
     1
102
RTVSPost2010Prop40
 90
        0
102
RTVSPost2010PropOp40
 70
     1
102
RTVSPost2010Prop41ColorIndex
 90
       18
102
RTVSPost2010Prop41ColorRGB
 90
        0
102
RTVSPost2010PropOp41
 70
     1
102
RTVSPost2010Prop42
 90
       50
102
RTVSPost2010PropOp42
 70
     1
102
RTVSPost2010Prop43
 90
        3
102
RTVSPost2010PropOp43
 70
     1
102
RTVSPost2010Prop44ColorIndex
 90
        5
102
RTVSPost2010Prop44ColorRGB
 90
      255
102
RTVSPost2010PropOp44
 70
     1
102
RTVSPost2010Prop45
280
     0
102
RTVSPost2010PropOp45
 70
     1
102
RTVSPost2010Prop46
 90
       50
102
RTVSPost2010PropOp46
 70
     1
102
RTVSPost2010Prop47
 90
       50
102
RTVSPost2010PropOp47
 70
     1
102
RTVSPost2010Prop48
 90
       50
102
RTVSPost2010PropOp48
 70
     1
102
RTVSPost2010Prop49
280
     0
102
RTVSPost2010PropOp49
 70
     1
102
RTVSPost2010Prop50
 90
       50
102
RTVSPost2010PropOp50
 70
     1
102
RTVSPost2010Prop51ColorIndex
 90
      256
102
RTVSPost2010Prop51ColorRGB
 90
-16777216
102
RTVSPost2010PropOp51
 70
     0
102
RTVSPost2010Prop52
140
1.0
102
RTVSPost2010PropOp52
 70
     0
102
RTVSPost2010Prop53
 90
        2
102
RTVSPost2010PropOp53
 70
     1
102
RTVSPost2010Prop54
  1
strokes_ogs.tif
102
RTVSPost2010PropOp54
 70
     1
102
RTVSPost2010Prop55
280
     0
102
RTVSPost2010PropOp55
 70
     1
102
RTVSPost2010Prop56
140
1.0
102
RTVSPost2010PropOp56
 70
     1
102
RTVSPost2010Prop57
140
1.0
102
RTVSPost2010PropOp57
 70
     1
102
RTVSPropertyOp0
 70
     1
102
RTVSPropertyOp1
 70
     1
102
RTVSPropertyOp2
 70
     1
102
RTVSPropertyOp3
 70
     1
102
RTVSPropertyOp4
 70
     1
102
RTVSPropertyOp5
 70
     1
102
RTVSPropertyOp6
 70
     1
102
RTVSPropertyOp7
 70
     1
102
RTVSPropertyOp8
 70
     1
102
RTVSPropertyOp9
 70
     1
102
RTVSPropertyOp10
 70
     1
102
RTVSPropertyOp11
 70
     1
102
RTVSPropertyOp12
 70
     1
102
RTVSPropertyOp13
 70
     1
102
RTVSPropertyOp14
 70
     1
102
RTVSPropertyOp15
 70
     1
102
RTVSPropertyOp16
 70
     1
102
RTVSPropertyOp17
 70
     1
102
RTVSPropertyOp18
 70
     1
102
RTVSPropertyOp19
 70
     1
102
RTVSPropertyOp20
 70
     1
102
RTVSPropertyOp21
 70
     1
102
RTVSPropertyOp22
 70
     1
102
RTVSPropertyOp23
 70
     1
102
RTVSPropertyOp24
 70
     1
102
RTVSPropertyOp25
 70
     1
102
RTVSPropertyOp26
 70
     1
102
RTVSPropertyOp27
 70
     1
102
RTVSPropertyOp28
 70
     1
102
RTVSPropertyOp29
 70
     1
102
RTVSPropertyOp30
 70
     1
102
RTVSPropertyOp31
 70
     1
102
RTVSPropertyOp32
 70
     1
102
RTVSPropertyOp33
 70
     1
102
RTVSPropertyOp34
 70
     1
102
RTVSPropertyOp35
 70
     1
102
RTVSPropertyOp36
 70
     1
102
RTVSPropertyOp37
 70
     1
102
RTVSPropertyOp38
 70
     1
102
RTVSPropertyOp39
 70
     1
102
RTVSPropertyOp40
 70
     1
102
RTVSPropertyOp41
 70
     1
102
RTVSPropertyOp42
 70
     1
102
RTVSPropertyOp43
 70
     1
102
RTVSPropertyOp44
 70
     1
102
RTVSPropertyOp45
 70
     1
102
RTVSPropertyOp46
 70
     1
102
RTVSPropertyOp47
 70
     1
102
RTVSPropertyOp48
 70
     1
102
RTVSPropertyOp49
 70
     1
102
RTVSPropertyOp50
 70
     1
102
RTVSPropertyOp51
 70
     0
102
RTVSPropertyOp52
 70
     0
102
RTVSPropertyOp53
 70
     1
102
RTVSPropertyOp54
 70
     1
102
RTVSPropertyOp55
 70
     1
102
RTVSPropertyOp56
 70
     1
102
RTVSPropertyOp57
 70
     1
102
RTVSPropertyOp58
 70
     1
102
RTVSPropertyOp59
 70
     1
102
RTVSPropertyOp60
 70
     1
102
RTVSPropertyOp61
 70
     1
102
RTVSPropertyOp62
 70
     1
  0
XRECORD
  5
6C6D
102
{ACAD_REACTORS
330
6C6C
102
}
330
6C6C
100
AcDbXrecord
280
     1
102
RTVSPost2010Prop28
280
     0
102
RTVSPost2010PropOp28
 70
     1
102
RTVSPost2010Prop29
280
     1
102
RTVSPost2010PropOp29
 70
     1
102
RTVSPost2010Prop30
280
     1
102
RTVSPost2010PropOp30
 70
     1
102
RTVSPost2010Prop31
280
     0
102
RTVSPost2010PropOp31
 70
     1
102
RTVSPost2010Prop32
280
     0
102
RTVSPost2010PropOp32
 70
     1
102
RTVSPost2010Prop33
280
     0
102
RTVSPost2010PropOp33
 70
     1
102
RTVSPost2010Prop34
280
     0
102
RTVSPost2010PropOp34
 70
     1
102
RTVSPost2010Prop35
280
     0
102
RTVSPost2010PropOp35
 70
     1
102
RTVSPost2010Prop36
280
     0
102
RTVSPost2010PropOp36
 70
     1
102
RTVSPost2010Prop37
 90
       50
102
RTVSPost2010PropOp37
 70
     1
102
RTVSPost2010Prop38
140
0.0
102
RTVSPost2010PropOp38
 70
     1
102
RTVSPost2010Prop39
140
1.0
102
RTVSPost2010PropOp39
 70
     1
102
RTVSPost2010Prop40
 90
        0
102
RTVSPost2010PropOp40
 70
     1
102
RTVSPost2010Prop41ColorIndex
 90
       18
102
RTVSPost2010Prop41ColorRGB
 90
        0
102
RTVSPost2010PropOp41
 70
     1
102
RTVSPost2010Prop42
 90
       50
102
RTVSPost2010PropOp42
 70
     1
102
RTVSPost2010Prop43
 90
        3
102
RTVSPost2010PropOp43
 70
     1
102
RTVSPost2010Prop44ColorIndex
 90
        5
102
RTVSPost2010Prop44ColorRGB
 90
      255
102
RTVSPost2010PropOp44
 70
     1
102
RTVSPost2010Prop45
280
     0
102
RTVSPost2010PropOp45
 70
     1
102
RTVSPost2010Prop46
 90
       50
102
RTVSPost2010PropOp46
 70
     1
102
RTVSPost2010Prop47
 90
       50
102
RTVSPost2010PropOp47
 70
     1
102
RTVSPost2010Prop48
 90
       50
102
RTVSPost2010PropOp48
 70
     1
102
RTVSPost2010Prop49
280
     0
102
RTVSPost2010PropOp49
 70
     1
102
RTVSPost2010Prop50
 90
       50
102
RTVSPost2010PropOp50
 70
     1
102
RTVSPost2010Prop51ColorIndex
 90
      256
102
RTVSPost2010Prop51ColorRGB
 90
-16777216
102
RTVSPost2010PropOp51
 70
     0
102
RTVSPost2010Prop52
140
1.0
102
RTVSPost2010PropOp52
 70
     0
102
RTVSPost2010Prop53
 90
        2
102
RTVSPost2010PropOp53
 70
     1
102
RTVSPost2010Prop54
  1
strokes_ogs.tif
102
RTVSPost2010PropOp54
 70
     1
102
RTVSPost2010Prop55
280
     0
102
RTVSPost2010PropOp55
 70
     1
102
RTVSPost2010Prop56
140
1.0
102
RTVSPost2010PropOp56
 70
     1
102
RTVSPost2010Prop57
140
1.0
102
RTVSPost2010PropOp57
 70
     1
102
RTVSPropertyOp0
 70
     1
102
RTVSPropertyOp1
 70
     1
102
RTVSPropertyOp2
 70
     1
102
RTVSPropertyOp3
 70
     1
102
RTVSPropertyOp4
 70
     1
102
RTVSPropertyOp5
 70
     1
102
RTVSPropertyOp6
 70
     1
102
RTVSPropertyOp7
 70
     1
102
RTVSPropertyOp8
 70
     1
102
RTVSPropertyOp9
 70
     1
102
RTVSPropertyOp10
 70
     1
102
RTVSPropertyOp11
 70
     1
102
RTVSPropertyOp12
 70
     1
102
RTVSPropertyOp13
 70
     1
102
RTVSPropertyOp14
 70
     1
102
RTVSPropertyOp15
 70
     1
102
RTVSPropertyOp16
 70
     1
102
RTVSPropertyOp17
 70
     1
102
RTVSPropertyOp18
 70
     1
102
RTVSPropertyOp19
 70
     1
102
RTVSPropertyOp20
 70
     1
102
RTVSPropertyOp21
 70
     1
102
RTVSPropertyOp22
 70
     1
102
RTVSPropertyOp23
 70
     1
102
RTVSPropertyOp24
 70
     1
102
RTVSPropertyOp25
 70
     1
102
RTVSPropertyOp26
 70
     1
102
RTVSPropertyOp27
 70
     1
102
RTVSPropertyOp28
 70
     1
102
RTVSPropertyOp29
 70
     1
102
RTVSPropertyOp30
 70
     1
102
RTVSPropertyOp31
 70
     1
102
RTVSPropertyOp32
 70
     1
102
RTVSPropertyOp33
 70
     1
102
RTVSPropertyOp34
 70
     1
102
RTVSPropertyOp35
 70
     1
102
RTVSPropertyOp36
 70
     1
102
RTVSPropertyOp37
 70
     1
102
RTVSPropertyOp38
 70
     1
102
RTVSPropertyOp39
 70
     1
102
RTVSPropertyOp40
 70
     1
102
RTVSPropertyOp41
 70
     1
102
RTVSPropertyOp42
 70
     1
102
RTVSPropertyOp43
 70
     1
102
RTVSPropertyOp44
 70
     1
102
RTVSPropertyOp45
 70
     1
102
RTVSPropertyOp46
 70
     1
102
RTVSPropertyOp47
 70
     1
102
RTVSPropertyOp48
 70
     1
102
RTVSPropertyOp49
 70
     1
102
RTVSPropertyOp50
 70
     1
102
RTVSPropertyOp51
 70
     0
102
RTVSPropertyOp52
 70
     0
102
RTVSPropertyOp53
 70
     1
102
RTVSPropertyOp54
 70
     1
102
RTVSPropertyOp55
 70
     1
102
RTVSPropertyOp56
 70
     1
102
RTVSPropertyOp57
 70
     1
102
RTVSPropertyOp58
 70
     1
102
RTVSPropertyOp59
 70
     1
102
RTVSPropertyOp60
 70
     1
102
RTVSPropertyOp61
 70
     1
102
RTVSPropertyOp62
 70
     1
  0
XRECORD
  5
6C6B
102
{ACAD_REACTORS
330
6C6A
102
}
330
6C6A
100
AcDbXrecord
280
     1
102
RTVSPost2010Prop28
280
     0
102
RTVSPost2010PropOp28
 70
     1
102
RTVSPost2010Prop29
280
     1
102
RTVSPost2010PropOp29
 70
     1
102
RTVSPost2010Prop30
280
     1
102
RTVSPost2010PropOp30
 70
     1
102
RTVSPost2010Prop31
280
     0
102
RTVSPost2010PropOp31
 70
     1
102
RTVSPost2010Prop32
280
     0
102
RTVSPost2010PropOp32
 70
     1
102
RTVSPost2010Prop33
280
     0
102
RTVSPost2010PropOp33
 70
     1
102
RTVSPost2010Prop34
280
     0
102
RTVSPost2010PropOp34
 70
     1
102
RTVSPost2010Prop35
280
     0
102
RTVSPost2010PropOp35
 70
     1
102
RTVSPost2010Prop36
280
     0
102
RTVSPost2010PropOp36
 70
     1
102
RTVSPost2010Prop37
 90
       50
102
RTVSPost2010PropOp37
 70
     1
102
RTVSPost2010Prop38
140
0.0
102
RTVSPost2010PropOp38
 70
     1
102
RTVSPost2010Prop39
140
1.0
102
RTVSPost2010PropOp39
 70
     1
102
RTVSPost2010Prop40
 90
        0
102
RTVSPost2010PropOp40
 70
     1
102
RTVSPost2010Prop41ColorIndex
 90
       18
102
RTVSPost2010Prop41ColorRGB
 90
        0
102
RTVSPost2010PropOp41
 70
     1
102
RTVSPost2010Prop42
 90
       50
102
RTVSPost2010PropOp42
 70
     1
102
RTVSPost2010Prop43
 90
        3
102
RTVSPost2010PropOp43
 70
     1
102
RTVSPost2010Prop44ColorIndex
 90
        5
102
RTVSPost2010Prop44ColorRGB
 90
      255
102
RTVSPost2010PropOp44
 70
     1
102
RTVSPost2010Prop45
280
     0
102
RTVSPost2010PropOp45
 70
     1
102
RTVSPost2010Prop46
 90
       50
102
RTVSPost2010PropOp46
 70
     1
102
RTVSPost2010Prop47
 90
       50
102
RTVSPost2010PropOp47
 70
     1
102
RTVSPost2010Prop48
 90
       50
102
RTVSPost2010PropOp48
 70
     1
102
RTVSPost2010Prop49
280
     0
102
RTVSPost2010PropOp49
 70
     1
102
RTVSPost2010Prop50
 90
       50
102
RTVSPost2010PropOp50
 70
     1
102
RTVSPost2010Prop51ColorIndex
 90
      256
102
RTVSPost2010Prop51ColorRGB
 90
-16777216
102
RTVSPost2010PropOp51
 70
     0
102
RTVSPost2010Prop52
140
1.0
102
RTVSPost2010PropOp52
 70
     0
102
RTVSPost2010Prop53
 90
        2
102
RTVSPost2010PropOp53
 70
     1
102
RTVSPost2010Prop54
  1
strokes_ogs.tif
102
RTVSPost2010PropOp54
 70
     1
102
RTVSPost2010Prop55
280
     0
102
RTVSPost2010PropOp55
 70
     1
102
RTVSPost2010Prop56
140
1.0
102
RTVSPost2010PropOp56
 70
     1
102
RTVSPost2010Prop57
140
1.0
102
RTVSPost2010PropOp57
 70
     1
102
RTVSPropertyOp0
 70
     1
102
RTVSPropertyOp1
 70
     1
102
RTVSPropertyOp2
 70
     1
102
RTVSPropertyOp3
 70
     1
102
RTVSPropertyOp4
 70
     1
102
RTVSPropertyOp5
 70
     1
102
RTVSPropertyOp6
 70
     1
102
RTVSPropertyOp7
 70
     1
102
RTVSPropertyOp8
 70
     1
102
RTVSPropertyOp9
 70
     1
102
RTVSPropertyOp10
 70
     1
102
RTVSPropertyOp11
 70
     1
102
RTVSPropertyOp12
 70
     1
102
RTVSPropertyOp13
 70
     1
102
RTVSPropertyOp14
 70
     1
102
RTVSPropertyOp15
 70
     1
102
RTVSPropertyOp16
 70
     1
102
RTVSPropertyOp17
 70
     1
102
RTVSPropertyOp18
 70
     1
102
RTVSPropertyOp19
 70
     1
102
RTVSPropertyOp20
 70
     1
102
RTVSPropertyOp21
 70
     1
102
RTVSPropertyOp22
 70
     1
102
RTVSPropertyOp23
 70
     1
102
RTVSPropertyOp24
 70
     1
102
RTVSPropertyOp25
 70
     1
102
RTVSPropertyOp26
 70
     1
102
RTVSPropertyOp27
 70
     1
102
RTVSPropertyOp28
 70
     1
102
RTVSPropertyOp29
 70
     1
102
RTVSPropertyOp30
 70
     1
102
RTVSPropertyOp31
 70
     1
102
RTVSPropertyOp32
 70
     1
102
RTVSPropertyOp33
 70
     1
102
RTVSPropertyOp34
 70
     1
102
RTVSPropertyOp35
 70
     1
102
RTVSPropertyOp36
 70
     1
102
RTVSPropertyOp37
 70
     1
102
RTVSPropertyOp38
 70
     1
102
RTVSPropertyOp39
 70
     1
102
RTVSPropertyOp40
 70
     1
102
RTVSPropertyOp41
 70
     1
102
RTVSPropertyOp42
 70
     1
102
RTVSPropertyOp43
 70
     1
102
RTVSPropertyOp44
 70
     1
102
RTVSPropertyOp45
 70
     1
102
RTVSPropertyOp46
 70
     1
102
RTVSPropertyOp47
 70
     1
102
RTVSPropertyOp48
 70
     1
102
RTVSPropertyOp49
 70
     1
102
RTVSPropertyOp50
 70
     1
102
RTVSPropertyOp51
 70
     0
102
RTVSPropertyOp52
 70
     0
102
RTVSPropertyOp53
 70
     1
102
RTVSPropertyOp54
 70
     1
102
RTVSPropertyOp55
 70
     1
102
RTVSPropertyOp56
 70
     1
102
RTVSPropertyOp57
 70
     1
102
RTVSPropertyOp58
 70
     1
102
RTVSPropertyOp59
 70
     1
102
RTVSPropertyOp60
 70
     1
102
RTVSPropertyOp61
 70
     1
102
RTVSPropertyOp62
 70
     1
  0
XRECORD
  5
6C65
102
{ACAD_REACTORS
330
6C64
102
}
330
6C64
100
AcDbXrecord
280
     1
102
RTVSPost2010Prop28
280
     0
102
RTVSPost2010PropOp28
 70
     1
102
RTVSPost2010Prop29
280
     1
102
RTVSPost2010PropOp29
 70
     1
102
RTVSPost2010Prop30
280
     1
102
RTVSPost2010PropOp30
 70
     1
102
RTVSPost2010Prop31
280
     0
102
RTVSPost2010PropOp31
 70
     1
102
RTVSPost2010Prop32
280
     0
102
RTVSPost2010PropOp32
 70
     1
102
RTVSPost2010Prop33
280
     0
102
RTVSPost2010PropOp33
 70
     1
102
RTVSPost2010Prop34
280
     0
102
RTVSPost2010PropOp34
 70
     1
102
RTVSPost2010Prop35
280
     0
102
RTVSPost2010PropOp35
 70
     1
102
RTVSPost2010Prop36
280
     0
102
RTVSPost2010PropOp36
 70
     1
102
RTVSPost2010Prop37
 90
       50
102
RTVSPost2010PropOp37
 70
     1
102
RTVSPost2010Prop38
140
0.0
102
RTVSPost2010PropOp38
 70
     1
102
RTVSPost2010Prop39
140
1.0
102
RTVSPost2010PropOp39
 70
     1
102
RTVSPost2010Prop40
 90
        0
102
RTVSPost2010PropOp40
 70
     1
102
RTVSPost2010Prop41ColorIndex
 90
       18
102
RTVSPost2010Prop41ColorRGB
 90
        0
102
RTVSPost2010PropOp41
 70
     1
102
RTVSPost2010Prop42
 90
       50
102
RTVSPost2010PropOp42
 70
     1
102
RTVSPost2010Prop43
 90
        3
102
RTVSPost2010PropOp43
 70
     1
102
RTVSPost2010Prop44ColorIndex
 90
        5
102
RTVSPost2010Prop44ColorRGB
 90
      255
102
RTVSPost2010PropOp44
 70
     1
102
RTVSPost2010Prop45
280
     0
102
RTVSPost2010PropOp45
 70
     1
102
RTVSPost2010Prop46
 90
       50
102
RTVSPost2010PropOp46
 70
     1
102
RTVSPost2010Prop47
 90
       50
102
RTVSPost2010PropOp47
 70
     1
102
RTVSPost2010Prop48
 90
       50
102
RTVSPost2010PropOp48
 70
     1
102
RTVSPost2010Prop49
280
     0
102
RTVSPost2010PropOp49
 70
     1
102
RTVSPost2010Prop50
 90
       50
102
RTVSPost2010PropOp50
 70
     1
102
RTVSPost2010Prop51ColorIndex
 90
      256
102
RTVSPost2010Prop51ColorRGB
 90
-16777216
102
RTVSPost2010PropOp51
 70
     0
102
RTVSPost2010Prop52
140
1.0
102
RTVSPost2010PropOp52
 70
     0
102
RTVSPost2010Prop53
 90
        2
102
RTVSPost2010PropOp53
 70
     1
102
RTVSPost2010Prop54
  1
strokes_ogs.tif
102
RTVSPost2010PropOp54
 70
     1
102
RTVSPost2010Prop55
280
     0
102
RTVSPost2010PropOp55
 70
     1
102
RTVSPost2010Prop56
140
1.0
102
RTVSPost2010PropOp56
 70
     1
102
RTVSPost2010Prop57
140
1.0
102
RTVSPost2010PropOp57
 70
     1
102
RTVSPropertyOp0
 70
     1
102
RTVSPropertyOp1
 70
     1
102
RTVSPropertyOp2
 70
     1
102
RTVSPropertyOp3
 70
     1
102
RTVSPropertyOp4
 70
     1
102
RTVSPropertyOp5
 70
     1
102
RTVSPropertyOp6
 70
     1
102
RTVSPropertyOp7
 70
     1
102
RTVSPropertyOp8
 70
     1
102
RTVSPropertyOp9
 70
     1
102
RTVSPropertyOp10
 70
     1
102
RTVSPropertyOp11
 70
     1
102
RTVSPropertyOp12
 70
     1
102
RTVSPropertyOp13
 70
     1
102
RTVSPropertyOp14
 70
     1
102
RTVSPropertyOp15
 70
     1
102
RTVSPropertyOp16
 70
     1
102
RTVSPropertyOp17
 70
     1
102
RTVSPropertyOp18
 70
     1
102
RTVSPropertyOp19
 70
     1
102
RTVSPropertyOp20
 70
     1
102
RTVSPropertyOp21
 70
     1
102
RTVSPropertyOp22
 70
     1
102
RTVSPropertyOp23
 70
     1
102
RTVSPropertyOp24
 70
     1
102
RTVSPropertyOp25
 70
     1
102
RTVSPropertyOp26
 70
     1
102
RTVSPropertyOp27
 70
     1
102
RTVSPropertyOp28
 70
     1
102
RTVSPropertyOp29
 70
     1
102
RTVSPropertyOp30
 70
     1
102
RTVSPropertyOp31
 70
     1
102
RTVSPropertyOp32
 70
     1
102
RTVSPropertyOp33
 70
     1
102
RTVSPropertyOp34
 70
     1
102
RTVSPropertyOp35
 70
     1
102
RTVSPropertyOp36
 70
     1
102
RTVSPropertyOp37
 70
     1
102
RTVSPropertyOp38
 70
     1
102
RTVSPropertyOp39
 70
     1
102
RTVSPropertyOp40
 70
     1
102
RTVSPropertyOp41
 70
     1
102
RTVSPropertyOp42
 70
     1
102
RTVSPropertyOp43
 70
     1
102
RTVSPropertyOp44
 70
     1
102
RTVSPropertyOp45
 70
     1
102
RTVSPropertyOp46
 70
     1
102
RTVSPropertyOp47
 70
     1
102
RTVSPropertyOp48
 70
     1
102
RTVSPropertyOp49
 70
     1
102
RTVSPropertyOp50
 70
     1
102
RTVSPropertyOp51
 70
     0
102
RTVSPropertyOp52
 70
     0
102
RTVSPropertyOp53
 70
     1
102
RTVSPropertyOp54
 70
     1
102
RTVSPropertyOp55
 70
     1
102
RTVSPropertyOp56
 70
     1
102
RTVSPropertyOp57
 70
     1
102
RTVSPropertyOp58
 70
     1
102
RTVSPropertyOp59
 70
     1
102
RTVSPropertyOp60
 70
     1
102
RTVSPropertyOp61
 70
     1
102
RTVSPropertyOp62
 70
     1
  0
XRECORD
  5
6C67
102
{ACAD_REACTORS
330
6C66
102
}
330
6C66
100
AcDbXrecord
280
     1
102
RTVSPost2010Prop28
280
     0
102
RTVSPost2010PropOp28
 70
     1
102
RTVSPost2010Prop29
280
     1
102
RTVSPost2010PropOp29
 70
     1
102
RTVSPost2010Prop30
280
     1
102
RTVSPost2010PropOp30
 70
     1
102
RTVSPost2010Prop31
280
     0
102
RTVSPost2010PropOp31
 70
     1
102
RTVSPost2010Prop32
280
     0
102
RTVSPost2010PropOp32
 70
     1
102
RTVSPost2010Prop33
280
     0
102
RTVSPost2010PropOp33
 70
     1
102
RTVSPost2010Prop34
280
     0
102
RTVSPost2010PropOp34
 70
     1
102
RTVSPost2010Prop35
280
     0
102
RTVSPost2010PropOp35
 70
     1
102
RTVSPost2010Prop36
280
     0
102
RTVSPost2010PropOp36
 70
     1
102
RTVSPost2010Prop37
 90
       50
102
RTVSPost2010PropOp37
 70
     1
102
RTVSPost2010Prop38
140
0.0
102
RTVSPost2010PropOp38
 70
     1
102
RTVSPost2010Prop39
140
1.0
102
RTVSPost2010PropOp39
 70
     1
102
RTVSPost2010Prop40
 90
        0
102
RTVSPost2010PropOp40
 70
     1
102
RTVSPost2010Prop41ColorIndex
 90
       18
102
RTVSPost2010Prop41ColorRGB
 90
        0
102
RTVSPost2010PropOp41
 70
     1
102
RTVSPost2010Prop42
 90
       50
102
RTVSPost2010PropOp42
 70
     1
102
RTVSPost2010Prop43
 90
        3
102
RTVSPost2010PropOp43
 70
     1
102
RTVSPost2010Prop44ColorIndex
 90
        5
102
RTVSPost2010Prop44ColorRGB
 90
      255
102
RTVSPost2010PropOp44
 70
     1
102
RTVSPost2010Prop45
280
     0
102
RTVSPost2010PropOp45
 70
     1
102
RTVSPost2010Prop46
 90
       50
102
RTVSPost2010PropOp46
 70
     1
102
RTVSPost2010Prop47
 90
       50
102
RTVSPost2010PropOp47
 70
     1
102
RTVSPost2010Prop48
 90
       50
102
RTVSPost2010PropOp48
 70
     1
102
RTVSPost2010Prop49
280
     0
102
RTVSPost2010PropOp49
 70
     1
102
RTVSPost2010Prop50
 90
       50
102
RTVSPost2010PropOp50
 70
     1
102
RTVSPost2010Prop51ColorIndex
 90
      256
102
RTVSPost2010Prop51ColorRGB
 90
-16777216
102
RTVSPost2010PropOp51
 70
     0
102
RTVSPost2010Prop52
140
1.0
102
RTVSPost2010PropOp52
 70
     0
102
RTVSPost2010Prop53
 90
        2
102
RTVSPost2010PropOp53
 70
     1
102
RTVSPost2010Prop54
  1
strokes_ogs.tif
102
RTVSPost2010PropOp54
 70
     1
102
RTVSPost2010Prop55
280
     0
102
RTVSPost2010PropOp55
 70
     1
102
RTVSPost2010Prop56
140
1.0
102
RTVSPost2010PropOp56
 70
     1
102
RTVSPost2010Prop57
140
1.0
102
RTVSPost2010PropOp57
 70
     1
102
RTVSPropertyOp0
 70
     1
102
RTVSPropertyOp1
 70
     1
102
RTVSPropertyOp2
 70
     1
102
RTVSPropertyOp3
 70
     1
102
RTVSPropertyOp4
 70
     1
102
RTVSPropertyOp5
 70
     1
102
RTVSPropertyOp6
 70
     1
102
RTVSPropertyOp7
 70
     1
102
RTVSPropertyOp8
 70
     1
102
RTVSPropertyOp9
 70
     1
102
RTVSPropertyOp10
 70
     1
102
RTVSPropertyOp11
 70
     1
102
RTVSPropertyOp12
 70
     1
102
RTVSPropertyOp13
 70
     1
102
RTVSPropertyOp14
 70
     1
102
RTVSPropertyOp15
 70
     1
102
RTVSPropertyOp16
 70
     1
102
RTVSPropertyOp17
 70
     1
102
RTVSPropertyOp18
 70
     1
102
RTVSPropertyOp19
 70
     1
102
RTVSPropertyOp20
 70
     1
102
RTVSPropertyOp21
 70
     1
102
RTVSPropertyOp22
 70
     1
102
RTVSPropertyOp23
 70
     1
102
RTVSPropertyOp24
 70
     1
102
RTVSPropertyOp25
 70
     1
102
RTVSPropertyOp26
 70
     1
102
RTVSPropertyOp27
 70
     1
102
RTVSPropertyOp28
 70
     1
102
RTVSPropertyOp29
 70
     1
102
RTVSPropertyOp30
 70
     1
102
RTVSPropertyOp31
 70
     1
102
RTVSPropertyOp32
 70
     1
102
RTVSPropertyOp33
 70
     1
102
RTVSPropertyOp34
 70
     1
102
RTVSPropertyOp35
 70
     1
102
RTVSPropertyOp36
 70
     1
102
RTVSPropertyOp37
 70
     1
102
RTVSPropertyOp38
 70
     1
102
RTVSPropertyOp39
 70
     1
102
RTVSPropertyOp40
 70
     1
102
RTVSPropertyOp41
 70
     1
102
RTVSPropertyOp42
 70
     1
102
RTVSPropertyOp43
 70
     1
102
RTVSPropertyOp44
 70
     1
102
RTVSPropertyOp45
 70
     1
102
RTVSPropertyOp46
 70
     1
102
RTVSPropertyOp47
 70
     1
102
RTVSPropertyOp48
 70
     1
102
RTVSPropertyOp49
 70
     1
102
RTVSPropertyOp50
 70
     1
102
RTVSPropertyOp51
 70
     0
102
RTVSPropertyOp52
 70
     0
102
RTVSPropertyOp53
 70
     1
102
RTVSPropertyOp54
 70
     1
102
RTVSPropertyOp55
 70
     1
102
RTVSPropertyOp56
 70
     1
102
RTVSPropertyOp57
 70
     1
102
RTVSPropertyOp58
 70
     1
102
RTVSPropertyOp59
 70
     1
102
RTVSPropertyOp60
 70
     1
102
RTVSPropertyOp61
 70
     1
102
RTVSPropertyOp62
 70
     1
  0
XRECORD
  5
6C55
102
{ACAD_REACTORS
330
6C54
102
}
330
6C54
100
AcDbXrecord
280
     1
102
RTVSPost2010Prop28
280
     0
102
RTVSPost2010PropOp28
 70
     1
102
RTVSPost2010Prop29
280
     1
102
RTVSPost2010PropOp29
 70
     1
102
RTVSPost2010Prop30
280
     1
102
RTVSPost2010PropOp30
 70
     1
102
RTVSPost2010Prop31
280
     0
102
RTVSPost2010PropOp31
 70
     1
102
RTVSPost2010Prop32
280
     0
102
RTVSPost2010PropOp32
 70
     1
102
RTVSPost2010Prop33
280
     0
102
RTVSPost2010PropOp33
 70
     1
102
RTVSPost2010Prop34
280
     0
102
RTVSPost2010PropOp34
 70
     1
102
RTVSPost2010Prop35
280
     0
102
RTVSPost2010PropOp35
 70
     1
102
RTVSPost2010Prop36
280
     0
102
RTVSPost2010PropOp36
 70
     1
102
RTVSPost2010Prop37
 90
       50
102
RTVSPost2010PropOp37
 70
     1
102
RTVSPost2010Prop38
140
0.0
102
RTVSPost2010PropOp38
 70
     1
102
RTVSPost2010Prop39
140
1.0
102
RTVSPost2010PropOp39
 70
     1
102
RTVSPost2010Prop40
 90
        0
102
RTVSPost2010PropOp40
 70
     1
102
RTVSPost2010Prop41ColorIndex
 90
       18
102
RTVSPost2010Prop41ColorRGB
 90
        0
102
RTVSPost2010PropOp41
 70
     1
102
RTVSPost2010Prop42
 90
       50
102
RTVSPost2010PropOp42
 70
     1
102
RTVSPost2010Prop43
 90
        3
102
RTVSPost2010PropOp43
 70
     1
102
RTVSPost2010Prop44ColorIndex
 90
        5
102
RTVSPost2010Prop44ColorRGB
 90
      255
102
RTVSPost2010PropOp44
 70
     1
102
RTVSPost2010Prop45
280
     0
102
RTVSPost2010PropOp45
 70
     1
102
RTVSPost2010Prop46
 90
       50
102
RTVSPost2010PropOp46
 70
     1
102
RTVSPost2010Prop47
 90
       50
102
RTVSPost2010PropOp47
 70
     1
102
RTVSPost2010Prop48
 90
       50
102
RTVSPost2010PropOp48
 70
     1
102
RTVSPost2010Prop49
280
     0
102
RTVSPost2010PropOp49
 70
     1
102
RTVSPost2010Prop50
 90
       50
102
RTVSPost2010PropOp50
 70
     1
102
RTVSPost2010Prop51ColorIndex
 90
      256
102
RTVSPost2010Prop51ColorRGB
 90
-16777216
102
RTVSPost2010PropOp51
 70
     0
102
RTVSPost2010Prop52
140
1.0
102
RTVSPost2010PropOp52
 70
     0
102
RTVSPost2010Prop53
 90
        2
102
RTVSPost2010PropOp53
 70
     1
102
RTVSPost2010Prop54
  1
strokes_ogs.tif
102
RTVSPost2010PropOp54
 70
     1
102
RTVSPost2010Prop55
280
     0
102
RTVSPost2010PropOp55
 70
     1
102
RTVSPost2010Prop56
140
1.0
102
RTVSPost2010PropOp56
 70
     1
102
RTVSPost2010Prop57
140
1.0
102
RTVSPost2010PropOp57
 70
     1
102
RTVSPropertyOp0
 70
     1
102
RTVSPropertyOp1
 70
     1
102
RTVSPropertyOp2
 70
     1
102
RTVSPropertyOp3
 70
     1
102
RTVSPropertyOp4
 70
     1
102
RTVSPropertyOp5
 70
     1
102
RTVSPropertyOp6
 70
     1
102
RTVSPropertyOp7
 70
     1
102
RTVSPropertyOp8
 70
     1
102
RTVSPropertyOp9
 70
     1
102
RTVSPropertyOp10
 70
     1
102
RTVSPropertyOp11
 70
     1
102
RTVSPropertyOp12
 70
     1
102
RTVSPropertyOp13
 70
     1
102
RTVSPropertyOp14
 70
     1
102
RTVSPropertyOp15
 70
     1
102
RTVSPropertyOp16
 70
     1
102
RTVSPropertyOp17
 70
     1
102
RTVSPropertyOp18
 70
     1
102
RTVSPropertyOp19
 70
     1
102
RTVSPropertyOp20
 70
     1
102
RTVSPropertyOp21
 70
     1
102
RTVSPropertyOp22
 70
     1
102
RTVSPropertyOp23
 70
     1
102
RTVSPropertyOp24
 70
     1
102
RTVSPropertyOp25
 70
     1
102
RTVSPropertyOp26
 70
     1
102
RTVSPropertyOp27
 70
     1
102
RTVSPropertyOp28
 70
     1
102
RTVSPropertyOp29
 70
     1
102
RTVSPropertyOp30
 70
     1
102
RTVSPropertyOp31
 70
     1
102
RTVSPropertyOp32
 70
     1
102
RTVSPropertyOp33
 70
     1
102
RTVSPropertyOp34
 70
     1
102
RTVSPropertyOp35
 70
     1
102
RTVSPropertyOp36
 70
     1
102
RTVSPropertyOp37
 70
     1
102
RTVSPropertyOp38
 70
     1
102
RTVSPropertyOp39
 70
     1
102
RTVSPropertyOp40
 70
     1
102
RTVSPropertyOp41
 70
     1
102
RTVSPropertyOp42
 70
     1
102
RTVSPropertyOp43
 70
     1
102
RTVSPropertyOp44
 70
     1
102
RTVSPropertyOp45
 70
     1
102
RTVSPropertyOp46
 70
     1
102
RTVSPropertyOp47
 70
     1
102
RTVSPropertyOp48
 70
     1
102
RTVSPropertyOp49
 70
     1
102
RTVSPropertyOp50
 70
     1
102
RTVSPropertyOp51
 70
     0
102
RTVSPropertyOp52
 70
     0
102
RTVSPropertyOp53
 70
     1
102
RTVSPropertyOp54
 70
     1
102
RTVSPropertyOp55
 70
     1
102
RTVSPropertyOp56
 70
     1
102
RTVSPropertyOp57
 70
     1
102
RTVSPropertyOp58
 70
     1
102
RTVSPropertyOp59
 70
     1
102
RTVSPropertyOp60
 70
     1
102
RTVSPropertyOp61
 70
     1
102
RTVSPropertyOp62
 70
     1
  0
XRECORD
  5
6C49
102
{ACAD_REACTORS
330
6C48
102
}
330
6C48
100
AcDbXrecord
280
     1
102
RTVSPost2010Prop28
280
     0
102
RTVSPost2010PropOp28
 70
     1
102
RTVSPost2010Prop29
280
     1
102
RTVSPost2010PropOp29
 70
     1
102
RTVSPost2010Prop30
280
     1
102
RTVSPost2010PropOp30
 70
     1
102
RTVSPost2010Prop31
280
     0
102
RTVSPost2010PropOp31
 70
     1
102
RTVSPost2010Prop32
280
     0
102
RTVSPost2010PropOp32
 70
     1
102
RTVSPost2010Prop33
280
     0
102
RTVSPost2010PropOp33
 70
     1
102
RTVSPost2010Prop34
280
     0
102
RTVSPost2010PropOp34
 70
     1
102
RTVSPost2010Prop35
280
     0
102
RTVSPost2010PropOp35
 70
     1
102
RTVSPost2010Prop36
280
     0
102
RTVSPost2010PropOp36
 70
     1
102
RTVSPost2010Prop37
 90
       50
102
RTVSPost2010PropOp37
 70
     1
102
RTVSPost2010Prop38
140
0.0
102
RTVSPost2010PropOp38
 70
     1
102
RTVSPost2010Prop39
140
1.0
102
RTVSPost2010PropOp39
 70
     1
102
RTVSPost2010Prop40
 90
        0
102
RTVSPost2010PropOp40
 70
     1
102
RTVSPost2010Prop41ColorIndex
 90
       18
102
RTVSPost2010Prop41ColorRGB
 90
        0
102
RTVSPost2010PropOp41
 70
     1
102
RTVSPost2010Prop42
 90
       50
102
RTVSPost2010PropOp42
 70
     1
102
RTVSPost2010Prop43
 90
        3
102
RTVSPost2010PropOp43
 70
     1
102
RTVSPost2010Prop44ColorIndex
 90
        5
102
RTVSPost2010Prop44ColorRGB
 90
      255
102
RTVSPost2010PropOp44
 70
     1
102
RTVSPost2010Prop45
280
     0
102
RTVSPost2010PropOp45
 70
     1
102
RTVSPost2010Prop46
 90
       50
102
RTVSPost2010PropOp46
 70
     1
102
RTVSPost2010Prop47
 90
       50
102
RTVSPost2010PropOp47
 70
     1
102
RTVSPost2010Prop48
 90
       50
102
RTVSPost2010PropOp48
 70
     1
102
RTVSPost2010Prop49
280
     0
102
RTVSPost2010PropOp49
 70
     1
102
RTVSPost2010Prop50
 90
       50
102
RTVSPost2010PropOp50
 70
     1
102
RTVSPost2010Prop51ColorIndex
 90
      256
102
RTVSPost2010Prop51ColorRGB
 90
-16777216
102
RTVSPost2010PropOp51
 70
     0
102
RTVSPost2010Prop52
140
1.0
102
RTVSPost2010PropOp52
 70
     0
102
RTVSPost2010Prop53
 90
        2
102
RTVSPost2010PropOp53
 70
     1
102
RTVSPost2010Prop54
  1
strokes_ogs.tif
102
RTVSPost2010PropOp54
 70
     1
102
RTVSPost2010Prop55
280
     0
102
RTVSPost2010PropOp55
 70
     1
102
RTVSPost2010Prop56
140
1.0
102
RTVSPost2010PropOp56
 70
     1
102
RTVSPost2010Prop57
140
1.0
102
RTVSPost2010PropOp57
 70
     1
102
RTVSPropertyOp0
 70
     1
102
RTVSPropertyOp1
 70
     1
102
RTVSPropertyOp2
 70
     1
102
RTVSPropertyOp3
 70
     1
102
RTVSPropertyOp4
 70
     1
102
RTVSPropertyOp5
 70
     1
102
RTVSPropertyOp6
 70
     1
102
RTVSPropertyOp7
 70
     1
102
RTVSPropertyOp8
 70
     1
102
RTVSPropertyOp9
 70
     1
102
RTVSPropertyOp10
 70
     1
102
RTVSPropertyOp11
 70
     1
102
RTVSPropertyOp12
 70
     1
102
RTVSPropertyOp13
 70
     1
102
RTVSPropertyOp14
 70
     1
102
RTVSPropertyOp15
 70
     1
102
RTVSPropertyOp16
 70
     1
102
RTVSPropertyOp17
 70
     1
102
RTVSPropertyOp18
 70
     1
102
RTVSPropertyOp19
 70
     1
102
RTVSPropertyOp20
 70
     1
102
RTVSPropertyOp21
 70
     1
102
RTVSPropertyOp22
 70
     1
102
RTVSPropertyOp23
 70
     1
102
RTVSPropertyOp24
 70
     1
102
RTVSPropertyOp25
 70
     1
102
RTVSPropertyOp26
 70
     1
102
RTVSPropertyOp27
 70
     1
102
RTVSPropertyOp28
 70
     1
102
RTVSPropertyOp29
 70
     1
102
RTVSPropertyOp30
 70
     1
102
RTVSPropertyOp31
 70
     1
102
RTVSPropertyOp32
 70
     1
102
RTVSPropertyOp33
 70
     1
102
RTVSPropertyOp34
 70
     1
102
RTVSPropertyOp35
 70
     1
102
RTVSPropertyOp36
 70
     1
102
RTVSPropertyOp37
 70
     1
102
RTVSPropertyOp38
 70
     1
102
RTVSPropertyOp39
 70
     1
102
RTVSPropertyOp40
 70
     1
102
RTVSPropertyOp41
 70
     1
102
RTVSPropertyOp42
 70
     1
102
RTVSPropertyOp43
 70
     1
102
RTVSPropertyOp44
 70
     1
102
RTVSPropertyOp45
 70
     1
102
RTVSPropertyOp46
 70
     1
102
RTVSPropertyOp47
 70
     1
102
RTVSPropertyOp48
 70
     1
102
RTVSPropertyOp49
 70
     1
102
RTVSPropertyOp50
 70
     1
102
RTVSPropertyOp51
 70
     0
102
RTVSPropertyOp52
 70
     0
102
RTVSPropertyOp53
 70
     1
102
RTVSPropertyOp54
 70
     1
102
RTVSPropertyOp55
 70
     1
102
RTVSPropertyOp56
 70
     1
102
RTVSPropertyOp57
 70
     1
102
RTVSPropertyOp58
 70
     1
102
RTVSPropertyOp59
 70
     1
102
RTVSPropertyOp60
 70
     1
102
RTVSPropertyOp61
 70
     1
102
RTVSPropertyOp62
 70
     1
  0
XRECORD
  5
6C69
102
{ACAD_REACTORS
330
6C68
102
}
330
6C68
100
AcDbXrecord
280
     1
102
RTVSPost2010Prop28
280
     0
102
RTVSPost2010PropOp28
 70
     1
102
RTVSPost2010Prop29
280
     1
102
RTVSPost2010PropOp29
 70
     1
102
RTVSPost2010Prop30
280
     1
102
RTVSPost2010PropOp30
 70
     1
102
RTVSPost2010Prop31
280
     0
102
RTVSPost2010PropOp31
 70
     1
102
RTVSPost2010Prop32
280
     0
102
RTVSPost2010PropOp32
 70
     1
102
RTVSPost2010Prop33
280
     0
102
RTVSPost2010PropOp33
 70
     1
102
RTVSPost2010Prop34
280
     0
102
RTVSPost2010PropOp34
 70
     1
102
RTVSPost2010Prop35
280
     0
102
RTVSPost2010PropOp35
 70
     1
102
RTVSPost2010Prop36
280
     0
102
RTVSPost2010PropOp36
 70
     1
102
RTVSPost2010Prop37
 90
       50
102
RTVSPost2010PropOp37
 70
     1
102
RTVSPost2010Prop38
140
0.0
102
RTVSPost2010PropOp38
 70
     1
102
RTVSPost2010Prop39
140
1.0
102
RTVSPost2010PropOp39
 70
     1
102
RTVSPost2010Prop40
 90
        0
102
RTVSPost2010PropOp40
 70
     1
102
RTVSPost2010Prop41ColorIndex
 90
       18
102
RTVSPost2010Prop41ColorRGB
 90
        0
102
RTVSPost2010PropOp41
 70
     1
102
RTVSPost2010Prop42
 90
       50
102
RTVSPost2010PropOp42
 70
     1
102
RTVSPost2010Prop43
 90
        3
102
RTVSPost2010PropOp43
 70
     1
102
RTVSPost2010Prop44ColorIndex
 90
        5
102
RTVSPost2010Prop44ColorRGB
 90
      255
102
RTVSPost2010PropOp44
 70
     1
102
RTVSPost2010Prop45
280
     0
102
RTVSPost2010PropOp45
 70
     1
102
RTVSPost2010Prop46
 90
       50
102
RTVSPost2010PropOp46
 70
     1
102
RTVSPost2010Prop47
 90
       50
102
RTVSPost2010PropOp47
 70
     1
102
RTVSPost2010Prop48
 90
       50
102
RTVSPost2010PropOp48
 70
     1
102
RTVSPost2010Prop49
280
     0
102
RTVSPost2010PropOp49
 70
     1
102
RTVSPost2010Prop50
 90
       50
102
RTVSPost2010PropOp50
 70
     1
102
RTVSPost2010Prop51ColorIndex
 90
      256
102
RTVSPost2010Prop51ColorRGB
 90
-16777216
102
RTVSPost2010PropOp51
 70
     0
102
RTVSPost2010Prop52
140
1.0
102
RTVSPost2010PropOp52
 70
     0
102
RTVSPost2010Prop53
 90
        2
102
RTVSPost2010PropOp53
 70
     1
102
RTVSPost2010Prop54
  1
strokes_ogs.tif
102
RTVSPost2010PropOp54
 70
     1
102
RTVSPost2010Prop55
280
     0
102
RTVSPost2010PropOp55
 70
     1
102
RTVSPost2010Prop56
140
1.0
102
RTVSPost2010PropOp56
 70
     1
102
RTVSPost2010Prop57
140
1.0
102
RTVSPost2010PropOp57
 70
     1
102
RTVSPropertyOp0
 70
     1
102
RTVSPropertyOp1
 70
     1
102
RTVSPropertyOp2
 70
     1
102
RTVSPropertyOp3
 70
     1
102
RTVSPropertyOp4
 70
     1
102
RTVSPropertyOp5
 70
     1
102
RTVSPropertyOp6
 70
     1
102
RTVSPropertyOp7
 70
     1
102
RTVSPropertyOp8
 70
     1
102
RTVSPropertyOp9
 70
     1
102
RTVSPropertyOp10
 70
     1
102
RTVSPropertyOp11
 70
     1
102
RTVSPropertyOp12
 70
     1
102
RTVSPropertyOp13
 70
     1
102
RTVSPropertyOp14
 70
     1
102
RTVSPropertyOp15
 70
     1
102
RTVSPropertyOp16
 70
     1
102
RTVSPropertyOp17
 70
     1
102
RTVSPropertyOp18
 70
     1
102
RTVSPropertyOp19
 70
     1
102
RTVSPropertyOp20
 70
     1
102
RTVSPropertyOp21
 70
     1
102
RTVSPropertyOp22
 70
     1
102
RTVSPropertyOp23
 70
     1
102
RTVSPropertyOp24
 70
     1
102
RTVSPropertyOp25
 70
     1
102
RTVSPropertyOp26
 70
     1
102
RTVSPropertyOp27
 70
     1
102
RTVSPropertyOp28
 70
     1
102
RTVSPropertyOp29
 70
     1
102
RTVSPropertyOp30
 70
     1
102
RTVSPropertyOp31
 70
     1
102
RTVSPropertyOp32
 70
     1
102
RTVSPropertyOp33
 70
     1
102
RTVSPropertyOp34
 70
     1
102
RTVSPropertyOp35
 70
     1
102
RTVSPropertyOp36
 70
     1
102
RTVSPropertyOp37
 70
     1
102
RTVSPropertyOp38
 70
     1
102
RTVSPropertyOp39
 70
     1
102
RTVSPropertyOp40
 70
     1
102
RTVSPropertyOp41
 70
     1
102
RTVSPropertyOp42
 70
     1
102
RTVSPropertyOp43
 70
     1
102
RTVSPropertyOp44
 70
     1
102
RTVSPropertyOp45
 70
     1
102
RTVSPropertyOp46
 70
     1
102
RTVSPropertyOp47
 70
     1
102
RTVSPropertyOp48
 70
     1
102
RTVSPropertyOp49
 70
     1
102
RTVSPropertyOp50
 70
     1
102
RTVSPropertyOp51
 70
     0
102
RTVSPropertyOp52
 70
     0
102
RTVSPropertyOp53
 70
     1
102
RTVSPropertyOp54
 70
     1
102
RTVSPropertyOp55
 70
     1
102
RTVSPropertyOp56
 70
     1
102
RTVSPropertyOp57
 70
     1
102
RTVSPropertyOp58
 70
     1
102
RTVSPropertyOp59
 70
     1
102
RTVSPropertyOp60
 70
     1
102
RTVSPropertyOp61
 70
     1
102
RTVSPropertyOp62
 70
     1
  0
ENDSEC
  0
EOF
