  0
SECTION
  2
HEADER
  9
$ACADVER
  1
AC1015
  9
$ACADMAINTVER
 70
    18
  9
$DWGCODEPAGE
  3
ANSI_1252
  9
$INSBASE
 10
0.0
 20
0.0
 30
0.0
  9
$EXTMIN
 10
-184.3267814632584
 20
-218.5353694359485
 30
-0.0015258207003583
  9
$EXTMAX
 10
212.4993903847637
 20
260.822159462867
 30
0.0000000349246037
  9
$LIMMIN
 10
0.0
 20
0.0
  9
$LIMMAX
 10
420.0
 20
297.0
  9
$ORTHOMODE
 70
     0
  9
$REGENMODE
 70
     1
  9
$FILLMODE
 70
     1
  9
$QTEXTMODE
 70
     0
  9
$MIRRTEXT
 70
     0
  9
$LTSCALE
 40
1.0
  9
$ATTMODE
 70
     1
  9
$TEXTSIZE
 40
2.5
  9
$TRACEWID
 40
1.0
  9
$TEXTSTYLE
  7
Standard
  9
$CLAYER
  8
0
  9
$CELTYPE
  6
ByLayer
  9
$CECOLOR
 62
   256
  9
$CELTSCALE
 40
1.0
  9
$DISPSILH
 70
     0
  9
$DIMSCALE
 40
1.0
  9
$DIMASZ
 40
2.5
  9
$DIMEXO
 40
0.625
  9
$DIMDLI
 40
3.75
  9
$DIMRND
 40
0.0
  9
$DIMDLE
 40
0.0
  9
$DIMEXE
 40
1.25
  9
$DIMTP
 40
0.0
  9
$DIMTM
 40
0.0
  9
$DIMTXT
 40
2.5
  9
$DIMCEN
 40
2.5
  9
$DIMTSZ
 40
0.0
  9
$DIMTOL
 70
     0
  9
$DIMLIM
 70
     0
  9
$DIMTIH
 70
     0
  9
$DIMTOH
 70
     0
  9
$DIMSE1
 70
     0
  9
$DIMSE2
 70
     0
  9
$DIMTAD
 70
     1
  9
$DIMZIN
 70
     8
  9
$DIMBLK
  1

  9
$DIMASO
 70
     1
  9
$DIMSHO
 70
     1
  9
$DIMPOST
  1

  9
$DIMAPOST
  1

  9
$DIMALT
 70
     0
  9
$DIMALTD
 70
     3
  9
$DIMALTF
 40
0.03937007874016
  9
$DIMLFAC
 40
1.0
  9
$DIMTOFL
 70
     1
  9
$DIMTVP
 40
0.0
  9
$DIMTIX
 70
     0
  9
$DIMSOXD
 70
     0
  9
$DIMSAH
 70
     0
  9
$DIMBLK1
  1

  9
$DIMBLK2
  1

  9
$DIMSTYLE
  2
ISO-25
  9
$DIMCLRD
 70
     0
  9
$DIMCLRE
 70
     0
  9
$DIMCLRT
 70
     0
  9
$DIMTFAC
 40
1.0
  9
$DIMGAP
 40
0.625
  9
$DIMJUST
 70
     0
  9
$DIMSD1
 70
     0
  9
$DIMSD2
 70
     0
  9
$DIMTOLJ
 70
     0
  9
$DIMTZIN
 70
     8
  9
$DIMALTZ
 70
     0
  9
$DIMALTTZ
 70
     0
  9
$DIMUPT
 70
     0
  9
$DIMDEC
 70
     2
  9
$DIMTDEC
 70
     2
  9
$DIMALTU
 70
     2
  9
$DIMALTTD
 70
     3
  9
$DIMTXSTY
  7
Standard
  9
$DIMAUNIT
 70
     0
  9
$DIMADEC
 70
     0
  9
$DIMALTRND
 40
0.0
  9
$DIMAZIN
 70
     0
  9
$DIMDSEP
 70
    44
  9
$DIMATFIT
 70
     3
  9
$DIMFRAC
 70
     0
  9
$DIMLDRBLK
  1

  9
$DIMLUNIT
 70
     2
  9
$DIMLWD
 70
    -2
  9
$DIMLWE
 70
    -2
  9
$DIMTMOVE
 70
     0
  9
$LUNITS
 70
     2
  9
$LUPREC
 70
     4
  9
$SKETCHINC
 40
1.0
  9
$FILLETRAD
 40
0.0
  9
$AUNITS
 70
     0
  9
$AUPREC
 70
     0
  9
$MENU
  1
.
  9
$ELEVATION
 40
0.0
  9
$PELEVATION
 40
0.0
  9
$THICKNESS
 40
0.0
  9
$LIMCHECK
 70
     0
  9
$CHAMFERA
 40
0.0
  9
$CHAMFERB
 40
0.0
  9
$CHAMFERC
 40
0.0
  9
$CHAMFERD
 40
0.0
  9
$SKPOLY
 70
     0
  9
$TDCREATE
 40
2460398.356956019
  9
$TDUCREATE
 40
2460398.065289352
  9
$TDUPDATE
 40
2460398.373680556
  9
$TDUUPDATE
 40
2460398.082013889
  9
$TDINDWG
 40
0.0075925926
  9
$TDUSRTIMER
 40
0.0075925926
  9
$USRTIMER
 70
     1
  9
$ANGBASE
 50
0.0
  9
$ANGDIR
 70
     0
  9
$PDMODE
 70
     0
  9
$PDSIZE
 40
0.0
  9
$PLINEWID
 40
0.0
  9
$SPLFRAME
 70
     0
  9
$SPLINETYPE
 70
     6
  9
$SPLINESEGS
 70
     8
  9
$HANDSEED
  5
72E7
  9
$SURFTAB1
 70
     6
  9
$SURFTAB2
 70
     6
  9
$SURFTYPE
 70
     6
  9
$SURFU
 70
     6
  9
$SURFV
 70
     6
  9
$UCSBASE
  2

  9
$UCSNAME
  2

  9
$UCSORG
 10
0.0
 20
0.0
 30
0.0
  9
$UCSXDIR
 10
1.0
 20
0.0
 30
0.0
  9
$UCSYDIR
 10
0.0
 20
1.0
 30
0.0
  9
$UCSORTHOREF
  2

  9
$UCSORTHOVIEW
 70
     0
  9
$UCSORGTOP
 10
0.0
 20
0.0
 30
0.0
  9
$UCSORGBOTTOM
 10
0.0
 20
0.0
 30
0.0
  9
$UCSORGLEFT
 10
0.0
 20
0.0
 30
0.0
  9
$UCSORGRIGHT
 10
0.0
 20
0.0
 30
0.0
  9
$UCSORGFRONT
 10
0.0
 20
0.0
 30
0.0
  9
$UCSORGBACK
 10
0.0
 20
0.0
 30
0.0
  9
$PUCSBASE
  2

  9
$PUCSNAME
  2

  9
$PUCSORG
 10
0.0
 20
0.0
 30
0.0
  9
$PUCSXDIR
 10
1.0
 20
0.0
 30
0.0
  9
$PUCSYDIR
 10
0.0
 20
1.0
 30
0.0
  9
$PUCSORTHOREF
  2

  9
$PUCSORTHOVIEW
 70
     0
  9
$PUCSORGTOP
 10
0.0
 20
0.0
 30
0.0
  9
$PUCSORGBOTTOM
 10
0.0
 20
0.0
 30
0.0
  9
$PUCSORGLEFT
 10
0.0
 20
0.0
 30
0.0
  9
$PUCSORGRIGHT
 10
0.0
 20
0.0
 30
0.0
  9
$PUCSORGFRONT
 10
0.0
 20
0.0
 30
0.0
  9
$PUCSORGBACK
 10
0.0
 20
0.0
 30
0.0
  9
$USERI1
 70
     0
  9
$USERI2
 70
     0
  9
$USERI3
 70
     0
  9
$USERI4
 70
     0
  9
$USERI5
 70
     0
  9
$USERR1
 40
0.0
  9
$USERR2
 40
0.0
  9
$USERR3
 40
0.0
  9
$USERR4
 40
0.0
  9
$USERR5
 40
0.0
  9
$WORLDVIEW
 70
     1
  9
$SHADEDGE
 70
     3
  9
$SHADEDIF
 70
    70
  9
$TILEMODE
 70
     1
  9
$MAXACTVP
 70
    48
  9
$PINSBASE
 10
0.0
 20
0.0
 30
0.0
  9
$PLIMCHECK
 70
     0
  9
$PEXTMIN
 10
0.0
 20
0.0
 30
0.0
  9
$PEXTMAX
 10
0.0
 20
0.0
 30
0.0
  9
$PLIMMIN
 10
0.0
 20
0.0
  9
$PLIMMAX
 10
12.0
 20
9.0
  9
$UNITMODE
 70
     0
  9
$VISRETAIN
 70
     1
  9
$PLINEGEN
 70
     0
  9
$PSLTSCALE
 70
     1
  9
$TREEDEPTH
 70
  3020
  9
$CMLSTYLE
  2
Standard
  9
$CMLJUST
 70
     0
  9
$CMLSCALE
 40
20.0
  9
$PROXYGRAPHICS
 70
     1
  9
$MEASUREMENT
 70
     1
  9
$CELWEIGHT
370
    -1
  9
$ENDCAPS
280
     0
  9
$JOINSTYLE
280
     0
  9
$LWDISPLAY
290
     0
  9
$INSUNITS
 70
     4
  9
$HYPERLINKBASE
  1

  9
$STYLESHEET
  1

  9
$XEDIT
290
     1
  9
$CEPSNTYPE
380
     0
  9
$PSTYLEMODE
290
     1
  9
$FINGERPRINTGUID
  2
{6C1266EE-7BC1-BF4A-B059-A6E7702B10CE}
  9
$VERSIONGUID
  2
{DCDDFE85-3FC8-3D48-B802-6C46B50F0411}
  9
$EXTNAMES
290
     1
  9
$PSVPSCALE
 40
0.0
  9
$OLESTARTUP
290
     0
  0
ENDSEC
  0
SECTION
  2
CLASSES
  0
CLASS
  1
ACDBDICTIONARYWDFLT
  2
AcDbDictionaryWithDefault
  3
ObjectDBX Classes
 90
        0
280
     0
281
     0
  0
CLASS
  1
ACDBPLACEHOLDER
  2
AcDbPlaceHolder
  3
ObjectDBX Classes
 90
        0
280
     0
281
     0
  0
CLASS
  1
LAYOUT
  2
AcDbLayout
  3
ObjectDBX Classes
 90
        0
280
     0
281
     0
  0
CLASS
  1
DICTIONARYVAR
  2
AcDbDictionaryVar
  3
ObjectDBX Classes
 90
        0
280
     0
281
     0
  0
CLASS
  1
TABLESTYLE
  2
AcDbTableStyle
  3
ObjectDBX Classes
 90
     4095
280
     0
281
     0
  0
CLASS
  1
MATERIAL
  2
AcDbMaterial
  3
ObjectDBX Classes
 90
     1153
280
     0
281
     0
  0
CLASS
  1
VISUALSTYLE
  2
AcDbVisualStyle
  3
ObjectDBX Classes
 90
     4095
280
     0
281
     0
  0
CLASS
  1
SCALE
  2
AcDbScale
  3
ObjectDBX Classes
 90
     1153
280
     0
281
     0
  0
CLASS
  1
MLEADERSTYLE
  2
AcDbMLeaderStyle
  3
ACDB_MLEADERSTYLE_CLASS
 90
     4095
280
     0
281
     0
  0
CLASS
  1
CELLSTYLEMAP
  2
AcDbCellStyleMap
  3
ObjectDBX Classes
 90
     1152
280
     0
281
     0
  0
CLASS
  1
EXACXREFPANELOBJECT
  2
ExAcXREFPanelObject
  3
EXAC_ESW
 90
    33793
280
     0
281
     0
  0
CLASS
  1
NPOCOLLECTION
  2
AcDbImpNonPersistentObjectsCollection
  3
ObjectDBX Classes
 90
    33921
280
     0
281
     0
  0
CLASS
  1
LAYER_INDEX
  2
AcDbLayerIndex
  3
ObjectDBX Classes
 90
    32768
280
     0
281
     0
  0
CLASS
  1
SPATIAL_INDEX
  2
AcDbSpatialIndex
  3
ObjectDBX Classes
 90
    32768
280
     0
281
     0
  0
CLASS
  1
IDBUFFER
  2
AcDbIdBuffer
  3
ObjectDBX Classes
 90
    32768
280
     0
281
     0
  0
CLASS
  1
ACDBSECTIONVIEWSTYLE
  2
AcDbSectionViewStyle
  3
ObjectDBX Classes
 90
     1025
280
     0
281
     0
  0
CLASS
  1
ACDBDETAILVIEWSTYLE
  2
AcDbDetailViewStyle
  3
ObjectDBX Classes
 90
     1025
280
     0
281
     0
  0
CLASS
  1
XRECORD
  2
AcDbXrecord
  3
ObjectDBX Classes
 90
        0
280
     0
281
     0
  0
ENDSEC
  0
SECTION
  2
TABLES
  0
TABLE
  2
VPORT
  5
8
102
{ACAD_XDICTIONARY
360
71F5
102
}
330
0
100
AcDbSymbolTable
 70
     1
  0
VPORT
  5
EA
330
8
100
AcDbSymbolTableRecord
100
AcDbViewportTableRecord
  2
*Active
 70
     0
 10
0.0
 20
0.0
 11
1.0
 21
1.0
 12
14.08630446075266
 22
21.14339501345927
 13
0.0
 23
0.0
 14
10.0
 24
10.0
 15
10.0
 25
10.0
 16
0.0
 26
0.0
 36
1.0
 17
0.0
 27
0.0
 37
0.0
 40
509.7532910150867
 41
0.9846153846153846
 42
50.0
 43
0.0
 44
0.0
 50
0.0
 51
0.0
 71
     0
 72
  1000
 73
     1
 74
     3
 75
     0
 76
     1
 77
     0
 78
     0
281
     0
 65
     1
110
0.0
120
0.0
130
0.0
111
1.0
121
0.0
131
0.0
112
0.0
122
1.0
132
0.0
 79
     0
146
0.0
1001
ACAD_NAV_VCDISPLAY
1070
     3
  0
ENDTAB
  0
TABLE
  2
LTYPE
  5
5
330
0
100
AcDbSymbolTable
 70
     1
  0
LTYPE
  5
14
330
5
100
AcDbSymbolTableRecord
100
AcDbLinetypeTableRecord
  2
ByBlock
 70
     0
  3

 72
    65
 73
     0
 40
0.0
  0
LTYPE
  5
15
330
5
100
AcDbSymbolTableRecord
100
AcDbLinetypeTableRecord
  2
ByLayer
 70
     0
  3

 72
    65
 73
     0
 40
0.0
  0
LTYPE
  5
16
330
5
100
AcDbSymbolTableRecord
100
AcDbLinetypeTableRecord
  2
Continuous
 70
     0
  3
Solid line
 72
    65
 73
     0
 40
0.0
  0
ENDTAB
  0
TABLE
  2
LAYER
  5
2
102
{ACAD_XDICTIONARY
360
1FF
102
}
330
0
100
AcDbSymbolTable
 70
     1
  0
LAYER
  5
10
102
{ACAD_XDICTIONARY
360
13C
102
}
330
2
100
AcDbSymbolTableRecord
100
AcDbLayerTableRecord
  2
0
 70
     0
 62
     7
  6
Continuous
370
    -3
390
F
  0
ENDTAB
  0
TABLE
  2
STYLE
  5
3
330
0
100
AcDbSymbolTable
 70
     1
  0
STYLE
  5
11
330
3
100
AcDbSymbolTableRecord
100
AcDbTextStyleTableRecord
  2
Standard
 70
     0
 40
0.0
 41
1.0
 50
0.0
 71
     0
 42
2.5
  3
arial.ttf
  4

1001
ACAD
1000
Arial
1071
       34
  0
ENDTAB
  0
TABLE
  2
VIEW
  5
6
330
0
100
AcDbSymbolTable
 70
     0
  0
ENDTAB
  0
TABLE
  2
UCS
  5
7
330
0
100
AcDbSymbolTable
 70
     0
  0
ENDTAB
  0
TABLE
  2
APPID
  5
9
330
0
100
AcDbSymbolTable
 70
     8
  0
APPID
  5
12
330
9
100
AcDbSymbolTableRecord
100
AcDbRegAppTableRecord
  2
ACAD
 70
     0
  0
APPID
  5
9E
330
9
100
AcDbSymbolTableRecord
100
AcDbRegAppTableRecord
  2
ACAD_PSEXT
 70
     0
  0
APPID
  5
133
330
9
100
AcDbSymbolTableRecord
100
AcDbRegAppTableRecord
  2
AcadAnnoPO
 70
     0
  0
APPID
  5
134
330
9
100
AcDbSymbolTableRecord
100
AcDbRegAppTableRecord
  2
AcadAnnotative
 70
     0
  0
APPID
  5
135
330
9
100
AcDbSymbolTableRecord
100
AcDbRegAppTableRecord
  2
ACAD_DSTYLE_DIMJAG
 70
     0
  0
APPID
  5
136
330
9
100
AcDbSymbolTableRecord
100
AcDbRegAppTableRecord
  2
ACAD_DSTYLE_DIMTALN
 70
     0
  0
APPID
  5
165
330
9
100
AcDbSymbolTableRecord
100
AcDbRegAppTableRecord
  2
ACAD_MLEADERVER
 70
     0
  0
APPID
  5
217
330
9
100
AcDbSymbolTableRecord
100
AcDbRegAppTableRecord
  2
ACAD_NAV_VCDISPLAY
 70
     0
  0
ENDTAB
  0
TABLE
  2
DIMSTYLE
  5
A
330
0
100
AcDbSymbolTable
 70
     1
100
AcDbDimStyleTable
 71
     0
  0
DIMSTYLE
105
27
330
A
100
AcDbSymbolTableRecord
100
AcDbDimStyleTableRecord
  2
ISO-25
 70
     0
 41
2.5
 42
0.625
 43
3.75
 44
1.25
 73
     0
 74
     0
 77
     1
 78
     8
140
2.5
141
2.5
143
0.03937007874016
147
0.625
171
     3
172
     1
271
     2
272
     2
274
     3
278
    44
283
     0
284
     8
340
11
  0
ENDTAB
  0
TABLE
  2
BLOCK_RECORD
  5
1
330
0
100
AcDbSymbolTable
 70
     7
  0
BLOCK_RECORD
  5
1F
102
{ACAD_XDICTIONARY
360
1CE
102
}
330
1
100
AcDbSymbolTableRecord
100
AcDbBlockTableRecord
  2
*Model_Space
340
22
  0
BLOCK_RECORD
  5
D2
102
{ACAD_XDICTIONARY
360
71A8
102
}
330
1
100
AcDbSymbolTableRecord
100
AcDbBlockTableRecord
  2
*Paper_Space
340
D3
  0
BLOCK_RECORD
  5
D6
102
{ACAD_XDICTIONARY
360
71AA
102
}
330
1
100
AcDbSymbolTableRecord
100
AcDbBlockTableRecord
  2
*Paper_Space0
340
D7
  0
BLOCK_RECORD
  5
703D
330
1
100
AcDbSymbolTableRecord
100
AcDbBlockTableRecord
  2
SAE300_32_2-Front
340
0
102
{BLKREFS
331
719E
102
}
  0
BLOCK_RECORD
  5
708B
330
1
100
AcDbSymbolTableRecord
100
AcDbBlockTableRecord
  2
SAE300_32_2-Left
340
0
102
{BLKREFS
331
719F
102
}
  0
BLOCK_RECORD
  5
70A9
330
1
100
AcDbSymbolTableRecord
100
AcDbBlockTableRecord
  2
SAE300_32_2-Right
340
0
102
{BLKREFS
331
71A0
102
}
  0
BLOCK_RECORD
  5
70C7
330
1
100
AcDbSymbolTableRecord
100
AcDbBlockTableRecord
  2
SAE300_32_2-Top
340
0
102
{BLKREFS
331
71A1
102
}
  0
BLOCK_RECORD
  5
70F7
330
1
100
AcDbSymbolTableRecord
100
AcDbBlockTableRecord
  2
SAE300_32_2-Bottom
340
0
102
{BLKREFS
331
71A2
102
}
  0
BLOCK_RECORD
  5
7122
330
1
100
AcDbSymbolTableRecord
100
AcDbBlockTableRecord
  2
SAE300_32_2-ISO
340
0
102
{BLKREFS
331
71A3
102
}
  0
ENDTAB
  0
ENDSEC
  0
SECTION
  2
BLOCKS
  0
BLOCK
  5
20
330
1F
100
AcDbEntity
  8
0
100
AcDbBlockBegin
  2
*Model_Space
 70
     0
 10
0.0
 20
0.0
 30
0.0
  3
*Model_Space
  1

  0
ENDBLK
  5
21
330
1F
100
AcDbEntity
  8
0
100
AcDbBlockEnd
  0
BLOCK
  5
D4
330
D2
100
AcDbEntity
 67
     1
  8
0
100
AcDbBlockBegin
  2
*Paper_Space
 70
     0
 10
0.0
 20
0.0
 30
0.0
  3
*Paper_Space
  1

  0
ENDBLK
  5
D5
330
D2
100
AcDbEntity
 67
     1
  8
0
100
AcDbBlockEnd
  0
BLOCK
  5
D8
330
D6
100
AcDbEntity
 67
     1
  8
0
100
AcDbBlockBegin
  2
*Paper_Space0
 70
     0
 10
0.0
 20
0.0
 30
0.0
  3
*Paper_Space0
  1

  0
ENDBLK
  5
D9
330
D6
100
AcDbEntity
 67
     1
  8
0
100
AcDbBlockEnd
  0
BLOCK
  5
703E
330
703D
100
AcDbEntity
  8
0
100
AcDbBlockBegin
  2
SAE300_32_2-Front
 70
     0
 10
0.0
 20
0.0
 30
0.0
  3
SAE300_32_2-Front
  1

  0
SPLINE
  5
7040
330
703D
100
AcDbEntity
  8
0
100
AcDbSpline
210
0.0
220
0.0
230
1.0
 70
     8
 71
     3
 72
    14
 73
    10
 74
     0
 42
0.000000001
 43
0.0000000001
 40
0.0
 40
0.0
 40
0.0
 40
0.0
 40
0.3435165591399867
 40
0.3435165591399867
 40
0.3435165591399867
 40
0.7569936138298773
 40
0.7569936138298773
 40
0.7569936138298773
 40
0.9986524957527102
 40
0.9986524957527102
 40
0.9986524957527102
 40
0.9986524957527102
 10
20.60606060606066
 20
26.56249999999998
 30
0.0
 10
20.2849024929084
 20
26.30249193734759
 30
0.0
 10
19.87245901693863
 20
26.07529037325856
 30
0.0
 10
19.47646762710382
 20
25.84407810167523
 30
0.0
 10
18.99982873097209
 20
25.56577719734102
 30
0.0
 10
18.53730090292723
 20
25.27139450220366
 30
0.0
 10
18.26243107018945
 20
24.85792877885668
 30
0.0
 10
18.10178192243071
 20
24.61627651959798
 30
0.0
 10
18.00111653432238
 20
24.36107592079296
 30
0.0
 10
18.00000922931186
 20
24.00594994781315
 30
0.0
  0
LINE
  5
7041
330
703D
100
AcDbEntity
  8
0
100
AcDbLine
 10
18.0
 20
26.56249999999997
 30
0.0
 11
20.0
 21
26.56249999999997
 31
0.0
  0
SPLINE
  5
7042
330
703D
100
AcDbEntity
  8
0
100
AcDbSpline
210
0.0
220
0.0
230
1.0
 70
     8
 71
     3
 72
    20
 73
    16
 74
     0
 42
0.000000001
 43
0.0000000001
 40
0.0120765331158643
 40
0.0120765331158643
 40
0.0120765331158643
 40
0.0120765331158643
 40
0.0124299338910356
 40
0.0124299338910356
 40
0.013532371788839
 40
0.013532371788839
 40
0.014228768662524
 40
0.014228768662524
 40
0.015312406272223
 40
0.015312406272223
 40
0.0162555189872588
 40
0.0162555189872588
 40
0.0174042296469328
 40
0.0174042296469328
 40
0.0202482571582332
 40
0.0202482571582332
 40
0.0202482571582332
 40
0.0202482571582332
 10
18.00029164702536
 20
24.05864902334043
 30
0.0
 10
18.00029164702507
 20
24.05864902331556
 30
0.0
 10
18.00029123985781
 20
24.05861347932594
 30
0.0
 10
18.00028776216095
 20
24.05830458931287
 30
0.0
 10
18.00028070246627
 20
24.05768025205835
 30
0.0
 10
18.00026151506537
 20
24.05581417747628
 30
0.0
 10
18.00025215189551
 20
24.05487575890927
 30
0.0
 10
18.00022452416592
 20
24.05190432983923
 30
0.0
 10
18.00020367422515
 20
24.04948075124745
 30
0.0
 10
18.00016558925918
 20
24.04423272369007
 30
0.0
 10
18.00014804564324
 20
24.04146773838416
 30
0.0
 10
18.00011450601204
 20
24.03510174602488
 30
0.0
 10
18.00009960125944
 20
24.03146048161944
 30
0.0
 10
18.00006174602788
 20
24.01868707773785
 30
0.0
 10
18.00005914044796
 20
24.00931933023582
 30
0.0
 10
18.00007431494568
 20
24.0000001210158
 30
0.0
  0
SPLINE
  5
7043
330
703D
100
AcDbEntity
  8
0
100
AcDbSpline
210
0.0
220
0.0
230
1.0
 70
     8
 71
     3
 72
    20
 73
    16
 74
     0
 42
0.000000001
 43
0.0000000001
 40
0.0053330443935244
 40
0.0053330443935244
 40
0.0053330443935244
 40
0.0053330443935244
 40
0.0056477560968743
 40
0.0056477560968743
 40
0.0060465169046163
 40
0.0060465169046163
 40
0.0065308672746017
 40
0.0065308672746017
 40
0.0071941562429868
 40
0.0071941562429868
 40
0.0085674959942192
 40
0.0085674959942192
 40
0.0106391405207985
 40
0.0106391405207985
 40
0.0111026036849248
 40
0.0111026036849248
 40
0.0111026036849248
 40
0.0111026036849248
 10
18.00010883933707
 20
24.04546313430377
 30
0.0
 10
18.00010883931849
 20
24.04546313131329
 30
0.0
 10
18.0001079601614
 20
24.045322295865
 30
0.0
 10
18.00010437324524
 20
24.04473466358126
 30
0.0
 10
18.00010121325997
 20
24.04421101035773
 30
0.0
 10
18.00009286769643
 20
24.04276713787999
 30
0.0
 10
18.00008734580629
 20
24.04177605862019
 30
0.0
 10
18.00007384231546
 20
24.03918099212014
 30
0.0
 10
18.00006571116002
 20
24.03748292147657
 30
0.0
 10
18.00004297959462
 20
24.03216364736517
 30
0.0
 10
18.00002983026039
 20
24.02823217294371
 30
0.0
 10
18.00000644282613
 20
24.01793167206958
 30
0.0
 10
18.00000107515151
 20
24.01126223038975
 30
0.0
 10
18.00000622935034
 20
24.00302728309951
 30
0.0
 10
18.00000763272405
 20
24.00151542353464
 30
0.0
 10
18.00000948425083
 20
23.99999957012357
 30
0.0
  0
SPLINE
  5
7044
330
703D
100
AcDbEntity
  8
0
100
AcDbSpline
210
0.0
220
0.0
230
1.0
 70
     8
 71
     3
 72
     8
 73
     4
 74
     0
 42
0.000000001
 43
0.0000000001
 40
0.0
 40
0.0
 40
0.0
 40
0.0
 40
0.0015511722943294
 40
0.0015511722943294
 40
0.0015511722943294
 40
0.0015511722943294
 10
15.99955984654371
 20
24.00000111615406
 30
0.0
 10
15.99956565327768
 20
24.00446881097749
 30
0.0
 10
15.99957076641536
 20
24.00884708257934
 30
0.0
 10
15.99957512909041
 20
24.01307591322508
 30
0.0
  0
SPLINE
  5
7045
330
703D
100
AcDbEntity
  8
0
100
AcDbSpline
210
0.0
220
0.0
230
1.0
 70
     8
 71
     3
 72
    16
 73
    12
 74
     0
 42
0.000000001
 43
0.0000000001
 40
0.0
 40
0.0
 40
0.0
 40
0.0
 40
0.0021186811694189
 40
0.0021186811694189
 40
0.0037963488485267
 40
0.0037963488485267
 40
0.0060490110188662
 40
0.0060490110188662
 40
0.0082160740746311
 40
0.0082160740746311
 40
0.0100715168707199
 40
0.0100715168707199
 40
0.0100715168707199
 40
0.0100715168707199
 10
15.99977770285763
 20
23.99999671130079
 30
0.0
 10
15.99967060184439
 20
24.00696262095115
 30
0.0
 10
15.99956026411878
 20
24.01406437694488
 30
0.0
 10
15.99936153534866
 20
24.02670814079061
 30
0.0
 10
15.99927271948986
 20
24.03230570792941
 30
0.0
 10
15.99907108313914
 20
24.04490248806161
 30
0.0
 10
15.99895813017031
 20
24.05187273934652
 30
0.0
 10
15.99876083666369
 20
24.06395003186318
 30
0.0
 10
15.9986733896058
 20
24.0692535983978
 30
0.0
 10
15.99853375467228
 20
24.07766822126314
 30
0.0
 10
15.99847718644898
 20
24.08105233811769
 30
0.0
 10
15.99842789893681
 20
24.08398349773709
 30
0.0
  0
SPLINE
  5
7046
330
703D
100
AcDbEntity
  8
0
100
AcDbSpline
210
0.0
220
0.0
230
1.0
 70
     8
 71
     3
 72
    34
 73
    30
 74
     0
 42
0.000000001
 43
0.0000000001
 40
0.0018826909937289
 40
0.0018826909937289
 40
0.0018826909937289
 40
0.0018826909937289
 40
0.0067931669958477
 40
0.0067931669958477
 40
0.0148581762878532
 40
0.0148581762878532
 40
0.0216571625004333
 40
0.0216571625004333
 40
0.0241181606003202
 40
0.0241181606003202
 40
0.0262721351173021
 40
0.0262721351173021
 40
0.0291183974614432
 40
0.0291183974614432
 40
0.031530761720469
 40
0.031530761720469
 40
0.0346506209068324
 40
0.0346506209068324
 40
0.0395925192833503
 40
0.0395925192833503
 40
0.0489047040414416
 40
0.0489047040414416
 40
0.0719038373073807
 40
0.0719038373073807
 40
0.1414749577493159
 40
0.1414749577493159
 40
0.2235343190081923
 40
0.2235343190081923
 40
0.2662176350757013
 40
0.2662176350757013
 40
0.2662176350757013
 40
0.2662176350757013
 10
15.99993408575555
 20
24.00382154299838
 30
0.0
 10
15.99986408235847
 20
24.00784010264106
 30
0.0
 10
15.99976229506991
 20
24.01358798904582
 30
0.0
 10
15.9994361760896
 20
24.03150095264614
 30
0.0
 10
15.99917379096765
 20
24.04547905778669
 30
0.0
 10
15.99862147507653
 20
24.07412851685565
 30
0.0
 10
15.99834195421831
 20
24.08836978816951
 30
0.0
 10
15.99789287055685
 20
24.1112998527022
 30
0.0
 10
15.99776556977779
 20
24.11780783895244
 30
0.0
 10
15.99751102760595
 20
24.13092137212608
 30
0.0
 10
15.99738418371388
 20
24.13749599534311
 30
0.0
 10
15.99708160720748
 20
24.15339172518678
 30
0.0
 10
15.99689912594233
 20
24.16314759815536
 30
0.0
 10
15.99658164288817
 20
24.18063164079609
 30
0.0
 10
15.99644054079461
 20
24.18860762360293
 30
0.0
 10
15.99613963834279
 20
24.20613328498931
 30
0.0
 10
15.9959835435243
 20
24.21562306654684
 30
0.0
 10
15.99561575572442
 20
24.23897255833701
 30
0.0
 10
15.99542133084237
 20
24.25235292950157
 30
0.0
 10
15.99492632777688
 20
24.2890803604784
 30
0.0
 10
15.99467887913198
 20
24.3110766292195
 30
0.0
 10
15.99397377070957
 20
24.38483545468723
 30
0.0
 10
15.99373075802435
 20
24.43325128733248
 30
0.0
 10
15.99330496971974
 20
24.63524513489192
 30
0.0
 10
15.99455225588484
 20
24.81157714727941
 30
0.0
 10
15.99793365452927
 20
25.23302852350956
 30
0.0
 10
15.99943798484636
 20
25.48841650422778
 30
0.0
 10
15.99998708512247
 20
25.89240745280756
 30
0.0
 10
15.99998191116102
 20
26.03407841358472
 30
0.0
 10
15.99998937018705
 20
26.17586272151751
 30
0.0
  0
SPLINE
  5
7047
330
703D
100
AcDbEntity
  8
0
100
AcDbSpline
210
0.0
220
0.0
230
1.0
 70
     8
 71
     3
 72
    12
 73
     8
 74
     0
 42
0.000000001
 43
0.0000000001
 40
0.0
 40
0.0
 40
0.0
 40
0.0
 40
0.0030437042996931
 40
0.0030437042996931
 40
0.0059481041545294
 40
0.0059481041545294
 40
0.007701464132098
 40
0.007701464132098
 40
0.007701464132098
 40
0.007701464132098
 10
15.99994095221153
 20
23.99999987947083
 30
0.0
 10
15.99992879819971
 20
24.00696128007016
 30
0.0
 10
15.99991751862587
 20
24.01274901429308
 30
0.0
 10
15.99989988569934
 20
24.02086801904373
 30
0.0
 10
15.99989321745706
 20
24.02345476436662
 30
0.0
 10
15.99988738789271
 20
24.02558168405155
 30
0.0
 10
15.99988625762892
 20
24.02594367655774
 30
0.0
 10
15.99988625762898
 20
24.02594367654041
 30
0.0
  0
SPLINE
  5
7048
330
703D
100
AcDbEntity
  8
0
100
AcDbSpline
210
0.0
220
0.0
230
1.0
 70
     8
 71
     3
 72
     8
 73
     4
 74
     0
 42
0.000000001
 43
0.0000000001
 40
0.0
 40
0.0
 40
0.0
 40
0.0
 40
0.0007119893906337
 40
0.0007119893906337
 40
0.0007119893906337
 40
0.0007119893906337
 10
20.60611379963716
 20
26.56243160914647
 30
0.0
 10
20.60533819816335
 20
26.56182868803848
 30
0.0
 10
20.60453872032322
 20
26.56120758949768
 30
0.0
 10
20.60373327010019
 20
26.56058171681017
 30
0.0
  0
SPLINE
  5
7049
330
703D
100
AcDbEntity
  8
0
100
AcDbSpline
210
0.0
220
0.0
230
1.0
 70
     8
 71
     3
 72
     8
 73
     4
 74
     0
 42
0.000000001
 43
0.0000000001
 40
0.0001369350458308
 40
0.0001369350458308
 40
0.0001369350458308
 40
0.0001369350458308
 40
0.0006730445447204
 40
0.0006730445447204
 40
0.0006730445447204
 40
0.0006730445447204
 10
20.60523147098705
 20
26.56174578009955
 30
0.0
 10
20.60408446482617
 20
26.56082273163113
 30
0.0
 10
20.60290101406527
 20
26.55987127788211
 30
0.0
 10
20.60168844958338
 20
26.55889733652261
 30
0.0
  0
LINE
  5
704A
330
703D
100
AcDbEntity
  8
0
100
AcDbLine
 10
13.99999999999998
 20
-2.0
 30
0.0
 11
-13.99999999999997
 21
-2.000000000000003
 31
0.0
  0
LINE
  5
704B
330
703D
100
AcDbEntity
  8
0
100
AcDbLine
 10
-13.99999999999997
 20
0.0
 30
0.0
 11
13.99999999999997
 21
0.0
 31
0.0
  0
LINE
  5
704C
330
703D
100
AcDbEntity
  8
0
100
AcDbLine
 10
-20.0
 20
26.56249999999997
 30
0.0
 11
-18.0
 21
26.56249999999997
 31
0.0
  0
SPLINE
  5
704D
330
703D
100
AcDbEntity
  8
0
100
AcDbSpline
210
0.0
220
0.0
230
1.0
 70
     8
 71
     3
 72
    14
 73
    10
 74
     0
 42
0.000000001
 43
0.0000000001
 40
0.0
 40
0.0
 40
0.0
 40
0.0
 40
0.3435165591399867
 40
0.3435165591399867
 40
0.3435165591399867
 40
0.7569936138298773
 40
0.7569936138298773
 40
0.7569936138298773
 40
0.99865249575308
 40
0.99865249575308
 40
0.99865249575308
 40
0.99865249575308
 10
-20.60606060606066
 20
26.56249999999998
 30
0.0
 10
-20.2849024929084
 20
26.30249193734759
 30
0.0
 10
-19.87245901693863
 20
26.07529037325856
 30
0.0
 10
-19.47646762710382
 20
25.84407810167523
 30
0.0
 10
-18.99982873097209
 20
25.56577719734102
 30
0.0
 10
-18.53730090292723
 20
25.27139450220366
 30
0.0
 10
-18.26243107018945
 20
24.85792877885668
 30
0.0
 10
-18.10178192243046
 20
24.61627651959761
 30
0.0
 10
-18.00111653432207
 20
24.36107592079217
 30
0.0
 10
-18.00000922931186
 20
24.00594994781152
 30
0.0
  0
SPLINE
  5
704E
330
703D
100
AcDbEntity
  8
0
100
AcDbSpline
210
0.0
220
0.0
230
1.0
 70
     8
 71
     3
 72
    30
 73
    26
 74
     0
 42
0.000000001
 43
0.0000000001
 40
0.0
 40
0.0
 40
0.0
 40
0.0
 40
0.0655513429296209
 40
0.0655513429296209
 40
0.1471084880005185
 40
0.1471084880005185
 40
0.1864915415816186
 40
0.1864915415816186
 40
0.2244287006700234
 40
0.2244287006700234
 40
0.2339025228590769
 40
0.2339025228590769
 40
0.2360478139102893
 40
0.2360478139102893
 40
0.237681799219812
 40
0.237681799219812
 40
0.2393184066568267
 40
0.2393184066568267
 40
0.242642277162963
 40
0.242642277162963
 40
0.2492709696151463
 40
0.2492709696151463
 40
0.2559206221564855
 40
0.2559206221564855
 40
0.2643718038703324
 40
0.2643718038703324
 40
0.2643718038703324
 40
0.2643718038703324
 10
-15.99998937018705
 20
26.17586272151481
 30
0.0
 10
-15.99997791491087
 20
25.95811600810011
 30
0.0
 10
-15.99997499580923
 20
25.73955119283299
 30
0.0
 10
-15.99847087262274
 20
25.27766062761363
 30
0.0
 10
-15.99618388742215
 20
25.03633066444769
 30
0.0
 10
-15.99399786143401
 20
24.72034886138336
 30
0.0
 10
-15.99356181606348
 20
24.62410814325481
 30
0.0
 10
-15.99357524463026
 20
24.45120303293507
 30
0.0
 10
-15.99385398906943
 20
24.37643855058212
 30
0.0
 10
-15.99531495666803
 20
24.25912774574745
 30
0.0
 10
-15.99568020989192
 20
24.23363328546561
 30
0.0
 10
-15.99628323559776
 20
24.19771133925277
 30
0.0
 10
-15.99640193877265
 20
24.19083376343432
 30
0.0
 10
-15.99662079997766
 20
24.17847913086164
 30
0.0
 10
-15.99671935863173
 20
24.17301832039829
 30
0.0
 10
-15.99691927582642
 20
24.16211842566572
 30
0.0
 10
-15.99702160490398
 20
24.15662678218057
 30
0.0
 10
-15.99732644919432
 20
24.14045849110945
 30
0.0
 10
-15.99752713316865
 20
24.13007273431535
 30
0.0
 10
-15.99806275348849
 20
24.10255107160524
 30
0.0
 10
-15.99835960841886
 20
24.08751831599126
 30
0.0
 10
-15.99889075160701
 20
24.06022506755949
 30
0.0
 10
-15.99912909556854
 20
24.04779428336747
 30
0.0
 10
-15.99959874139517
 20
24.02272992857739
 30
0.0
 10
-15.99981365266264
 20
24.01072745588526
 30
0.0
 10
-15.99993408544847
 20
24.00381398664052
 30
0.0
  0
SPLINE
  5
704F
330
703D
100
AcDbEntity
  8
0
100
AcDbSpline
210
0.0
220
0.0
230
1.0
 70
     8
 71
     3
 72
     8
 73
     4
 74
     0
 42
0.000000001
 43
0.0000000001
 40
0.0195591544660803
 40
0.0195591544660803
 40
0.0195591544660803
 40
0.0195591544660803
 40
0.0211163010459942
 40
0.0211163010459942
 40
0.0211163010459942
 40
0.0211163010459942
 10
-15.99957522640355
 20
24.01307778048304
 30
0.0
 10
-15.99957087693731
 20
24.00886175339359
 30
0.0
 10
-15.9995656756421
 20
24.00448601814711
 30
0.0
 10
-15.9995598465437
 20
24.00000111615406
 30
0.0
  0
SPLINE
  5
7050
330
703D
100
AcDbEntity
  8
0
100
AcDbSpline
210
0.0
220
0.0
230
1.0
 70
     8
 71
     3
 72
    16
 73
    12
 74
     0
 42
0.000000001
 43
0.0000000001
 40
0.0328453658096616
 40
0.0328453658096616
 40
0.0328453658096616
 40
0.0328453658096616
 40
0.0346121739237589
 40
0.0346121739237589
 40
0.0362943907554997
 40
0.0362943907554997
 40
0.0388726343066759
 40
0.0388726343066759
 40
0.0410449475442926
 40
0.0410449475442926
 40
0.0429128452209396
 40
0.0429128452209396
 40
0.0429128452209396
 40
0.0429128452209396
 10
-15.99842789914794
 20
24.08398349504385
 30
0.0
 10
-15.99847484522286
 20
24.0811915821836
 30
0.0
 10
-15.99852835649605
 20
24.07799109530892
 30
0.0
 10
-15.99864665535255
 20
24.0708666251996
 30
0.0
 10
-15.9987114226216
 20
24.06694586345543
 30
0.0
 10
-15.99889097016923
 20
24.05600293218642
 30
0.0
 10
-15.99901757415524
 20
24.04822182189894
 30
0.0
 10
-15.99925928465438
 20
24.03315934935528
 30
0.0
 10
-15.99937543020138
 20
24.02584026697253
 30
0.0
 10
-15.99958650226706
 20
24.01237477407271
 30
0.0
 10
-15.99968327914882
 20
24.0061380819985
 30
0.0
 10
-15.99977770285763
 20
23.99999671130078
 30
0.0
  0
SPLINE
  5
7051
330
703D
100
AcDbEntity
  8
0
100
AcDbSpline
210
0.0
220
0.0
230
1.0
 70
     8
 71
     3
 72
    12
 73
     8
 74
     0
 42
0.000000001
 43
0.0000000001
 40
0.01380549082207
 40
0.01380549082207
 40
0.01380549082207
 40
0.01380549082207
 40
0.0169840789904344
 40
0.0169840789904344
 40
0.0189304805887425
 40
0.0189304805887425
 40
0.0215081391733444
 40
0.0215081391733444
 40
0.0215081391733444
 40
0.0215081391733444
 10
-15.999886257629
 20
24.02594367653934
 30
0.0
 10
-15.9998862576715
 20
24.02594366284017
 30
0.0
 10
-15.99989009445455
 20
24.0247236873292
 30
0.0
 10
-15.99990126115654
 20
24.02016530962297
 30
0.0
 10
-15.99990666457455
 20
24.01781779789358
 30
0.0
 10
-15.99992101923488
 20
24.01095228820166
 30
0.0
 10
-15.9999306591969
 20
24.00589536479041
 30
0.0
 10
-15.99994095221154
 20
23.99999987947083
 30
0.0
  0
SPLINE
  5
7052
330
703D
100
AcDbEntity
  8
0
100
AcDbSpline
210
0.0
220
0.0
230
1.0
 70
     8
 71
     3
 72
    16
 73
    12
 74
     0
 42
0.000000001
 43
0.0000000001
 40
0.0
 40
0.0
 40
0.0
 40
0.0
 40
0.0041147701379548
 40
0.0041147701379548
 40
0.0050669104874423
 40
0.0050669104874423
 40
0.0058958097626897
 40
0.0058958097626897
 40
0.00672345166903
 40
0.00672345166903
 40
0.0081601476152627
 40
0.0081601476152627
 40
0.0081601476152627
 40
0.0081601476152627
 10
-18.00007431501593
 20
24.00000007787121
 30
0.0
 10
-18.00005236030858
 20
24.01348321179569
 30
0.0
 10
-18.00007089001987
 20
24.02743611951156
 30
0.0
 10
-18.00015518626372
 20
24.04264323905981
 30
0.0
 10
-18.00017334253715
 20
24.04537391440125
 30
0.0
 10
-18.00020680359944
 20
24.04980909452192
 30
0.0
 10
-18.00022231882122
 20
24.05162998387235
 30
0.0
 10
-18.00024914482359
 20
24.05457669177963
 30
0.0
 10
-18.00026066603003
 20
24.05573299465886
 30
0.0
 10
-18.00028457044064
 20
24.05805391643307
 30
0.0
 10
-18.00029164702546
 20
24.05864902334928
 30
0.0
 10
-18.00029164702536
 20
24.05864902334073
 30
0.0
  0
SPLINE
  5
7053
330
703D
100
AcDbEntity
  8
0
100
AcDbSpline
210
0.0
220
0.0
230
1.0
 70
     8
 71
     3
 72
    18
 73
    14
 74
     0
 42
0.000000001
 43
0.0000000001
 40
0.0
 40
0.0
 40
0.0
 40
0.0
 40
0.0020456842467505
 40
0.0020456842467505
 40
0.003710379903464
 40
0.003710379903464
 40
0.0047886574521446
 40
0.0047886574521446
 40
0.0054058580321221
 40
0.0054058580321221
 40
0.0056713593864768
 40
0.0056713593864768
 40
0.0057658587635149
 40
0.0057658587635149
 40
0.0057658587635149
 40
0.0057658587635149
 10
-18.00000948370928
 20
24.00000001349921
 30
0.0
 10
-18.00000131162406
 20
24.00669084891874
 30
0.0
 10
-18.00000211672949
 20
24.01335086235088
 30
0.0
 10
-18.00001995709044
 20
24.02478352040402
 30
0.0
 10
-18.00003405059748
 20
24.02972464705406
 30
0.0
 10
-18.00006334256452
 20
24.03706867853319
 30
0.0
 10
-18.00007727322302
 20
24.03991934632414
 30
0.0
 10
-18.00009604289439
 20
24.04334273321134
 30
0.0
 10
-18.00010217954271
 20
24.04437249639148
 30
0.0
 10
-18.0001071609118
 20
24.04519218280403
 30
0.0
 10
-18.00010818416257
 20
24.04535741761417
 30
0.0
 10
-18.00010876159638
 20
24.04545062478814
 30
0.0
 10
-18.00010883935378
 20
24.0454631369958
 30
0.0
 10
-18.00010883933709
 20
24.04546313430869
 30
0.0
  0
SPLINE
  5
7054
330
703D
100
AcDbEntity
  8
0
100
AcDbSpline
210
0.0
220
0.0
230
1.0
 70
     8
 71
     3
 72
     8
 73
     4
 74
     0
 42
0.000000001
 43
0.0000000001
 40
0.0
 40
0.0
 40
0.0
 40
0.0
 40
0.0007418618386987
 40
0.0007418618386987
 40
0.0007418618386987
 40
0.0007418618386987
 10
-18.00001228473425
 20
23.99999999359675
 30
0.0
 10
-18.00000823587388
 20
24.00154343845054
 30
0.0
 10
-18.00000411639132
 20
24.00317715695288
 30
0.0
 10
-17.99999998544273
 20
24.00485798903318
 30
0.0
  0
SPLINE
  5
7055
330
703D
100
AcDbEntity
  8
0
100
AcDbSpline
210
0.0
220
0.0
230
1.0
 70
     8
 71
     3
 72
     8
 73
     4
 74
     0
 42
0.000000001
 43
0.0000000001
 40
0.2821150859012636
 40
0.2821150859012636
 40
0.2821150859012636
 40
0.2821150859012636
 40
0.2826513748720935
 40
0.2826513748720935
 40
0.2826513748720935
 40
0.2826513748720935
 10
-20.60168994250151
 20
26.55889867766982
 30
0.0
 10
-20.60290278528204
 20
26.55987284256099
 30
0.0
 10
-20.60408444644271
 20
26.56082272374215
 30
0.0
 10
-20.60523157670475
 20
26.56174587208047
 30
0.0
  0
SPLINE
  5
7056
330
703D
100
AcDbEntity
  8
0
100
AcDbSpline
210
0.0
220
0.0
230
1.0
 70
     8
 71
     3
 72
     8
 73
     4
 74
     0
 42
0.000000001
 43
0.0000000001
 40
0.0169267138993488
 40
0.0169267138993488
 40
0.0169267138993488
 40
0.0169267138993488
 40
0.0176395326799751
 40
0.0176395326799751
 40
0.0176395326799751
 40
0.0176395326799751
 10
-20.60373962958152
 20
26.56058639065847
 30
0.0
 10
-20.60454420294148
 20
26.56121158198215
 30
0.0
 10
-20.60533729467222
 20
26.56182798570114
 30
0.0
 10
-20.60611379963716
 20
26.56243160914647
 30
0.0
  0
ARC
  5
7057
330
703D
100
AcDbEntity
  8
0
100
AcDbCircle
 10
-13.99999999999997
 20
2.0
 30
0.0
 40
4.000000000000003
100
AcDbArc
 50
180.0
 51
270.0
  0
ARC
  5
7058
330
703D
100
AcDbEntity
  8
0
100
AcDbCircle
 10
-13.99999999999997
 20
2.0
 30
0.0
 40
2.000000000000003
100
AcDbArc
 50
180.0
 51
270.0
  0
ARC
  5
7059
330
703D
100
AcDbEntity
  8
0
100
AcDbCircle
 10
13.99999999999997
 20
2.0
 30
0.0
 40
4.000000000000003
100
AcDbArc
 50
270.0
 51
0.0
  0
LINE
  5
705A
330
703D
100
AcDbEntity
  8
0
100
AcDbLine
 10
20.60606060606067
 20
26.56249999999998
 30
0.0
 11
57.5000000000001
 21
56.99999999999999
 31
0.0
  0
LINE
  5
705B
330
703D
100
AcDbEntity
  8
0
100
AcDbLine
 10
15.99999999999998
 20
24.0
 30
0.0
 11
15.99999999999999
 21
56.99999999999999
 31
0.0
  0
LINE
  5
705C
330
703D
100
AcDbEntity
  8
0
100
AcDbLine
 10
17.99999999999998
 20
24.0
 30
0.0
 11
15.99999999999998
 21
24.0
 31
0.0
  0
LINE
  5
705D
330
703D
100
AcDbEntity
  8
0
100
AcDbLine
 10
17.99999999999999
 20
56.99999999999999
 30
0.0
 11
17.99999999999998
 21
24.0
 31
0.0
  0
LINE
  5
705E
330
703D
100
AcDbEntity
  8
0
100
AcDbLine
 10
17.99999999999999
 20
56.99999999999999
 30
0.0
 11
15.99999999999999
 21
56.99999999999999
 31
0.0
  0
LINE
  5
705F
330
703D
100
AcDbEntity
  8
0
100
AcDbLine
 10
15.99999999999999
 20
56.99999999999999
 30
0.0
 11
15.99999999999999
 21
134.0
 31
0.0
  0
LINE
  5
7060
330
703D
100
AcDbEntity
  8
0
100
AcDbLine
 10
17.99999999999999
 20
134.0
 30
0.0
 11
17.99999999999999
 21
56.99999999999999
 31
0.0
  0
LINE
  5
7061
330
703D
100
AcDbEntity
  8
0
100
AcDbLine
 10
15.99999999999999
 20
134.0
 30
0.0
 11
17.99999999999999
 21
134.0
 31
0.0
  0
LINE
  5
7062
330
703D
100
AcDbEntity
  8
0
100
AcDbLine
 10
17.99999999999998
 20
24.0
 30
0.0
 11
17.99999999999998
 21
2.000000000000001
 31
0.0
  0
LINE
  5
7063
330
703D
100
AcDbEntity
  8
0
100
AcDbLine
 10
15.99999999999998
 20
2.0
 30
0.0
 11
15.99999999999998
 21
24.0
 31
0.0
  0
ARC
  5
7064
330
703D
100
AcDbEntity
  8
0
100
AcDbCircle
 10
13.99999999999997
 20
2.0
 30
0.0
 40
2.000000000000003
100
AcDbArc
 50
270.0
 51
0.0
  0
LINE
  5
7065
330
703D
100
AcDbEntity
  8
0
100
AcDbLine
 10
19.99999999999999
 20
134.0
 30
0.0
 11
18.0
 21
134.0
 31
0.0
  0
LINE
  5
7066
330
703D
100
AcDbEntity
  8
0
100
AcDbLine
 10
57.5000000000001
 20
56.99999999999999
 30
0.0
 11
57.5
 21
134.0
 31
0.0
  0
LINE
  5
7067
330
703D
100
AcDbEntity
  8
0
100
AcDbLine
 10
57.5
 20
134.0
 30
0.0
 11
19.99999999999999
 21
134.0
 31
0.0
  0
CIRCLE
  5
7068
330
703D
100
AcDbEntity
  8
0
100
AcDbCircle
 10
38.00000000000001
 20
114.0
 30
0.0
 40
6.5
  0
CIRCLE
  5
7069
330
703D
100
AcDbEntity
  8
0
100
AcDbCircle
 10
49.0
 20
119.0
 30
0.0
 40
2.5
  0
LINE
  5
706A
330
703D
100
AcDbEntity
  8
0
100
AcDbLine
 10
-57.5000000000001
 20
56.99999999999999
 30
0.0
 11
-20.60606060606067
 21
26.56249999999998
 31
0.0
  0
LINE
  5
706B
330
703D
100
AcDbEntity
  8
0
100
AcDbLine
 10
-15.99999999999999
 20
56.99999999999999
 30
0.0
 11
-15.99999999999998
 21
24.0
 31
0.0
  0
LINE
  5
706C
330
703D
100
AcDbEntity
  8
0
100
AcDbLine
 10
-17.99999999999999
 20
56.99999999999999
 30
0.0
 11
-15.99999999999999
 21
56.99999999999999
 31
0.0
  0
LINE
  5
706D
330
703D
100
AcDbEntity
  8
0
100
AcDbLine
 10
-17.99999999999998
 20
24.0
 30
0.0
 11
-17.99999999999999
 21
56.99999999999999
 31
0.0
  0
LINE
  5
706E
330
703D
100
AcDbEntity
  8
0
100
AcDbLine
 10
-15.99999999999998
 20
24.0
 30
0.0
 11
-17.99999999999998
 21
24.0
 31
0.0
  0
LINE
  5
706F
330
703D
100
AcDbEntity
  8
0
100
AcDbLine
 10
-15.99999999999999
 20
134.0
 30
0.0
 11
-15.99999999999999
 21
56.99999999999999
 31
0.0
  0
LINE
  5
7070
330
703D
100
AcDbEntity
  8
0
100
AcDbLine
 10
-17.99999999999999
 20
134.0
 30
0.0
 11
-15.99999999999999
 21
134.0
 31
0.0
  0
LINE
  5
7071
330
703D
100
AcDbEntity
  8
0
100
AcDbLine
 10
-17.99999999999999
 20
56.99999999999999
 30
0.0
 11
-17.99999999999999
 21
134.0
 31
0.0
  0
CIRCLE
  5
7072
330
703D
100
AcDbEntity
  8
0
100
AcDbCircle
 10
-38.00000000000001
 20
64.0
 30
0.0
 40
6.5
  0
CIRCLE
  5
7073
330
703D
100
AcDbEntity
  8
0
100
AcDbCircle
 10
38.00000000000001
 20
64.0
 30
0.0
 40
6.5
  0
CIRCLE
  5
7074
330
703D
100
AcDbEntity
  8
0
100
AcDbCircle
 10
-38.00000000000001
 20
114.0
 30
0.0
 40
6.5
  0
CIRCLE
  5
7075
330
703D
100
AcDbEntity
  8
0
100
AcDbCircle
 10
-27.0
 20
49.0
 30
0.0
 40
2.5
  0
CIRCLE
  5
7076
330
703D
100
AcDbEntity
  8
0
100
AcDbCircle
 10
-27.0
 20
69.0
 30
0.0
 40
2.5
  0
CIRCLE
  5
7077
330
703D
100
AcDbEntity
  8
0
100
AcDbCircle
 10
-27.0
 20
89.0
 30
0.0
 40
2.5
  0
CIRCLE
  5
7078
330
703D
100
AcDbEntity
  8
0
100
AcDbCircle
 10
-27.0
 20
109.0
 30
0.0
 40
2.5
  0
CIRCLE
  5
7079
330
703D
100
AcDbEntity
  8
0
100
AcDbCircle
 10
27.0
 20
49.0
 30
0.0
 40
2.5
  0
CIRCLE
  5
707A
330
703D
100
AcDbEntity
  8
0
100
AcDbCircle
 10
27.0
 20
69.0
 30
0.0
 40
2.5
  0
CIRCLE
  5
707B
330
703D
100
AcDbEntity
  8
0
100
AcDbCircle
 10
27.0
 20
89.0
 30
0.0
 40
2.5
  0
CIRCLE
  5
707C
330
703D
100
AcDbEntity
  8
0
100
AcDbCircle
 10
27.0
 20
109.0
 30
0.0
 40
2.5
  0
CIRCLE
  5
707D
330
703D
100
AcDbEntity
  8
0
100
AcDbCircle
 10
-27.0
 20
129.0
 30
0.0
 40
2.5
  0
CIRCLE
  5
707E
330
703D
100
AcDbEntity
  8
0
100
AcDbCircle
 10
27.0
 20
129.0
 30
0.0
 40
2.5
  0
CIRCLE
  5
707F
330
703D
100
AcDbEntity
  8
0
100
AcDbCircle
 10
-49.0
 20
59.00000000000002
 30
0.0
 40
2.5
  0
CIRCLE
  5
7080
330
703D
100
AcDbEntity
  8
0
100
AcDbCircle
 10
-49.0
 20
79.0
 30
0.0
 40
2.5
  0
CIRCLE
  5
7081
330
703D
100
AcDbEntity
  8
0
100
AcDbCircle
 10
-49.0
 20
99.0
 30
0.0
 40
2.5
  0
CIRCLE
  5
7082
330
703D
100
AcDbEntity
  8
0
100
AcDbCircle
 10
49.0
 20
59.00000000000002
 30
0.0
 40
2.5
  0
CIRCLE
  5
7083
330
703D
100
AcDbEntity
  8
0
100
AcDbCircle
 10
49.0
 20
79.0
 30
0.0
 40
2.5
  0
CIRCLE
  5
7084
330
703D
100
AcDbEntity
  8
0
100
AcDbCircle
 10
49.0
 20
99.0
 30
0.0
 40
2.5
  0
CIRCLE
  5
7085
330
703D
100
AcDbEntity
  8
0
100
AcDbCircle
 10
-49.0
 20
119.0
 30
0.0
 40
2.5
  0
LINE
  5
7086
330
703D
100
AcDbEntity
  8
0
100
AcDbLine
 10
-57.5
 20
134.0
 30
0.0
 11
-19.99999999999999
 21
134.0
 31
0.0
  0
LINE
  5
7087
330
703D
100
AcDbEntity
  8
0
100
AcDbLine
 10
-57.5000000000001
 20
56.99999999999999
 30
0.0
 11
-57.5
 21
134.0
 31
0.0
  0
LINE
  5
7088
330
703D
100
AcDbEntity
  8
0
100
AcDbLine
 10
-15.99999999999998
 20
2.0
 30
0.0
 11
-15.99999999999998
 21
24.0
 31
0.0
  0
LINE
  5
7089
330
703D
100
AcDbEntity
  8
0
100
AcDbLine
 10
-17.99999999999998
 20
24.0
 30
0.0
 11
-17.99999999999998
 21
2.000000000000001
 31
0.0
  0
LINE
  5
708A
330
703D
100
AcDbEntity
  8
0
100
AcDbLine
 10
-19.99999999999999
 20
134.0
 30
0.0
 11
-18.0
 21
134.0
 31
0.0
  0
ENDBLK
  5
703F
330
703D
100
AcDbEntity
  8
0
100
AcDbBlockEnd
  0
BLOCK
  5
708C
330
708B
100
AcDbEntity
  8
0
100
AcDbBlockBegin
  2
SAE300_32_2-Left
 70
     0
 10
0.0
 20
0.0
 30
0.0
  3
SAE300_32_2-Left
  1

  0
LINE
  5
708E
330
708B
100
AcDbEntity
  8
0
100
AcDbLine
 10
1.999999999999999
 20
-2.0
 30
0.0
 11
85.99999999999997
 21
-2.000000000000003
 31
0.0
  0
LINE
  5
708F
330
708B
100
AcDbEntity
  8
0
100
AcDbLine
 10
2.000000000000006
 20
2.000000000000004
 30
0.0
 11
1.999999999999999
 21
-1.999999999999999
 31
0.0
  0
LINE
  5
7090
330
708B
100
AcDbEntity
  8
0
100
AcDbLine
 10
85.99999999999997
 20
-2.000000000000003
 30
0.0
 11
85.99999999999997
 21
2.0
 31
0.0
  0
SPLINE
  5
7091
330
708B
100
AcDbEntity
  8
0
100
AcDbSpline
210
0.0
220
0.0
230
1.0
 70
     8
 71
     3
 72
    14
 73
    10
 74
     0
 42
0.000000001
 43
0.0000000001
 40
-0.4813026532951027
 40
-0.4813026532951027
 40
-0.4813026532951027
 40
-0.4813026532951027
 40
-0.3760960080994292
 40
-0.3760960080994292
 40
-0.3760960080994292
 40
-0.0765284972672135
 40
-0.0765284972672135
 40
-0.0765284972672135
 40
0.0
 40
0.0
 40
0.0
 40
0.0
 10
0.9454120927380028
 20
25.73176011522708
 30
0.0
 10
0.8408297879928044
 20
25.7686761860834
 30
0.0
 10
0.7371129357539515
 20
25.80054090483256
 30
0.0
 10
0.6388614064394012
 20
25.83423666321139
 30
0.0
 10
0.3590980320111408
 20
25.93018264119005
 30
0.0
 10
0.1217220476563914
 20
26.04001612967711
 30
0.0
 10
0.0342615816139549
 20
26.31443386955976
 30
0.0
 10
0.0119186445647279
 20
26.38453752398592
 30
0.0
 10
0.0000045452574087
 20
26.46769665104469
 30
0.0
 10
0.0000000001152109
 20
26.56250000004006
 30
0.0
  0
SPLINE
  5
7092
330
708B
100
AcDbEntity
  8
0
100
AcDbSpline
210
0.0
220
0.0
230
1.0
 70
     8
 71
     3
 72
    14
 73
    10
 74
     0
 42
0.000000001
 43
0.0000000001
 40
0.0
 40
0.0
 40
0.0
 40
0.0
 40
0.3435165591399867
 40
0.3435165591399867
 40
0.3435165591399867
 40
0.7569936138298773
 40
0.7569936138298773
 40
0.7569936138298773
 40
1.0
 40
1.0
 40
1.0
 40
1.0
 10
2.000000000000003
 20
26.56249999999998
 30
0.0
 10
2.000036880260025
 20
26.30249193734759
 30
0.0
 10
1.996833903329653
 20
26.07529037325856
 30
0.0
 10
1.99867552125006
 20
25.84407810167523
 30
0.0
 10
2.000892202610343
 20
25.56577719734102
 30
0.0
 10
2.001068608700966
 20
25.27139450220366
 30
0.0
 10
2.001123034011752
 20
24.85792877885668
 30
0.0
 10
2.00115502054629
 20
24.61492905227906
 30
0.0
 10
2.000250549241812
 20
24.35822947221574
 30
0.0
 10
1.999999999992519
 20
24.00000000165287
 30
0.0
  0
LINE
  5
7093
330
708B
100
AcDbEntity
  8
0
100
AcDbLine
 10
0.0
 20
26.56249999999998
 30
0.0
 11
2.000000000000005
 21
26.56249999999998
 31
0.0
  0
SPLINE
  5
7094
330
708B
100
AcDbEntity
  8
0
100
AcDbSpline
210
0.0
220
0.0
230
1.0
 70
     8
 71
     3
 72
    18
 73
    14
 74
     0
 42
0.000000001
 43
0.0000000001
 40
0.0
 40
0.0
 40
0.0
 40
0.0
 40
0.004585296921012
 40
0.004585296921012
 40
0.0065400840537091
 40
0.0065400840537091
 40
0.0081563835279738
 40
0.0081563835279738
 40
0.0096016089298027
 40
0.0096016089298027
 40
0.0108226891103583
 40
0.0108226891103583
 40
0.011864645791415
 40
0.011864645791415
 40
0.011864645791415
 40
0.011864645791415
 10
1.999557272902082
 20
23.99999849939594
 30
0.0
 10
1.999513512458572
 20
24.01475838079737
 30
0.0
 10
1.999424163679284
 20
24.02919075573914
 30
0.0
 10
1.999253402731437
 20
24.04675570275021
 30
0.0
 10
1.999196850486804
 20
24.05166987649922
 30
0.0
 10
1.999091149901707
 20
24.05972733279446
 30
0.0
 10
1.999042050549838
 20
24.06305924924436
 30
0.0
 10
1.998954621959918
 20
24.06851913317821
 30
0.0
 10
1.998915397044718
 20
24.07075700277577
 30
0.0
 10
1.998855183908503
 20
24.07401363580861
 30
0.0
 10
1.998832157097512
 20
24.07517781466158
 30
0.0
 10
1.998803973819171
 20
24.07656460269212
 30
0.0
 10
1.998796572755301
 20
24.07690723965394
 30
0.0
 10
1.99879657280709
 20
24.07690723725141
 30
0.0
  0
SPLINE
  5
7095
330
708B
100
AcDbEntity
  8
0
100
AcDbSpline
210
0.0
220
0.0
230
1.0
 70
     8
 71
     3
 72
    12
 73
     8
 74
     0
 42
0.000000001
 43
0.0000000001
 40
0.0059633252774832
 40
0.0059633252774832
 40
0.0059633252774832
 40
0.0059633252774832
 40
0.0066536742787261
 40
0.0066536742787261
 40
0.0086398635143823
 40
0.0086398635143823
 40
0.0087253466667892
 40
0.0087253466667892
 40
0.0087253466667892
 40
0.0087253466667892
 10
1.999420479339193
 20
24.027655359939
 30
0.0
 10
1.999406074172433
 20
24.02827987373424
 30
0.0
 10
1.999393029418515
 20
24.02883644727794
 30
0.0
 10
1.99934867582398
 20
24.03070956781223
 30
0.0
 10
1.999329089674933
 20
24.03149445619504
 30
0.0
 10
1.999327499326859
 20
24.03155858684852
 30
0.0
 10
1.999327466376085
 20
24.03155991426223
 30
0.0
 10
1.999327466390198
 20
24.03155991369365
 30
0.0
  0
SPLINE
  5
7096
330
708B
100
AcDbEntity
  8
0
100
AcDbSpline
210
0.0
220
0.0
230
1.0
 70
     8
 71
     3
 72
    32
 73
    28
 74
     0
 42
0.000000001
 43
0.0000000001
 40
0.0044269611931585
 40
0.0044269611931585
 40
0.0044269611931585
 40
0.0044269611931585
 40
0.0070666150391629
 40
0.0070666150391629
 40
0.0097359241849143
 40
0.0097359241849143
 40
0.0112195603074753
 40
0.0112195603074753
 40
0.0132974512326025
 40
0.0132974512326025
 40
0.016269704819243
 40
0.016269704819243
 40
0.023358101799485
 40
0.023358101799485
 40
0.0446188968987047
 40
0.0446188968987047
 40
0.0765645805800185
 40
0.0765645805800185
 40
0.1066779007238106
 40
0.1066779007238106
 40
0.1471724919521794
 40
0.1471724919521794
 40
0.1805118330663825
 40
0.1805118330663825
 40
0.2202828905483614
 40
0.2202828905483614
 40
0.2444799757038504
 40
0.2444799757038504
 40
0.2444799757038504
 40
0.2444799757038504
 10
1.999453047720093
 20
24.02279542166035
 30
0.0
 10
1.999343127803557
 20
24.02692527669718
 30
0.0
 10
1.99922837688652
 20
24.03099739147199
 30
0.0
 10
1.998950736159842
 20
24.04021089951696
 30
0.0
 10
1.998783229284374
 20
24.0455175148923
 30
0.0
 10
1.99842736227232
 20
24.0557785298703
 30
0.0
 10
1.998279948735467
 20
24.05986472342189
 30
0.0
 10
1.997885574297751
 20
24.07023815249918
 30
0.0
 10
1.997620188681031
 20
24.07679958458688
 30
0.0
 10
1.996919491640729
 20
24.09294424169994
 30
0.0
 10
1.996456080836493
 20
24.10272534734115
 30
0.0
 10
1.994744210993955
 20
24.13583814564822
 30
0.0
 10
1.993288976688261
 20
24.15938365183138
 30
0.0
 10
1.986467949128052
 20
24.25325816019662
 30
0.0
 10
1.979100551627881
 20
24.32335733249921
 30
0.0
 10
1.954117793420068
 20
24.49752577802308
 30
0.0
 10
1.933095165189002
 20
24.60191693436912
 30
0.0
 10
1.876943754460441
 20
24.80089509258008
 30
0.0
 10
1.842238042124448
 20
24.89654333725884
 30
0.0
 10
1.742828773423346
 20
25.10726510910436
 30
0.0
 10
1.66968838694566
 20
25.22004611954353
 30
0.0
 10
1.52266636513107
 20
25.38942910498772
 30
0.0
 10
1.450190933993978
 20
25.45467612446682
 30
0.0
 10
1.28982944511678
 20
25.5732652629335
 30
0.0
 10
1.200070170093507
 20
25.62371870253776
 30
0.0
 10
1.054254702224362
 20
25.69064799991903
 30
0.0
 10
0.9985808397324124
 20
25.71273822094236
 30
0.0
 10
0.9420912521096674
 20
25.73259712964492
 30
0.0
  0
LINE
  5
7097
330
708B
100
AcDbEntity
  8
0
100
AcDbLine
 10
2.000000000000006
 20
2.000000000000003
 30
0.0
 11
2.000000000000006
 21
24.0
 31
0.0
  0
LINE
  5
7098
330
708B
100
AcDbEntity
  8
0
100
AcDbLine
 10
2.000000000000001
 20
56.99999999999999
 30
0.0
 11
2.000000000000005
 21
26.56249999999998
 31
0.0
  0
LINE
  5
7099
330
708B
100
AcDbEntity
  8
0
100
AcDbLine
 10
0.0
 20
56.99999999999999
 30
0.0
 11
2.000000000000001
 21
56.99999999999999
 31
0.0
  0
LINE
  5
709A
330
708B
100
AcDbEntity
  8
0
100
AcDbLine
 10
0.0
 20
26.56249999999998
 30
0.0
 11
0.0
 21
56.99999999999999
 31
0.0
  0
LINE
  5
709B
330
708B
100
AcDbEntity
  8
0
100
AcDbLine
 10
86.0
 20
24.0
 30
0.0
 11
46.0
 21
56.99999999999999
 31
0.0
  0
LINE
  5
709C
330
708B
100
AcDbEntity
  8
0
100
AcDbLine
 10
46.0
 20
56.99999999999999
 30
0.0
 11
45.99999999999997
 21
134.0
 31
0.0
  0
LINE
  5
709D
330
708B
100
AcDbEntity
  8
0
100
AcDbLine
 10
2.000000000000001
 20
56.99999999999999
 30
0.0
 11
1.999999999999995
 21
134.0
 31
0.0
  0
LINE
  5
709E
330
708B
100
AcDbEntity
  8
0
100
AcDbLine
 10
86.0
 20
24.0
 30
0.0
 11
85.99999999999997
 21
2.000000000000001
 31
0.0
  0
LINE
  5
709F
330
708B
100
AcDbEntity
  8
0
100
AcDbLine
 10
4.000000000000003
 20
134.0
 30
0.0
 11
45.99999999999997
 21
134.0
 31
0.0
  0
LINE
  5
70A0
330
708B
100
AcDbEntity
  8
0
100
AcDbLine
 10
0.0
 20
134.0
 30
0.0
 11
1.999999999999995
 21
134.0
 31
0.0
  0
LINE
  5
70A1
330
708B
100
AcDbEntity
  8
0
100
AcDbLine
 10
0.0
 20
56.99999999999999
 30
0.0
 11
0.0
 21
134.0
 31
0.0
  0
LINE
  5
70A2
330
708B
100
AcDbEntity
  8
0
100
AcDbLine
 10
2.000000000000002
 20
134.0
 30
0.0
 11
4.000000000000003
 21
134.0
 31
0.0
  0
CIRCLE
  5
70A3
330
708B
100
AcDbEntity
  8
0
100
AcDbCircle
 10
38.49999999999997
 20
48.99999999999998
 30
0.0
 40
2.5
  0
CIRCLE
  5
70A4
330
708B
100
AcDbEntity
  8
0
100
AcDbCircle
 10
38.49999999999997
 20
68.99999999999998
 30
0.0
 40
2.5
  0
CIRCLE
  5
70A5
330
708B
100
AcDbEntity
  8
0
100
AcDbCircle
 10
38.49999999999997
 20
88.99999999999998
 30
0.0
 40
2.5
  0
CIRCLE
  5
70A6
330
708B
100
AcDbEntity
  8
0
100
AcDbCircle
 10
38.49999999999997
 20
109.0
 30
0.0
 40
2.5
  0
CIRCLE
  5
70A7
330
708B
100
AcDbEntity
  8
0
100
AcDbCircle
 10
38.49999999999997
 20
129.0
 30
0.0
 40
2.5
  0
SPLINE
  5
70A8
330
708B
100
AcDbEntity
  8
0
100
AcDbSpline
210
0.0
220
0.0
230
1.0
 70
     8
 71
     3
 72
     8
 73
     4
 74
     0
 42
0.000000001
 43
0.0000000001
 40
0.0
 40
0.0
 40
0.0
 40
0.0
 40
0.0024158823056926
 40
0.0024158823056926
 40
0.0024158823056926
 40
0.0024158823056926
 10
1.999557272902082
 20
23.99999849939594
 30
0.0
 10
1.999534216580325
 20
24.00777512475436
 30
0.0
 10
1.999499214231591
 20
24.01546439077976
 30
0.0
 10
1.999453047720096
 20
24.02279542165976
 30
0.0
  0
ENDBLK
  5
708D
330
708B
100
AcDbEntity
  8
0
100
AcDbBlockEnd
  0
BLOCK
  5
70AA
330
70A9
100
AcDbEntity
  8
0
100
AcDbBlockBegin
  2
SAE300_32_2-Right
 70
     0
 10
0.0
 20
0.0
 30
0.0
  3
SAE300_32_2-Right
  1

  0
SPLINE
  5
70AC
330
70A9
100
AcDbEntity
  8
0
100
AcDbSpline
210
0.0
220
0.0
230
1.0
 70
     8
 71
     3
 72
    14
 73
    10
 74
     0
 42
0.000000001
 43
0.0000000001
 40
0.0
 40
0.0
 40
0.0
 40
0.0
 40
0.3435165591399867
 40
0.3435165591399867
 40
0.3435165591399867
 40
0.7569936138298773
 40
0.7569936138298773
 40
0.7569936138298773
 40
1.0
 40
1.0
 40
1.0
 40
1.0
 10
-2.000000000000003
 20
26.56249999999998
 30
0.0
 10
-2.000036880260025
 20
26.30249193734759
 30
0.0
 10
-1.996833903329653
 20
26.07529037325856
 30
0.0
 10
-1.99867552125006
 20
25.84407810167523
 30
0.0
 10
-2.000892202610343
 20
25.56577719734102
 30
0.0
 10
-2.001068608700966
 20
25.27139450220366
 30
0.0
 10
-2.001123034011752
 20
24.85792877885668
 30
0.0
 10
-2.00115502054629
 20
24.61492905227906
 30
0.0
 10
-2.000250549241812
 20
24.35822947221574
 30
0.0
 10
-1.999999999992519
 20
24.00000000165287
 30
0.0
  0
SPLINE
  5
70AD
330
70A9
100
AcDbEntity
  8
0
100
AcDbSpline
210
0.0
220
0.0
230
1.0
 70
     8
 71
     3
 72
    14
 73
    10
 74
     0
 42
0.000000001
 43
0.0000000001
 40
-0.4813026532951297
 40
-0.4813026532951297
 40
-0.4813026532951297
 40
-0.4813026532951297
 40
-0.3760960080994292
 40
-0.3760960080994292
 40
-0.3760960080994292
 40
-0.0765284972672135
 40
-0.0765284972672135
 40
-0.0765284972672135
 40
0.0
 40
0.0
 40
0.0
 40
0.0
 10
-0.9454120927380836
 20
25.73176011522705
 30
0.0
 10
-0.8408297879928577
 20
25.76867618608338
 30
0.0
 10
-0.7371129357539769
 20
25.80054090483255
 30
0.0
 10
-0.6388614064394012
 20
25.83423666321139
 30
0.0
 10
-0.3590980320111408
 20
25.93018264119005
 30
0.0
 10
-0.1217220476563914
 20
26.04001612967711
 30
0.0
 10
-0.0342615816139549
 20
26.31443386955976
 30
0.0
 10
-0.0119186445647279
 20
26.38453752398592
 30
0.0
 10
-0.0000045452574087
 20
26.46769665104469
 30
0.0
 10
-0.0000000001152109
 20
26.56250000004006
 30
0.0
  0
LINE
  5
70AE
330
70A9
100
AcDbEntity
  8
0
100
AcDbLine
 10
-2.000000000000005
 20
26.56249999999998
 30
0.0
 11
0.0
 21
26.56249999999998
 31
0.0
  0
SPLINE
  5
70AF
330
70A9
100
AcDbEntity
  8
0
100
AcDbSpline
210
0.0
220
0.0
230
1.0
 70
     8
 71
     3
 72
    16
 73
    12
 74
     0
 42
0.000000001
 43
0.0000000001
 40
0.0119733517147551
 40
0.0119733517147551
 40
0.0119733517147551
 40
0.0119733517147551
 40
0.0132101282787225
 40
0.0132101282787225
 40
0.014792145562372
 40
0.014792145562372
 40
0.0179906735322331
 40
0.0179906735322331
 40
0.020819551692796
 40
0.020819551692796
 40
0.0238392197899977
 40
0.0238392197899977
 40
0.0238392197899977
 40
0.0238392197899977
 10
-1.998796572807033
 20
24.07690723725404
 30
0.0
 10
-1.998796572804496
 20
24.07690723737176
 30
0.0
 10
-1.998806931013606
 20
24.07642811551742
 30
0.0
 10
-1.998847483380064
 20
24.07440627915828
 30
0.0
 10
-1.998882572417079
 20
24.07259041658445
 30
0.0
 10
-1.999004828698707
 20
24.06563013989913
 30
0.0
 10
-1.999108828343322
 20
24.05887921411715
 30
0.0
 10
-1.999282360813311
 20
24.04425783086646
 30
0.0
 10
-1.999357578436548
 20
24.03640621559472
 30
0.0
 10
-1.999481031817595
 20
24.01923591446003
 30
0.0
 10
-1.999528454263407
 20
24.00971868627897
 30
0.0
 10
-1.999557272902082
 20
23.99999849939594
 30
0.0
  0
SPLINE
  5
70B0
330
70A9
100
AcDbEntity
  8
0
100
AcDbSpline
210
0.0
220
0.0
230
1.0
 70
     8
 71
     3
 72
    12
 73
     8
 74
     0
 42
0.000000001
 43
0.0000000001
 40
0.0086744412316483
 40
0.0086744412316483
 40
0.0086744412316483
 40
0.0086744412316483
 40
0.0108228418491104
 40
0.0108228418491104
 40
0.0138868148063651
 40
0.0138868148063651
 40
0.01739476740971
 40
0.01739476740971
 40
0.01739476740971
 40
0.01739476740971
 10
-1.999327466390077
 20
24.03155991369855
 30
0.0
 10
-1.999327466386688
 20
24.03155991383514
 30
0.0
 10
-1.999348975124327
 20
24.03070111133662
 30
0.0
 10
-1.999438185388926
 20
24.02692286658268
 30
0.0
 10
-1.999521954743945
 20
24.02325287904478
 30
0.0
 10
-1.99971901179918
 20
24.01347874860955
 30
0.0
 10
-1.999835263853188
 20
24.00705634433129
 30
0.0
 10
-1.999939280471768
 20
23.99999868572562
 30
0.0
  0
SPLINE
  5
70B1
330
70A9
100
AcDbEntity
  8
0
100
AcDbSpline
210
0.0
220
0.0
230
1.0
 70
     8
 71
     3
 72
    28
 73
    24
 74
     0
 42
0.000000001
 43
0.0000000001
 40
0.0
 40
0.0
 40
0.0
 40
0.0
 40
0.0650016965091123
 40
0.0650016965091123
 40
0.1023228294615972
 40
0.1023228294615972
 40
0.1414747326729903
 40
0.1414747326729903
 40
0.1748987385475035
 40
0.1748987385475035
 40
0.216923999100304
 40
0.216923999100304
 40
0.2285713936696121
 40
0.2285713936696121
 40
0.2316497790382922
 40
0.2316497790382922
 40
0.2332712167234951
 40
0.2332712167234951
 40
0.2348988842808742
 40
0.2348988842808742
 40
0.238177001636762
 40
0.238177001636762
 40
0.2398093120551353
 40
0.2398093120551353
 40
0.2398093120551353
 40
0.2398093120551353
 10
-0.9420912521097493
 20
25.73259712964489
 30
0.0
 10
-1.093841721514739
 20
25.67924926777679
 30
0.0
 10
-1.242353898725977
 20
25.60988799342809
 30
0.0
 10
-1.466451771008856
 20
25.44171617371386
 30
0.0
 10
-1.54740794320188
 20
25.36594146110417
 30
0.0
 10
-1.695446554661271
 20
25.18241413825131
 30
0.0
 10
-1.763061289550783
 20
25.07040741115997
 30
0.0
 10
-1.860492149634741
 20
24.85077461309085
 30
0.0
 10
-1.895809632777582
 20
24.74321521028377
 30
0.0
 10
-1.955911122109151
 20
24.49956902551778
 30
0.0
 10
-1.976606287624478
 20
24.36174326035006
 30
0.0
 10
-1.991712579950838
 20
24.1842782681212
 30
0.0
 10
-1.994301896794721
 20
24.14544791359266
 30
0.0
 10
-1.996727817408343
 20
24.09709109590461
 30
0.0
 10
-1.997190140006361
 20
24.08697087998705
 30
0.0
 10
-1.997805613579221
 20
24.0722020619236
 30
0.0
 10
-1.998002494733538
 20
24.06720827400973
 30
0.0
 10
-1.998352537520744
 20
24.0578903056443
 30
0.0
 10
-1.998506821224315
 20
24.05353772748681
 30
0.0
 10
-1.998900005510154
 20
24.0419796105549
 30
0.0
 10
-1.999076487666406
 20
24.03616553677971
 30
0.0
 10
-1.999306259647683
 20
24.0281960305135
 30
0.0
 10
-1.99938080089285
 20
24.02550450543087
 30
0.0
 10
-1.99945307171599
 20
24.02278501006542
 30
0.0
  0
LINE
  5
70B2
330
70A9
100
AcDbEntity
  8
0
100
AcDbLine
 10
-1.999999999999999
 20
-2.0
 30
0.0
 11
-85.99999999999997
 21
-2.0
 31
0.0
  0
LINE
  5
70B3
330
70A9
100
AcDbEntity
  8
0
100
AcDbLine
 10
-2.000000000000006
 20
2.000000000000003
 30
0.0
 11
-2.000000000000006
 21
24.0
 31
0.0
  0
LINE
  5
70B4
330
70A9
100
AcDbEntity
  8
0
100
AcDbLine
 10
-2.000000000000006
 20
2.000000000000004
 30
0.0
 11
-1.999999999999999
 21
-1.999999999999999
 31
0.0
  0
LINE
  5
70B5
330
70A9
100
AcDbEntity
  8
0
100
AcDbLine
 10
-85.99999999999997
 20
-2.000000000000003
 30
0.0
 11
-85.99999999999997
 21
2.0
 31
0.0
  0
LINE
  5
70B6
330
70A9
100
AcDbEntity
  8
0
100
AcDbLine
 10
0.0
 20
56.99999999999999
 30
0.0
 11
0.0
 21
26.56249999999998
 31
0.0
  0
LINE
  5
70B7
330
70A9
100
AcDbEntity
  8
0
100
AcDbLine
 10
-2.000000000000001
 20
56.99999999999999
 30
0.0
 11
0.0
 21
56.99999999999999
 31
0.0
  0
LINE
  5
70B8
330
70A9
100
AcDbEntity
  8
0
100
AcDbLine
 10
-2.000000000000005
 20
26.56249999999998
 30
0.0
 11
-2.000000000000001
 21
56.99999999999999
 31
0.0
  0
LINE
  5
70B9
330
70A9
100
AcDbEntity
  8
0
100
AcDbLine
 10
0.0
 20
56.99999999999999
 30
0.0
 11
0.0
 21
134.0
 31
0.0
  0
CIRCLE
  5
70BA
330
70A9
100
AcDbEntity
  8
0
100
AcDbCircle
 10
-38.5
 20
119.0
 30
0.0
 40
2.5
  0
LINE
  5
70BB
330
70A9
100
AcDbEntity
  8
0
100
AcDbLine
 10
-46.0
 20
56.99999999999999
 30
0.0
 11
-86.0
 21
24.0
 31
0.0
  0
LINE
  5
70BC
330
70A9
100
AcDbEntity
  8
0
100
AcDbLine
 10
-45.99999999999997
 20
134.0
 30
0.0
 11
-46.0
 21
56.99999999999999
 31
0.0
  0
LINE
  5
70BD
330
70A9
100
AcDbEntity
  8
0
100
AcDbLine
 10
-86.0
 20
24.0
 30
0.0
 11
-85.99999999999997
 21
2.000000000000001
 31
0.0
  0
LINE
  5
70BE
330
70A9
100
AcDbEntity
  8
0
100
AcDbLine
 10
-4.000000000000003
 20
134.0
 30
0.0
 11
-45.99999999999997
 21
134.0
 31
0.0
  0
LINE
  5
70BF
330
70A9
100
AcDbEntity
  8
0
100
AcDbLine
 10
-2.000000000000002
 20
134.0
 30
0.0
 11
-4.000000000000003
 21
134.0
 31
0.0
  0
LINE
  5
70C0
330
70A9
100
AcDbEntity
  8
0
100
AcDbLine
 10
0.0
 20
134.0
 30
0.0
 11
-1.999999999999995
 21
134.0
 31
0.0
  0
LINE
  5
70C1
330
70A9
100
AcDbEntity
  8
0
100
AcDbLine
 10
-2.000000000000001
 20
56.99999999999999
 30
0.0
 11
-1.999999999999995
 21
134.0
 31
0.0
  0
CIRCLE
  5
70C2
330
70A9
100
AcDbEntity
  8
0
100
AcDbCircle
 10
-38.5
 20
38.99999999999998
 30
0.0
 40
2.5
  0
CIRCLE
  5
70C3
330
70A9
100
AcDbEntity
  8
0
100
AcDbCircle
 10
-38.5
 20
58.99999999999998
 30
0.0
 40
2.5
  0
CIRCLE
  5
70C4
330
70A9
100
AcDbEntity
  8
0
100
AcDbCircle
 10
-38.5
 20
78.99999999999998
 30
0.0
 40
2.5
  0
CIRCLE
  5
70C5
330
70A9
100
AcDbEntity
  8
0
100
AcDbCircle
 10
-38.5
 20
98.99999999999998
 30
0.0
 40
2.5
  0
SPLINE
  5
70C6
330
70A9
100
AcDbEntity
  8
0
100
AcDbSpline
210
0.0
220
0.0
230
1.0
 70
     8
 71
     3
 72
     8
 73
     4
 74
     0
 42
0.000000001
 43
0.0000000001
 40
0.0214149014346777
 40
0.0214149014346777
 40
0.0214149014346777
 40
0.0214149014346777
 40
0.0238392197899977
 40
0.0238392197899977
 40
0.0238392197899977
 40
0.0238392197899977
 10
-1.99945307171599
 20
24.02278501006541
 30
0.0
 10
-1.999499008035594
 20
24.01547524238729
 30
0.0
 10
-1.999534136069667
 20
24.00780228004969
 30
0.0
 10
-1.999557272902082
 20
23.99999849939594
 30
0.0
  0
ENDBLK
  5
70AB
330
70A9
100
AcDbEntity
  8
0
100
AcDbBlockEnd
  0
BLOCK
  5
70C8
330
70C7
100
AcDbEntity
  8
0
100
AcDbBlockBegin
  2
SAE300_32_2-Top
 70
     0
 10
0.0
 20
0.0
 30
0.0
  3
SAE300_32_2-Top
  1

  0
LINE
  5
70CA
330
70C7
100
AcDbEntity
  8
0
100
AcDbLine
 10
16.0
 20
-2.000000000000002
 30
0.0
 11
16.0
 21
-2.069004766162865
 31
0.0
  0
SPLINE
  5
70CB
330
70C7
100
AcDbEntity
  8
0
100
AcDbSpline
210
0.0
220
0.0
230
1.0
 70
     8
 71
     3
 72
    11
 73
     7
 74
     0
 42
0.000000001
 43
0.0000000001
 40
-1.0
 40
-1.0
 40
-1.0
 40
-1.0
 40
-0.7994286890782019
 40
-0.7994286890782019
 40
-0.7994286890782019
 40
-0.6533573777220764
 40
-0.6533573777220764
 40
-0.6533573777220764
 40
-0.6533573777220764
 10
16.0
 20
-1.999999999999996
 30
0.0
 10
15.99999961270328
 20
-1.999093543231118
 30
0.0
 10
16.12633150600001
 20
-1.919863896638299
 30
0.0
 10
16.33607694562004
 20
-1.79068778621259
 30
0.0
 10
16.48882955652664
 20
-1.696611899890424
 30
0.0
 10
16.68837056419729
 20
-1.57739137785595
 30
0.0
 10
16.91982716790676
 20
-1.445337717162873
 30
0.0
  0
SPLINE
  5
70CC
330
70C7
100
AcDbEntity
  8
0
100
AcDbSpline
210
0.0
220
0.0
230
1.0
 70
     8
 71
     3
 72
    24
 73
    20
 74
     0
 42
0.000000001
 43
0.0000000001
 40
0.0
 40
0.0
 40
0.0
 40
0.0
 40
0.007045239853195
 40
0.007045239853195
 40
0.0166405949180276
 40
0.0166405949180276
 40
0.036714094246643
 40
0.036714094246643
 40
0.0488284899567306
 40
0.0488284899567306
 40
0.0619891282224857
 40
0.0619891282224857
 40
0.0705213679399668
 40
0.0705213679399668
 40
0.0770085533053232
 40
0.0770085533053232
 40
0.0824905607214606
 40
0.0824905607214606
 40
0.0857779388045792
 40
0.0857779388045792
 40
0.0857779388045792
 40
0.0857779388045792
 10
20.56202985673012
 20
-2.000020061973678
 30
0.0
 10
20.54510572273381
 20
-2.000020928437345
 30
0.0
 10
20.52555210340093
 20
-2.000028134291589
 30
0.0
 10
20.47775545398526
 20
-2.000061132070829
 30
0.0
 10
20.44841962904057
 20
-2.000093689688064
 30
0.0
 10
20.35657224063347
 20
-2.000268440249913
 30
0.0
 10
20.29198494484983
 20
-2.000513808507321
 30
0.0
 10
20.1963342282466
 20
-2.000879055387227
 30
0.0
 10
20.1627308168943
 20
-2.000996414973814
 30
0.0
 10
20.09183574221838
 20
-2.001409809827934
 30
0.0
 10
20.05253731398124
 20
-2.001731207544968
 30
0.0
 10
19.98400779045202
 20
-2.002903978530404
 30
0.0
 10
19.95599554153934
 20
-2.003538353546189
 30
0.0
 10
19.90628512871713
 20
-2.00513492583004
 30
0.0
 10
19.88449296312948
 20
-2.005989885789302
 30
0.0
 10
19.84475199435287
 20
-2.007923221121004
 30
0.0
 10
19.82655876589289
 20
-2.008956309578297
 30
0.0
 10
19.79849245276025
 20
-2.01081388763142
 30
0.0
 10
19.78811205318156
 20
-2.011562777472202
 30
0.0
 10
19.77819160777788
 20
-2.012338160980764
 30
0.0
  0
SPLINE
  5
70CD
330
70C7
100
AcDbEntity
  8
0
100
AcDbSpline
210
0.0
220
0.0
230
1.0
 70
     8
 71
     3
 72
    10
 73
     6
 74
     0
 42
0.000000001
 43
0.0000000001
 40
0.0662129554595273
 40
0.0662129554595273
 40
0.0662129554595273
 40
0.0662129554595273
 40
0.067441338132163
 40
0.067441338132163
 40
0.0706012009738687
 40
0.0706012009738687
 40
0.0706012009738687
 40
0.0706012009738687
 10
18.00189270278985
 20
-3.913021602230852
 30
0.0
 10
18.00179633192196
 20
-3.916137797567029
 30
0.0
 10
18.00170141113193
 20
-3.919304414067148
 30
0.0
 10
18.00137023794861
 20
-3.930825838741359
 30
0.0
 10
18.00114394120935
 20
-3.939519344880931
 30
0.0
 10
18.00093640231689
 20
-3.948477388695832
 30
0.0
  0
SPLINE
  5
70CE
330
70C7
100
AcDbEntity
  8
0
100
AcDbSpline
210
0.0
220
0.0
230
1.0
 70
     8
 71
     3
 72
    12
 73
     8
 74
     0
 42
0.000000001
 43
0.0000000001
 40
0.0101225242713796
 40
0.0101225242713796
 40
0.0101225242713796
 40
0.0101225242713796
 40
0.0121419228086025
 40
0.0121419228086025
 40
0.0133840633790761
 40
0.0133840633790761
 40
0.0141064564053471
 40
0.0141064564053471
 40
0.0141064564053471
 40
0.0141064564053471
 10
17.99998998734514
 20
-3.998412118587197
 30
0.0
 10
17.9999899873453
 20
-3.998412118611481
 30
0.0
 10
17.9999906890085
 20
-3.998522847508882
 30
0.0
 10
17.99999495447054
 20
-3.999182895624639
 30
0.0
 10
17.99999821558493
 20
-3.999685158604653
 30
0.0
 10
18.00000191873579
 20
-4.00025231205799
 30
0.0
 10
18.00000285308768
 20
-4.000394832669532
 30
0.0
 10
18.00000285306393
 20
-4.000394829046374
 30
0.0
  0
SPLINE
  5
70CF
330
70C7
100
AcDbEntity
  8
0
100
AcDbSpline
210
0.0
220
0.0
230
1.0
 70
     8
 71
     3
 72
    16
 73
    12
 74
     0
 42
0.000000001
 43
0.0000000001
 40
0.0298160531852167
 40
0.0298160531852167
 40
0.0298160531852167
 40
0.0298160531852167
 40
0.0305405632716835
 40
0.0305405632716835
 40
0.035953759154711
 40
0.035953759154711
 40
0.0382249010535287
 40
0.0382249010535287
 40
0.0413340214622565
 40
0.0413340214622565
 40
0.0433661955400191
 40
0.0433661955400191
 40
0.0433661955400191
 40
0.0433661955400191
 10
18.00114771962295
 20
-3.937776707749844
 30
0.0
 10
18.00114771962442
 20
-3.937776707683997
 30
0.0
 10
18.00114687915927
 20
-3.937814367827373
 30
0.0
 10
18.0011319644996
 20
-3.938489930878699
 30
0.0
 10
18.00105779494777
 20
-3.941612146849418
 30
0.0
 10
18.00087662470525
 20
-3.951851206442844
 30
0.0
 10
18.00081397901781
 20
-3.955643229369936
 30
0.0
 10
18.0006607031536
 20
-3.96644420372397
 30
0.0
 10
18.00056980500387
 20
-3.974140971247379
 30
0.0
 10
18.00045087402194
 20
-3.98806077555317
 30
0.0
 10
18.00041102191406
 20
-3.993926936375478
 30
0.0
 10
18.00037993280674
 20
-4.00000191629698
 30
0.0
  0
SPLINE
  5
70D0
330
70C7
100
AcDbEntity
  8
0
100
AcDbSpline
210
0.0
220
0.0
230
1.0
 70
     8
 71
     3
 72
    28
 73
    24
 74
     0
 42
0.000000001
 43
0.0000000001
 40
0.0059924003662877
 40
0.0059924003662877
 40
0.0059924003662877
 40
0.0059924003662877
 40
0.0060018365533078
 40
0.0060018365533078
 40
0.0060343721373619
 40
0.0060343721373619
 40
0.0061001200138443
 40
0.0061001200138443
 40
0.006366569705153
 40
0.006366569705153
 40
0.0733611431548822
 40
0.0733611431548822
 40
0.1461777655560931
 40
0.1461777655560931
 40
0.1822197051437969
 40
0.1822197051437969
 40
0.2005090832404782
 40
0.2005090832404782
 40
0.2098937655499416
 40
0.2098937655499416
 40
0.2150065132639042
 40
0.2150065132639042
 40
0.2204217692680837
 40
0.2204217692680837
 40
0.2204217692680837
 40
0.2204217692680837
 10
15.9999668355028
 20
-3.998262424358184
 30
0.0
 10
15.99996641652539
 20
-3.99823832413253
 30
0.0
 10
15.9999659869502
 20
-3.998213613164888
 30
0.0
 10
15.99996402978036
 20
-3.998101022878848
 30
0.0
 10
15.99996237777246
 20
-3.998005972210852
 30
0.0
 10
15.99995717527557
 20
-3.997706576340049
 30
0.0
 10
15.99995334662654
 20
-3.997486157763103
 30
0.0
 10
15.99993419778044
 20
-3.996383236852678
 30
0.0
 10
15.99991873420481
 20
-3.995490967645442
 30
0.0
 10
15.99618180080711
 20
-3.779498253177797
 30
0.0
 10
15.99444383096304
 20
-3.585310489071034
 30
0.0
 10
15.99316940608419
 20
-3.16411734421517
 30
0.0
 10
15.99375519631806
 20
-2.938044960133389
 30
0.0
 10
15.99572386610159
 20
-2.597038662969745
 30
0.0
 10
15.99651060623962
 20
-2.485243501797019
 30
0.0
 10
15.99791998489873
 20
-2.319629821484001
 30
0.0
 10
15.99852173011659
 20
-2.262940977419568
 30
0.0
 10
15.99923838857588
 20
-2.180972796496207
 30
0.0
 10
15.99942028473832
 20
-2.153992747526817
 30
0.0
 10
15.99955633671192
 20
-2.117588879491616
 30
0.0
 10
15.99957946477245
 20
-2.105610824997075
 30
0.0
 10
15.99959432354561
 20
-2.084188241306816
 30
0.0
 10
15.99958391145035
 20
-2.074632507209831
 30
0.0
 10
15.99957228829784
 20
-2.069004766162864
 30
0.0
  0
SPLINE
  5
70D1
330
70C7
100
AcDbEntity
  8
0
100
AcDbSpline
210
0.0
220
0.0
230
1.0
 70
     8
 71
     3
 72
    12
 73
     8
 74
     0
 42
0.000000001
 43
0.0000000001
 40
0.0
 40
0.0
 40
0.0
 40
0.0
 40
0.0073680638625662
 40
0.0073680638625662
 40
0.0094714794567534
 40
0.0094714794567534
 40
0.0106892344334077
 40
0.0106892344334077
 40
0.0106892344334077
 40
0.0106892344334077
 10
15.9999605385382
 20
-3.999985503002879
 30
0.0
 10
16.00000120689111
 20
-3.988738678360724
 30
0.0
 10
16.00005705426697
 20
-3.976817397474526
 30
0.0
 10
16.00011475911484
 20
-3.966829073034028
 30
0.0
 10
16.00012596496213
 20
-3.965004429894504
 30
0.0
 10
16.00013624741454
 20
-3.963340749412846
 30
0.0
 10
16.00013843227598
 20
-3.962989239736111
 30
0.0
 10
16.00013843227593
 20
-3.962989239743637
 30
0.0
  0
LINE
  5
70D2
330
70C7
100
AcDbEntity
  8
0
100
AcDbLine
 10
-16.0
 20
-2.000000000000002
 30
0.0
 11
-16.0
 21
-2.06900476616292
 31
0.0
  0
SPLINE
  5
70D3
330
70C7
100
AcDbEntity
  8
0
100
AcDbSpline
210
0.0
220
0.0
230
1.0
 70
     8
 71
     3
 72
    11
 73
     7
 74
     0
 42
0.000000001
 43
0.0000000001
 40
-1.0
 40
-1.0
 40
-1.0
 40
-1.0
 40
-0.7994286890782019
 40
-0.7994286890782019
 40
-0.7994286890782019
 40
-0.6533573777220764
 40
-0.6533573777220764
 40
-0.6533573777220764
 40
-0.6533573777220764
 10
-16.0
 20
-1.999999999999996
 30
0.0
 10
-15.99999961270328
 20
-1.999093543231118
 30
0.0
 10
-16.12633150600001
 20
-1.919863896638299
 30
0.0
 10
-16.33607694562004
 20
-1.79068778621259
 30
0.0
 10
-16.48882955652664
 20
-1.696611899890424
 30
0.0
 10
-16.68837056419729
 20
-1.57739137785595
 30
0.0
 10
-16.91982716790676
 20
-1.445337717162873
 30
0.0
  0
SPLINE
  5
70D4
330
70C7
100
AcDbEntity
  8
0
100
AcDbSpline
210
0.0
220
0.0
230
1.0
 70
     8
 71
     3
 72
    40
 73
    36
 74
     0
 42
0.000000001
 43
0.0000000001
 40
0.0
 40
0.0
 40
0.0
 40
0.0
 40
0.0038040597942288
 40
0.0038040597942288
 40
0.0084789254058826
 40
0.0084789254058826
 40
0.0158054478023935
 40
0.0158054478023935
 40
0.0260000339300751
 40
0.0260000339300751
 40
0.0495206342345338
 40
0.0495206342345338
 40
0.1201103979100749
 40
0.1201103979100749
 40
0.1773337564829373
 40
0.1773337564829373
 40
0.1996793206863836
 40
0.1996793206863836
 40
0.2080576295089978
 40
0.2080576295089978
 40
0.2111994533926837
 40
0.2111994533926837
 40
0.2135558716229457
 40
0.2135558716229457
 40
0.2139977579538417
 40
0.2139977579538417
 40
0.2143300849950552
 40
0.2143300849950552
 40
0.2143843563663527
 40
0.2143843563663527
 40
0.2144316603914276
 40
0.2144316603914276
 40
0.2144792389228446
 40
0.2144792389228446
 40
0.214497159639196
 40
0.214497159639196
 40
0.214497159639196
 40
0.214497159639196
 10
-15.99957228829784
 20
-2.06900476616292
 30
0.0
 10
-15.99958045322432
 20
-2.072958090517702
 30
0.0
 10
-15.99958825487933
 20
-2.078881092792801
 30
0.0
 10
-15.99959053786113
 20
-2.094285445079129
 30
0.0
 10
-15.99958182785672
 20
-2.104402911716848
 30
0.0
 10
-15.99951287324433
 20
-2.13256280954869
 30
0.0
 10
-15.99942216624769
 20
-2.152170789495014
 30
0.0
 10
-15.99908018252531
 20
-2.201629641672582
 30
0.0
 10
-15.99878019266159
 20
-2.232656804318839
 30
0.0
 10
-15.9977792758553
 20
-2.33514902216122
 30
0.0
 10
-15.9971632484228
 20
-2.406783095992133
 30
0.0
 10
-15.9949874467043
 20
-2.695965522061747
 30
0.0
 10
-15.99378539074957
 20
-2.921302546859283
 30
0.0
 10
-15.99344334744236
 20
-3.312943747637421
 30
0.0
 10
-15.99387955181153
 20
-3.483506424362131
 30
0.0
 10
-15.99604610979199
 20
-3.724044484856804
 30
0.0
 10
-15.9968312050684
 20
-3.792158755487835
 30
0.0
 10
-15.99816331318168
 20
-3.886565428576281
 30
0.0
 10
-15.99855192424967
 20
-3.91237380749466
 30
0.0
 10
-15.99912013920835
 20
-3.947930082791909
 30
0.0
 10
-15.99927855675151
 20
-3.957633750611239
 30
0.0
 10
-15.99956197413828
 20
-3.974638552116878
 30
0.0
 10
-15.99968506331932
 20
-3.981912969468521
 30
0.0
 10
-15.99983522414567
 20
-3.990654824615705
 30
0.0
 10
-15.99985906979799
 20
-3.992039211948435
 30
0.0
 10
-15.9999015297574
 20
-3.994497290586549
 30
0.0
 10
-15.99992010925994
 20
-3.995570674652251
 30
0.0
 10
-15.99994240116703
 20
-3.99685563820497
 30
0.0
 10
-15.99994555604929
 20
-3.997037428290808
 30
0.0
 10
-15.99995141894689
 20
-3.997375137490497
 30
0.0
 10
-15.99995415569943
 20
-3.997532726840085
 30
0.0
 10
-15.99995943835567
 20
-3.997836825345943
 30
0.0
 10
-15.99996202133134
 20
-3.997985467140786
 30
0.0
 10
-15.99996520047261
 20
-3.998168370789735
 30
0.0
 10
-15.99996603703047
 20
-3.998216494966719
 30
0.0
 10
-15.99996683550313
 20
-3.998262424271048
 30
0.0
  0
SPLINE
  5
70D5
330
70C7
100
AcDbEntity
  8
0
100
AcDbSpline
210
0.0
220
0.0
230
1.0
 70
     8
 71
     3
 72
    14
 73
    10
 74
     0
 42
0.000000001
 43
0.0000000001
 40
0.0077867807841419
 40
0.0077867807841419
 40
0.0077867807841419
 40
0.0077867807841419
 40
0.0083979033046113
 40
0.0083979033046113
 40
0.0105249654767157
 40
0.0105249654767157
 40
0.0138644923047167
 40
0.0138644923047167
 40
0.0184801346869999
 40
0.0184801346869999
 40
0.0184801346869999
 40
0.0184801346869999
 10
-16.00013843227593
 20
-3.962989239742674
 30
0.0
 10
-16.0001384322759
 20
-3.962989239747924
 30
0.0
 10
-16.00013788506634
 20
-3.963077842476167
 30
0.0
 10
-16.00013331027593
 20
-3.963815700275084
 30
0.0
 10
-16.00012394049694
 20
-3.965314845068916
 30
0.0
 10
-16.00009364632267
 20
-3.970424767300743
 30
0.0
 10
-16.00006960355365
 20
-3.974738183116108
 30
0.0
 10
-16.0000154337418
 20
-3.985811780725551
 30
0.0
 10
-15.99998601477957
 20
-3.992940053688989
 30
0.0
 10
-15.99996053853821
 20
-3.999985503002881
 30
0.0
  0
SPLINE
  5
70D6
330
70C7
100
AcDbEntity
  8
0
100
AcDbSpline
210
0.0
220
0.0
230
1.0
 70
     8
 71
     3
 72
    10
 73
     6
 74
     0
 42
0.000000001
 43
0.0000000001
 40
0.0391508870947455
 40
0.0391508870947455
 40
0.0391508870947455
 40
0.0391508870947455
 40
0.0423952198737714
 40
0.0423952198737714
 40
0.0435411865247565
 40
0.0435411865247565
 40
0.0435411865247565
 40
0.0435411865247565
 10
-18.00093517807335
 20
-3.948632987334325
 30
0.0
 10
-18.00114838709425
 20
-3.939430202601668
 30
0.0
 10
-18.00138202191661
 20
-3.930374017871404
 30
0.0
 10
-18.00171424702425
 20
-3.918874905591654
 30
0.0
 10
-18.00180281590015
 20
-3.915923584521206
 30
0.0
 10
-18.00189265282579
 20
-3.913018667144816
 30
0.0
  0
SPLINE
  5
70D7
330
70C7
100
AcDbEntity
  8
0
100
AcDbSpline
210
0.0
220
0.0
230
1.0
 70
     8
 71
     3
 72
    14
 73
    10
 74
     0
 42
0.000000001
 43
0.0000000001
 40
0.0
 40
0.0
 40
0.0
 40
0.0
 40
0.0042629590855139
 40
0.0042629590855139
 40
0.0078984680214038
 40
0.0078984680214038
 40
0.0110131178306888
 40
0.0110131178306888
 40
0.013544739400884
 40
0.013544739400884
 40
0.013544739400884
 40
0.013544739400884
 10
-18.00037993280675
 20
-4.000001916296978
 30
0.0
 10
-18.00044514946016
 20
-3.987258229063724
 30
0.0
 10
-18.00055430095833
 20
-3.975277107472456
 30
0.0
 10
-18.00077809153914
 20
-3.957593796999903
 30
0.0
 10
-18.00088547667943
 20
-3.951225734346946
 30
0.0
 10
-18.00103360571421
 20
-3.943153125012611
 30
0.0
 10
-18.00108435725665
 20
-3.940732005535771
 30
0.0
 10
-18.00113729054077
 20
-3.938236590080959
 30
0.0
 10
-18.00114771962658
 20
-3.937776707587368
 30
0.0
 10
-18.00114771962298
 20
-3.937776707749043
 30
0.0
  0
SPLINE
  5
70D8
330
70C7
100
AcDbEntity
  8
0
100
AcDbSpline
210
0.0
220
0.0
230
1.0
 70
     8
 71
     3
 72
    22
 73
    18
 74
     0
 42
0.000000001
 43
0.0000000001
 40
0.0482395194453572
 40
0.0482395194453572
 40
0.0482395194453572
 40
0.0482395194453572
 40
0.0514008632970729
 40
0.0514008632970729
 40
0.0575622201430442
 40
0.0575622201430442
 40
0.0663109200961516
 40
0.0663109200961516
 40
0.0777691571463947
 40
0.0777691571463947
 40
0.0915297989388161
 40
0.0915297989388161
 40
0.1091261592783181
 40
0.1091261592783181
 40
0.1213991482580492
 40
0.1213991482580492
 40
0.1339581148868066
 40
0.1339581148868066
 40
0.1339581148868066
 40
0.1339581148868066
 10
-19.77819168980543
 20
-2.012338143879322
 30
0.0
 10
-19.78773190329531
 20
-2.011592479354475
 30
0.0
 10
-19.79769709887825
 20
-2.010871256516214
 30
0.0
 10
-19.82748728058909
 20
-2.008886430643864
 30
0.0
 10
-19.84801708769408
 20
-2.007736132905622
 30
0.0
 10
-19.89758371071627
 20
-2.005403899076771
 30
0.0
 10
-19.92707244649732
 20
-2.004384349542152
 30
0.0
 10
-19.99322601929415
 20
-2.002642063162963
 30
0.0
 10
-20.02998670635474
 20
-2.00207809568961
 30
0.0
 10
-20.10559934777724
 20
-2.001269034085867
 30
0.0
 10
-20.14300972116135
 20
-2.001099275458572
 30
0.0
 10
-20.23196538469488
 20
-2.000732926069638
 30
0.0
 10
-20.28654452181212
 20
-2.000520687818289
 30
0.0
 10
-20.38006146490202
 20
-2.000225594795117
 30
0.0
 10
-20.41875901636363
 20
-2.00013937361554
 30
0.0
 10
-20.49405116615839
 20
-2.000040768467263
 30
0.0
 10
-20.53186060223923
 20
-2.000021606546821
 30
0.0
 10
-20.56202985673011
 20
-2.000020061973677
 30
0.0
  0
LINE
  5
70D9
330
70C7
100
AcDbEntity
  8
0
100
AcDbLine
 10
-15.99999999999999
 20
-2.000000000000002
 30
0.0
 11
-13.99999999999999
 21
-1.999999999999999
 31
0.0
  0
LINE
  5
70DA
330
70C7
100
AcDbEntity
  8
0
100
AcDbLine
 10
-15.99999999999998
 20
-85.99999999999997
 30
0.0
 11
-13.99999999999997
 21
-85.99999999999997
 31
0.0
  0
LINE
  5
70DB
330
70C7
100
AcDbEntity
  8
0
100
AcDbLine
 10
14.0
 20
-1.999999999999999
 30
0.0
 11
-14.0
 21
-1.999999999999999
 31
0.0
  0
LINE
  5
70DC
330
70C7
100
AcDbEntity
  8
0
100
AcDbLine
 10
-13.99999999999997
 20
-85.99999999999997
 30
0.0
 11
13.99999999999997
 21
-85.99999999999997
 31
0.0
  0
CIRCLE
  5
70DD
330
70C7
100
AcDbEntity
  8
0
100
AcDbCircle
 10
0.0
 20
-47.99999999999998
 30
0.0
 40
2.5
  0
CIRCLE
  5
70DE
330
70C7
100
AcDbEntity
  8
0
100
AcDbCircle
 10
0.0
 20
-67.99999999999998
 30
0.0
 40
2.5
  0
LINE
  5
70DF
330
70C7
100
AcDbEntity
  8
0
100
AcDbLine
 10
15.99999999999999
 20
-2.000000000000002
 30
0.0
 11
13.99999999999999
 21
-1.999999999999999
 31
0.0
  0
LINE
  5
70E0
330
70C7
100
AcDbEntity
  8
0
100
AcDbLine
 10
19.99999999999999
 20
0.0
 30
0.0
 11
57.5
 21
0.0
 31
0.0
  0
ARC
  5
70E1
330
70C7
100
AcDbEntity
  8
0
100
AcDbCircle
 10
20.0
 20
-4.000000000000004
 30
0.0
 40
4.000000000000001
100
AcDbArc
 50
90.00000000000012
 51
180.0
  0
LINE
  5
70E2
330
70C7
100
AcDbEntity
  8
0
100
AcDbLine
 10
15.99999999999998
 20
-86.0
 30
0.0
 11
15.99999999999999
 21
-46.0
 31
0.0
  0
LINE
  5
70E3
330
70C7
100
AcDbEntity
  8
0
100
AcDbLine
 10
17.99999999999998
 20
-86.0
 30
0.0
 11
15.99999999999998
 21
-86.0
 31
0.0
  0
LINE
  5
70E4
330
70C7
100
AcDbEntity
  8
0
100
AcDbLine
 10
17.99999999999999
 20
-46.0
 30
0.0
 11
17.99999999999998
 21
-86.0
 31
0.0
  0
LINE
  5
70E5
330
70C7
100
AcDbEntity
  8
0
100
AcDbLine
 10
15.99999999999999
 20
-45.99999999999997
 30
0.0
 11
17.99999999999999
 21
-45.99999999999997
 31
0.0
  0
LINE
  5
70E6
330
70C7
100
AcDbEntity
  8
0
100
AcDbLine
 10
18.0
 20
-4.000000000000003
 30
0.0
 11
17.99999999999999
 21
-45.99999999999997
 31
0.0
  0
LINE
  5
70E7
330
70C7
100
AcDbEntity
  8
0
100
AcDbLine
 10
15.99999999999999
 20
-45.99999999999997
 30
0.0
 11
16.0
 21
-4.000000000000003
 31
0.0
  0
LINE
  5
70E8
330
70C7
100
AcDbEntity
  8
0
100
AcDbLine
 10
15.99999999999998
 20
-85.99999999999997
 30
0.0
 11
13.99999999999997
 21
-85.99999999999997
 31
0.0
  0
ARC
  5
70E9
330
70C7
100
AcDbEntity
  8
0
100
AcDbCircle
 10
20.0
 20
-4.000000000000004
 30
0.0
 40
2.000000000000001
100
AcDbArc
 50
90.00000000000026
 51
180.0
  0
LINE
  5
70EA
330
70C7
100
AcDbEntity
  8
0
100
AcDbLine
 10
57.5
 20
0.0
 30
0.0
 11
57.5
 21
-1.999999999999995
 31
0.0
  0
LINE
  5
70EB
330
70C7
100
AcDbEntity
  8
0
100
AcDbLine
 10
57.5
 20
-1.999999999999995
 30
0.0
 11
19.99999999999999
 21
-2.000000000000001
 31
0.0
  0
LINE
  5
70EC
330
70C7
100
AcDbEntity
  8
0
100
AcDbLine
 10
-57.5
 20
-1.999999999999995
 30
0.0
 11
-19.99999999999999
 21
-2.000000000000001
 31
0.0
  0
LINE
  5
70ED
330
70C7
100
AcDbEntity
  8
0
100
AcDbLine
 10
-15.99999999999999
 20
-45.99999999999997
 30
0.0
 11
-16.0
 21
-4.000000000000003
 31
0.0
  0
LINE
  5
70EE
330
70C7
100
AcDbEntity
  8
0
100
AcDbLine
 10
-18.0
 20
-4.000000000000003
 30
0.0
 11
-17.99999999999999
 21
-45.99999999999997
 31
0.0
  0
LINE
  5
70EF
330
70C7
100
AcDbEntity
  8
0
100
AcDbLine
 10
-19.99999999999999
 20
0.0
 30
0.0
 11
-57.5
 21
0.0
 31
0.0
  0
LINE
  5
70F0
330
70C7
100
AcDbEntity
  8
0
100
AcDbLine
 10
-57.5
 20
0.0
 30
0.0
 11
-57.5
 21
-1.999999999999995
 31
0.0
  0
ARC
  5
70F1
330
70C7
100
AcDbEntity
  8
0
100
AcDbCircle
 10
-20.0
 20
-4.000000000000004
 30
0.0
 40
2.000000000000001
100
AcDbArc
 50
0.0
 51
89.99999999999975
  0
ARC
  5
70F2
330
70C7
100
AcDbEntity
  8
0
100
AcDbCircle
 10
-20.0
 20
-4.000000000000004
 30
0.0
 40
4.000000000000001
100
AcDbArc
 50
0.0
 51
89.99999999999987
  0
LINE
  5
70F3
330
70C7
100
AcDbEntity
  8
0
100
AcDbLine
 10
-15.99999999999999
 20
-46.0
 30
0.0
 11
-15.99999999999998
 21
-86.0
 31
0.0
  0
LINE
  5
70F4
330
70C7
100
AcDbEntity
  8
0
100
AcDbLine
 10
-17.99999999999998
 20
-86.0
 30
0.0
 11
-17.99999999999999
 21
-46.0
 31
0.0
  0
LINE
  5
70F5
330
70C7
100
AcDbEntity
  8
0
100
AcDbLine
 10
-15.99999999999998
 20
-86.0
 30
0.0
 11
-17.99999999999998
 21
-86.0
 31
0.0
  0
LINE
  5
70F6
330
70C7
100
AcDbEntity
  8
0
100
AcDbLine
 10
-17.99999999999999
 20
-45.99999999999997
 30
0.0
 11
-15.99999999999999
 21
-45.99999999999997
 31
0.0
  0
ENDBLK
  5
70C9
330
70C7
100
AcDbEntity
  8
0
100
AcDbBlockEnd
  0
BLOCK
  5
70F8
330
70F7
100
AcDbEntity
  8
0
100
AcDbBlockBegin
  2
SAE300_32_2-Bottom
 70
     0
 10
0.0
 20
0.0
 30
0.0
  3
SAE300_32_2-Bottom
  1

  0
SPLINE
  5
70FA
330
70F7
100
AcDbEntity
  8
0
100
AcDbSpline
210
0.0
220
0.0
230
1.0
 70
     8
 71
     3
 72
    14
 73
    10
 74
     0
 42
0.000000001
 43
0.0000000001
 40
0.0
 40
0.0
 40
0.0
 40
0.0
 40
0.3435165591399867
 40
0.3435165591399867
 40
0.3435165591399867
 40
0.7569936138298773
 40
0.7569936138298773
 40
0.7569936138298773
 40
1.0
 40
1.0
 40
1.0
 40
1.0
 10
20.60606060606066
 20
2.000000000000003
 30
0.0
 10
20.2849024929084
 20
2.000036880260025
 30
0.0
 10
19.87245901693863
 20
1.996833903329653
 30
0.0
 10
19.47646762710382
 20
1.99867552125006
 30
0.0
 10
18.99982873097209
 20
2.000892202610343
 30
0.0
 10
18.53730090292723
 20
2.001068608700966
 30
0.0
 10
18.26243107018945
 20
2.001123034011752
 30
0.0
 10
18.10088613326208
 20
2.00115502054629
 30
0.0
 10
17.99999576702377
 20
2.000250549241812
 30
0.0
 10
17.99999999948816
 20
1.999999999992519
 30
0.0
  0
LINE
  5
70FB
330
70F7
100
AcDbEntity
  8
0
100
AcDbLine
 10
20.00008473460802
 20
2.000000000000005
 30
0.0
 11
20.00619229312373
 21
2.000000000000005
 31
0.0
  0
LINE
  5
70FC
330
70F7
100
AcDbEntity
  8
0
100
AcDbLine
 10
20.56202985673003
 20
2.000000000000005
 30
0.0
 11
20.60606060606067
 21
2.000000000000005
 31
0.0
  0
ARC
  5
70FD
330
70F7
100
AcDbEntity
  8
0
100
AcDbCircle
 10
20.0
 20
4.000000000000004
 30
0.0
 40
1.999999999999999
100
AcDbArc
 50
182.3035013800256
 51
263.5960480292106
  0
ARC
  5
70FE
330
70F7
100
AcDbEntity
  8
0
100
AcDbCircle
 10
20.0
 20
4.000000000000004
 30
0.0
 40
3.999999999999998
100
AcDbArc
 50
219.6927749101235
 51
270.0
  0
LINE
  5
70FF
330
70F7
100
AcDbEntity
  8
0
100
AcDbLine
 10
20.60606060606066
 20
0.0
 30
0.0
 11
20.0
 21
0.0
 31
0.0
  0
SPLINE
  5
7100
330
70F7
100
AcDbEntity
  8
0
100
AcDbSpline
210
0.0
220
0.0
230
1.0
 70
     8
 71
     3
 72
    17
 73
    13
 74
     0
 42
0.000000001
 43
0.0000000001
 40
-1.0
 40
-1.0
 40
-1.0
 40
-1.0
 40
-0.7994286890782019
 40
-0.7994286890782019
 40
-0.7994286890782019
 40
-0.3760960080994292
 40
-0.3760960080994292
 40
-0.3760960080994292
 40
-0.0765284972672135
 40
-0.0765284972672135
 40
-0.0765284972672135
 40
0.0
 40
0.0
 40
0.0
 40
0.0
 10
16.0
 20
1.999999999999996
 30
0.0
 10
15.99999961270328
 20
1.999093543231118
 30
0.0
 10
16.12633150600001
 20
1.919863896638299
 30
0.0
 10
16.33607694562004
 20
1.79068778621259
 30
0.0
 10
16.77877285696121
 20
1.518044261604794
 30
0.0
 10
17.61445008343574
 20
1.034207947882997
 30
0.0
 10
18.48107962101823
 20
0.6388614064394012
 30
0.0
 10
19.09434210948716
 20
0.3590980320111408
 30
0.0
 10
19.71765761685551
 20
0.1217220476563914
 30
0.0
 10
20.2339342069428
 20
0.0342615816139549
 30
0.0
 10
20.36582391522212
 20
0.0119186445647279
 30
0.0
 10
20.48832026105191
 20
0.0000045452574087
 30
0.0
 10
20.60606060611089
 20
0.0000000001152109
 30
0.0
  0
LINE
  5
7101
330
70F7
100
AcDbEntity
  8
0
100
AcDbLine
 10
20.60606060606067
 20
2.000000000000005
 30
0.0
 11
20.60606060606067
 21
0.0
 31
0.0
  0
SPLINE
  5
7102
330
70F7
100
AcDbEntity
  8
0
100
AcDbSpline
210
0.0
220
0.0
230
1.0
 70
     8
 71
     3
 72
    30
 73
    26
 74
     0
 42
0.000000001
 43
0.0000000001
 40
0.0371765708097168
 40
0.0371765708097168
 40
0.0371765708097168
 40
0.0371765708097168
 40
0.0391841751916616
 40
0.0391841751916616
 40
0.0416275644563684
 40
0.0416275644563684
 40
0.0440778641315667
 40
0.0440778641315667
 40
0.0471697400834434
 40
0.0471697400834434
 40
0.0514008632970685
 40
0.0514008632970685
 40
0.0575622201430693
 40
0.0575622201430693
 40
0.0663109200961746
 40
0.0663109200961746
 40
0.0777691571464098
 40
0.0777691571464098
 40
0.0915297989388548
 40
0.0915297989388548
 40
0.1091261592783101
 40
0.1091261592783101
 40
0.1213991482580489
 40
0.1213991482580489
 40
0.1339581148868139
 40
0.1339581148868139
 40
0.1339581148868139
 40
0.1339581148868139
 10
19.71468571208463
 20
2.018273760986114
 30
0.0
 10
19.71468571048274
 20
2.018273761169817
 30
0.0
 10
19.71557405735075
 20
2.018171464540885
 30
0.0
 10
19.71945229441505
 20
2.01774245050695
 30
0.0
 10
19.7229566686004
 20
2.017361611536527
 30
0.0
 10
19.73190006414647
 20
2.016438710631402
 30
0.0
 10
19.7373918343711
 20
2.015892004508423
 30
0.0
 10
19.75105072882043
 20
2.014605630624358
 30
0.0
 10
19.75965459351586
 20
2.013842527007231
 30
0.0
 10
19.78100011010283
 20
2.012087267025124
 30
0.0
 10
19.79427867726237
 20
2.011099015169441
 30
0.0
 10
19.827487280589
 20
2.008886430643869
 30
0.0
 10
19.84801708769409
 20
2.00773613290562
 30
0.0
 10
19.89758371071638
 20
2.005403899076766
 30
0.0
 10
19.92707244649741
 20
2.00438434954215
 30
0.0
 10
19.99322601929421
 20
2.002642063162964
 30
0.0
 10
20.02998670635476
 20
2.002078095689609
 30
0.0
 10
20.10559934777731
 20
2.001269034085865
 30
0.0
 10
20.14300972116148
 20
2.001099275458572
 30
0.0
 10
20.23196538469497
 20
2.000732926069638
 30
0.0
 10
20.28654452181205
 20
2.00052068781829
 30
0.0
 10
20.38006146490183
 20
2.000225594795119
 30
0.0
 10
20.41875901636348
 20
2.000139373615541
 30
0.0
 10
20.49405116615829
 20
2.000040768467264
 30
0.0
 10
20.53186060223913
 20
2.000021606546821
 30
0.0
 10
20.56202985673003
 20
2.000020061973677
 30
0.0
  0
SPLINE
  5
7103
330
70F7
100
AcDbEntity
  8
0
100
AcDbSpline
210
0.0
220
0.0
230
1.0
 70
     8
 71
     3
 72
     8
 73
     4
 74
     0
 42
0.000000001
 43
0.0000000001
 40
0.0
 40
0.0
 40
0.0
 40
0.0
 40
0.0035844670576064
 40
0.0035844670576064
 40
0.0035844670576064
 40
0.0035844670576064
 10
18.00006818308809
 20
3.999999804698426
 30
0.0
 10
18.00004435171771
 20
3.993919444700734
 30
0.0
 10
18.00002088735849
 20
3.98717646527221
 30
0.0
 10
18.00000004833697
 20
3.980382203412524
 30
0.0
  0
SPLINE
  5
7104
330
70F7
100
AcDbEntity
  8
0
100
AcDbSpline
210
0.0
220
0.0
230
1.0
 70
     8
 71
     3
 72
    24
 73
    20
 74
     0
 42
0.000000001
 43
0.0000000001
 40
0.0332189388495698
 40
0.0332189388495698
 40
0.0332189388495698
 40
0.0332189388495698
 40
0.0332261111850253
 40
0.0332261111850253
 40
0.0337115898632726
 40
0.0337115898632726
 40
0.0341490475403425
 40
0.0341490475403425
 40
0.0350733834296512
 40
0.0350733834296512
 40
0.0423952203668866
 40
0.0423952203668866
 40
0.0497847738267863
 40
0.0497847738267863
 40
0.0571728822222229
 40
0.0571728822222229
 40
0.0667680016967616
 40
0.0667680016967616
 40
0.0674413338394074
 40
0.0674413338394074
 40
0.0674413338394074
 40
0.0674413338394074
 10
18.00005333783114
 20
3.996120356414826
 30
0.0
 10
18.00005340413003
 20
3.996115667193734
 30
0.0
 10
18.000053471066
 20
3.996110933885799
 30
0.0
 10
18.00005808227427
 20
3.995784847903713
 30
0.0
 10
18.00006454604554
 20
3.995327963610693
 30
0.0
 10
18.00008531339871
 20
3.993886975564485
 30
0.0
 10
18.00009935162135
 20
3.992922241372387
 30
0.0
 10
18.00014976090734
 20
3.989537916384272
 30
0.0
 10
18.00019210276976
 20
3.986802831531572
 30
0.0
 10
18.0005823167746
 20
3.962835472676795
 30
0.0
 10
18.00107346692491
 20
3.941053849766955
 30
0.0
 10
18.00218671521559
 20
3.902521642515402
 30
0.0
 10
18.00282066528145
 20
3.885143223784493
 30
0.0
 10
18.00401021667551
 20
3.856605834264525
 30
0.0
 10
18.00457374207021
 20
3.845148087446376
 30
0.0
 10
18.00556084506279
 20
3.826280975837648
 30
0.0
 10
18.005898240225
 20
3.820811142198977
 30
0.0
 10
18.00594054363138
 20
3.820105345659745
 30
0.0
 10
18.00594192708506
 20
3.820082347905846
 30
0.0
 10
18.00594192710286
 20
3.820082347609957
 30
0.0
  0
SPLINE
  5
7105
330
70F7
100
AcDbEntity
  8
0
100
AcDbSpline
210
0.0
220
0.0
230
1.0
 70
     8
 71
     3
 72
    10
 73
     6
 74
     0
 42
0.000000001
 43
0.0000000001
 40
0.0
 40
0.0
 40
0.0
 40
0.0
 40
0.0042629590857346
 40
0.0042629590857346
 40
0.0074741982863935
 40
0.0074741982863935
 40
0.0074741982863935
 40
0.0074741982863935
 10
18.00037993280675
 20
4.00000191629698
 30
0.0
 10
18.00044514946016
 20
3.98725822906305
 30
0.0
 10
18.00055430095832
 20
3.975277107472325
 30
0.0
 10
18.0007660705282
 20
3.958543663914495
 30
0.0
 10
18.00086108440012
 20
3.952702520331794
 30
0.0
 10
18.00093624793624
 20
3.94848229803777
 30
0.0
  0
CIRCLE
  5
7106
330
70F7
100
AcDbEntity
  8
0
100
AcDbCircle
 10
0.0
 20
67.99999999999998
 30
0.0
 40
2.5
  0
CIRCLE
  5
7107
330
70F7
100
AcDbEntity
  8
0
100
AcDbCircle
 10
0.0
 20
47.99999999999998
 30
0.0
 40
2.5
  0
LINE
  5
7108
330
70F7
100
AcDbEntity
  8
0
100
AcDbLine
 10
14.0
 20
1.999999999999999
 30
0.0
 11
-14.0
 21
1.999999999999999
 31
0.0
  0
LINE
  5
7109
330
70F7
100
AcDbEntity
  8
0
100
AcDbLine
 10
13.99999999999998
 20
85.99999999999997
 30
0.0
 11
-13.99999999999997
 21
85.99999999999997
 31
0.0
  0
SPLINE
  5
710A
330
70F7
100
AcDbEntity
  8
0
100
AcDbSpline
210
0.0
220
0.0
230
1.0
 70
     8
 71
     3
 72
    17
 73
    13
 74
     0
 42
0.000000001
 43
0.0000000001
 40
-1.0
 40
-1.0
 40
-1.0
 40
-1.0
 40
-0.7994286890782019
 40
-0.7994286890782019
 40
-0.7994286890782019
 40
-0.3760960080994292
 40
-0.3760960080994292
 40
-0.3760960080994292
 40
-0.0765284972672135
 40
-0.0765284972672135
 40
-0.0765284972672135
 40
0.0
 40
0.0
 40
0.0
 40
0.0
 10
-16.0
 20
1.999999999999996
 30
0.0
 10
-15.99999961270328
 20
1.999093543231118
 30
0.0
 10
-16.12633150600001
 20
1.919863896638299
 30
0.0
 10
-16.33607694562004
 20
1.79068778621259
 30
0.0
 10
-16.77877285696121
 20
1.518044261604794
 30
0.0
 10
-17.61445008343574
 20
1.034207947882997
 30
0.0
 10
-18.48107962101823
 20
0.6388614064394012
 30
0.0
 10
-19.09434210948716
 20
0.3590980320111408
 30
0.0
 10
-19.71765761685551
 20
0.1217220476563914
 30
0.0
 10
-20.2339342069428
 20
0.0342615816139549
 30
0.0
 10
-20.36582391522212
 20
0.0119186445647279
 30
0.0
 10
-20.48832026105191
 20
0.0000045452574087
 30
0.0
 10
-20.60606060611089
 20
0.0000000001152109
 30
0.0
  0
LINE
  5
710B
330
70F7
100
AcDbEntity
  8
0
100
AcDbLine
 10
-20.0
 20
0.0
 30
0.0
 11
-20.60606060606066
 21
0.0
 31
0.0
  0
ARC
  5
710C
330
70F7
100
AcDbEntity
  8
0
100
AcDbCircle
 10
-20.0
 20
4.000000000000004
 30
0.0
 40
3.999999999999999
100
AcDbArc
 50
270.0
 51
320.3072250898764
  0
ARC
  5
710D
330
70F7
100
AcDbEntity
  8
0
100
AcDbCircle
 10
-20.0
 20
4.000000000000004
 30
0.0
 40
1.999999999999999
100
AcDbArc
 50
276.403951970786
 51
357.6964986199641
  0
LINE
  5
710E
330
70F7
100
AcDbEntity
  8
0
100
AcDbLine
 10
-20.60606060606067
 20
2.000000000000005
 30
0.0
 11
-20.56202985673012
 21
2.000000000000005
 31
0.0
  0
LINE
  5
710F
330
70F7
100
AcDbEntity
  8
0
100
AcDbLine
 10
-20.00619229312365
 20
2.000000000000005
 30
0.0
 11
-20.00008473460802
 21
2.000000000000005
 31
0.0
  0
SPLINE
  5
7110
330
70F7
100
AcDbEntity
  8
0
100
AcDbSpline
210
0.0
220
0.0
230
1.0
 70
     8
 71
     3
 72
    14
 73
    10
 74
     0
 42
0.000000001
 43
0.0000000001
 40
0.0
 40
0.0
 40
0.0
 40
0.0
 40
0.3435165591399867
 40
0.3435165591399867
 40
0.3435165591399867
 40
0.7569936138298773
 40
0.7569936138298773
 40
0.7569936138298773
 40
1.0
 40
1.0
 40
1.0
 40
1.0
 10
-20.60606060606066
 20
2.000000000000003
 30
0.0
 10
-20.2849024929084
 20
2.000036880260025
 30
0.0
 10
-19.87245901693863
 20
1.996833903329653
 30
0.0
 10
-19.47646762710382
 20
1.99867552125006
 30
0.0
 10
-18.99982873097209
 20
2.000892202610343
 30
0.0
 10
-18.53730090292723
 20
2.001068608700966
 30
0.0
 10
-18.26243107018945
 20
2.001123034011752
 30
0.0
 10
-18.10088613326208
 20
2.00115502054629
 30
0.0
 10
-17.99999576702377
 20
2.000250549241812
 30
0.0
 10
-17.99999999948816
 20
1.999999999992519
 30
0.0
  0
LINE
  5
7111
330
70F7
100
AcDbEntity
  8
0
100
AcDbLine
 10
-20.60606060606067
 20
0.0
 30
0.0
 11
-20.60606060606067
 21
2.000000000000005
 31
0.0
  0
SPLINE
  5
7112
330
70F7
100
AcDbEntity
  8
0
100
AcDbSpline
210
0.0
220
0.0
230
1.0
 70
     8
 71
     3
 72
    10
 73
     6
 74
     0
 42
0.000000001
 43
0.0000000001
 40
0.0194209736562461
 40
0.0194209736562461
 40
0.0194209736562461
 40
0.0194209736562461
 40
0.0196622418997218
 40
0.0196622418997218
 40
0.0230051734935774
 40
0.0230051734935774
 40
0.0230051734935774
 40
0.0230051734935774
 10
-18.00000000127187
 20
3.980395661608818
 30
0.0
 10
-18.00000140350729
 20
3.98085284020407
 30
0.0
 10
-18.00000281603313
 20
3.981310170680977
 30
0.0
 10
-18.00002398160371
 20
3.988091081095946
 30
0.0
 10
-18.00004595756901
 20
3.99432916323016
 30
0.0
 10
-18.00006818308809
 20
3.999999804698427
 30
0.0
  0
SPLINE
  5
7113
330
70F7
100
AcDbEntity
  8
0
100
AcDbSpline
210
0.0
220
0.0
230
1.0
 70
     8
 71
     3
 72
    14
 73
    10
 74
     0
 42
0.000000001
 43
0.0000000001
 40
0.0358655440587816
 40
0.0358655440587816
 40
0.0358655440587816
 40
0.0358655440587816
 40
0.0359537591569067
 40
0.0359537591569067
 40
0.0382249010549531
 40
0.0382249010549531
 40
0.0413340214632128
 40
0.0413340214632128
 40
0.0433661955395596
 40
0.0433661955395596
 40
0.0433661955395596
 40
0.0433661955395596
 10
-18.00093636722049
 20
3.948475628061666
 30
0.0
 10
-18.00093431021519
 20
3.948591123155023
 30
0.0
 10
-18.00093225022434
 20
3.948707461659146
 30
0.0
 10
-18.00087662470507
 20
3.951851206453394
 30
0.0
 10
-18.00081397901764
 20
3.95564322938118
 30
0.0
 10
-18.00066070315346
 20
3.966444203735437
 30
0.0
 10
-18.00056980500375
 20
3.974140971259514
 30
0.0
 10
-18.0004508740219
 20
3.988060775561332
 30
0.0
 10
-18.00041102191404
 20
3.993926936379729
 30
0.0
 10
-18.00037993280674
 20
4.000001916296978
 30
0.0
  0
SPLINE
  5
7114
330
70F7
100
AcDbEntity
  8
0
100
AcDbSpline
210
0.0
220
0.0
230
1.0
 70
     8
 71
     3
 72
    26
 73
    22
 74
     0
 42
0.000000001
 43
0.0000000001
 40
0.0423486644443178
 40
0.0423486644443178
 40
0.0423486644443178
 40
0.0423486644443178
 40
0.048363652994934
 40
0.048363652994934
 40
0.0586880658927459
 40
0.0586880658927459
 40
0.0674413381330379
 40
0.0674413381330379
 40
0.0715211997071095
 40
0.0715211997071095
 40
0.0739353548341241
 40
0.0739353548341241
 40
0.0748404282714261
 40
0.0748404282714261
 40
0.075520318629278
 40
0.075520318629278
 40
0.0758686409855226
 40
0.0758686409855226
 40
0.0761955794055832
 40
0.0761955794055832
 40
0.076545093282246
 40
0.076545093282246
 40
0.076545093282246
 40
0.076545093282246
 10
-18.00594192710285
 20
3.820082347610148
 30
0.0
 10
-18.00594192739653
 20
3.820082342727019
 30
0.0
 10
-18.0058279343146
 20
3.821949407457851
 30
0.0
 10
-18.00523926439421
 20
3.832329603953958
 30
0.0
 10
-18.00453526993882
 20
3.845111578876915
 30
0.0
 10
-18.00303841265083
 20
3.879316908174221
 30
0.0
 10
-18.00226930133387
 20
3.899547668911423
 30
0.0
 10
-18.00130080725958
 20
3.933241313466622
 30
0.0
 10
-18.00101327303086
 20
3.944620218216377
 30
0.0
 10
-18.00061012473117
 20
3.963309123448113
 30
0.0
 10
-18.00047172798987
 20
3.970404377904146
 30
0.0
 10
-18.00030096611946
 20
3.98016366187617
 30
0.0
 10
-18.00025634559625
 20
3.982828161583761
 30
0.0
 10
-18.00018293879341
 20
3.98740448467835
 30
0.0
 10
-18.0001526220795
 20
3.989363714262798
 30
0.0
 10
-18.00011259007804
 20
3.992028817150958
 30
0.0
 10
-18.00010004176164
 20
3.992879466796439
 30
0.0
 10
-18.00008017113708
 20
3.994241779382862
 30
0.0
 10
-18.00007255573594
 20
3.994771471568522
 30
0.0
 10
-18.00006075798056
 20
3.995596128930791
 30
0.0
 10
-18.00005647525464
 20
3.995897847935516
 30
0.0
 10
-18.00005322915263
 20
3.996127439870134
 30
0.0
  0
SPLINE
  5
7115
330
70F7
100
AcDbEntity
  8
0
100
AcDbSpline
210
0.0
220
0.0
230
1.0
 70
     8
 71
     3
 72
    34
 73
    30
 74
     0
 42
0.000000001
 43
0.0000000001
 40
0.0
 40
0.0
 40
0.0
 40
0.0
 40
0.0070452398529249
 40
0.0070452398529249
 40
0.0166405949176401
 40
0.0166405949176401
 40
0.0367140942456978
 40
0.0367140942456978
 40
0.0488284899557852
 40
0.0488284899557852
 40
0.0619891282238183
 40
0.0619891282238183
 40
0.07052136794143
 40
0.07052136794143
 40
0.0770085533066208
 40
0.0770085533066208
 40
0.082490560722548
 40
0.082490560722548
 40
0.086828919313864
 40
0.086828919313864
 40
0.0899294289641982
 40
0.0899294289641982
 40
0.092048188227325
 40
0.092048188227325
 40
0.0936272396574067
 40
0.0936272396574067
 40
0.0962577966440508
 40
0.0962577966440508
 40
0.0968493192558611
 40
0.0968493192558611
 40
0.0968493192558611
 40
0.0968493192558611
 10
-20.56202985673012
 20
2.000020061973678
 30
0.0
 10
-20.54510572273447
 20
2.000020928437344
 30
0.0
 10
-20.52555210340246
 20
2.00002813429159
 30
0.0
 10
-20.47775545398806
 20
2.000061132070828
 30
0.0
 10
-20.44841962904377
 20
2.00009368968806
 30
0.0
 10
-20.3565722406389
 20
2.000268440249898
 30
0.0
 10
-20.29198494485708
 20
2.000513808507295
 30
0.0
 10
-20.19633422825481
 20
2.000879055387197
 30
0.0
 10
-20.16273081690213
 20
2.000996414973783
 30
0.0
 10
-20.09183574222017
 20
2.001409809827909
 30
0.0
 10
-20.0525373139761
 20
2.00173120754498
 30
0.0
 10
-19.98400779043858
 20
2.002903978530683
 30
0.0
 10
-19.95599554152521
 20
2.003538353546551
 30
0.0
 10
-19.9062851287029
 20
2.005134925830566
 30
0.0
 10
-19.88449296311578
 20
2.005989885789886
 30
0.0
 10
-19.84475199434055
 20
2.007923221121672
 30
0.0
 10
-19.82655876588139
 20
2.008956309578991
 30
0.0
 10
-19.79512880223614
 20
2.011036511934223
 30
0.0
 10
-19.78148569497953
 20
2.01204825537017
 30
0.0
 10
-19.75978816433217
 20
2.01383089719017
 30
0.0
 10
-19.75115339621032
 20
2.014596259835855
 30
0.0
 10
-19.73827976293437
 20
2.015808179377046
 30
0.0
 10
-19.73346793475716
 20
2.016283006395939
 30
0.0
 10
-19.72630853373525
 20
2.017013227019742
 30
0.0
 10
-19.72361988369501
 20
2.017296128108512
 30
0.0
 10
-19.71781348313187
 20
2.01791871267831
 30
0.0
 10
-19.71557832695448
 20
2.018172183284033
 30
0.0
 10
-19.71476046658705
 20
2.018265184441559
 30
0.0
 10
-19.71468570912846
 20
2.018273761325131
 30
0.0
 10
-19.71468571208629
 20
2.018273760985925
 30
0.0
  0
LINE
  5
7116
330
70F7
100
AcDbEntity
  8
0
100
AcDbLine
 10
-17.99999999999999
 20
2.000000000000006
 30
0.0
 11
-13.99999999999999
 21
1.999999999999999
 31
0.0
  0
LINE
  5
7117
330
70F7
100
AcDbEntity
  8
0
100
AcDbLine
 10
-13.99999999999997
 20
85.99999999999997
 30
0.0
 11
-17.99999999999998
 21
85.99999999999997
 31
0.0
  0
LINE
  5
7118
330
70F7
100
AcDbEntity
  8
0
100
AcDbLine
 10
-17.99999999999999
 20
2.000000000000006
 30
0.0
 11
-17.99999999999998
 21
85.99999999999997
 31
0.0
  0
LINE
  5
7119
330
70F7
100
AcDbEntity
  8
0
100
AcDbLine
 10
17.99999999999999
 20
2.000000000000006
 30
0.0
 11
13.99999999999999
 21
1.999999999999999
 31
0.0
  0
LINE
  5
711A
330
70F7
100
AcDbEntity
  8
0
100
AcDbLine
 10
17.99999999999999
 20
2.000000000000006
 30
0.0
 11
17.99999999999998
 21
85.99999999999997
 31
0.0
  0
LINE
  5
711B
330
70F7
100
AcDbEntity
  8
0
100
AcDbLine
 10
13.99999999999997
 20
85.99999999999997
 30
0.0
 11
17.99999999999998
 21
85.99999999999997
 31
0.0
  0
LINE
  5
711C
330
70F7
100
AcDbEntity
  8
0
100
AcDbLine
 10
57.5000000000001
 20
0.0
 30
0.0
 11
20.60606060606066
 21
0.0
 31
0.0
  0
LINE
  5
711D
330
70F7
100
AcDbEntity
  8
0
100
AcDbLine
 10
57.5000000000001
 20
2.000000000000001
 30
0.0
 11
57.5000000000001
 21
0.0
 31
0.0
  0
LINE
  5
711E
330
70F7
100
AcDbEntity
  8
0
100
AcDbLine
 10
20.60606060606067
 20
2.000000000000005
 30
0.0
 11
57.5000000000001
 21
2.000000000000001
 31
0.0
  0
LINE
  5
711F
330
70F7
100
AcDbEntity
  8
0
100
AcDbLine
 10
-57.5000000000001
 20
2.000000000000001
 30
0.0
 11
-20.60606060606067
 21
2.000000000000005
 31
0.0
  0
LINE
  5
7120
330
70F7
100
AcDbEntity
  8
0
100
AcDbLine
 10
-57.5000000000001
 20
0.0
 30
0.0
 11
-57.5000000000001
 21
2.000000000000001
 31
0.0
  0
LINE
  5
7121
330
70F7
100
AcDbEntity
  8
0
100
AcDbLine
 10
-20.60606060606066
 20
0.0
 30
0.0
 11
-57.5000000000001
 21
0.0
 31
0.0
  0
ENDBLK
  5
70F9
330
70F7
100
AcDbEntity
  8
0
100
AcDbBlockEnd
  0
BLOCK
  5
7123
330
7122
100
AcDbEntity
  8
0
100
AcDbBlockBegin
  2
SAE300_32_2-ISO
 70
     0
 10
0.0
 20
0.0
 30
0.0
  3
SAE300_32_2-ISO
  1

  0
LINE
  5
7125
330
7122
100
AcDbEntity
  8
0
100
AcDbLine
 10
41.4918412188557
 20
-25.03446915878401
 30
0.0
 11
41.35821475318111
 21
-25.1116184347121
 31
0.0
  0
SPLINE
  5
7126
330
7122
100
AcDbEntity
  8
0
100
AcDbSpline
210
0.0
220
0.0
230
1.0
 70
     8
 71
     3
 72
    14
 73
    10
 74
     0
 42
0.000000001
 43
0.0000000001
 40
0.0
 40
0.0
 40
0.0
 40
0.0
 40
0.3435165591399867
 40
0.3435165591399867
 40
0.3435165591399867
 40
0.7569936138298773
 40
0.7569936138298773
 40
0.7569936138298773
 40
1.0
 40
1.0
 40
1.0
 40
1.0
 10
43.33460434558432
 20
-24.00611645742622
 30
0.0
 10
43.10748518765933
 20
-24.08731495723562
 30
0.0
 10
42.81810845565241
 20
-24.1031373036619
 30
0.0
 10
42.53679803808885
 20
-24.13101036230744
 30
0.0
 10
42.19819601203525
 20
-24.1645600410269
 30
0.0
 10
41.87101471039432
 20
-24.21616832748449
 30
0.0
 10
41.6766139032155
 20
-24.44156875665291
 30
0.0
 10
41.56236176495233
 20
-24.57403981668426
 30
0.0
 10
41.4916610606216
 20
-24.74207657772666
 30
0.0
 10
41.49184121849907
 20
-25.03446915722243
 30
0.0
  0
LINE
  5
7127
330
7122
100
AcDbEntity
  8
0
100
AcDbLine
 10
42.9060547812288
 20
-23.75869325108446
 30
0.0
 11
43.33460434558433
 21
-24.00611645742622
 31
0.0
  0
ELLIPSE
  5
7128
330
7122
100
AcDbEntity
  8
0
100
AcDbEllipse
 10
41.4918412188557
 20
-24.57518983201218
 30
0.0
 11
1.999999999999998
 21
-0.0000000000001198
 31
0.0
210
0.0
220
0.0
230
1.0
 40
0.577350269189626
 41
0.7853981633976961
 42
2.35619449019259
  0
LINE
  5
7129
330
7122
100
AcDbEntity
  8
0
100
AcDbLine
 10
40.07762765648261
 20
-23.95405155787398
 30
0.0
 11
40.07762765648261
 21
-23.75869325108445
 31
0.0
  0
LINE
  5
712A
330
7122
100
AcDbEntity
  8
0
100
AcDbLine
 10
40.07762765648261
 20
-25.85096573971173
 30
0.0
 11
40.07762765648261
 21
-23.95405155787398
 31
0.0
  0
LINE
  5
712B
330
7122
100
AcDbEntity
  8
0
100
AcDbLine
 10
41.35821475318111
 20
-25.1116184347121
 30
0.0
 11
40.07762765648261
 21
-25.85096573971174
 31
0.0
  0
ELLIPSE
  5
712C
330
7122
100
AcDbEntity
  8
0
100
AcDbEllipse
 10
-17.90512840081426
 20
-65.85929820517032
 30
0.0
 11
-2.5
 21
0.0000000000000003
 31
0.0
210
0.0
220
0.0
230
1.0
 40
0.577350269189626
 41
5.313653197063827
 42
5.681921090500463
  0
LINE
  5
712D
330
7122
100
AcDbEntity
  8
0
100
AcDbLine
 10
-20.73355552556046
 20
-78.92324350001392
 30
0.0
 11
-40.53254539878375
 21
-67.49229136702578
 31
0.0
  0
LINE
  5
712E
330
7122
100
AcDbEntity
  8
0
100
AcDbLine
 10
-40.53254539878375
 20
-65.85929820517032
 30
0.0
 11
-20.73355552556046
 21
-77.29025033815847
 31
0.0
  0
ELLIPSE
  5
712F
330
7122
100
AcDbEntity
  8
0
100
AcDbEllipse
 10
-17.90512840081426
 20
-64.22630504331486
 30
0.0
 11
-2.5
 21
-0.0000000000000004
 31
0.0
210
0.0
220
0.0
230
1.0
 40
0.577350269189626
 41
5.313653197063825
 42
7.252717417295343
  0
LINE
  5
7130
330
7122
100
AcDbEntity
  8
0
100
AcDbLine
 10
41.4918412188557
 20
-42.99739393919398
 30
0.0
 11
41.4918412188557
 21
-25.03446915878401
 31
0.0
  0
ELLIPSE
  5
7131
330
7122
100
AcDbEntity
  8
0
100
AcDbEllipse
 10
38.66341409410952
 20
-41.36440077733853
 30
0.0
 11
1.999999999999996
 21
-3.464101615137758
 31
0.0
210
0.0
220
0.0
230
1.0
 40
0.5773502691896246
 41
0.0
 42
0.7853981633974499
  0
LINE
  5
7132
330
7122
100
AcDbEntity
  8
0
100
AcDbLine
 10
-20.73355552556046
 20
-77.29025033815847
 30
0.0
 11
-19.31934196318738
 21
-76.47375375723076
 31
0.0
  0
LINE
  5
7133
330
7122
100
AcDbEntity
  8
0
100
AcDbLine
 10
41.4918412188557
 20
-42.99739393919398
 30
0.0
 11
-17.90512840081427
 21
-77.29025033815847
 31
0.0
  0
ELLIPSE
  5
7134
330
7122
100
AcDbEntity
  8
0
100
AcDbEllipse
 10
-20.73355552556046
 20
-75.65725717630302
 30
0.0
 11
2.000000000000001
 21
-3.464101615137758
 31
0.0
210
0.0
220
0.0
230
0.9999999999999998
 40
0.5773502691896258
 41
5.497787143782137
 42
7.068583470577034
  0
LINE
  5
7135
330
7122
100
AcDbEntity
  8
0
100
AcDbLine
 10
69.42255907572439
 20
-14.21588946149169
 30
0.0
 11
70.8367726380975
 21
-13.39939288056396
 31
0.0
  0
LINE
  5
7136
330
7122
100
AcDbEntity
  8
0
100
AcDbLine
 10
43.33460434558433
 20
-24.00611645742622
 30
0.0
 11
69.42255907572439
 21
-14.21588946149169
 31
0.0
  0
ELLIPSE
  5
7137
330
7122
100
AcDbEntity
  8
0
100
AcDbEllipse
 10
57.04819040495976
 20
41.10175389636181
 30
0.0
 11
-3.25
 21
5.629165124598854
 31
0.0
210
0.0
220
0.0
230
1.0
 40
0.5773502691896257
 41
0.2193254863005896
 42
2.922267167289198
  0
ELLIPSE
  5
7138
330
7122
100
AcDbEntity
  8
0
100
AcDbEllipse
 10
64.82636499801177
 20
40.69350560589795
 30
0.0
 11
1.250000000000129
 21
-2.165063509461022
 31
0.0
210
0.0
220
0.0
230
1.0
 40
0.5773502691896259
 41
3.742856870268576
 42
5.681921090500121
  0
LINE
  5
7139
330
7122
100
AcDbEntity
  8
0
100
AcDbLine
 10
44.32026834360189
 20
64.78015474326588
 30
0.0
 11
70.83677263809744
 21
49.47084385087102
 31
0.0
  0
LINE
  5
713A
330
7122
100
AcDbEntity
  8
0
100
AcDbLine
 10
70.8367726380975
 20
-13.39939288056396
 30
0.0
 11
70.83677263809744
 21
49.47084385087102
 31
0.0
  0
ELLIPSE
  5
713B
330
7122
100
AcDbEntity
  8
0
100
AcDbEllipse
 10
41.4918412188557
 20
63.14716158141043
 30
0.0
 11
4.000000000000001
 21
-0.0000000000002383
 31
0.0
210
0.0
220
0.0
230
1.0
 40
0.577350269189626
 41
0.7853981633976908
 42
2.356194490192585
  0
ELLIPSE
  5
713C
330
7122
100
AcDbEntity
  8
0
100
AcDbEllipse
 10
14.26823014317363
 20
38.4481400083467
 30
0.0
 11
1.24999999999987
 21
2.165063509461171
 31
0.0
210
0.0
220
0.0
230
1.0
 40
0.577350269189626
 41
3.74285687026858
 42
5.681921090500118
  0
ELLIPSE
  5
713D
330
7122
100
AcDbEntity
  8
0
100
AcDbEllipse
 10
15.68244370554673
 20
37.63164342741898
 30
0.0
 11
-1.25
 21
-2.165063509461097
 31
0.0
210
0.0
220
0.0
230
0.9999999999999998
 40
0.5773502691896259
 41
0.0
 42
6.283185307179586
  0
LINE
  5
713E
330
7122
100
AcDbEntity
  8
0
100
AcDbLine
 10
-19.31934196318738
 20
-58.51082897682076
 30
0.0
 11
8.964929284274525
 21
-15.2365101876513
 31
0.0
  0
LINE
  5
713F
330
7122
100
AcDbEntity
  8
0
100
AcDbLine
 10
-17.90512840081429
 20
-59.32732555774849
 30
0.0
 11
-19.31934196318738
 21
-58.51082897682076
 31
0.0
  0
LINE
  5
7140
330
7122
100
AcDbEntity
  8
0
100
AcDbLine
 10
10.37914284664762
 20
-16.05300676857902
 30
0.0
 11
-17.90512840081429
 21
-59.32732555774849
 31
0.0
  0
LINE
  5
7141
330
7122
100
AcDbEntity
  8
0
100
AcDbLine
 10
10.37914284664762
 20
-16.05300676857902
 30
0.0
 11
8.964929284274525
 21
-15.2365101876513
 31
0.0
  0
LINE
  5
7142
330
7122
100
AcDbEntity
  8
0
100
AcDbLine
 10
8.964929284274525
 20
-15.2365101876513
 30
0.0
 11
8.964929284274539
 21
47.63372654378362
 31
0.0
  0
LINE
  5
7143
330
7122
100
AcDbEntity
  8
0
100
AcDbLine
 10
10.37914284664763
 20
46.8172299628559
 30
0.0
 11
10.37914284664762
 21
-16.05300676857902
 31
0.0
  0
LINE
  5
7144
330
7122
100
AcDbEntity
  8
0
100
AcDbLine
 10
8.964929284274539
 20
47.63372654378362
 30
0.0
 11
10.37914284664763
 21
46.8172299628559
 31
0.0
  0
LINE
  5
7145
330
7122
100
AcDbEntity
  8
0
100
AcDbLine
 10
-17.90512840081429
 20
-59.32732555774849
 30
0.0
 11
-17.90512840081427
 21
-77.29025033815847
 31
0.0
  0
LINE
  5
7146
330
7122
100
AcDbEntity
  8
0
100
AcDbLine
 10
40.07762765648261
 20
-23.75869325108445
 30
0.0
 11
40.07762765648261
 21
63.96365816233817
 31
0.0
  0
LINE
  5
7147
330
7122
100
AcDbEntity
  8
0
100
AcDbLine
 10
40.07762765648261
 20
63.96365816233817
 30
0.0
 11
10.37914284664763
 21
46.8172299628559
 31
0.0
  0
LINE
  5
7148
330
7122
100
AcDbEntity
  8
0
100
AcDbLine
 10
8.964929284274539
 20
47.63372654378362
 30
0.0
 11
38.66341409410952
 21
64.78015474326588
 31
0.0
  0
LINE
  5
7149
330
7122
100
AcDbEntity
  8
0
100
AcDbLine
 10
-19.31934196318736
 20
-76.47375375723074
 30
0.0
 11
-19.31934196318738
 21
-58.51082897682076
 31
0.0
  0
LINE
  5
714A
330
7122
100
AcDbEntity
  8
0
100
AcDbLine
 10
-20.73355552556046
 20
-77.29025033815847
 30
0.0
 11
-20.73355552556046
 21
-78.92324350001392
 31
0.0
  0
LINE
  5
714B
330
7122
100
AcDbEntity
  8
0
100
AcDbLine
 10
-19.31934196318736
 20
-76.47375375723074
 30
0.0
 11
-17.90512840081427
 21
-77.29025033815847
 31
0.0
  0
ELLIPSE
  5
714C
330
7122
100
AcDbEntity
  8
0
100
AcDbEllipse
 10
-20.73355552556046
 20
-75.65725717630302
 30
0.0
 11
1.000000000000001
 21
-1.732050807568881
 31
0.0
210
0.0
220
0.0
230
1.0
 40
0.5773502691896258
 41
5.497787143782137
 42
7.068583470577029
  0
LINE
  5
714D
330
7122
100
AcDbEntity
  8
0
100
AcDbLine
 10
42.90605478122881
 20
-23.75869325108445
 30
0.0
 11
42.9060547812288
 21
63.96365816233817
 31
0.0
  0
ELLIPSE
  5
714E
330
7122
100
AcDbEntity
  8
0
100
AcDbEllipse
 10
41.4918412188557
 20
63.14716158141043
 30
0.0
 11
-2.000000000000001
 21
-0.0000000000001195
 31
0.0
210
0.0
220
0.0
230
1.0
 40
0.5773502691896259
 41
3.926990816987
 42
5.497787143781896
  0
LINE
  5
714F
330
7122
100
AcDbEntity
  8
0
100
AcDbLine
 10
70.83677263809744
 20
49.47084385087102
 30
0.0
 11
69.42255907572434
 21
48.6543472699433
 31
0.0
  0
LINE
  5
7150
330
7122
100
AcDbEntity
  8
0
100
AcDbLine
 10
69.42255907572439
 20
-14.21588946149169
 30
0.0
 11
69.42255907572434
 21
48.65434726994329
 31
0.0
  0
LINE
  5
7151
330
7122
100
AcDbEntity
  8
0
100
AcDbLine
 10
40.07762765648261
 20
63.96365816233817
 30
0.0
 11
38.66341409410952
 21
64.78015474326588
 31
0.0
  0
LINE
  5
7152
330
7122
100
AcDbEntity
  8
0
100
AcDbLine
 10
42.9060547812288
 20
63.96365816233817
 30
0.0
 11
44.32026834360189
 21
64.78015474326588
 31
0.0
  0
LINE
  5
7153
330
7122
100
AcDbEntity
  8
0
100
AcDbLine
 10
69.42255907572434
 20
48.6543472699433
 30
0.0
 11
42.9060547812288
 21
63.96365816233817
 31
0.0
  0
ELLIPSE
  5
7154
330
7122
100
AcDbEntity
  8
0
100
AcDbEllipse
 10
55.63397684258667
 20
40.28525731543409
 30
0.0
 11
-3.25
 21
5.629165124598853
 31
0.0
210
0.0
220
0.0
230
1.0
 40
0.5773502691896259
 41
0.0
 42
6.283185307179586
  0
ELLIPSE
  5
7155
330
7122
100
AcDbEntity
  8
0
100
AcDbEllipse
 10
63.41215143563869
 20
39.87700902497024
 30
0.0
 11
-1.249999999999999
 21
2.165063509461097
 31
0.0
210
0.0
220
0.0
230
0.9999999999999998
 40
0.5773502691896259
 41
0.0
 42
6.283185307179586
  0
LINE
  5
7156
330
7122
100
AcDbEntity
  8
0
100
AcDbLine
 10
-18.73355552556046
 20
-79.12135879144077
 30
0.0
 11
40.66341409410951
 21
-44.82850239247629
 31
0.0
  0
LINE
  5
7157
330
7122
100
AcDbEntity
  8
0
100
AcDbLine
 10
-14.1767471909216
 20
-50.64277101515362
 30
0.0
 11
-40.53254539878375
 21
-65.85929820517032
 31
0.0
  0
ELLIPSE
  5
7158
330
7122
100
AcDbEntity
  8
0
100
AcDbEllipse
 10
-40.53254539878375
 20
-64.22630504331486
 30
0.0
 11
2.000000000000207
 21
-3.464101615137639
 31
0.0
210
0.0
220
0.0
230
1.0
 40
0.5773502691896257
 41
3.926990816986997
 42
5.497787143781897
  0
LINE
  5
7159
330
7122
100
AcDbEntity
  8
0
100
AcDbLine
 10
-41.94675896115685
 20
-63.40980846238714
 30
0.0
 11
-10.74835067607774
 21
-45.39739904070884
 31
0.0
  0
LINE
  5
715A
330
7122
100
AcDbEntity
  8
0
100
AcDbLine
 10
-43.36097252352995
 20
-62.59331188145941
 30
0.0
 11
-41.94675896115685
 21
-63.40980846238714
 31
0.0
  0
LINE
  5
715B
330
7122
100
AcDbEntity
  8
0
100
AcDbLine
 10
-40.53254539878375
 20
-67.49229136702578
 30
0.0
 11
-40.53254539878375
 21
-65.85929820517032
 31
0.0
  0
ELLIPSE
  5
715C
330
7122
100
AcDbEntity
  8
0
100
AcDbEllipse
 10
-40.53254539878375
 20
-64.22630504331486
 30
0.0
 11
1.000000000000105
 21
-1.732050807568821
 31
0.0
210
0.0
220
0.0
230
1.0
 40
0.5773502691896257
 41
3.926990816987006
 42
5.497787143781897
  0
ELLIPSE
  5
715D
330
7122
100
AcDbEntity
  8
0
100
AcDbEllipse
 10
57.04819040495976
 20
0.2769248499755106
 30
0.0
 11
-3.25
 21
5.629165124598853
 31
0.0
210
0.0
220
0.0
230
1.0
 40
0.5773502691896258
 41
0.2193254863005931
 42
2.9222671672892
  0
ELLIPSE
  5
715E
330
7122
100
AcDbEntity
  8
0
100
AcDbEllipse
 10
55.63397684258667
 20
-0.539571730952213
 30
0.0
 11
-3.25
 21
5.629165124598853
 31
0.0
210
0.0
220
0.0
230
1.0
 40
0.5773502691896259
 41
0.0
 42
6.283185307179586
  0
ELLIPSE
  5
715F
330
7122
100
AcDbEntity
  8
0
100
AcDbEllipse
 10
49.27001581190773
 20
-7.479792668837887
 30
0.0
 11
1.250000000000129
 21
-2.165063509461022
 31
0.0
210
0.0
220
0.0
230
1.0
 40
0.5773502691896259
 41
3.742856870268576
 42
5.681921090500121
  0
ELLIPSE
  5
7160
330
7122
100
AcDbEntity
  8
0
100
AcDbEllipse
 10
49.27001581190773
 20
8.850138949716637
 30
0.0
 11
1.250000000000129
 21
-2.165063509461022
 31
0.0
210
0.0
220
0.0
230
1.0
 40
0.5773502691896259
 41
3.742856870268578
 42
5.681921090500121
  0
ELLIPSE
  5
7161
330
7122
100
AcDbEntity
  8
0
100
AcDbEllipse
 10
49.27001581190773
 20
25.18007056827116
 30
0.0
 11
1.250000000000129
 21
-2.165063509461022
 31
0.0
210
0.0
220
0.0
230
1.0
 40
0.5773502691896259
 41
3.742856870268576
 42
5.681921090500121
  0
ELLIPSE
  5
7162
330
7122
100
AcDbEntity
  8
0
100
AcDbEllipse
 10
49.27001581190773
 20
41.51000218682568
 30
0.0
 11
1.250000000000129
 21
-2.165063509461022
 31
0.0
210
0.0
220
0.0
230
1.0
 40
0.5773502691896259
 41
3.742856870268576
 42
5.681921090500121
  0
ELLIPSE
  5
7163
330
7122
100
AcDbEntity
  8
0
100
AcDbEllipse
 10
47.85580224953465
 20
-8.29628924976561
 30
0.0
 11
-1.249999999999999
 21
2.165063509461097
 31
0.0
210
0.0
220
0.0
230
0.9999999999999998
 40
0.5773502691896259
 41
0.0
 42
6.283185307179586
  0
ELLIPSE
  5
7164
330
7122
100
AcDbEntity
  8
0
100
AcDbEllipse
 10
47.85580224953465
 20
8.033642368788909
 30
0.0
 11
-1.249999999999999
 21
2.165063509461097
 31
0.0
210
0.0
220
0.0
230
0.9999999999999998
 40
0.5773502691896259
 41
0.0
 42
6.283185307179586
  0
ELLIPSE
  5
7165
330
7122
100
AcDbEntity
  8
0
100
AcDbEllipse
 10
47.85580224953465
 20
24.36357398734344
 30
0.0
 11
-1.249999999999999
 21
2.165063509461097
 31
0.0
210
0.0
220
0.0
230
0.9999999999999998
 40
0.5773502691896259
 41
0.0
 42
6.283185307179586
  0
ELLIPSE
  5
7166
330
7122
100
AcDbEntity
  8
0
100
AcDbEllipse
 10
47.85580224953465
 20
40.69350560589795
 30
0.0
 11
-1.249999999999999
 21
2.165063509461097
 31
0.0
210
0.0
220
0.0
230
0.9999999999999998
 40
0.5773502691896259
 41
0.0
 42
6.283185307179586
  0
ELLIPSE
  5
7167
330
7122
100
AcDbEntity
  8
0
100
AcDbEllipse
 10
49.27001581190773
 20
57.83993380538021
 30
0.0
 11
1.250000000000129
 21
-2.165063509461022
 31
0.0
210
0.0
220
0.0
230
1.0
 40
0.5773502691896259
 41
3.742856870268576
 42
5.681921090500121
  0
ELLIPSE
  5
7168
330
7122
100
AcDbEntity
  8
0
100
AcDbEllipse
 10
9.67203606546108
 20
79.06884490950109
 30
0.0
 11
1.249999999999999
 21
-2.165063509461097
 31
0.0
210
0.0
220
0.0
230
1.0
 40
0.5773502691896255
 41
0.0
 42
6.283185307179586
  0
ELLIPSE
  5
7169
330
7122
100
AcDbEntity
  8
0
100
AcDbEllipse
 10
11.08624962783417
 20
79.88534149042883
 30
0.0
 11
1.250000000000128
 21
-2.165063509461023
 31
0.0
210
0.0
220
0.0
230
0.9999999999999998
 40
0.5773502691896254
 41
3.742856870268584
 42
5.681921090500123
  0
ELLIPSE
  5
716A
330
7122
100
AcDbEntity
  8
0
100
AcDbEllipse
 10
47.85580224953465
 20
57.02343722445249
 30
0.0
 11
-1.249999999999999
 21
2.165063509461097
 31
0.0
210
0.0
220
0.0
230
0.9999999999999998
 40
0.5773502691896259
 41
0.0
 42
6.283185307179586
  0
ELLIPSE
  5
716B
330
7122
100
AcDbEntity
  8
0
100
AcDbEllipse
 10
64.82636499801177
 20
-8.296289249765615
 30
0.0
 11
1.250000000000129
 21
-2.165063509461022
 31
0.0
210
0.0
220
0.0
230
1.0
 40
0.5773502691896259
 41
3.742856870268576
 42
5.681921090500121
  0
ELLIPSE
  5
716C
330
7122
100
AcDbEntity
  8
0
100
AcDbEllipse
 10
64.82636499801177
 20
8.033642368788909
 30
0.0
 11
1.250000000000129
 21
-2.165063509461022
 31
0.0
210
0.0
220
0.0
230
1.0
 40
0.5773502691896259
 41
3.742856870268576
 42
5.681921090500121
  0
ELLIPSE
  5
716D
330
7122
100
AcDbEntity
  8
0
100
AcDbEllipse
 10
64.82636499801177
 20
24.36357398734344
 30
0.0
 11
1.250000000000129
 21
-2.165063509461022
 31
0.0
210
0.0
220
0.0
230
1.0
 40
0.5773502691896259
 41
3.742856870268576
 42
5.681921090500121
  0
ELLIPSE
  5
716E
330
7122
100
AcDbEntity
  8
0
100
AcDbEllipse
 10
63.41215143563869
 20
-9.11278583069334
 30
0.0
 11
-1.249999999999999
 21
2.165063509461097
 31
0.0
210
0.0
220
0.0
230
0.9999999999999998
 40
0.5773502691896259
 41
0.0
 42
6.283185307179586
  0
ELLIPSE
  5
716F
330
7122
100
AcDbEntity
  8
0
100
AcDbEllipse
 10
63.41215143563869
 20
7.217145787861189
 30
0.0
 11
-1.249999999999999
 21
2.165063509461097
 31
0.0
210
0.0
220
0.0
230
0.9999999999999998
 40
0.5773502691896259
 41
0.0
 42
6.283185307179586
  0
ELLIPSE
  5
7170
330
7122
100
AcDbEntity
  8
0
100
AcDbEllipse
 10
63.41215143563869
 20
23.54707740641572
 30
0.0
 11
-1.249999999999999
 21
2.165063509461097
 31
0.0
210
0.0
220
0.0
230
0.9999999999999998
 40
0.5773502691896259
 41
0.0
 42
6.283185307179586
  0
LINE
  5
7171
330
7122
100
AcDbEntity
  8
0
100
AcDbLine
 10
-9.094705397579927
 20
28.44870143918274
 30
0.0
 11
-8.387493553589262
 21
27.36668272565216
 31
0.0
  0
LINE
  5
7172
330
7122
100
AcDbEntity
  8
0
100
AcDbLine
 10
-13.66248771369497
 20
-2.172564892807691
 30
0.0
 11
-41.94675896115687
 21
-45.44688368197717
 31
0.0
  0
LINE
  5
7173
330
7122
100
AcDbEntity
  8
0
100
AcDbLine
 10
-15.07670127606807
 20
-1.356068311879963
 30
0.0
 11
-13.66248771369497
 21
-2.172564892807691
 31
0.0
  0
LINE
  5
7174
330
7122
100
AcDbEntity
  8
0
100
AcDbLine
 10
-43.36097252352996
 20
-44.63038710104945
 30
0.0
 11
-15.07670127606807
 21
-1.356068311879958
 31
0.0
  0
LINE
  5
7175
330
7122
100
AcDbEntity
  8
0
100
AcDbLine
 10
-41.94675896115687
 20
-45.44688368197717
 30
0.0
 11
-43.36097252352996
 21
-44.63038710104945
 31
0.0
  0
LINE
  5
7176
330
7122
100
AcDbEntity
  8
0
100
AcDbLine
 10
-13.66248771369496
 20
60.69767183862723
 30
0.0
 11
-13.66248771369497
 21
-2.172564892807686
 31
0.0
  0
LINE
  5
7177
330
7122
100
AcDbEntity
  8
0
100
AcDbLine
 10
-15.07670127606806
 20
61.51416841955498
 30
0.0
 11
-13.66248771369496
 21
60.69767183862723
 31
0.0
  0
LINE
  5
7178
330
7122
100
AcDbEntity
  8
0
100
AcDbLine
 10
-15.07670127606807
 20
-1.356068311879963
 30
0.0
 11
-15.07670127606806
 21
61.51416841955498
 31
0.0
  0
ELLIPSE
  5
7179
330
7122
100
AcDbEntity
  8
0
100
AcDbEllipse
 10
1.893861472409055
 20
71.31212739068771
 30
0.0
 11
-3.250000000000004
 21
5.629165124598848
 31
0.0
210
0.0
220
0.0
230
0.9999999999999998
 40
0.5773502691896257
 41
4.71238898038469
 42
7.853981633974485
  0
ELLIPSE
  5
717A
330
7122
100
AcDbEntity
  8
0
100
AcDbEllipse
 10
3.308075034782143
 20
72.12862397161543
 30
0.0
 11
-3.249999999999998
 21
5.629165124598853
 31
0.0
210
0.0
220
0.0
230
1.0
 40
0.5773502691896258
 41
0.2193254863005904
 42
1.570796326794898
  0
ELLIPSE
  5
717B
330
7122
100
AcDbEntity
  8
0
100
AcDbEllipse
 10
-5.884313120642961
 20
79.88534149042883
 30
0.0
 11
1.249999999999999
 21
-2.165063509461097
 31
0.0
210
0.0
220
0.0
230
1.0
 40
0.5773502691896255
 41
0.0
 42
6.283185307179586
  0
ELLIPSE
  5
717C
330
7122
100
AcDbEntity
  8
0
100
AcDbEllipse
 10
-4.470099558269873
 20
80.70183807135656
 30
0.0
 11
1.250000000000128
 21
-2.165063509461023
 31
0.0
210
0.0
220
0.0
230
0.9999999999999998
 40
0.5773502691896254
 41
3.742856870268578
 42
5.68192109050012
  0
LINE
  5
717D
330
7122
100
AcDbEntity
  8
0
100
AcDbLine
 10
14.62178353376691
 20
78.66059661903725
 30
0.0
 11
14.62178353376691
 21
80.29358978089266
 31
0.0
  0
ELLIPSE
  5
717E
330
7122
100
AcDbEntity
  8
0
100
AcDbEllipse
 10
13.20756997139381
 20
79.47709319996495
 30
0.0
 11
2.000000000000001
 21
-0.0000000000000003
 31
0.0
210
0.0
220
0.0
230
1.0
 40
0.5773502691896259
 41
5.497787143782138
 42
7.068583470577034
  0
LINE
  5
717F
330
7122
100
AcDbEntity
  8
0
100
AcDbLine
 10
16.03599709614
 20
77.8441000381095
 30
0.0
 11
16.03599709614
 21
51.71620944842224
 31
0.0
  0
ELLIPSE
  5
7180
330
7122
100
AcDbEntity
  8
0
100
AcDbEllipse
 10
13.20756997139381
 20
79.47709319996495
 30
0.0
 11
4.000000000000001
 21
-0.0000000000000003
 31
0.0
210
0.0
220
0.0
230
1.0
 40
0.577350269189626
 41
5.497787143782137
 42
7.06858347057703
  0
LINE
  5
7181
330
7122
100
AcDbEntity
  8
0
100
AcDbLine
 10
14.62178353376691
 20
80.29358978089266
 30
0.0
 11
16.03599709614001
 21
81.11008636182042
 31
0.0
  0
LINE
  5
7182
330
7122
100
AcDbEntity
  8
0
100
AcDbLine
 10
14.62178353376691
 20
78.66059661903723
 30
0.0
 11
16.03599709614
 21
77.8441000381095
 31
0.0
  0
LINE
  5
7183
330
7122
100
AcDbEntity
  8
0
100
AcDbLine
 10
17.20756997139381
 20
52.3926173633253
 30
0.0
 11
17.20756997139381
 21
79.47709319996495
 31
0.0
  0
LINE
  5
7184
330
7122
100
AcDbEntity
  8
0
100
AcDbLine
 10
-11.89472076072862
 20
95.60290067328757
 30
0.0
 11
14.62178353376691
 21
80.29358978089266
 31
0.0
  0
LINE
  5
7185
330
7122
100
AcDbEntity
  8
0
100
AcDbLine
 10
-11.89472076072868
 20
63.35128572664239
 30
0.0
 11
-11.89472076072862
 21
95.60290067328757
 31
0.0
  0
LINE
  5
7186
330
7122
100
AcDbEntity
  8
0
100
AcDbLine
 10
-41.94675896115685
 20
-63.40980846238714
 30
0.0
 11
-41.94675896115687
 21
-45.44688368197717
 31
0.0
  0
LINE
  5
7187
330
7122
100
AcDbEntity
  8
0
100
AcDbLine
 10
-13.66248771369496
 20
60.69767183862723
 30
0.0
 11
16.03599709614
 21
77.8441000381095
 31
0.0
  0
LINE
  5
7188
330
7122
100
AcDbEntity
  8
0
100
AcDbLine
 10
-43.36097252352996
 20
-44.63038710104945
 30
0.0
 11
-43.36097252352995
 21
-62.59331188145941
 31
0.0
  0
LINE
  5
7189
330
7122
100
AcDbEntity
  8
0
100
AcDbLine
 10
14.62178353376691
 20
78.66059661903723
 30
0.0
 11
-15.07670127606806
 21
61.51416841955498
 31
0.0
  0
LINE
  5
718A
330
7122
100
AcDbEntity
  8
0
100
AcDbLine
 10
16.03599709614001
 20
81.11008636182042
 30
0.0
 11
-10.48050719835552
 21
96.41939725421529
 31
0.0
  0
LINE
  5
718B
330
7122
100
AcDbEntity
  8
0
100
AcDbLine
 10
-10.48050719835552
 20
96.41939725421529
 30
0.0
 11
-11.89472076072862
 21
95.60290067328757
 31
0.0
  0
ELLIPSE
  5
718C
330
7122
100
AcDbEntity
  8
0
100
AcDbEllipse
 10
14.26823014317363
 20
-26.8715864658714
 30
0.0
 11
1.24999999999987
 21
2.165063509461171
 31
0.0
210
0.0
220
0.0
230
1.0
 40
0.577350269189626
 41
3.74285687026858
 42
5.681921090500114
  0
ELLIPSE
  5
718D
330
7122
100
AcDbEntity
  8
0
100
AcDbEllipse
 10
15.68244370554673
 20
-27.68808304679912
 30
0.0
 11
-1.25
 21
-2.165063509461097
 31
0.0
210
0.0
220
0.0
230
0.9999999999999998
 40
0.5773502691896259
 41
0.0
 42
6.283185307179586
  0
ELLIPSE
  5
718E
330
7122
100
AcDbEntity
  8
0
100
AcDbEllipse
 10
14.26823014317363
 20
-10.54165484731687
 30
0.0
 11
1.24999999999987
 21
2.165063509461171
 31
0.0
210
0.0
220
0.0
230
1.0
 40
0.577350269189626
 41
3.74285687026858
 42
5.681921090500119
  0
ELLIPSE
  5
718F
330
7122
100
AcDbEntity
  8
0
100
AcDbEllipse
 10
15.68244370554673
 20
-11.3581514282446
 30
0.0
 11
-1.25
 21
-2.165063509461097
 31
0.0
210
0.0
220
0.0
230
0.9999999999999998
 40
0.5773502691896259
 41
0.0
 42
6.283185307179586
  0
ELLIPSE
  5
7190
330
7122
100
AcDbEntity
  8
0
100
AcDbEllipse
 10
14.26823014317363
 20
5.788276771237645
 30
0.0
 11
1.24999999999987
 21
2.165063509461171
 31
0.0
210
0.0
220
0.0
230
1.0
 40
0.577350269189626
 41
3.74285687026858
 42
5.681921090500119
  0
ELLIPSE
  5
7191
330
7122
100
AcDbEntity
  8
0
100
AcDbEllipse
 10
15.68244370554673
 20
4.971780190309926
 30
0.0
 11
-1.25
 21
-2.165063509461097
 31
0.0
210
0.0
220
0.0
230
0.9999999999999998
 40
0.5773502691896259
 41
0.0
 42
6.283185307179586
  0
ELLIPSE
  5
7192
330
7122
100
AcDbEntity
  8
0
100
AcDbEllipse
 10
14.26823014317363
 20
22.11820838979217
 30
0.0
 11
1.24999999999987
 21
2.165063509461171
 31
0.0
210
0.0
220
0.0
230
1.0
 40
0.577350269189626
 41
3.74285687026858
 42
5.681921090500118
  0
ELLIPSE
  5
7193
330
7122
100
AcDbEntity
  8
0
100
AcDbEllipse
 10
15.68244370554673
 20
21.30171180886446
 30
0.0
 11
-1.25
 21
-2.165063509461097
 31
0.0
210
0.0
220
0.0
230
0.9999999999999998
 40
0.5773502691896259
 41
0.0
 42
6.283185307179586
  0
ELLIPSE
  5
7194
330
7122
100
AcDbEntity
  8
0
100
AcDbEllipse
 10
-9.773400417168955
 20
-4.826178780822787
 30
0.0
 11
1.24999999999987
 21
2.165063509461172
 31
0.0
210
0.0
220
0.0
230
1.0
 40
0.5773502691896254
 41
3.742856870268582
 42
5.681921090500121
  0
ELLIPSE
  5
7195
330
7122
100
AcDbEntity
  8
0
100
AcDbEllipse
 10
-8.359186854795858
 20
-5.64267536175051
 30
0.0
 11
1.249999999999999
 21
2.165063509461098
 31
0.0
210
0.0
220
0.0
230
1.0
 40
0.5773502691896255
 41
0.0
 42
6.283185307179586
  0
ELLIPSE
  5
7196
330
7122
100
AcDbEntity
  8
0
100
AcDbEllipse
 10
-9.773400417168955
 20
11.50375283773174
 30
0.0
 11
1.24999999999987
 21
2.165063509461172
 31
0.0
210
0.0
220
0.0
230
1.0
 40
0.5773502691896254
 41
3.742856870268582
 42
5.681921090500121
  0
ELLIPSE
  5
7197
330
7122
100
AcDbEntity
  8
0
100
AcDbEllipse
 10
-8.359186854795858
 20
10.68725625680401
 30
0.0
 11
1.249999999999999
 21
2.165063509461098
 31
0.0
210
0.0
220
0.0
230
1.0
 40
0.5773502691896255
 41
0.0
 42
6.283185307179586
  0
ELLIPSE
  5
7198
330
7122
100
AcDbEntity
  8
0
100
AcDbEllipse
 10
-9.773400417168955
 20
27.83368445628627
 30
0.0
 11
1.24999999999987
 21
2.165063509461172
 31
0.0
210
0.0
220
0.0
230
1.0
 40
0.5773502691896254
 41
3.742856870268582
 42
5.68192109050012
  0
ELLIPSE
  5
7199
330
7122
100
AcDbEntity
  8
0
100
AcDbEllipse
 10
-8.359186854795858
 20
27.01718787535854
 30
0.0
 11
1.249999999999999
 21
2.165063509461098
 31
0.0
210
0.0
220
0.0
230
1.0
 40
0.5773502691896255
 41
0.0
 42
6.283185307179586
  0
ELLIPSE
  5
719A
330
7122
100
AcDbEntity
  8
0
100
AcDbEllipse
 10
-9.773400417168955
 20
44.16361607484078
 30
0.0
 11
1.24999999999987
 21
2.165063509461172
 31
0.0
210
0.0
220
0.0
230
1.0
 40
0.5773502691896254
 41
3.742856870268582
 42
5.681921090500118
  0
ELLIPSE
  5
719B
330
7122
100
AcDbEntity
  8
0
100
AcDbEllipse
 10
-8.359186854795858
 20
43.34711949391306
 30
0.0
 11
1.249999999999999
 21
2.165063509461098
 31
0.0
210
0.0
220
0.0
230
1.0
 40
0.5773502691896255
 41
0.0
 42
6.283185307179586
  0
ELLIPSE
  5
719C
330
7122
100
AcDbEntity
  8
0
100
AcDbEllipse
 10
-9.773400417168955
 20
60.4935476933953
 30
0.0
 11
1.24999999999987
 21
2.165063509461172
 31
0.0
210
0.0
220
0.0
230
1.0
 40
0.5773502691896254
 41
3.742856870268582
 42
5.681921090500118
  0
ELLIPSE
  5
719D
330
7122
100
AcDbEntity
  8
0
100
AcDbEllipse
 10
-8.359186854795858
 20
59.67705111246758
 30
0.0
 11
1.249999999999999
 21
2.165063509461098
 31
0.0
210
0.0
220
0.0
230
1.0
 40
0.5773502691896255
 41
0.0
 42
6.283185307179586
  0
ENDBLK
  5
7124
330
7122
100
AcDbEntity
  8
0
100
AcDbBlockEnd
  0
ENDSEC
  0
SECTION
  2
ENTITIES
  0
INSERT
  5
719E
330
1F
100
AcDbEntity
  8
0
100
AcDbBlockReference
  2
SAE300_32_2-Front
 10
0.0
 20
0.0
 30
0.0
  0
INSERT
  5
719F
330
1F
100
AcDbEntity
  8
0
100
AcDbBlockReference
  2
SAE300_32_2-Left
 10
98.3000000000001
 20
0.0
 30
0.0
  0
INSERT
  5
71A0
330
1F
100
AcDbEntity
  8
0
100
AcDbBlockReference
  2
SAE300_32_2-Right
 10
-98.3000000000001
 20
0.0
 30
0.0
  0
INSERT
  5
71A1
330
1F
100
AcDbEntity
  8
0
100
AcDbBlockReference
  2
SAE300_32_2-Top
 10
0.0
 20
-42.8
 30
0.0
  0
INSERT
  5
71A2
330
1F
100
AcDbEntity
  8
0
100
AcDbBlockReference
  2
SAE300_32_2-Bottom
 10
0.0
 20
174.8
 30
0.0
  0
INSERT
  5
71A3
330
1F
100
AcDbEntity
  8
0
100
AcDbBlockReference
  2
SAE300_32_2-ISO
 10
141.6609725235301
 20
-139.2193972542153
 30
0.0
  0
MTEXT
  5
71A4
330
1F
100
AcDbEntity
  8
0
100
AcDbMText
 10
0.0
 20
-169.6
 30
0.0
 40
12.28750000000001
 41
0.0
 71
     5
 72
     5
  1
SAE300/32/2
 73
     1
 44
1.0
1001
ACAD
1000
MTEXTBEGIN
1070
    73
1070
     1
1070
    44
1040
1.0
1070
    74
1070
     0
1000
MTEXTEND
  0
ENDSEC
  0
SECTION
  2
OBJECTS
  0
DICTIONARY
  5
C
330
0
100
AcDbDictionary
281
     1
  3
ACAD_CIP_PREVIOUS_PRODUCT_INFO
350
216
  3
ACAD_COLOR
350
6B
  3
ACAD_DETAILVIEWSTYLE
350
21B
  3
ACAD_GROUP
350
D
  3
ACAD_LAYOUT
350
1A
  3
ACAD_MATERIAL
350
6A
  3
ACAD_MLEADERSTYLE
350
12D
  3
ACAD_MLINESTYLE
350
17
  3
ACAD_PLOTSETTINGS
350
19
  3
ACAD_PLOTSTYLENAME
350
E
  3
ACAD_SCALELIST
350
10C
  3
ACAD_SECTIONVIEWSTYLE
350
219
  3
ACAD_TABLESTYLE
350
7E
  3
ACAD_VISUALSTYLE
350
EF
  3
ACDB_RECOMPOSE_DATA
350
72A5
  3
AcDbVariableDictionary
350
5E
  3
DWGPROPS
350
72A6
  0
DICTIONARY
  5
71F5
330
8
100
AcDbDictionary
280
     1
281
     1
  0
DICTIONARY
  5
1FF
330
2
100
AcDbDictionary
280
     1
281
     1
  3
ACAD_LAYERSTATES
360
200
  0
DICTIONARY
  5
13C
330
10
100
AcDbDictionary
280
     1
281
     1
  0
DICTIONARY
  5
1CE
330
1F
100
AcDbDictionary
280
     1
281
     1
  3
ACAD_LAYOUTSELFREF
360
71FD
  0
DICTIONARY
  5
71A8
330
D2
100
AcDbDictionary
280
     1
281
     1
  3
ACAD_LAYOUTSELFREF
360
7206
  0
DICTIONARY
  5
71AA
330
D6
100
AcDbDictionary
280
     1
281
     1
  3
ACAD_LAYOUTSELFREF
360
7209
  0
XRECORD
  5
216
102
{ACAD_REACTORS
330
C
102
}
330
C
100
AcDbXrecord
280
     1
300
ACD
300
2021
300
87393ACD_2021_0F
  0
DICTIONARY
  5
6B
102
{ACAD_REACTORS
330
C
102
}
330
C
100
AcDbDictionary
281
     1
  0
DICTIONARY
  5
21B
102
{ACAD_REACTORS
330
C
102
}
330
C
100
AcDbDictionary
281
     1
  3
Metric50
350
21C
  0
DICTIONARY
  5
D
102
{ACAD_REACTORS
330
C
102
}
330
C
100
AcDbDictionary
281
     1
  0
DICTIONARY
  5
1A
102
{ACAD_REACTORS
330
C
102
}
330
C
100
AcDbDictionary
281
     1
  3
Layout1
350
D3
  3
Layout2
350
D7
  3
Model
350
22
  0
DICTIONARY
  5
6A
102
{ACAD_REACTORS
330
C
102
}
330
C
100
AcDbDictionary
281
     1
  3
ByBlock
350
ED
  3
ByLayer
350
EC
  3
Global
350
EE
  0
DICTIONARY
  5
12D
102
{ACAD_REACTORS
330
C
102
}
330
C
100
AcDbDictionary
281
     1
  3
Standard
350
12E
  0
DICTIONARY
  5
17
102
{ACAD_REACTORS
330
C
102
}
330
C
100
AcDbDictionary
281
     1
  3
Standard
350
18
  0
DICTIONARY
  5
19
102
{ACAD_REACTORS
330
C
102
}
330
C
100
AcDbDictionary
281
     1
  0
ACDBDICTIONARYWDFLT
  5
E
102
{ACAD_REACTORS
330
C
102
}
330
C
100
AcDbDictionary
281
     1
  3
Normal
350
F
100
AcDbDictionaryWithDefault
340
F
  0
DICTIONARY
  5
10C
102
{ACAD_REACTORS
330
C
102
}
330
C
100
AcDbDictionary
281
     1
  3
A0
350
10D
  3
A1
350
1BE
  3
A2
350
1BF
  3
A3
350
1C0
  3
A4
350
1C1
  3
A5
350
1C2
  3
A6
350
1C3
  3
A7
350
1C4
  3
A8
350
1C5
  3
A9
350
1C6
  3
B0
350
1C7
  3
B1
350
1C8
  3
B2
350
1C9
  3
B3
350
1CA
  3
B4
350
1CB
  3
B5
350
1CC
  3
B6
350
1CD
  0
DICTIONARY
  5
219
102
{ACAD_REACTORS
330
C
102
}
330
C
100
AcDbDictionary
281
     1
  3
Metric50
350
21A
  0
DICTIONARY
  5
7E
102
{ACAD_REACTORS
330
C
102
}
330
C
100
AcDbDictionary
281
     1
  3
Standard
350
7F
  0
DICTIONARY
  5
EF
102
{ACAD_REACTORS
330
C
102
}
330
C
100
AcDbDictionary
281
     1
  3
2dWireframe
350
F5
  3
Basic
350
F4
  3
Brighten
350
FB
  3
ColorChange
350
FF
  3
Conceptual
350
F8
  3
Dim
350
FA
  3
EdgeColorOff
350
1E6
  3
Facepattern
350
FE
  3
Flat
350
F0
  3
FlatWithEdges
350
F1
  3
Gouraud
350
F2
  3
GouraudWithEdges
350
F3
  3
Hidden
350
F7
  3
JitterOff
350
1E4
  3
Linepattern
350
FD
  3
OverhangOff
350
1E5
  3
Realistic
350
F9
  3
Shaded
350
1F3
  3
Shaded with edges
350
1F2
  3
Shades of Gray
350
1EF
  3
Sketchy
350
1F0
  3
Thicken
350
FC
  3
Wireframe
350
F6
  3
X-Ray
350
1F1
  0
XRECORD
  5
72A5
102
{ACAD_REACTORS
330
C
102
}
330
C
100
AcDbXrecord
280
     1
 90
        1
330
7F
  0
DICTIONARY
  5
5E
102
{ACAD_REACTORS
330
C
102
}
330
C
100
AcDbDictionary
281
     1
  3
CANNOSCALE
350
146
  3
CENTEREXE
350
259
  3
CENTERLTYPEFILE
350
25A
  3
CMLEADERSTYLE
350
145
  3
CTABLESTYLE
350
84
  3
CVIEWDETAILSTYLE
350
227
  3
CVIEWSECTIONSTYLE
350
228
  3
DIMASSOC
350
5F
  3
HIDETEXT
350
63
  3
INDEXCTL
350
7252
  3
LAYEREVAL
350
1AE
  3
LAYERNOTIFY
350
1AF
  3
LIGHTINGUNITS
350
7250
  3
MSLTSCALE
350
724F
  3
PSOLHEIGHT
350
72A2
  3
PSOLWIDTH
350
72A1
  3
SORTENTS
350
7251
  3
XCLIPFRAME
350
72A3
  0
XRECORD
  5
72A6
102
{ACAD_REACTORS
330
C
102
}
330
C
100
AcDbXrecord
280
     1
  1
DWGPROPS COOKIE
  2

  3

  4

  6

  7

  8
truole
  9

300
=
301
=
302
=
303
=
304
=
305
=
306
=
307
=
308
=
309
=
 40
0.0075925925925926
 41
2460398.356956019
 42
2460398.373680556
  1

 90
        0
  0
DICTIONARY
  5
200
102
{ACAD_REACTORS
330
1FF
102
}
330
1FF
100
AcDbDictionary
281
     1
  0
XRECORD
  5
71FD
102
{ACAD_REACTORS
330
1CE
102
}
330
1CE
100
AcDbXrecord
280
     1
340
1F
  0
XRECORD
  5
7206
102
{ACAD_REACTORS
330
71A8
102
}
330
71A8
100
AcDbXrecord
280
     1
340
D2
  0
XRECORD
  5
7209
102
{ACAD_REACTORS
330
71AA
102
}
330
71AA
100
AcDbXrecord
280
     1
340
D6
  0
ACDBDETAILVIEWSTYLE
  5
21C
102
{ACAD_XDICTIONARY
360
72E5
102
}
102
{ACAD_REACTORS
330
21B
102
}
330
21B
100
AcDbModelDocViewStyle
 70
     0
  3
Metric50
290
     0
100
AcDbDetailViewStyle
 70
     0
 71
     0
 90
        3
 71
     1
340
11
 40
5.0
340
0
 40
5.0
300

 40
0.0
280
     1
 71
     2
340
16
 90
       25
 71
     3
340
11
 40
5.0
 90
        0
 40
15.0
 90
        1
300
%<\AcVar ViewDetailId>% (%<\AcVar ViewScale \f "%sn">%)
 71
     4
340
16
 90
       25
340
16
 90
       25
280
     0
  0
LAYOUT
  5
D3
102
{ACAD_XDICTIONARY
360
72AA
102
}
102
{ACAD_REACTORS
330
1A
102
}
330
1A
100
AcDbPlotSettings
  1

  2
C:\Documents and Settings\basas\Application Data\Autodesk\AutoCAD 2005\R16.1\enu\plotters\Default Windows System Printer.pc3
  4

  6

 40
0.0
 41
0.0
 42
0.0
 43
0.0
 44
0.0
 45
0.0
 46
0.0
 47
0.0
 48
0.0
 49
0.0
140
0.0
141
0.0
142
1.0
143
1.0
 70
   688
 72
     0
 73
     0
 74
     5
  7

 75
    16
147
1.0
148
0.0
149
0.0
100
AcDbLayout
  1
Layout1
 70
     1
 71
     1
 10
0.0
 20
0.0
 11
12.0
 21
9.0
 12
0.0
 22
0.0
 32
0.0
 14
0.0
 24
0.0
 34
0.0
 15
0.0
 25
0.0
 35
0.0
146
0.0
 13
0.0
 23
0.0
 33
0.0
 16
1.0
 26
0.0
 36
0.0
 17
0.0
 27
1.0
 37
0.0
 76
     0
330
D2
  0
LAYOUT
  5
D7
102
{ACAD_XDICTIONARY
360
72AC
102
}
102
{ACAD_REACTORS
330
1A
102
}
330
1A
100
AcDbPlotSettings
  1

  2
C:\Documents and Settings\basas\Application Data\Autodesk\AutoCAD 2005\R16.1\enu\plotters\Default Windows System Printer.pc3
  4

  6

 40
0.0
 41
0.0
 42
0.0
 43
0.0
 44
0.0
 45
0.0
 46
0.0
 47
0.0
 48
0.0
 49
0.0
140
0.0
141
0.0
142
1.0
143
1.0
 70
   688
 72
     0
 73
     0
 74
     5
  7

 75
    16
147
1.0
148
0.0
149
0.0
100
AcDbLayout
  1
Layout2
 70
     1
 71
     2
 10
0.0
 20
0.0
 11
12.0
 21
9.0
 12
0.0
 22
0.0
 32
0.0
 14
0.0
 24
0.0
 34
0.0
 15
0.0
 25
0.0
 35
0.0
146
0.0
 13
0.0
 23
0.0
 33
0.0
 16
1.0
 26
0.0
 36
0.0
 17
0.0
 27
1.0
 37
0.0
 76
     0
330
D6
  0
LAYOUT
  5
22
102
{ACAD_XDICTIONARY
360
72A7
102
}
102
{ACAD_REACTORS
330
1A
102
}
330
1A
100
AcDbPlotSettings
  1

  2
none_device
  4
ISO_A4_(210.00_x_297.00_MM)
  6

 40
7.5
 41
20.0
 42
7.5
 43
20.0
 44
210.0
 45
297.0
 46
11.54999923706054
 47
-13.65000009536743
 48
0.0
 49
0.0
140
0.0
141
0.0
142
1.0
143
8.704084754739808
 70
 11952
 72
     1
 73
     0
 74
     0
  7

 75
     0
147
0.1148885871608098
148
0.0
149
0.0
100
AcDbLayout
  1
Model
 70
     1
 71
     0
 10
0.0
 20
0.0
 11
12.0
 21
9.0
 12
0.0
 22
0.0
 32
0.0
 14
0.0
 24
0.0
 34
0.0
 15
0.0
 25
0.0
 35
0.0
146
0.0
 13
0.0
 23
0.0
 33
0.0
 16
1.0
 26
0.0
 36
0.0
 17
0.0
 27
1.0
 37
0.0
 76
     0
330
1F
331
EA
1001
ACAD_PSEXT
1000
None
1000
None
1000
Not applicable
1000
The layout will not be plotted unless a new plotter configuration name is selected.
1070
     0
  0
MATERIAL
  5
ED
102
{ACAD_XDICTIONARY
360
1F9
102
}
102
{ACAD_REACTORS
330
6A
102
}
330
6A
100
AcDbMaterial
  1
ByBlock
  0
MATERIAL
  5
EC
102
{ACAD_XDICTIONARY
360
1F7
102
}
102
{ACAD_REACTORS
330
6A
102
}
330
6A
100
AcDbMaterial
  1
ByLayer
  0
MATERIAL
  5
EE
102
{ACAD_XDICTIONARY
360
173
102
}
102
{ACAD_REACTORS
330
6A
102
}
330
6A
100
AcDbMaterial
  1
Global
 43
0.0007999999797903
 43
0.0
 43
0.0
 43
0.0
 43
0.0
 43
0.0007999999797903
 43
0.0
 43
0.0
 43
0.0
 43
0.0
 43
1.0
 43
0.0
 43
0.0
 43
0.0
 43
0.0
 43
1.0
 49
0.0007999999797903
 49
0.0
 49
0.0
 49
0.0
 49
0.0
 49
0.0007999999797903
 49
0.0
 49
0.0
 49
0.0
 49
0.0
 49
1.0
 49
0.0
 49
0.0
 49
0.0
 49
0.0
 49
1.0
142
0.0007999999797903
142
0.0
142
0.0
142
0.0
142
0.0
142
0.0007999999797903
142
0.0
142
0.0
142
0.0
142
0.0
142
1.0
142
0.0
142
0.0
142
0.0
142
0.0
142
1.0
144
0.0007999999797903
144
0.0
144
0.0
144
0.0
144
0.0
144
0.0007999999797903
144
0.0
144
0.0
144
0.0
144
0.0
144
1.0
144
0.0
144
0.0
144
0.0
144
0.0
144
1.0
1001
ACAD
1070
    -1
1070
     3
1070
     0
1000

1071
        0
1070
     0
  0
MLEADERSTYLE
  5
12E
102
{ACAD_XDICTIONARY
360
72D1
102
}
102
{ACAD_REACTORS
330
12D
102
}
330
12D
100
AcDbMLeaderStyle
170
     2
171
     1
172
     0
 90
        2
 40
0.0
 41
0.0
173
     1
 91
-1056964608
340
14
 92
       -2
290
     1
 42
2.0
291
     1
 43
8.0
  3
Standard
 44
4.0
300

342
11
174
     1
178
     1
175
     1
176
     0
 93
-1056964608
 45
4.0
292
     0
297
     0
 46
4.0
 94
-1056964608
 47
1.0
 49
1.0
140
1.0
293
     1
141
0.0
294
     1
177
     0
142
1.0
295
     0
296
     0
143
3.75
1001
ACAD_MLEADERVER
1070
     2
  0
MLINESTYLE
  5
18
102
{ACAD_REACTORS
330
17
102
}
330
17
100
AcDbMlineStyle
  2
STANDARD
 70
     0
  3

 62
   256
 51
90.0
 52
90.0
 71
     2
 49
0.5
 62
   256
  6
BYLAYER
 49
-0.5
 62
   256
  6
BYLAYER
  0
ACDBPLACEHOLDER
  5
F
102
{ACAD_REACTORS
330
E
102
}
330
E
  0
SCALE
  5
10D
102
{ACAD_REACTORS
330
10C
102
}
330
10C
100
AcDbScale
 70
     0
300
1:1
140
1.0
141
1.0
290
     1
  0
SCALE
  5
1BE
102
{ACAD_REACTORS
330
10C
102
}
330
10C
100
AcDbScale
 70
     0
300
1:2
140
1.0
141
2.0
290
     0
  0
SCALE
  5
1BF
102
{ACAD_REACTORS
330
10C
102
}
330
10C
100
AcDbScale
 70
     0
300
1:4
140
1.0
141
4.0
290
     0
  0
SCALE
  5
1C0
102
{ACAD_REACTORS
330
10C
102
}
330
10C
100
AcDbScale
 70
     0
300
1:5
140
1.0
141
5.0
290
     0
  0
SCALE
  5
1C1
102
{ACAD_REACTORS
330
10C
102
}
330
10C
100
AcDbScale
 70
     0
300
1:8
140
1.0
141
8.0
290
     0
  0
SCALE
  5
1C2
102
{ACAD_REACTORS
330
10C
102
}
330
10C
100
AcDbScale
 70
     0
300
1:10
140
1.0
141
10.0
290
     0
  0
SCALE
  5
1C3
102
{ACAD_REACTORS
330
10C
102
}
330
10C
100
AcDbScale
 70
     0
300
1:16
140
1.0
141
16.0
290
     0
  0
SCALE
  5
1C4
102
{ACAD_REACTORS
330
10C
102
}
330
10C
100
AcDbScale
 70
     0
300
1:20
140
1.0
141
20.0
290
     0
  0
SCALE
  5
1C5
102
{ACAD_REACTORS
330
10C
102
}
330
10C
100
AcDbScale
 70
     0
300
1:30
140
1.0
141
30.0
290
     0
  0
SCALE
  5
1C6
102
{ACAD_REACTORS
330
10C
102
}
330
10C
100
AcDbScale
 70
     0
300
1:40
140
1.0
141
40.0
290
     0
  0
SCALE
  5
1C7
102
{ACAD_REACTORS
330
10C
102
}
330
10C
100
AcDbScale
 70
     0
300
1:50
140
1.0
141
50.0
290
     0
  0
SCALE
  5
1C8
102
{ACAD_REACTORS
330
10C
102
}
330
10C
100
AcDbScale
 70
     0
300
1:100
140
1.0
141
100.0
290
     0
  0
SCALE
  5
1C9
102
{ACAD_REACTORS
330
10C
102
}
330
10C
100
AcDbScale
 70
     0
300
2:1
140
2.0
141
1.0
290
     0
  0
SCALE
  5
1CA
102
{ACAD_REACTORS
330
10C
102
}
330
10C
100
AcDbScale
 70
     0
300
4:1
140
4.0
141
1.0
290
     0
  0
SCALE
  5
1CB
102
{ACAD_REACTORS
330
10C
102
}
330
10C
100
AcDbScale
 70
     0
300
8:1
140
8.0
141
1.0
290
     0
  0
SCALE
  5
1CC
102
{ACAD_REACTORS
330
10C
102
}
330
10C
100
AcDbScale
 70
     0
300
10:1
140
10.0
141
1.0
290
     0
  0
SCALE
  5
1CD
102
{ACAD_REACTORS
330
10C
102
}
330
10C
100
AcDbScale
 70
     0
300
100:1
140
100.0
141
1.0
290
     0
  0
ACDBSECTIONVIEWSTYLE
  5
21A
102
{ACAD_XDICTIONARY
360
72E3
102
}
102
{ACAD_REACTORS
330
219
102
}
330
219
100
AcDbModelDocViewStyle
 70
     0
  3
Metric50
290
     0
100
AcDbSectionViewStyle
 70
     0
 71
     0
 90
      102
 71
     1
340
11
 40
5.0
340
0
340
0
 40
5.0
300
I, O, Q, S, X, Z
 40
10.0
 90
        0
 40
2.5
 90
        0
 71
     2
340
16
 90
       25
340
16
 90
       50
 40
5.0
 40
2.5
 40
5.0
 71
     3
340
11
 40
5.0
 90
        0
 40
15.0
 90
        1
300
%<\AcVar ViewSectionStartId>%-%<\AcVar ViewSectionEndId>% (%<\AcVar ViewScale \f "%sn">%)
 71
     4
300
ANSI31
 40
1.0
 90
        0
290
     0
290
     0
 90
        6
 40
0.0
 40
1.570796326794896
 40
0.2617993877991494
 40
1.308996938995747
 40
-0.2617993877991494
 40
1.832595714594046
  0
TABLESTYLE
  5
7F
102
{ACAD_XDICTIONARY
360
162
102
}
102
{ACAD_REACTORS
330
7E
102
}
330
7E
100
AcDbTableStyle
  3
Standard
 70
     0
 71
     0
 40
1.5
 41
1.5
280
     0
281
     0
  7
Standard
140
4.5
170
     2
 62
     0
 63
     7
283
     0
274
    -2
284
     1
 64
     0
275
    -2
285
     1
 65
     0
276
    -2
286
     1
 66
     0
277
    -2
287
     1
 67
     0
278
    -2
288
     1
 68
     0
279
    -2
289
     1
 69
     0
  7
Standard
140
6.0
170
     5
 62
     0
 63
     7
283
     0
274
    -2
284
     1
 64
     0
275
    -2
285
     1
 65
     0
276
    -2
286
     1
 66
     0
277
    -2
287
     1
 67
     0
278
    -2
288
     1
 68
     0
279
    -2
289
     1
 69
     0
  7
Standard
140
4.5
170
     5
 62
     0
 63
     7
283
     0
274
    -2
284
     1
 64
     0
275
    -2
285
     1
 65
     0
276
    -2
286
     1
 66
     0
277
    -2
287
     1
 67
     0
278
    -2
288
     1
 68
     0
279
    -2
289
     1
 69
     0
  0
VISUALSTYLE
  5
F5
102
{ACAD_XDICTIONARY
360
72BB
102
}
102
{ACAD_REACTORS
330
EF
102
}
330
EF
100
AcDbVisualStyle
  2
2dWireframe
 70
     4
 71
     0
 72
     2
 73
     1
 90
        0
 40
-0.6
 41
-30.0
 62
     5
 63
     7
 74
     1
 91
        4
 64
     7
 65
   257
 75
     1
175
     1
 42
1.0
 92
        0
 66
   257
 43
1.0
 76
     1
 77
     6
 78
     2
 67
     7
 79
     5
170
     0
171
     0
290
     0
174
     0
 93
        1
 44
0.0
173
     0
291
     0
 45
0.0
1001
ACAD
1000
AcDbSavedByObjectVersion
1070
     0
  0
VISUALSTYLE
  5
F4
102
{ACAD_XDICTIONARY
360
72B9
102
}
102
{ACAD_REACTORS
330
EF
102
}
330
EF
100
AcDbVisualStyle
  2
Basic
 70
     7
 71
     1
 72
     0
 73
     1
 90
        0
 40
-0.6
 41
-30.0
 62
     5
 63
     7
 74
     0
 91
        4
 64
     7
 65
   257
 75
     1
175
     1
 42
1.0
 92
        8
 66
     7
 43
1.0
 76
     1
 77
     6
 78
     2
 67
     7
 79
     5
170
     0
171
     0
290
     0
174
     0
 93
        1
 44
0.0
173
     0
291
     1
 45
0.0
1001
ACAD
1000
AcDbSavedByObjectVersion
1070
     0
  0
VISUALSTYLE
  5
FB
102
{ACAD_XDICTIONARY
360
72C7
102
}
102
{ACAD_REACTORS
330
EF
102
}
330
EF
100
AcDbVisualStyle
  2
Brighten
 70
    12
 71
     2
 72
     2
 73
     1
 90
        0
 40
-0.6
 41
-30.0
 62
     5
 63
     7
 74
     1
 91
        4
 64
     7
 65
   257
 75
     1
175
     1
 42
1.0
 92
        8
 66
     7
 43
1.0
 76
     1
 77
     6
 78
     2
 67
     7
 79
     5
170
     0
171
     0
290
     0
174
     0
 93
        1
 44
50.0
173
     0
291
     1
 45
0.0
1001
ACAD
1000
AcDbSavedByObjectVersion
1070
     0
  0
VISUALSTYLE
  5
FF
102
{ACAD_XDICTIONARY
360
72CF
102
}
102
{ACAD_REACTORS
330
EF
102
}
330
EF
100
AcDbVisualStyle
  2
ColorChange
 70
    16
 71
     2
 72
     2
 73
     3
 90
        0
 40
-0.6
 41
-30.0
 62
     5
 63
     8
 74
     1
 91
        4
 64
     7
 65
   257
 75
     1
175
     1
 42
1.0
 92
        8
 66
     8
 43
1.0
 76
     1
 77
     6
 78
     2
 67
     7
 79
     5
170
     0
171
     0
290
     0
174
     0
 93
        1
 44
0.0
173
     0
291
     1
 45
0.0
1001
ACAD
1000
AcDbSavedByObjectVersion
1070
     0
  0
VISUALSTYLE
  5
F8
102
{ACAD_XDICTIONARY
360
72C1
102
}
102
{ACAD_REACTORS
330
EF
102
}
330
EF
100
AcDbVisualStyle
  2
Conceptual
 70
     9
 71
     3
 72
     2
 73
     1
 90
        0
 40
-0.6
 41
-30.0
 62
     5
 63
     7
 74
     2
 91
        2
 64
     7
 65
   257
 75
     1
175
     1
 42
40.0
 92
        8
 66
     7
 43
1.0
 76
     1
 77
     6
 78
     2
 67
     7
 79
     3
170
     0
171
     0
290
     0
174
     0
 93
        1
 44
0.0
173
     0
291
     0
 45
0.0
1001
ACAD
1000
AcDbSavedByObjectVersion
1070
     0
  0
VISUALSTYLE
  5
FA
102
{ACAD_XDICTIONARY
360
72C5
102
}
102
{ACAD_REACTORS
330
EF
102
}
330
EF
100
AcDbVisualStyle
  2
Dim
 70
    11
 71
     2
 72
     2
 73
     1
 90
        0
 40
-0.6
 41
-30.0
 62
     5
 63
     7
 74
     1
 91
        4
 64
     7
 65
   257
 75
     1
175
     1
 42
1.0
 92
        8
 66
     7
 43
1.0
 76
     1
 77
     6
 78
     2
 67
     7
 79
     5
170
     0
171
     0
290
     0
174
     0
 93
        1
 44
-50.0
173
     0
291
     1
 45
0.0
1001
ACAD
1000
AcDbSavedByObjectVersion
1070
     0
  0
VISUALSTYLE
  5
1E6
102
{ACAD_XDICTIONARY
360
72D7
102
}
102
{ACAD_REACTORS
330
EF
102
}
330
EF
100
AcDbVisualStyle
  2
EdgeColorOff
 70
    22
 71
     2
 72
     2
 73
     0
 90
        0
 40
-0.6
 41
-30.0
 62
     5
 63
     7
 74
     1
 91
        4
 64
     7
 65
   257
 75
     1
175
     1
 42
1.0
 92
        8
 66
     7
 43
1.0
 76
     1
 77
     6
 78
     2
 67
     7
 79
     5
170
     0
171
     0
290
     0
174
     0
 93
        1
 44
0.0
173
     0
291
     1
 45
0.0
1001
ACAD
1000
AcDbSavedByObjectVersion
1070
     0
  0
VISUALSTYLE
  5
FE
102
{ACAD_XDICTIONARY
360
72CD
102
}
102
{ACAD_REACTORS
330
EF
102
}
330
EF
100
AcDbVisualStyle
  2
Facepattern
 70
    15
 71
     2
 72
     2
 73
     1
 90
        0
 40
-0.6
 41
-30.0
 62
     5
 63
     7
 74
     1
 91
        4
 64
     7
 65
   257
 75
     1
175
     1
 42
1.0
 92
        8
 66
     7
 43
1.0
 76
     1
 77
     6
 78
     2
 67
     7
 79
     5
170
     0
171
     0
290
     0
174
     0
 93
        1
 44
0.0
173
     0
291
     1
 45
0.0
1001
ACAD
1000
AcDbSavedByObjectVersion
1070
     0
  0
VISUALSTYLE
  5
F0
102
{ACAD_XDICTIONARY
360
72B1
102
}
102
{ACAD_REACTORS
330
EF
102
}
330
EF
100
AcDbVisualStyle
  2
Flat
 70
     0
 71
     2
 72
     1
 73
     1
 90
        2
 40
-0.6
 41
30.0
 62
     5
 63
     7
 74
     0
 91
        0
 64
     7
 65
   257
 75
     1
175
     1
 42
1.0
 92
        8
 66
     7
 43
1.0
 76
     1
 77
     6
 78
     2
 67
     7
 79
     5
170
     0
171
     0
290
     0
174
     0
 93
       13
 44
0.0
173
     0
291
     1
 45
0.0
1001
ACAD
1000
AcDbSavedByObjectVersion
1070
     0
  0
VISUALSTYLE
  5
F1
102
{ACAD_XDICTIONARY
360
72B3
102
}
102
{ACAD_REACTORS
330
EF
102
}
330
EF
100
AcDbVisualStyle
  2
FlatWithEdges
 70
     1
 71
     2
 72
     1
 73
     1
 90
        2
 40
-0.6
 41
30.0
 62
     5
 63
     7
 74
     1
 91
        0
 64
     7
 65
   257
 75
     1
175
     1
 42
1.0
 92
        0
 66
   257
 43
1.0
 76
     1
 77
     6
 78
     2
 67
     7
 79
     5
170
     0
171
     0
290
     0
174
     0
 93
       13
 44
0.0
173
     0
291
     1
 45
0.0
1001
ACAD
1000
AcDbSavedByObjectVersion
1070
     0
  0
VISUALSTYLE
  5
F2
102
{ACAD_XDICTIONARY
360
72B5
102
}
102
{ACAD_REACTORS
330
EF
102
}
330
EF
100
AcDbVisualStyle
  2
Gouraud
 70
     2
 71
     2
 72
     2
 73
     1
 90
        2
 40
-0.6
 41
30.0
 62
     5
 63
     7
 74
     0
 91
        0
 64
     7
 65
   257
 75
     1
175
     1
 42
1.0
 92
        0
 66
     7
 43
1.0
 76
     1
 77
     6
 78
     2
 67
     7
 79
     5
170
     0
171
     0
290
     0
174
     0
 93
       13
 44
0.0
173
     0
291
     1
 45
0.0
1001
ACAD
1000
AcDbSavedByObjectVersion
1070
     0
  0
VISUALSTYLE
  5
F3
102
{ACAD_XDICTIONARY
360
72B7
102
}
102
{ACAD_REACTORS
330
EF
102
}
330
EF
100
AcDbVisualStyle
  2
GouraudWithEdges
 70
     3
 71
     2
 72
     2
 73
     1
 90
        2
 40
-0.6
 41
30.0
 62
     5
 63
     7
 74
     1
 91
        0
 64
     7
 65
   257
 75
     1
175
     1
 42
1.0
 92
        0
 66
   257
 43
1.0
 76
     1
 77
     6
 78
     2
 67
     7
 79
     5
170
     0
171
     0
290
     0
174
     0
 93
       13
 44
0.0
173
     0
291
     1
 45
0.0
1001
ACAD
1000
AcDbSavedByObjectVersion
1070
     0
  0
VISUALSTYLE
  5
F7
102
{ACAD_XDICTIONARY
360
72BF
102
}
102
{ACAD_REACTORS
330
EF
102
}
330
EF
100
AcDbVisualStyle
  2
Hidden
 70
     6
 71
     1
 72
     2
 73
     2
 90
        0
 40
-0.6
 41
-30.0
 62
     5
 63
     7
 74
     2
 91
        2
 64
     7
 65
   257
 75
     2
175
     1
 42
40.0
 92
        0
 66
   257
 43
1.0
 76
     1
 77
     6
 78
     2
 67
     7
 79
     3
170
     0
171
     0
290
     0
174
     0
 93
        1
 44
0.0
173
     0
291
     0
 45
0.0
1001
ACAD
1000
AcDbSavedByObjectVersion
1070
     0
  0
VISUALSTYLE
  5
1E4
102
{ACAD_XDICTIONARY
360
72D3
102
}
102
{ACAD_REACTORS
330
EF
102
}
330
EF
100
AcDbVisualStyle
  2
JitterOff
 70
    20
 71
     2
 72
     2
 73
     0
 90
        0
 40
-0.6
 41
-30.0
 62
     5
 63
     7
 74
     1
 91
        4
 64
     7
 65
   257
 75
     1
175
     1
 42
1.0
 92
       10
 66
     7
 43
1.0
 76
     1
 77
     6
 78
     2
 67
     7
 79
     5
170
     0
171
     0
290
     0
174
     0
 93
        1
 44
0.0
173
     0
291
     1
 45
0.0
1001
ACAD
1000
AcDbSavedByObjectVersion
1070
     0
  0
VISUALSTYLE
  5
FD
102
{ACAD_XDICTIONARY
360
72CB
102
}
102
{ACAD_REACTORS
330
EF
102
}
330
EF
100
AcDbVisualStyle
  2
Linepattern
 70
    14
 71
     2
 72
     2
 73
     1
 90
        0
 40
-0.6
 41
-30.0
 62
     5
 63
     7
 74
     1
 91
        4
 64
     7
 65
   257
 75
     7
175
     7
 42
1.0
 92
        8
 66
     7
 43
1.0
 76
     1
 77
     6
 78
     2
 67
     7
 79
     5
170
     0
171
     0
290
     0
174
     0
 93
        1
 44
0.0
173
     0
291
     1
 45
0.0
1001
ACAD
1000
AcDbSavedByObjectVersion
1070
     0
  0
VISUALSTYLE
  5
1E5
102
{ACAD_XDICTIONARY
360
72D5
102
}
102
{ACAD_REACTORS
330
EF
102
}
330
EF
100
AcDbVisualStyle
  2
OverhangOff
 70
    21
 71
     2
 72
     2
 73
     0
 90
        0
 40
-0.6
 41
-30.0
 62
     5
 63
     7
 74
     1
 91
        4
 64
     7
 65
   257
 75
     1
175
     1
 42
1.0
 92
        9
 66
     7
 43
1.0
 76
     1
 77
     6
 78
     2
 67
     7
 79
     5
170
     0
171
     0
290
     0
174
     0
 93
        1
 44
0.0
173
     0
291
     1
 45
0.0
1001
ACAD
1000
AcDbSavedByObjectVersion
1070
     0
  0
VISUALSTYLE
  5
F9
102
{ACAD_XDICTIONARY
360
72C3
102
}
102
{ACAD_REACTORS
330
EF
102
}
330
EF
100
AcDbVisualStyle
  2
Realistic
 70
     8
 71
     2
 72
     2
 73
     0
 90
        2
 40
-0.6
 41
30.0
 62
     5
 63
     7
 74
     0
 91
        0
 64
     7
 65
   257
 75
     1
175
     1
 42
1.0
 92
        8
 66
   257
 43
1.0
 76
     1
 77
     6
 78
     2
 67
     7
 79
     3
170
     0
171
     0
290
     0
174
     0
 93
       13
 44
0.0
173
     0
291
     0
 45
0.0
1001
ACAD
1000
AcDbSavedByObjectVersion
1070
     0
  0
VISUALSTYLE
  5
1F3
102
{ACAD_XDICTIONARY
360
72E1
102
}
102
{ACAD_REACTORS
330
EF
102
}
330
EF
100
AcDbVisualStyle
  2
Shaded
 70
    27
 71
     2
 72
     2
 73
     1
 90
        2
 40
-0.6
 41
30.0
 62
     5
 63
     7
 74
     0
 91
        4
 64
     7
 65
   257
 75
     1
175
     1
 42
1.0
 92
        8
 66
   257
 43
1.0
 76
     1
 77
     6
 78
     2
 67
     8
 79
     3
170
     0
171
     0
290
     0
174
     0
 93
        5
 44
0.0
173
     0
291
     0
 45
0.0
1001
ACAD
1000
AcDbSavedByObjectVersion
1070
     0
  0
VISUALSTYLE
  5
1F2
102
{ACAD_XDICTIONARY
360
72DF
102
}
102
{ACAD_REACTORS
330
EF
102
}
330
EF
100
AcDbVisualStyle
  2
Shaded with edges
 70
    26
 71
     2
 72
     2
 73
     1
 90
        2
 40
-0.6
 41
30.0
 62
     5
 63
     7
 74
     1
 91
        2
 64
     7
 65
   257
 75
     2
175
     1
 42
1.0
 92
        8
 66
   257
 43
1.0
 76
     1
 77
     6
 78
     2
 67
     7
 79
     3
170
     0
171
     0
290
     0
174
     0
 93
        5
 44
0.0
173
     0
291
     0
 45
0.0
1001
ACAD
1000
AcDbSavedByObjectVersion
1070
     0
  0
VISUALSTYLE
  5
1EF
102
{ACAD_XDICTIONARY
360
72D9
102
}
102
{ACAD_REACTORS
330
EF
102
}
330
EF
100
AcDbVisualStyle
  2
Shades of Gray
 70
    23
 71
     2
 72
     2
 73
     3
 90
        0
 40
-0.6
 41
-30.0
 62
     5
 63
     7
 74
     2
 91
        2
 64
     7
 65
     7
 75
     1
175
     1
 42
40.0
 92
        8
 66
     7
 43
1.0
 76
     1
 77
     6
 78
     2
 67
     7
 79
     3
170
     0
171
     0
290
     0
174
     0
 93
        1
 44
0.0
173
     0
291
     0
 45
0.0
1001
ACAD
1000
AcDbSavedByObjectVersion
1070
     0
  0
VISUALSTYLE
  5
1F0
102
{ACAD_XDICTIONARY
360
72DB
102
}
102
{ACAD_REACTORS
330
EF
102
}
330
EF
100
AcDbVisualStyle
  2
Sketchy
 70
    24
 71
     1
 72
     2
 73
     2
 90
        0
 40
-0.6
 41
-30.0
 62
     5
 63
     7
 74
     2
 91
        2
 64
     7
 65
     7
 75
     1
175
     1
 42
40.0
 92
       11
 66
     7
 43
1.0
 76
     1
 77
     6
 78
     2
 67
     7
 79
     6
170
     0
171
     0
290
     0
174
     0
 93
        1
 44
0.0
173
     0
291
     0
 45
0.0
1001
ACAD
1000
AcDbSavedByObjectVersion
1070
     0
  0
VISUALSTYLE
  5
FC
102
{ACAD_XDICTIONARY
360
72C9
102
}
102
{ACAD_REACTORS
330
EF
102
}
330
EF
100
AcDbVisualStyle
  2
Thicken
 70
    13
 71
     2
 72
     2
 73
     1
 90
        0
 40
-0.6
 41
-30.0
 62
     5
 63
     7
 74
     1
 91
        4
 64
     7
 65
   257
 75
     1
175
     1
 42
1.0
 92
       12
 66
     7
 43
1.0
 76
     1
 77
     6
 78
     2
 67
     7
 79
     5
170
     0
171
     0
290
     0
174
     0
 93
        1
 44
0.0
173
     0
291
     1
 45
0.0
1001
ACAD
1000
AcDbSavedByObjectVersion
1070
     0
  0
VISUALSTYLE
  5
F6
102
{ACAD_XDICTIONARY
360
72BD
102
}
102
{ACAD_REACTORS
330
EF
102
}
330
EF
100
AcDbVisualStyle
  2
Wireframe
 70
     5
 71
     0
 72
     2
 73
     0
 90
        0
 40
-0.6
 41
-30.0
 62
     5
 63
     7
 74
     1
 91
        4
 64
     7
 65
   257
 75
     1
175
     1
 42
1.0
 92
        0
 66
   257
 43
1.0
 76
     1
 77
     6
 78
     2
 67
     7
 79
     3
170
     0
171
     0
290
     0
174
     0
 93
        1
 44
0.0
173
     0
291
     0
 45
0.0
1001
ACAD
1000
AcDbSavedByObjectVersion
1070
     0
  0
VISUALSTYLE
  5
1F1
102
{ACAD_XDICTIONARY
360
72DD
102
}
102
{ACAD_REACTORS
330
EF
102
}
330
EF
100
AcDbVisualStyle
  2
X-Ray
 70
    25
 71
     2
 72
     2
 73
     1
 90
        1
 40
0.5
 41
-30.0
 62
     5
 63
     7
 74
     1
 91
        0
 64
     7
 65
   257
 75
     1
175
     1
 42
1.0
 92
        8
 66
     7
 43
1.0
 76
     1
 77
     6
 78
     2
 67
     7
 79
     3
170
     0
171
     0
290
     0
174
     0
 93
       13
 44
0.0
173
     0
291
     0
 45
0.0
1001
ACAD
1000
AcDbSavedByObjectVersion
1070
     0
  0
DICTIONARYVAR
  5
146
102
{ACAD_REACTORS
330
5E
102
}
330
5E
100
DictionaryVariables
280
     0
  1
1:1
  0
DICTIONARYVAR
  5
259
102
{ACAD_REACTORS
330
5E
102
}
330
5E
100
DictionaryVariables
280
     0
  1
3.500000
  0
DICTIONARYVAR
  5
25A
102
{ACAD_REACTORS
330
5E
102
}
330
5E
100
DictionaryVariables
280
     0
  1
acadiso.lin
  0
DICTIONARYVAR
  5
145
102
{ACAD_REACTORS
330
5E
102
}
330
5E
100
DictionaryVariables
280
     0
  1
STANDARD
  0
DICTIONARYVAR
  5
84
102
{ACAD_REACTORS
330
5E
102
}
330
5E
100
DictionaryVariables
280
     0
  1
STANDARD
  0
DICTIONARYVAR
  5
227
102
{ACAD_REACTORS
330
5E
102
}
330
5E
100
DictionaryVariables
280
     0
  1
Metric50
  0
DICTIONARYVAR
  5
228
102
{ACAD_REACTORS
330
5E
102
}
330
5E
100
DictionaryVariables
280
     0
  1
Metric50
  0
DICTIONARYVAR
  5
5F
102
{ACAD_REACTORS
330
5E
102
}
330
5E
100
DictionaryVariables
280
     0
  1
2
  0
DICTIONARYVAR
  5
63
102
{ACAD_REACTORS
330
5E
102
}
330
5E
100
DictionaryVariables
280
     0
  1
1
  0
DICTIONARYVAR
  5
7252
102
{ACAD_REACTORS
330
5E
102
}
330
5E
100
DictionaryVariables
280
     0
  1
0
  0
DICTIONARYVAR
  5
1AE
102
{ACAD_REACTORS
330
5E
102
}
330
5E
100
DictionaryVariables
280
     0
  1
0
  0
DICTIONARYVAR
  5
1AF
102
{ACAD_REACTORS
330
5E
102
}
330
5E
100
DictionaryVariables
280
     0
  1
0
  0
DICTIONARYVAR
  5
7250
102
{ACAD_REACTORS
330
5E
102
}
330
5E
100
DictionaryVariables
280
     0
  1
2
  0
DICTIONARYVAR
  5
724F
102
{ACAD_REACTORS
330
5E
102
}
330
5E
100
DictionaryVariables
280
     0
  1
1
  0
DICTIONARYVAR
  5
72A2
102
{ACAD_REACTORS
330
5E
102
}
330
5E
100
DictionaryVariables
280
     0
  1
80.000000
  0
DICTIONARYVAR
  5
72A1
102
{ACAD_REACTORS
330
5E
102
}
330
5E
100
DictionaryVariables
280
     0
  1
5.000000
  0
DICTIONARYVAR
  5
7251
102
{ACAD_REACTORS
330
5E
102
}
330
5E
100
DictionaryVariables
280
     0
  1
127
  0
DICTIONARYVAR
  5
72A3
102
{ACAD_REACTORS
330
5E
102
}
330
5E
100
DictionaryVariables
280
     0
  1
2
  0
DICTIONARY
  5
72E5
330
21C
100
AcDbDictionary
280
     1
281
     1
  3
ACAD_XREC_ROUNDTRIP
360
72E6
  0
DICTIONARY
  5
72AA
330
D3
100
AcDbDictionary
280
     1
281
     1
  3
ACAD_XREC_ROUNDTRIP
360
72AB
  0
DICTIONARY
  5
72AC
330
D7
100
AcDbDictionary
280
     1
281
     1
  3
ACAD_XREC_ROUNDTRIP
360
72AD
  0
DICTIONARY
  5
72A7
330
22
100
AcDbDictionary
280
     1
281
     1
  3
ACAD_XREC_ROUNDTRIP
360
72A8
  0
DICTIONARY
  5
1F9
330
ED
100
AcDbDictionary
280
     1
281
     1
  3
ACAD_XREC_ROUNDTRIP
360
72AF
  3
FBXASSET
360
1FA
  0
DICTIONARY
  5
1F7
330
EC
100
AcDbDictionary
280
     1
281
     1
  3
ACAD_XREC_ROUNDTRIP
360
72AE
  3
FBXASSET
360
1F8
  0
DICTIONARY
  5
173
330
EE
100
AcDbDictionary
280
     1
281
     1
  3
ACAD_XREC_ROUNDTRIP
360
72B0
  3
BUMPTILE
360
175
  3
DIFFUSETILE
360
174
  3
FBXASSET
360
1FB
  3
OPACITYTILE
360
176
  3
REFLECTIONTILE
360
177
  0
DICTIONARY
  5
72D1
330
12E
100
AcDbDictionary
280
     1
281
     1
  3
ACAD_XREC_ROUNDTRIP
360
72D2
  0
DICTIONARY
  5
72E3
330
21A
100
AcDbDictionary
280
     1
281
     1
  3
ACAD_XREC_ROUNDTRIP
360
72E4
  0
DICTIONARY
  5
162
330
7F
100
AcDbDictionary
280
     1
281
     1
  3
ACAD_ROUNDTRIP_2008_TABLESTYLE_CELLSTYLEMAP
360
72A4
  3
ACAD_XREC_ROUNDTRIP
360
72A9
  0
DICTIONARY
  5
72BB
330
F5
100
AcDbDictionary
280
     1
281
     1
  3
ACAD_XREC_ROUNDTRIP
360
72BC
  0
DICTIONARY
  5
72B9
330
F4
100
AcDbDictionary
280
     1
281
     1
  3
ACAD_XREC_ROUNDTRIP
360
72BA
  0
DICTIONARY
  5
72C7
330
FB
100
AcDbDictionary
280
     1
281
     1
  3
ACAD_XREC_ROUNDTRIP
360
72C8
  0
DICTIONARY
  5
72CF
330
FF
100
AcDbDictionary
280
     1
281
     1
  3
ACAD_XREC_ROUNDTRIP
360
72D0
  0
DICTIONARY
  5
72C1
330
F8
100
AcDbDictionary
280
     1
281
     1
  3
ACAD_XREC_ROUNDTRIP
360
72C2
  0
DICTIONARY
  5
72C5
330
FA
100
AcDbDictionary
280
     1
281
     1
  3
ACAD_XREC_ROUNDTRIP
360
72C6
  0
DICTIONARY
  5
72D7
330
1E6
100
AcDbDictionary
280
     1
281
     1
  3
ACAD_XREC_ROUNDTRIP
360
72D8
  0
DICTIONARY
  5
72CD
330
FE
100
AcDbDictionary
280
     1
281
     1
  3
ACAD_XREC_ROUNDTRIP
360
72CE
  0
DICTIONARY
  5
72B1
330
F0
100
AcDbDictionary
280
     1
281
     1
  3
ACAD_XREC_ROUNDTRIP
360
72B2
  0
DICTIONARY
  5
72B3
330
F1
100
AcDbDictionary
280
     1
281
     1
  3
ACAD_XREC_ROUNDTRIP
360
72B4
  0
DICTIONARY
  5
72B5
330
F2
100
AcDbDictionary
280
     1
281
     1
  3
ACAD_XREC_ROUNDTRIP
360
72B6
  0
DICTIONARY
  5
72B7
330
F3
100
AcDbDictionary
280
     1
281
     1
  3
ACAD_XREC_ROUNDTRIP
360
72B8
  0
DICTIONARY
  5
72BF
330
F7
100
AcDbDictionary
280
     1
281
     1
  3
ACAD_XREC_ROUNDTRIP
360
72C0
  0
DICTIONARY
  5
72D3
330
1E4
100
AcDbDictionary
280
     1
281
     1
  3
ACAD_XREC_ROUNDTRIP
360
72D4
  0
DICTIONARY
  5
72CB
330
FD
100
AcDbDictionary
280
     1
281
     1
  3
ACAD_XREC_ROUNDTRIP
360
72CC
  0
DICTIONARY
  5
72D5
330
1E5
100
AcDbDictionary
280
     1
281
     1
  3
ACAD_XREC_ROUNDTRIP
360
72D6
  0
DICTIONARY
  5
72C3
330
F9
100
AcDbDictionary
280
     1
281
     1
  3
ACAD_XREC_ROUNDTRIP
360
72C4
  0
DICTIONARY
  5
72E1
330
1F3
100
AcDbDictionary
280
     1
281
     1
  3
ACAD_XREC_ROUNDTRIP
360
72E2
  0
DICTIONARY
  5
72DF
330
1F2
100
AcDbDictionary
280
     1
281
     1
  3
ACAD_XREC_ROUNDTRIP
360
72E0
  0
DICTIONARY
  5
72D9
330
1EF
100
AcDbDictionary
280
     1
281
     1
  3
ACAD_XREC_ROUNDTRIP
360
72DA
  0
DICTIONARY
  5
72DB
330
1F0
100
AcDbDictionary
280
     1
281
     1
  3
ACAD_XREC_ROUNDTRIP
360
72DC
  0
DICTIONARY
  5
72C9
330
FC
100
AcDbDictionary
280
     1
281
     1
  3
ACAD_XREC_ROUNDTRIP
360
72CA
  0
DICTIONARY
  5
72BD
330
F6
100
AcDbDictionary
280
     1
281
     1
  3
ACAD_XREC_ROUNDTRIP
360
72BE
  0
DICTIONARY
  5
72DD
330
1F1
100
AcDbDictionary
280
     1
281
     1
  3
ACAD_XREC_ROUNDTRIP
360
72DE
  0
XRECORD
  5
72E6
102
{ACAD_REACTORS
330
72E5
102
}
330
72E5
100
AcDbXrecord
280
     1
102
DISPLAYNAME
  1
Metric50
102
FLAGS
 90
        0
  0
XRECORD
  5
72AB
102
{ACAD_REACTORS
330
72AA
102
}
330
72AA
100
AcDbXrecord
280
     1
102
SHADEPLOT
 70
     0
102
SHADEPLOTRESLEVEL
 70
     2
102
SHADEPLOTCUSTOMDPI
 70
   300
  0
XRECORD
  5
72AD
102
{ACAD_REACTORS
330
72AC
102
}
330
72AC
100
AcDbXrecord
280
     1
102
SHADEPLOT
 70
     0
102
SHADEPLOTRESLEVEL
 70
     2
102
SHADEPLOTCUSTOMDPI
 70
   300
  0
XRECORD
  5
72A8
102
{ACAD_REACTORS
330
72A7
102
}
330
72A7
100
AcDbXrecord
280
     1
102
SHADEPLOT
 70
     0
102
SHADEPLOTRESLEVEL
 70
     2
102
SHADEPLOTCUSTOMDPI
 70
   300
  0
XRECORD
  5
72AF
102
{ACAD_REACTORS
330
1F9
102
}
330
1F9
100
AcDbXrecord
280
     1
102
MATERIAL
148
0.0
149
0.0
149
0.0
 93
        0
 94
       63
282
     0
 72
     1
 77
     1
171
     1
175
     1
179
     1
273
     0
  0
XRECORD
  5
1FA
102
{ACAD_REACTORS
330
1F9
102
}
330
1F9
100
AcDbXrecord
280
     1
 70
     1
 90
429727718
  1
D62C5603-E3A1-4AEA-B7FB-FE5D8D0755AF
310
504B03040A0000080000CC70623B3DEE336E79000000790000001B0000006175746F6465736B2D64657369676E2D7061636B6167652E786D6C3C3F786D6C2076657273696F6E3D22312E302220656E636F64696E673D227574662D3822203F3E3C666F726D6174733E3C666F726D61743E687474703A2F2F736368656D612E
310
6175746F6465736B2E636F6D2F64657369676E2D7061636B6167652F323030393C2F666F726D61743E3C2F666F726D6174733E504B0304140006080800CC70623BD486FD9CA0000000F4000000130000005B436F6E74656E745F54797065735D2E786D6C7D8EC10E82300C865F65E91D8A1E8C310C0EEA1BF002731658846E
310
D98AC1B77784ABF1D8FE5FBFBF75BBCE937A534CCEB38643598122B6FEE978D0B0485F9C41B54DDD7D022595594E1A469170414C76A4D9A4D207E29CF43ECE46F218070CC6BECC4078ACAA135ACF422C856C0E68EA1BF5669944DDD7BCDE7B1F8E415D77AECB980613C2E4AC91FC167A2B244592486606FC29C8FD7F045B9A
310
EF7053A7E60B504B0304140006080800CC70623B853B8169EB0000007C01000008000000636F72652E786D6C8D90416EC3201045AF62CDB6C206821CC7C244919D9CA01740401C94182C03558F5F9C3852BBEB6A467FFE9B197D7EFC9E1EC5975982F5AE035262288C535E5B377690E21535501C055FBC8FBF6C503839990E
310
5619041F179FE64D52DE45E362569DD7661365082642A11EB9E920A89B99642953CC8E702F67A9EE7234257977194EC9EAE275C4EABCCF5EAD5940D4AC6F0E35A568B8F43562CD7046CD199FD07E60174276A7BE677B5EADB0E0D14EEFFB6A31321A0D82627C4084204C3F096B71DD52F6819B16635EADF63F509AF53FA164
310
5DDCD1EDDD17164090FCC8732078B56691CB33A85CD7DCC40F504B0304140006080800CC70623B55019EA25F0000007C00000007000000636E782E786D6C4DCB3B0E80201045D1AD90E915ED2CF8AC45050C11660C8261F98AB1B07AC9C97D42D718D865D3E909258CFD00CCE24AC6E326A164D74DC0B4128928FF32603847
310
2BA13128B1252AC747C6BAB984FC68F0B87FE8960A5C09FE86CFB69FBA01504B0304140006080800CC70623BDBABAAF470010000D40300000C0000006662782F636F72652E786D6CC553D16E823014FD95A6AF4B694182CC941A83FA05FB810A9511A125A5257EFE2E82712ECEB8A7F100CD39F7F69E734AF9FADC366850B6
310
AF8DCE7018308C942E4C59EB2AC3DE1D498AD15A706B8CFB56869196ADCAF00863C12B6B7C374385D14E6907A836A59A41D9F7CA615434B0C8705F7CAA5606D23BA8E84F41278B93AC54100640439DE0BDB320004D43C63716C7C399D30917DCFBBA9CD9BA8469F5B156168B24CED3F7248AC8769F27244EB73B92EED8862C
310
B7F13E0C179B3C8F979C8ECD82BBBABDAA2BAC924E9558448CBD9330242CFA08E3154B5651FCC6D215639C8EE5774DBE2B5F6CF2B5768B68963BB5F5588420E442FC700B1139D4CB01F450C1E918227C2E09DF070D8140C84E1E9AAB8F1340832A9CB13130A5F1376A908D57309505ECF2A0DF179C4E9D30F5B239B87E3823
310
7A79C6F31DE1A8A5AEC08474B03C7837EAE4938639B44E5932B833D2C6B6B279CDC613877FA26EE21F4A2A4C63EC7F29A2F301D1F9F7A0E37D145F504B0304140006080800CC70623B9C113CC27E0000009D0000000B0000006662782F636E782E786D6C4DCCDF0A83201C86E15B91DFB94BFB330DD428C8FB886521330DA7
310
6397BF1A1DECE883878F57749FCDA1B7892F1BBC047A23808C7F84D9FA55424E0BE6803A256208E9EF06C84F9B91703228B1C690F78B66B34CD9A5439DF5CF0BFBF65E35BCA1B8D6A5C6F540381E886698B5741C695F9503EBA150A2F8958E3DC3EA0B504B0304140006080800CC70623B7DF2F77C2A010000120200003100
310
00006662782F41393633353835312D344632462D344230382D423046372D3739314545314133324237412F636F72652E786D6C8D51DB8EC22014FC15C2939B0D2DB4B45643319AE817EC0F6041255A68B86CFCFC856D4D76DF7CE190393373060EDB3DC707F856CE6B6B7A480A0C81328395DA5C7B18C3057510EC3873D686
310
3F34088C18550F330C39BB3A1BA7051AAC09CA84841A2BD5020AEF55806078A44B0FFD7053A328440C89E1EFC52486BBB8AA8214A99D789CF9E05200300FC927E4FB4D5B375D43103D5527440FB843077C5AA3F5861C8F645F5787F59E95B390B318B55CE45AA638FAA2957BD7248B390B7A7CC51F9C124149C82B8C378810
310
84AB2F42B7B8DD56F413775B8C5999E9FF4471926F8AA236A1AE96B8B3CC434E5839373893369E1FAF30EA395917409EB7F26AF8801C171837A4A6AC9C89E9F9C9B1A58BA30FD6A5EF5DDDCF894B9AD9B6A59C957943A9FCAE2FD5BC4DFE03504B0304140006080800CC70623BAD7543B64E01000033030000300000006662
310
782F41393633353835312D344632462D344230382D423046372D3739314545314133324237412F636E782E786D6CD593CD6EC32010845F0571AD6CE3D48AD20813A9873E410FBD12D82434182C7EAAE6EDBB2424CD25871E7B41D6EC30B3FA84F9E67BB2E40B4234DE8DB46F1925E094D7C6ED479AD3AE5951B2113C789FEE
310
6C943839C1488B4C05DF079FE72A69D8C96C13AAD6B8631503449F83828872B949AC57D26200B826A308D316B4064D6E46FCDA41C05550DC9E483A00797BFD207EFB092A45DE9514C1BBD22178396BD39D891265658C238DEA00936C654E5E433CB65A26D9F6EDB5EBC14EBF49A45CB856E66048291F6939A9A81BB5C89177
310
38143CA680F4AA299D66A042CEB3354A2684DC9D8D178FE0D9B8B41CAAD720F880EE7EF93C0C18769E099ECC04D5A102C8049A8A05632F4DDF376CF1DE0F6BB65C2F8627B65A33C6BB62177CEBBDAD973006829F89F22E814B54F4BC2BE347F8AA8F681390B50FA73F804400B5F542E796F19FF974E7F78DB802FE05E20750
310
4B0304140006080800CC70623BE75B7789680500003C100000340000006662782F41393633353835312D344632462D344230382D423046372D3739314545314133324237412F6F626A656374732E786D6CAD575B8F9B3818FD2B887D06C22499CB8AA1CA655245D5B455A356FB305264C061D8018C6C3393D95FBFC7600890
310
A4CD5EF210B0B1BFEBF98E3F7B1FF6596ABC522E1296DF9BAE3D320D9A872C4AF2F8DE2CE5CEBA358D0FBEC719939D65A691938CDE9B6ADAF4BD98B3B2D05311DD91329583D9D5FC0F438434A7A611A644887B5384CF34233629258BA878B12322891DEFF6B66BD70BFB62634E8AE781D082709A4B588AF91C528CDA28B73F
310
1C998EEF39EABBEFA97FBD6A7C7E9553F9D3D79FE442923C3C523610337627CB87ABE99D359D4CC6D6E4FACAB5E6ABF9D2726FC6A3C5F56271377BB88362213924694B38DD99FE47C48627A1E7D49F5A8BB5E1A74C0A599ED3B0F21F1E56366B89112D681E218F0915D0D6F17AD41FBA2A369DCF6335D62ABBD39779D5DDD1
310
11D4D8DE3CBB96B2E04FB8202E41051754A1AA8E8F76B4C6DFE810B580B1547F4B84911149794252234D024EF8BBE963A95AE27B3D310A9D5C215C7960FAEE415ED75694C6AFB17BCACA5D99A60A9AA65F217B0BFC53292ACB92BF283FAD0D3621576592CB5BED907C2FA8E9DF794E35E97BEA31BED21FEB401ABB94C44839
310
DCACBF0E1C5DA8DA5B2F4DFFD32AD86F543D9E565E7056502E157C00AD2671CD534549AB752FCA9CDA00677A313F04E51B22FF19E57B300579E3C97EB29F682D92935CEC18CF901B7B54FD8C51F362B56FC72FE0B3C1EAE335EDCCBF5AEC39ADB17DC238973F804BA5E6F6BFE7AF1FB32E523BE9F3BD571418E3631DCA4D48
310
5250CF639223210A9446CA30052EDF057BD35F8329C1ECD84552BF0DC8D18BE7BCE23BFE6BD960AB4A7DE79923A103BEBD80F911CBAA2C60DB19B01CF164A5583B772EE6D3FFA56666CBCDA74DC97724A48F9A58967497E489C4D979006FD7A05E227A1EBDD0F737C623387A9C844D3709995625106D157315F8B8392CD4E0
310
A0B9A720C4BE9829CEF37EA1E13111214D53925356365ADA634861B52519DD27A00AEB808EAF0628E6F435519D446F45CF2C9CF5214F0A15B2F6D06B79DA3EE3CBF7F56780D2F4E7EF73A0F5E5B02A38D07DC852C6B7C1FBB6664213E0C39E3EBA7FF4E1AD23EA2829407C85E586727488B751B2DB9502BC7B228A3FD68B6E
310
A65A22397E690AA8D158D7E404EC8CDA235CC3B7D1898680131CEC2CDF2638C65196279577750F15884AEE19F94199155B92B13297978469D4F8D358DF0AEF7631E28DC8F0D9F437D5D39A83B2231A1D52D543813A824EF8D44BCFF2FA6A31BD1E8DAD87F1CCB526B3879935BF59CDADD5C37479BB1CDD4CA7B3556B516589
310
EF352754B706114D9C885EC9131DE6EFEB43D99AFE2391C2F958179413D7CFEF6B1B6DB1E7600F00DE6E5C67454A339A4BA2E0FBA85ED26F045D454F463DBFCE484C2F90F2E5E3666003662ED8F755951A7D1BECD5B30B550B2785C8E7320B7292A4838DDA71BBC863ED7613CAF659337A3354231D4FF4A182A54904C2898C
310
98B28C4AD0CE056CCF332A80986E571EE9DBC305BB5FEB7E509220A58D25CF042D712A806AC0AD0C657FDEF80D2D9CEAA2EE4D1C76F60BFE74219A06527D6F82DF6412526107381E55E353090704D085B52408A8913C4ED159D79BDA71BB4BC506F4831350EB6F975CD22D69BF7AC49B91A2C0A9DDA3D5CA36AD20FC478E37
310
E61844E2352865EBCB61A275A65283CAAA9DD27703B4102F5AF51EF5F573B75CBB5AD38BC845F7A49F82A0966A49C2E3EA5EA0ECD326CD965F1DB402C6FA8B51A4658C5C5E2EC9E214602E55810345408596591009A82E7E7FFACA19EEA299B14A0081A705CB3296EBC14CDF658DCD336EA6D1136881AAEB87B81AB9EE53D5
310
F5EB8BC8362082DA24122F98680A4E7930C01A0079749CEA14382A0783E5EBA5A10F8C098456A03D6A4AEB6BB881E2513747552A5DB22C7EDAF83BD5528081A365F7FF06504B0304140006080000CC70623B000000000000000000000000350000006662782F41393633353835312D344632462D344230382D423046372D37
310
39314545314133324237412F76657274696365732E62696E504B0304140006080800CC70623BF270F1330600000004000000360000006662782F41393633353835312D344632462D344230382D423046372D3739314545314133324237412F747269616E676C65732E62696E636660600000504B0304140006080000CC7062
310
3B000000000000000000000000370000006662782F41393633353835312D344632462D344230382D423046372D3739314545314133324237412F617474726962757465732E62696E504B0304140006080800CC70623B08DA0BD19000000041010000360000006662782F41393633353835312D344632462D344230382D4230
310
46372D3739314545314133324237412F6469726563746F72792E786D6C858F410AC3201045AF22B36F53E9A60B35CBEEBAE80D244E44489C6234F4F835464A48035D0DF398FF9F8AF63D0E6CC63039F212F8F9020C7D47C6792B21C5FE7403D62A1188E2E60C98D7234A5830286103A55745067B9D86B8A3CF9C7F90C11DE6
310
07FB144396D7B6A82D282E9A152AD114D5EF2CB866EEE831B8EEA07A7BB5A8D7D61A2BAAEB7FD5F70921FF497D00504B0304140006080800CC70623BEDD1DC58FD000000A00100003B0000006662782F41393633353835312D344632462D344230382D423046372D3739314545314133324237412F7265736F75726365732F
310
636F72652E786D6C8D504B6E833010BD0A9A6D65B00922041947112427E8052C33A156828DFCA97AFC9A40A576D7CDCCE87D344F8F9FBFE667F689CE6B6B3A6039850C8DB2A336530731DC4903D95970676DF82583CCC8193B5861107C72362E3BA4AC096842428D1D7107A5F7182053CF7474E0D507CE32973124857FE48B
310
540F3961CEF244279DE03EB81420DB9EAC1384436FA353E879B1B182C7A8C75DA3C7F453DF353A1075D537A7BA6464B8F535A99AE14A9A2BBD90E350DD183B5CFABE3AF262350B1EF4FC9351399401471025A527C218A1E53BAB5A5AB765F5469B96525EACF23FA6B88CFF34456DC2A1DCE36E360F82A5202F42F062ED2BAD
310
579969AFDD8A6F504B010214000A0000080000CC70623B3DEE336E79000000790000001B00000000000000000000000000000000006175746F6465736B2D64657369676E2D7061636B6167652E786D6C504B01021400140006080800CC70623BD486FD9CA0000000F40000001300000000000000000000000000B20000005B
310
436F6E74656E745F54797065735D2E786D6C504B01021400140006080800CC70623B853B8169EB0000007C010000080000000000000000000000000083010000636F72652E786D6C504B01021400140006080800CC70623B55019EA25F0000007C000000070000000000000000000000000094020000636E782E786D6C504B
310
01021400140006080800CC70623BDBABAAF470010000D40300000C00000000000000000000000000180300006662782F636F72652E786D6C504B01021400140006080800CC70623B9C113CC27E0000009D0000000B00000000000000000000000000B20400006662782F636E782E786D6C504B01021400140006080800CC70
310
623B7DF2F77C2A010000120200003100000000000000000000000000590500006662782F41393633353835312D344632462D344230382D423046372D3739314545314133324237412F636F72652E786D6C504B01021400140006080800CC70623BAD7543B64E010000330300003000000000000000000000000000D2060000
310
6662782F41393633353835312D344632462D344230382D423046372D3739314545314133324237412F636E782E786D6C504B01021400140006080800CC70623BE75B7789680500003C10000034000000000000000000000000006E0800006662782F41393633353835312D344632462D344230382D423046372D3739314545
310
314133324237412F6F626A656374732E786D6C504B01021400140006080000CC70623B0000000000000000000000003500000000000000000000000000280E00006662782F41393633353835312D344632462D344230382D423046372D3739314545314133324237412F76657274696365732E62696E504B01021400140006
310
080800CC70623BF270F133060000000400000036000000000000000000000000007B0E00006662782F41393633353835312D344632462D344230382D423046372D3739314545314133324237412F747269616E676C65732E62696E504B01021400140006080000CC70623B0000000000000000000000003700000000000000
310
000000000000D50E00006662782F41393633353835312D344632462D344230382D423046372D3739314545314133324237412F617474726962757465732E62696E504B01021400140006080800CC70623B08DA0BD1900000004101000036000000000000000000000000002A0F00006662782F41393633353835312D344632
310
462D344230382D423046372D3739314545314133324237412F6469726563746F72792E786D6C504B01021400140006080800CC70623BEDD1DC58FD000000A00100003B000000000000000000000000000E1000006662782F41393633353835312D344632462D344230382D423046372D3739314545314133324237412F7265
310
736F75726365732F636F72652E786D6C504B0506000000000E000E0080040000641100000000
  0
XRECORD
  5
72AE
102
{ACAD_REACTORS
330
1F7
102
}
330
1F7
100
AcDbXrecord
280
     1
102
MATERIAL
148
0.0
149
0.0
149
0.0
 93
        0
 94
       63
282
     0
 72
     1
 77
     1
171
     1
175
     1
179
     1
273
     0
  0
XRECORD
  5
1F8
102
{ACAD_REACTORS
330
1F7
102
}
330
1F7
100
AcDbXrecord
280
     1
 70
     1
 90
429727718
  1
30362254-06B7-45E0-A893-8CFA70E3D6BC
310
504B03040A0000080000CC70623B3DEE336E79000000790000001B0000006175746F6465736B2D64657369676E2D7061636B6167652E786D6C3C3F786D6C2076657273696F6E3D22312E302220656E636F64696E673D227574662D3822203F3E3C666F726D6174733E3C666F726D61743E687474703A2F2F736368656D612E
310
6175746F6465736B2E636F6D2F64657369676E2D7061636B6167652F323030393C2F666F726D61743E3C2F666F726D6174733E504B0304140006080800CC70623BD486FD9CA0000000F4000000130000005B436F6E74656E745F54797065735D2E786D6C7D8EC10E82300C865F65E91D8A1E8C310C0EEA1BF002731658846E
310
D98AC1B77784ABF1D8FE5FBFBF75BBCE937A534CCEB38643598122B6FEE978D0B0485F9C41B54DDD7D022595594E1A469170414C76A4D9A4D207E29CF43ECE46F218070CC6BECC4078ACAA135ACF422C856C0E68EA1BF5669944DDD7BCDE7B1F8E415D77AECB980613C2E4AC91FC167A2B244592486606FC29C8FD7F045B9A
310
EF7053A7E60B504B0304140006080800CC70623B1EC5D7A3EB0000007C01000008000000636F72652E786D6C8D90416EC3201045AF82665B6103C6756C6122AB4D4ED00B204C5C94182C03558F5F9C3852BBEB6A467FFE9B197D71FC9E6FE8CBACC17AD7032D0820E3B41FAD9B7A48F1820F808E52ACDEC75F36404ECDA687
310
4D0629A6D5A76597B477D1B89855E747B38B2A041301E95B6E7A08FAD3CCAA50296647B8168BD2573599823EBB0CA76447F43862C7BCCF5EAC59410E4DDD9C7973C2755553CCCFA4C603E3040F1565ED3B1FDE4E432BCA0D9622DAF9795FAF464533826484B498524CD807E51D79ED187F21878E10516EF63F505AC67F42C9
310
BA58B1FDDD071640D2FCC87D2045B96591CB3DA85CB7DCE40F504B0304140006080800CC70623B55019EA25F0000007C00000007000000636E782E786D6C4DCB3B0E80201045D1AD90E915ED2CF8AC45050C11660C8261F98AB1B07AC9C97D42D718D865D3E909258CFD00CCE24AC6E326A164D74DC0B4128928FF32603847
310
2BA13128B1252AC747C6BAB984FC68F0B87FE8960A5C09FE86CFB69FBA01504B0304140006080800CC70623B8C9102E971010000D40300000C0000006662782F636F72652E786D6CC5535B6E833010BC8AE5DF0A6C08340F1947A84D4ED00B38C6A128602363A31CBFCB234A53A551FA553EC09AD9F5CE8C31DB9E9B1AF5CA
310
7695D1198E428A91D2D214952E33ECDD315861B4E5CC1AE3BE9561A445A3323CC098B3D21ADFCE9034DA29ED00D5A6503328BA4E398C640D8B0C77F253352214DE4145770A5B214FA2546114020D759C75CE8200340D19DE981F0F6746269C33EFAB6266AB02A655C74A59CCF365BADC27CB5D902ED22848F6340DF238A141
310
BE88E2F57B92BFEDF23523433367AE6A2EEAA455C2A902F398D2751045018D3FA264435F3771F242571B4A1919CA6F9A7C5B3CD9E42BED16F12C776AEB308F40C848FC700B1139D4891EF410CEC810227CC6846F8386402064270EF5C5C709A05E49676C024C61FC95EA45ED154CA5211D1FF4FB8291A913A68E9B83EBBB33
310
E2A7673CDE118E5AE8124C0807CB8377834E366998436B950D7A7746DAD846D4CFD978E0F04FD455FC5D49D2D4C6FE9722321F10997F0F32DC47FE05504B0304140006080800CC70623BFFEA85907E0000009D0000000B0000006662782F636E782E786D6C4DCCD10A83201886E15B91FFDC95D95A811AB6F23E625948A6C3
310
E9D8E5AF46073BFAE0E1E365ED67B3E8ADC3CB78C7815C7240DA3DFC64DCC221C519D7805AC182F7F1EF06C88D9BE6703008B6049F9E274D7A1E938DBB5AE3D6131B2589BA0D3D965551E0B2EA732C9B9A624AAEB41E3A557677029960D9AFB4EF11165F504B0304140006080800CC70623B4FEEA4082C0100001202000031
310
0000006662782F39464131463745442D413632322D343644302D413938332D3331353338454246344243312F636F72652E786D6C8D515B6EC32010BC0AE2AB55850DD871ED0813254D72825EC00192A2C460F1A872FC42ED48ED5F7E00CDCECCCEB26C731F6FE05B39AFADE921293004CA082BB5B9F43086336A21D870E6AC
310
0D7F68109861543DCC30E4ECE26C9C164858139409093556AA051CBC570102714B8F1E7AF1A5C6A11862480C7F2DA6415C878B2A4891CA89C7990F2E050073937C42DE1DB7E4F87ED8A36D4329AA9B3D46DBAEAD504556557BD81DEBDD0761E52CE42C462D17B996298E3E6BE59E35C962CE821E1FF18553435012728A7187
310
0841987E927A8D9B35ADDF70BBC6989599FE4F1427F9A4286A132ABAC49D651EF234CD5CE04CDA78BA3DC2A8FB645D00B9DF8B57E215725C60BCA2A463E54C4CE327C7A65E1C7DB02E7DEFCBF594B864C5CA6CDBD49C957943E9FA5D5FBAF336F90F504B0304140006080800CC70623BAD7543B64E01000033030000300000
310
006662782F39464131463745442D413632322D343644302D413938332D3331353338454246344243312F636E782E786D6CD593CD6EC32010845F0571AD6CE3D48AD20813A9873E410FBD12D82434182C7EAAE6EDBB2424CD25871E7B41D6EC30B3FA84F9E67BB2E40B4234DE8DB46F1925E094D7C6ED479AD3AE5951B2113C
310
789FEE6C943839C1488B4C05DF079FE72A69D8C96C13AAD6B8631503449F83828872B949AC57D26200B826A308D316B4064D6E46FCDA41C05550DC9E483A00797BFD207EFB092A45DE9514C1BBD22178396BD39D891265658C238DEA00936C654E5E433CB65A26D9F6EDB5EBC14EBF49A45CB856E66048291F6939A9A81BB5
310
C8917738143CA680F4AA299D66A042CEB3354A2684DC9D8D178FE0D9B8B41CAAD720F880EE7EF93C0C18769E099ECC04D5A102C8049A8A05632F4DDF376CF1DE0F6BB65C2F8627B65A33C6BB62177CEBBDAD973006829F89F22E814B54F4BC2BE347F8AA8F681390B50FA73F804400B5F542E796F19FF974E7F78DB802FE05
310
E207504B0304140006080800CC70623B16AB87BA640500003C100000340000006662782F39464131463745442D413632322D343644302D413938332D3331353338454246344243312F6F626A656374732E786D6CAD575B6FA33818FD2B887DE6924B3BED8A326A92B68A663B534DD4D13E548A0C38942D60649B369D5FBFC7
310
600890A493BDE42160637FD7F31D7FF63E6FB3D478A55C242CBF3247B66B1A340F5994E4F19559CA8D75611A9F7D8F33263BCB4C232719BD32D5B4E97B316765A1A722BA21652A07B3B7B33F0D11D29C9A46981221AE4C113ED38CD8A4942CA2E2C58E882476BCD9DA23BB5ED8171B73523C0F841684D35CC252CCE79062D4
310
468DFA43D7747CCF51DF7D4FFDEB5593E3AB9CCA9FBEFE241792E4E19EB28198C968BAB8199F5D5A67D3E9C49A9E8F47D6EC76B6B0469F26EEFC7C3EBFBCBEB98462213924694B38DD98FE1D62C393D073EA4FADC5DAF04326852CCF6958F90F0F2B9BB5C48816348F90C7840A68EB78EDF68723159BCEE7891A6B95DDE9D3
310
BCEAEEE8086A6C6F9E5D4B59F0175C10A7A0820BAA5055C7473B5AE3CFDD452D602CD5DF12616444529E90D448938013FE6EFA58AA96F85E4F8C42275708571E98FE6827AF6B2B4AE3D7D83D64E5A64C53054DD3AF90BD06FEA9149565C94FCA0F6B834DC85599E4F2423B24DF0B6AFA979E534DFA9E7A4CC6FA631D486393
310
921829879BF5D781A373557BCB85E97FB90DB62B558F8795179C15944B051F40AB495CF35451D26A4727654E6D8033BD98EF82F21D91FF8AF2DD9982BCF1643BDD4EB516C9492E368C67C88DED563FC36D5EACF66DFF057C3658BDBFA69DF9578B3DA735B64F18C7F20770A9D45CFCF7FCF563D6456A277DBEF78A02637CA2
310
43B90A490AEAB94F72244481D24819A6C0E59B606BFA4B3025981DBB48EAB701D97BF19C577CC77F2D1B6C55A9EF3C732474C0B727303F625995056C3B02963D9EAC146BE78EC5FCEC7FA999EBC5EACBAAE41B12D27B4D2C0BBA49F244E2ECDC81B76B502F113D8F5EE8FB1BE3111CDD4FC2AA9B844CAB1288B68AB90A7CDC
310
1C166AB0D3DC5310625FCC14E779BFD0709F8890A629C9292B1B2DED31A4B0DA928CEE135085754027E3018A397D4D5427D15BD1330B677DC8934285AC3DF45A9EB68FF8F2B8FC0A509AFEECFD0FF2DE25CC6047F7214B195F07EFEB9A094D800F7BFAE8FED187B78EA8A3A400F115961BCAD1215E47C966530AF0EE8128FE
310
58CEBB996A8964FFA529A046635D9353B0336A8F700DDF46271A024E70B0B37C9DE01847591E54DED53D54202AB947E4076556AC49C6CA5C9E1226B7F1A7B1BE15DEED62C41B91E1B3E9AFAAA735036547343A925075041DF0A9979E893B391F8FCFA6967B3EFB644DCF6E5CEBFAE272625DCC6FAF3FB93793C5F90CE1EF57
310
407342756B10D1C489E8953CD1617E5CEECAD6F4EF8914CE5D5D504E5C3F1F9736DA62CFC11E00BCDDB8CC8A9466349744C1F75EBDA4DF09BA8A9E8C7A7E9991989E20E5DBDD6A6003664ED8F7A04A8DBE0DF6EAD9B9AA858342E47399053949D2C146EDB85DE4B176BB0965FBAC19BD19AA918E27FA50C1D22402E144464C
310
59462568E704B6E71915404CB72B8FF4EDE184DDAF753F284990D2C6926782963815403548A70C657FDEF80D2D9CEAA2AE4C1C76F60BFE74219A06527D6582DF6412526107381E55E353090704D085B52408D0933C4ED159D79BDA71BB4BC506F4831350EB6F979CD22D69BF7AC49B91A2C0A9DDA3D5CA36AD20FC478E37E6
310
1844E2352865EBCB6EA275A652E3836BE04EFB400BF1A2556F515F1FBB35B2AB35BD889C744FFA1004B5544B121E57F70215746DD2F5E2C1412B602CBF19455AC6C8E5E9922C4E01E65215385004546899059180EAFCF7A707CE7017CD8CDB0410789AB32C63B91E5CEBBBACB17AC6CD347A022D5075FD106377347AAABA7E
310
7D11590744509B44E205134DC1290F06580320F78E537D3D73540E06CB970B431F185308AD40BBD794D6D77003C5A36E8EAA54BA64597CD8F83BD552A080A365F7FF06504B0304140006080000CC70623B000000000000000000000000350000006662782F39464131463745442D413632322D343644302D413938332D3331
310
353338454246344243312F76657274696365732E62696E504B0304140006080800CC70623BF270F1330600000004000000360000006662782F39464131463745442D413632322D343644302D413938332D3331353338454246344243312F747269616E676C65732E62696E636660600000504B0304140006080000CC70623B
310
000000000000000000000000370000006662782F39464131463745442D413632322D343644302D413938332D3331353338454246344243312F617474726962757465732E62696E504B0304140006080800CC70623B08DA0BD19000000041010000360000006662782F39464131463745442D413632322D343644302D413938
310
332D3331353338454246344243312F6469726563746F72792E786D6C858F410AC3201045AF22B36F53E9A60B35CBEEBAE80D244E44489C6234F4F835464A48035D0DF398FF9F8AF63D0E6CC63039F212F8F9020C7D47C6792B21C5FE7403D62A1188E2E60C98D7234A5830286103A55745067B9D86B8A3CF9C7F90C11DE607
310
FB144396D7B6A82D282E9A152AD114D5EF2CB866EEE831B8EEA07A7BB5A8D7D61A2BAAEB7FD5F70921FF497D00504B0304140006080800CC70623B0D6EF93BFE000000A00100003B0000006662782F39464131463745442D413632322D343644302D413938332D3331353338454246344243312F7265736F75726365732F63
310
6F72652E786D6C8D50596E833010BD0A9ADFCA60B334011947A8694ED00B586642AC041B79A97AFC9A40A5F6AF3F33A3B7689E1E3F7DCD8FEC139DD7D6F4C0720A191A65476DA61E62B892236427C19DB5E1970C322367EC618541F0C9D9B8EC90B226A009093576C41D94DE63804C3DD2D18357379C652E63480A7FCF17A9
310
EE72C29CE5894E3AC17D702940B63D59270887DE46A7D0F36263058F518FBB468FE9A7BE6A7420864373B8D4873369AA8691FA421B3294352543C5CAF65C0F6FEF43CB8BD52C78D0F34F46E550061C419494B6843142CB0F5677F4B52BEB177AEC28E5C52AFF638ACBF84F53D42654E51E77B379102C05791282176B5F693D
310
CB4C7BED567C03504B010214000A0000080000CC70623B3DEE336E79000000790000001B00000000000000000000000000000000006175746F6465736B2D64657369676E2D7061636B6167652E786D6C504B01021400140006080800CC70623BD486FD9CA0000000F40000001300000000000000000000000000B20000005B
310
436F6E74656E745F54797065735D2E786D6C504B01021400140006080800CC70623B1EC5D7A3EB0000007C010000080000000000000000000000000083010000636F72652E786D6C504B01021400140006080800CC70623B55019EA25F0000007C000000070000000000000000000000000094020000636E782E786D6C504B
310
01021400140006080800CC70623B8C9102E971010000D40300000C00000000000000000000000000180300006662782F636F72652E786D6C504B01021400140006080800CC70623BFFEA85907E0000009D0000000B00000000000000000000000000B30400006662782F636E782E786D6C504B01021400140006080800CC70
310
623B4FEEA4082C0100001202000031000000000000000000000000005A0500006662782F39464131463745442D413632322D343644302D413938332D3331353338454246344243312F636F72652E786D6C504B01021400140006080800CC70623BAD7543B64E010000330300003000000000000000000000000000D5060000
310
6662782F39464131463745442D413632322D343644302D413938332D3331353338454246344243312F636E782E786D6C504B01021400140006080800CC70623B16AB87BA640500003C1000003400000000000000000000000000710800006662782F39464131463745442D413632322D343644302D413938332D3331353338
310
454246344243312F6F626A656374732E786D6C504B01021400140006080000CC70623B0000000000000000000000003500000000000000000000000000270E00006662782F39464131463745442D413632322D343644302D413938332D3331353338454246344243312F76657274696365732E62696E504B01021400140006
310
080800CC70623BF270F133060000000400000036000000000000000000000000007A0E00006662782F39464131463745442D413632322D343644302D413938332D3331353338454246344243312F747269616E676C65732E62696E504B01021400140006080000CC70623B0000000000000000000000003700000000000000
310
000000000000D40E00006662782F39464131463745442D413632322D343644302D413938332D3331353338454246344243312F617474726962757465732E62696E504B01021400140006080800CC70623B08DA0BD190000000410100003600000000000000000000000000290F00006662782F39464131463745442D413632
310
322D343644302D413938332D3331353338454246344243312F6469726563746F72792E786D6C504B01021400140006080800CC70623B0D6EF93BFE000000A00100003B000000000000000000000000000D1000006662782F39464131463745442D413632322D343644302D413938332D3331353338454246344243312F7265
310
736F75726365732F636F72652E786D6C504B0506000000000E000E0080040000641100000000
  0
XRECORD
  5
72B0
102
{ACAD_REACTORS
330
173
102
}
330
173
100
AcDbXrecord
280
     1
102
MATERIAL
148
0.0
149
0.0
149
0.0
 93
        0
 94
       63
282
     0
 72
     1
 77
     1
171
     1
175
     1
179
     1
273
     0
  0
XRECORD
  5
175
102
{ACAD_REACTORS
330
173
102
}
330
173
100
AcDbXrecord
280
     1
270
     1
271
     1
  0
XRECORD
  5
174
102
{ACAD_REACTORS
330
173
102
}
330
173
100
AcDbXrecord
280
     1
270
     1
271
     1
  0
XRECORD
  5
1FB
102
{ACAD_REACTORS
330
173
102
}
330
173
100
AcDbXrecord
280
     1
 70
     0
 90
1673772943
  1
ECE7A1D2-D628-4531-984C-D00F80459256
310
504B03040A0000080000CC70623B3DEE336E79000000790000001B0000006175746F6465736B2D64657369676E2D7061636B6167652E786D6C3C3F786D6C2076657273696F6E3D22312E302220656E636F64696E673D227574662D3822203F3E3C666F726D6174733E3C666F726D61743E687474703A2F2F736368656D612E
310
6175746F6465736B2E636F6D2F64657369676E2D7061636B6167652F323030393C2F666F726D61743E3C2F666F726D6174733E504B0304140006080800CC70623BD486FD9CA0000000F4000000130000005B436F6E74656E745F54797065735D2E786D6C7D8EC10E82300C865F65E91D8A1E8C310C0EEA1BF002731658846E
310
D98AC1B77784ABF1D8FE5FBFBF75BBCE937A534CCEB38643598122B6FEE978D0B0485F9C41B54DDD7D022595594E1A469170414C76A4D9A4D207E29CF43ECE46F218070CC6BECC4078ACAA135ACF422C856C0E68EA1BF5669944DDD7BCDE7B1F8E415D77AECB980613C2E4AC91FC167A2B244592486606FC29C8FD7F045B9A
310
EF7053A7E60B504B0304140006080800CC70623BD9DDAED0EC0000007C01000008000000636F72652E786D6C8D90416EC3201045AF82665B61836D9CD8C2444DD39CA01740405C94182C03558F5F9C3852BBEB6A467FFE9B197D7EF89E6EE8CB2CC17A37002D0820E394D7D68D03A478C17B4007C117EFE32F1B20272733C0
310
2A83E0E3E2D3BC49CABB685CCCAAF3DA6CA20CC14440EA969B0182FA34932C648AD911AEC52CD5558EA6A0CF2EC329598D1E47ACCEFBECC59A050463A7EA5833865FEBDD0E37353BE3EE8DBDE3F6786A48D375FBF6CC78B9C282473B3DEFABC5C86834888A900E538A49F5419B9EB47DD5BC907D4F082F57FB1F28CDFA9F50
310
B22ED6D5F6EE030B20687EE43E10BC5CB3C8E51E54AE6B6EE207504B0304140006080800CC70623B55019EA25F0000007C00000007000000636E782E786D6C4DCB3B0E80201045D1AD90E915ED2CF8AC45050C11660C8261F98AB1B07AC9C97D42D718D865D3E909258CFD00CCE24AC6E326A164D74DC0B4128928FF326038
310
472BA13128B1252AC747C6BAB984FC68F0B87FE8960A5C09FE86CFB69FBA01504B0304140006080800CC70623BA24EB22D72010000D40300000C0000006662782F636F72652E786D6CC5535B6E833010BC8AE5DF0A6C5E49888CA3A6694ED00B38E05014B091B1518EDFE511A5A9D228FD2A1F60CDEC7A67C6986DCE4D8D7A
310
69BA4AAB0C073EC548AA5C17952A33ECECD15B61B4E1CC686DBF9561A44423333CC098B3D268D7CE50AE9595CA02AA74216750749DB418E5352C32DCE59FB211BE70162ABA93DF8AFC244AE9073ED050C759670D0840D390E18DF9F1706664C23973AE2A66B62A605A75ACA4C13C4976E1364A12EF355A2EBD384AF65EFA96
310
BC7B8BED2EA6719AAE16FB8491A199335B351775B991C2CA02F390D2D40B028F861F41BCA68B7518BFD0D59A524686F29B26D7164F36B94AD9289CE54E6D1DE6010819891F6E21228B3AD1831EC219194284CF98F06DD01008846CC5A1BEF83801D4CBDC6A1303536877A57A513B0953A94FC707FDBE6064EA84A9E3E6E0FA
310
EE8CF0E9198F7784A316AA0413C2C2F2E0ECA0934D1AE6D05A69BCDE9E91D2A611F573361E38FC1375157F5752AE6B6DFE4B11990F88CCBF0719EE23FF02504B0304140006080800CC70623B408A7D3B7C0000009D0000000B0000006662782F636E782E786D6C4DCCD10A83201886E15B91FFDC552A92A0064DBC8F581632
310
D3703A76F9ABD1C18E3E78F878E5F0D9027ABBFCF2292AE86E2D20171F69F6715550CB827B40839639A5F2770314A7CD293819B45C73AAFB45B35BA61ACAA1C1C7E7855C58C15BC331339661262CC762340413D68D77DA5B42298546CBE6573AF60CEB2F504B0304140006080800CC70623B449FB9BD290100001202000031
310
0000006662782F36394639363044362D344446342D343946362D394244322D3234314243333846323333332F636F72652E786D6C8D515B6EC32010BC0AE22B55850D98B871848994463E412FE002495162B07854397EA176A4F62F3F2C9A9D991D587EB84F37F0AD7D30CEF6905418026DA553C65E7A98E219ED203808EE9D
310
8B7F6810D871D23D2C3014FCE25D9A57483A1BB58D19B54EE9151C43D0110279CB971E06F9A5A7B11A53CC8C70ADE6515EC78BAE4895DB992778883E0700CB907242D17643D7E2538BD869608875438BBAE38922CAC8F1BDD90DB4691A5E2F42C153326A951B95E398B3D1FE599322163C9AE9115F7A3D46ADA0A018778810
310
84E907617BDCEE297BC5BB3DC6BC2EF47FA234AB2745C9D8D8D035EE220B50105E2F0DC1954B9FB747187D9F9D8FA0CCDB042D5FA0C015C65B42DF78BD10F3F3B363CB56C7109DCFDFBBB97E662ED92EB62D13BC2E1BCAE5777DB9966D8A1F504B0304140006080800CC70623BAD7543B64E01000033030000300000006662
310
782F36394639363044362D344446342D343946362D394244322D3234314243333846323333332F636E782E786D6CD593CD6EC32010845F0571AD6CE3D48AD20813A9873E410FBD12D82434182C7EAAE6EDBB2424CD25871E7B41D6EC30B3FA84F9E67BB2E40B4234DE8DB46F1925E094D7C6ED479AD3AE5951B2113C789FEE
310
6C943839C1488B4C05DF079FE72A69D8C96C13AAD6B8631503449F83828872B949AC57D26200B826A308D316B4064D6E46FCDA41C05550DC9E483A00797BFD207EFB092A45DE9514C1BBD22178396BD39D891265658C238DEA00936C654E5E433CB65A26D9F6EDB5EBC14EBF49A45CB856E66048291F6939A9A81BB5C89177
310
38143CA680F4AA299D66A042CEB3354A2684DC9D8D178FE0D9B8B41CAAD720F880EE7EF93C0C18769E099ECC04D5A102C8049A8A05632F4DDF376CF1DE0F6BB65C2F8627B65A33C6BB62177CEBBDAD973006829F89F22E814B54F4BC2BE347F8AA8F681390B50FA73F804400B5F542E796F19FF974E7F78DB802FE05E20750
310
4B0304140006080800CC70623B8D05915C650500003B100000340000006662782F36394639363044362D344446342D343946362D394244322D3234314243333846323333332F6F626A656374732E786D6CAD575B6FA33814FE2B887D06429276DA1565D4266D158D3A339A6846FB502932E050B66023DB74D2FDF5FB190C01
310
9276B2973C046C8ECFF53B17071F77456EBD502133CEAE6CDF9DD81665314F32965ED995DA3A17B6F5310C04E7AA47665B8C14F4CAD6DB7618A48257A5D94AE89654B91AEDDEDDFC61C998326A5B714EA4BCB265FC440BE2924AF184CA6737218AB8E976E7FA6E4338649B0A523E8D98964450A6A029F619B8588D52FE7039
310
B1BD30F0F4F730D0FF866AF6369557DB33949F31A9088B0F848DD8CCFCF9F2767A76E99CCDE733677E3EF59D9BBB9BA5E37F984D16E78BC5E5F5ED25044B25C0C96822E8D60EEFE11B91C581D77CEA34368A1F5329E68CD1B8B61F16D63A1B8E092D294B10C78C4A48EB593D192E7DED9BDEE7995E1B91FDEDD3ACEA9FE831
310
6A756F9F7D4D79F4274C90A7A04248AA51D5F8C718DAE06FB2F75AC4796EBE65D22A88A22223B995679120E2D50E41AA49C260C046A35368846B0BECD0DFF3EBEB8AD4F835768F69B9ADF25C43D30E6B646F807FAA64AD59F61715C7A54127C4AACA98BA3006A9D792DAE165E0D59B61A01FB3A9F9D838D2DAE62445C86166
310
F37564E842E7DE6A69879FEEA2DD5AE7E371E1A5E025154AC307D06A03D73EB5978C58FFA4C8E9033066E0F3BD53BEC1F39F91BE7B55103791EDE6BBB991A2046172CB4581D8B893FA674DDA17A77B3B7C413D1B511FD2743BFF8A38F03A658705E3ADF8015C3A3417FF3D7E439FF591DA0B5F18BC20C1B8981957AE6392A3
310
F43C640C01D1A0B4728E2DD4F26DB4B3C3152A252A3B4E913CEC1C72F012782FF88EFF8637AA552DBEF76408E8A8DE9E50F9E1CB3A2DA0DB1B6039A893B56063DC5B3E3FFB5F72E67AB9FEB4AEC496C4F4C1149625DD662C53E89D7BF0F6151A046260D1337DFDC94502430F83B0EE07A130A224BCAD7DAE1D9FB6CD422FF6
310
920702629C4BB9AE79C12F243C6432A6794E18E5552BA56B431AAB5D91317302B2B071E86C3A42B1A02F999E24061403B5D0EB639195DA655DD3EBEAB4FB862DDF579F014AD0E73C22F99E28DA57FB98E75C6CA2D74D53086D600F4786E0FE3144B771A8A7B900F03594DB8A633CBC49B2EDB69228BB479CF863B5E807AAAB
310
23872F6DFEB4129B949CA33823F58830E86D65621E10047D9DB34D862E8EAC3C2ABC2F7B2C40D67CDFE01F5545B92105AF983AC54D93D69E56FB8E797F88913F898A9FEC705D3F9D1B54EC8426FB500D40A03BD0119B06E1B95DDC7EB8F6975367793EBD70E66733DFB9BC982F9CE564727731999F5D4ECFCE3B8D6A4DC2A0
310
6D50FD148437D110834A64C6CDDF57FBACB5C307A2A477DFE4939736CFEF2B175371E0E10CF0DD1D5C15654E0BCA14D1E87DD02FF93782A162C0A3D95F1524A52770F972BF1EE9809D13CE7DD599467F8ECE9ADD85CE85A34CD45355448C64F9E8A031DC2D596ACC6E5DD93D9B82DE2EF5CAF81363A8E47996A0DE24564A79
310
4115AACE09C55E14540231FDA13C319787134EBF34E3A022514E5B4D9E0826E25C02D5805B15ABE1BEF51B26383D445DD9E875EE33FE4C22DA16427D65A3BCA92CA6D28DD01DF5DC53330704308475351050232CCD31583787BA75774AFB06E5070DD0C8EF484E19968C5D83BA5B90B244D31E54D55A372320FE4786B7EA58
310
44E135AA5467CB7EA333A61683CC6A8C3257034C10CF46F40EF9F5BE59BE5BD30C3C72D235E95D10345C1D45445A5F0BB47E46A5EBE5570F9380B5FA629579952296A773720405982B9DE04011506178964401AA8BDF1FBF0A8EAB6861DD6580C0E38217056766716DAEB2D6FA0917D3E4116581EADB879C4E7CFFB11EFACD
310
3D641311495D92C8676CB409A72D18610D803CE8A626049E8EC1887CB5B44CC39883690DDA8399B4B9855B481E7D71D4A9D22F96E5BB73BF5793020C02137BF837504B0304140006080000CC70623B000000000000000000000000350000006662782F36394639363044362D344446342D343946362D394244322D32343142
310
43333846323333332F76657274696365732E62696E504B0304140006080800CC70623BF270F1330600000004000000360000006662782F36394639363044362D344446342D343946362D394244322D3234314243333846323333332F747269616E676C65732E62696E636660600000504B0304140006080000CC70623B0000
310
00000000000000000000370000006662782F36394639363044362D344446342D343946362D394244322D3234314243333846323333332F617474726962757465732E62696E504B0304140006080800CC70623B08DA0BD19000000041010000360000006662782F36394639363044362D344446342D343946362D394244322D
310
3234314243333846323333332F6469726563746F72792E786D6C858F410AC3201045AF22B36F53E9A60B35CBEEBAE80D244E44489C6234F4F835464A48035D0DF398FF9F8AF63D0E6CC63039F212F8F9020C7D47C6792B21C5FE7403D62A1188E2E60C98D7234A5830286103A55745067B9D86B8A3CF9C7F90C11DE607FB14
310
4396D7B6A82D282E9A152AD114D5EF2CB866EEE831B8EEA07A7BB5A8D7D61A2BAAEB7FD5F70921FF497D00504B0304140006080800CC70623BCA768048FE000000A00100003B0000006662782F36394639363044362D344446342D343946362D394244322D3234314243333846323333332F7265736F75726365732F636F72
310
652E786D6C8D50596E833010BD0A9ADFCA60D600328E9AA639412F609909B1126CE4A5EAF16B0295DABFFECC8CDEA2797AECF8353F924FB44E193D409E5248504B332A3D0D10FC95B4901C39B3C6F85F3248B49871801506CE266BC2B243D2688FDA47549B11775038871E12F988C7004EDE7016A9083E2ADC3D5D84BC8B09
310
D33C8D74D471E6BC8D0192EDC93A815B742658898E651BCB59086ADC356A8C3FD555A1055ED7E7E254D615792D0F075295F585746FF53B694EE78A565DD736979A65AB9933AFE69F8CD2A2F038022F28ED489E135A7CE4554F9BBEA85E68DB53CAB255FEC71496F19FA6A0B42F8B3DEE6673C0F318E4497096AD7DC5F52C33
310
EEB55BFE0D504B010214000A0000080000CC70623B3DEE336E79000000790000001B00000000000000000000000000000000006175746F6465736B2D64657369676E2D7061636B6167652E786D6C504B01021400140006080800CC70623BD486FD9CA0000000F40000001300000000000000000000000000B20000005B436F
310
6E74656E745F54797065735D2E786D6C504B01021400140006080800CC70623BD9DDAED0EC0000007C010000080000000000000000000000000083010000636F72652E786D6C504B01021400140006080800CC70623B55019EA25F0000007C000000070000000000000000000000000095020000636E782E786D6C504B0102
310
1400140006080800CC70623BA24EB22D72010000D40300000C00000000000000000000000000190300006662782F636F72652E786D6C504B01021400140006080800CC70623B408A7D3B7C0000009D0000000B00000000000000000000000000B50400006662782F636E782E786D6C504B01021400140006080800CC70623B
310
449FB9BD290100001202000031000000000000000000000000005A0500006662782F36394639363044362D344446342D343946362D394244322D3234314243333846323333332F636F72652E786D6C504B01021400140006080800CC70623BAD7543B64E010000330300003000000000000000000000000000D20600006662
310
782F36394639363044362D344446342D343946362D394244322D3234314243333846323333332F636E782E786D6C504B01021400140006080800CC70623B8D05915C650500003B10000034000000000000000000000000006E0800006662782F36394639363044362D344446342D343946362D394244322D32343142433338
310
46323333332F6F626A656374732E786D6C504B01021400140006080000CC70623B0000000000000000000000003500000000000000000000000000250E00006662782F36394639363044362D344446342D343946362D394244322D3234314243333846323333332F76657274696365732E62696E504B010214001400060808
310
00CC70623BF270F13306000000040000003600000000000000000000000000780E00006662782F36394639363044362D344446342D343946362D394244322D3234314243333846323333332F747269616E676C65732E62696E504B01021400140006080000CC70623B00000000000000000000000037000000000000000000
310
00000000D20E00006662782F36394639363044362D344446342D343946362D394244322D3234314243333846323333332F617474726962757465732E62696E504B01021400140006080800CC70623B08DA0BD190000000410100003600000000000000000000000000270F00006662782F36394639363044362D344446342D
310
343946362D394244322D3234314243333846323333332F6469726563746F72792E786D6C504B01021400140006080800CC70623BCA768048FE000000A00100003B000000000000000000000000000B1000006662782F36394639363044362D344446342D343946362D394244322D3234314243333846323333332F7265736F
310
75726365732F636F72652E786D6C504B0506000000000E000E0080040000621100000000
  0
XRECORD
  5
176
102
{ACAD_REACTORS
330
173
102
}
330
173
100
AcDbXrecord
280
     1
270
     1
271
     1
  0
XRECORD
  5
177
102
{ACAD_REACTORS
330
173
102
}
330
173
100
AcDbXrecord
280
     1
270
     1
271
     1
  0
XRECORD
  5
72D2
102
{ACAD_REACTORS
330
72D1
102
}
330
72D1
100
AcDbXrecord
280
     1
102
ACAD_ROUNDTRIP_2012_MLEADER_STYLE
298
     1
  0
XRECORD
  5
72E4
102
{ACAD_REACTORS
330
72E3
102
}
330
72E3
100
AcDbXrecord
280
     1
102
DISPLAYNAME
  1
Metric50
102
FLAGS
 90
        0
  0
CELLSTYLEMAP
  5
72A4
102
{ACAD_REACTORS
330
162
102
}
330
162
100
AcDbCellStyleMap
 90
        3
300
CELLSTYLE
  1
TABLEFORMAT_BEGIN
 90
        5
170
     1
 91
        0
 92
    32768
 62
   257
 93
        1
300
CONTENTFORMAT
  1
CONTENTFORMAT_BEGIN
 90
        0
 91
        0
 92
      512
 93
        0
300

 40
0.0
140
1.0
 94
        5
 62
     0
340
11
144
6.0
309
CONTENTFORMAT_END
171
     1
301
MARGIN
  1
CELLMARGIN_BEGIN
 40
1.5
 40
1.5
 40
1.5
 40
1.5
 40
4.5
 40
4.5
309
CELLMARGIN_END
 94
        6
 95
        1
302
GRIDFORMAT
  1
GRIDFORMAT_BEGIN
 90
        0
 91
        1
 62
     0
 92
       -2
340
14
 93
        0
 40
1.125
309
GRIDFORMAT_END
 95
        2
302
GRIDFORMAT
  1
GRIDFORMAT_BEGIN
 90
        0
 91
        1
 62
     0
 92
       -2
340
14
 93
        0
 40
1.125
309
GRIDFORMAT_END
 95
        4
302
GRIDFORMAT
  1
GRIDFORMAT_BEGIN
 90
        0
 91
        1
 62
     0
 92
       -2
340
14
 93
        0
 40
1.125
309
GRIDFORMAT_END
 95
        8
302
GRIDFORMAT
  1
GRIDFORMAT_BEGIN
 90
        0
 91
        1
 62
     0
 92
       -2
340
14
 93
        0
 40
1.125
309
GRIDFORMAT_END
 95
       16
302
GRIDFORMAT
  1
GRIDFORMAT_BEGIN
 90
        0
 91
        1
 62
     0
 92
       -2
340
14
 93
        0
 40
1.125
309
GRIDFORMAT_END
 95
       32
302
GRIDFORMAT
  1
GRIDFORMAT_BEGIN
 90
        0
 91
        1
 62
     0
 92
       -2
340
14
 93
        0
 40
1.125
309
GRIDFORMAT_END
309
TABLEFORMAT_END
  1
CELLSTYLE_BEGIN
 90
        1
 91
        1
300
_TITLE
309
CELLSTYLE_END
300
CELLSTYLE
  1
TABLEFORMAT_BEGIN
 90
        5
170
     1
 91
        0
 92
        0
 62
   257
 93
        1
300
CONTENTFORMAT
  1
CONTENTFORMAT_BEGIN
 90
        0
 91
        0
 92
      512
 93
        0
300

 40
0.0
140
1.0
 94
        5
 62
     0
340
11
144
4.5
309
CONTENTFORMAT_END
171
     1
301
MARGIN
  1
CELLMARGIN_BEGIN
 40
1.5
 40
1.5
 40
1.5
 40
1.5
 40
4.5
 40
4.5
309
CELLMARGIN_END
 94
        6
 95
        1
302
GRIDFORMAT
  1
GRIDFORMAT_BEGIN
 90
        0
 91
        1
 62
     0
 92
       -2
340
14
 93
        0
 40
1.125
309
GRIDFORMAT_END
 95
        2
302
GRIDFORMAT
  1
GRIDFORMAT_BEGIN
 90
        0
 91
        1
 62
     0
 92
       -2
340
14
 93
        0
 40
1.125
309
GRIDFORMAT_END
 95
        4
302
GRIDFORMAT
  1
GRIDFORMAT_BEGIN
 90
        0
 91
        1
 62
     0
 92
       -2
340
14
 93
        0
 40
1.125
309
GRIDFORMAT_END
 95
        8
302
GRIDFORMAT
  1
GRIDFORMAT_BEGIN
 90
        0
 91
        1
 62
     0
 92
       -2
340
14
 93
        0
 40
1.125
309
GRIDFORMAT_END
 95
       16
302
GRIDFORMAT
  1
GRIDFORMAT_BEGIN
 90
        0
 91
        1
 62
     0
 92
       -2
340
14
 93
        0
 40
1.125
309
GRIDFORMAT_END
 95
       32
302
GRIDFORMAT
  1
GRIDFORMAT_BEGIN
 90
        0
 91
        1
 62
     0
 92
       -2
340
14
 93
        0
 40
1.125
309
GRIDFORMAT_END
309
TABLEFORMAT_END
  1
CELLSTYLE_BEGIN
 90
        2
 91
        1
300
_HEADER
309
CELLSTYLE_END
300
CELLSTYLE
  1
TABLEFORMAT_BEGIN
 90
        5
170
     1
 91
        0
 92
        0
 62
   257
 93
        1
300
CONTENTFORMAT
  1
CONTENTFORMAT_BEGIN
 90
        0
 91
        0
 92
      512
 93
        0
300

 40
0.0
140
1.0
 94
        2
 62
     0
340
11
144
4.5
309
CONTENTFORMAT_END
171
     1
301
MARGIN
  1
CELLMARGIN_BEGIN
 40
1.5
 40
1.5
 40
1.5
 40
1.5
 40
4.5
 40
4.5
309
CELLMARGIN_END
 94
        6
 95
        1
302
GRIDFORMAT
  1
GRIDFORMAT_BEGIN
 90
        0
 91
        1
 62
     0
 92
       -2
340
14
 93
        0
 40
1.125
309
GRIDFORMAT_END
 95
        2
302
GRIDFORMAT
  1
GRIDFORMAT_BEGIN
 90
        0
 91
        1
 62
     0
 92
       -2
340
14
 93
        0
 40
1.125
309
GRIDFORMAT_END
 95
        4
302
GRIDFORMAT
  1
GRIDFORMAT_BEGIN
 90
        0
 91
        1
 62
     0
 92
       -2
340
14
 93
        0
 40
1.125
309
GRIDFORMAT_END
 95
        8
302
GRIDFORMAT
  1
GRIDFORMAT_BEGIN
 90
        0
 91
        1
 62
     0
 92
       -2
340
14
 93
        0
 40
1.125
309
GRIDFORMAT_END
 95
       16
302
GRIDFORMAT
  1
GRIDFORMAT_BEGIN
 90
        0
 91
        1
 62
     0
 92
       -2
340
14
 93
        0
 40
1.125
309
GRIDFORMAT_END
 95
       32
302
GRIDFORMAT
  1
GRIDFORMAT_BEGIN
 90
        0
 91
        1
 62
     0
 92
       -2
340
14
 93
        0
 40
1.125
309
GRIDFORMAT_END
309
TABLEFORMAT_END
  1
CELLSTYLE_BEGIN
 90
        3
 91
        2
300
_DATA
309
CELLSTYLE_END
  0
XRECORD
  5
72A9
102
{ACAD_REACTORS
330
162
102
}
330
162
100
AcDbXrecord
280
     1
102
ACAD_ROUNDTRIP_PRE2007_TABLESTYLE
 90
      512
 91
        0
  1

 92
      512
 93
        0
  2

 94
      512
 95
        0
  3

  0
XRECORD
  5
72BC
102
{ACAD_REACTORS
330
72BB
102
}
330
72BB
100
AcDbXrecord
280
     1
102
RTVSPost2010Prop28
280
     1
102
RTVSPost2010PropOp28
 70
     1
102
RTVSPost2010Prop29
280
     1
102
RTVSPost2010PropOp29
 70
     1
102
RTVSPost2010Prop30
280
     0
102
RTVSPost2010PropOp30
 70
     1
102
RTVSPost2010Prop31
280
     0
102
RTVSPost2010PropOp31
 70
     1
102
RTVSPost2010Prop32
280
     0
102
RTVSPost2010PropOp32
 70
     1
102
RTVSPost2010Prop33
280
     0
102
RTVSPost2010PropOp33
 70
     1
102
RTVSPost2010Prop34
280
     0
102
RTVSPost2010PropOp34
 70
     1
102
RTVSPost2010Prop35
280
     0
102
RTVSPost2010PropOp35
 70
     1
102
RTVSPost2010Prop36
280
     0
102
RTVSPost2010PropOp36
 70
     1
102
RTVSPost2010Prop37
 90
       50
102
RTVSPost2010PropOp37
 70
     1
102
RTVSPost2010Prop38
140
0.0
102
RTVSPost2010PropOp38
 70
     1
102
RTVSPost2010Prop39
140
1.0
102
RTVSPost2010PropOp39
 70
     1
102
RTVSPost2010Prop40
 90
        0
102
RTVSPost2010PropOp40
 70
     1
102
RTVSPost2010Prop41ColorIndex
 90
       18
102
RTVSPost2010Prop41ColorRGB
 90
        0
102
RTVSPost2010PropOp41
 70
     1
102
RTVSPost2010Prop42
 90
       50
102
RTVSPost2010PropOp42
 70
     1
102
RTVSPost2010Prop43
 90
        3
102
RTVSPost2010PropOp43
 70
     1
102
RTVSPost2010Prop44ColorIndex
 90
        5
102
RTVSPost2010Prop44ColorRGB
 90
      255
102
RTVSPost2010PropOp44
 70
     1
102
RTVSPost2010Prop45
280
     0
102
RTVSPost2010PropOp45
 70
     1
102
RTVSPost2010Prop46
 90
       50
102
RTVSPost2010PropOp46
 70
     1
102
RTVSPost2010Prop47
 90
       50
102
RTVSPost2010PropOp47
 70
     1
102
RTVSPost2010Prop48
 90
       50
102
RTVSPost2010PropOp48
 70
     1
102
RTVSPost2010Prop49
280
     0
102
RTVSPost2010PropOp49
 70
     1
102
RTVSPost2010Prop50
 90
       50
102
RTVSPost2010PropOp50
 70
     1
102
RTVSPost2010Prop51ColorIndex
 90
      256
102
RTVSPost2010Prop51ColorRGB
 90
-16777216
102
RTVSPost2010PropOp51
 70
     0
102
RTVSPost2010Prop52
140
1.0
102
RTVSPost2010PropOp52
 70
     0
102
RTVSPost2010Prop53
 90
        2
102
RTVSPost2010PropOp53
 70
     1
102
RTVSPost2010Prop54
  1
strokes_ogs.tif
102
RTVSPost2010PropOp54
 70
     1
102
RTVSPost2010Prop55
280
     0
102
RTVSPost2010PropOp55
 70
     1
102
RTVSPost2010Prop56
140
1.0
102
RTVSPost2010PropOp56
 70
     1
102
RTVSPost2010Prop57
140
1.0
102
RTVSPost2010PropOp57
 70
     1
102
RTVSPropertyOp0
 70
     1
102
RTVSPropertyOp1
 70
     1
102
RTVSPropertyOp2
 70
     1
102
RTVSPropertyOp3
 70
     1
102
RTVSPropertyOp4
 70
     1
102
RTVSPropertyOp5
 70
     1
102
RTVSPropertyOp6
 70
     1
102
RTVSPropertyOp7
 70
     1
102
RTVSPropertyOp8
 70
     1
102
RTVSPropertyOp9
 70
     1
102
RTVSPropertyOp10
 70
     1
102
RTVSPropertyOp11
 70
     1
102
RTVSPropertyOp12
 70
     1
102
RTVSPropertyOp13
 70
     1
102
RTVSPropertyOp14
 70
     1
102
RTVSPropertyOp15
 70
     1
102
RTVSPropertyOp16
 70
     1
102
RTVSPropertyOp17
 70
     1
102
RTVSPropertyOp18
 70
     1
102
RTVSPropertyOp19
 70
     1
102
RTVSPropertyOp20
 70
     1
102
RTVSPropertyOp21
 70
     1
102
RTVSPropertyOp22
 70
     1
102
RTVSPropertyOp23
 70
     1
102
RTVSPropertyOp24
 70
     1
102
RTVSPropertyOp25
 70
     1
102
RTVSPropertyOp26
 70
     1
102
RTVSPropertyOp27
 70
     1
102
RTVSPropertyOp28
 70
     1
102
RTVSPropertyOp29
 70
     1
102
RTVSPropertyOp30
 70
     1
102
RTVSPropertyOp31
 70
     1
102
RTVSPropertyOp32
 70
     1
102
RTVSPropertyOp33
 70
     1
102
RTVSPropertyOp34
 70
     1
102
RTVSPropertyOp35
 70
     1
102
RTVSPropertyOp36
 70
     1
102
RTVSPropertyOp37
 70
     1
102
RTVSPropertyOp38
 70
     1
102
RTVSPropertyOp39
 70
     1
102
RTVSPropertyOp40
 70
     1
102
RTVSPropertyOp41
 70
     1
102
RTVSPropertyOp42
 70
     1
102
RTVSPropertyOp43
 70
     1
102
RTVSPropertyOp44
 70
     1
102
RTVSPropertyOp45
 70
     1
102
RTVSPropertyOp46
 70
     1
102
RTVSPropertyOp47
 70
     1
102
RTVSPropertyOp48
 70
     1
102
RTVSPropertyOp49
 70
     1
102
RTVSPropertyOp50
 70
     1
102
RTVSPropertyOp51
 70
     0
102
RTVSPropertyOp52
 70
     0
102
RTVSPropertyOp53
 70
     1
102
RTVSPropertyOp54
 70
     1
102
RTVSPropertyOp55
 70
     1
102
RTVSPropertyOp56
 70
     1
102
RTVSPropertyOp57
 70
     1
102
RTVSPropertyOp58
 70
     1
102
RTVSPropertyOp59
 70
     1
102
RTVSPropertyOp60
 70
     1
102
RTVSPropertyOp61
 70
     1
102
RTVSPropertyOp62
 70
     1
  0
XRECORD
  5
72BA
102
{ACAD_REACTORS
330
72B9
102
}
330
72B9
100
AcDbXrecord
280
     1
102
RTVSPost2010Prop28
280
     0
102
RTVSPost2010PropOp28
 70
     1
102
RTVSPost2010Prop29
280
     1
102
RTVSPost2010PropOp29
 70
     1
102
RTVSPost2010Prop30
280
     1
102
RTVSPost2010PropOp30
 70
     1
102
RTVSPost2010Prop31
280
     0
102
RTVSPost2010PropOp31
 70
     1
102
RTVSPost2010Prop32
280
     0
102
RTVSPost2010PropOp32
 70
     1
102
RTVSPost2010Prop33
280
     0
102
RTVSPost2010PropOp33
 70
     1
102
RTVSPost2010Prop34
280
     0
102
RTVSPost2010PropOp34
 70
     1
102
RTVSPost2010Prop35
280
     0
102
RTVSPost2010PropOp35
 70
     1
102
RTVSPost2010Prop36
280
     0
102
RTVSPost2010PropOp36
 70
     1
102
RTVSPost2010Prop37
 90
       50
102
RTVSPost2010PropOp37
 70
     1
102
RTVSPost2010Prop38
140
0.0
102
RTVSPost2010PropOp38
 70
     1
102
RTVSPost2010Prop39
140
1.0
102
RTVSPost2010PropOp39
 70
     1
102
RTVSPost2010Prop40
 90
        0
102
RTVSPost2010PropOp40
 70
     1
102
RTVSPost2010Prop41ColorIndex
 90
       18
102
RTVSPost2010Prop41ColorRGB
 90
        0
102
RTVSPost2010PropOp41
 70
     1
102
RTVSPost2010Prop42
 90
       50
102
RTVSPost2010PropOp42
 70
     1
102
RTVSPost2010Prop43
 90
        3
102
RTVSPost2010PropOp43
 70
     1
102
RTVSPost2010Prop44ColorIndex
 90
        5
102
RTVSPost2010Prop44ColorRGB
 90
      255
102
RTVSPost2010PropOp44
 70
     1
102
RTVSPost2010Prop45
280
     0
102
RTVSPost2010PropOp45
 70
     1
102
RTVSPost2010Prop46
 90
       50
102
RTVSPost2010PropOp46
 70
     1
102
RTVSPost2010Prop47
 90
       50
102
RTVSPost2010PropOp47
 70
     1
102
RTVSPost2010Prop48
 90
       50
102
RTVSPost2010PropOp48
 70
     1
102
RTVSPost2010Prop49
280
     0
102
RTVSPost2010PropOp49
 70
     1
102
RTVSPost2010Prop50
 90
       50
102
RTVSPost2010PropOp50
 70
     1
102
RTVSPost2010Prop51ColorIndex
 90
      256
102
RTVSPost2010Prop51ColorRGB
 90
-16777216
102
RTVSPost2010PropOp51
 70
     0
102
RTVSPost2010Prop52
140
1.0
102
RTVSPost2010PropOp52
 70
     0
102
RTVSPost2010Prop53
 90
        2
102
RTVSPost2010PropOp53
 70
     1
102
RTVSPost2010Prop54
  1
strokes_ogs.tif
102
RTVSPost2010PropOp54
 70
     1
102
RTVSPost2010Prop55
280
     0
102
RTVSPost2010PropOp55
 70
     1
102
RTVSPost2010Prop56
140
1.0
102
RTVSPost2010PropOp56
 70
     1
102
RTVSPost2010Prop57
140
1.0
102
RTVSPost2010PropOp57
 70
     1
102
RTVSPropertyOp0
 70
     1
102
RTVSPropertyOp1
 70
     1
102
RTVSPropertyOp2
 70
     1
102
RTVSPropertyOp3
 70
     1
102
RTVSPropertyOp4
 70
     1
102
RTVSPropertyOp5
 70
     1
102
RTVSPropertyOp6
 70
     1
102
RTVSPropertyOp7
 70
     1
102
RTVSPropertyOp8
 70
     1
102
RTVSPropertyOp9
 70
     1
102
RTVSPropertyOp10
 70
     1
102
RTVSPropertyOp11
 70
     1
102
RTVSPropertyOp12
 70
     1
102
RTVSPropertyOp13
 70
     1
102
RTVSPropertyOp14
 70
     1
102
RTVSPropertyOp15
 70
     1
102
RTVSPropertyOp16
 70
     1
102
RTVSPropertyOp17
 70
     1
102
RTVSPropertyOp18
 70
     1
102
RTVSPropertyOp19
 70
     1
102
RTVSPropertyOp20
 70
     1
102
RTVSPropertyOp21
 70
     1
102
RTVSPropertyOp22
 70
     1
102
RTVSPropertyOp23
 70
     1
102
RTVSPropertyOp24
 70
     1
102
RTVSPropertyOp25
 70
     1
102
RTVSPropertyOp26
 70
     1
102
RTVSPropertyOp27
 70
     1
102
RTVSPropertyOp28
 70
     1
102
RTVSPropertyOp29
 70
     1
102
RTVSPropertyOp30
 70
     1
102
RTVSPropertyOp31
 70
     1
102
RTVSPropertyOp32
 70
     1
102
RTVSPropertyOp33
 70
     1
102
RTVSPropertyOp34
 70
     1
102
RTVSPropertyOp35
 70
     1
102
RTVSPropertyOp36
 70
     1
102
RTVSPropertyOp37
 70
     1
102
RTVSPropertyOp38
 70
     1
102
RTVSPropertyOp39
 70
     1
102
RTVSPropertyOp40
 70
     1
102
RTVSPropertyOp41
 70
     1
102
RTVSPropertyOp42
 70
     1
102
RTVSPropertyOp43
 70
     1
102
RTVSPropertyOp44
 70
     1
102
RTVSPropertyOp45
 70
     1
102
RTVSPropertyOp46
 70
     1
102
RTVSPropertyOp47
 70
     1
102
RTVSPropertyOp48
 70
     1
102
RTVSPropertyOp49
 70
     1
102
RTVSPropertyOp50
 70
     1
102
RTVSPropertyOp51
 70
     0
102
RTVSPropertyOp52
 70
     0
102
RTVSPropertyOp53
 70
     1
102
RTVSPropertyOp54
 70
     1
102
RTVSPropertyOp55
 70
     1
102
RTVSPropertyOp56
 70
     1
102
RTVSPropertyOp57
 70
     1
102
RTVSPropertyOp58
 70
     1
102
RTVSPropertyOp59
 70
     1
102
RTVSPropertyOp60
 70
     1
102
RTVSPropertyOp61
 70
     1
102
RTVSPropertyOp62
 70
     1
  0
XRECORD
  5
72C8
102
{ACAD_REACTORS
330
72C7
102
}
330
72C7
100
AcDbXrecord
280
     1
102
RTVSPost2010Prop28
280
     0
102
RTVSPost2010PropOp28
 70
     1
102
RTVSPost2010Prop29
280
     1
102
RTVSPost2010PropOp29
 70
     1
102
RTVSPost2010Prop30
280
     1
102
RTVSPost2010PropOp30
 70
     1
102
RTVSPost2010Prop31
280
     0
102
RTVSPost2010PropOp31
 70
     1
102
RTVSPost2010Prop32
280
     0
102
RTVSPost2010PropOp32
 70
     1
102
RTVSPost2010Prop33
280
     0
102
RTVSPost2010PropOp33
 70
     1
102
RTVSPost2010Prop34
280
     0
102
RTVSPost2010PropOp34
 70
     1
102
RTVSPost2010Prop35
280
     0
102
RTVSPost2010PropOp35
 70
     1
102
RTVSPost2010Prop36
280
     0
102
RTVSPost2010PropOp36
 70
     1
102
RTVSPost2010Prop37
 90
       50
102
RTVSPost2010PropOp37
 70
     1
102
RTVSPost2010Prop38
140
0.0
102
RTVSPost2010PropOp38
 70
     1
102
RTVSPost2010Prop39
140
1.0
102
RTVSPost2010PropOp39
 70
     1
102
RTVSPost2010Prop40
 90
        0
102
RTVSPost2010PropOp40
 70
     1
102
RTVSPost2010Prop41ColorIndex
 90
       18
102
RTVSPost2010Prop41ColorRGB
 90
        0
102
RTVSPost2010PropOp41
 70
     1
102
RTVSPost2010Prop42
 90
       50
102
RTVSPost2010PropOp42
 70
     1
102
RTVSPost2010Prop43
 90
        3
102
RTVSPost2010PropOp43
 70
     1
102
RTVSPost2010Prop44ColorIndex
 90
        5
102
RTVSPost2010Prop44ColorRGB
 90
      255
102
RTVSPost2010PropOp44
 70
     1
102
RTVSPost2010Prop45
280
     0
102
RTVSPost2010PropOp45
 70
     1
102
RTVSPost2010Prop46
 90
       50
102
RTVSPost2010PropOp46
 70
     1
102
RTVSPost2010Prop47
 90
       50
102
RTVSPost2010PropOp47
 70
     1
102
RTVSPost2010Prop48
 90
       50
102
RTVSPost2010PropOp48
 70
     1
102
RTVSPost2010Prop49
280
     0
102
RTVSPost2010PropOp49
 70
     1
102
RTVSPost2010Prop50
 90
       50
102
RTVSPost2010PropOp50
 70
     1
102
RTVSPost2010Prop51ColorIndex
 90
      256
102
RTVSPost2010Prop51ColorRGB
 90
-16777216
102
RTVSPost2010PropOp51
 70
     0
102
RTVSPost2010Prop52
140
1.0
102
RTVSPost2010PropOp52
 70
     0
102
RTVSPost2010Prop53
 90
        2
102
RTVSPost2010PropOp53
 70
     1
102
RTVSPost2010Prop54
  1
strokes_ogs.tif
102
RTVSPost2010PropOp54
 70
     1
102
RTVSPost2010Prop55
280
     0
102
RTVSPost2010PropOp55
 70
     1
102
RTVSPost2010Prop56
140
1.0
102
RTVSPost2010PropOp56
 70
     1
102
RTVSPost2010Prop57
140
1.0
102
RTVSPost2010PropOp57
 70
     1
102
RTVSPropertyOp0
 70
     1
102
RTVSPropertyOp1
 70
     1
102
RTVSPropertyOp2
 70
     1
102
RTVSPropertyOp3
 70
     1
102
RTVSPropertyOp4
 70
     1
102
RTVSPropertyOp5
 70
     1
102
RTVSPropertyOp6
 70
     1
102
RTVSPropertyOp7
 70
     1
102
RTVSPropertyOp8
 70
     1
102
RTVSPropertyOp9
 70
     1
102
RTVSPropertyOp10
 70
     1
102
RTVSPropertyOp11
 70
     1
102
RTVSPropertyOp12
 70
     1
102
RTVSPropertyOp13
 70
     1
102
RTVSPropertyOp14
 70
     1
102
RTVSPropertyOp15
 70
     1
102
RTVSPropertyOp16
 70
     1
102
RTVSPropertyOp17
 70
     1
102
RTVSPropertyOp18
 70
     1
102
RTVSPropertyOp19
 70
     1
102
RTVSPropertyOp20
 70
     1
102
RTVSPropertyOp21
 70
     1
102
RTVSPropertyOp22
 70
     1
102
RTVSPropertyOp23
 70
     1
102
RTVSPropertyOp24
 70
     1
102
RTVSPropertyOp25
 70
     1
102
RTVSPropertyOp26
 70
     1
102
RTVSPropertyOp27
 70
     1
102
RTVSPropertyOp28
 70
     1
102
RTVSPropertyOp29
 70
     1
102
RTVSPropertyOp30
 70
     1
102
RTVSPropertyOp31
 70
     1
102
RTVSPropertyOp32
 70
     1
102
RTVSPropertyOp33
 70
     1
102
RTVSPropertyOp34
 70
     1
102
RTVSPropertyOp35
 70
     1
102
RTVSPropertyOp36
 70
     1
102
RTVSPropertyOp37
 70
     1
102
RTVSPropertyOp38
 70
     1
102
RTVSPropertyOp39
 70
     1
102
RTVSPropertyOp40
 70
     1
102
RTVSPropertyOp41
 70
     1
102
RTVSPropertyOp42
 70
     1
102
RTVSPropertyOp43
 70
     1
102
RTVSPropertyOp44
 70
     1
102
RTVSPropertyOp45
 70
     1
102
RTVSPropertyOp46
 70
     1
102
RTVSPropertyOp47
 70
     1
102
RTVSPropertyOp48
 70
     1
102
RTVSPropertyOp49
 70
     1
102
RTVSPropertyOp50
 70
     1
102
RTVSPropertyOp51
 70
     0
102
RTVSPropertyOp52
 70
     0
102
RTVSPropertyOp53
 70
     1
102
RTVSPropertyOp54
 70
     1
102
RTVSPropertyOp55
 70
     1
102
RTVSPropertyOp56
 70
     1
102
RTVSPropertyOp57
 70
     1
102
RTVSPropertyOp58
 70
     1
102
RTVSPropertyOp59
 70
     1
102
RTVSPropertyOp60
 70
     1
102
RTVSPropertyOp61
 70
     1
102
RTVSPropertyOp62
 70
     1
  0
XRECORD
  5
72D0
102
{ACAD_REACTORS
330
72CF
102
}
330
72CF
100
AcDbXrecord
280
     1
102
RTVSPost2010Prop28
280
     0
102
RTVSPost2010PropOp28
 70
     1
102
RTVSPost2010Prop29
280
     1
102
RTVSPost2010PropOp29
 70
     1
102
RTVSPost2010Prop30
280
     1
102
RTVSPost2010PropOp30
 70
     1
102
RTVSPost2010Prop31
280
     0
102
RTVSPost2010PropOp31
 70
     1
102
RTVSPost2010Prop32
280
     0
102
RTVSPost2010PropOp32
 70
     1
102
RTVSPost2010Prop33
280
     0
102
RTVSPost2010PropOp33
 70
     1
102
RTVSPost2010Prop34
280
     0
102
RTVSPost2010PropOp34
 70
     1
102
RTVSPost2010Prop35
280
     0
102
RTVSPost2010PropOp35
 70
     1
102
RTVSPost2010Prop36
280
     0
102
RTVSPost2010PropOp36
 70
     1
102
RTVSPost2010Prop37
 90
       50
102
RTVSPost2010PropOp37
 70
     1
102
RTVSPost2010Prop38
140
0.0
102
RTVSPost2010PropOp38
 70
     1
102
RTVSPost2010Prop39
140
1.0
102
RTVSPost2010PropOp39
 70
     1
102
RTVSPost2010Prop40
 90
        0
102
RTVSPost2010PropOp40
 70
     1
102
RTVSPost2010Prop41ColorIndex
 90
       18
102
RTVSPost2010Prop41ColorRGB
 90
        0
102
RTVSPost2010PropOp41
 70
     1
102
RTVSPost2010Prop42
 90
       50
102
RTVSPost2010PropOp42
 70
     1
102
RTVSPost2010Prop43
 90
        3
102
RTVSPost2010PropOp43
 70
     1
102
RTVSPost2010Prop44ColorIndex
 90
        5
102
RTVSPost2010Prop44ColorRGB
 90
      255
102
RTVSPost2010PropOp44
 70
     1
102
RTVSPost2010Prop45
280
     0
102
RTVSPost2010PropOp45
 70
     1
102
RTVSPost2010Prop46
 90
       50
102
RTVSPost2010PropOp46
 70
     1
102
RTVSPost2010Prop47
 90
       50
102
RTVSPost2010PropOp47
 70
     1
102
RTVSPost2010Prop48
 90
       50
102
RTVSPost2010PropOp48
 70
     1
102
RTVSPost2010Prop49
280
     0
102
RTVSPost2010PropOp49
 70
     1
102
RTVSPost2010Prop50
 90
       50
102
RTVSPost2010PropOp50
 70
     1
102
RTVSPost2010Prop51ColorIndex
 90
      256
102
RTVSPost2010Prop51ColorRGB
 90
-16777216
102
RTVSPost2010PropOp51
 70
     0
102
RTVSPost2010Prop52
140
1.0
102
RTVSPost2010PropOp52
 70
     0
102
RTVSPost2010Prop53
 90
        2
102
RTVSPost2010PropOp53
 70
     1
102
RTVSPost2010Prop54
  1
strokes_ogs.tif
102
RTVSPost2010PropOp54
 70
     1
102
RTVSPost2010Prop55
280
     0
102
RTVSPost2010PropOp55
 70
     1
102
RTVSPost2010Prop56
140
1.0
102
RTVSPost2010PropOp56
 70
     1
102
RTVSPost2010Prop57
140
1.0
102
RTVSPost2010PropOp57
 70
     1
102
RTVSPropertyOp0
 70
     1
102
RTVSPropertyOp1
 70
     1
102
RTVSPropertyOp2
 70
     1
102
RTVSPropertyOp3
 70
     1
102
RTVSPropertyOp4
 70
     1
102
RTVSPropertyOp5
 70
     1
102
RTVSPropertyOp6
 70
     1
102
RTVSPropertyOp7
 70
     1
102
RTVSPropertyOp8
 70
     1
102
RTVSPropertyOp9
 70
     1
102
RTVSPropertyOp10
 70
     1
102
RTVSPropertyOp11
 70
     1
102
RTVSPropertyOp12
 70
     1
102
RTVSPropertyOp13
 70
     1
102
RTVSPropertyOp14
 70
     1
102
RTVSPropertyOp15
 70
     1
102
RTVSPropertyOp16
 70
     1
102
RTVSPropertyOp17
 70
     1
102
RTVSPropertyOp18
 70
     1
102
RTVSPropertyOp19
 70
     1
102
RTVSPropertyOp20
 70
     1
102
RTVSPropertyOp21
 70
     1
102
RTVSPropertyOp22
 70
     1
102
RTVSPropertyOp23
 70
     1
102
RTVSPropertyOp24
 70
     1
102
RTVSPropertyOp25
 70
     1
102
RTVSPropertyOp26
 70
     1
102
RTVSPropertyOp27
 70
     1
102
RTVSPropertyOp28
 70
     1
102
RTVSPropertyOp29
 70
     1
102
RTVSPropertyOp30
 70
     1
102
RTVSPropertyOp31
 70
     1
102
RTVSPropertyOp32
 70
     1
102
RTVSPropertyOp33
 70
     1
102
RTVSPropertyOp34
 70
     1
102
RTVSPropertyOp35
 70
     1
102
RTVSPropertyOp36
 70
     1
102
RTVSPropertyOp37
 70
     1
102
RTVSPropertyOp38
 70
     1
102
RTVSPropertyOp39
 70
     1
102
RTVSPropertyOp40
 70
     1
102
RTVSPropertyOp41
 70
     1
102
RTVSPropertyOp42
 70
     1
102
RTVSPropertyOp43
 70
     1
102
RTVSPropertyOp44
 70
     1
102
RTVSPropertyOp45
 70
     1
102
RTVSPropertyOp46
 70
     1
102
RTVSPropertyOp47
 70
     1
102
RTVSPropertyOp48
 70
     1
102
RTVSPropertyOp49
 70
     1
102
RTVSPropertyOp50
 70
     1
102
RTVSPropertyOp51
 70
     0
102
RTVSPropertyOp52
 70
     0
102
RTVSPropertyOp53
 70
     1
102
RTVSPropertyOp54
 70
     1
102
RTVSPropertyOp55
 70
     1
102
RTVSPropertyOp56
 70
     1
102
RTVSPropertyOp57
 70
     1
102
RTVSPropertyOp58
 70
     1
102
RTVSPropertyOp59
 70
     1
102
RTVSPropertyOp60
 70
     1
102
RTVSPropertyOp61
 70
     1
102
RTVSPropertyOp62
 70
     1
  0
XRECORD
  5
72C2
102
{ACAD_REACTORS
330
72C1
102
}
330
72C1
100
AcDbXrecord
280
     1
102
RTVSPost2010Prop28
280
     0
102
RTVSPost2010PropOp28
 70
     1
102
RTVSPost2010Prop29
280
     1
102
RTVSPost2010PropOp29
 70
     1
102
RTVSPost2010Prop30
280
     1
102
RTVSPost2010PropOp30
 70
     1
102
RTVSPost2010Prop31
280
     0
102
RTVSPost2010PropOp31
 70
     1
102
RTVSPost2010Prop32
280
     0
102
RTVSPost2010PropOp32
 70
     1
102
RTVSPost2010Prop33
280
     0
102
RTVSPost2010PropOp33
 70
     1
102
RTVSPost2010Prop34
280
     0
102
RTVSPost2010PropOp34
 70
     1
102
RTVSPost2010Prop35
280
     0
102
RTVSPost2010PropOp35
 70
     1
102
RTVSPost2010Prop36
280
     0
102
RTVSPost2010PropOp36
 70
     1
102
RTVSPost2010Prop37
 90
       50
102
RTVSPost2010PropOp37
 70
     1
102
RTVSPost2010Prop38
140
0.0
102
RTVSPost2010PropOp38
 70
     1
102
RTVSPost2010Prop39
140
1.0
102
RTVSPost2010PropOp39
 70
     1
102
RTVSPost2010Prop40
 90
        0
102
RTVSPost2010PropOp40
 70
     1
102
RTVSPost2010Prop41ColorIndex
 90
       18
102
RTVSPost2010Prop41ColorRGB
 90
        0
102
RTVSPost2010PropOp41
 70
     1
102
RTVSPost2010Prop42
 90
       50
102
RTVSPost2010PropOp42
 70
     1
102
RTVSPost2010Prop43
 90
        3
102
RTVSPost2010PropOp43
 70
     1
102
RTVSPost2010Prop44ColorIndex
 90
        5
102
RTVSPost2010Prop44ColorRGB
 90
      255
102
RTVSPost2010PropOp44
 70
     1
102
RTVSPost2010Prop45
280
     0
102
RTVSPost2010PropOp45
 70
     1
102
RTVSPost2010Prop46
 90
       50
102
RTVSPost2010PropOp46
 70
     1
102
RTVSPost2010Prop47
 90
       50
102
RTVSPost2010PropOp47
 70
     1
102
RTVSPost2010Prop48
 90
       50
102
RTVSPost2010PropOp48
 70
     1
102
RTVSPost2010Prop49
280
     0
102
RTVSPost2010PropOp49
 70
     1
102
RTVSPost2010Prop50
 90
       50
102
RTVSPost2010PropOp50
 70
     1
102
RTVSPost2010Prop51ColorIndex
 90
      256
102
RTVSPost2010Prop51ColorRGB
 90
-16777216
102
RTVSPost2010PropOp51
 70
     0
102
RTVSPost2010Prop52
140
1.0
102
RTVSPost2010PropOp52
 70
     0
102
RTVSPost2010Prop53
 90
        2
102
RTVSPost2010PropOp53
 70
     1
102
RTVSPost2010Prop54
  1
strokes_ogs.tif
102
RTVSPost2010PropOp54
 70
     1
102
RTVSPost2010Prop55
280
     0
102
RTVSPost2010PropOp55
 70
     1
102
RTVSPost2010Prop56
140
1.0
102
RTVSPost2010PropOp56
 70
     1
102
RTVSPost2010Prop57
140
1.0
102
RTVSPost2010PropOp57
 70
     1
102
RTVSPropertyOp0
 70
     1
102
RTVSPropertyOp1
 70
     1
102
RTVSPropertyOp2
 70
     1
102
RTVSPropertyOp3
 70
     1
102
RTVSPropertyOp4
 70
     1
102
RTVSPropertyOp5
 70
     1
102
RTVSPropertyOp6
 70
     1
102
RTVSPropertyOp7
 70
     1
102
RTVSPropertyOp8
 70
     1
102
RTVSPropertyOp9
 70
     1
102
RTVSPropertyOp10
 70
     1
102
RTVSPropertyOp11
 70
     1
102
RTVSPropertyOp12
 70
     1
102
RTVSPropertyOp13
 70
     1
102
RTVSPropertyOp14
 70
     1
102
RTVSPropertyOp15
 70
     1
102
RTVSPropertyOp16
 70
     1
102
RTVSPropertyOp17
 70
     1
102
RTVSPropertyOp18
 70
     1
102
RTVSPropertyOp19
 70
     1
102
RTVSPropertyOp20
 70
     1
102
RTVSPropertyOp21
 70
     1
102
RTVSPropertyOp22
 70
     1
102
RTVSPropertyOp23
 70
     1
102
RTVSPropertyOp24
 70
     1
102
RTVSPropertyOp25
 70
     1
102
RTVSPropertyOp26
 70
     1
102
RTVSPropertyOp27
 70
     1
102
RTVSPropertyOp28
 70
     1
102
RTVSPropertyOp29
 70
     1
102
RTVSPropertyOp30
 70
     1
102
RTVSPropertyOp31
 70
     1
102
RTVSPropertyOp32
 70
     1
102
RTVSPropertyOp33
 70
     1
102
RTVSPropertyOp34
 70
     1
102
RTVSPropertyOp35
 70
     1
102
RTVSPropertyOp36
 70
     1
102
RTVSPropertyOp37
 70
     1
102
RTVSPropertyOp38
 70
     1
102
RTVSPropertyOp39
 70
     1
102
RTVSPropertyOp40
 70
     1
102
RTVSPropertyOp41
 70
     1
102
RTVSPropertyOp42
 70
     1
102
RTVSPropertyOp43
 70
     1
102
RTVSPropertyOp44
 70
     1
102
RTVSPropertyOp45
 70
     1
102
RTVSPropertyOp46
 70
     1
102
RTVSPropertyOp47
 70
     1
102
RTVSPropertyOp48
 70
     1
102
RTVSPropertyOp49
 70
     1
102
RTVSPropertyOp50
 70
     1
102
RTVSPropertyOp51
 70
     0
102
RTVSPropertyOp52
 70
     0
102
RTVSPropertyOp53
 70
     1
102
RTVSPropertyOp54
 70
     1
102
RTVSPropertyOp55
 70
     1
102
RTVSPropertyOp56
 70
     1
102
RTVSPropertyOp57
 70
     1
102
RTVSPropertyOp58
 70
     1
102
RTVSPropertyOp59
 70
     1
102
RTVSPropertyOp60
 70
     1
102
RTVSPropertyOp61
 70
     1
102
RTVSPropertyOp62
 70
     1
  0
XRECORD
  5
72C6
102
{ACAD_REACTORS
330
72C5
102
}
330
72C5
100
AcDbXrecord
280
     1
102
RTVSPost2010Prop28
280
     0
102
RTVSPost2010PropOp28
 70
     1
102
RTVSPost2010Prop29
280
     1
102
RTVSPost2010PropOp29
 70
     1
102
RTVSPost2010Prop30
280
     1
102
RTVSPost2010PropOp30
 70
     1
102
RTVSPost2010Prop31
280
     0
102
RTVSPost2010PropOp31
 70
     1
102
RTVSPost2010Prop32
280
     0
102
RTVSPost2010PropOp32
 70
     1
102
RTVSPost2010Prop33
280
     0
102
RTVSPost2010PropOp33
 70
     1
102
RTVSPost2010Prop34
280
     0
102
RTVSPost2010PropOp34
 70
     1
102
RTVSPost2010Prop35
280
     0
102
RTVSPost2010PropOp35
 70
     1
102
RTVSPost2010Prop36
280
     0
102
RTVSPost2010PropOp36
 70
     1
102
RTVSPost2010Prop37
 90
       50
102
RTVSPost2010PropOp37
 70
     1
102
RTVSPost2010Prop38
140
0.0
102
RTVSPost2010PropOp38
 70
     1
102
RTVSPost2010Prop39
140
1.0
102
RTVSPost2010PropOp39
 70
     1
102
RTVSPost2010Prop40
 90
        0
102
RTVSPost2010PropOp40
 70
     1
102
RTVSPost2010Prop41ColorIndex
 90
       18
102
RTVSPost2010Prop41ColorRGB
 90
        0
102
RTVSPost2010PropOp41
 70
     1
102
RTVSPost2010Prop42
 90
       50
102
RTVSPost2010PropOp42
 70
     1
102
RTVSPost2010Prop43
 90
        3
102
RTVSPost2010PropOp43
 70
     1
102
RTVSPost2010Prop44ColorIndex
 90
        5
102
RTVSPost2010Prop44ColorRGB
 90
      255
102
RTVSPost2010PropOp44
 70
     1
102
RTVSPost2010Prop45
280
     0
102
RTVSPost2010PropOp45
 70
     1
102
RTVSPost2010Prop46
 90
       50
102
RTVSPost2010PropOp46
 70
     1
102
RTVSPost2010Prop47
 90
       50
102
RTVSPost2010PropOp47
 70
     1
102
RTVSPost2010Prop48
 90
       50
102
RTVSPost2010PropOp48
 70
     1
102
RTVSPost2010Prop49
280
     0
102
RTVSPost2010PropOp49
 70
     1
102
RTVSPost2010Prop50
 90
       50
102
RTVSPost2010PropOp50
 70
     1
102
RTVSPost2010Prop51ColorIndex
 90
      256
102
RTVSPost2010Prop51ColorRGB
 90
-16777216
102
RTVSPost2010PropOp51
 70
     0
102
RTVSPost2010Prop52
140
1.0
102
RTVSPost2010PropOp52
 70
     0
102
RTVSPost2010Prop53
 90
        2
102
RTVSPost2010PropOp53
 70
     1
102
RTVSPost2010Prop54
  1
strokes_ogs.tif
102
RTVSPost2010PropOp54
 70
     1
102
RTVSPost2010Prop55
280
     0
102
RTVSPost2010PropOp55
 70
     1
102
RTVSPost2010Prop56
140
1.0
102
RTVSPost2010PropOp56
 70
     1
102
RTVSPost2010Prop57
140
1.0
102
RTVSPost2010PropOp57
 70
     1
102
RTVSPropertyOp0
 70
     1
102
RTVSPropertyOp1
 70
     1
102
RTVSPropertyOp2
 70
     1
102
RTVSPropertyOp3
 70
     1
102
RTVSPropertyOp4
 70
     1
102
RTVSPropertyOp5
 70
     1
102
RTVSPropertyOp6
 70
     1
102
RTVSPropertyOp7
 70
     1
102
RTVSPropertyOp8
 70
     1
102
RTVSPropertyOp9
 70
     1
102
RTVSPropertyOp10
 70
     1
102
RTVSPropertyOp11
 70
     1
102
RTVSPropertyOp12
 70
     1
102
RTVSPropertyOp13
 70
     1
102
RTVSPropertyOp14
 70
     1
102
RTVSPropertyOp15
 70
     1
102
RTVSPropertyOp16
 70
     1
102
RTVSPropertyOp17
 70
     1
102
RTVSPropertyOp18
 70
     1
102
RTVSPropertyOp19
 70
     1
102
RTVSPropertyOp20
 70
     1
102
RTVSPropertyOp21
 70
     1
102
RTVSPropertyOp22
 70
     1
102
RTVSPropertyOp23
 70
     1
102
RTVSPropertyOp24
 70
     1
102
RTVSPropertyOp25
 70
     1
102
RTVSPropertyOp26
 70
     1
102
RTVSPropertyOp27
 70
     1
102
RTVSPropertyOp28
 70
     1
102
RTVSPropertyOp29
 70
     1
102
RTVSPropertyOp30
 70
     1
102
RTVSPropertyOp31
 70
     1
102
RTVSPropertyOp32
 70
     1
102
RTVSPropertyOp33
 70
     1
102
RTVSPropertyOp34
 70
     1
102
RTVSPropertyOp35
 70
     1
102
RTVSPropertyOp36
 70
     1
102
RTVSPropertyOp37
 70
     1
102
RTVSPropertyOp38
 70
     1
102
RTVSPropertyOp39
 70
     1
102
RTVSPropertyOp40
 70
     1
102
RTVSPropertyOp41
 70
     1
102
RTVSPropertyOp42
 70
     1
102
RTVSPropertyOp43
 70
     1
102
RTVSPropertyOp44
 70
     1
102
RTVSPropertyOp45
 70
     1
102
RTVSPropertyOp46
 70
     1
102
RTVSPropertyOp47
 70
     1
102
RTVSPropertyOp48
 70
     1
102
RTVSPropertyOp49
 70
     1
102
RTVSPropertyOp50
 70
     1
102
RTVSPropertyOp51
 70
     0
102
RTVSPropertyOp52
 70
     0
102
RTVSPropertyOp53
 70
     1
102
RTVSPropertyOp54
 70
     1
102
RTVSPropertyOp55
 70
     1
102
RTVSPropertyOp56
 70
     1
102
RTVSPropertyOp57
 70
     1
102
RTVSPropertyOp58
 70
     1
102
RTVSPropertyOp59
 70
     1
102
RTVSPropertyOp60
 70
     1
102
RTVSPropertyOp61
 70
     1
102
RTVSPropertyOp62
 70
     1
  0
XRECORD
  5
72D8
102
{ACAD_REACTORS
330
72D7
102
}
330
72D7
100
AcDbXrecord
280
     1
102
RTVSPost2010Prop28
280
     0
102
RTVSPost2010PropOp28
 70
     1
102
RTVSPost2010Prop29
280
     1
102
RTVSPost2010PropOp29
 70
     1
102
RTVSPost2010Prop30
280
     1
102
RTVSPost2010PropOp30
 70
     1
102
RTVSPost2010Prop31
280
     0
102
RTVSPost2010PropOp31
 70
     1
102
RTVSPost2010Prop32
280
     0
102
RTVSPost2010PropOp32
 70
     1
102
RTVSPost2010Prop33
280
     0
102
RTVSPost2010PropOp33
 70
     1
102
RTVSPost2010Prop34
280
     0
102
RTVSPost2010PropOp34
 70
     1
102
RTVSPost2010Prop35
280
     0
102
RTVSPost2010PropOp35
 70
     1
102
RTVSPost2010Prop36
280
     0
102
RTVSPost2010PropOp36
 70
     1
102
RTVSPost2010Prop37
 90
       50
102
RTVSPost2010PropOp37
 70
     1
102
RTVSPost2010Prop38
140
0.0
102
RTVSPost2010PropOp38
 70
     1
102
RTVSPost2010Prop39
140
1.0
102
RTVSPost2010PropOp39
 70
     1
102
RTVSPost2010Prop40
 90
        0
102
RTVSPost2010PropOp40
 70
     1
102
RTVSPost2010Prop41ColorIndex
 90
       18
102
RTVSPost2010Prop41ColorRGB
 90
        0
102
RTVSPost2010PropOp41
 70
     1
102
RTVSPost2010Prop42
 90
       50
102
RTVSPost2010PropOp42
 70
     1
102
RTVSPost2010Prop43
 90
        3
102
RTVSPost2010PropOp43
 70
     1
102
RTVSPost2010Prop44ColorIndex
 90
        5
102
RTVSPost2010Prop44ColorRGB
 90
      255
102
RTVSPost2010PropOp44
 70
     1
102
RTVSPost2010Prop45
280
     0
102
RTVSPost2010PropOp45
 70
     1
102
RTVSPost2010Prop46
 90
       50
102
RTVSPost2010PropOp46
 70
     1
102
RTVSPost2010Prop47
 90
       50
102
RTVSPost2010PropOp47
 70
     1
102
RTVSPost2010Prop48
 90
       50
102
RTVSPost2010PropOp48
 70
     1
102
RTVSPost2010Prop49
280
     0
102
RTVSPost2010PropOp49
 70
     1
102
RTVSPost2010Prop50
 90
       50
102
RTVSPost2010PropOp50
 70
     1
102
RTVSPost2010Prop51ColorIndex
 90
      256
102
RTVSPost2010Prop51ColorRGB
 90
-16777216
102
RTVSPost2010PropOp51
 70
     0
102
RTVSPost2010Prop52
140
1.0
102
RTVSPost2010PropOp52
 70
     0
102
RTVSPost2010Prop53
 90
        2
102
RTVSPost2010PropOp53
 70
     1
102
RTVSPost2010Prop54
  1
strokes_ogs.tif
102
RTVSPost2010PropOp54
 70
     1
102
RTVSPost2010Prop55
280
     0
102
RTVSPost2010PropOp55
 70
     1
102
RTVSPost2010Prop56
140
1.0
102
RTVSPost2010PropOp56
 70
     1
102
RTVSPost2010Prop57
140
1.0
102
RTVSPost2010PropOp57
 70
     1
102
RTVSPropertyOp0
 70
     0
102
RTVSPropertyOp1
 70
     0
102
RTVSPropertyOp2
 70
     0
102
RTVSPropertyOp3
 70
     0
102
RTVSPropertyOp4
 70
     0
102
RTVSPropertyOp5
 70
     0
102
RTVSPropertyOp6
 70
     0
102
RTVSPropertyOp7
 70
     0
102
RTVSPropertyOp8
 70
     0
102
RTVSPropertyOp9
 70
     0
102
RTVSPropertyOp10
 70
     0
102
RTVSPropertyOp11
 70
     0
102
RTVSPropertyOp12
 70
     0
102
RTVSPropertyOp13
 70
     0
102
RTVSPropertyOp14
 70
     2
102
RTVSPropertyOp15
 70
     0
102
RTVSPropertyOp16
 70
     0
102
RTVSPropertyOp17
 70
     0
102
RTVSPropertyOp18
 70
     0
102
RTVSPropertyOp19
 70
     0
102
RTVSPropertyOp20
 70
     0
102
RTVSPropertyOp21
 70
     0
102
RTVSPropertyOp22
 70
     0
102
RTVSPropertyOp23
 70
     0
102
RTVSPropertyOp24
 70
     0
102
RTVSPropertyOp25
 70
     0
102
RTVSPropertyOp26
 70
     0
102
RTVSPropertyOp27
 70
     0
102
RTVSPropertyOp28
 70
     1
102
RTVSPropertyOp29
 70
     1
102
RTVSPropertyOp30
 70
     1
102
RTVSPropertyOp31
 70
     1
102
RTVSPropertyOp32
 70
     1
102
RTVSPropertyOp33
 70
     1
102
RTVSPropertyOp34
 70
     1
102
RTVSPropertyOp35
 70
     1
102
RTVSPropertyOp36
 70
     1
102
RTVSPropertyOp37
 70
     1
102
RTVSPropertyOp38
 70
     1
102
RTVSPropertyOp39
 70
     1
102
RTVSPropertyOp40
 70
     1
102
RTVSPropertyOp41
 70
     1
102
RTVSPropertyOp42
 70
     1
102
RTVSPropertyOp43
 70
     1
102
RTVSPropertyOp44
 70
     1
102
RTVSPropertyOp45
 70
     1
102
RTVSPropertyOp46
 70
     1
102
RTVSPropertyOp47
 70
     1
102
RTVSPropertyOp48
 70
     1
102
RTVSPropertyOp49
 70
     1
102
RTVSPropertyOp50
 70
     1
102
RTVSPropertyOp51
 70
     0
102
RTVSPropertyOp52
 70
     0
102
RTVSPropertyOp53
 70
     1
102
RTVSPropertyOp54
 70
     1
102
RTVSPropertyOp55
 70
     1
102
RTVSPropertyOp56
 70
     1
102
RTVSPropertyOp57
 70
     1
102
RTVSPropertyOp58
 70
     1
102
RTVSPropertyOp59
 70
     1
102
RTVSPropertyOp60
 70
     1
102
RTVSPropertyOp61
 70
     1
102
RTVSPropertyOp62
 70
     1
  0
XRECORD
  5
72CE
102
{ACAD_REACTORS
330
72CD
102
}
330
72CD
100
AcDbXrecord
280
     1
102
RTVSPost2010Prop28
280
     0
102
RTVSPost2010PropOp28
 70
     1
102
RTVSPost2010Prop29
280
     1
102
RTVSPost2010PropOp29
 70
     1
102
RTVSPost2010Prop30
280
     1
102
RTVSPost2010PropOp30
 70
     1
102
RTVSPost2010Prop31
280
     0
102
RTVSPost2010PropOp31
 70
     1
102
RTVSPost2010Prop32
280
     0
102
RTVSPost2010PropOp32
 70
     1
102
RTVSPost2010Prop33
280
     0
102
RTVSPost2010PropOp33
 70
     1
102
RTVSPost2010Prop34
280
     0
102
RTVSPost2010PropOp34
 70
     1
102
RTVSPost2010Prop35
280
     0
102
RTVSPost2010PropOp35
 70
     1
102
RTVSPost2010Prop36
280
     0
102
RTVSPost2010PropOp36
 70
     1
102
RTVSPost2010Prop37
 90
       50
102
RTVSPost2010PropOp37
 70
     1
102
RTVSPost2010Prop38
140
0.0
102
RTVSPost2010PropOp38
 70
     1
102
RTVSPost2010Prop39
140
1.0
102
RTVSPost2010PropOp39
 70
     1
102
RTVSPost2010Prop40
 90
        0
102
RTVSPost2010PropOp40
 70
     1
102
RTVSPost2010Prop41ColorIndex
 90
       18
102
RTVSPost2010Prop41ColorRGB
 90
        0
102
RTVSPost2010PropOp41
 70
     1
102
RTVSPost2010Prop42
 90
       50
102
RTVSPost2010PropOp42
 70
     1
102
RTVSPost2010Prop43
 90
        3
102
RTVSPost2010PropOp43
 70
     1
102
RTVSPost2010Prop44ColorIndex
 90
        5
102
RTVSPost2010Prop44ColorRGB
 90
      255
102
RTVSPost2010PropOp44
 70
     1
102
RTVSPost2010Prop45
280
     0
102
RTVSPost2010PropOp45
 70
     1
102
RTVSPost2010Prop46
 90
       50
102
RTVSPost2010PropOp46
 70
     1
102
RTVSPost2010Prop47
 90
       50
102
RTVSPost2010PropOp47
 70
     1
102
RTVSPost2010Prop48
 90
       50
102
RTVSPost2010PropOp48
 70
     1
102
RTVSPost2010Prop49
280
     0
102
RTVSPost2010PropOp49
 70
     1
102
RTVSPost2010Prop50
 90
       50
102
RTVSPost2010PropOp50
 70
     1
102
RTVSPost2010Prop51ColorIndex
 90
      256
102
RTVSPost2010Prop51ColorRGB
 90
-16777216
102
RTVSPost2010PropOp51
 70
     0
102
RTVSPost2010Prop52
140
1.0
102
RTVSPost2010PropOp52
 70
     0
102
RTVSPost2010Prop53
 90
        2
102
RTVSPost2010PropOp53
 70
     1
102
RTVSPost2010Prop54
  1
strokes_ogs.tif
102
RTVSPost2010PropOp54
 70
     1
102
RTVSPost2010Prop55
280
     0
102
RTVSPost2010PropOp55
 70
     1
102
RTVSPost2010Prop56
140
1.0
102
RTVSPost2010PropOp56
 70
     1
102
RTVSPost2010Prop57
140
1.0
102
RTVSPost2010PropOp57
 70
     1
102
RTVSPropertyOp0
 70
     1
102
RTVSPropertyOp1
 70
     1
102
RTVSPropertyOp2
 70
     1
102
RTVSPropertyOp3
 70
     1
102
RTVSPropertyOp4
 70
     1
102
RTVSPropertyOp5
 70
     1
102
RTVSPropertyOp6
 70
     1
102
RTVSPropertyOp7
 70
     1
102
RTVSPropertyOp8
 70
     1
102
RTVSPropertyOp9
 70
     1
102
RTVSPropertyOp10
 70
     1
102
RTVSPropertyOp11
 70
     1
102
RTVSPropertyOp12
 70
     1
102
RTVSPropertyOp13
 70
     1
102
RTVSPropertyOp14
 70
     1
102
RTVSPropertyOp15
 70
     1
102
RTVSPropertyOp16
 70
     1
102
RTVSPropertyOp17
 70
     1
102
RTVSPropertyOp18
 70
     1
102
RTVSPropertyOp19
 70
     1
102
RTVSPropertyOp20
 70
     1
102
RTVSPropertyOp21
 70
     1
102
RTVSPropertyOp22
 70
     1
102
RTVSPropertyOp23
 70
     1
102
RTVSPropertyOp24
 70
     1
102
RTVSPropertyOp25
 70
     1
102
RTVSPropertyOp26
 70
     1
102
RTVSPropertyOp27
 70
     1
102
RTVSPropertyOp28
 70
     1
102
RTVSPropertyOp29
 70
     1
102
RTVSPropertyOp30
 70
     1
102
RTVSPropertyOp31
 70
     1
102
RTVSPropertyOp32
 70
     1
102
RTVSPropertyOp33
 70
     1
102
RTVSPropertyOp34
 70
     1
102
RTVSPropertyOp35
 70
     1
102
RTVSPropertyOp36
 70
     1
102
RTVSPropertyOp37
 70
     1
102
RTVSPropertyOp38
 70
     1
102
RTVSPropertyOp39
 70
     1
102
RTVSPropertyOp40
 70
     1
102
RTVSPropertyOp41
 70
     1
102
RTVSPropertyOp42
 70
     1
102
RTVSPropertyOp43
 70
     1
102
RTVSPropertyOp44
 70
     1
102
RTVSPropertyOp45
 70
     1
102
RTVSPropertyOp46
 70
     1
102
RTVSPropertyOp47
 70
     1
102
RTVSPropertyOp48
 70
     1
102
RTVSPropertyOp49
 70
     1
102
RTVSPropertyOp50
 70
     1
102
RTVSPropertyOp51
 70
     0
102
RTVSPropertyOp52
 70
     0
102
RTVSPropertyOp53
 70
     1
102
RTVSPropertyOp54
 70
     1
102
RTVSPropertyOp55
 70
     1
102
RTVSPropertyOp56
 70
     1
102
RTVSPropertyOp57
 70
     1
102
RTVSPropertyOp58
 70
     1
102
RTVSPropertyOp59
 70
     1
102
RTVSPropertyOp60
 70
     1
102
RTVSPropertyOp61
 70
     1
102
RTVSPropertyOp62
 70
     1
  0
XRECORD
  5
72B2
102
{ACAD_REACTORS
330
72B1
102
}
330
72B1
100
AcDbXrecord
280
     1
102
RTVSPost2010Prop28
280
     0
102
RTVSPost2010PropOp28
 70
     1
102
RTVSPost2010Prop29
280
     1
102
RTVSPost2010PropOp29
 70
     1
102
RTVSPost2010Prop30
280
     1
102
RTVSPost2010PropOp30
 70
     1
102
RTVSPost2010Prop31
280
     0
102
RTVSPost2010PropOp31
 70
     1
102
RTVSPost2010Prop32
280
     0
102
RTVSPost2010PropOp32
 70
     1
102
RTVSPost2010Prop33
280
     0
102
RTVSPost2010PropOp33
 70
     1
102
RTVSPost2010Prop34
280
     0
102
RTVSPost2010PropOp34
 70
     1
102
RTVSPost2010Prop35
280
     0
102
RTVSPost2010PropOp35
 70
     1
102
RTVSPost2010Prop36
280
     0
102
RTVSPost2010PropOp36
 70
     1
102
RTVSPost2010Prop37
 90
       50
102
RTVSPost2010PropOp37
 70
     1
102
RTVSPost2010Prop38
140
0.0
102
RTVSPost2010PropOp38
 70
     1
102
RTVSPost2010Prop39
140
1.0
102
RTVSPost2010PropOp39
 70
     1
102
RTVSPost2010Prop40
 90
        0
102
RTVSPost2010PropOp40
 70
     1
102
RTVSPost2010Prop41ColorIndex
 90
       18
102
RTVSPost2010Prop41ColorRGB
 90
        0
102
RTVSPost2010PropOp41
 70
     1
102
RTVSPost2010Prop42
 90
       50
102
RTVSPost2010PropOp42
 70
     1
102
RTVSPost2010Prop43
 90
        3
102
RTVSPost2010PropOp43
 70
     1
102
RTVSPost2010Prop44ColorIndex
 90
        5
102
RTVSPost2010Prop44ColorRGB
 90
      255
102
RTVSPost2010PropOp44
 70
     1
102
RTVSPost2010Prop45
280
     0
102
RTVSPost2010PropOp45
 70
     1
102
RTVSPost2010Prop46
 90
       50
102
RTVSPost2010PropOp46
 70
     1
102
RTVSPost2010Prop47
 90
       50
102
RTVSPost2010PropOp47
 70
     1
102
RTVSPost2010Prop48
 90
       50
102
RTVSPost2010PropOp48
 70
     1
102
RTVSPost2010Prop49
280
     0
102
RTVSPost2010PropOp49
 70
     1
102
RTVSPost2010Prop50
 90
       50
102
RTVSPost2010PropOp50
 70
     1
102
RTVSPost2010Prop51ColorIndex
 90
      256
102
RTVSPost2010Prop51ColorRGB
 90
-16777216
102
RTVSPost2010PropOp51
 70
     0
102
RTVSPost2010Prop52
140
1.0
102
RTVSPost2010PropOp52
 70
     0
102
RTVSPost2010Prop53
 90
        2
102
RTVSPost2010PropOp53
 70
     1
102
RTVSPost2010Prop54
  1
strokes_ogs.tif
102
RTVSPost2010PropOp54
 70
     1
102
RTVSPost2010Prop55
280
     0
102
RTVSPost2010PropOp55
 70
     1
102
RTVSPost2010Prop56
140
1.0
102
RTVSPost2010PropOp56
 70
     1
102
RTVSPost2010Prop57
140
1.0
102
RTVSPost2010PropOp57
 70
     1
102
RTVSPropertyOp0
 70
     1
102
RTVSPropertyOp1
 70
     1
102
RTVSPropertyOp2
 70
     1
102
RTVSPropertyOp3
 70
     1
102
RTVSPropertyOp4
 70
     1
102
RTVSPropertyOp5
 70
     1
102
RTVSPropertyOp6
 70
     1
102
RTVSPropertyOp7
 70
     1
102
RTVSPropertyOp8
 70
     1
102
RTVSPropertyOp9
 70
     1
102
RTVSPropertyOp10
 70
     1
102
RTVSPropertyOp11
 70
     1
102
RTVSPropertyOp12
 70
     1
102
RTVSPropertyOp13
 70
     1
102
RTVSPropertyOp14
 70
     1
102
RTVSPropertyOp15
 70
     1
102
RTVSPropertyOp16
 70
     1
102
RTVSPropertyOp17
 70
     1
102
RTVSPropertyOp18
 70
     1
102
RTVSPropertyOp19
 70
     1
102
RTVSPropertyOp20
 70
     1
102
RTVSPropertyOp21
 70
     1
102
RTVSPropertyOp22
 70
     1
102
RTVSPropertyOp23
 70
     1
102
RTVSPropertyOp24
 70
     1
102
RTVSPropertyOp25
 70
     1
102
RTVSPropertyOp26
 70
     1
102
RTVSPropertyOp27
 70
     1
102
RTVSPropertyOp28
 70
     1
102
RTVSPropertyOp29
 70
     1
102
RTVSPropertyOp30
 70
     1
102
RTVSPropertyOp31
 70
     1
102
RTVSPropertyOp32
 70
     1
102
RTVSPropertyOp33
 70
     1
102
RTVSPropertyOp34
 70
     1
102
RTVSPropertyOp35
 70
     1
102
RTVSPropertyOp36
 70
     1
102
RTVSPropertyOp37
 70
     1
102
RTVSPropertyOp38
 70
     1
102
RTVSPropertyOp39
 70
     1
102
RTVSPropertyOp40
 70
     1
102
RTVSPropertyOp41
 70
     1
102
RTVSPropertyOp42
 70
     1
102
RTVSPropertyOp43
 70
     1
102
RTVSPropertyOp44
 70
     1
102
RTVSPropertyOp45
 70
     1
102
RTVSPropertyOp46
 70
     1
102
RTVSPropertyOp47
 70
     1
102
RTVSPropertyOp48
 70
     1
102
RTVSPropertyOp49
 70
     1
102
RTVSPropertyOp50
 70
     1
102
RTVSPropertyOp51
 70
     0
102
RTVSPropertyOp52
 70
     0
102
RTVSPropertyOp53
 70
     1
102
RTVSPropertyOp54
 70
     1
102
RTVSPropertyOp55
 70
     1
102
RTVSPropertyOp56
 70
     1
102
RTVSPropertyOp57
 70
     1
102
RTVSPropertyOp58
 70
     1
102
RTVSPropertyOp59
 70
     1
102
RTVSPropertyOp60
 70
     1
102
RTVSPropertyOp61
 70
     1
102
RTVSPropertyOp62
 70
     1
  0
XRECORD
  5
72B4
102
{ACAD_REACTORS
330
72B3
102
}
330
72B3
100
AcDbXrecord
280
     1
102
RTVSPost2010Prop28
280
     0
102
RTVSPost2010PropOp28
 70
     1
102
RTVSPost2010Prop29
280
     1
102
RTVSPost2010PropOp29
 70
     1
102
RTVSPost2010Prop30
280
     1
102
RTVSPost2010PropOp30
 70
     1
102
RTVSPost2010Prop31
280
     0
102
RTVSPost2010PropOp31
 70
     1
102
RTVSPost2010Prop32
280
     0
102
RTVSPost2010PropOp32
 70
     1
102
RTVSPost2010Prop33
280
     0
102
RTVSPost2010PropOp33
 70
     1
102
RTVSPost2010Prop34
280
     0
102
RTVSPost2010PropOp34
 70
     1
102
RTVSPost2010Prop35
280
     0
102
RTVSPost2010PropOp35
 70
     1
102
RTVSPost2010Prop36
280
     0
102
RTVSPost2010PropOp36
 70
     1
102
RTVSPost2010Prop37
 90
       50
102
RTVSPost2010PropOp37
 70
     1
102
RTVSPost2010Prop38
140
0.0
102
RTVSPost2010PropOp38
 70
     1
102
RTVSPost2010Prop39
140
1.0
102
RTVSPost2010PropOp39
 70
     1
102
RTVSPost2010Prop40
 90
        0
102
RTVSPost2010PropOp40
 70
     1
102
RTVSPost2010Prop41ColorIndex
 90
       18
102
RTVSPost2010Prop41ColorRGB
 90
        0
102
RTVSPost2010PropOp41
 70
     1
102
RTVSPost2010Prop42
 90
       50
102
RTVSPost2010PropOp42
 70
     1
102
RTVSPost2010Prop43
 90
        3
102
RTVSPost2010PropOp43
 70
     1
102
RTVSPost2010Prop44ColorIndex
 90
        5
102
RTVSPost2010Prop44ColorRGB
 90
      255
102
RTVSPost2010PropOp44
 70
     1
102
RTVSPost2010Prop45
280
     0
102
RTVSPost2010PropOp45
 70
     1
102
RTVSPost2010Prop46
 90
       50
102
RTVSPost2010PropOp46
 70
     1
102
RTVSPost2010Prop47
 90
       50
102
RTVSPost2010PropOp47
 70
     1
102
RTVSPost2010Prop48
 90
       50
102
RTVSPost2010PropOp48
 70
     1
102
RTVSPost2010Prop49
280
     0
102
RTVSPost2010PropOp49
 70
     1
102
RTVSPost2010Prop50
 90
       50
102
RTVSPost2010PropOp50
 70
     1
102
RTVSPost2010Prop51ColorIndex
 90
      256
102
RTVSPost2010Prop51ColorRGB
 90
-16777216
102
RTVSPost2010PropOp51
 70
     0
102
RTVSPost2010Prop52
140
1.0
102
RTVSPost2010PropOp52
 70
     0
102
RTVSPost2010Prop53
 90
        2
102
RTVSPost2010PropOp53
 70
     1
102
RTVSPost2010Prop54
  1
strokes_ogs.tif
102
RTVSPost2010PropOp54
 70
     1
102
RTVSPost2010Prop55
280
     0
102
RTVSPost2010PropOp55
 70
     1
102
RTVSPost2010Prop56
140
1.0
102
RTVSPost2010PropOp56
 70
     1
102
RTVSPost2010Prop57
140
1.0
102
RTVSPost2010PropOp57
 70
     1
102
RTVSPropertyOp0
 70
     1
102
RTVSPropertyOp1
 70
     1
102
RTVSPropertyOp2
 70
     1
102
RTVSPropertyOp3
 70
     1
102
RTVSPropertyOp4
 70
     1
102
RTVSPropertyOp5
 70
     1
102
RTVSPropertyOp6
 70
     1
102
RTVSPropertyOp7
 70
     1
102
RTVSPropertyOp8
 70
     1
102
RTVSPropertyOp9
 70
     1
102
RTVSPropertyOp10
 70
     1
102
RTVSPropertyOp11
 70
     1
102
RTVSPropertyOp12
 70
     1
102
RTVSPropertyOp13
 70
     1
102
RTVSPropertyOp14
 70
     1
102
RTVSPropertyOp15
 70
     1
102
RTVSPropertyOp16
 70
     1
102
RTVSPropertyOp17
 70
     1
102
RTVSPropertyOp18
 70
     1
102
RTVSPropertyOp19
 70
     1
102
RTVSPropertyOp20
 70
     1
102
RTVSPropertyOp21
 70
     1
102
RTVSPropertyOp22
 70
     1
102
RTVSPropertyOp23
 70
     1
102
RTVSPropertyOp24
 70
     1
102
RTVSPropertyOp25
 70
     1
102
RTVSPropertyOp26
 70
     1
102
RTVSPropertyOp27
 70
     1
102
RTVSPropertyOp28
 70
     1
102
RTVSPropertyOp29
 70
     1
102
RTVSPropertyOp30
 70
     1
102
RTVSPropertyOp31
 70
     1
102
RTVSPropertyOp32
 70
     1
102
RTVSPropertyOp33
 70
     1
102
RTVSPropertyOp34
 70
     1
102
RTVSPropertyOp35
 70
     1
102
RTVSPropertyOp36
 70
     1
102
RTVSPropertyOp37
 70
     1
102
RTVSPropertyOp38
 70
     1
102
RTVSPropertyOp39
 70
     1
102
RTVSPropertyOp40
 70
     1
102
RTVSPropertyOp41
 70
     1
102
RTVSPropertyOp42
 70
     1
102
RTVSPropertyOp43
 70
     1
102
RTVSPropertyOp44
 70
     1
102
RTVSPropertyOp45
 70
     1
102
RTVSPropertyOp46
 70
     1
102
RTVSPropertyOp47
 70
     1
102
RTVSPropertyOp48
 70
     1
102
RTVSPropertyOp49
 70
     1
102
RTVSPropertyOp50
 70
     1
102
RTVSPropertyOp51
 70
     0
102
RTVSPropertyOp52
 70
     0
102
RTVSPropertyOp53
 70
     1
102
RTVSPropertyOp54
 70
     1
102
RTVSPropertyOp55
 70
     1
102
RTVSPropertyOp56
 70
     1
102
RTVSPropertyOp57
 70
     1
102
RTVSPropertyOp58
 70
     1
102
RTVSPropertyOp59
 70
     1
102
RTVSPropertyOp60
 70
     1
102
RTVSPropertyOp61
 70
     1
102
RTVSPropertyOp62
 70
     1
  0
XRECORD
  5
72B6
102
{ACAD_REACTORS
330
72B5
102
}
330
72B5
100
AcDbXrecord
280
     1
102
RTVSPost2010Prop28
280
     0
102
RTVSPost2010PropOp28
 70
     1
102
RTVSPost2010Prop29
280
     1
102
RTVSPost2010PropOp29
 70
     1
102
RTVSPost2010Prop30
280
     1
102
RTVSPost2010PropOp30
 70
     1
102
RTVSPost2010Prop31
280
     0
102
RTVSPost2010PropOp31
 70
     1
102
RTVSPost2010Prop32
280
     0
102
RTVSPost2010PropOp32
 70
     1
102
RTVSPost2010Prop33
280
     0
102
RTVSPost2010PropOp33
 70
     1
102
RTVSPost2010Prop34
280
     0
102
RTVSPost2010PropOp34
 70
     1
102
RTVSPost2010Prop35
280
     0
102
RTVSPost2010PropOp35
 70
     1
102
RTVSPost2010Prop36
280
     0
102
RTVSPost2010PropOp36
 70
     1
102
RTVSPost2010Prop37
 90
       50
102
RTVSPost2010PropOp37
 70
     1
102
RTVSPost2010Prop38
140
0.0
102
RTVSPost2010PropOp38
 70
     1
102
RTVSPost2010Prop39
140
1.0
102
RTVSPost2010PropOp39
 70
     1
102
RTVSPost2010Prop40
 90
        0
102
RTVSPost2010PropOp40
 70
     1
102
RTVSPost2010Prop41ColorIndex
 90
       18
102
RTVSPost2010Prop41ColorRGB
 90
        0
102
RTVSPost2010PropOp41
 70
     1
102
RTVSPost2010Prop42
 90
       50
102
RTVSPost2010PropOp42
 70
     1
102
RTVSPost2010Prop43
 90
        3
102
RTVSPost2010PropOp43
 70
     1
102
RTVSPost2010Prop44ColorIndex
 90
        5
102
RTVSPost2010Prop44ColorRGB
 90
      255
102
RTVSPost2010PropOp44
 70
     1
102
RTVSPost2010Prop45
280
     0
102
RTVSPost2010PropOp45
 70
     1
102
RTVSPost2010Prop46
 90
       50
102
RTVSPost2010PropOp46
 70
     1
102
RTVSPost2010Prop47
 90
       50
102
RTVSPost2010PropOp47
 70
     1
102
RTVSPost2010Prop48
 90
       50
102
RTVSPost2010PropOp48
 70
     1
102
RTVSPost2010Prop49
280
     0
102
RTVSPost2010PropOp49
 70
     1
102
RTVSPost2010Prop50
 90
       50
102
RTVSPost2010PropOp50
 70
     1
102
RTVSPost2010Prop51ColorIndex
 90
      256
102
RTVSPost2010Prop51ColorRGB
 90
-16777216
102
RTVSPost2010PropOp51
 70
     0
102
RTVSPost2010Prop52
140
1.0
102
RTVSPost2010PropOp52
 70
     0
102
RTVSPost2010Prop53
 90
        2
102
RTVSPost2010PropOp53
 70
     1
102
RTVSPost2010Prop54
  1
strokes_ogs.tif
102
RTVSPost2010PropOp54
 70
     1
102
RTVSPost2010Prop55
280
     0
102
RTVSPost2010PropOp55
 70
     1
102
RTVSPost2010Prop56
140
1.0
102
RTVSPost2010PropOp56
 70
     1
102
RTVSPost2010Prop57
140
1.0
102
RTVSPost2010PropOp57
 70
     1
102
RTVSPropertyOp0
 70
     1
102
RTVSPropertyOp1
 70
     1
102
RTVSPropertyOp2
 70
     1
102
RTVSPropertyOp3
 70
     1
102
RTVSPropertyOp4
 70
     1
102
RTVSPropertyOp5
 70
     1
102
RTVSPropertyOp6
 70
     1
102
RTVSPropertyOp7
 70
     1
102
RTVSPropertyOp8
 70
     1
102
RTVSPropertyOp9
 70
     1
102
RTVSPropertyOp10
 70
     1
102
RTVSPropertyOp11
 70
     1
102
RTVSPropertyOp12
 70
     1
102
RTVSPropertyOp13
 70
     1
102
RTVSPropertyOp14
 70
     1
102
RTVSPropertyOp15
 70
     1
102
RTVSPropertyOp16
 70
     1
102
RTVSPropertyOp17
 70
     1
102
RTVSPropertyOp18
 70
     1
102
RTVSPropertyOp19
 70
     1
102
RTVSPropertyOp20
 70
     1
102
RTVSPropertyOp21
 70
     1
102
RTVSPropertyOp22
 70
     1
102
RTVSPropertyOp23
 70
     1
102
RTVSPropertyOp24
 70
     1
102
RTVSPropertyOp25
 70
     1
102
RTVSPropertyOp26
 70
     1
102
RTVSPropertyOp27
 70
     1
102
RTVSPropertyOp28
 70
     1
102
RTVSPropertyOp29
 70
     1
102
RTVSPropertyOp30
 70
     1
102
RTVSPropertyOp31
 70
     1
102
RTVSPropertyOp32
 70
     1
102
RTVSPropertyOp33
 70
     1
102
RTVSPropertyOp34
 70
     1
102
RTVSPropertyOp35
 70
     1
102
RTVSPropertyOp36
 70
     1
102
RTVSPropertyOp37
 70
     1
102
RTVSPropertyOp38
 70
     1
102
RTVSPropertyOp39
 70
     1
102
RTVSPropertyOp40
 70
     1
102
RTVSPropertyOp41
 70
     1
102
RTVSPropertyOp42
 70
     1
102
RTVSPropertyOp43
 70
     1
102
RTVSPropertyOp44
 70
     1
102
RTVSPropertyOp45
 70
     1
102
RTVSPropertyOp46
 70
     1
102
RTVSPropertyOp47
 70
     1
102
RTVSPropertyOp48
 70
     1
102
RTVSPropertyOp49
 70
     1
102
RTVSPropertyOp50
 70
     1
102
RTVSPropertyOp51
 70
     0
102
RTVSPropertyOp52
 70
     0
102
RTVSPropertyOp53
 70
     1
102
RTVSPropertyOp54
 70
     1
102
RTVSPropertyOp55
 70
     1
102
RTVSPropertyOp56
 70
     1
102
RTVSPropertyOp57
 70
     1
102
RTVSPropertyOp58
 70
     1
102
RTVSPropertyOp59
 70
     1
102
RTVSPropertyOp60
 70
     1
102
RTVSPropertyOp61
 70
     1
102
RTVSPropertyOp62
 70
     1
  0
XRECORD
  5
72B8
102
{ACAD_REACTORS
330
72B7
102
}
330
72B7
100
AcDbXrecord
280
     1
102
RTVSPost2010Prop28
280
     0
102
RTVSPost2010PropOp28
 70
     1
102
RTVSPost2010Prop29
280
     1
102
RTVSPost2010PropOp29
 70
     1
102
RTVSPost2010Prop30
280
     1
102
RTVSPost2010PropOp30
 70
     1
102
RTVSPost2010Prop31
280
     0
102
RTVSPost2010PropOp31
 70
     1
102
RTVSPost2010Prop32
280
     0
102
RTVSPost2010PropOp32
 70
     1
102
RTVSPost2010Prop33
280
     0
102
RTVSPost2010PropOp33
 70
     1
102
RTVSPost2010Prop34
280
     0
102
RTVSPost2010PropOp34
 70
     1
102
RTVSPost2010Prop35
280
     0
102
RTVSPost2010PropOp35
 70
     1
102
RTVSPost2010Prop36
280
     0
102
RTVSPost2010PropOp36
 70
     1
102
RTVSPost2010Prop37
 90
       50
102
RTVSPost2010PropOp37
 70
     1
102
RTVSPost2010Prop38
140
0.0
102
RTVSPost2010PropOp38
 70
     1
102
RTVSPost2010Prop39
140
1.0
102
RTVSPost2010PropOp39
 70
     1
102
RTVSPost2010Prop40
 90
        0
102
RTVSPost2010PropOp40
 70
     1
102
RTVSPost2010Prop41ColorIndex
 90
       18
102
RTVSPost2010Prop41ColorRGB
 90
        0
102
RTVSPost2010PropOp41
 70
     1
102
RTVSPost2010Prop42
 90
       50
102
RTVSPost2010PropOp42
 70
     1
102
RTVSPost2010Prop43
 90
        3
102
RTVSPost2010PropOp43
 70
     1
102
RTVSPost2010Prop44ColorIndex
 90
        5
102
RTVSPost2010Prop44ColorRGB
 90
      255
102
RTVSPost2010PropOp44
 70
     1
102
RTVSPost2010Prop45
280
     0
102
RTVSPost2010PropOp45
 70
     1
102
RTVSPost2010Prop46
 90
       50
102
RTVSPost2010PropOp46
 70
     1
102
RTVSPost2010Prop47
 90
       50
102
RTVSPost2010PropOp47
 70
     1
102
RTVSPost2010Prop48
 90
       50
102
RTVSPost2010PropOp48
 70
     1
102
RTVSPost2010Prop49
280
     0
102
RTVSPost2010PropOp49
 70
     1
102
RTVSPost2010Prop50
 90
       50
102
RTVSPost2010PropOp50
 70
     1
102
RTVSPost2010Prop51ColorIndex
 90
      256
102
RTVSPost2010Prop51ColorRGB
 90
-16777216
102
RTVSPost2010PropOp51
 70
     0
102
RTVSPost2010Prop52
140
1.0
102
RTVSPost2010PropOp52
 70
     0
102
RTVSPost2010Prop53
 90
        2
102
RTVSPost2010PropOp53
 70
     1
102
RTVSPost2010Prop54
  1
strokes_ogs.tif
102
RTVSPost2010PropOp54
 70
     1
102
RTVSPost2010Prop55
280
     0
102
RTVSPost2010PropOp55
 70
     1
102
RTVSPost2010Prop56
140
1.0
102
RTVSPost2010PropOp56
 70
     1
102
RTVSPost2010Prop57
140
1.0
102
RTVSPost2010PropOp57
 70
     1
102
RTVSPropertyOp0
 70
     1
102
RTVSPropertyOp1
 70
     1
102
RTVSPropertyOp2
 70
     1
102
RTVSPropertyOp3
 70
     1
102
RTVSPropertyOp4
 70
     1
102
RTVSPropertyOp5
 70
     1
102
RTVSPropertyOp6
 70
     1
102
RTVSPropertyOp7
 70
     1
102
RTVSPropertyOp8
 70
     1
102
RTVSPropertyOp9
 70
     1
102
RTVSPropertyOp10
 70
     1
102
RTVSPropertyOp11
 70
     1
102
RTVSPropertyOp12
 70
     1
102
RTVSPropertyOp13
 70
     1
102
RTVSPropertyOp14
 70
     1
102
RTVSPropertyOp15
 70
     1
102
RTVSPropertyOp16
 70
     1
102
RTVSPropertyOp17
 70
     1
102
RTVSPropertyOp18
 70
     1
102
RTVSPropertyOp19
 70
     1
102
RTVSPropertyOp20
 70
     1
102
RTVSPropertyOp21
 70
     1
102
RTVSPropertyOp22
 70
     1
102
RTVSPropertyOp23
 70
     1
102
RTVSPropertyOp24
 70
     1
102
RTVSPropertyOp25
 70
     1
102
RTVSPropertyOp26
 70
     1
102
RTVSPropertyOp27
 70
     1
102
RTVSPropertyOp28
 70
     1
102
RTVSPropertyOp29
 70
     1
102
RTVSPropertyOp30
 70
     1
102
RTVSPropertyOp31
 70
     1
102
RTVSPropertyOp32
 70
     1
102
RTVSPropertyOp33
 70
     1
102
RTVSPropertyOp34
 70
     1
102
RTVSPropertyOp35
 70
     1
102
RTVSPropertyOp36
 70
     1
102
RTVSPropertyOp37
 70
     1
102
RTVSPropertyOp38
 70
     1
102
RTVSPropertyOp39
 70
     1
102
RTVSPropertyOp40
 70
     1
102
RTVSPropertyOp41
 70
     1
102
RTVSPropertyOp42
 70
     1
102
RTVSPropertyOp43
 70
     1
102
RTVSPropertyOp44
 70
     1
102
RTVSPropertyOp45
 70
     1
102
RTVSPropertyOp46
 70
     1
102
RTVSPropertyOp47
 70
     1
102
RTVSPropertyOp48
 70
     1
102
RTVSPropertyOp49
 70
     1
102
RTVSPropertyOp50
 70
     1
102
RTVSPropertyOp51
 70
     0
102
RTVSPropertyOp52
 70
     0
102
RTVSPropertyOp53
 70
     1
102
RTVSPropertyOp54
 70
     1
102
RTVSPropertyOp55
 70
     1
102
RTVSPropertyOp56
 70
     1
102
RTVSPropertyOp57
 70
     1
102
RTVSPropertyOp58
 70
     1
102
RTVSPropertyOp59
 70
     1
102
RTVSPropertyOp60
 70
     1
102
RTVSPropertyOp61
 70
     1
102
RTVSPropertyOp62
 70
     1
  0
XRECORD
  5
72C0
102
{ACAD_REACTORS
330
72BF
102
}
330
72BF
100
AcDbXrecord
280
     1
102
RTVSPost2010Prop28
280
     0
102
RTVSPost2010PropOp28
 70
     1
102
RTVSPost2010Prop29
280
     1
102
RTVSPost2010PropOp29
 70
     1
102
RTVSPost2010Prop30
280
     1
102
RTVSPost2010PropOp30
 70
     1
102
RTVSPost2010Prop31
280
     0
102
RTVSPost2010PropOp31
 70
     1
102
RTVSPost2010Prop32
280
     0
102
RTVSPost2010PropOp32
 70
     1
102
RTVSPost2010Prop33
280
     0
102
RTVSPost2010PropOp33
 70
     1
102
RTVSPost2010Prop34
280
     0
102
RTVSPost2010PropOp34
 70
     1
102
RTVSPost2010Prop35
280
     0
102
RTVSPost2010PropOp35
 70
     1
102
RTVSPost2010Prop36
280
     0
102
RTVSPost2010PropOp36
 70
     1
102
RTVSPost2010Prop37
 90
       50
102
RTVSPost2010PropOp37
 70
     1
102
RTVSPost2010Prop38
140
0.0
102
RTVSPost2010PropOp38
 70
     1
102
RTVSPost2010Prop39
140
1.0
102
RTVSPost2010PropOp39
 70
     1
102
RTVSPost2010Prop40
 90
        0
102
RTVSPost2010PropOp40
 70
     1
102
RTVSPost2010Prop41ColorIndex
 90
       18
102
RTVSPost2010Prop41ColorRGB
 90
        0
102
RTVSPost2010PropOp41
 70
     1
102
RTVSPost2010Prop42
 90
       50
102
RTVSPost2010PropOp42
 70
     1
102
RTVSPost2010Prop43
 90
        3
102
RTVSPost2010PropOp43
 70
     1
102
RTVSPost2010Prop44ColorIndex
 90
        5
102
RTVSPost2010Prop44ColorRGB
 90
      255
102
RTVSPost2010PropOp44
 70
     1
102
RTVSPost2010Prop45
280
     0
102
RTVSPost2010PropOp45
 70
     1
102
RTVSPost2010Prop46
 90
       50
102
RTVSPost2010PropOp46
 70
     1
102
RTVSPost2010Prop47
 90
       50
102
RTVSPost2010PropOp47
 70
     1
102
RTVSPost2010Prop48
 90
       50
102
RTVSPost2010PropOp48
 70
     1
102
RTVSPost2010Prop49
280
     0
102
RTVSPost2010PropOp49
 70
     1
102
RTVSPost2010Prop50
 90
       50
102
RTVSPost2010PropOp50
 70
     1
102
RTVSPost2010Prop51ColorIndex
 90
      256
102
RTVSPost2010Prop51ColorRGB
 90
-16777216
102
RTVSPost2010PropOp51
 70
     0
102
RTVSPost2010Prop52
140
1.0
102
RTVSPost2010PropOp52
 70
     0
102
RTVSPost2010Prop53
 90
        2
102
RTVSPost2010PropOp53
 70
     1
102
RTVSPost2010Prop54
  1
strokes_ogs.tif
102
RTVSPost2010PropOp54
 70
     1
102
RTVSPost2010Prop55
280
     0
102
RTVSPost2010PropOp55
 70
     1
102
RTVSPost2010Prop56
140
1.0
102
RTVSPost2010PropOp56
 70
     1
102
RTVSPost2010Prop57
140
1.0
102
RTVSPost2010PropOp57
 70
     1
102
RTVSPropertyOp0
 70
     1
102
RTVSPropertyOp1
 70
     1
102
RTVSPropertyOp2
 70
     1
102
RTVSPropertyOp3
 70
     1
102
RTVSPropertyOp4
 70
     1
102
RTVSPropertyOp5
 70
     1
102
RTVSPropertyOp6
 70
     1
102
RTVSPropertyOp7
 70
     1
102
RTVSPropertyOp8
 70
     1
102
RTVSPropertyOp9
 70
     1
102
RTVSPropertyOp10
 70
     1
102
RTVSPropertyOp11
 70
     1
102
RTVSPropertyOp12
 70
     1
102
RTVSPropertyOp13
 70
     1
102
RTVSPropertyOp14
 70
     1
102
RTVSPropertyOp15
 70
     1
102
RTVSPropertyOp16
 70
     1
102
RTVSPropertyOp17
 70
     1
102
RTVSPropertyOp18
 70
     1
102
RTVSPropertyOp19
 70
     1
102
RTVSPropertyOp20
 70
     1
102
RTVSPropertyOp21
 70
     1
102
RTVSPropertyOp22
 70
     1
102
RTVSPropertyOp23
 70
     1
102
RTVSPropertyOp24
 70
     1
102
RTVSPropertyOp25
 70
     1
102
RTVSPropertyOp26
 70
     1
102
RTVSPropertyOp27
 70
     1
102
RTVSPropertyOp28
 70
     1
102
RTVSPropertyOp29
 70
     1
102
RTVSPropertyOp30
 70
     1
102
RTVSPropertyOp31
 70
     1
102
RTVSPropertyOp32
 70
     1
102
RTVSPropertyOp33
 70
     1
102
RTVSPropertyOp34
 70
     1
102
RTVSPropertyOp35
 70
     1
102
RTVSPropertyOp36
 70
     1
102
RTVSPropertyOp37
 70
     1
102
RTVSPropertyOp38
 70
     1
102
RTVSPropertyOp39
 70
     1
102
RTVSPropertyOp40
 70
     1
102
RTVSPropertyOp41
 70
     1
102
RTVSPropertyOp42
 70
     1
102
RTVSPropertyOp43
 70
     1
102
RTVSPropertyOp44
 70
     1
102
RTVSPropertyOp45
 70
     1
102
RTVSPropertyOp46
 70
     1
102
RTVSPropertyOp47
 70
     1
102
RTVSPropertyOp48
 70
     1
102
RTVSPropertyOp49
 70
     1
102
RTVSPropertyOp50
 70
     1
102
RTVSPropertyOp51
 70
     0
102
RTVSPropertyOp52
 70
     0
102
RTVSPropertyOp53
 70
     1
102
RTVSPropertyOp54
 70
     1
102
RTVSPropertyOp55
 70
     1
102
RTVSPropertyOp56
 70
     1
102
RTVSPropertyOp57
 70
     1
102
RTVSPropertyOp58
 70
     1
102
RTVSPropertyOp59
 70
     1
102
RTVSPropertyOp60
 70
     1
102
RTVSPropertyOp61
 70
     1
102
RTVSPropertyOp62
 70
     1
  0
XRECORD
  5
72D4
102
{ACAD_REACTORS
330
72D3
102
}
330
72D3
100
AcDbXrecord
280
     1
102
RTVSPost2010Prop28
280
     0
102
RTVSPost2010PropOp28
 70
     1
102
RTVSPost2010Prop29
280
     1
102
RTVSPost2010PropOp29
 70
     1
102
RTVSPost2010Prop30
280
     1
102
RTVSPost2010PropOp30
 70
     1
102
RTVSPost2010Prop31
280
     0
102
RTVSPost2010PropOp31
 70
     1
102
RTVSPost2010Prop32
280
     0
102
RTVSPost2010PropOp32
 70
     1
102
RTVSPost2010Prop33
280
     0
102
RTVSPost2010PropOp33
 70
     1
102
RTVSPost2010Prop34
280
     0
102
RTVSPost2010PropOp34
 70
     1
102
RTVSPost2010Prop35
280
     0
102
RTVSPost2010PropOp35
 70
     1
102
RTVSPost2010Prop36
280
     0
102
RTVSPost2010PropOp36
 70
     1
102
RTVSPost2010Prop37
 90
       50
102
RTVSPost2010PropOp37
 70
     1
102
RTVSPost2010Prop38
140
0.0
102
RTVSPost2010PropOp38
 70
     1
102
RTVSPost2010Prop39
140
1.0
102
RTVSPost2010PropOp39
 70
     1
102
RTVSPost2010Prop40
 90
        0
102
RTVSPost2010PropOp40
 70
     1
102
RTVSPost2010Prop41ColorIndex
 90
       18
102
RTVSPost2010Prop41ColorRGB
 90
        0
102
RTVSPost2010PropOp41
 70
     1
102
RTVSPost2010Prop42
 90
       50
102
RTVSPost2010PropOp42
 70
     1
102
RTVSPost2010Prop43
 90
        3
102
RTVSPost2010PropOp43
 70
     1
102
RTVSPost2010Prop44ColorIndex
 90
        5
102
RTVSPost2010Prop44ColorRGB
 90
      255
102
RTVSPost2010PropOp44
 70
     1
102
RTVSPost2010Prop45
280
     0
102
RTVSPost2010PropOp45
 70
     1
102
RTVSPost2010Prop46
 90
       50
102
RTVSPost2010PropOp46
 70
     1
102
RTVSPost2010Prop47
 90
       50
102
RTVSPost2010PropOp47
 70
     1
102
RTVSPost2010Prop48
 90
       50
102
RTVSPost2010PropOp48
 70
     1
102
RTVSPost2010Prop49
280
     0
102
RTVSPost2010PropOp49
 70
     1
102
RTVSPost2010Prop50
 90
       50
102
RTVSPost2010PropOp50
 70
     1
102
RTVSPost2010Prop51ColorIndex
 90
      256
102
RTVSPost2010Prop51ColorRGB
 90
-16777216
102
RTVSPost2010PropOp51
 70
     0
102
RTVSPost2010Prop52
140
1.0
102
RTVSPost2010PropOp52
 70
     0
102
RTVSPost2010Prop53
 90
        2
102
RTVSPost2010PropOp53
 70
     1
102
RTVSPost2010Prop54
  1
strokes_ogs.tif
102
RTVSPost2010PropOp54
 70
     1
102
RTVSPost2010Prop55
280
     0
102
RTVSPost2010PropOp55
 70
     1
102
RTVSPost2010Prop56
140
1.0
102
RTVSPost2010PropOp56
 70
     1
102
RTVSPost2010Prop57
140
1.0
102
RTVSPost2010PropOp57
 70
     1
102
RTVSPropertyOp0
 70
     0
102
RTVSPropertyOp1
 70
     0
102
RTVSPropertyOp2
 70
     0
102
RTVSPropertyOp3
 70
     0
102
RTVSPropertyOp4
 70
     0
102
RTVSPropertyOp5
 70
     0
102
RTVSPropertyOp6
 70
     0
102
RTVSPropertyOp7
 70
     0
102
RTVSPropertyOp8
 70
     0
102
RTVSPropertyOp9
 70
     0
102
RTVSPropertyOp10
 70
     0
102
RTVSPropertyOp11
 70
     0
102
RTVSPropertyOp12
 70
     0
102
RTVSPropertyOp13
 70
     0
102
RTVSPropertyOp14
 70
     2
102
RTVSPropertyOp15
 70
     0
102
RTVSPropertyOp16
 70
     0
102
RTVSPropertyOp17
 70
     0
102
RTVSPropertyOp18
 70
     0
102
RTVSPropertyOp19
 70
     0
102
RTVSPropertyOp20
 70
     0
102
RTVSPropertyOp21
 70
     0
102
RTVSPropertyOp22
 70
     0
102
RTVSPropertyOp23
 70
     0
102
RTVSPropertyOp24
 70
     0
102
RTVSPropertyOp25
 70
     0
102
RTVSPropertyOp26
 70
     0
102
RTVSPropertyOp27
 70
     0
102
RTVSPropertyOp28
 70
     1
102
RTVSPropertyOp29
 70
     1
102
RTVSPropertyOp30
 70
     1
102
RTVSPropertyOp31
 70
     1
102
RTVSPropertyOp32
 70
     1
102
RTVSPropertyOp33
 70
     1
102
RTVSPropertyOp34
 70
     1
102
RTVSPropertyOp35
 70
     1
102
RTVSPropertyOp36
 70
     1
102
RTVSPropertyOp37
 70
     1
102
RTVSPropertyOp38
 70
     1
102
RTVSPropertyOp39
 70
     1
102
RTVSPropertyOp40
 70
     1
102
RTVSPropertyOp41
 70
     1
102
RTVSPropertyOp42
 70
     1
102
RTVSPropertyOp43
 70
     1
102
RTVSPropertyOp44
 70
     1
102
RTVSPropertyOp45
 70
     1
102
RTVSPropertyOp46
 70
     1
102
RTVSPropertyOp47
 70
     1
102
RTVSPropertyOp48
 70
     1
102
RTVSPropertyOp49
 70
     1
102
RTVSPropertyOp50
 70
     1
102
RTVSPropertyOp51
 70
     0
102
RTVSPropertyOp52
 70
     0
102
RTVSPropertyOp53
 70
     1
102
RTVSPropertyOp54
 70
     1
102
RTVSPropertyOp55
 70
     1
102
RTVSPropertyOp56
 70
     1
102
RTVSPropertyOp57
 70
     1
102
RTVSPropertyOp58
 70
     1
102
RTVSPropertyOp59
 70
     1
102
RTVSPropertyOp60
 70
     1
102
RTVSPropertyOp61
 70
     1
102
RTVSPropertyOp62
 70
     1
  0
XRECORD
  5
72CC
102
{ACAD_REACTORS
330
72CB
102
}
330
72CB
100
AcDbXrecord
280
     1
102
RTVSPost2010Prop28
280
     0
102
RTVSPost2010PropOp28
 70
     1
102
RTVSPost2010Prop29
280
     1
102
RTVSPost2010PropOp29
 70
     1
102
RTVSPost2010Prop30
280
     1
102
RTVSPost2010PropOp30
 70
     1
102
RTVSPost2010Prop31
280
     0
102
RTVSPost2010PropOp31
 70
     1
102
RTVSPost2010Prop32
280
     0
102
RTVSPost2010PropOp32
 70
     1
102
RTVSPost2010Prop33
280
     0
102
RTVSPost2010PropOp33
 70
     1
102
RTVSPost2010Prop34
280
     0
102
RTVSPost2010PropOp34
 70
     1
102
RTVSPost2010Prop35
280
     0
102
RTVSPost2010PropOp35
 70
     1
102
RTVSPost2010Prop36
280
     0
102
RTVSPost2010PropOp36
 70
     1
102
RTVSPost2010Prop37
 90
       50
102
RTVSPost2010PropOp37
 70
     1
102
RTVSPost2010Prop38
140
0.0
102
RTVSPost2010PropOp38
 70
     1
102
RTVSPost2010Prop39
140
1.0
102
RTVSPost2010PropOp39
 70
     1
102
RTVSPost2010Prop40
 90
        0
102
RTVSPost2010PropOp40
 70
     1
102
RTVSPost2010Prop41ColorIndex
 90
       18
102
RTVSPost2010Prop41ColorRGB
 90
        0
102
RTVSPost2010PropOp41
 70
     1
102
RTVSPost2010Prop42
 90
       50
102
RTVSPost2010PropOp42
 70
     1
102
RTVSPost2010Prop43
 90
        3
102
RTVSPost2010PropOp43
 70
     1
102
RTVSPost2010Prop44ColorIndex
 90
        5
102
RTVSPost2010Prop44ColorRGB
 90
      255
102
RTVSPost2010PropOp44
 70
     1
102
RTVSPost2010Prop45
280
     0
102
RTVSPost2010PropOp45
 70
     1
102
RTVSPost2010Prop46
 90
       50
102
RTVSPost2010PropOp46
 70
     1
102
RTVSPost2010Prop47
 90
       50
102
RTVSPost2010PropOp47
 70
     1
102
RTVSPost2010Prop48
 90
       50
102
RTVSPost2010PropOp48
 70
     1
102
RTVSPost2010Prop49
280
     0
102
RTVSPost2010PropOp49
 70
     1
102
RTVSPost2010Prop50
 90
       50
102
RTVSPost2010PropOp50
 70
     1
102
RTVSPost2010Prop51ColorIndex
 90
      256
102
RTVSPost2010Prop51ColorRGB
 90
-16777216
102
RTVSPost2010PropOp51
 70
     0
102
RTVSPost2010Prop52
140
1.0
102
RTVSPost2010PropOp52
 70
     0
102
RTVSPost2010Prop53
 90
        2
102
RTVSPost2010PropOp53
 70
     1
102
RTVSPost2010Prop54
  1
strokes_ogs.tif
102
RTVSPost2010PropOp54
 70
     1
102
RTVSPost2010Prop55
280
     0
102
RTVSPost2010PropOp55
 70
     1
102
RTVSPost2010Prop56
140
1.0
102
RTVSPost2010PropOp56
 70
     1
102
RTVSPost2010Prop57
140
1.0
102
RTVSPost2010PropOp57
 70
     1
102
RTVSPropertyOp0
 70
     1
102
RTVSPropertyOp1
 70
     1
102
RTVSPropertyOp2
 70
     1
102
RTVSPropertyOp3
 70
     1
102
RTVSPropertyOp4
 70
     1
102
RTVSPropertyOp5
 70
     1
102
RTVSPropertyOp6
 70
     1
102
RTVSPropertyOp7
 70
     1
102
RTVSPropertyOp8
 70
     1
102
RTVSPropertyOp9
 70
     1
102
RTVSPropertyOp10
 70
     1
102
RTVSPropertyOp11
 70
     1
102
RTVSPropertyOp12
 70
     1
102
RTVSPropertyOp13
 70
     1
102
RTVSPropertyOp14
 70
     1
102
RTVSPropertyOp15
 70
     1
102
RTVSPropertyOp16
 70
     1
102
RTVSPropertyOp17
 70
     1
102
RTVSPropertyOp18
 70
     1
102
RTVSPropertyOp19
 70
     1
102
RTVSPropertyOp20
 70
     1
102
RTVSPropertyOp21
 70
     1
102
RTVSPropertyOp22
 70
     1
102
RTVSPropertyOp23
 70
     1
102
RTVSPropertyOp24
 70
     1
102
RTVSPropertyOp25
 70
     1
102
RTVSPropertyOp26
 70
     1
102
RTVSPropertyOp27
 70
     1
102
RTVSPropertyOp28
 70
     1
102
RTVSPropertyOp29
 70
     1
102
RTVSPropertyOp30
 70
     1
102
RTVSPropertyOp31
 70
     1
102
RTVSPropertyOp32
 70
     1
102
RTVSPropertyOp33
 70
     1
102
RTVSPropertyOp34
 70
     1
102
RTVSPropertyOp35
 70
     1
102
RTVSPropertyOp36
 70
     1
102
RTVSPropertyOp37
 70
     1
102
RTVSPropertyOp38
 70
     1
102
RTVSPropertyOp39
 70
     1
102
RTVSPropertyOp40
 70
     1
102
RTVSPropertyOp41
 70
     1
102
RTVSPropertyOp42
 70
     1
102
RTVSPropertyOp43
 70
     1
102
RTVSPropertyOp44
 70
     1
102
RTVSPropertyOp45
 70
     1
102
RTVSPropertyOp46
 70
     1
102
RTVSPropertyOp47
 70
     1
102
RTVSPropertyOp48
 70
     1
102
RTVSPropertyOp49
 70
     1
102
RTVSPropertyOp50
 70
     1
102
RTVSPropertyOp51
 70
     0
102
RTVSPropertyOp52
 70
     0
102
RTVSPropertyOp53
 70
     1
102
RTVSPropertyOp54
 70
     1
102
RTVSPropertyOp55
 70
     1
102
RTVSPropertyOp56
 70
     1
102
RTVSPropertyOp57
 70
     1
102
RTVSPropertyOp58
 70
     1
102
RTVSPropertyOp59
 70
     1
102
RTVSPropertyOp60
 70
     1
102
RTVSPropertyOp61
 70
     1
102
RTVSPropertyOp62
 70
     1
  0
XRECORD
  5
72D6
102
{ACAD_REACTORS
330
72D5
102
}
330
72D5
100
AcDbXrecord
280
     1
102
RTVSPost2010Prop28
280
     0
102
RTVSPost2010PropOp28
 70
     1
102
RTVSPost2010Prop29
280
     1
102
RTVSPost2010PropOp29
 70
     1
102
RTVSPost2010Prop30
280
     1
102
RTVSPost2010PropOp30
 70
     1
102
RTVSPost2010Prop31
280
     0
102
RTVSPost2010PropOp31
 70
     1
102
RTVSPost2010Prop32
280
     0
102
RTVSPost2010PropOp32
 70
     1
102
RTVSPost2010Prop33
280
     0
102
RTVSPost2010PropOp33
 70
     1
102
RTVSPost2010Prop34
280
     0
102
RTVSPost2010PropOp34
 70
     1
102
RTVSPost2010Prop35
280
     0
102
RTVSPost2010PropOp35
 70
     1
102
RTVSPost2010Prop36
280
     0
102
RTVSPost2010PropOp36
 70
     1
102
RTVSPost2010Prop37
 90
       50
102
RTVSPost2010PropOp37
 70
     1
102
RTVSPost2010Prop38
140
0.0
102
RTVSPost2010PropOp38
 70
     1
102
RTVSPost2010Prop39
140
1.0
102
RTVSPost2010PropOp39
 70
     1
102
RTVSPost2010Prop40
 90
        0
102
RTVSPost2010PropOp40
 70
     1
102
RTVSPost2010Prop41ColorIndex
 90
       18
102
RTVSPost2010Prop41ColorRGB
 90
        0
102
RTVSPost2010PropOp41
 70
     1
102
RTVSPost2010Prop42
 90
       50
102
RTVSPost2010PropOp42
 70
     1
102
RTVSPost2010Prop43
 90
        3
102
RTVSPost2010PropOp43
 70
     1
102
RTVSPost2010Prop44ColorIndex
 90
        5
102
RTVSPost2010Prop44ColorRGB
 90
      255
102
RTVSPost2010PropOp44
 70
     1
102
RTVSPost2010Prop45
280
     0
102
RTVSPost2010PropOp45
 70
     1
102
RTVSPost2010Prop46
 90
       50
102
RTVSPost2010PropOp46
 70
     1
102
RTVSPost2010Prop47
 90
       50
102
RTVSPost2010PropOp47
 70
     1
102
RTVSPost2010Prop48
 90
       50
102
RTVSPost2010PropOp48
 70
     1
102
RTVSPost2010Prop49
280
     0
102
RTVSPost2010PropOp49
 70
     1
102
RTVSPost2010Prop50
 90
       50
102
RTVSPost2010PropOp50
 70
     1
102
RTVSPost2010Prop51ColorIndex
 90
      256
102
RTVSPost2010Prop51ColorRGB
 90
-16777216
102
RTVSPost2010PropOp51
 70
     0
102
RTVSPost2010Prop52
140
1.0
102
RTVSPost2010PropOp52
 70
     0
102
RTVSPost2010Prop53
 90
        2
102
RTVSPost2010PropOp53
 70
     1
102
RTVSPost2010Prop54
  1
strokes_ogs.tif
102
RTVSPost2010PropOp54
 70
     1
102
RTVSPost2010Prop55
280
     0
102
RTVSPost2010PropOp55
 70
     1
102
RTVSPost2010Prop56
140
1.0
102
RTVSPost2010PropOp56
 70
     1
102
RTVSPost2010Prop57
140
1.0
102
RTVSPost2010PropOp57
 70
     1
102
RTVSPropertyOp0
 70
     0
102
RTVSPropertyOp1
 70
     0
102
RTVSPropertyOp2
 70
     0
102
RTVSPropertyOp3
 70
     0
102
RTVSPropertyOp4
 70
     0
102
RTVSPropertyOp5
 70
     0
102
RTVSPropertyOp6
 70
     0
102
RTVSPropertyOp7
 70
     0
102
RTVSPropertyOp8
 70
     0
102
RTVSPropertyOp9
 70
     0
102
RTVSPropertyOp10
 70
     0
102
RTVSPropertyOp11
 70
     0
102
RTVSPropertyOp12
 70
     0
102
RTVSPropertyOp13
 70
     0
102
RTVSPropertyOp14
 70
     2
102
RTVSPropertyOp15
 70
     0
102
RTVSPropertyOp16
 70
     0
102
RTVSPropertyOp17
 70
     0
102
RTVSPropertyOp18
 70
     0
102
RTVSPropertyOp19
 70
     0
102
RTVSPropertyOp20
 70
     0
102
RTVSPropertyOp21
 70
     0
102
RTVSPropertyOp22
 70
     0
102
RTVSPropertyOp23
 70
     0
102
RTVSPropertyOp24
 70
     0
102
RTVSPropertyOp25
 70
     0
102
RTVSPropertyOp26
 70
     0
102
RTVSPropertyOp27
 70
     0
102
RTVSPropertyOp28
 70
     1
102
RTVSPropertyOp29
 70
     1
102
RTVSPropertyOp30
 70
     1
102
RTVSPropertyOp31
 70
     1
102
RTVSPropertyOp32
 70
     1
102
RTVSPropertyOp33
 70
     1
102
RTVSPropertyOp34
 70
     1
102
RTVSPropertyOp35
 70
     1
102
RTVSPropertyOp36
 70
     1
102
RTVSPropertyOp37
 70
     1
102
RTVSPropertyOp38
 70
     1
102
RTVSPropertyOp39
 70
     1
102
RTVSPropertyOp40
 70
     1
102
RTVSPropertyOp41
 70
     1
102
RTVSPropertyOp42
 70
     1
102
RTVSPropertyOp43
 70
     1
102
RTVSPropertyOp44
 70
     1
102
RTVSPropertyOp45
 70
     1
102
RTVSPropertyOp46
 70
     1
102
RTVSPropertyOp47
 70
     1
102
RTVSPropertyOp48
 70
     1
102
RTVSPropertyOp49
 70
     1
102
RTVSPropertyOp50
 70
     1
102
RTVSPropertyOp51
 70
     0
102
RTVSPropertyOp52
 70
     0
102
RTVSPropertyOp53
 70
     1
102
RTVSPropertyOp54
 70
     1
102
RTVSPropertyOp55
 70
     1
102
RTVSPropertyOp56
 70
     1
102
RTVSPropertyOp57
 70
     1
102
RTVSPropertyOp58
 70
     1
102
RTVSPropertyOp59
 70
     1
102
RTVSPropertyOp60
 70
     1
102
RTVSPropertyOp61
 70
     1
102
RTVSPropertyOp62
 70
     1
  0
XRECORD
  5
72C4
102
{ACAD_REACTORS
330
72C3
102
}
330
72C3
100
AcDbXrecord
280
     1
102
RTVSPost2010Prop28
280
     0
102
RTVSPost2010PropOp28
 70
     1
102
RTVSPost2010Prop29
280
     1
102
RTVSPost2010PropOp29
 70
     1
102
RTVSPost2010Prop30
280
     1
102
RTVSPost2010PropOp30
 70
     1
102
RTVSPost2010Prop31
280
     0
102
RTVSPost2010PropOp31
 70
     1
102
RTVSPost2010Prop32
280
     0
102
RTVSPost2010PropOp32
 70
     1
102
RTVSPost2010Prop33
280
     0
102
RTVSPost2010PropOp33
 70
     1
102
RTVSPost2010Prop34
280
     0
102
RTVSPost2010PropOp34
 70
     1
102
RTVSPost2010Prop35
280
     0
102
RTVSPost2010PropOp35
 70
     1
102
RTVSPost2010Prop36
280
     0
102
RTVSPost2010PropOp36
 70
     1
102
RTVSPost2010Prop37
 90
       50
102
RTVSPost2010PropOp37
 70
     1
102
RTVSPost2010Prop38
140
0.0
102
RTVSPost2010PropOp38
 70
     1
102
RTVSPost2010Prop39
140
1.0
102
RTVSPost2010PropOp39
 70
     1
102
RTVSPost2010Prop40
 90
        0
102
RTVSPost2010PropOp40
 70
     1
102
RTVSPost2010Prop41ColorIndex
 90
       18
102
RTVSPost2010Prop41ColorRGB
 90
        0
102
RTVSPost2010PropOp41
 70
     1
102
RTVSPost2010Prop42
 90
       50
102
RTVSPost2010PropOp42
 70
     1
102
RTVSPost2010Prop43
 90
        3
102
RTVSPost2010PropOp43
 70
     1
102
RTVSPost2010Prop44ColorIndex
 90
        5
102
RTVSPost2010Prop44ColorRGB
 90
      255
102
RTVSPost2010PropOp44
 70
     1
102
RTVSPost2010Prop45
280
     0
102
RTVSPost2010PropOp45
 70
     1
102
RTVSPost2010Prop46
 90
       50
102
RTVSPost2010PropOp46
 70
     1
102
RTVSPost2010Prop47
 90
       50
102
RTVSPost2010PropOp47
 70
     1
102
RTVSPost2010Prop48
 90
       50
102
RTVSPost2010PropOp48
 70
     1
102
RTVSPost2010Prop49
280
     0
102
RTVSPost2010PropOp49
 70
     1
102
RTVSPost2010Prop50
 90
       50
102
RTVSPost2010PropOp50
 70
     1
102
RTVSPost2010Prop51ColorIndex
 90
      256
102
RTVSPost2010Prop51ColorRGB
 90
-16777216
102
RTVSPost2010PropOp51
 70
     0
102
RTVSPost2010Prop52
140
1.0
102
RTVSPost2010PropOp52
 70
     0
102
RTVSPost2010Prop53
 90
        2
102
RTVSPost2010PropOp53
 70
     1
102
RTVSPost2010Prop54
  1
strokes_ogs.tif
102
RTVSPost2010PropOp54
 70
     1
102
RTVSPost2010Prop55
280
     0
102
RTVSPost2010PropOp55
 70
     1
102
RTVSPost2010Prop56
140
1.0
102
RTVSPost2010PropOp56
 70
     1
102
RTVSPost2010Prop57
140
1.0
102
RTVSPost2010PropOp57
 70
     1
102
RTVSPropertyOp0
 70
     1
102
RTVSPropertyOp1
 70
     1
102
RTVSPropertyOp2
 70
     1
102
RTVSPropertyOp3
 70
     1
102
RTVSPropertyOp4
 70
     1
102
RTVSPropertyOp5
 70
     1
102
RTVSPropertyOp6
 70
     1
102
RTVSPropertyOp7
 70
     1
102
RTVSPropertyOp8
 70
     1
102
RTVSPropertyOp9
 70
     1
102
RTVSPropertyOp10
 70
     1
102
RTVSPropertyOp11
 70
     1
102
RTVSPropertyOp12
 70
     1
102
RTVSPropertyOp13
 70
     1
102
RTVSPropertyOp14
 70
     1
102
RTVSPropertyOp15
 70
     1
102
RTVSPropertyOp16
 70
     1
102
RTVSPropertyOp17
 70
     1
102
RTVSPropertyOp18
 70
     1
102
RTVSPropertyOp19
 70
     1
102
RTVSPropertyOp20
 70
     1
102
RTVSPropertyOp21
 70
     1
102
RTVSPropertyOp22
 70
     1
102
RTVSPropertyOp23
 70
     1
102
RTVSPropertyOp24
 70
     1
102
RTVSPropertyOp25
 70
     1
102
RTVSPropertyOp26
 70
     1
102
RTVSPropertyOp27
 70
     1
102
RTVSPropertyOp28
 70
     1
102
RTVSPropertyOp29
 70
     1
102
RTVSPropertyOp30
 70
     1
102
RTVSPropertyOp31
 70
     1
102
RTVSPropertyOp32
 70
     1
102
RTVSPropertyOp33
 70
     1
102
RTVSPropertyOp34
 70
     1
102
RTVSPropertyOp35
 70
     1
102
RTVSPropertyOp36
 70
     1
102
RTVSPropertyOp37
 70
     1
102
RTVSPropertyOp38
 70
     1
102
RTVSPropertyOp39
 70
     1
102
RTVSPropertyOp40
 70
     1
102
RTVSPropertyOp41
 70
     1
102
RTVSPropertyOp42
 70
     1
102
RTVSPropertyOp43
 70
     1
102
RTVSPropertyOp44
 70
     1
102
RTVSPropertyOp45
 70
     1
102
RTVSPropertyOp46
 70
     1
102
RTVSPropertyOp47
 70
     1
102
RTVSPropertyOp48
 70
     1
102
RTVSPropertyOp49
 70
     1
102
RTVSPropertyOp50
 70
     1
102
RTVSPropertyOp51
 70
     0
102
RTVSPropertyOp52
 70
     0
102
RTVSPropertyOp53
 70
     1
102
RTVSPropertyOp54
 70
     1
102
RTVSPropertyOp55
 70
     1
102
RTVSPropertyOp56
 70
     1
102
RTVSPropertyOp57
 70
     1
102
RTVSPropertyOp58
 70
     1
102
RTVSPropertyOp59
 70
     1
102
RTVSPropertyOp60
 70
     1
102
RTVSPropertyOp61
 70
     1
102
RTVSPropertyOp62
 70
     1
  0
XRECORD
  5
72E2
102
{ACAD_REACTORS
330
72E1
102
}
330
72E1
100
AcDbXrecord
280
     1
102
RTVSPost2010Prop28
280
     0
102
RTVSPost2010PropOp28
 70
     1
102
RTVSPost2010Prop29
280
     1
102
RTVSPost2010PropOp29
 70
     1
102
RTVSPost2010Prop30
280
     1
102
RTVSPost2010PropOp30
 70
     1
102
RTVSPost2010Prop31
280
     0
102
RTVSPost2010PropOp31
 70
     1
102
RTVSPost2010Prop32
280
     0
102
RTVSPost2010PropOp32
 70
     1
102
RTVSPost2010Prop33
280
     0
102
RTVSPost2010PropOp33
 70
     1
102
RTVSPost2010Prop34
280
     0
102
RTVSPost2010PropOp34
 70
     1
102
RTVSPost2010Prop35
280
     0
102
RTVSPost2010PropOp35
 70
     1
102
RTVSPost2010Prop36
280
     0
102
RTVSPost2010PropOp36
 70
     1
102
RTVSPost2010Prop37
 90
       50
102
RTVSPost2010PropOp37
 70
     1
102
RTVSPost2010Prop38
140
0.0
102
RTVSPost2010PropOp38
 70
     1
102
RTVSPost2010Prop39
140
1.0
102
RTVSPost2010PropOp39
 70
     1
102
RTVSPost2010Prop40
 90
        0
102
RTVSPost2010PropOp40
 70
     1
102
RTVSPost2010Prop41ColorIndex
 90
       18
102
RTVSPost2010Prop41ColorRGB
 90
        0
102
RTVSPost2010PropOp41
 70
     1
102
RTVSPost2010Prop42
 90
       50
102
RTVSPost2010PropOp42
 70
     1
102
RTVSPost2010Prop43
 90
        3
102
RTVSPost2010PropOp43
 70
     1
102
RTVSPost2010Prop44ColorIndex
 90
        5
102
RTVSPost2010Prop44ColorRGB
 90
      255
102
RTVSPost2010PropOp44
 70
     1
102
RTVSPost2010Prop45
280
     0
102
RTVSPost2010PropOp45
 70
     1
102
RTVSPost2010Prop46
 90
       50
102
RTVSPost2010PropOp46
 70
     1
102
RTVSPost2010Prop47
 90
       50
102
RTVSPost2010PropOp47
 70
     1
102
RTVSPost2010Prop48
 90
       50
102
RTVSPost2010PropOp48
 70
     1
102
RTVSPost2010Prop49
280
     0
102
RTVSPost2010PropOp49
 70
     1
102
RTVSPost2010Prop50
 90
       50
102
RTVSPost2010PropOp50
 70
     1
102
RTVSPost2010Prop51ColorIndex
 90
      256
102
RTVSPost2010Prop51ColorRGB
 90
-16777216
102
RTVSPost2010PropOp51
 70
     0
102
RTVSPost2010Prop52
140
1.0
102
RTVSPost2010PropOp52
 70
     0
102
RTVSPost2010Prop53
 90
        2
102
RTVSPost2010PropOp53
 70
     1
102
RTVSPost2010Prop54
  1
strokes_ogs.tif
102
RTVSPost2010PropOp54
 70
     1
102
RTVSPost2010Prop55
280
     0
102
RTVSPost2010PropOp55
 70
     1
102
RTVSPost2010Prop56
140
1.0
102
RTVSPost2010PropOp56
 70
     1
102
RTVSPost2010Prop57
140
1.0
102
RTVSPost2010PropOp57
 70
     1
102
RTVSPropertyOp0
 70
     1
102
RTVSPropertyOp1
 70
     1
102
RTVSPropertyOp2
 70
     1
102
RTVSPropertyOp3
 70
     1
102
RTVSPropertyOp4
 70
     1
102
RTVSPropertyOp5
 70
     1
102
RTVSPropertyOp6
 70
     1
102
RTVSPropertyOp7
 70
     1
102
RTVSPropertyOp8
 70
     1
102
RTVSPropertyOp9
 70
     1
102
RTVSPropertyOp10
 70
     1
102
RTVSPropertyOp11
 70
     1
102
RTVSPropertyOp12
 70
     1
102
RTVSPropertyOp13
 70
     1
102
RTVSPropertyOp14
 70
     1
102
RTVSPropertyOp15
 70
     1
102
RTVSPropertyOp16
 70
     1
102
RTVSPropertyOp17
 70
     1
102
RTVSPropertyOp18
 70
     1
102
RTVSPropertyOp19
 70
     1
102
RTVSPropertyOp20
 70
     1
102
RTVSPropertyOp21
 70
     1
102
RTVSPropertyOp22
 70
     1
102
RTVSPropertyOp23
 70
     1
102
RTVSPropertyOp24
 70
     1
102
RTVSPropertyOp25
 70
     1
102
RTVSPropertyOp26
 70
     1
102
RTVSPropertyOp27
 70
     1
102
RTVSPropertyOp28
 70
     1
102
RTVSPropertyOp29
 70
     1
102
RTVSPropertyOp30
 70
     1
102
RTVSPropertyOp31
 70
     1
102
RTVSPropertyOp32
 70
     1
102
RTVSPropertyOp33
 70
     1
102
RTVSPropertyOp34
 70
     1
102
RTVSPropertyOp35
 70
     1
102
RTVSPropertyOp36
 70
     1
102
RTVSPropertyOp37
 70
     1
102
RTVSPropertyOp38
 70
     1
102
RTVSPropertyOp39
 70
     1
102
RTVSPropertyOp40
 70
     1
102
RTVSPropertyOp41
 70
     1
102
RTVSPropertyOp42
 70
     1
102
RTVSPropertyOp43
 70
     1
102
RTVSPropertyOp44
 70
     1
102
RTVSPropertyOp45
 70
     1
102
RTVSPropertyOp46
 70
     1
102
RTVSPropertyOp47
 70
     1
102
RTVSPropertyOp48
 70
     1
102
RTVSPropertyOp49
 70
     1
102
RTVSPropertyOp50
 70
     1
102
RTVSPropertyOp51
 70
     0
102
RTVSPropertyOp52
 70
     0
102
RTVSPropertyOp53
 70
     1
102
RTVSPropertyOp54
 70
     1
102
RTVSPropertyOp55
 70
     1
102
RTVSPropertyOp56
 70
     1
102
RTVSPropertyOp57
 70
     1
102
RTVSPropertyOp58
 70
     1
102
RTVSPropertyOp59
 70
     1
102
RTVSPropertyOp60
 70
     1
102
RTVSPropertyOp61
 70
     1
102
RTVSPropertyOp62
 70
     1
  0
XRECORD
  5
72E0
102
{ACAD_REACTORS
330
72DF
102
}
330
72DF
100
AcDbXrecord
280
     1
102
RTVSPost2010Prop28
280
     0
102
RTVSPost2010PropOp28
 70
     1
102
RTVSPost2010Prop29
280
     1
102
RTVSPost2010PropOp29
 70
     1
102
RTVSPost2010Prop30
280
     1
102
RTVSPost2010PropOp30
 70
     1
102
RTVSPost2010Prop31
280
     0
102
RTVSPost2010PropOp31
 70
     1
102
RTVSPost2010Prop32
280
     0
102
RTVSPost2010PropOp32
 70
     1
102
RTVSPost2010Prop33
280
     0
102
RTVSPost2010PropOp33
 70
     1
102
RTVSPost2010Prop34
280
     0
102
RTVSPost2010PropOp34
 70
     1
102
RTVSPost2010Prop35
280
     0
102
RTVSPost2010PropOp35
 70
     1
102
RTVSPost2010Prop36
280
     0
102
RTVSPost2010PropOp36
 70
     1
102
RTVSPost2010Prop37
 90
       50
102
RTVSPost2010PropOp37
 70
     1
102
RTVSPost2010Prop38
140
0.0
102
RTVSPost2010PropOp38
 70
     1
102
RTVSPost2010Prop39
140
1.0
102
RTVSPost2010PropOp39
 70
     1
102
RTVSPost2010Prop40
 90
        0
102
RTVSPost2010PropOp40
 70
     1
102
RTVSPost2010Prop41ColorIndex
 90
       18
102
RTVSPost2010Prop41ColorRGB
 90
        0
102
RTVSPost2010PropOp41
 70
     1
102
RTVSPost2010Prop42
 90
       50
102
RTVSPost2010PropOp42
 70
     1
102
RTVSPost2010Prop43
 90
        3
102
RTVSPost2010PropOp43
 70
     1
102
RTVSPost2010Prop44ColorIndex
 90
        5
102
RTVSPost2010Prop44ColorRGB
 90
      255
102
RTVSPost2010PropOp44
 70
     1
102
RTVSPost2010Prop45
280
     0
102
RTVSPost2010PropOp45
 70
     1
102
RTVSPost2010Prop46
 90
       50
102
RTVSPost2010PropOp46
 70
     1
102
RTVSPost2010Prop47
 90
       50
102
RTVSPost2010PropOp47
 70
     1
102
RTVSPost2010Prop48
 90
       50
102
RTVSPost2010PropOp48
 70
     1
102
RTVSPost2010Prop49
280
     0
102
RTVSPost2010PropOp49
 70
     1
102
RTVSPost2010Prop50
 90
       50
102
RTVSPost2010PropOp50
 70
     1
102
RTVSPost2010Prop51ColorIndex
 90
      256
102
RTVSPost2010Prop51ColorRGB
 90
-16777216
102
RTVSPost2010PropOp51
 70
     0
102
RTVSPost2010Prop52
140
1.0
102
RTVSPost2010PropOp52
 70
     0
102
RTVSPost2010Prop53
 90
        2
102
RTVSPost2010PropOp53
 70
     1
102
RTVSPost2010Prop54
  1
strokes_ogs.tif
102
RTVSPost2010PropOp54
 70
     1
102
RTVSPost2010Prop55
280
     0
102
RTVSPost2010PropOp55
 70
     1
102
RTVSPost2010Prop56
140
1.0
102
RTVSPost2010PropOp56
 70
     1
102
RTVSPost2010Prop57
140
1.0
102
RTVSPost2010PropOp57
 70
     1
102
RTVSPropertyOp0
 70
     1
102
RTVSPropertyOp1
 70
     1
102
RTVSPropertyOp2
 70
     1
102
RTVSPropertyOp3
 70
     1
102
RTVSPropertyOp4
 70
     1
102
RTVSPropertyOp5
 70
     1
102
RTVSPropertyOp6
 70
     1
102
RTVSPropertyOp7
 70
     1
102
RTVSPropertyOp8
 70
     1
102
RTVSPropertyOp9
 70
     1
102
RTVSPropertyOp10
 70
     1
102
RTVSPropertyOp11
 70
     1
102
RTVSPropertyOp12
 70
     1
102
RTVSPropertyOp13
 70
     1
102
RTVSPropertyOp14
 70
     1
102
RTVSPropertyOp15
 70
     1
102
RTVSPropertyOp16
 70
     1
102
RTVSPropertyOp17
 70
     1
102
RTVSPropertyOp18
 70
     1
102
RTVSPropertyOp19
 70
     1
102
RTVSPropertyOp20
 70
     1
102
RTVSPropertyOp21
 70
     1
102
RTVSPropertyOp22
 70
     1
102
RTVSPropertyOp23
 70
     1
102
RTVSPropertyOp24
 70
     1
102
RTVSPropertyOp25
 70
     1
102
RTVSPropertyOp26
 70
     1
102
RTVSPropertyOp27
 70
     1
102
RTVSPropertyOp28
 70
     1
102
RTVSPropertyOp29
 70
     1
102
RTVSPropertyOp30
 70
     1
102
RTVSPropertyOp31
 70
     1
102
RTVSPropertyOp32
 70
     1
102
RTVSPropertyOp33
 70
     1
102
RTVSPropertyOp34
 70
     1
102
RTVSPropertyOp35
 70
     1
102
RTVSPropertyOp36
 70
     1
102
RTVSPropertyOp37
 70
     1
102
RTVSPropertyOp38
 70
     1
102
RTVSPropertyOp39
 70
     1
102
RTVSPropertyOp40
 70
     1
102
RTVSPropertyOp41
 70
     1
102
RTVSPropertyOp42
 70
     1
102
RTVSPropertyOp43
 70
     1
102
RTVSPropertyOp44
 70
     1
102
RTVSPropertyOp45
 70
     1
102
RTVSPropertyOp46
 70
     1
102
RTVSPropertyOp47
 70
     1
102
RTVSPropertyOp48
 70
     1
102
RTVSPropertyOp49
 70
     1
102
RTVSPropertyOp50
 70
     1
102
RTVSPropertyOp51
 70
     0
102
RTVSPropertyOp52
 70
     0
102
RTVSPropertyOp53
 70
     1
102
RTVSPropertyOp54
 70
     1
102
RTVSPropertyOp55
 70
     1
102
RTVSPropertyOp56
 70
     1
102
RTVSPropertyOp57
 70
     1
102
RTVSPropertyOp58
 70
     1
102
RTVSPropertyOp59
 70
     1
102
RTVSPropertyOp60
 70
     1
102
RTVSPropertyOp61
 70
     1
102
RTVSPropertyOp62
 70
     1
  0
XRECORD
  5
72DA
102
{ACAD_REACTORS
330
72D9
102
}
330
72D9
100
AcDbXrecord
280
     1
102
RTVSPost2010Prop28
280
     0
102
RTVSPost2010PropOp28
 70
     1
102
RTVSPost2010Prop29
280
     1
102
RTVSPost2010PropOp29
 70
     1
102
RTVSPost2010Prop30
280
     1
102
RTVSPost2010PropOp30
 70
     1
102
RTVSPost2010Prop31
280
     0
102
RTVSPost2010PropOp31
 70
     1
102
RTVSPost2010Prop32
280
     0
102
RTVSPost2010PropOp32
 70
     1
102
RTVSPost2010Prop33
280
     0
102
RTVSPost2010PropOp33
 70
     1
102
RTVSPost2010Prop34
280
     0
102
RTVSPost2010PropOp34
 70
     1
102
RTVSPost2010Prop35
280
     0
102
RTVSPost2010PropOp35
 70
     1
102
RTVSPost2010Prop36
280
     0
102
RTVSPost2010PropOp36
 70
     1
102
RTVSPost2010Prop37
 90
       50
102
RTVSPost2010PropOp37
 70
     1
102
RTVSPost2010Prop38
140
0.0
102
RTVSPost2010PropOp38
 70
     1
102
RTVSPost2010Prop39
140
1.0
102
RTVSPost2010PropOp39
 70
     1
102
RTVSPost2010Prop40
 90
        0
102
RTVSPost2010PropOp40
 70
     1
102
RTVSPost2010Prop41ColorIndex
 90
       18
102
RTVSPost2010Prop41ColorRGB
 90
        0
102
RTVSPost2010PropOp41
 70
     1
102
RTVSPost2010Prop42
 90
       50
102
RTVSPost2010PropOp42
 70
     1
102
RTVSPost2010Prop43
 90
        3
102
RTVSPost2010PropOp43
 70
     1
102
RTVSPost2010Prop44ColorIndex
 90
        5
102
RTVSPost2010Prop44ColorRGB
 90
      255
102
RTVSPost2010PropOp44
 70
     1
102
RTVSPost2010Prop45
280
     0
102
RTVSPost2010PropOp45
 70
     1
102
RTVSPost2010Prop46
 90
       50
102
RTVSPost2010PropOp46
 70
     1
102
RTVSPost2010Prop47
 90
       50
102
RTVSPost2010PropOp47
 70
     1
102
RTVSPost2010Prop48
 90
       50
102
RTVSPost2010PropOp48
 70
     1
102
RTVSPost2010Prop49
280
     0
102
RTVSPost2010PropOp49
 70
     1
102
RTVSPost2010Prop50
 90
       50
102
RTVSPost2010PropOp50
 70
     1
102
RTVSPost2010Prop51ColorIndex
 90
      256
102
RTVSPost2010Prop51ColorRGB
 90
-16777216
102
RTVSPost2010PropOp51
 70
     0
102
RTVSPost2010Prop52
140
1.0
102
RTVSPost2010PropOp52
 70
     0
102
RTVSPost2010Prop53
 90
        2
102
RTVSPost2010PropOp53
 70
     1
102
RTVSPost2010Prop54
  1
strokes_ogs.tif
102
RTVSPost2010PropOp54
 70
     1
102
RTVSPost2010Prop55
280
     0
102
RTVSPost2010PropOp55
 70
     1
102
RTVSPost2010Prop56
140
1.0
102
RTVSPost2010PropOp56
 70
     1
102
RTVSPost2010Prop57
140
1.0
102
RTVSPost2010PropOp57
 70
     1
102
RTVSPropertyOp0
 70
     1
102
RTVSPropertyOp1
 70
     1
102
RTVSPropertyOp2
 70
     1
102
RTVSPropertyOp3
 70
     1
102
RTVSPropertyOp4
 70
     1
102
RTVSPropertyOp5
 70
     1
102
RTVSPropertyOp6
 70
     1
102
RTVSPropertyOp7
 70
     1
102
RTVSPropertyOp8
 70
     1
102
RTVSPropertyOp9
 70
     1
102
RTVSPropertyOp10
 70
     1
102
RTVSPropertyOp11
 70
     1
102
RTVSPropertyOp12
 70
     1
102
RTVSPropertyOp13
 70
     1
102
RTVSPropertyOp14
 70
     1
102
RTVSPropertyOp15
 70
     1
102
RTVSPropertyOp16
 70
     1
102
RTVSPropertyOp17
 70
     1
102
RTVSPropertyOp18
 70
     1
102
RTVSPropertyOp19
 70
     1
102
RTVSPropertyOp20
 70
     1
102
RTVSPropertyOp21
 70
     1
102
RTVSPropertyOp22
 70
     1
102
RTVSPropertyOp23
 70
     1
102
RTVSPropertyOp24
 70
     1
102
RTVSPropertyOp25
 70
     1
102
RTVSPropertyOp26
 70
     1
102
RTVSPropertyOp27
 70
     1
102
RTVSPropertyOp28
 70
     1
102
RTVSPropertyOp29
 70
     1
102
RTVSPropertyOp30
 70
     1
102
RTVSPropertyOp31
 70
     1
102
RTVSPropertyOp32
 70
     1
102
RTVSPropertyOp33
 70
     1
102
RTVSPropertyOp34
 70
     1
102
RTVSPropertyOp35
 70
     1
102
RTVSPropertyOp36
 70
     1
102
RTVSPropertyOp37
 70
     1
102
RTVSPropertyOp38
 70
     1
102
RTVSPropertyOp39
 70
     1
102
RTVSPropertyOp40
 70
     1
102
RTVSPropertyOp41
 70
     1
102
RTVSPropertyOp42
 70
     1
102
RTVSPropertyOp43
 70
     1
102
RTVSPropertyOp44
 70
     1
102
RTVSPropertyOp45
 70
     1
102
RTVSPropertyOp46
 70
     1
102
RTVSPropertyOp47
 70
     1
102
RTVSPropertyOp48
 70
     1
102
RTVSPropertyOp49
 70
     1
102
RTVSPropertyOp50
 70
     1
102
RTVSPropertyOp51
 70
     0
102
RTVSPropertyOp52
 70
     0
102
RTVSPropertyOp53
 70
     1
102
RTVSPropertyOp54
 70
     1
102
RTVSPropertyOp55
 70
     1
102
RTVSPropertyOp56
 70
     1
102
RTVSPropertyOp57
 70
     1
102
RTVSPropertyOp58
 70
     1
102
RTVSPropertyOp59
 70
     1
102
RTVSPropertyOp60
 70
     1
102
RTVSPropertyOp61
 70
     1
102
RTVSPropertyOp62
 70
     1
  0
XRECORD
  5
72DC
102
{ACAD_REACTORS
330
72DB
102
}
330
72DB
100
AcDbXrecord
280
     1
102
RTVSPost2010Prop28
280
     0
102
RTVSPost2010PropOp28
 70
     1
102
RTVSPost2010Prop29
280
     1
102
RTVSPost2010PropOp29
 70
     1
102
RTVSPost2010Prop30
280
     1
102
RTVSPost2010PropOp30
 70
     1
102
RTVSPost2010Prop31
280
     0
102
RTVSPost2010PropOp31
 70
     1
102
RTVSPost2010Prop32
280
     0
102
RTVSPost2010PropOp32
 70
     1
102
RTVSPost2010Prop33
280
     0
102
RTVSPost2010PropOp33
 70
     1
102
RTVSPost2010Prop34
280
     0
102
RTVSPost2010PropOp34
 70
     1
102
RTVSPost2010Prop35
280
     0
102
RTVSPost2010PropOp35
 70
     1
102
RTVSPost2010Prop36
280
     0
102
RTVSPost2010PropOp36
 70
     1
102
RTVSPost2010Prop37
 90
       50
102
RTVSPost2010PropOp37
 70
     1
102
RTVSPost2010Prop38
140
0.0
102
RTVSPost2010PropOp38
 70
     1
102
RTVSPost2010Prop39
140
1.0
102
RTVSPost2010PropOp39
 70
     1
102
RTVSPost2010Prop40
 90
        0
102
RTVSPost2010PropOp40
 70
     1
102
RTVSPost2010Prop41ColorIndex
 90
       18
102
RTVSPost2010Prop41ColorRGB
 90
        0
102
RTVSPost2010PropOp41
 70
     1
102
RTVSPost2010Prop42
 90
       50
102
RTVSPost2010PropOp42
 70
     1
102
RTVSPost2010Prop43
 90
        3
102
RTVSPost2010PropOp43
 70
     1
102
RTVSPost2010Prop44ColorIndex
 90
        5
102
RTVSPost2010Prop44ColorRGB
 90
      255
102
RTVSPost2010PropOp44
 70
     1
102
RTVSPost2010Prop45
280
     0
102
RTVSPost2010PropOp45
 70
     1
102
RTVSPost2010Prop46
 90
       50
102
RTVSPost2010PropOp46
 70
     1
102
RTVSPost2010Prop47
 90
       50
102
RTVSPost2010PropOp47
 70
     1
102
RTVSPost2010Prop48
 90
       50
102
RTVSPost2010PropOp48
 70
     1
102
RTVSPost2010Prop49
280
     0
102
RTVSPost2010PropOp49
 70
     1
102
RTVSPost2010Prop50
 90
       50
102
RTVSPost2010PropOp50
 70
     1
102
RTVSPost2010Prop51ColorIndex
 90
      256
102
RTVSPost2010Prop51ColorRGB
 90
-16777216
102
RTVSPost2010PropOp51
 70
     0
102
RTVSPost2010Prop52
140
1.0
102
RTVSPost2010PropOp52
 70
     0
102
RTVSPost2010Prop53
 90
        2
102
RTVSPost2010PropOp53
 70
     1
102
RTVSPost2010Prop54
  1
strokes_ogs.tif
102
RTVSPost2010PropOp54
 70
     1
102
RTVSPost2010Prop55
280
     0
102
RTVSPost2010PropOp55
 70
     1
102
RTVSPost2010Prop56
140
1.0
102
RTVSPost2010PropOp56
 70
     1
102
RTVSPost2010Prop57
140
1.0
102
RTVSPost2010PropOp57
 70
     1
102
RTVSPropertyOp0
 70
     1
102
RTVSPropertyOp1
 70
     1
102
RTVSPropertyOp2
 70
     1
102
RTVSPropertyOp3
 70
     1
102
RTVSPropertyOp4
 70
     1
102
RTVSPropertyOp5
 70
     1
102
RTVSPropertyOp6
 70
     1
102
RTVSPropertyOp7
 70
     1
102
RTVSPropertyOp8
 70
     1
102
RTVSPropertyOp9
 70
     1
102
RTVSPropertyOp10
 70
     1
102
RTVSPropertyOp11
 70
     1
102
RTVSPropertyOp12
 70
     1
102
RTVSPropertyOp13
 70
     1
102
RTVSPropertyOp14
 70
     1
102
RTVSPropertyOp15
 70
     1
102
RTVSPropertyOp16
 70
     1
102
RTVSPropertyOp17
 70
     1
102
RTVSPropertyOp18
 70
     1
102
RTVSPropertyOp19
 70
     1
102
RTVSPropertyOp20
 70
     1
102
RTVSPropertyOp21
 70
     1
102
RTVSPropertyOp22
 70
     1
102
RTVSPropertyOp23
 70
     1
102
RTVSPropertyOp24
 70
     1
102
RTVSPropertyOp25
 70
     1
102
RTVSPropertyOp26
 70
     1
102
RTVSPropertyOp27
 70
     1
102
RTVSPropertyOp28
 70
     1
102
RTVSPropertyOp29
 70
     1
102
RTVSPropertyOp30
 70
     1
102
RTVSPropertyOp31
 70
     1
102
RTVSPropertyOp32
 70
     1
102
RTVSPropertyOp33
 70
     1
102
RTVSPropertyOp34
 70
     1
102
RTVSPropertyOp35
 70
     1
102
RTVSPropertyOp36
 70
     1
102
RTVSPropertyOp37
 70
     1
102
RTVSPropertyOp38
 70
     1
102
RTVSPropertyOp39
 70
     1
102
RTVSPropertyOp40
 70
     1
102
RTVSPropertyOp41
 70
     1
102
RTVSPropertyOp42
 70
     1
102
RTVSPropertyOp43
 70
     1
102
RTVSPropertyOp44
 70
     1
102
RTVSPropertyOp45
 70
     1
102
RTVSPropertyOp46
 70
     1
102
RTVSPropertyOp47
 70
     1
102
RTVSPropertyOp48
 70
     1
102
RTVSPropertyOp49
 70
     1
102
RTVSPropertyOp50
 70
     1
102
RTVSPropertyOp51
 70
     0
102
RTVSPropertyOp52
 70
     0
102
RTVSPropertyOp53
 70
     1
102
RTVSPropertyOp54
 70
     1
102
RTVSPropertyOp55
 70
     1
102
RTVSPropertyOp56
 70
     1
102
RTVSPropertyOp57
 70
     1
102
RTVSPropertyOp58
 70
     1
102
RTVSPropertyOp59
 70
     1
102
RTVSPropertyOp60
 70
     1
102
RTVSPropertyOp61
 70
     1
102
RTVSPropertyOp62
 70
     1
  0
XRECORD
  5
72CA
102
{ACAD_REACTORS
330
72C9
102
}
330
72C9
100
AcDbXrecord
280
     1
102
RTVSPost2010Prop28
280
     0
102
RTVSPost2010PropOp28
 70
     1
102
RTVSPost2010Prop29
280
     1
102
RTVSPost2010PropOp29
 70
     1
102
RTVSPost2010Prop30
280
     1
102
RTVSPost2010PropOp30
 70
     1
102
RTVSPost2010Prop31
280
     0
102
RTVSPost2010PropOp31
 70
     1
102
RTVSPost2010Prop32
280
     0
102
RTVSPost2010PropOp32
 70
     1
102
RTVSPost2010Prop33
280
     0
102
RTVSPost2010PropOp33
 70
     1
102
RTVSPost2010Prop34
280
     0
102
RTVSPost2010PropOp34
 70
     1
102
RTVSPost2010Prop35
280
     0
102
RTVSPost2010PropOp35
 70
     1
102
RTVSPost2010Prop36
280
     0
102
RTVSPost2010PropOp36
 70
     1
102
RTVSPost2010Prop37
 90
       50
102
RTVSPost2010PropOp37
 70
     1
102
RTVSPost2010Prop38
140
0.0
102
RTVSPost2010PropOp38
 70
     1
102
RTVSPost2010Prop39
140
1.0
102
RTVSPost2010PropOp39
 70
     1
102
RTVSPost2010Prop40
 90
        0
102
RTVSPost2010PropOp40
 70
     1
102
RTVSPost2010Prop41ColorIndex
 90
       18
102
RTVSPost2010Prop41ColorRGB
 90
        0
102
RTVSPost2010PropOp41
 70
     1
102
RTVSPost2010Prop42
 90
       50
102
RTVSPost2010PropOp42
 70
     1
102
RTVSPost2010Prop43
 90
        3
102
RTVSPost2010PropOp43
 70
     1
102
RTVSPost2010Prop44ColorIndex
 90
        5
102
RTVSPost2010Prop44ColorRGB
 90
      255
102
RTVSPost2010PropOp44
 70
     1
102
RTVSPost2010Prop45
280
     0
102
RTVSPost2010PropOp45
 70
     1
102
RTVSPost2010Prop46
 90
       50
102
RTVSPost2010PropOp46
 70
     1
102
RTVSPost2010Prop47
 90
       50
102
RTVSPost2010PropOp47
 70
     1
102
RTVSPost2010Prop48
 90
       50
102
RTVSPost2010PropOp48
 70
     1
102
RTVSPost2010Prop49
280
     0
102
RTVSPost2010PropOp49
 70
     1
102
RTVSPost2010Prop50
 90
       50
102
RTVSPost2010PropOp50
 70
     1
102
RTVSPost2010Prop51ColorIndex
 90
      256
102
RTVSPost2010Prop51ColorRGB
 90
-16777216
102
RTVSPost2010PropOp51
 70
     0
102
RTVSPost2010Prop52
140
1.0
102
RTVSPost2010PropOp52
 70
     0
102
RTVSPost2010Prop53
 90
        2
102
RTVSPost2010PropOp53
 70
     1
102
RTVSPost2010Prop54
  1
strokes_ogs.tif
102
RTVSPost2010PropOp54
 70
     1
102
RTVSPost2010Prop55
280
     0
102
RTVSPost2010PropOp55
 70
     1
102
RTVSPost2010Prop56
140
1.0
102
RTVSPost2010PropOp56
 70
     1
102
RTVSPost2010Prop57
140
1.0
102
RTVSPost2010PropOp57
 70
     1
102
RTVSPropertyOp0
 70
     1
102
RTVSPropertyOp1
 70
     1
102
RTVSPropertyOp2
 70
     1
102
RTVSPropertyOp3
 70
     1
102
RTVSPropertyOp4
 70
     1
102
RTVSPropertyOp5
 70
     1
102
RTVSPropertyOp6
 70
     1
102
RTVSPropertyOp7
 70
     1
102
RTVSPropertyOp8
 70
     1
102
RTVSPropertyOp9
 70
     1
102
RTVSPropertyOp10
 70
     1
102
RTVSPropertyOp11
 70
     1
102
RTVSPropertyOp12
 70
     1
102
RTVSPropertyOp13
 70
     1
102
RTVSPropertyOp14
 70
     1
102
RTVSPropertyOp15
 70
     1
102
RTVSPropertyOp16
 70
     1
102
RTVSPropertyOp17
 70
     1
102
RTVSPropertyOp18
 70
     1
102
RTVSPropertyOp19
 70
     1
102
RTVSPropertyOp20
 70
     1
102
RTVSPropertyOp21
 70
     1
102
RTVSPropertyOp22
 70
     1
102
RTVSPropertyOp23
 70
     1
102
RTVSPropertyOp24
 70
     1
102
RTVSPropertyOp25
 70
     1
102
RTVSPropertyOp26
 70
     1
102
RTVSPropertyOp27
 70
     1
102
RTVSPropertyOp28
 70
     1
102
RTVSPropertyOp29
 70
     1
102
RTVSPropertyOp30
 70
     1
102
RTVSPropertyOp31
 70
     1
102
RTVSPropertyOp32
 70
     1
102
RTVSPropertyOp33
 70
     1
102
RTVSPropertyOp34
 70
     1
102
RTVSPropertyOp35
 70
     1
102
RTVSPropertyOp36
 70
     1
102
RTVSPropertyOp37
 70
     1
102
RTVSPropertyOp38
 70
     1
102
RTVSPropertyOp39
 70
     1
102
RTVSPropertyOp40
 70
     1
102
RTVSPropertyOp41
 70
     1
102
RTVSPropertyOp42
 70
     1
102
RTVSPropertyOp43
 70
     1
102
RTVSPropertyOp44
 70
     1
102
RTVSPropertyOp45
 70
     1
102
RTVSPropertyOp46
 70
     1
102
RTVSPropertyOp47
 70
     1
102
RTVSPropertyOp48
 70
     1
102
RTVSPropertyOp49
 70
     1
102
RTVSPropertyOp50
 70
     1
102
RTVSPropertyOp51
 70
     0
102
RTVSPropertyOp52
 70
     0
102
RTVSPropertyOp53
 70
     1
102
RTVSPropertyOp54
 70
     1
102
RTVSPropertyOp55
 70
     1
102
RTVSPropertyOp56
 70
     1
102
RTVSPropertyOp57
 70
     1
102
RTVSPropertyOp58
 70
     1
102
RTVSPropertyOp59
 70
     1
102
RTVSPropertyOp60
 70
     1
102
RTVSPropertyOp61
 70
     1
102
RTVSPropertyOp62
 70
     1
  0
XRECORD
  5
72BE
102
{ACAD_REACTORS
330
72BD
102
}
330
72BD
100
AcDbXrecord
280
     1
102
RTVSPost2010Prop28
280
     0
102
RTVSPost2010PropOp28
 70
     1
102
RTVSPost2010Prop29
280
     1
102
RTVSPost2010PropOp29
 70
     1
102
RTVSPost2010Prop30
280
     1
102
RTVSPost2010PropOp30
 70
     1
102
RTVSPost2010Prop31
280
     0
102
RTVSPost2010PropOp31
 70
     1
102
RTVSPost2010Prop32
280
     0
102
RTVSPost2010PropOp32
 70
     1
102
RTVSPost2010Prop33
280
     0
102
RTVSPost2010PropOp33
 70
     1
102
RTVSPost2010Prop34
280
     0
102
RTVSPost2010PropOp34
 70
     1
102
RTVSPost2010Prop35
280
     0
102
RTVSPost2010PropOp35
 70
     1
102
RTVSPost2010Prop36
280
     0
102
RTVSPost2010PropOp36
 70
     1
102
RTVSPost2010Prop37
 90
       50
102
RTVSPost2010PropOp37
 70
     1
102
RTVSPost2010Prop38
140
0.0
102
RTVSPost2010PropOp38
 70
     1
102
RTVSPost2010Prop39
140
1.0
102
RTVSPost2010PropOp39
 70
     1
102
RTVSPost2010Prop40
 90
        0
102
RTVSPost2010PropOp40
 70
     1
102
RTVSPost2010Prop41ColorIndex
 90
       18
102
RTVSPost2010Prop41ColorRGB
 90
        0
102
RTVSPost2010PropOp41
 70
     1
102
RTVSPost2010Prop42
 90
       50
102
RTVSPost2010PropOp42
 70
     1
102
RTVSPost2010Prop43
 90
        3
102
RTVSPost2010PropOp43
 70
     1
102
RTVSPost2010Prop44ColorIndex
 90
        5
102
RTVSPost2010Prop44ColorRGB
 90
      255
102
RTVSPost2010PropOp44
 70
     1
102
RTVSPost2010Prop45
280
     0
102
RTVSPost2010PropOp45
 70
     1
102
RTVSPost2010Prop46
 90
       50
102
RTVSPost2010PropOp46
 70
     1
102
RTVSPost2010Prop47
 90
       50
102
RTVSPost2010PropOp47
 70
     1
102
RTVSPost2010Prop48
 90
       50
102
RTVSPost2010PropOp48
 70
     1
102
RTVSPost2010Prop49
280
     0
102
RTVSPost2010PropOp49
 70
     1
102
RTVSPost2010Prop50
 90
       50
102
RTVSPost2010PropOp50
 70
     1
102
RTVSPost2010Prop51ColorIndex
 90
      256
102
RTVSPost2010Prop51ColorRGB
 90
-16777216
102
RTVSPost2010PropOp51
 70
     0
102
RTVSPost2010Prop52
140
1.0
102
RTVSPost2010PropOp52
 70
     0
102
RTVSPost2010Prop53
 90
        2
102
RTVSPost2010PropOp53
 70
     1
102
RTVSPost2010Prop54
  1
strokes_ogs.tif
102
RTVSPost2010PropOp54
 70
     1
102
RTVSPost2010Prop55
280
     0
102
RTVSPost2010PropOp55
 70
     1
102
RTVSPost2010Prop56
140
1.0
102
RTVSPost2010PropOp56
 70
     1
102
RTVSPost2010Prop57
140
1.0
102
RTVSPost2010PropOp57
 70
     1
102
RTVSPropertyOp0
 70
     1
102
RTVSPropertyOp1
 70
     1
102
RTVSPropertyOp2
 70
     1
102
RTVSPropertyOp3
 70
     1
102
RTVSPropertyOp4
 70
     1
102
RTVSPropertyOp5
 70
     1
102
RTVSPropertyOp6
 70
     1
102
RTVSPropertyOp7
 70
     1
102
RTVSPropertyOp8
 70
     1
102
RTVSPropertyOp9
 70
     1
102
RTVSPropertyOp10
 70
     1
102
RTVSPropertyOp11
 70
     1
102
RTVSPropertyOp12
 70
     1
102
RTVSPropertyOp13
 70
     1
102
RTVSPropertyOp14
 70
     1
102
RTVSPropertyOp15
 70
     1
102
RTVSPropertyOp16
 70
     1
102
RTVSPropertyOp17
 70
     1
102
RTVSPropertyOp18
 70
     1
102
RTVSPropertyOp19
 70
     1
102
RTVSPropertyOp20
 70
     1
102
RTVSPropertyOp21
 70
     1
102
RTVSPropertyOp22
 70
     1
102
RTVSPropertyOp23
 70
     1
102
RTVSPropertyOp24
 70
     1
102
RTVSPropertyOp25
 70
     1
102
RTVSPropertyOp26
 70
     1
102
RTVSPropertyOp27
 70
     1
102
RTVSPropertyOp28
 70
     1
102
RTVSPropertyOp29
 70
     1
102
RTVSPropertyOp30
 70
     1
102
RTVSPropertyOp31
 70
     1
102
RTVSPropertyOp32
 70
     1
102
RTVSPropertyOp33
 70
     1
102
RTVSPropertyOp34
 70
     1
102
RTVSPropertyOp35
 70
     1
102
RTVSPropertyOp36
 70
     1
102
RTVSPropertyOp37
 70
     1
102
RTVSPropertyOp38
 70
     1
102
RTVSPropertyOp39
 70
     1
102
RTVSPropertyOp40
 70
     1
102
RTVSPropertyOp41
 70
     1
102
RTVSPropertyOp42
 70
     1
102
RTVSPropertyOp43
 70
     1
102
RTVSPropertyOp44
 70
     1
102
RTVSPropertyOp45
 70
     1
102
RTVSPropertyOp46
 70
     1
102
RTVSPropertyOp47
 70
     1
102
RTVSPropertyOp48
 70
     1
102
RTVSPropertyOp49
 70
     1
102
RTVSPropertyOp50
 70
     1
102
RTVSPropertyOp51
 70
     0
102
RTVSPropertyOp52
 70
     0
102
RTVSPropertyOp53
 70
     1
102
RTVSPropertyOp54
 70
     1
102
RTVSPropertyOp55
 70
     1
102
RTVSPropertyOp56
 70
     1
102
RTVSPropertyOp57
 70
     1
102
RTVSPropertyOp58
 70
     1
102
RTVSPropertyOp59
 70
     1
102
RTVSPropertyOp60
 70
     1
102
RTVSPropertyOp61
 70
     1
102
RTVSPropertyOp62
 70
     1
  0
XRECORD
  5
72DE
102
{ACAD_REACTORS
330
72DD
102
}
330
72DD
100
AcDbXrecord
280
     1
102
RTVSPost2010Prop28
280
     0
102
RTVSPost2010PropOp28
 70
     1
102
RTVSPost2010Prop29
280
     1
102
RTVSPost2010PropOp29
 70
     1
102
RTVSPost2010Prop30
280
     1
102
RTVSPost2010PropOp30
 70
     1
102
RTVSPost2010Prop31
280
     0
102
RTVSPost2010PropOp31
 70
     1
102
RTVSPost2010Prop32
280
     0
102
RTVSPost2010PropOp32
 70
     1
102
RTVSPost2010Prop33
280
     0
102
RTVSPost2010PropOp33
 70
     1
102
RTVSPost2010Prop34
280
     0
102
RTVSPost2010PropOp34
 70
     1
102
RTVSPost2010Prop35
280
     0
102
RTVSPost2010PropOp35
 70
     1
102
RTVSPost2010Prop36
280
     0
102
RTVSPost2010PropOp36
 70
     1
102
RTVSPost2010Prop37
 90
       50
102
RTVSPost2010PropOp37
 70
     1
102
RTVSPost2010Prop38
140
0.0
102
RTVSPost2010PropOp38
 70
     1
102
RTVSPost2010Prop39
140
1.0
102
RTVSPost2010PropOp39
 70
     1
102
RTVSPost2010Prop40
 90
        0
102
RTVSPost2010PropOp40
 70
     1
102
RTVSPost2010Prop41ColorIndex
 90
       18
102
RTVSPost2010Prop41ColorRGB
 90
        0
102
RTVSPost2010PropOp41
 70
     1
102
RTVSPost2010Prop42
 90
       50
102
RTVSPost2010PropOp42
 70
     1
102
RTVSPost2010Prop43
 90
        3
102
RTVSPost2010PropOp43
 70
     1
102
RTVSPost2010Prop44ColorIndex
 90
        5
102
RTVSPost2010Prop44ColorRGB
 90
      255
102
RTVSPost2010PropOp44
 70
     1
102
RTVSPost2010Prop45
280
     0
102
RTVSPost2010PropOp45
 70
     1
102
RTVSPost2010Prop46
 90
       50
102
RTVSPost2010PropOp46
 70
     1
102
RTVSPost2010Prop47
 90
       50
102
RTVSPost2010PropOp47
 70
     1
102
RTVSPost2010Prop48
 90
       50
102
RTVSPost2010PropOp48
 70
     1
102
RTVSPost2010Prop49
280
     0
102
RTVSPost2010PropOp49
 70
     1
102
RTVSPost2010Prop50
 90
       50
102
RTVSPost2010PropOp50
 70
     1
102
RTVSPost2010Prop51ColorIndex
 90
      256
102
RTVSPost2010Prop51ColorRGB
 90
-16777216
102
RTVSPost2010PropOp51
 70
     0
102
RTVSPost2010Prop52
140
1.0
102
RTVSPost2010PropOp52
 70
     0
102
RTVSPost2010Prop53
 90
        2
102
RTVSPost2010PropOp53
 70
     1
102
RTVSPost2010Prop54
  1
strokes_ogs.tif
102
RTVSPost2010PropOp54
 70
     1
102
RTVSPost2010Prop55
280
     0
102
RTVSPost2010PropOp55
 70
     1
102
RTVSPost2010Prop56
140
1.0
102
RTVSPost2010PropOp56
 70
     1
102
RTVSPost2010Prop57
140
1.0
102
RTVSPost2010PropOp57
 70
     1
102
RTVSPropertyOp0
 70
     1
102
RTVSPropertyOp1
 70
     1
102
RTVSPropertyOp2
 70
     1
102
RTVSPropertyOp3
 70
     1
102
RTVSPropertyOp4
 70
     1
102
RTVSPropertyOp5
 70
     1
102
RTVSPropertyOp6
 70
     1
102
RTVSPropertyOp7
 70
     1
102
RTVSPropertyOp8
 70
     1
102
RTVSPropertyOp9
 70
     1
102
RTVSPropertyOp10
 70
     1
102
RTVSPropertyOp11
 70
     1
102
RTVSPropertyOp12
 70
     1
102
RTVSPropertyOp13
 70
     1
102
RTVSPropertyOp14
 70
     1
102
RTVSPropertyOp15
 70
     1
102
RTVSPropertyOp16
 70
     1
102
RTVSPropertyOp17
 70
     1
102
RTVSPropertyOp18
 70
     1
102
RTVSPropertyOp19
 70
     1
102
RTVSPropertyOp20
 70
     1
102
RTVSPropertyOp21
 70
     1
102
RTVSPropertyOp22
 70
     1
102
RTVSPropertyOp23
 70
     1
102
RTVSPropertyOp24
 70
     1
102
RTVSPropertyOp25
 70
     1
102
RTVSPropertyOp26
 70
     1
102
RTVSPropertyOp27
 70
     1
102
RTVSPropertyOp28
 70
     1
102
RTVSPropertyOp29
 70
     1
102
RTVSPropertyOp30
 70
     1
102
RTVSPropertyOp31
 70
     1
102
RTVSPropertyOp32
 70
     1
102
RTVSPropertyOp33
 70
     1
102
RTVSPropertyOp34
 70
     1
102
RTVSPropertyOp35
 70
     1
102
RTVSPropertyOp36
 70
     1
102
RTVSPropertyOp37
 70
     1
102
RTVSPropertyOp38
 70
     1
102
RTVSPropertyOp39
 70
     1
102
RTVSPropertyOp40
 70
     1
102
RTVSPropertyOp41
 70
     1
102
RTVSPropertyOp42
 70
     1
102
RTVSPropertyOp43
 70
     1
102
RTVSPropertyOp44
 70
     1
102
RTVSPropertyOp45
 70
     1
102
RTVSPropertyOp46
 70
     1
102
RTVSPropertyOp47
 70
     1
102
RTVSPropertyOp48
 70
     1
102
RTVSPropertyOp49
 70
     1
102
RTVSPropertyOp50
 70
     1
102
RTVSPropertyOp51
 70
     0
102
RTVSPropertyOp52
 70
     0
102
RTVSPropertyOp53
 70
     1
102
RTVSPropertyOp54
 70
     1
102
RTVSPropertyOp55
 70
     1
102
RTVSPropertyOp56
 70
     1
102
RTVSPropertyOp57
 70
     1
102
RTVSPropertyOp58
 70
     1
102
RTVSPropertyOp59
 70
     1
102
RTVSPropertyOp60
 70
     1
102
RTVSPropertyOp61
 70
     1
102
RTVSPropertyOp62
 70
     1
  0
ENDSEC
  0
EOF
