  0
SECTION
  2
HEADER
  9
$ACADVER
  1
AC1015
  9
$ACADMAINTVER
 70
    18
  9
$DWGCODEPAGE
  3
ANSI_1252
  9
$INSBASE
 10
0.0
 20
0.0
 30
0.0
  9
$EXTMIN
 10
-186.4096061727143
 20
-217.6289973645809
 30
-0.0015258207003583
  9
$EXTMAX
 10
218.8439948843373
 20
256.902100254202
 30
0.0000000349246037
  9
$LIMMIN
 10
0.0
 20
0.0
  9
$LIMMAX
 10
420.0
 20
297.0
  9
$ORTHOMODE
 70
     0
  9
$REGENMODE
 70
     1
  9
$FILLMODE
 70
     1
  9
$QTEXTMODE
 70
     0
  9
$MIRRTEXT
 70
     0
  9
$LTSCALE
 40
1.0
  9
$ATTMODE
 70
     1
  9
$TEXTSIZE
 40
2.5
  9
$TRACEWID
 40
1.0
  9
$TEXTSTYLE
  7
Standard
  9
$CLAYER
  8
0
  9
$CELTYPE
  6
ByLayer
  9
$CECOLOR
 62
   256
  9
$CELTSCALE
 40
1.0
  9
$DISPSILH
 70
     0
  9
$DIMSCALE
 40
1.0
  9
$DIMASZ
 40
2.5
  9
$DIMEXO
 40
0.625
  9
$DIMDLI
 40
3.75
  9
$DIMRND
 40
0.0
  9
$DIMDLE
 40
0.0
  9
$DIMEXE
 40
1.25
  9
$DIMTP
 40
0.0
  9
$DIMTM
 40
0.0
  9
$DIMTXT
 40
2.5
  9
$DIMCEN
 40
2.5
  9
$DIMTSZ
 40
0.0
  9
$DIMTOL
 70
     0
  9
$DIMLIM
 70
     0
  9
$DIMTIH
 70
     0
  9
$DIMTOH
 70
     0
  9
$DIMSE1
 70
     0
  9
$DIMSE2
 70
     0
  9
$DIMTAD
 70
     1
  9
$DIMZIN
 70
     8
  9
$DIMBLK
  1

  9
$DIMASO
 70
     1
  9
$DIMSHO
 70
     1
  9
$DIMPOST
  1

  9
$DIMAPOST
  1

  9
$DIMALT
 70
     0
  9
$DIMALTD
 70
     3
  9
$DIMALTF
 40
0.03937007874016
  9
$DIMLFAC
 40
1.0
  9
$DIMTOFL
 70
     1
  9
$DIMTVP
 40
0.0
  9
$DIMTIX
 70
     0
  9
$DIMSOXD
 70
     0
  9
$DIMSAH
 70
     0
  9
$DIMBLK1
  1

  9
$DIMBLK2
  1

  9
$DIMSTYLE
  2
ISO-25
  9
$DIMCLRD
 70
     0
  9
$DIMCLRE
 70
     0
  9
$DIMCLRT
 70
     0
  9
$DIMTFAC
 40
1.0
  9
$DIMGAP
 40
0.625
  9
$DIMJUST
 70
     0
  9
$DIMSD1
 70
     0
  9
$DIMSD2
 70
     0
  9
$DIMTOLJ
 70
     0
  9
$DIMTZIN
 70
     8
  9
$DIMALTZ
 70
     0
  9
$DIMALTTZ
 70
     0
  9
$DIMUPT
 70
     0
  9
$DIMDEC
 70
     2
  9
$DIMTDEC
 70
     2
  9
$DIMALTU
 70
     2
  9
$DIMALTTD
 70
     3
  9
$DIMTXSTY
  7
Standard
  9
$DIMAUNIT
 70
     0
  9
$DIMADEC
 70
     0
  9
$DIMALTRND
 40
0.0
  9
$DIMAZIN
 70
     0
  9
$DIMDSEP
 70
    44
  9
$DIMATFIT
 70
     3
  9
$DIMFRAC
 70
     0
  9
$DIMLDRBLK
  1

  9
$DIMLUNIT
 70
     2
  9
$DIMLWD
 70
    -2
  9
$DIMLWE
 70
    -2
  9
$DIMTMOVE
 70
     0
  9
$LUNITS
 70
     2
  9
$LUPREC
 70
     4
  9
$SKETCHINC
 40
1.0
  9
$FILLETRAD
 40
0.0
  9
$AUNITS
 70
     0
  9
$AUPREC
 70
     0
  9
$MENU
  1
.
  9
$ELEVATION
 40
0.0
  9
$PELEVATION
 40
0.0
  9
$THICKNESS
 40
0.0
  9
$LIMCHECK
 70
     0
  9
$CHAMFERA
 40
0.0
  9
$CHAMFERB
 40
0.0
  9
$CHAMFERC
 40
0.0
  9
$CHAMFERD
 40
0.0
  9
$SKPOLY
 70
     0
  9
$TDCREATE
 40
2460398.356956019
  9
$TDUCREATE
 40
2460398.065289352
  9
$TDUPDATE
 40
2460398.373750000
  9
$TDUUPDATE
 40
2460398.082083333
  9
$TDINDWG
 40
0.0076041667
  9
$TDUSRTIMER
 40
0.0076041667
  9
$USRTIMER
 70
     1
  9
$ANGBASE
 50
0.0
  9
$ANGDIR
 70
     0
  9
$PDMODE
 70
     0
  9
$PDSIZE
 40
0.0
  9
$PLINEWID
 40
0.0
  9
$SPLFRAME
 70
     0
  9
$SPLINETYPE
 70
     6
  9
$SPLINESEGS
 70
     8
  9
$HANDSEED
  5
7501
  9
$SURFTAB1
 70
     6
  9
$SURFTAB2
 70
     6
  9
$SURFTYPE
 70
     6
  9
$SURFU
 70
     6
  9
$SURFV
 70
     6
  9
$UCSBASE
  2

  9
$UCSNAME
  2

  9
$UCSORG
 10
0.0
 20
0.0
 30
0.0
  9
$UCSXDIR
 10
1.0
 20
0.0
 30
0.0
  9
$UCSYDIR
 10
0.0
 20
1.0
 30
0.0
  9
$UCSORTHOREF
  2

  9
$UCSORTHOVIEW
 70
     0
  9
$UCSORGTOP
 10
0.0
 20
0.0
 30
0.0
  9
$UCSORGBOTTOM
 10
0.0
 20
0.0
 30
0.0
  9
$UCSORGLEFT
 10
0.0
 20
0.0
 30
0.0
  9
$UCSORGRIGHT
 10
0.0
 20
0.0
 30
0.0
  9
$UCSORGFRONT
 10
0.0
 20
0.0
 30
0.0
  9
$UCSORGBACK
 10
0.0
 20
0.0
 30
0.0
  9
$PUCSBASE
  2

  9
$PUCSNAME
  2

  9
$PUCSORG
 10
0.0
 20
0.0
 30
0.0
  9
$PUCSXDIR
 10
1.0
 20
0.0
 30
0.0
  9
$PUCSYDIR
 10
0.0
 20
1.0
 30
0.0
  9
$PUCSORTHOREF
  2

  9
$PUCSORTHOVIEW
 70
     0
  9
$PUCSORGTOP
 10
0.0
 20
0.0
 30
0.0
  9
$PUCSORGBOTTOM
 10
0.0
 20
0.0
 30
0.0
  9
$PUCSORGLEFT
 10
0.0
 20
0.0
 30
0.0
  9
$PUCSORGRIGHT
 10
0.0
 20
0.0
 30
0.0
  9
$PUCSORGFRONT
 10
0.0
 20
0.0
 30
0.0
  9
$PUCSORGBACK
 10
0.0
 20
0.0
 30
0.0
  9
$USERI1
 70
     0
  9
$USERI2
 70
     0
  9
$USERI3
 70
     0
  9
$USERI4
 70
     0
  9
$USERI5
 70
     0
  9
$USERR1
 40
0.0
  9
$USERR2
 40
0.0
  9
$USERR3
 40
0.0
  9
$USERR4
 40
0.0
  9
$USERR5
 40
0.0
  9
$WORLDVIEW
 70
     1
  9
$SHADEDGE
 70
     3
  9
$SHADEDIF
 70
    70
  9
$TILEMODE
 70
     1
  9
$MAXACTVP
 70
    48
  9
$PINSBASE
 10
0.0
 20
0.0
 30
0.0
  9
$PLIMCHECK
 70
     0
  9
$PEXTMIN
 10
0.0
 20
0.0
 30
0.0
  9
$PEXTMAX
 10
0.0
 20
0.0
 30
0.0
  9
$PLIMMIN
 10
0.0
 20
0.0
  9
$PLIMMAX
 10
12.0
 20
9.0
  9
$UNITMODE
 70
     0
  9
$VISRETAIN
 70
     1
  9
$PLINEGEN
 70
     0
  9
$PSLTSCALE
 70
     1
  9
$TREEDEPTH
 70
  3020
  9
$CMLSTYLE
  2
Standard
  9
$CMLJUST
 70
     0
  9
$CMLSCALE
 40
20.0
  9
$PROXYGRAPHICS
 70
     1
  9
$MEASUREMENT
 70
     1
  9
$CELWEIGHT
370
    -1
  9
$ENDCAPS
280
     0
  9
$JOINSTYLE
280
     0
  9
$LWDISPLAY
290
     0
  9
$INSUNITS
 70
     4
  9
$HYPERLINKBASE
  1

  9
$STYLESHEET
  1

  9
$XEDIT
290
     1
  9
$CEPSNTYPE
380
     0
  9
$PSTYLEMODE
290
     1
  9
$FINGERPRINTGUID
  2
{6C1266EE-7BC1-BF4A-B059-A6E7702B10CE}
  9
$VERSIONGUID
  2
{D3BBBDB0-FA6E-3B4F-9112-21D5ADC316FB}
  9
$EXTNAMES
290
     1
  9
$PSVPSCALE
 40
0.0
  9
$OLESTARTUP
290
     0
  0
ENDSEC
  0
SECTION
  2
CLASSES
  0
CLASS
  1
ACDBDICTIONARYWDFLT
  2
AcDbDictionaryWithDefault
  3
ObjectDBX Classes
 90
        0
280
     0
281
     0
  0
CLASS
  1
ACDBPLACEHOLDER
  2
AcDbPlaceHolder
  3
ObjectDBX Classes
 90
        0
280
     0
281
     0
  0
CLASS
  1
LAYOUT
  2
AcDbLayout
  3
ObjectDBX Classes
 90
        0
280
     0
281
     0
  0
CLASS
  1
DICTIONARYVAR
  2
AcDbDictionaryVar
  3
ObjectDBX Classes
 90
        0
280
     0
281
     0
  0
CLASS
  1
TABLESTYLE
  2
AcDbTableStyle
  3
ObjectDBX Classes
 90
     4095
280
     0
281
     0
  0
CLASS
  1
MATERIAL
  2
AcDbMaterial
  3
ObjectDBX Classes
 90
     1153
280
     0
281
     0
  0
CLASS
  1
VISUALSTYLE
  2
AcDbVisualStyle
  3
ObjectDBX Classes
 90
     4095
280
     0
281
     0
  0
CLASS
  1
SCALE
  2
AcDbScale
  3
ObjectDBX Classes
 90
     1153
280
     0
281
     0
  0
CLASS
  1
MLEADERSTYLE
  2
AcDbMLeaderStyle
  3
ACDB_MLEADERSTYLE_CLASS
 90
     4095
280
     0
281
     0
  0
CLASS
  1
CELLSTYLEMAP
  2
AcDbCellStyleMap
  3
ObjectDBX Classes
 90
     1152
280
     0
281
     0
  0
CLASS
  1
EXACXREFPANELOBJECT
  2
ExAcXREFPanelObject
  3
EXAC_ESW
 90
    33793
280
     0
281
     0
  0
CLASS
  1
NPOCOLLECTION
  2
AcDbImpNonPersistentObjectsCollection
  3
ObjectDBX Classes
 90
    33921
280
     0
281
     0
  0
CLASS
  1
LAYER_INDEX
  2
AcDbLayerIndex
  3
ObjectDBX Classes
 90
    32768
280
     0
281
     0
  0
CLASS
  1
SPATIAL_INDEX
  2
AcDbSpatialIndex
  3
ObjectDBX Classes
 90
    32768
280
     0
281
     0
  0
CLASS
  1
IDBUFFER
  2
AcDbIdBuffer
  3
ObjectDBX Classes
 90
    32768
280
     0
281
     0
  0
CLASS
  1
ACDBSECTIONVIEWSTYLE
  2
AcDbSectionViewStyle
  3
ObjectDBX Classes
 90
     1025
280
     0
281
     0
  0
CLASS
  1
ACDBDETAILVIEWSTYLE
  2
AcDbDetailViewStyle
  3
ObjectDBX Classes
 90
     1025
280
     0
281
     0
  0
CLASS
  1
XRECORD
  2
AcDbXrecord
  3
ObjectDBX Classes
 90
        0
280
     0
281
     0
  0
ENDSEC
  0
SECTION
  2
TABLES
  0
TABLE
  2
VPORT
  5
8
102
{ACAD_XDICTIONARY
360
740F
102
}
330
0
100
AcDbSymbolTable
 70
     1
  0
VPORT
  5
EA
330
8
100
AcDbSymbolTableRecord
100
AcDbViewportTableRecord
  2
*Active
 70
     0
 10
0.0
 20
0.0
 11
1.0
 21
1.0
 12
16.21719435581146
 22
19.63655144481055
 13
0.0
 23
0.0
 14
10.0
 24
10.0
 15
10.0
 25
10.0
 16
0.0
 26
0.0
 36
1.0
 17
0.0
 27
0.0
 37
0.0
 40
504.6208187359789
 41
0.9846153846153846
 42
50.0
 43
0.0
 44
0.0
 50
0.0
 51
0.0
 71
     0
 72
  1000
 73
     1
 74
     3
 75
     0
 76
     1
 77
     0
 78
     0
281
     0
 65
     1
110
0.0
120
0.0
130
0.0
111
1.0
121
0.0
131
0.0
112
0.0
122
1.0
132
0.0
 79
     0
146
0.0
1001
ACAD_NAV_VCDISPLAY
1070
     3
  0
ENDTAB
  0
TABLE
  2
LTYPE
  5
5
330
0
100
AcDbSymbolTable
 70
     1
  0
LTYPE
  5
14
330
5
100
AcDbSymbolTableRecord
100
AcDbLinetypeTableRecord
  2
ByBlock
 70
     0
  3

 72
    65
 73
     0
 40
0.0
  0
LTYPE
  5
15
330
5
100
AcDbSymbolTableRecord
100
AcDbLinetypeTableRecord
  2
ByLayer
 70
     0
  3

 72
    65
 73
     0
 40
0.0
  0
LTYPE
  5
16
330
5
100
AcDbSymbolTableRecord
100
AcDbLinetypeTableRecord
  2
Continuous
 70
     0
  3
Solid line
 72
    65
 73
     0
 40
0.0
  0
ENDTAB
  0
TABLE
  2
LAYER
  5
2
102
{ACAD_XDICTIONARY
360
1FF
102
}
330
0
100
AcDbSymbolTable
 70
     1
  0
LAYER
  5
10
102
{ACAD_XDICTIONARY
360
13C
102
}
330
2
100
AcDbSymbolTableRecord
100
AcDbLayerTableRecord
  2
0
 70
     0
 62
     7
  6
Continuous
370
    -3
390
F
  0
ENDTAB
  0
TABLE
  2
STYLE
  5
3
330
0
100
AcDbSymbolTable
 70
     1
  0
STYLE
  5
11
330
3
100
AcDbSymbolTableRecord
100
AcDbTextStyleTableRecord
  2
Standard
 70
     0
 40
0.0
 41
1.0
 50
0.0
 71
     0
 42
2.5
  3
arial.ttf
  4

1001
ACAD
1000
Arial
1071
       34
  0
ENDTAB
  0
TABLE
  2
VIEW
  5
6
330
0
100
AcDbSymbolTable
 70
     0
  0
ENDTAB
  0
TABLE
  2
UCS
  5
7
330
0
100
AcDbSymbolTable
 70
     0
  0
ENDTAB
  0
TABLE
  2
APPID
  5
9
330
0
100
AcDbSymbolTable
 70
     8
  0
APPID
  5
12
330
9
100
AcDbSymbolTableRecord
100
AcDbRegAppTableRecord
  2
ACAD
 70
     0
  0
APPID
  5
9E
330
9
100
AcDbSymbolTableRecord
100
AcDbRegAppTableRecord
  2
ACAD_PSEXT
 70
     0
  0
APPID
  5
133
330
9
100
AcDbSymbolTableRecord
100
AcDbRegAppTableRecord
  2
AcadAnnoPO
 70
     0
  0
APPID
  5
134
330
9
100
AcDbSymbolTableRecord
100
AcDbRegAppTableRecord
  2
AcadAnnotative
 70
     0
  0
APPID
  5
135
330
9
100
AcDbSymbolTableRecord
100
AcDbRegAppTableRecord
  2
ACAD_DSTYLE_DIMJAG
 70
     0
  0
APPID
  5
136
330
9
100
AcDbSymbolTableRecord
100
AcDbRegAppTableRecord
  2
ACAD_DSTYLE_DIMTALN
 70
     0
  0
APPID
  5
165
330
9
100
AcDbSymbolTableRecord
100
AcDbRegAppTableRecord
  2
ACAD_MLEADERVER
 70
     0
  0
APPID
  5
217
330
9
100
AcDbSymbolTableRecord
100
AcDbRegAppTableRecord
  2
ACAD_NAV_VCDISPLAY
 70
     0
  0
ENDTAB
  0
TABLE
  2
DIMSTYLE
  5
A
330
0
100
AcDbSymbolTable
 70
     1
100
AcDbDimStyleTable
 71
     0
  0
DIMSTYLE
105
27
330
A
100
AcDbSymbolTableRecord
100
AcDbDimStyleTableRecord
  2
ISO-25
 70
     0
 41
2.5
 42
0.625
 43
3.75
 44
1.25
 73
     0
 74
     0
 77
     1
 78
     8
140
2.5
141
2.5
143
0.03937007874016
147
0.625
171
     3
172
     1
271
     2
272
     2
274
     3
278
    44
283
     0
284
     8
340
11
  0
ENDTAB
  0
TABLE
  2
BLOCK_RECORD
  5
1
330
0
100
AcDbSymbolTable
 70
     7
  0
BLOCK_RECORD
  5
1F
102
{ACAD_XDICTIONARY
360
1CE
102
}
330
1
100
AcDbSymbolTableRecord
100
AcDbBlockTableRecord
  2
*Model_Space
340
22
  0
BLOCK_RECORD
  5
D2
102
{ACAD_XDICTIONARY
360
73C2
102
}
330
1
100
AcDbSymbolTableRecord
100
AcDbBlockTableRecord
  2
*Paper_Space
340
D3
  0
BLOCK_RECORD
  5
D6
102
{ACAD_XDICTIONARY
360
73C4
102
}
330
1
100
AcDbSymbolTableRecord
100
AcDbBlockTableRecord
  2
*Paper_Space0
340
D7
  0
BLOCK_RECORD
  5
7256
330
1
100
AcDbSymbolTableRecord
100
AcDbBlockTableRecord
  2
SAE300_38_2-Front
340
0
102
{BLKREFS
331
73B8
102
}
  0
BLOCK_RECORD
  5
72A9
330
1
100
AcDbSymbolTableRecord
100
AcDbBlockTableRecord
  2
SAE300_38_2-Left
340
0
102
{BLKREFS
331
73B9
102
}
  0
BLOCK_RECORD
  5
72C8
330
1
100
AcDbSymbolTableRecord
100
AcDbBlockTableRecord
  2
SAE300_38_2-Right
340
0
102
{BLKREFS
331
73BA
102
}
  0
BLOCK_RECORD
  5
72E7
330
1
100
AcDbSymbolTableRecord
100
AcDbBlockTableRecord
  2
SAE300_38_2-Top
340
0
102
{BLKREFS
331
73BB
102
}
  0
BLOCK_RECORD
  5
7314
330
1
100
AcDbSymbolTableRecord
100
AcDbBlockTableRecord
  2
SAE300_38_2-Bottom
340
0
102
{BLKREFS
331
73BC
102
}
  0
BLOCK_RECORD
  5
733A
330
1
100
AcDbSymbolTableRecord
100
AcDbBlockTableRecord
  2
SAE300_38_2-ISO
340
0
102
{BLKREFS
331
73BD
102
}
  0
ENDTAB
  0
ENDSEC
  0
SECTION
  2
BLOCKS
  0
BLOCK
  5
20
330
1F
100
AcDbEntity
  8
0
100
AcDbBlockBegin
  2
*Model_Space
 70
     0
 10
0.0
 20
0.0
 30
0.0
  3
*Model_Space
  1

  0
ENDBLK
  5
21
330
1F
100
AcDbEntity
  8
0
100
AcDbBlockEnd
  0
BLOCK
  5
D4
330
D2
100
AcDbEntity
 67
     1
  8
0
100
AcDbBlockBegin
  2
*Paper_Space
 70
     0
 10
0.0
 20
0.0
 30
0.0
  3
*Paper_Space
  1

  0
ENDBLK
  5
D5
330
D2
100
AcDbEntity
 67
     1
  8
0
100
AcDbBlockEnd
  0
BLOCK
  5
D8
330
D6
100
AcDbEntity
 67
     1
  8
0
100
AcDbBlockBegin
  2
*Paper_Space0
 70
     0
 10
0.0
 20
0.0
 30
0.0
  3
*Paper_Space0
  1

  0
ENDBLK
  5
D9
330
D6
100
AcDbEntity
 67
     1
  8
0
100
AcDbBlockEnd
  0
BLOCK
  5
7257
330
7256
100
AcDbEntity
  8
0
100
AcDbBlockBegin
  2
SAE300_38_2-Front
 70
     0
 10
0.0
 20
0.0
 30
0.0
  3
SAE300_38_2-Front
  1

  0
SPLINE
  5
7259
330
7256
100
AcDbEntity
  8
0
100
AcDbSpline
210
0.0
220
0.0
230
1.0
 70
     8
 71
     3
 72
    14
 73
    10
 74
     0
 42
0.000000001
 43
0.0000000001
 40
0.0
 40
0.0
 40
0.0
 40
0.0
 40
0.3435185598316202
 40
0.3435185598316202
 40
0.3435185598316202
 40
0.7570138388623957
 40
0.7570138388623957
 40
0.7570138388623957
 40
0.9937966443925535
 40
0.9937966443925535
 40
0.9937966443925535
 40
0.9937966443925535
 10
23.60606060606065
 20
23.56249999999999
 30
0.0
 10
23.28490437776827
 20
23.3024934633214
 30
0.0
 10
22.87245674614589
 20
23.07528977169391
 30
0.0
 10
22.4764618452606
 20
22.84407447159825
 30
0.0
 10
21.9998004907283
 20
22.56575927641315
 30
0.0
 10
21.53725454065867
 20
22.27136286305979
 30
0.0
 10
21.26239142283655
 20
21.85786784791781
 30
0.0
 10
21.10499455889352
 20
21.62108519350021
 30
0.0
 10
21.00518591567649
 20
21.37128924347893
 30
0.0
 10
21.00019625465248
 20
21.02723654466211
 30
0.0
  0
LINE
  5
725A
330
7256
100
AcDbEntity
  8
0
100
AcDbLine
 10
23.0
 20
23.56249999999999
 30
0.0
 11
23.55691948257376
 21
23.56249999999999
 31
0.0
  0
LINE
  5
725B
330
7256
100
AcDbEntity
  8
0
100
AcDbLine
 10
22.92566083936394
 20
23.56249999999999
 30
0.0
 11
23.0
 21
23.56249999999999
 31
0.0
  0
LINE
  5
725C
330
7256
100
AcDbEntity
  8
0
100
AcDbLine
 10
21.00000000000001
 20
23.56249999999999
 30
0.0
 11
22.92566083936394
 21
23.56249999999999
 31
0.0
  0
SPLINE
  5
725D
330
7256
100
AcDbEntity
  8
0
100
AcDbSpline
210
0.0
220
0.0
230
1.0
 70
     8
 71
     3
 72
    34
 73
    30
 74
     0
 42
0.000000001
 43
0.0000000001
 40
0.0386759060388356
 40
0.0386759060388356
 40
0.0386759060388356
 40
0.0386759060388356
 40
0.0400787488758759
 40
0.0400787488758759
 40
0.0422419501751295
 40
0.0422419501751295
 40
0.0465985792888122
 40
0.0465985792888122
 40
0.0509100325606367
 40
0.0509100325606367
 40
0.0583295398479747
 40
0.0583295398479747
 40
0.0594696967825876
 40
0.0594696967825876
 40
0.0600073777253809
 40
0.0600073777253809
 40
0.0605473080302261
 40
0.0605473080302261
 40
0.0616424707759684
 40
0.0616424707759684
 40
0.0637916764854142
 40
0.0637916764854142
 40
0.0659867334414117
 40
0.0659867334414117
 40
0.0702846678120816
 40
0.0702846678120816
 40
0.0744216586972309
 40
0.0744216586972309
 40
0.07861157016349
 40
0.07861157016349
 40
0.07861157016349
 40
0.07861157016349
 10
21.01076237536294
 20
21.25193571330779
 30
0.0
 10
21.01076237543035
 20
21.25193571406387
 30
0.0
 10
21.01071620616806
 20
21.2514190927847
 30
0.0
 10
21.01050487465355
 20
21.24900754216579
 30
0.0
 10
21.01028925807584
 20
21.2465196536809
 30
0.0
 10
21.00949785944171
 20
21.23703578089986
 30
0.0
 10
21.0087755402431
 20
21.22793945086665
 30
0.0
 10
21.00733183912733
 20
21.20781249141276
 30
0.0
 10
21.00659229348964
 20
21.19659078011744
 30
0.0
 10
21.00470564271934
 20
21.16464886489557
 30
0.0
 10
21.00362422374153
 20
21.14223941199581
 30
0.0
 10
21.00268059901111
 20
21.11785102631591
 30
0.0
 10
21.00256104704344
 20
21.11463828395589
 30
0.0
 10
21.00240560616573
 20
21.110324013556
 30
0.0
 10
21.00235882876583
 20
21.1090027451794
 30
0.0
 10
21.00227621364556
 20
21.1066387699529
 30
0.0
 10
21.00224028107109
 20
21.10559353484298
 30
0.0
 10
21.00215530106373
 20
21.10310138077555
 30
0.0
 10
21.00213094805888
 20
21.10236446376108
 30
0.0
 10
21.00207934409148
 20
21.10081252983748
 30
0.0
 10
21.00205285355043
 20
21.10003024211819
 30
0.0
 10
21.00188357458003
 20
21.09472328272925
 30
0.0
 10
21.00173650106471
 20
21.08996550665166
 30
0.0
 10
21.00133324786217
 20
21.07587449070643
 30
0.0
 10
21.0010759207999
 20
21.06563269409541
 30
0.0
 10
21.00064225326043
 20
21.04525095318173
 30
0.0
 10
21.00046130769451
 20
21.03503255627393
 30
0.0
 10
21.00017690603402
 20
21.01568914485636
 30
0.0
 10
21.00007403816819
 20
21.00644927223309
 30
0.0
 10
21.00001270427938
 20
20.99999993960792
 30
0.0
  0
SPLINE
  5
725E
330
7256
100
AcDbEntity
  8
0
100
AcDbSpline
210
0.0
220
0.0
230
1.0
 70
     8
 71
     3
 72
    10
 73
     6
 74
     0
 42
0.000000001
 43
0.0000000001
 40
0.0151313127721131
 40
0.0151313127721131
 40
0.0151313127721131
 40
0.0151313127721131
 40
0.0171748654417288
 40
0.0171748654417288
 40
0.01841996815039
 40
0.01841996815039
 40
0.01841996815039
 40
0.01841996815039
 10
21.00034648598945
 20
21.02718593614523
 30
0.0
 10
21.00026744594915
 20
21.02166123549791
 30
0.0
 10
21.00019758192914
 20
21.01602998922222
 30
0.0
 10
21.00010254413832
 20
21.00692331539333
 30
0.0
 10
21.00007042510855
 20
21.00346166668457
 30
0.0
 10
21.00004220943864
 20
20.99999978311206
 30
0.0
  0
SPLINE
  5
725F
330
7256
100
AcDbEntity
  8
0
100
AcDbSpline
210
0.0
220
0.0
230
1.0
 70
     8
 71
     3
 72
     8
 73
     4
 74
     0
 42
0.000000001
 43
0.0000000001
 40
0.002724442535479
 40
0.002724442535479
 40
0.002724442535479
 40
0.002724442535479
 40
0.0086712963669727
 40
0.0086712963669727
 40
0.0086712963669727
 40
0.0086712963669727
 10
21.00001376180648
 20
21.00201328599807
 30
0.0
 10
21.00001376180649
 20
21.00201328599837
 30
0.0
 10
21.00000357969069
 20
21.00037332399432
 30
0.0
 10
21.00000179638788
 20
20.99999999108396
 30
0.0
  0
SPLINE
  5
7260
330
7256
100
AcDbEntity
  8
0
100
AcDbSpline
210
0.0
220
0.0
230
1.0
 70
     8
 71
     3
 72
     8
 73
     4
 74
     0
 42
0.000000001
 43
0.0000000001
 40
0.0
 40
0.0
 40
0.0
 40
0.0
 40
0.0009484845472777
 40
0.0009484845472777
 40
0.0009484845472777
 40
0.0009484845472777
 10
18.99956040496373
 20
21.00000098503775
 30
0.0
 10
18.9995642715448
 20
21.00275539288366
 30
0.0
 10
18.9995680779015
 20
21.00547480198003
 30
0.0
 10
18.99957175544651
 20
21.00814870135844
 30
0.0
  0
SPLINE
  5
7261
330
7256
100
AcDbEntity
  8
0
100
AcDbSpline
210
0.0
220
0.0
230
1.0
 70
     8
 71
     3
 72
    14
 73
    10
 74
     0
 42
0.000000001
 43
0.0000000001
 40
0.0
 40
0.0
 40
0.0
 40
0.0
 40
0.0050537939864082
 40
0.0050537939864082
 40
0.0076266846958523
 40
0.0076266846958523
 40
0.0099757364203383
 40
0.0099757364203383
 40
0.0117459788548106
 40
0.0117459788548106
 40
0.0117459788548106
 40
0.0117459788548106
 10
18.99970085685816
 20
20.99999583904442
 30
0.0
 10
18.99943696029763
 20
21.01668088253555
 30
0.0
 10
18.99916130110788
 20
21.03394678857446
 30
0.0
 10
18.99876193476148
 20
21.05896058062427
 30
0.0
 10
18.99862826252254
 20
21.06733836414872
 30
0.0
 10
18.99840270372683
 20
21.08148976912478
 30
0.0
 10
18.99830585500822
 20
21.08757010296122
 30
0.0
 10
18.99816732226873
 20
21.09624046881023
 30
0.0
 10
18.99811640356494
 20
21.09941635787174
 30
0.0
 10
18.99807359158741
 20
21.10207293147496
 30
0.0
  0
SPLINE
  5
7262
330
7256
100
AcDbEntity
  8
0
100
AcDbSpline
210
0.0
220
0.0
230
1.0
 70
     8
 71
     3
 72
    34
 73
    30
 74
     0
 42
0.000000001
 43
0.0000000001
 40
0.0019539046349957
 40
0.0019539046349957
 40
0.0019539046349957
 40
0.0019539046349957
 40
0.0074296366090708
 40
0.0074296366090708
 40
0.0161449402541808
 40
0.0161449402541808
 40
0.0215828361836945
 40
0.0215828361836945
 40
0.0244032832999553
 40
0.0244032832999553
 40
0.0264872482877189
 40
0.0264872482877189
 40
0.0292236481714031
 40
0.0292236481714031
 40
0.03164877982928
 40
0.03164877982928
 40
0.0348373360741441
 40
0.0348373360741441
 40
0.0399365469069712
 40
0.0399365469069712
 40
0.0496589587078704
 40
0.0496589587078704
 40
0.0742168773175474
 40
0.0742168773175474
 40
0.1473304584932214
 40
0.1473304584932214
 40
0.2287234926638632
 40
0.2287234926638632
 40
0.2661615521276924
 40
0.2661615521276924
 40
0.2661615521276924
 40
0.2661615521276924
 10
18.99993431788735
 20
21.0038048482023
 30
0.0
 10
18.99985928935122
 20
21.00810791566836
 30
0.0
 10
18.99974845963894
 20
21.01435438893184
 30
0.0
 10
18.99939149472241
 20
21.03388659858728
 30
0.0
 10
18.99909596754251
 20
21.0495754062075
 30
0.0
 10
18.9985209921801
 20
21.07925673470399
 30
0.0
 10
18.99828146753591
 20
21.09145900684759
 30
0.0
 10
18.997881787188
 20
21.11186537081588
 30
0.0
 10
18.99773462265497
 20
21.11938787697503
 30
0.0
 10
18.99745964640349
 20
21.13358395783094
 30
0.0
 10
18.99733531492441
 20
21.14004613529053
 30
0.0
 10
18.99704171945486
 20
21.15551843176766
 30
0.0
 10
18.99686693729751
 20
21.16489649881174
 30
0.0
 10
18.99655660038397
 20
21.18203580796265
 30
0.0
 10
18.99641577897083
 20
21.19002353511906
 30
0.0
 10
18.99611288289202
 20
21.20773328680942
 30
0.0
 10
18.99595511724786
 20
21.21737524666136
 30
0.0
 10
18.99558173242363
 20
21.2412334799458
 30
0.0
 10
18.99538454084189
 20
21.25493755212924
 30
0.0
 10
18.99487987374638
 20
21.29285685750907
 30
0.0
 10
18.99462930875901
 20
21.31564514731791
 30
0.0
 10
18.99390946065449
 20
21.39342265965535
 30
0.0
 10
18.99367743725751
 20
21.44492720710909
 30
0.0
 10
18.99335887619333
 20
21.65930981262153
 30
0.0
 10
18.99486716970656
 20
21.84867839117799
 30
0.0
 10
18.99831996646215
 20
22.2840048471021
 30
0.0
 10
18.99958517979049
 20
22.54047156804337
 30
0.0
 10
18.99998702649706
 20
22.92729225506442
 30
0.0
 10
18.99998282777816
 20
23.0515021334663
 30
0.0
 10
18.99998937019574
 20
23.17586288746312
 30
0.0
  0
SPLINE
  5
7263
330
7256
100
AcDbEntity
  8
0
100
AcDbSpline
210
0.0
220
0.0
230
1.0
 70
     8
 71
     3
 72
    12
 73
     8
 74
     0
 42
0.000000001
 43
0.0000000001
 40
0.0
 40
0.0
 40
0.0
 40
0.0
 40
0.0030444958762039
 40
0.0030444958762039
 40
0.0059484407679972
 40
0.0059484407679972
 40
0.0076998870941637
 40
0.0076998870941637
 40
0.0076998870941637
 40
0.0076998870941637
 10
18.99994094388031
 20
20.99999982320921
 30
0.0
 10
18.99992879114671
 20
21.00696349585511
 30
0.0
 10
18.99991750826071
 20
21.01275347418792
 30
0.0
 10
18.99989987695835
 20
21.02087153611993
 30
0.0
 10
18.99989321273558
 20
21.0234563379328
 30
0.0
 10
18.99988739353178
 20
21.02557939445707
 30
0.0
 10
18.99988626658529
 20
21.02594036136023
 30
0.0
 10
18.99988626658534
 20
21.02594036134282
 30
0.0
  0
SPLINE
  5
7264
330
7256
100
AcDbEntity
  8
0
100
AcDbSpline
210
0.0
220
0.0
230
1.0
 70
     8
 71
     3
 72
     8
 73
     4
 74
     0
 42
0.000000001
 43
0.0000000001
 40
0.0
 40
0.0
 40
0.0
 40
0.0
 40
0.0004177425315669
 40
0.0004177425315669
 40
0.0004177425315669
 40
0.0004177425315669
 10
23.60608753399286
 20
23.56246533477602
 30
0.0
 10
23.60571539465933
 20
23.56217712126691
 30
0.0
 10
23.605336437046
 20
23.56188368319781
 30
0.0
 10
23.60495482122971
 20
23.56158814977982
 30
0.0
  0
SPLINE
  5
7265
330
7256
100
AcDbEntity
  8
0
100
AcDbSpline
210
0.0
220
0.0
230
1.0
 70
     8
 71
     3
 72
     8
 73
     4
 74
     0
 42
0.000000001
 43
0.0000000001
 40
0.0
 40
0.0
 40
0.0
 40
0.0
 40
0.0006755746297246
 40
0.0006755746297246
 40
0.0006755746297246
 40
0.0006755746297246
 10
23.60610301841199
 20
23.56244730639216
 30
0.0
 10
23.60468198739031
 20
23.56130321893245
 30
0.0
 10
23.60319962826105
 20
23.56011111591094
 30
0.0
 10
23.60167128151609
 20
23.55888354744852
 30
0.0
  0
LINE
  5
7266
330
7256
100
AcDbEntity
  8
0
100
AcDbLine
 10
16.99999999999999
 20
-2.0
 30
0.0
 11
-16.99999999999998
 21
-2.0
 31
0.0
  0
LINE
  5
7267
330
7256
100
AcDbEntity
  8
0
100
AcDbLine
 10
-16.99999999999998
 20
0.0
 30
0.0
 11
16.99999999999999
 21
0.0
 31
0.0
  0
LINE
  5
7268
330
7256
100
AcDbEntity
  8
0
100
AcDbLine
 10
-22.92566083936393
 20
23.56249999999999
 30
0.0
 11
-21.00000000000001
 21
23.56249999999999
 31
0.0
  0
LINE
  5
7269
330
7256
100
AcDbEntity
  8
0
100
AcDbLine
 10
-23.0
 20
23.56249999999999
 30
0.0
 11
-22.92566083936393
 21
23.56249999999999
 31
0.0
  0
LINE
  5
726A
330
7256
100
AcDbEntity
  8
0
100
AcDbLine
 10
-23.55691948257376
 20
23.56249999999999
 30
0.0
 11
-23.0
 21
23.56249999999999
 31
0.0
  0
SPLINE
  5
726B
330
7256
100
AcDbEntity
  8
0
100
AcDbSpline
210
0.0
220
0.0
230
1.0
 70
     8
 71
     3
 72
    14
 73
    10
 74
     0
 42
0.000000001
 43
0.0000000001
 40
0.0
 40
0.0
 40
0.0
 40
0.0
 40
0.3435185598316202
 40
0.3435185598316202
 40
0.3435185598316202
 40
0.7570138388623957
 40
0.7570138388623957
 40
0.7570138388623957
 40
0.9937966443930365
 40
0.9937966443930365
 40
0.9937966443930365
 40
0.9937966443930365
 10
-23.60606060606065
 20
23.56249999999999
 30
0.0
 10
-23.28490437776827
 20
23.3024934633214
 30
0.0
 10
-22.87245674614589
 20
23.07528977169391
 30
0.0
 10
-22.4764618452606
 20
22.84407447159825
 30
0.0
 10
-21.9998004907283
 20
22.56575927641315
 30
0.0
 10
-21.53725454065867
 20
22.27136286305979
 30
0.0
 10
-21.26239142283655
 20
21.85786784791781
 30
0.0
 10
-21.1049945588932
 20
21.62108519349973
 30
0.0
 10
-21.00518591567608
 20
21.3712892434779
 30
0.0
 10
-21.00019625465245
 20
21.02723654466001
 30
0.0
  0
SPLINE
  5
726C
330
7256
100
AcDbEntity
  8
0
100
AcDbSpline
210
0.0
220
0.0
230
1.0
 70
     8
 71
     3
 72
    30
 73
    26
 74
     0
 42
0.000000001
 43
0.0000000001
 40
0.0
 40
0.0
 40
0.0
 40
0.0
 40
0.0655513823798807
 40
0.0655513823798807
 40
0.1471085625924528
 40
0.1471085625924528
 40
0.186494917765473
 40
0.186494917765473
 40
0.2244263797557772
 40
0.2244263797557772
 40
0.2338931435895629
 40
0.2338931435895629
 40
0.2360421234628554
 40
0.2360421234628554
 40
0.2376761021636925
 40
0.2376761021636925
 40
0.2393127099355455
 40
0.2393127099355455
 40
0.2426366795052096
 40
0.2426366795052096
 40
0.2492464120566014
 40
0.2492464120566014
 40
0.2568350173868017
 40
0.2568350173868017
 40
0.2642867959103367
 40
0.2642867959103367
 40
0.2642867959103367
 40
0.2642867959103367
 10
-18.99998937019574
 20
23.1758628874627
 30
0.0
 10
-18.99997791488734
 20
22.95811604227241
 30
0.0
 10
-18.99997499593943
 20
22.73955109071692
 30
0.0
 10
-18.99847087101022
 20
22.27766030923904
 30
0.0
 10
-18.99618403934919
 20
22.03633570823885
 30
0.0
 10
-18.99399775357122
 20
21.72033854936336
 30
0.0
 10
-18.99356174444774
 20
21.62409145572468
 30
0.0
 10
-18.99357531557295
 20
21.45119395598928
 30
0.0
 10
-18.99385397663376
 20
21.37644622282683
 30
0.0
 10
-18.99531453298853
 20
21.25916012768395
 30
0.0
 10
-18.99567938966742
 20
21.23369006639844
 30
0.0
 10
-18.99628189475752
 20
21.19778988456467
 30
0.0
 10
-18.99640074931661
 20
21.1909021450227
 30
0.0
 10
-18.99661976295183
 20
21.17853716430025
 30
0.0
 10
-18.99671829903698
 20
21.17307687835349
 30
0.0
 10
-18.99691819118561
 20
21.16217706448681
 30
0.0
 10
-18.99702051778461
 20
21.1566849772026
 30
0.0
 10
-18.99732539092088
 20
21.14051373514101
 30
0.0
 10
-18.99752614200438
 20
21.1301239471707
 30
0.0
 10
-18.9980608970758
 20
21.10264591019659
 30
0.0
 10
-18.99835850840466
 20
21.08758121544133
 30
0.0
 10
-18.99895339244771
 20
21.05698555671571
 30
0.0
 10
-18.99922951862152
 20
21.04249152430985
 30
0.0
 10
-18.99966426115263
 20
21.01907337805442
 30
0.0
 10
-18.99983231005994
 20
21.0096524667388
 30
0.0
 10
-18.99993445934071
 20
21.00379395917044
 30
0.0
  0
SPLINE
  5
726D
330
7256
100
AcDbEntity
  8
0
100
AcDbSpline
210
0.0
220
0.0
230
1.0
 70
     8
 71
     3
 72
     8
 73
     4
 74
     0
 42
0.000000001
 43
0.0000000001
 40
0.0207870332222612
 40
0.0207870332222612
 40
0.0207870332222612
 40
0.0207870332222612
 40
0.0217363617161492
 40
0.0217363617161492
 40
0.0217363617161492
 40
0.0217363617161492
 10
-18.99957173053588
 20
21.00814873951315
 30
0.0
 10
-18.99956805571751
 20
21.00547682263664
 30
0.0
 10
-18.99956427498522
 20
21.00275784371238
 30
0.0
 10
-18.99956040496373
 20
21.00000098503775
 30
0.0
  0
SPLINE
  5
726E
330
7256
100
AcDbEntity
  8
0
100
AcDbSpline
210
0.0
220
0.0
230
1.0
 70
     8
 71
     3
 72
    18
 73
    14
 74
     0
 42
0.000000001
 43
0.0000000001
 40
0.0359684561600515
 40
0.0359684561600515
 40
0.0359684561600515
 40
0.0359684561600515
 40
0.037392983273863
 40
0.037392983273863
 40
0.0388269919418901
 40
0.0388269919418901
 40
0.0410736017046096
 40
0.0410736017046096
 40
0.043142664331253
 40
0.043142664331253
 40
0.0457467508335258
 40
0.0457467508335258
 40
0.0477385101630799
 40
0.0477385101630799
 40
0.0477385101630799
 40
0.0477385101630799
 10
-18.99807360884828
 20
21.10207149769331
 30
0.0
 10
-18.99810813531354
 20
21.09992905762179
 30
0.0
 10
-18.99814774219253
 20
21.09746140365942
 30
0.0
 10
-18.99823833708654
 20
21.09179800933048
 30
0.0
 10
-18.99828987722916
 20
21.08856808641069
 30
0.0
 10
-18.99843588989635
 20
21.07940949984718
 30
0.0
 10
-18.99854061045468
 20
21.07283556157823
 30
0.0
 10
-18.99875345136624
 20
21.05949165225983
 30
0.0
 10
-18.99886231674471
 20
21.05267340603433
 30
0.0
 10
-18.99910891270505
 20
21.03722801485427
 30
0.0
 10
-18.99924874600158
 20
21.02846688888679
 30
0.0
 10
-18.99949198845099
 20
21.01317857629791
 30
0.0
 10
-18.99959685213659
 20
21.00657160986667
 30
0.0
 10
-18.99970085685816
 20
20.99999583904443
 30
0.0
  0
SPLINE
  5
726F
330
7256
100
AcDbEntity
  8
0
100
AcDbSpline
210
0.0
220
0.0
230
1.0
 70
     8
 71
     3
 72
    12
 73
     8
 74
     0
 42
0.000000001
 43
0.0000000001
 40
0.0138145557943462
 40
0.0138145557943462
 40
0.0138145557943462
 40
0.0138145557943462
 40
0.0169919968619968
 40
0.0169919968619968
 40
0.0189384571096923
 40
0.0189384571096923
 40
0.0215156435901495
 40
0.0215156435901495
 40
0.0215156435901495
 40
0.0215156435901495
 10
-18.99988626658534
 20
21.02594036134302
 30
0.0
 10
-18.99988626662727
 20
21.02594034782842
 30
0.0
 10
-18.99989009834176
 20
21.02472196574404
 30
0.0
 10
-18.99990126040601
 20
21.02016540635315
 30
0.0
 10
-18.99990666432461
 20
21.01781765278482
 30
0.0
 10
-18.99992101848981
 20
21.01095157767104
 30
0.0
 10
-18.99993065650861
 20
21.0058946194997
 30
0.0
 10
-18.99994094388031
 20
20.9999998232092
 30
0.0
  0
SPLINE
  5
7270
330
7256
100
AcDbEntity
  8
0
100
AcDbSpline
210
0.0
220
0.0
230
1.0
 70
     8
 71
     3
 72
    16
 73
    12
 74
     0
 42
0.000000001
 43
0.0000000001
 40
0.0
 40
0.0
 40
0.0
 40
0.0
 40
0.0048244442718138
 40
0.0048244442718138
 40
0.0084630844273886
 40
0.0084630844273886
 40
0.0094797517527908
 40
0.0094797517527908
 40
0.0099661477147584
 40
0.0099661477147584
 40
0.0100234475436849
 40
0.0100234475436849
 40
0.0100234475436849
 40
0.0100234475436849
 10
-21.00004220943864
 20
20.99999978311203
 30
0.0
 10
-21.0001515377102
 20
21.01341366797083
 30
0.0
 10
-21.00032268289965
 20
21.02687089010093
 30
0.0
 10
-21.00070283182602
 20
21.0489036403678
 30
0.0
 10
-21.0009017050397
 20
21.0582400055177
 30
0.0
 10
-21.00111302175812
 20
21.06712796900261
 30
0.0
 10
-21.00115672905301
 20
21.06889724742273
 30
0.0
 10
-21.00119777717914
 20
21.07053601952922
 30
0.0
 10
-21.00120726128369
 20
21.0709102260749
 30
0.0
 10
-21.00120931477249
 20
21.07099132009702
 30
0.0
 10
-21.00120942614469
 20
21.07099571689262
 30
0.0
 10
-21.00120942614215
 20
21.07099571679205
 30
0.0
  0
SPLINE
  5
7271
330
7256
100
AcDbEntity
  8
0
100
AcDbSpline
210
0.0
220
0.0
230
1.0
 70
     8
 71
     3
 72
    22
 73
    18
 74
     0
 42
0.000000001
 43
0.0000000001
 40
0.0
 40
0.0
 40
0.0
 40
0.0
 40
0.003270068194274
 40
0.003270068194274
 40
0.0073547932673969
 40
0.0073547932673969
 40
0.0134791414617152
 40
0.0134791414617152
 40
0.0266726321911722
 40
0.0266726321911722
 40
0.0338101753218029
 40
0.0338101753218029
 40
0.0369599673120773
 40
0.0369599673120773
 40
0.038615529809007
 40
0.038615529809007
 40
0.0391357702694054
 40
0.0391357702694054
 40
0.0391357702694054
 40
0.0391357702694054
 10
-21.00001270427938
 20
20.9999999396079
 30
0.0
 10
-21.00006057307103
 20
21.00503340097372
 30
0.0
 10
-21.00013333357321
 20
21.0117854897424
 30
0.0
 10
-21.00035309264439
 20
21.02820549318694
 30
0.0
 10
-21.00051469332205
 20
21.03822490963175
 30
0.0
 10
-21.00100171555532
 20
21.06300909025528
 30
0.0
 10
-21.00137876475893
 20
21.07796094971725
 30
0.0
 10
-21.00257919927808
 20
21.11791942294157
 30
0.0
 10
-21.00367209940343
 20
21.14669751259691
 30
0.0
 10
-21.0069204246854
 20
21.20237219980809
 30
0.0
 10
-21.00823585187886
 20
21.22096031035379
 30
0.0
 10
-21.0097733490618
 20
21.24041168516911
 30
0.0
 10
-21.01019616220962
 20
21.24542479894843
 30
0.0
 10
-21.01060625936969
 20
21.25017386276065
 30
0.0
 10
-21.01070574760661
 20
21.25129789660095
 30
0.0
 10
-21.01075616437095
 20
21.25186608074721
 30
0.0
 10
-21.01076237534479
 20
21.25193571310439
 30
0.0
 10
-21.01076237536272
 20
21.25193571330547
 30
0.0
  0
SPLINE
  5
7272
330
7256
100
AcDbEntity
  8
0
100
AcDbSpline
210
0.0
220
0.0
230
1.0
 70
     8
 71
     3
 72
     8
 73
     4
 74
     0
 42
0.000000001
 43
0.0000000001
 40
0.0
 40
0.0
 40
0.0
 40
0.0
 40
0.0059468538273197
 40
0.0059468538273197
 40
0.0059468538273197
 40
0.0059468538273197
 10
-21.00000179638788
 20
20.99999999108395
 30
0.0
 10
-21.00000357969069
 20
21.00037332399465
 30
0.0
 10
-21.00001376180648
 20
21.00201328599715
 30
0.0
 10
-21.00001376180648
 20
21.0020132859973
 30
0.0
  0
SPLINE
  5
7273
330
7256
100
AcDbEntity
  8
0
100
AcDbSpline
210
0.0
220
0.0
230
1.0
 70
     8
 71
     3
 72
     8
 73
     4
 74
     0
 42
0.000000001
 43
0.0000000001
 40
0.2841668410048253
 40
0.2841668410048253
 40
0.2841668410048253
 40
0.2841668410048253
 40
0.2848424779321553
 40
0.2848424779321553
 40
0.2848424779321553
 40
0.2848424779321553
 10
-23.6016719417626
 20
23.55888414910857
 30
0.0
 10
-23.6032005722232
 20
23.56011194545146
 30
0.0
 10
-23.604681856351
 20
23.56130311343127
 30
0.0
 10
-23.60610301841199
 20
23.56244730639216
 30
0.0
  0
SPLINE
  5
7274
330
7256
100
AcDbEntity
  8
0
100
AcDbSpline
210
0.0
220
0.0
230
1.0
 70
     8
 71
     3
 72
     8
 73
     4
 74
     0
 42
0.000000001
 43
0.0000000001
 40
0.0184884793834463
 40
0.0184884793834463
 40
0.0184884793834463
 40
0.0184884793834463
 40
0.0189064975921527
 40
0.0189064975921527
 40
0.0189064975921527
 40
0.0189064975921527
 10
-23.60495614551607
 20
23.56158914302476
 30
0.0
 10
-23.60533752352285
 20
23.56188449227675
 30
0.0
 10
-23.60571514907667
 20
23.5621769310687
 30
0.0
 10
-23.60608753399283
 20
23.562465334776
 30
0.0
  0
ARC
  5
7275
330
7256
100
AcDbEntity
  8
0
100
AcDbCircle
 10
-16.99999999999998
 20
2.0
 30
0.0
 40
4.000000000000001
100
AcDbArc
 50
180.0
 51
270.0
  0
ARC
  5
7276
330
7256
100
AcDbEntity
  8
0
100
AcDbCircle
 10
-16.99999999999998
 20
2.0
 30
0.0
 40
2.000000000000001
100
AcDbArc
 50
180.0
 51
270.0000000000001
  0
ARC
  5
7277
330
7256
100
AcDbEntity
  8
0
100
AcDbCircle
 10
16.99999999999998
 20
2.0
 30
0.0
 40
4.000000000000001
100
AcDbArc
 50
269.9999999999999
 51
0.0
  0
LINE
  5
7278
330
7256
100
AcDbEntity
  8
0
100
AcDbLine
 10
23.60606060606067
 20
23.56249999999998
 30
0.0
 11
60.50000000000007
 21
53.99999999999998
 31
0.0
  0
LINE
  5
7279
330
7256
100
AcDbEntity
  8
0
100
AcDbLine
 10
18.99999999999999
 20
21.0
 30
0.0
 11
19.0
 21
53.99999999999998
 31
0.0
  0
LINE
  5
727A
330
7256
100
AcDbEntity
  8
0
100
AcDbLine
 10
20.99999999999999
 20
21.0
 30
0.0
 11
18.99999999999999
 21
21.0
 31
0.0
  0
LINE
  5
727B
330
7256
100
AcDbEntity
  8
0
100
AcDbLine
 10
21.0
 20
53.99999999999998
 30
0.0
 11
20.99999999999999
 21
21.0
 31
0.0
  0
LINE
  5
727C
330
7256
100
AcDbEntity
  8
0
100
AcDbLine
 10
21.0
 20
53.99999999999998
 30
0.0
 11
19.0
 21
53.99999999999998
 31
0.0
  0
LINE
  5
727D
330
7256
100
AcDbEntity
  8
0
100
AcDbLine
 10
19.0
 20
53.99999999999998
 30
0.0
 11
19.0
 21
131.0
 31
0.0
  0
LINE
  5
727E
330
7256
100
AcDbEntity
  8
0
100
AcDbLine
 10
21.0
 20
131.0
 30
0.0
 11
21.0
 21
53.99999999999998
 31
0.0
  0
LINE
  5
727F
330
7256
100
AcDbEntity
  8
0
100
AcDbLine
 10
19.0
 20
131.0
 30
0.0
 11
21.0
 21
131.0
 31
0.0
  0
LINE
  5
7280
330
7256
100
AcDbEntity
  8
0
100
AcDbLine
 10
20.99999999999999
 20
21.0
 30
0.0
 11
20.99999999999999
 21
1.999999999999999
 31
0.0
  0
LINE
  5
7281
330
7256
100
AcDbEntity
  8
0
100
AcDbLine
 10
18.99999999999998
 20
2.0
 30
0.0
 11
18.99999999999999
 21
21.0
 31
0.0
  0
ARC
  5
7282
330
7256
100
AcDbEntity
  8
0
100
AcDbCircle
 10
16.99999999999998
 20
2.0
 30
0.0
 40
2.000000000000001
100
AcDbArc
 50
269.9999999999999
 51
0.0
  0
LINE
  5
7283
330
7256
100
AcDbEntity
  8
0
100
AcDbLine
 10
22.99999999999999
 20
131.0
 30
0.0
 11
21.00000000000001
 21
131.0
 31
0.0
  0
LINE
  5
7284
330
7256
100
AcDbEntity
  8
0
100
AcDbLine
 10
60.50000000000007
 20
53.99999999999998
 30
0.0
 11
60.5
 21
131.0
 31
0.0
  0
LINE
  5
7285
330
7256
100
AcDbEntity
  8
0
100
AcDbLine
 10
60.5
 20
131.0
 30
0.0
 11
22.99999999999999
 21
131.0
 31
0.0
  0
CIRCLE
  5
7286
330
7256
100
AcDbEntity
  8
0
100
AcDbCircle
 10
41.0
 20
111.0
 30
0.0
 40
6.5
  0
CIRCLE
  5
7287
330
7256
100
AcDbEntity
  8
0
100
AcDbCircle
 10
52.00000000000001
 20
116.0
 30
0.0
 40
2.5
  0
LINE
  5
7288
330
7256
100
AcDbEntity
  8
0
100
AcDbLine
 10
-60.50000000000007
 20
53.99999999999998
 30
0.0
 11
-23.60606060606067
 21
23.56249999999998
 31
0.0
  0
LINE
  5
7289
330
7256
100
AcDbEntity
  8
0
100
AcDbLine
 10
-19.0
 20
53.99999999999998
 30
0.0
 11
-18.99999999999999
 21
21.0
 31
0.0
  0
LINE
  5
728A
330
7256
100
AcDbEntity
  8
0
100
AcDbLine
 10
-21.0
 20
53.99999999999998
 30
0.0
 11
-19.0
 21
53.99999999999998
 31
0.0
  0
LINE
  5
728B
330
7256
100
AcDbEntity
  8
0
100
AcDbLine
 10
-20.99999999999999
 20
21.0
 30
0.0
 11
-21.0
 21
53.99999999999998
 31
0.0
  0
LINE
  5
728C
330
7256
100
AcDbEntity
  8
0
100
AcDbLine
 10
-18.99999999999999
 20
21.0
 30
0.0
 11
-20.99999999999999
 21
21.0
 31
0.0
  0
LINE
  5
728D
330
7256
100
AcDbEntity
  8
0
100
AcDbLine
 10
-19.0
 20
131.0
 30
0.0
 11
-19.0
 21
53.99999999999998
 31
0.0
  0
LINE
  5
728E
330
7256
100
AcDbEntity
  8
0
100
AcDbLine
 10
-21.0
 20
131.0
 30
0.0
 11
-19.0
 21
131.0
 31
0.0
  0
LINE
  5
728F
330
7256
100
AcDbEntity
  8
0
100
AcDbLine
 10
-21.0
 20
53.99999999999998
 30
0.0
 11
-21.0
 21
131.0
 31
0.0
  0
CIRCLE
  5
7290
330
7256
100
AcDbEntity
  8
0
100
AcDbCircle
 10
-41.0
 20
61.0
 30
0.0
 40
6.5
  0
CIRCLE
  5
7291
330
7256
100
AcDbEntity
  8
0
100
AcDbCircle
 10
41.0
 20
61.0
 30
0.0
 40
6.5
  0
CIRCLE
  5
7292
330
7256
100
AcDbEntity
  8
0
100
AcDbCircle
 10
-41.0
 20
111.0
 30
0.0
 40
6.5
  0
CIRCLE
  5
7293
330
7256
100
AcDbEntity
  8
0
100
AcDbCircle
 10
-30.0
 20
46.0
 30
0.0
 40
2.5
  0
CIRCLE
  5
7294
330
7256
100
AcDbEntity
  8
0
100
AcDbCircle
 10
-30.0
 20
66.0
 30
0.0
 40
2.5
  0
CIRCLE
  5
7295
330
7256
100
AcDbEntity
  8
0
100
AcDbCircle
 10
-30.0
 20
86.0
 30
0.0
 40
2.5
  0
CIRCLE
  5
7296
330
7256
100
AcDbEntity
  8
0
100
AcDbCircle
 10
-30.0
 20
106.0
 30
0.0
 40
2.5
  0
CIRCLE
  5
7297
330
7256
100
AcDbEntity
  8
0
100
AcDbCircle
 10
30.0
 20
46.0
 30
0.0
 40
2.5
  0
CIRCLE
  5
7298
330
7256
100
AcDbEntity
  8
0
100
AcDbCircle
 10
30.0
 20
66.0
 30
0.0
 40
2.5
  0
CIRCLE
  5
7299
330
7256
100
AcDbEntity
  8
0
100
AcDbCircle
 10
30.0
 20
86.0
 30
0.0
 40
2.5
  0
CIRCLE
  5
729A
330
7256
100
AcDbEntity
  8
0
100
AcDbCircle
 10
30.0
 20
106.0
 30
0.0
 40
2.5
  0
CIRCLE
  5
729B
330
7256
100
AcDbEntity
  8
0
100
AcDbCircle
 10
-30.0
 20
126.0
 30
0.0
 40
2.5
  0
CIRCLE
  5
729C
330
7256
100
AcDbEntity
  8
0
100
AcDbCircle
 10
30.0
 20
126.0
 30
0.0
 40
2.5
  0
CIRCLE
  5
729D
330
7256
100
AcDbEntity
  8
0
100
AcDbCircle
 10
-52.00000000000001
 20
56.0
 30
0.0
 40
2.5
  0
CIRCLE
  5
729E
330
7256
100
AcDbEntity
  8
0
100
AcDbCircle
 10
-52.00000000000001
 20
76.0
 30
0.0
 40
2.5
  0
CIRCLE
  5
729F
330
7256
100
AcDbEntity
  8
0
100
AcDbCircle
 10
-52.00000000000001
 20
96.0
 30
0.0
 40
2.5
  0
CIRCLE
  5
72A0
330
7256
100
AcDbEntity
  8
0
100
AcDbCircle
 10
52.00000000000001
 20
56.0
 30
0.0
 40
2.5
  0
CIRCLE
  5
72A1
330
7256
100
AcDbEntity
  8
0
100
AcDbCircle
 10
52.00000000000001
 20
76.0
 30
0.0
 40
2.5
  0
CIRCLE
  5
72A2
330
7256
100
AcDbEntity
  8
0
100
AcDbCircle
 10
52.00000000000001
 20
96.0
 30
0.0
 40
2.5
  0
CIRCLE
  5
72A3
330
7256
100
AcDbEntity
  8
0
100
AcDbCircle
 10
-52.00000000000001
 20
116.0
 30
0.0
 40
2.5
  0
LINE
  5
72A4
330
7256
100
AcDbEntity
  8
0
100
AcDbLine
 10
-60.5
 20
131.0
 30
0.0
 11
-22.99999999999999
 21
131.0
 31
0.0
  0
LINE
  5
72A5
330
7256
100
AcDbEntity
  8
0
100
AcDbLine
 10
-60.50000000000007
 20
53.99999999999998
 30
0.0
 11
-60.5
 21
131.0
 31
0.0
  0
LINE
  5
72A6
330
7256
100
AcDbEntity
  8
0
100
AcDbLine
 10
-18.99999999999998
 20
2.0
 30
0.0
 11
-18.99999999999999
 21
21.0
 31
0.0
  0
LINE
  5
72A7
330
7256
100
AcDbEntity
  8
0
100
AcDbLine
 10
-20.99999999999999
 20
21.0
 30
0.0
 11
-20.99999999999999
 21
1.999999999999999
 31
0.0
  0
LINE
  5
72A8
330
7256
100
AcDbEntity
  8
0
100
AcDbLine
 10
-22.99999999999999
 20
131.0
 30
0.0
 11
-21.00000000000001
 21
131.0
 31
0.0
  0
ENDBLK
  5
7258
330
7256
100
AcDbEntity
  8
0
100
AcDbBlockEnd
  0
BLOCK
  5
72AA
330
72A9
100
AcDbEntity
  8
0
100
AcDbBlockBegin
  2
SAE300_38_2-Left
 70
     0
 10
0.0
 20
0.0
 30
0.0
  3
SAE300_38_2-Left
  1

  0
LINE
  5
72AC
330
72A9
100
AcDbEntity
  8
0
100
AcDbLine
 10
2.000000000000003
 20
-2.0
 30
0.0
 11
86.0
 21
-2.0
 31
0.0
  0
LINE
  5
72AD
330
72A9
100
AcDbEntity
  8
0
100
AcDbLine
 10
2.000000000000011
 20
2.000000000000004
 30
0.0
 11
2.000000000000003
 21
-1.999999999999999
 31
0.0
  0
LINE
  5
72AE
330
72A9
100
AcDbEntity
  8
0
100
AcDbLine
 10
86.0
 20
-2.0
 30
0.0
 11
86.0
 21
2.0
 31
0.0
  0
SPLINE
  5
72AF
330
72A9
100
AcDbEntity
  8
0
100
AcDbSpline
210
0.0
220
0.0
230
1.0
 70
     8
 71
     3
 72
    14
 73
    10
 74
     0
 42
0.000000001
 43
0.0000000001
 40
-0.481302653298533
 40
-0.481302653298533
 40
-0.481302653298533
 40
-0.481302653298533
 40
-0.3760960080975408
 40
-0.3760960080975408
 40
-0.3760960080975408
 40
-0.0765284972643798
 40
-0.0765284972643798
 40
-0.0765284972643798
 40
0.0
 40
0.0
 40
0.0
 40
0.0
 10
0.9454120927485888
 20
22.73176011522355
 30
0.0
 10
0.8408297879980219
 20
22.76867618608208
 30
0.0
 10
0.7371129357536904
 20
22.8005409048327
 30
0.0
 10
0.6388614064342204
 20
22.83423666321324
 30
0.0
 10
0.3590980320052126
 20
22.93018264119219
 30
0.0
 10
0.1217220476516218
 20
23.04001612968138
 30
0.0
 10
0.0342615816116014
 20
23.31443386956767
 30
0.0
 10
0.0119186445638895
 20
23.38453752399193
 30
0.0
 10
0.0000045452574072
 20
23.46769665104809
 30
0.0
 10
0.0000000001152103
 20
23.56250000004004
 30
0.0
  0
LINE
  5
72B0
330
72A9
100
AcDbEntity
  8
0
100
AcDbLine
 10
2.000000000000012
 20
23.56249999999999
 30
0.0
 11
2.001382055220188
 21
23.56249999999999
 31
0.0
  0
SPLINE
  5
72B1
330
72A9
100
AcDbEntity
  8
0
100
AcDbSpline
210
0.0
220
0.0
230
1.0
 70
     8
 71
     3
 72
    14
 73
    10
 74
     0
 42
0.000000001
 43
0.0000000001
 40
0.0
 40
0.0
 40
0.0
 40
0.0
 40
0.3435185598316202
 40
0.3435185598316202
 40
0.3435185598316202
 40
0.7570138388623957
 40
0.7570138388623957
 40
0.7570138388623957
 40
1.0
 40
1.0
 40
1.0
 40
1.0
 10
2.00000000000001
 20
23.56249999999999
 30
0.0
 10
2.000036880043587
 20
23.3024934633214
 30
0.0
 10
1.996834397684076
 20
23.07528977169391
 30
0.0
 10
1.998675842003717
 20
22.84407447159825
 30
0.0
 10
2.000892399191029
 20
22.56575927641315
 30
0.0
 10
2.001069140210761
 20
22.27136286305979
 30
0.0
 10
2.001123280650519
 20
21.85786784791781
 30
0.0
 10
2.001155095711745
 20
21.61488184185169
 30
0.0
 10
2.000250522858994
 20
21.3581917505643
 30
0.0
 10
1.999999999992492
 20
21.00000000165264
 30
0.0
  0
LINE
  5
72B2
330
72A9
100
AcDbEntity
  8
0
100
AcDbLine
 10
0.0
 20
23.56249999999997
 30
0.0
 11
2.000000000000013
 21
23.56249999999997
 31
0.0
  0
SPLINE
  5
72B3
330
72A9
100
AcDbEntity
  8
0
100
AcDbSpline
210
0.0
220
0.0
230
1.0
 70
     8
 71
     3
 72
    18
 73
    14
 74
     0
 42
0.000000001
 43
0.0000000001
 40
0.0
 40
0.0
 40
0.0
 40
0.0
 40
0.0048729689918185
 40
0.0048729689918185
 40
0.0070353852603552
 40
0.0070353852603552
 40
0.008799480060812
 40
0.008799480060812
 40
0.0102139458563291
 40
0.0102139458563291
 40
0.0113405576439228
 40
0.0113405576439228
 40
0.0120696049958011
 40
0.0120696049958011
 40
0.0120696049958011
 40
0.0120696049958011
 10
1.999551536864722
 20
20.99999843304857
 30
0.0
 10
1.999501455962558
 20
21.01555880494223
 30
0.0
 10
1.999399312168739
 20
21.03064376067678
 30
0.0
 10
1.999203741561036
 20
21.04934384922803
 30
0.0
 10
1.999136855931937
 20
21.0547368442166
 30
0.0
 10
1.999013999690015
 20
21.0634341461699
 30
0.0
 10
1.998957799348499
 20
21.06697461297417
 30
0.0
 10
1.998866164601691
 20
21.07230592206035
 30
0.0
 10
1.998828541211825
 20
21.07432311448203
 30
0.0
 10
1.998775562005319
 20
21.07703970490695
 30
0.0
 10
1.998757116145999
 20
21.07793179302944
 30
0.0
 10
1.998739470282448
 20
21.07876888308311
 30
0.0
 10
1.998735706105042
 20
21.07894058273826
 30
0.0
 10
1.998735706096206
 20
21.07894058314182
 30
0.0
  0
SPLINE
  5
72B4
330
72A9
100
AcDbEntity
  8
0
100
AcDbSpline
210
0.0
220
0.0
230
1.0
 70
     8
 71
     3
 72
    12
 73
     8
 74
     0
 42
0.000000001
 43
0.0000000001
 40
0.0063238800888141
 40
0.0063238800888141
 40
0.0063238800888141
 40
0.0063238800888141
 40
0.0066536476483146
 40
0.0066536476483146
 40
0.0086398335372608
 40
0.0086398335372608
 40
0.0087253101769924
 40
0.0087253101769924
 40
0.0087253101769924
 40
0.0087253101769924
 10
1.999399054355824
 20
21.02857759079737
 30
0.0
 10
1.999392884053164
 20
21.02884128611559
 30
0.0
 10
1.999387053618876
 20
21.02908881457179
 30
0.0
 10
1.999348675519026
 20
21.03070958022426
 30
0.0
 10
1.99932908954117
 20
21.03149446159755
 30
0.0
 10
1.999327499321471
 20
21.03155858706934
 30
0.0
 10
1.999327466375723
 20
21.03155991428062
 30
0.0
 10
1.999327466389834
 20
21.03155991371217
 30
0.0
  0
SPLINE
  5
72B5
330
72A9
100
AcDbEntity
  8
0
100
AcDbSpline
210
0.0
220
0.0
230
1.0
 70
     8
 71
     3
 72
    32
 73
    28
 74
     0
 42
0.000000001
 43
0.0000000001
 40
0.0045647029608992
 40
0.0045647029608992
 40
0.0045647029608992
 40
0.0045647029608992
 40
0.0070673973695786
 40
0.0070673973695786
 40
0.0097303217838857
 40
0.0097303217838857
 40
0.0113867433947322
 40
0.0113867433947322
 40
0.0131313888536554
 40
0.0131313888536554
 40
0.0155637091406249
 40
0.0155637091406249
 40
0.0212053483485815
 40
0.0212053483485815
 40
0.0381196952421757
 40
0.0381196952421757
 40
0.0891493971390226
 40
0.0891493971390226
 40
0.116404416980098
 40
0.116404416980098
 40
0.1533848185267237
 40
0.1533848185267237
 40
0.1869862962641302
 40
0.1869862962641302
 40
0.2293223818219554
 40
0.2293223818219554
 40
0.2446903970594696
 40
0.2446903970594696
 40
0.2446903970594696
 40
0.2446903970594696
 10
1.999436008012843
 20
21.02343351941082
 30
0.0
 10
1.999332401991369
 20
21.02730062326648
 30
0.0
 10
1.999227677646864
 20
21.03099646887131
 30
0.0
 10
1.998981958201988
 20
21.0391940408188
 30
0.0
 10
1.998837948632231
 20
21.04380863827021
 30
0.0
 10
1.998501707620507
 20
21.05367318634591
 30
0.0
 10
1.998344214518972
 20
21.05811419110076
 30
0.0
 10
1.99797220922696
 20
21.06798641734985
 30
0.0
 10
1.99775361397242
 20
21.07349149188287
 30
0.0
 10
1.997190390125542
 20
21.08684393594153
 30
0.0
 10
1.996826621583864
 20
21.09485302679385
 30
0.0
 10
1.995525606110666
 20
21.12144474463023
 30
0.0
 10
1.994458437597568
 20
21.14020120855441
 30
0.0
 10
1.989568412641935
 20
21.21499817955565
 30
0.0
 10
1.984487681918065
 20
21.27097401658205
 30
0.0
 10
1.957792180317875
 20
21.49421667419376
 30
0.0
 10
1.923084943163166
 20
21.6627707875468
 30
0.0
 10
1.836500242953152
 20
21.90878103228548
 30
0.0
 10
1.799734602330565
 20
21.9926608076395
 30
0.0
 10
1.698969805708209
 20
22.17634684615716
 30
0.0
 10
1.628283814340096
 20
22.27300714666952
 30
0.0
 10
1.483809898095284
 20
22.42613966119414
 30
0.0
 10
1.409903623965765
 20
22.48743021981883
 30
0.0
 10
1.242072314978185
 20
22.60220112005019
 30
0.0
 10
1.146007572491814
 20
22.65141561581821
 30
0.0
 10
1.013496692133598
 20
22.70647319035564
 30
0.0
 10
0.9779688314967213
 20
22.71998437031157
 30
0.0
 10
0.9420912521198586
 20
22.73259712964128
 30
0.0
  0
LINE
  5
72B6
330
72A9
100
AcDbEntity
  8
0
100
AcDbLine
 10
2.000000000000011
 20
2.000000000000003
 30
0.0
 11
2.000000000000011
 21
21.0
 31
0.0
  0
LINE
  5
72B7
330
72A9
100
AcDbEntity
  8
0
100
AcDbLine
 10
2.000000000000001
 20
53.99999999999998
 30
0.0
 11
2.000000000000013
 21
23.56249999999998
 31
0.0
  0
LINE
  5
72B8
330
72A9
100
AcDbEntity
  8
0
100
AcDbLine
 10
0.0
 20
53.99999999999998
 30
0.0
 11
2.000000000000001
 21
53.99999999999998
 31
0.0
  0
LINE
  5
72B9
330
72A9
100
AcDbEntity
  8
0
100
AcDbLine
 10
0.0
 20
23.56249999999997
 30
0.0
 11
0.0
 21
53.99999999999998
 31
0.0
  0
LINE
  5
72BA
330
72A9
100
AcDbEntity
  8
0
100
AcDbLine
 10
86.00000000000001
 20
21.0
 30
0.0
 11
46.00000000000001
 21
53.99999999999998
 31
0.0
  0
LINE
  5
72BB
330
72A9
100
AcDbEntity
  8
0
100
AcDbLine
 10
46.00000000000001
 20
53.99999999999998
 30
0.0
 11
46.0
 21
131.0
 31
0.0
  0
LINE
  5
72BC
330
72A9
100
AcDbEntity
  8
0
100
AcDbLine
 10
2.000000000000001
 20
53.99999999999998
 30
0.0
 11
2.00000000000001
 21
131.0
 31
0.0
  0
LINE
  5
72BD
330
72A9
100
AcDbEntity
  8
0
100
AcDbLine
 10
86.00000000000001
 20
21.0
 30
0.0
 11
86.0
 21
1.999999999999999
 31
0.0
  0
LINE
  5
72BE
330
72A9
100
AcDbEntity
  8
0
100
AcDbLine
 10
4.000000000000003
 20
131.0
 30
0.0
 11
46.0
 21
131.0
 31
0.0
  0
LINE
  5
72BF
330
72A9
100
AcDbEntity
  8
0
100
AcDbLine
 10
0.0
 20
131.0
 30
0.0
 11
2.00000000000001
 21
131.0
 31
0.0
  0
LINE
  5
72C0
330
72A9
100
AcDbEntity
  8
0
100
AcDbLine
 10
0.0
 20
53.99999999999998
 30
0.0
 11
0.0
 21
131.0
 31
0.0
  0
LINE
  5
72C1
330
72A9
100
AcDbEntity
  8
0
100
AcDbLine
 10
2.000000000000007
 20
131.0
 30
0.0
 11
4.000000000000003
 21
131.0
 31
0.0
  0
CIRCLE
  5
72C2
330
72A9
100
AcDbEntity
  8
0
100
AcDbCircle
 10
38.5
 20
45.99999999999997
 30
0.0
 40
2.5
  0
CIRCLE
  5
72C3
330
72A9
100
AcDbEntity
  8
0
100
AcDbCircle
 10
38.5
 20
65.99999999999997
 30
0.0
 40
2.5
  0
CIRCLE
  5
72C4
330
72A9
100
AcDbEntity
  8
0
100
AcDbCircle
 10
38.5
 20
85.99999999999997
 30
0.0
 40
2.5
  0
CIRCLE
  5
72C5
330
72A9
100
AcDbEntity
  8
0
100
AcDbCircle
 10
38.5
 20
106.0
 30
0.0
 40
2.5
  0
CIRCLE
  5
72C6
330
72A9
100
AcDbEntity
  8
0
100
AcDbCircle
 10
38.5
 20
126.0
 30
0.0
 40
2.5
  0
SPLINE
  5
72C7
330
72A9
100
AcDbEntity
  8
0
100
AcDbSpline
210
0.0
220
0.0
230
1.0
 70
     8
 71
     3
 72
     8
 73
     4
 74
     0
 42
0.000000001
 43
0.0000000001
 40
0.0
 40
0.0
 40
0.0
 40
0.0
 40
0.0025091830908775
 40
0.0025091830908775
 40
0.0025091830908775
 40
0.0025091830908775
 10
1.999551536864722
 20
20.99999843304857
 30
0.0
 10
1.999525749269296
 20
21.00801076025789
 30
0.0
 10
1.999486861101086
 20
21.0159000346236
 30
0.0
 10
1.999436008012768
 20
21.02343351941113
 30
0.0
  0
ENDBLK
  5
72AB
330
72A9
100
AcDbEntity
  8
0
100
AcDbBlockEnd
  0
BLOCK
  5
72C9
330
72C8
100
AcDbEntity
  8
0
100
AcDbBlockBegin
  2
SAE300_38_2-Right
 70
     0
 10
0.0
 20
0.0
 30
0.0
  3
SAE300_38_2-Right
  1

  0
SPLINE
  5
72CB
330
72C8
100
AcDbEntity
  8
0
100
AcDbSpline
210
0.0
220
0.0
230
1.0
 70
     8
 71
     3
 72
    14
 73
    10
 74
     0
 42
0.000000001
 43
0.0000000001
 40
0.0
 40
0.0
 40
0.0
 40
0.0
 40
0.3435185598316202
 40
0.3435185598316202
 40
0.3435185598316202
 40
0.7570138388623957
 40
0.7570138388623957
 40
0.7570138388623957
 40
1.0
 40
1.0
 40
1.0
 40
1.0
 10
-2.00000000000001
 20
23.56249999999999
 30
0.0
 10
-2.000036880043587
 20
23.3024934633214
 30
0.0
 10
-1.996834397684076
 20
23.07528977169391
 30
0.0
 10
-1.998675842003717
 20
22.84407447159825
 30
0.0
 10
-2.000892399191029
 20
22.56575927641315
 30
0.0
 10
-2.001069140210761
 20
22.27136286305979
 30
0.0
 10
-2.001123280650519
 20
21.85786784791781
 30
0.0
 10
-2.001155095711745
 20
21.61488184185169
 30
0.0
 10
-2.000250522858994
 20
21.3581917505643
 30
0.0
 10
-1.999999999992492
 20
21.00000000165264
 30
0.0
  0
LINE
  5
72CC
330
72C8
100
AcDbEntity
  8
0
100
AcDbLine
 10
-2.001382055220188
 20
23.56249999999999
 30
0.0
 11
-2.000000000000012
 21
23.56249999999999
 31
0.0
  0
SPLINE
  5
72CD
330
72C8
100
AcDbEntity
  8
0
100
AcDbSpline
210
0.0
220
0.0
230
1.0
 70
     8
 71
     3
 72
    14
 73
    10
 74
     0
 42
0.000000001
 43
0.0000000001
 40
-0.4813026532985694
 40
-0.4813026532985694
 40
-0.4813026532985694
 40
-0.4813026532985694
 40
-0.3760960080975408
 40
-0.3760960080975408
 40
-0.3760960080975408
 40
-0.0765284972643798
 40
-0.0765284972643798
 40
-0.0765284972643798
 40
0.0
 40
0.0
 40
0.0
 40
0.0
 10
-0.9454120927486975
 20
22.73176011522351
 30
0.0
 10
-0.8408297879980937
 20
22.76867618608206
 30
0.0
 10
-0.7371129357537244
 20
22.80054090483269
 30
0.0
 10
-0.6388614064342204
 20
22.83423666321324
 30
0.0
 10
-0.3590980320052126
 20
22.93018264119219
 30
0.0
 10
-0.1217220476516218
 20
23.04001612968138
 30
0.0
 10
-0.0342615816116014
 20
23.31443386956767
 30
0.0
 10
-0.0119186445638895
 20
23.38453752399193
 30
0.0
 10
-0.0000045452574072
 20
23.46769665104809
 30
0.0
 10
-0.0000000001152103
 20
23.56250000004004
 30
0.0
  0
LINE
  5
72CE
330
72C8
100
AcDbEntity
  8
0
100
AcDbLine
 10
-2.000000000000013
 20
23.56249999999997
 30
0.0
 11
0.0
 21
23.56249999999997
 31
0.0
  0
SPLINE
  5
72CF
330
72C8
100
AcDbEntity
  8
0
100
AcDbSpline
210
0.0
220
0.0
230
1.0
 70
     8
 71
     3
 72
    18
 73
    14
 74
     0
 42
0.000000001
 43
0.0000000001
 40
0.0122745142277932
 40
0.0122745142277932
 40
0.0122745142277932
 40
0.0122745142277932
 40
0.0127920464282301
 40
0.0127920464282301
 40
0.0141037003863528
 40
0.0141037003863528
 40
0.0167548256341553
 40
0.0167548256341553
 40
0.0193823576970779
 40
0.0193823576970779
 40
0.022794261975069
 40
0.022794261975069
 40
0.0243497282722599
 40
0.0243497282722599
 40
0.0243497282722599
 40
0.0243497282722599
 10
-1.998735706096144
 20
21.07894058314469
 30
0.0
 10
-1.998735706096878
 20
21.07894058311115
 30
0.0
 10
-1.99873757978867
 20
21.07885507512518
 30
0.0
 10
-1.99875016269635
 20
21.07826537628075
 30
0.0
 10
-1.998770274815809
 20
21.07730771493001
 30
0.0
 10
-1.99885200844565
 20
21.07312577041395
 30
0.0
 10
-1.998935113767031
 20
21.06853206621809
 30
0.0
 10
-1.999099836169677
 20
21.05760675624258
 30
0.0
 10
-1.999183681275138
 20
21.0511722416698
 30
0.0
 10
-1.999352799217423
 20
21.03519887402822
 30
0.0
 10
-1.999432999682791
 20
21.02513427568329
 30
0.0
 10
-1.999514665195459
 20
21.00986254530116
 30
0.0
 10
-1.999535550890754
 20
21.00496535036182
 30
0.0
 10
-1.999551536864722
 20
20.99999843304857
 30
0.0
  0
SPLINE
  5
72D0
330
72C8
100
AcDbEntity
  8
0
100
AcDbSpline
210
0.0
220
0.0
230
1.0
 70
     8
 71
     3
 72
    10
 73
     6
 74
     0
 42
0.000000001
 43
0.0000000001
 40
0.0086744467574297
 40
0.0086744467574297
 40
0.0086744467574297
 40
0.0086744467574297
 40
0.01082284439513
 40
0.01082284439513
 40
0.0110704416344832
 40
0.0110704416344832
 40
0.0110704416344832
 40
0.0110704416344832
 10
-1.999327466389707
 20
21.03155991371724
 30
0.0
 10
-1.999327466386318
 20
21.03155991385384
 30
0.0
 10
-1.999348975063528
 20
21.03070111375122
 30
0.0
 10
-1.999389982694563
 20
21.02896435339932
 30
0.0
 10
-1.999394422797264
 20
21.02877552603262
 30
0.0
 10
-1.999399054355825
 20
21.02857759079731
 30
0.0
  0
SPLINE
  5
72D1
330
72C8
100
AcDbEntity
  8
0
100
AcDbSpline
210
0.0
220
0.0
230
1.0
 70
     8
 71
     3
 72
    28
 73
    24
 74
     0
 42
0.000000001
 43
0.0000000001
 40
0.0
 40
0.0
 40
0.0
 40
0.0
 40
0.0650016965081911
 40
0.0650016965081911
 40
0.1023228294594
 40
0.1023228294594
 40
0.141474732670263
 40
0.141474732670263
 40
0.174898775568684
 40
0.174898775568684
 40
0.2169209502457763
 40
0.2169209502457763
 40
0.2285435375333304
 40
0.2285435375333304
 40
0.2315617301344105
 40
0.2315617301344105
 40
0.2331844380394913
 40
0.2331844380394913
 40
0.2348175231603611
 40
0.2348175231603611
 40
0.2381006826749546
 40
0.2381006826749546
 40
0.2399172831602898
 40
0.2399172831602898
 40
0.2399172831602898
 40
0.2399172831602898
 10
-0.9420912521199621
 20
22.73259712964125
 30
0.0
 10
-1.093841721524149
 20
22.67924926777296
 30
0.0
 10
-1.242353898732594
 20
22.60988799342495
 30
0.0
 10
-1.466451771011119
 20
22.44171617371329
 30
0.0
 10
-1.547407943201615
 20
22.3659414611061
 30
0.0
 10
-1.695446554658416
 20
22.18241413825813
 30
0.0
 10
-1.763061289547763
 20
22.0704074111684
 30
0.0
 10
-1.860492199335542
 20
21.85077450105787
 30
0.0
 10
-1.895809772201122
 20
21.74321482375185
 30
0.0
 10
-1.955908646788753
 20
21.49957863454267
 30
0.0
 10
-1.976603344472318
 20
21.36179295237397
 30
0.0
 10
-1.991707513297369
 20
21.18433171622517
 30
0.0
 10
-1.994292103987324
 20
21.14561037060377
 30
0.0
 10
-1.996716455943025
 20
21.09730495126168
 30
0.0
 10
-1.997173941594153
 20
21.08731478679143
 30
0.0
 10
-1.997791577245306
 20
21.07253849212929
 30
0.0
 10
-1.997992650883361
 20
21.06744982515755
 30
0.0
 10
-1.998347626063029
 20
21.05801751054332
 30
0.0
 10
-1.998502562105731
 20
21.05364736046864
 30
0.0
 10
-1.998885595714439
 20
21.04241229572543
 30
0.0
 10
-1.999046950291065
 20
21.03712212537309
 30
0.0
 10
-1.999276003780368
 20
21.02927074658121
 30
0.0
 10
-1.99935697831253
 20
21.0263714765457
 30
0.0
 10
-1.99943619894928
 20
21.02340522383457
 30
0.0
  0
LINE
  5
72D2
330
72C8
100
AcDbEntity
  8
0
100
AcDbLine
 10
-2.000000000000003
 20
-2.0
 30
0.0
 11
-86.0
 21
-2.0
 31
0.0
  0
LINE
  5
72D3
330
72C8
100
AcDbEntity
  8
0
100
AcDbLine
 10
-2.000000000000011
 20
2.000000000000003
 30
0.0
 11
-2.000000000000011
 21
21.0
 31
0.0
  0
LINE
  5
72D4
330
72C8
100
AcDbEntity
  8
0
100
AcDbLine
 10
-2.000000000000011
 20
2.000000000000004
 30
0.0
 11
-2.000000000000003
 21
-1.999999999999999
 31
0.0
  0
LINE
  5
72D5
330
72C8
100
AcDbEntity
  8
0
100
AcDbLine
 10
-86.0
 20
-2.0
 30
0.0
 11
-86.0
 21
2.0
 31
0.0
  0
LINE
  5
72D6
330
72C8
100
AcDbEntity
  8
0
100
AcDbLine
 10
0.0
 20
53.99999999999998
 30
0.0
 11
0.0
 21
23.56249999999997
 31
0.0
  0
LINE
  5
72D7
330
72C8
100
AcDbEntity
  8
0
100
AcDbLine
 10
-2.000000000000001
 20
53.99999999999998
 30
0.0
 11
0.0
 21
53.99999999999998
 31
0.0
  0
LINE
  5
72D8
330
72C8
100
AcDbEntity
  8
0
100
AcDbLine
 10
-2.000000000000013
 20
23.56249999999998
 30
0.0
 11
-2.000000000000001
 21
53.99999999999998
 31
0.0
  0
LINE
  5
72D9
330
72C8
100
AcDbEntity
  8
0
100
AcDbLine
 10
0.0
 20
53.99999999999998
 30
0.0
 11
0.0
 21
131.0
 31
0.0
  0
CIRCLE
  5
72DA
330
72C8
100
AcDbEntity
  8
0
100
AcDbCircle
 10
-38.50000000000001
 20
115.9999999999999
 30
0.0
 40
2.5
  0
LINE
  5
72DB
330
72C8
100
AcDbEntity
  8
0
100
AcDbLine
 10
-46.00000000000001
 20
53.99999999999998
 30
0.0
 11
-86.00000000000001
 21
21.0
 31
0.0
  0
LINE
  5
72DC
330
72C8
100
AcDbEntity
  8
0
100
AcDbLine
 10
-46.0
 20
131.0
 30
0.0
 11
-46.00000000000001
 21
53.99999999999998
 31
0.0
  0
LINE
  5
72DD
330
72C8
100
AcDbEntity
  8
0
100
AcDbLine
 10
-86.00000000000001
 20
21.0
 30
0.0
 11
-86.0
 21
1.999999999999999
 31
0.0
  0
LINE
  5
72DE
330
72C8
100
AcDbEntity
  8
0
100
AcDbLine
 10
-4.000000000000003
 20
131.0
 30
0.0
 11
-46.0
 21
131.0
 31
0.0
  0
LINE
  5
72DF
330
72C8
100
AcDbEntity
  8
0
100
AcDbLine
 10
-2.000000000000007
 20
131.0
 30
0.0
 11
-4.000000000000003
 21
131.0
 31
0.0
  0
LINE
  5
72E0
330
72C8
100
AcDbEntity
  8
0
100
AcDbLine
 10
0.0
 20
131.0
 30
0.0
 11
-2.00000000000001
 21
131.0
 31
0.0
  0
LINE
  5
72E1
330
72C8
100
AcDbEntity
  8
0
100
AcDbLine
 10
-2.000000000000001
 20
53.99999999999998
 30
0.0
 11
-2.00000000000001
 21
131.0
 31
0.0
  0
CIRCLE
  5
72E2
330
72C8
100
AcDbEntity
  8
0
100
AcDbCircle
 10
-38.50000000000001
 20
35.99999999999998
 30
0.0
 40
2.5
  0
CIRCLE
  5
72E3
330
72C8
100
AcDbEntity
  8
0
100
AcDbCircle
 10
-38.50000000000001
 20
55.99999999999997
 30
0.0
 40
2.5
  0
CIRCLE
  5
72E4
330
72C8
100
AcDbEntity
  8
0
100
AcDbCircle
 10
-38.50000000000001
 20
75.99999999999997
 30
0.0
 40
2.5
  0
CIRCLE
  5
72E5
330
72C8
100
AcDbEntity
  8
0
100
AcDbCircle
 10
-38.50000000000001
 20
95.99999999999997
 30
0.0
 40
2.5
  0
SPLINE
  5
72E6
330
72C8
100
AcDbEntity
  8
0
100
AcDbSpline
210
0.0
220
0.0
230
1.0
 70
     8
 71
     3
 72
    10
 73
     6
 74
     0
 42
0.000000001
 43
0.0000000001
 40
0.0218319711192525
 40
0.0218319711192525
 40
0.0218319711192525
 40
0.0218319711192525
 40
0.022794261975069
 40
0.022794261975069
 40
0.0243497282722599
 40
0.0243497282722599
 40
0.0243497282722599
 40
0.0243497282722599
 10
-1.99943619894928
 20
21.02340522383451
 30
0.0
 10
-1.99945560707748
 20
21.02052806235934
 30
0.0
 10
-1.999473272284348
 20
21.01760316135274
 30
0.0
 10
-1.999514665195459
 20
21.00986254530116
 30
0.0
 10
-1.999535550890754
 20
21.00496535036182
 30
0.0
 10
-1.999551536864722
 20
20.99999843304857
 30
0.0
  0
ENDBLK
  5
72CA
330
72C8
100
AcDbEntity
  8
0
100
AcDbBlockEnd
  0
BLOCK
  5
72E8
330
72E7
100
AcDbEntity
  8
0
100
AcDbBlockBegin
  2
SAE300_38_2-Top
 70
     0
 10
0.0
 20
0.0
 30
0.0
  3
SAE300_38_2-Top
  1

  0
LINE
  5
72EA
330
72E7
100
AcDbEntity
  8
0
100
AcDbLine
 10
19.00000000000001
 20
-2.000000000000007
 30
0.0
 11
19.00000000000001
 21
-2.070206720567477
 31
0.0
  0
SPLINE
  5
72EB
330
72E7
100
AcDbEntity
  8
0
100
AcDbSpline
210
0.0
220
0.0
230
1.0
 70
     8
 71
     3
 72
    11
 73
     7
 74
     0
 42
0.000000001
 43
0.0000000001
 40
-1.0
 40
-1.0
 40
-1.0
 40
-1.0
 40
-0.7994286890740865
 40
-0.7994286890740865
 40
-0.7994286890740865
 40
-0.6533573777220394
 40
-0.6533573777220394
 40
-0.6533573777220394
 40
-0.6533573777220394
 10
19.00000000000001
 20
-2.000000000000015
 30
0.0
 10
18.99999961270328
 20
-1.999093543230704
 30
0.0
 10
19.12633150600516
 20
-1.919863896635004
 30
0.0
 10
19.33607694563292
 20
-1.790687786204704
 30
0.0
 10
19.48882955653776
 20
-1.696611899883751
 30
0.0
 10
19.68837056420376
 20
-1.577391377852315
 30
0.0
 10
19.91982716790684
 20
-1.445337717162994
 30
0.0
  0
SPLINE
  5
72EC
330
72E7
100
AcDbEntity
  8
0
100
AcDbSpline
210
0.0
220
0.0
230
1.0
 70
     8
 71
     3
 72
    10
 73
     6
 74
     0
 42
0.000000001
 43
0.0000000001
 40
0.0
 40
0.0
 40
0.0
 40
0.0
 40
0.0670584163471933
 40
0.0670584163471933
 40
0.1015857294831887
 40
0.1015857294831887
 40
0.1015857294831887
 40
0.1015857294831887
 10
23.58980804090571
 20
-2.000030232669502
 30
0.0
 10
23.39154521940429
 20
-2.000297119480255
 30
0.0
 10
23.18834991658289
 20
-2.001422490698844
 30
0.0
 10
22.87453551170677
 20
-2.013511333004833
 30
0.0
 10
22.7644634388052
 20
-2.01955287173575
 30
0.0
 10
22.65274930209805
 20
-2.030278825407326
 30
0.0
  0
SPLINE
  5
72ED
330
72E7
100
AcDbEntity
  8
0
100
AcDbSpline
210
0.0
220
0.0
230
1.0
 70
     8
 71
     3
 72
    10
 73
     6
 74
     0
 42
0.000000001
 43
0.0000000001
 40
0.058931302210465
 40
0.058931302210465
 40
0.058931302210465
 40
0.058931302210465
 40
0.0599779860532648
 40
0.0599779860532648
 40
0.0663268531267476
 40
0.0663268531267476
 40
0.0663268531267476
 40
0.0663268531267476
 10
21.00026149195247
 20
-3.967645940216836
 30
0.0
 10
21.00024336833411
 20
-3.969383514707629
 30
0.0
 10
21.00022834572034
 20
-3.970951905555582
 30
0.0
 10
21.00012589227622
 20
-3.981754123521464
 30
0.0
 10
21.00006999202725
 20
-3.98956303855659
 30
0.0
 10
21.00002531920676
 20
-4.000000108971983
 30
0.0
  0
SPLINE
  5
72EE
330
72E7
100
AcDbEntity
  8
0
100
AcDbSpline
210
0.0
220
0.0
230
1.0
 70
     8
 71
     3
 72
    34
 73
    30
 74
     0
 42
0.000000001
 43
0.0000000001
 40
0.006057345408035
 40
0.006057345408035
 40
0.006057345408035
 40
0.006057345408035
 40
0.0062396288468757
 40
0.0062396288468757
 40
0.0085854512307836
 40
0.0085854512307836
 40
0.0092114566485334
 40
0.0092114566485334
 40
0.0098395027439165
 40
0.0098395027439165
 40
0.0111070885763168
 40
0.0111070885763168
 40
0.016132570861713
 40
0.016132570861713
 40
0.0230238496048522
 40
0.0230238496048522
 40
0.0436985856325261
 40
0.0436985856325261
 40
0.1057198203684883
 40
0.1057198203684883
 40
0.163840846201293
 40
0.163840846201293
 40
0.1927597695100275
 40
0.1927597695100275
 40
0.2073249174294887
 40
0.2073249174294887
 40
0.2152185788134883
 40
0.2152185788134883
 40
0.2235455910515461
 40
0.2235455910515461
 40
0.2235455910515461
 40
0.2235455910515461
 10
18.99996686903183
 20
-3.998253347924478
 30
0.0
 10
18.99996617741901
 20
-3.998213467611914
 30
0.0
 10
18.9999654595532
 20
-3.998172074242792
 30
0.0
 10
18.9999550931176
 20
-3.997574333039637
 30
0.0
 10
18.99994443505757
 20
-3.996962299266333
 30
0.0
 10
18.99989591800555
 20
-3.994156871191822
 30
0.0
 10
18.99988322455139
 20
-3.993422382222695
 30
0.0
 10
18.99985080938811
 20
-3.991542724647584
 30
0.0
 10
18.999830763189
 20
-3.99037862960803
 30
0.0
 10
18.99976099006198
 20
-3.9863143500315
 30
0.0
 10
18.999701886414
 20
-3.98285461235126
 30
0.0
 10
18.99940248681902
 20
-3.965183560020936
 30
0.0
 10
18.99914316754399
 20
-3.949428659215794
 30
0.0
 10
18.99856513948373
 20
-3.91303194064386
 30
0.0
 10
18.99824498144216
 20
-3.891874685979726
 30
0.0
 10
18.99703172672232
 20
-3.807358824647704
 30
0.0
 10
18.99627370262907
 20
-3.74413378658351
 30
0.0
 10
18.99386230688276
 20
-3.493677643794975
 30
0.0
 10
18.99340174271494
 20
-3.309148433114683
 30
0.0
 10
18.99381531486499
 20
-2.94042991553777
 30
0.0
 10
18.99468304981206
 20
-2.756408627080898
 30
0.0
 10
18.99654093451432
 20
-2.485878009222345
 30
0.0
 10
18.99716765313189
 20
-2.39811301493478
 30
0.0
 10
18.99851669234508
 20
-2.263742067965055
 30
0.0
 10
18.99906254234252
 20
-2.218422887133538
 30
0.0
 10
18.9995000372885
 20
-2.157095535422304
 30
0.0
 10
18.99957906265161
 20
-2.136930042327246
 30
0.0
 10
18.99963008112319
 20
-2.099525511680635
 30
0.0
 10
18.9996007725673
 20
-2.081027400386553
 30
0.0
 10
18.99957591650154
 20
-2.070206720567477
 30
0.0
  0
SPLINE
  5
72EF
330
72E7
100
AcDbEntity
  8
0
100
AcDbSpline
210
0.0
220
0.0
230
1.0
 70
     8
 71
     3
 72
    12
 73
     8
 74
     0
 42
0.000000001
 43
0.0000000001
 40
0.0
 40
0.0
 40
0.0
 40
0.0
 40
0.0073680638588228
 40
0.0073680638588228
 40
0.0094714794519993
 40
0.0094714794519993
 40
0.0106892344272179
 40
0.0106892344272179
 40
0.0106892344272179
 40
0.0106892344272179
 10
18.99996053853829
 20
-3.999985503002876
 30
0.0
 10
19.00000120689116
 20
-3.988738678370949
 30
0.0
 10
19.00005705426692
 20
-3.976817397501054
 30
0.0
 10
19.00011475911463
 20
-3.966829073076978
 30
0.0
 10
19.00012596496188
 20
-3.965004429940848
 30
0.0
 10
19.00013624741426
 20
-3.963340749463752
 30
0.0
 10
19.00013843227567
 20
-3.962989239790011
 30
0.0
 10
19.00013843227562
 20
-3.96298923979794
 30
0.0
  0
LINE
  5
72F0
330
72E7
100
AcDbEntity
  8
0
100
AcDbLine
 10
-19.00000000000001
 20
-2.000000000000007
 30
0.0
 11
-19.00000000000001
 21
-2.070206720566882
 31
0.0
  0
SPLINE
  5
72F1
330
72E7
100
AcDbEntity
  8
0
100
AcDbSpline
210
0.0
220
0.0
230
1.0
 70
     8
 71
     3
 72
    11
 73
     7
 74
     0
 42
0.000000001
 43
0.0000000001
 40
-1.0
 40
-1.0
 40
-1.0
 40
-1.0
 40
-0.7994286890740865
 40
-0.7994286890740865
 40
-0.7994286890740865
 40
-0.6533573777220394
 40
-0.6533573777220394
 40
-0.6533573777220394
 40
-0.6533573777220394
 10
-19.00000000000001
 20
-2.000000000000015
 30
0.0
 10
-18.99999961270328
 20
-1.999093543230704
 30
0.0
 10
-19.12633150600516
 20
-1.919863896635004
 30
0.0
 10
-19.33607694563292
 20
-1.790687786204704
 30
0.0
 10
-19.48882955653776
 20
-1.696611899883751
 30
0.0
 10
-19.68837056420376
 20
-1.577391377852315
 30
0.0
 10
-19.91982716790684
 20
-1.445337717162994
 30
0.0
  0
SPLINE
  5
72F2
330
72E7
100
AcDbEntity
  8
0
100
AcDbSpline
210
0.0
220
0.0
230
1.0
 70
     8
 71
     3
 72
    38
 73
    34
 74
     0
 42
0.000000001
 43
0.0000000001
 40
0.0
 40
0.0
 40
0.0
 40
0.0
 40
0.0038186266425467
 40
0.0038186266425467
 40
0.0092110776791741
 40
0.0092110776791741
 40
0.0200768673398518
 40
0.0200768673398518
 40
0.0329596384876159
 40
0.0329596384876159
 40
0.0591156618309968
 40
0.0591156618309968
 40
0.1345512911891898
 40
0.1345512911891898
 40
0.1766228224882196
 40
0.1766228224882196
 40
0.1976854840912744
 40
0.1976854840912744
 40
0.2080816258287824
 40
0.2080816258287824
 40
0.2107057416532355
 40
0.2107057416532355
 40
0.2126764190468075
 40
0.2126764190468075
 40
0.2137617413268915
 40
0.2137617413268915
 40
0.2143721284250159
 40
0.2143721284250159
 40
0.2152386981516016
 40
0.2152386981516016
 40
0.2164677303409656
 40
0.2164677303409656
 40
0.2175126106647106
 40
0.2175126106647106
 40
0.2175126106647106
 40
0.2175126106647106
 10
-18.99957591650154
 20
-2.070206720566882
 30
0.0
 10
-18.99958731507191
 20
-2.075168900886342
 30
0.0
 10
-18.99959979183396
 20
-2.08204232607478
 30
0.0
 10
-18.99961779112476
 20
-2.100031816289331
 30
0.0
 10
-18.99961861325111
 20
-2.112003662923552
 30
0.0
 10
-18.99954447401501
 20
-2.150334542413129
 30
0.0
 10
-18.99937038823046
 20
-2.179691941549743
 30
0.0
 10
-18.99872413986794
 20
-2.248520977872296
 30
0.0
 10
-18.99825137189138
 20
-2.288793425553979
 30
0.0
 10
-18.99709519548409
 20
-2.409489027650463
 30
0.0
 10
-18.9965247567588
 20
-2.488728512588453
 30
0.0
 10
-18.9943448062774
 20
-2.804300082380693
 30
0.0
 10
-18.99335882245638
 20
-3.043030613668098
 30
0.0
 10
-18.99374426273439
 20
-3.399224442339215
 30
0.0
 10
-18.99426651825757
 20
-3.524913322165548
 30
0.0
 10
-18.99596475148621
 20
-3.715749166621341
 30
0.0
 10
-18.99668842568621
 20
-3.779956345138038
 30
0.0
 10
-18.99801005218051
 20
-3.876351877098621
 30
0.0
 10
-18.99848642034886
 20
-3.908330480612549
 30
0.0
 10
-18.99912257938717
 20
-3.948034712783976
 30
0.0
 10
-18.99925286517673
 20
-3.956022940749511
 30
0.0
 10
-18.99948111886282
 20
-3.969786580202904
 30
0.0
 10
-18.99958025471062
 20
-3.975686901879338
 30
0.0
 10
-18.99972303459057
 20
-3.98409316414732
 30
0.0
 10
-18.99977197860497
 20
-3.986955058567271
 30
0.0
 10
-18.99983350014499
 20
-3.990537656233557
 30
0.0
 10
-18.9998526760957
 20
-3.991651049421422
 30
0.0
 10
-18.99989043467337
 20
-3.993840353840245
 30
0.0
 10
-18.99990591931395
 20
-3.994735446172366
 30
0.0
 10
-18.99993422887024
 20
-3.996371141599241
 30
0.0
 10
-18.99994399876623
 20
-3.996934480173636
 30
0.0
 10
-18.99995814470662
 20
-3.997750324016615
 30
0.0
 10
-18.99996290376835
 20
-3.998024699839888
 30
0.0
 10
-18.99996686903193
 20
-3.998253347930526
 30
0.0
  0
SPLINE
  5
72F3
330
72E7
100
AcDbEntity
  8
0
100
AcDbSpline
210
0.0
220
0.0
230
1.0
 70
     8
 71
     3
 72
    14
 73
    10
 74
     0
 42
0.000000001
 43
0.0000000001
 40
0.0077867807770724
 40
0.0077867807770724
 40
0.0077867807770724
 40
0.0077867807770724
 40
0.008397903347907
 40
0.008397903347907
 40
0.0105249655280355
 40
0.0105249655280355
 40
0.01386449240698
 40
0.01386449240698
 40
0.0184801346726092
 40
0.0184801346726092
 40
0.0184801346726092
 40
0.0184801346726092
 10
-19.00013843227563
 20
-3.962989239795486
 30
0.0
 10
-19.00013843227559
 20
-3.962989239800795
 30
0.0
 10
-19.00013788506599
 20
-3.963077842541115
 30
0.0
 10
-19.00013331027513
 20
-3.963815700413047
 30
0.0
 10
-19.00012394049589
 20
-3.965314845248586
 30
0.0
 10
-19.00009364632097
 20
-3.970424767605066
 30
0.0
 10
-19.00006960355154
 20
-3.974738183521245
 30
0.0
 10
-19.00001543374031
 20
-3.985811781097061
 30
0.0
 10
-18.99998601477898
 20
-3.992940053870228
 30
0.0
 10
-18.99996053853828
 20
-3.999985503002875
 30
0.0
  0
SPLINE
  5
72F4
330
72E7
100
AcDbEntity
  8
0
100
AcDbSpline
210
0.0
220
0.0
230
1.0
 70
     8
 71
     3
 72
    10
 73
     6
 74
     0
 42
0.000000001
 43
0.0000000001
 40
0.0
 40
0.0
 40
0.0
 40
0.0
 40
0.0049906878204968
 40
0.0049906878204968
 40
0.0073950152541431
 40
0.0073950152541431
 40
0.0073950152541431
 40
0.0073950152541431
 10
-21.00002531920677
 20
-4.000000108971984
 30
0.0
 10
-21.00006043540916
 20
-3.991795785335274
 30
0.0
 10
-21.00010543804025
 20
-3.985044489014831
 30
0.0
 10
-21.00019029816878
 20
-3.974913319796392
 30
0.0
 10
-21.00022128444527
 20
-3.971546284384458
 30
0.0
 10
-21.00026242521137
 20
-3.967601975682064
 30
0.0
  0
SPLINE
  5
72F5
330
72E7
100
AcDbEntity
  8
0
100
AcDbSpline
210
0.0
220
0.0
230
1.0
 70
     8
 71
     3
 72
    12
 73
     8
 74
     0
 42
0.000000001
 43
0.0000000001
 40
0.100640725526081
 40
0.100640725526081
 40
0.100640725526081
 40
0.100640725526081
 40
0.121125663542538
 40
0.121125663542538
 40
0.1784064189408264
 40
0.1784064189408264
 40
0.2023979344808637
 40
0.2023979344808637
 40
0.2023979344808637
 40
0.2023979344808637
 10
-22.65225355624021
 20
-2.030463909734625
 30
0.0
 10
-22.71837693379314
 20
-2.024115238889045
 30
0.0
 10
-22.78376124661445
 20
-2.019390814226457
 30
0.0
 10
-23.02830126550992
 20
-2.00540795772852
 30
0.0
 10
-23.20098786187134
 20
-2.002606029120942
 30
0.0
 10
-23.44720089228624
 20
-2.000365144870793
 30
0.0
 10
-23.51887547461095
 20
-2.000125716866962
 30
0.0
 10
-23.58980804090411
 20
-2.000030232669504
 30
0.0
  0
LINE
  5
72F6
330
72E7
100
AcDbEntity
  8
0
100
AcDbLine
 10
-19.0
 20
-2.000000000000007
 30
0.0
 11
-17.0
 21
-2.000000000000003
 31
0.0
  0
LINE
  5
72F7
330
72E7
100
AcDbEntity
  8
0
100
AcDbLine
 10
-18.99999999999999
 20
-86.0
 30
0.0
 11
-16.99999999999998
 21
-86.0
 31
0.0
  0
LINE
  5
72F8
330
72E7
100
AcDbEntity
  8
0
100
AcDbLine
 10
17.00000000000001
 20
-2.000000000000003
 30
0.0
 11
-17.00000000000001
 21
-2.000000000000003
 31
0.0
  0
LINE
  5
72F9
330
72E7
100
AcDbEntity
  8
0
100
AcDbLine
 10
-16.99999999999998
 20
-86.0
 30
0.0
 11
16.99999999999999
 21
-86.0
 31
0.0
  0
CIRCLE
  5
72FA
330
72E7
100
AcDbEntity
  8
0
100
AcDbCircle
 10
0.0
 20
-47.99999999999998
 30
0.0
 40
2.5
  0
CIRCLE
  5
72FB
330
72E7
100
AcDbEntity
  8
0
100
AcDbCircle
 10
0.0
 20
-67.99999999999998
 30
0.0
 40
2.5
  0
LINE
  5
72FC
330
72E7
100
AcDbEntity
  8
0
100
AcDbLine
 10
19.0
 20
-2.000000000000007
 30
0.0
 11
17.0
 21
-2.000000000000003
 31
0.0
  0
LINE
  5
72FD
330
72E7
100
AcDbEntity
  8
0
100
AcDbLine
 10
22.99999999999999
 20
0.0
 30
0.0
 11
60.5
 21
0.0
 31
0.0
  0
ARC
  5
72FE
330
72E7
100
AcDbEntity
  8
0
100
AcDbCircle
 10
23.0
 20
-4.000000000000004
 30
0.0
 40
3.999999999999999
100
AcDbArc
 50
90.00000000000012
 51
180.0
  0
LINE
  5
72FF
330
72E7
100
AcDbEntity
  8
0
100
AcDbLine
 10
18.99999999999999
 20
-86.00000000000001
 30
0.0
 11
19.0
 21
-46.00000000000001
 31
0.0
  0
LINE
  5
7300
330
72E7
100
AcDbEntity
  8
0
100
AcDbLine
 10
20.99999999999999
 20
-86.00000000000001
 30
0.0
 11
18.99999999999999
 21
-86.00000000000001
 31
0.0
  0
LINE
  5
7301
330
72E7
100
AcDbEntity
  8
0
100
AcDbLine
 10
21.0
 20
-46.00000000000001
 30
0.0
 11
20.99999999999999
 21
-86.00000000000001
 31
0.0
  0
LINE
  5
7302
330
72E7
100
AcDbEntity
  8
0
100
AcDbLine
 10
19.0
 20
-46.0
 30
0.0
 11
21.0
 21
-46.0
 31
0.0
  0
LINE
  5
7303
330
72E7
100
AcDbEntity
  8
0
100
AcDbLine
 10
21.00000000000001
 20
-4.000000000000003
 30
0.0
 11
21.0
 21
-46.0
 31
0.0
  0
LINE
  5
7304
330
72E7
100
AcDbEntity
  8
0
100
AcDbLine
 10
19.0
 20
-46.0
 30
0.0
 11
19.0
 21
-4.000000000000003
 31
0.0
  0
LINE
  5
7305
330
72E7
100
AcDbEntity
  8
0
100
AcDbLine
 10
18.99999999999999
 20
-86.0
 30
0.0
 11
16.99999999999998
 21
-86.0
 31
0.0
  0
ARC
  5
7306
330
72E7
100
AcDbEntity
  8
0
100
AcDbCircle
 10
23.0
 20
-4.000000000000004
 30
0.0
 40
1.999999999999997
100
AcDbArc
 50
90.00000000000026
 51
180.0
  0
LINE
  5
7307
330
72E7
100
AcDbEntity
  8
0
100
AcDbLine
 10
60.5
 20
0.0
 30
0.0
 11
60.5
 21
-2.00000000000001
 31
0.0
  0
LINE
  5
7308
330
72E7
100
AcDbEntity
  8
0
100
AcDbLine
 10
60.5
 20
-2.00000000000001
 30
0.0
 11
22.99999999999999
 21
-2.000000000000006
 31
0.0
  0
LINE
  5
7309
330
72E7
100
AcDbEntity
  8
0
100
AcDbLine
 10
-60.5
 20
-2.00000000000001
 30
0.0
 11
-22.99999999999999
 21
-2.000000000000006
 31
0.0
  0
LINE
  5
730A
330
72E7
100
AcDbEntity
  8
0
100
AcDbLine
 10
-19.0
 20
-46.0
 30
0.0
 11
-19.0
 21
-4.000000000000003
 31
0.0
  0
LINE
  5
730B
330
72E7
100
AcDbEntity
  8
0
100
AcDbLine
 10
-21.00000000000001
 20
-4.000000000000003
 30
0.0
 11
-21.0
 21
-46.0
 31
0.0
  0
LINE
  5
730C
330
72E7
100
AcDbEntity
  8
0
100
AcDbLine
 10
-22.99999999999999
 20
0.0
 30
0.0
 11
-60.5
 21
0.0
 31
0.0
  0
LINE
  5
730D
330
72E7
100
AcDbEntity
  8
0
100
AcDbLine
 10
-60.5
 20
0.0
 30
0.0
 11
-60.5
 21
-2.00000000000001
 31
0.0
  0
ARC
  5
730E
330
72E7
100
AcDbEntity
  8
0
100
AcDbCircle
 10
-23.0
 20
-4.000000000000004
 30
0.0
 40
1.999999999999997
100
AcDbArc
 50
0.0
 51
89.99999999999975
  0
ARC
  5
730F
330
72E7
100
AcDbEntity
  8
0
100
AcDbCircle
 10
-23.0
 20
-4.000000000000004
 30
0.0
 40
3.999999999999999
100
AcDbArc
 50
0.0
 51
89.99999999999987
  0
LINE
  5
7310
330
72E7
100
AcDbEntity
  8
0
100
AcDbLine
 10
-19.0
 20
-46.00000000000001
 30
0.0
 11
-18.99999999999999
 21
-86.00000000000001
 31
0.0
  0
LINE
  5
7311
330
72E7
100
AcDbEntity
  8
0
100
AcDbLine
 10
-20.99999999999999
 20
-86.00000000000001
 30
0.0
 11
-21.0
 21
-46.00000000000001
 31
0.0
  0
LINE
  5
7312
330
72E7
100
AcDbEntity
  8
0
100
AcDbLine
 10
-18.99999999999999
 20
-86.00000000000001
 30
0.0
 11
-20.99999999999999
 21
-86.00000000000001
 31
0.0
  0
LINE
  5
7313
330
72E7
100
AcDbEntity
  8
0
100
AcDbLine
 10
-21.0
 20
-46.0
 30
0.0
 11
-19.0
 21
-46.0
 31
0.0
  0
ENDBLK
  5
72E9
330
72E7
100
AcDbEntity
  8
0
100
AcDbBlockEnd
  0
BLOCK
  5
7315
330
7314
100
AcDbEntity
  8
0
100
AcDbBlockBegin
  2
SAE300_38_2-Bottom
 70
     0
 10
0.0
 20
0.0
 30
0.0
  3
SAE300_38_2-Bottom
  1

  0
SPLINE
  5
7317
330
7314
100
AcDbEntity
  8
0
100
AcDbSpline
210
0.0
220
0.0
230
1.0
 70
     8
 71
     3
 72
    14
 73
    10
 74
     0
 42
0.000000001
 43
0.0000000001
 40
0.0
 40
0.0
 40
0.0
 40
0.0
 40
0.3435185598316202
 40
0.3435185598316202
 40
0.3435185598316202
 40
0.7570138388623957
 40
0.7570138388623957
 40
0.7570138388623957
 40
1.0
 40
1.0
 40
1.0
 40
1.0
 10
23.60606060606065
 20
2.00000000000001
 30
0.0
 10
23.28490437776827
 20
2.000036880043587
 30
0.0
 10
22.87245674614589
 20
1.996834397684076
 30
0.0
 10
22.4764618452606
 20
1.998675842003717
 30
0.0
 10
21.9998004907283
 20
2.000892399191029
 30
0.0
 10
21.53725454065867
 20
2.001069140210761
 30
0.0
 10
21.26239142283655
 20
2.001123280650519
 30
0.0
 10
21.10087099630481
 20
2.001155095711745
 30
0.0
 10
20.99999576746969
 20
2.000250522858994
 30
0.0
 10
20.99999999948839
 20
1.999999999992492
 30
0.0
  0
LINE
  5
7318
330
7314
100
AcDbEntity
  8
0
100
AcDbLine
 10
23.58980804090414
 20
2.000000000000013
 30
0.0
 11
23.60606060606067
 21
2.000000000000013
 31
0.0
  0
ARC
  5
7319
330
7314
100
AcDbEntity
  8
0
100
AcDbCircle
 10
23.0
 20
4.000000000000004
 30
0.0
 40
1.999999999999992
100
AcDbArc
 50
180.1766999795614
 51
259.9841446491042
  0
ARC
  5
731A
330
7314
100
AcDbEntity
  8
0
100
AcDbCircle
 10
23.0
 20
4.000000000000004
 30
0.0
 40
3.999999999999994
100
AcDbArc
 50
219.6927749101281
 51
270.0
  0
LINE
  5
731B
330
7314
100
AcDbEntity
  8
0
100
AcDbLine
 10
23.60606060606066
 20
0.0
 30
0.0
 11
23.0
 21
0.0
 31
0.0
  0
SPLINE
  5
731C
330
7314
100
AcDbEntity
  8
0
100
AcDbSpline
210
0.0
220
0.0
230
1.0
 70
     8
 71
     3
 72
    17
 73
    13
 74
     0
 42
0.000000001
 43
0.0000000001
 40
-1.0
 40
-1.0
 40
-1.0
 40
-1.0
 40
-0.7994286890740865
 40
-0.7994286890740865
 40
-0.7994286890740865
 40
-0.3760960080975408
 40
-0.3760960080975408
 40
-0.3760960080975408
 40
-0.0765284972643798
 40
-0.0765284972643798
 40
-0.0765284972643798
 40
0.0
 40
0.0
 40
0.0
 40
0.0
 10
19.00000000000001
 20
2.000000000000015
 30
0.0
 10
18.99999961270328
 20
1.999093543230704
 30
0.0
 10
19.12633150600516
 20
1.919863896635004
 30
0.0
 10
19.33607694563292
 20
1.790687786204704
 30
0.0
 10
19.778772856979
 20
1.518044261594245
 30
0.0
 10
20.61445008345206
 20
1.034207947875546
 30
0.0
 10
21.48107962102995
 20
0.6388614064342204
 30
0.0
 10
22.09434210950079
 20
0.3590980320052126
 30
0.0
 10
22.71765761687042
 20
0.1217220476516218
 30
0.0
 10
23.23393420695738
 20
0.0342615816116014
 30
0.0
 10
23.36582391523131
 20
0.0119186445638895
 30
0.0
 10
23.48832026105622
 20
0.0000045452574072
 30
0.0
 10
23.6060606061109
 20
0.0000000001152103
 30
0.0
  0
LINE
  5
731D
330
7314
100
AcDbEntity
  8
0
100
AcDbLine
 10
23.60606060606065
 20
2.000000000000013
 30
0.0
 11
23.60606060606065
 21
0.0
 31
0.0
  0
SPLINE
  5
731E
330
7314
100
AcDbEntity
  8
0
100
AcDbSpline
210
0.0
220
0.0
230
1.0
 70
     8
 71
     3
 72
    28
 73
    24
 74
     0
 42
0.000000001
 43
0.0000000001
 40
0.069082259011918
 40
0.069082259011918
 40
0.069082259011918
 40
0.069082259011918
 40
0.069537337694515
 40
0.069537337694515
 40
0.0705592775769622
 40
0.0705592775769622
 40
0.0715813611850506
 40
0.0715813611850506
 40
0.0725991042096523
 40
0.0725991042096523
 40
0.0746451822653339
 40
0.0746451822653339
 40
0.0787297326829884
 40
0.0787297326829884
 40
0.083865375438152
 40
0.083865375438152
 40
0.0955614324950407
 40
0.0955614324950407
 40
0.1211256635445956
 40
0.1211256635445956
 40
0.1784064189452835
 40
0.1784064189452835
 40
0.2023979344808677
 40
0.2023979344808677
 40
0.2023979344808677
 40
0.2023979344808677
 10
22.36371670695541
 20
2.0708414708028
 30
0.0
 10
22.36371670696337
 20
2.070841470801187
 30
0.0
 10
22.36380214744611
 20
2.070824147944693
 30
0.0
 10
22.3643836194598
 20
2.070706910031254
 30
0.0
 10
22.365285722351
 20
2.070525432049195
 30
0.0
 10
22.36805655518912
 20
2.069975659406758
 30
0.0
 10
22.36994902274803
 20
2.069602926366597
 30
0.0
 10
22.3743661955038
 20
2.068744968898773
 30
0.0
 10
22.3769152226823
 20
2.06825502785803
 30
0.0
 10
22.38509412283028
 20
2.066704419210982
 30
0.0
 10
22.39131852210634
 20
2.065552216829995
 30
0.0
 10
22.41032146366521
 20
2.062130588048348
 30
0.0
 10
22.4238168920732
 20
2.059823029340678
 30
0.0
 10
22.45405151580317
 20
2.054909058546198
 30
0.0
 10
22.4710606952895
 20
2.052318623663854
 30
0.0
 10
22.52650619138038
 20
2.044365323489089
 30
0.0
 10
22.56492454355553
 20
2.039625143307758
 30
0.0
 10
22.6859533009039
 20
2.026494701272597
 30
0.0
 10
22.76778903112687
 20
2.020304109310283
 30
0.0
 10
23.02830126553645
 20
2.00540795772757
 30
0.0
 10
23.20098786190506
 20
2.0026060291203
 30
0.0
 10
23.44720089231306
 20
2.000365144870689
 30
0.0
 10
23.51887547462414
 20
2.000125716866945
 30
0.0
 10
23.58980804090414
 20
2.000030232669506
 30
0.0
  0
SPLINE
  5
731F
330
7314
100
AcDbEntity
  8
0
100
AcDbSpline
210
0.0
220
0.0
230
1.0
 70
     8
 71
     3
 72
    30
 73
    26
 74
     0
 42
0.000000001
 43
0.0000000001
 40
0.0
 40
0.0
 40
0.0
 40
0.0
 40
0.0049906878088428
 40
0.0049906878088428
 40
0.0087372355705522
 40
0.0087372355705522
 40
0.0097952253356077
 40
0.0097952253356077
 40
0.0104899688878932
 40
0.0104899688878932
 40
0.0114835377092034
 40
0.0114835377092034
 40
0.0123917508534944
 40
0.0123917508534944
 40
0.0135259377146911
 40
0.0135259377146911
 40
0.0151743814054345
 40
0.0151743814054345
 40
0.0177233275903189
 40
0.0177233275903189
 40
0.021477753000169
 40
0.021477753000169
 40
0.0261198062514888
 40
0.0261198062514888
 40
0.0306018019146989
 40
0.0306018019146989
 40
0.0306018019146989
 40
0.0306018019146989
 10
21.00002531920677
 20
4.000000108971985
 30
0.0
 10
21.00006043540908
 20
3.991795785354124
 30
0.0
 10
21.00010543804007
 20
3.985044489043186
 30
0.0
 10
21.00020570056926
 20
3.973074478296803
 30
0.0
 10
21.00025216705203
 20
3.968020206913545
 30
0.0
 10
21.00037082767193
 20
3.958018887027725
 30
0.0
 10
21.00040161077633
 20
3.955539561413861
 30
0.0
 10
21.0004634775451
 20
3.950898298491838
 30
0.0
 10
21.0004911379548
 20
3.948899177807154
 30
0.0
 10
21.0005654582894
 20
3.943776693546558
 30
0.0
 10
21.00061636413295
 20
3.940467859463983
 30
0.0
 10
21.00072033177911
 20
3.934149189063597
 30
0.0
 10
21.00077372346385
 20
3.931079682850623
 30
0.0
 10
21.00089659630259
 20
3.924378859896208
 30
0.0
 10
21.00096786689015
 20
3.92073415031883
 30
0.0
 10
21.00114460639361
 20
3.912180966377989
 30
0.0
 10
21.00125249030751
 20
3.90736843800054
 30
0.0
 10
21.00152755708897
 20
3.895853857272726
 30
0.0
 10
21.00169749326438
 20
3.889446306149424
 30
0.0
 10
21.00210476728382
 20
3.875140055002676
 30
0.0
 10
21.0023398550396
 20
3.867834575119819
 30
0.0
 10
21.00278976725596
 20
3.854669012846343
 30
0.0
 10
21.00298851217547
 20
3.849467628976656
 30
0.0
 10
21.00322997974763
 20
3.843272573679059
 30
0.0
 10
21.00328099785215
 20
3.84205725131628
 30
0.0
 10
21.00328099785159
 20
3.84205725133004
 30
0.0
  0
SPLINE
  5
7320
330
7314
100
AcDbEntity
  8
0
100
AcDbSpline
210
0.0
220
0.0
230
1.0
 70
     8
 71
     3
 72
     8
 73
     4
 74
     0
 42
0.000000001
 43
0.0000000001
 40
0.0
 40
0.0
 40
0.0
 40
0.0
 40
0.0004151367481934
 40
0.0004151367481934
 40
0.0004151367481934
 40
0.0004151367481934
 10
21.00002109558387
 20
4.000000267145736
 30
0.0
 10
21.00001411393832
 20
3.999222903659289
 30
0.0
 10
21.00000714111357
 20
3.998428973613304
 30
0.0
 10
21.00000008478673
 20
3.997615301486121
 30
0.0
  0
CIRCLE
  5
7321
330
7314
100
AcDbEntity
  8
0
100
AcDbCircle
 10
0.0
 20
67.99999999999998
 30
0.0
 40
2.5
  0
CIRCLE
  5
7322
330
7314
100
AcDbEntity
  8
0
100
AcDbCircle
 10
0.0
 20
47.99999999999998
 30
0.0
 40
2.5
  0
LINE
  5
7323
330
7314
100
AcDbEntity
  8
0
100
AcDbLine
 10
17.00000000000001
 20
2.000000000000003
 30
0.0
 11
-17.00000000000001
 21
2.000000000000003
 31
0.0
  0
LINE
  5
7324
330
7314
100
AcDbEntity
  8
0
100
AcDbLine
 10
16.99999999999999
 20
86.0
 30
0.0
 11
-16.99999999999998
 21
86.0
 31
0.0
  0
SPLINE
  5
7325
330
7314
100
AcDbEntity
  8
0
100
AcDbSpline
210
0.0
220
0.0
230
1.0
 70
     8
 71
     3
 72
    17
 73
    13
 74
     0
 42
0.000000001
 43
0.0000000001
 40
-1.0
 40
-1.0
 40
-1.0
 40
-1.0
 40
-0.7994286890740865
 40
-0.7994286890740865
 40
-0.7994286890740865
 40
-0.3760960080975408
 40
-0.3760960080975408
 40
-0.3760960080975408
 40
-0.0765284972643798
 40
-0.0765284972643798
 40
-0.0765284972643798
 40
0.0
 40
0.0
 40
0.0
 40
0.0
 10
-19.00000000000001
 20
2.000000000000015
 30
0.0
 10
-18.99999961270328
 20
1.999093543230704
 30
0.0
 10
-19.12633150600516
 20
1.919863896635004
 30
0.0
 10
-19.33607694563292
 20
1.790687786204704
 30
0.0
 10
-19.778772856979
 20
1.518044261594245
 30
0.0
 10
-20.61445008345206
 20
1.034207947875546
 30
0.0
 10
-21.48107962102995
 20
0.6388614064342204
 30
0.0
 10
-22.09434210950079
 20
0.3590980320052126
 30
0.0
 10
-22.71765761687042
 20
0.1217220476516218
 30
0.0
 10
-23.23393420695738
 20
0.0342615816116014
 30
0.0
 10
-23.36582391523131
 20
0.0119186445638895
 30
0.0
 10
-23.48832026105622
 20
0.0000045452574072
 30
0.0
 10
-23.6060606061109
 20
0.0000000001152103
 30
0.0
  0
LINE
  5
7326
330
7314
100
AcDbEntity
  8
0
100
AcDbLine
 10
-23.0
 20
0.0
 30
0.0
 11
-23.60606060606066
 21
0.0
 31
0.0
  0
ARC
  5
7327
330
7314
100
AcDbEntity
  8
0
100
AcDbCircle
 10
-23.0
 20
4.000000000000004
 30
0.0
 40
3.999999999999994
100
AcDbArc
 50
270.0
 51
320.3072250898718
  0
ARC
  5
7328
330
7314
100
AcDbEntity
  8
0
100
AcDbCircle
 10
-23.0
 20
4.000000000000004
 30
0.0
 40
1.999999999999992
100
AcDbArc
 50
280.015855350895
 51
359.8269243556819
  0
LINE
  5
7329
330
7314
100
AcDbEntity
  8
0
100
AcDbLine
 10
-23.60606060606067
 20
2.000000000000013
 30
0.0
 11
-23.58980804090574
 21
2.000000000000013
 31
0.0
  0
SPLINE
  5
732A
330
7314
100
AcDbEntity
  8
0
100
AcDbSpline
210
0.0
220
0.0
230
1.0
 70
     8
 71
     3
 72
    14
 73
    10
 74
     0
 42
0.000000001
 43
0.0000000001
 40
0.0
 40
0.0
 40
0.0
 40
0.0
 40
0.3435185598316202
 40
0.3435185598316202
 40
0.3435185598316202
 40
0.7570138388623957
 40
0.7570138388623957
 40
0.7570138388623957
 40
1.0
 40
1.0
 40
1.0
 40
1.0
 10
-23.60606060606065
 20
2.00000000000001
 30
0.0
 10
-23.28490437776827
 20
2.000036880043587
 30
0.0
 10
-22.87245674614589
 20
1.996834397684076
 30
0.0
 10
-22.4764618452606
 20
1.998675842003717
 30
0.0
 10
-21.9998004907283
 20
2.000892399191029
 30
0.0
 10
-21.53725454065867
 20
2.001069140210761
 30
0.0
 10
-21.26239142283655
 20
2.001123280650519
 30
0.0
 10
-21.10087099630481
 20
2.001155095711745
 30
0.0
 10
-20.99999576746969
 20
2.000250522858994
 30
0.0
 10
-20.99999999948839
 20
1.999999999992492
 30
0.0
  0
LINE
  5
732B
330
7314
100
AcDbEntity
  8
0
100
AcDbLine
 10
-23.60606060606065
 20
0.0
 30
0.0
 11
-23.60606060606065
 21
2.000000000000013
 31
0.0
  0
SPLINE
  5
732C
330
7314
100
AcDbEntity
  8
0
100
AcDbSpline
210
0.0
220
0.0
230
1.0
 70
     8
 71
     3
 72
    28
 73
    24
 74
     0
 42
0.000000001
 43
0.0000000001
 40
0.0357732034645055
 40
0.0357732034645055
 40
0.0357732034645055
 40
0.0357732034645055
 40
0.0390422754012181
 40
0.0390422754012181
 40
0.0452611505854958
 40
0.0452611505854958
 40
0.0483374927358268
 40
0.0483374927358268
 40
0.051420878318775
 40
0.051420878318775
 40
0.0529575421835803
 40
0.0529575421835803
 40
0.0545062598467025
 40
0.0545062598467025
 40
0.055276864019752
 40
0.055276864019752
 40
0.0560490424516338
 40
0.0560490424516338
 40
0.0568196218264646
 40
0.0568196218264646
 40
0.0599779860770558
 40
0.0599779860770558
 40
0.0663268531273336
 40
0.0663268531273336
 40
0.0663268531273336
 40
0.0663268531273336
 10
-21.0032809978516
 20
3.842057251330058
 30
0.0
 10
-21.00328099784995
 20
3.842057251370287
 30
0.0
 10
-21.0032537030872
 20
3.842715126943446
 30
0.0
 10
-21.00307566835748
 20
3.847192838391552
 30
0.0
 10
-21.00281926780185
 20
3.853659085459972
 30
0.0
 10
-21.00230490579876
 20
3.868952896226779
 30
0.0
 10
-21.00211373391941
 20
3.874953170101862
 30
0.0
 10
-21.00171824156426
 20
3.888620144444402
 30
0.0
 10
-21.00151123845696
 20
3.896381734322998
 30
0.0
 10
-21.00120926591396
 20
3.909288426904335
 30
0.0
 10
-21.00110914435514
 20
3.913838540548328
 30
0.0
 10
-21.00091412424657
 20
3.923413605006655
 30
0.0
 10
-21.00081699723888
 20
3.928569999400981
 30
0.0
 10
-21.00068438691543
 20
3.936297116802427
 30
0.0
 10
-21.00064189432736
 20
3.938896185552664
 30
0.0
 10
-21.00056372806251
 20
3.943909394697709
 30
0.0
 10
-21.00052749019625
 20
3.946359799759355
 30
0.0
 10
-21.00046356990932
 20
3.950879019835555
 30
0.0
 10
-21.00043532218903
 20
3.952983957969525
 30
0.0
 10
-21.00030935106639
 20
3.962745420002646
 30
0.0
 10
-21.00025759964945
 20
3.96786750636862
 30
0.0
 10
-21.00012589227592
 20
3.981754123572755
 30
0.0
 10
-21.00006999202709
 20
3.989563038596002
 30
0.0
 10
-21.00002531920677
 20
4.000000108971986
 30
0.0
  0
SPLINE
  5
732D
330
7314
100
AcDbEntity
  8
0
100
AcDbSpline
210
0.0
220
0.0
230
1.0
 70
     8
 71
     3
 72
    24
 73
    20
 74
     0
 42
0.000000001
 43
0.0000000001
 40
0.0
 40
0.0
 40
0.0
 40
0.0
 40
0.0670584163471962
 40
0.0670584163471962
 40
0.1176569868969905
 40
0.1176569868969905
 40
0.1255739067915879
 40
0.1255739067915879
 40
0.1275474481328328
 40
0.1275474481328328
 40
0.1295305934998311
 40
0.1295305934998311
 40
0.1305201884539578
 40
0.1305201884539578
 40
0.1315137661721085
 40
0.1315137661721085
 40
0.1325098134752735
 40
0.1325098134752735
 40
0.1331618384275216
 40
0.1331618384275216
 40
0.1331618384275216
 40
0.1331618384275216
 10
-23.58980804090574
 20
2.000030232669503
 30
0.0
 10
-23.39154521940424
 20
2.000297119480256
 30
0.0
 10
-23.18834991658291
 20
2.001422490698844
 30
0.0
 10
-22.82488885260829
 20
2.015423834864324
 30
0.0
 10
-22.66175507992081
 20
2.025387294212458
 30
0.0
 10
-22.46909929756573
 20
2.05254420887168
 30
0.0
 10
-22.44256093928453
 20
2.056642800228162
 30
0.0
 10
-22.41059037062592
 20
2.062112998050991
 30
0.0
 10
-22.40425431168729
 20
2.063224476072286
 30
0.0
 10
-22.3919687514887
 20
2.065433787642214
 30
0.0
 10
-22.38592496599157
 20
2.066549999795624
 30
0.0
 10
-22.37787000871793
 20
2.068072834427903
 30
0.0
 10
-22.37533669889502
 20
2.068558170089779
 30
0.0
 10
-22.37086743184939
 20
2.069423429438959
 30
0.0
 10
-22.36890766937843
 20
2.069807990212289
 30
0.0
 10
-22.36590446859179
 20
2.070401936692431
 30
0.0
 10
-22.36484122715129
 20
2.07061502598247
 30
0.0
 10
-22.36389298434238
 20
2.070805715060781
 30
0.0
 10
-22.3637167148263
 20
2.070841469207667
 30
0.0
 10
-22.36371670695589
 20
2.070841470802701
 30
0.0
  0
LINE
  5
732E
330
7314
100
AcDbEntity
  8
0
100
AcDbLine
 10
-21.00000000000001
 20
2.000000000000011
 30
0.0
 11
-17.0
 21
2.000000000000003
 31
0.0
  0
LINE
  5
732F
330
7314
100
AcDbEntity
  8
0
100
AcDbLine
 10
-16.99999999999998
 20
86.0
 30
0.0
 11
-20.99999999999999
 21
86.0
 31
0.0
  0
LINE
  5
7330
330
7314
100
AcDbEntity
  8
0
100
AcDbLine
 10
-21.0
 20
2.000000000000011
 30
0.0
 11
-20.99999999999999
 21
86.0
 31
0.0
  0
LINE
  5
7331
330
7314
100
AcDbEntity
  8
0
100
AcDbLine
 10
21.00000000000001
 20
2.000000000000011
 30
0.0
 11
17.0
 21
2.000000000000003
 31
0.0
  0
LINE
  5
7332
330
7314
100
AcDbEntity
  8
0
100
AcDbLine
 10
21.0
 20
2.000000000000011
 30
0.0
 11
20.99999999999999
 21
86.0
 31
0.0
  0
LINE
  5
7333
330
7314
100
AcDbEntity
  8
0
100
AcDbLine
 10
16.99999999999998
 20
86.0
 30
0.0
 11
20.99999999999999
 21
86.0
 31
0.0
  0
LINE
  5
7334
330
7314
100
AcDbEntity
  8
0
100
AcDbLine
 10
60.50000000000007
 20
0.0
 30
0.0
 11
23.60606060606067
 21
0.0
 31
0.0
  0
LINE
  5
7335
330
7314
100
AcDbEntity
  8
0
100
AcDbLine
 10
60.50000000000007
 20
2.000000000000001
 30
0.0
 11
60.50000000000007
 21
0.0
 31
0.0
  0
LINE
  5
7336
330
7314
100
AcDbEntity
  8
0
100
AcDbLine
 10
23.60606060606067
 20
2.000000000000013
 30
0.0
 11
60.50000000000007
 21
2.000000000000001
 31
0.0
  0
LINE
  5
7337
330
7314
100
AcDbEntity
  8
0
100
AcDbLine
 10
-60.50000000000007
 20
2.000000000000001
 30
0.0
 11
-23.60606060606067
 21
2.000000000000013
 31
0.0
  0
LINE
  5
7338
330
7314
100
AcDbEntity
  8
0
100
AcDbLine
 10
-60.50000000000007
 20
0.0
 30
0.0
 11
-60.50000000000007
 21
2.000000000000001
 31
0.0
  0
LINE
  5
7339
330
7314
100
AcDbEntity
  8
0
100
AcDbLine
 10
-23.60606060606067
 20
0.0
 30
0.0
 11
-60.50000000000007
 21
0.0
 31
0.0
  0
ENDBLK
  5
7316
330
7314
100
AcDbEntity
  8
0
100
AcDbBlockEnd
  0
BLOCK
  5
733B
330
733A
100
AcDbEntity
  8
0
100
AcDbBlockBegin
  2
SAE300_38_2-ISO
 70
     0
 10
0.0
 20
0.0
 30
0.0
  3
SAE300_38_2-ISO
  1

  0
LINE
  5
733D
330
733A
100
AcDbEntity
  8
0
100
AcDbLine
 10
43.61316156232892
 20
-27.48395890161707
 30
0.0
 11
42.19894800003877
 21
-28.30045548249692
 31
0.0
  0
SPLINE
  5
733E
330
733A
100
AcDbEntity
  8
0
100
AcDbSpline
210
0.0
220
0.0
230
1.0
 70
     8
 71
     3
 72
    14
 73
    10
 74
     0
 42
0.000000001
 43
0.0000000001
 40
0.0
 40
0.0
 40
0.0
 40
0.0
 40
0.3435185598316202
 40
0.3435185598316202
 40
0.3435185598316202
 40
0.7570138388623957
 40
0.7570138388623957
 40
0.7570138388623957
 40
1.0
 40
1.0
 40
1.0
 40
1.0
 10
45.45592468914047
 20
-26.45560620021137
 30
0.0
 10
45.22880686416573
 20
-26.53680422347086
 30
0.0
 10
44.93942684395425
 20
-26.55262681239464
 30
0.0
 10
44.65811406645737
 20
-26.58050083955758
 30
0.0
 10
44.31949624771998
 20
-26.61405296741089
 30
0.0
 10
43.9923018950418
 20
-26.66566519319353
 30
0.0
 10
43.79790603745961
 20
-26.89109216406715
 30
0.0
 10
43.68367135191334
 20
-27.0235619576712
 30
0.0
 10
43.61298142314854
 20
-27.19159710952256
 30
0.0
 10
43.61316156205541
 20
-27.48395890000788
 30
0.0
  0
LINE
  5
733F
330
733A
100
AcDbEntity
  8
0
100
AcDbLine
 10
45.42117666748776
 20
-26.43554442055638
 30
0.0
 11
45.45592468914048
 21
-26.45560620021139
 31
0.0
  0
LINE
  5
7340
330
733A
100
AcDbEntity
  8
0
100
AcDbLine
 10
45.02737512478495
 20
-26.20818299386963
 30
0.0
 11
45.42117666748776
 21
-26.43554442055638
 31
0.0
  0
ELLIPSE
  5
7341
330
733A
100
AcDbEntity
  8
0
100
AcDbEllipse
 10
43.61316156241186
 20
-27.02467957479735
 30
0.0
 11
1.999999999999992
 21
0.0000000000000003
 31
0.0
210
0.0
220
0.0
230
1.0
 40
0.5773502691896258
 41
0.7853981633974457
 42
0.8225763078181564
  0
ELLIPSE
  5
7342
330
733A
100
AcDbEntity
  8
0
100
AcDbEllipse
 10
43.61316156241186
 20
-27.02467957479735
 30
0.0
 11
1.999999999999992
 21
-0.0000000000001194
 31
0.0
210
0.0
220
0.0
230
1.0
 40
0.5773502691896258
 41
0.8225763078183918
 42
2.356194490192599
  0
LINE
  5
7343
330
733A
100
AcDbEntity
  8
0
100
AcDbLine
 10
42.19894800003877
 20
-27.03129773667859
 30
0.0
 11
42.19894800003877
 21
-26.20818299386963
 31
0.0
  0
LINE
  5
7344
330
733A
100
AcDbEntity
  8
0
100
AcDbLine
 10
42.19894800003877
 20
-28.30045548249691
 30
0.0
 11
42.19894800003877
 21
-27.03129773675453
 31
0.0
  0
ELLIPSE
  5
7345
330
733A
100
AcDbEntity
  8
0
100
AcDbEllipse
 10
-17.90512840081775
 20
-64.6345533337807
 30
0.0
 11
-2.5
 21
0.0
 31
0.0
210
0.0
220
0.0
230
1.0
 40
0.5773502691896258
 41
4.425632428173148
 42
5.681921090500457
  0
LINE
  5
7346
330
733A
100
AcDbEntity
  8
0
100
AcDbLine
 10
-18.61223518200432
 20
-78.92324350001591
 30
0.0
 11
-42.65386574234693
 21
-65.04280162424457
 31
0.0
  0
LINE
  5
7347
330
733A
100
AcDbEntity
  8
0
100
AcDbLine
 10
17.80376404910285
 20
-29.72932449912044
 30
0.0
 11
16.74310387732305
 21
-29.11695206342463
 31
0.0
  0
LINE
  5
7348
330
733A
100
AcDbEntity
  8
0
100
AcDbLine
 10
-42.65386574234693
 20
-63.40980846238913
 30
0.0
 11
-18.61223518200432
 21
-77.29025033816046
 31
0.0
  0
ELLIPSE
  5
7349
330
733A
100
AcDbEntity
  8
0
100
AcDbEllipse
 10
-17.90512840081775
 20
-63.00156017192526
 30
0.0
 11
-2.5
 21
0.0000000000000001
 31
0.0
210
0.0
220
0.0
230
1.0
 40
0.5773502691896258
 41
4.425632428173148
 42
8.140738186186027
  0
LINE
  5
734A
330
733A
100
AcDbEntity
  8
0
100
AcDbLine
 10
43.61316156241186
 20
-42.99739393919598
 30
0.0
 11
43.61316156241186
 21
-27.48395890156919
 31
0.0
  0
ELLIPSE
  5
734B
330
733A
100
AcDbEntity
  8
0
100
AcDbEllipse
 10
40.78473443766568
 20
-41.36440077734052
 30
0.0
 11
1.999999999999995
 21
-3.464101615137756
 31
0.0
210
0.0
220
0.0
230
1.0
 40
0.5773502691896249
 41
0.0
 42
0.785398163397451
  0
LINE
  5
734C
330
733A
100
AcDbEntity
  8
0
100
AcDbLine
 10
-18.61223518200432
 20
-77.29025033816046
 30
0.0
 11
-17.19802161963122
 21
-76.47375375723273
 31
0.0
  0
LINE
  5
734D
330
733A
100
AcDbEntity
  8
0
100
AcDbLine
 10
43.61316156241186
 20
-42.99739393919598
 30
0.0
 11
-15.78380805725814
 21
-77.29025033816046
 31
0.0
  0
ELLIPSE
  5
734E
330
733A
100
AcDbEntity
  8
0
100
AcDbEllipse
 10
-18.61223518200432
 20
-75.65725717630501
 30
0.0
 11
2.0
 21
-3.464101615137755
 31
0.0
210
0.0
220
0.0
230
1.0
 40
0.5773502691896259
 41
5.497787143782137
 42
7.068583470577033
  0
LINE
  5
734F
330
733A
100
AcDbEntity
  8
0
100
AcDbLine
 10
71.54387941928056
 20
-16.66537920427686
 30
0.0
 11
72.95809298165365
 21
-15.84888262334913
 31
0.0
  0
LINE
  5
7350
330
733A
100
AcDbEntity
  8
0
100
AcDbLine
 10
45.45592468914048
 20
-26.45560620021139
 30
0.0
 11
71.54387941928056
 21
-16.66537920427686
 31
0.0
  0
ELLIPSE
  5
7351
330
733A
100
AcDbEntity
  8
0
100
AcDbEllipse
 10
59.16951074851592
 20
38.65226415357663
 30
0.0
 11
-3.25
 21
5.62916512459885
 31
0.0
210
0.0
220
0.0
230
1.0
 40
0.577350269189626
 41
0.2193254863005949
 42
2.922267167289197
  0
ELLIPSE
  5
7352
330
733A
100
AcDbEntity
  8
0
100
AcDbEllipse
 10
66.94768534156795
 20
38.24401586311277
 30
0.0
 11
1.250000000000129
 21
-2.165063509461022
 31
0.0
210
0.0
220
0.0
230
1.0
 40
0.5773502691896259
 41
3.742856870268591
 42
5.681921090500106
  0
LINE
  5
7353
330
733A
100
AcDbEntity
  8
0
100
AcDbLine
 10
46.44158868715805
 20
62.33066500048069
 30
0.0
 11
72.95809298165359
 21
47.02135410808581
 31
0.0
  0
LINE
  5
7354
330
733A
100
AcDbEntity
  8
0
100
AcDbLine
 10
72.95809298165365
 20
-15.84888262334913
 30
0.0
 11
72.95809298165359
 21
47.02135410808581
 31
0.0
  0
ELLIPSE
  5
7355
330
733A
100
AcDbEntity
  8
0
100
AcDbEllipse
 10
43.61316156241186
 20
60.69767183862524
 30
0.0
 11
3.999999999999999
 21
-0.0000000000002383
 31
0.0
210
0.0
220
0.0
230
1.0
 40
0.5773502691896259
 41
0.7853981633976926
 42
2.356194490192585
  0
ELLIPSE
  5
7356
330
733A
100
AcDbEntity
  8
0
100
AcDbEllipse
 10
16.38955048672977
 20
35.9986502655615
 30
0.0
 11
1.249999999999871
 21
2.16506350946117
 31
0.0
210
0.0
220
0.0
230
1.0
 40
0.577350269189626
 41
3.742856870268582
 42
5.681921090500121
  0
ELLIPSE
  5
7357
330
733A
100
AcDbEntity
  8
0
100
AcDbEllipse
 10
17.80376404910287
 20
35.18215368463377
 30
0.0
 11
-1.25
 21
-2.165063509461096
 31
0.0
210
0.0
220
0.0
230
1.0
 40
0.577350269189626
 41
0.0
 42
6.283185307179586
  0
LINE
  5
7358
330
733A
100
AcDbEntity
  8
0
100
AcDbLine
 10
-17.19802161963124
 20
-60.96031871960595
 30
0.0
 11
11.08624962783066
 21
-17.68599993043649
 31
0.0
  0
LINE
  5
7359
330
733A
100
AcDbEntity
  8
0
100
AcDbLine
 10
-15.78380805725814
 20
-61.77681530053368
 30
0.0
 11
-17.19802161963124
 21
-60.96031871960595
 31
0.0
  0
LINE
  5
735A
330
733A
100
AcDbEntity
  8
0
100
AcDbLine
 10
12.50046319020376
 20
-18.50249651136421
 30
0.0
 11
-15.78380805725814
 21
-61.77681530053368
 31
0.0
  0
LINE
  5
735B
330
733A
100
AcDbEntity
  8
0
100
AcDbLine
 10
12.50046319020376
 20
-18.50249651136421
 30
0.0
 11
11.08624962783066
 21
-17.68599993043649
 31
0.0
  0
LINE
  5
735C
330
733A
100
AcDbEntity
  8
0
100
AcDbLine
 10
11.08624962783066
 20
-17.68599993043649
 30
0.0
 11
11.08624962783068
 21
45.18423680099843
 31
0.0
  0
LINE
  5
735D
330
733A
100
AcDbEntity
  8
0
100
AcDbLine
 10
12.50046319020378
 20
44.3677402200707
 30
0.0
 11
12.50046319020376
 21
-18.50249651136421
 31
0.0
  0
LINE
  5
735E
330
733A
100
AcDbEntity
  8
0
100
AcDbLine
 10
11.08624962783068
 20
45.18423680099843
 30
0.0
 11
12.50046319020378
 21
44.3677402200707
 31
0.0
  0
LINE
  5
735F
330
733A
100
AcDbEntity
  8
0
100
AcDbLine
 10
-15.78380805725814
 20
-61.77681530053368
 30
0.0
 11
-15.78380805725814
 21
-77.29025033816046
 31
0.0
  0
LINE
  5
7360
330
733A
100
AcDbEntity
  8
0
100
AcDbLine
 10
42.19894800003877
 20
-26.20818299386963
 30
0.0
 11
42.19894800003877
 21
61.51416841955295
 31
0.0
  0
LINE
  5
7361
330
733A
100
AcDbEntity
  8
0
100
AcDbLine
 10
42.19894800003877
 20
61.51416841955295
 30
0.0
 11
12.50046319020378
 21
44.3677402200707
 31
0.0
  0
LINE
  5
7362
330
733A
100
AcDbEntity
  8
0
100
AcDbLine
 10
11.08624962783068
 20
45.18423680099843
 30
0.0
 11
40.78473443766568
 21
62.33066500048067
 31
0.0
  0
LINE
  5
7363
330
733A
100
AcDbEntity
  8
0
100
AcDbLine
 10
-17.19802161963123
 20
-76.47375375723273
 30
0.0
 11
-17.19802161963124
 21
-60.96031871960595
 31
0.0
  0
LINE
  5
7364
330
733A
100
AcDbEntity
  8
0
100
AcDbLine
 10
-18.61223518200432
 20
-77.29025033816046
 30
0.0
 11
-18.61223518200432
 21
-78.92324350001591
 31
0.0
  0
LINE
  5
7365
330
733A
100
AcDbEntity
  8
0
100
AcDbLine
 10
-17.19802161963123
 20
-76.47375375723273
 30
0.0
 11
-15.78380805725814
 21
-77.29025033816046
 31
0.0
  0
ELLIPSE
  5
7366
330
733A
100
AcDbEntity
  8
0
100
AcDbEllipse
 10
-18.61223518200432
 20
-75.65725717630501
 30
0.0
 11
1.000000000000001
 21
-1.732050807568878
 31
0.0
210
0.0
220
0.0
230
1.0
 40
0.5773502691896259
 41
5.497787143782133
 42
7.068583470577033
  0
LINE
  5
7367
330
733A
100
AcDbEntity
  8
0
100
AcDbLine
 10
45.02737512478495
 20
-26.20818299386963
 30
0.0
 11
45.02737512478495
 21
61.51416841955295
 31
0.0
  0
ELLIPSE
  5
7368
330
733A
100
AcDbEntity
  8
0
100
AcDbEllipse
 10
43.61316156241186
 20
60.69767183862524
 30
0.0
 11
-1.999999999999997
 21
-0.0000000000001195
 31
0.0
210
0.0
220
0.0
230
1.0
 40
0.5773502691896258
 41
3.926990816987004
 42
5.497787143781901
  0
LINE
  5
7369
330
733A
100
AcDbEntity
  8
0
100
AcDbLine
 10
72.95809298165359
 20
47.02135410808581
 30
0.0
 11
71.54387941928049
 21
46.20485752715808
 31
0.0
  0
LINE
  5
736A
330
733A
100
AcDbEntity
  8
0
100
AcDbLine
 10
71.54387941928056
 20
-16.66537920427686
 30
0.0
 11
71.54387941928049
 21
46.20485752715808
 31
0.0
  0
LINE
  5
736B
330
733A
100
AcDbEntity
  8
0
100
AcDbLine
 10
42.19894800003877
 20
61.51416841955295
 30
0.0
 11
40.78473443766568
 21
62.33066500048067
 31
0.0
  0
LINE
  5
736C
330
733A
100
AcDbEntity
  8
0
100
AcDbLine
 10
45.02737512478495
 20
61.51416841955295
 30
0.0
 11
46.44158868715805
 21
62.33066500048069
 31
0.0
  0
LINE
  5
736D
330
733A
100
AcDbEntity
  8
0
100
AcDbLine
 10
71.54387941928049
 20
46.20485752715808
 30
0.0
 11
45.02737512478495
 21
61.51416841955295
 31
0.0
  0
ELLIPSE
  5
736E
330
733A
100
AcDbEntity
  8
0
100
AcDbEllipse
 10
57.75529718614279
 20
37.83576757264889
 30
0.0
 11
-3.250000000000003
 21
5.629165124598854
 31
0.0
210
0.0
220
0.0
230
1.0
 40
0.5773502691896258
 41
0.0
 42
6.283185307179586
  0
ELLIPSE
  5
736F
330
733A
100
AcDbEntity
  8
0
100
AcDbEllipse
 10
65.53347177919483
 20
37.42751928218503
 30
0.0
 11
-1.25
 21
2.165063509461096
 31
0.0
210
0.0
220
0.0
230
1.0
 40
0.5773502691896259
 41
0.0
 42
6.283185307179586
  0
LINE
  5
7370
330
733A
100
AcDbEntity
  8
0
100
AcDbLine
 10
-16.61223518200433
 20
-79.12135879144276
 30
0.0
 11
42.78473443766567
 21
-44.82850239247828
 31
0.0
  0
LINE
  5
7371
330
733A
100
AcDbEntity
  8
0
100
AcDbLine
 10
-4.341534688966706
 20
-41.29017381543798
 30
0.0
 11
-42.65386574234693
 21
-63.40980846238913
 31
0.0
  0
ELLIPSE
  5
7372
330
733A
100
AcDbEntity
  8
0
100
AcDbEllipse
 10
-42.65386574234693
 20
-61.77681530053368
 30
0.0
 11
2.000000000000206
 21
-3.464101615137636
 31
0.0
210
0.0
220
0.0
230
1.0
 40
0.5773502691896259
 41
3.926990816986998
 42
5.497787143781897
  0
LINE
  5
7373
330
733A
100
AcDbEntity
  8
0
100
AcDbLine
 10
-44.06807930472002
 20
-60.96031871960594
 30
0.0
 11
-0.9131381741228405
 21
-36.04480184099321
 31
0.0
  0
LINE
  5
7374
330
733A
100
AcDbEntity
  8
0
100
AcDbLine
 10
-45.48229286709311
 20
-60.14382213867822
 30
0.0
 11
-44.06807930472002
 21
-60.96031871960594
 31
0.0
  0
LINE
  5
7375
330
733A
100
AcDbEntity
  8
0
100
AcDbLine
 10
-42.65386574234693
 20
-65.04280162424457
 30
0.0
 11
-42.65386574234693
 21
-63.40980846238913
 31
0.0
  0
ELLIPSE
  5
7376
330
733A
100
AcDbEntity
  8
0
100
AcDbEllipse
 10
-42.65386574234693
 20
-61.77681530053368
 30
0.0
 11
1.000000000000104
 21
-1.732050807568819
 31
0.0
210
0.0
220
0.0
230
1.0
 40
0.5773502691896257
 41
3.926990816986997
 42
5.497787143781897
  0
ELLIPSE
  5
7377
330
733A
100
AcDbEntity
  8
0
100
AcDbEllipse
 10
59.16951074851592
 20
-2.172564892809676
 30
0.0
 11
-3.25
 21
5.62916512459885
 31
0.0
210
0.0
220
0.0
230
1.0
 40
0.577350269189626
 41
0.2193254863005958
 42
2.922267167289195
  0
ELLIPSE
  5
7378
330
733A
100
AcDbEntity
  8
0
100
AcDbEllipse
 10
57.75529718614279
 20
-2.989061473737413
 30
0.0
 11
-3.250000000000003
 21
5.629165124598854
 31
0.0
210
0.0
220
0.0
230
1.0
 40
0.5773502691896258
 41
0.0
 42
6.283185307179586
  0
ELLIPSE
  5
7379
330
733A
100
AcDbEntity
  8
0
100
AcDbEllipse
 10
51.39133615546389
 20
-9.92928241162307
 30
0.0
 11
1.250000000000129
 21
-2.165063509461022
 31
0.0
210
0.0
220
0.0
230
1.0
 40
0.5773502691896259
 41
3.742856870268589
 42
5.681921090500106
  0
ELLIPSE
  5
737A
330
733A
100
AcDbEntity
  8
0
100
AcDbEllipse
 10
51.39133615546389
 20
6.400649206931454
 30
0.0
 11
1.250000000000129
 21
-2.165063509461022
 31
0.0
210
0.0
220
0.0
230
1.0
 40
0.5773502691896259
 41
3.742856870268589
 42
5.681921090500106
  0
ELLIPSE
  5
737B
330
733A
100
AcDbEntity
  8
0
100
AcDbEllipse
 10
51.39133615546389
 20
22.73058082548596
 30
0.0
 11
1.250000000000129
 21
-2.165063509461022
 31
0.0
210
0.0
220
0.0
230
1.0
 40
0.5773502691896259
 41
3.742856870268587
 42
5.681921090500106
  0
ELLIPSE
  5
737C
330
733A
100
AcDbEntity
  8
0
100
AcDbEllipse
 10
51.39133615546389
 20
39.06051244404049
 30
0.0
 11
1.250000000000129
 21
-2.165063509461022
 31
0.0
210
0.0
220
0.0
230
1.0
 40
0.5773502691896259
 41
3.742856870268585
 42
5.681921090500106
  0
ELLIPSE
  5
737D
330
733A
100
AcDbEntity
  8
0
100
AcDbEllipse
 10
49.97712259309077
 20
-10.7457789925508
 30
0.0
 11
-1.25
 21
2.165063509461096
 31
0.0
210
0.0
220
0.0
230
1.0
 40
0.5773502691896259
 41
0.0
 42
6.283185307179586
  0
ELLIPSE
  5
737E
330
733A
100
AcDbEntity
  8
0
100
AcDbEllipse
 10
49.97712259309077
 20
5.584152626003717
 30
0.0
 11
-1.25
 21
2.165063509461096
 31
0.0
210
0.0
220
0.0
230
1.0
 40
0.5773502691896259
 41
0.0
 42
6.283185307179586
  0
ELLIPSE
  5
737F
330
733A
100
AcDbEntity
  8
0
100
AcDbEllipse
 10
49.97712259309077
 20
21.91408424455822
 30
0.0
 11
-1.25
 21
2.165063509461096
 31
0.0
210
0.0
220
0.0
230
1.0
 40
0.5773502691896259
 41
0.0
 42
6.283185307179586
  0
ELLIPSE
  5
7380
330
733A
100
AcDbEntity
  8
0
100
AcDbEllipse
 10
49.97712259309077
 20
38.24401586311275
 30
0.0
 11
-1.25
 21
2.165063509461096
 31
0.0
210
0.0
220
0.0
230
1.0
 40
0.5773502691896259
 41
0.0
 42
6.283185307179586
  0
ELLIPSE
  5
7381
330
733A
100
AcDbEntity
  8
0
100
AcDbEllipse
 10
51.39133615546389
 20
55.39044406259501
 30
0.0
 11
1.250000000000129
 21
-2.165063509461022
 31
0.0
210
0.0
220
0.0
230
1.0
 40
0.5773502691896259
 41
3.742856870268585
 42
5.681921090500106
  0
ELLIPSE
  5
7382
330
733A
100
AcDbEntity
  8
0
100
AcDbEllipse
 10
7.55071572189792
 20
79.06884490949906
 30
0.0
 11
1.25
 21
-2.165063509461096
 31
0.0
210
0.0
220
0.0
230
1.0
 40
0.5773502691896259
 41
0.0
 42
6.283185307179586
  0
ELLIPSE
  5
7383
330
733A
100
AcDbEntity
  8
0
100
AcDbEllipse
 10
8.964929284271034
 20
79.88534149042679
 30
0.0
 11
1.250000000000129
 21
-2.165063509461022
 31
0.0
210
0.0
220
0.0
230
1.0
 40
0.5773502691896257
 41
3.742856870268589
 42
5.681921090500112
  0
ELLIPSE
  5
7384
330
733A
100
AcDbEntity
  8
0
100
AcDbEllipse
 10
49.97712259309077
 20
54.57394748166727
 30
0.0
 11
-1.25
 21
2.165063509461096
 31
0.0
210
0.0
220
0.0
230
1.0
 40
0.5773502691896259
 41
0.0
 42
6.283185307179586
  0
ELLIPSE
  5
7385
330
733A
100
AcDbEntity
  8
0
100
AcDbEllipse
 10
66.94768534156795
 20
-10.7457789925508
 30
0.0
 11
1.250000000000129
 21
-2.165063509461021
 31
0.0
210
0.0
220
0.0
230
1.0
 40
0.5773502691896259
 41
3.742856870268589
 42
5.681921090500106
  0
ELLIPSE
  5
7386
330
733A
100
AcDbEntity
  8
0
100
AcDbEllipse
 10
66.94768534156795
 20
5.584152626003717
 30
0.0
 11
1.250000000000129
 21
-2.165063509461021
 31
0.0
210
0.0
220
0.0
230
1.0
 40
0.5773502691896259
 41
3.742856870268589
 42
5.681921090500106
  0
ELLIPSE
  5
7387
330
733A
100
AcDbEntity
  8
0
100
AcDbEllipse
 10
66.94768534156795
 20
21.91408424455824
 30
0.0
 11
1.250000000000129
 21
-2.165063509461022
 31
0.0
210
0.0
220
0.0
230
1.0
 40
0.5773502691896259
 41
3.742856870268592
 42
5.681921090500106
  0
ELLIPSE
  5
7388
330
733A
100
AcDbEntity
  8
0
100
AcDbEllipse
 10
65.53347177919483
 20
-11.56227557347854
 30
0.0
 11
-1.25
 21
2.165063509461096
 31
0.0
210
0.0
220
0.0
230
1.0
 40
0.5773502691896259
 41
0.0
 42
6.283185307179586
  0
ELLIPSE
  5
7389
330
733A
100
AcDbEntity
  8
0
100
AcDbEllipse
 10
65.53347177919483
 20
4.76765604507598
 30
0.0
 11
-1.25
 21
2.165063509461096
 31
0.0
210
0.0
220
0.0
230
1.0
 40
0.5773502691896259
 41
0.0
 42
6.283185307179586
  0
ELLIPSE
  5
738A
330
733A
100
AcDbEntity
  8
0
100
AcDbEllipse
 10
65.53347177919483
 20
21.09758766363051
 30
0.0
 11
-1.25
 21
2.165063509461096
 31
0.0
210
0.0
220
0.0
230
1.0
 40
0.5773502691896259
 41
0.0
 42
6.283185307179586
  0
LINE
  5
738B
330
733A
100
AcDbEntity
  8
0
100
AcDbLine
 10
-11.21602574114305
 20
28.44870143918072
 30
0.0
 11
-10.5088138971524
 21
27.36668272565015
 31
0.0
  0
LINE
  5
738C
330
733A
100
AcDbEntity
  8
0
100
AcDbLine
 10
-15.78380805725813
 20
-2.172564892809694
 30
0.0
 11
-44.06807930472003
 21
-45.44688368197916
 31
0.0
  0
LINE
  5
738D
330
733A
100
AcDbEntity
  8
0
100
AcDbLine
 10
-17.19802161963123
 20
-1.35606831188197
 30
0.0
 11
-15.78380805725813
 21
-2.172564892809694
 31
0.0
  0
LINE
  5
738E
330
733A
100
AcDbEntity
  8
0
100
AcDbLine
 10
-45.48229286709314
 20
-44.63038710105144
 30
0.0
 11
-17.19802161963123
 21
-1.356068311881966
 31
0.0
  0
LINE
  5
738F
330
733A
100
AcDbEntity
  8
0
100
AcDbLine
 10
-44.06807930472003
 20
-45.44688368197916
 30
0.0
 11
-45.48229286709314
 21
-44.63038710105144
 31
0.0
  0
LINE
  5
7390
330
733A
100
AcDbEntity
  8
0
100
AcDbLine
 10
-15.78380805725812
 20
60.69767183862523
 30
0.0
 11
-15.78380805725813
 21
-2.172564892809694
 31
0.0
  0
LINE
  5
7391
330
733A
100
AcDbEntity
  8
0
100
AcDbLine
 10
-17.19802161963121
 20
61.51416841955295
 30
0.0
 11
-15.78380805725812
 21
60.69767183862523
 31
0.0
  0
LINE
  5
7392
330
733A
100
AcDbEntity
  8
0
100
AcDbLine
 10
-17.19802161963123
 20
-1.35606831188197
 30
0.0
 11
-17.19802161963121
 21
61.51416841955295
 31
0.0
  0
ELLIPSE
  5
7393
330
733A
100
AcDbEntity
  8
0
100
AcDbEllipse
 10
-0.2274588711541048
 20
71.31212739068566
 30
0.0
 11
-3.250000000000004
 21
5.629165124598849
 31
0.0
210
0.0
220
0.0
230
1.0
 40
0.5773502691896258
 41
4.712388980384692
 42
7.853981633974485
  0
ELLIPSE
  5
7394
330
733A
100
AcDbEntity
  8
0
100
AcDbEllipse
 10
1.186754691219009
 20
72.12862397161339
 30
0.0
 11
-3.25
 21
5.629165124598848
 31
0.0
210
0.0
220
0.0
230
0.9999999999999998
 40
0.5773502691896259
 41
0.2193254863005975
 42
1.570796326794896
  0
ELLIPSE
  5
7395
330
733A
100
AcDbEntity
  8
0
100
AcDbEllipse
 10
-8.005633464206134
 20
79.88534149042678
 30
0.0
 11
1.25
 21
-2.165063509461096
 31
0.0
210
0.0
220
0.0
230
1.0
 40
0.5773502691896259
 41
0.0
 42
6.283185307179586
  0
ELLIPSE
  5
7396
330
733A
100
AcDbEntity
  8
0
100
AcDbEllipse
 10
-6.591419901833019
 20
80.70183807135451
 30
0.0
 11
1.25000000000013
 21
-2.165063509461022
 31
0.0
210
0.0
220
0.0
230
1.0
 40
0.5773502691896259
 41
3.742856870268589
 42
5.681921090500111
  0
LINE
  5
7397
330
733A
100
AcDbEntity
  8
0
100
AcDbLine
 10
12.50046319020376
 20
78.66059661903519
 30
0.0
 11
12.50046319020377
 21
80.29358978089065
 31
0.0
  0
ELLIPSE
  5
7398
330
733A
100
AcDbEntity
  8
0
100
AcDbEllipse
 10
11.08624962783067
 20
79.47709319996294
 30
0.0
 11
1.999999999999997
 21
-0.0000000000000002
 31
0.0
210
0.0
220
0.0
230
1.0
 40
0.5773502691896258
 41
5.497787143782137
 42
7.068583470577028
  0
LINE
  5
7399
330
733A
100
AcDbEntity
  8
0
100
AcDbLine
 10
13.91467675257686
 20
77.84410003810748
 30
0.0
 11
13.91467675257686
 21
46.81722996285383
 31
0.0
  0
ELLIPSE
  5
739A
330
733A
100
AcDbEntity
  8
0
100
AcDbEllipse
 10
11.08624962783067
 20
79.47709319996294
 30
0.0
 11
3.999999999999999
 21
-0.0000000000000003
 31
0.0
210
0.0
220
0.0
230
1.0
 40
0.5773502691896258
 41
5.497787143782139
 42
7.068583470577035
  0
LINE
  5
739B
330
733A
100
AcDbEntity
  8
0
100
AcDbLine
 10
12.50046319020377
 20
80.29358978089065
 30
0.0
 11
13.91467675257687
 21
81.11008636181837
 31
0.0
  0
LINE
  5
739C
330
733A
100
AcDbEntity
  8
0
100
AcDbLine
 10
12.50046319020376
 20
78.6605966190352
 30
0.0
 11
13.91467675257686
 21
77.84410003810748
 31
0.0
  0
LINE
  5
739D
330
733A
100
AcDbEntity
  8
0
100
AcDbLine
 10
15.08624962783066
 20
47.49363787775688
 30
0.0
 11
15.08624962783066
 21
79.47709319996294
 31
0.0
  0
LINE
  5
739E
330
733A
100
AcDbEntity
  8
0
100
AcDbLine
 10
-14.01604110429176
 20
95.60290067328551
 30
0.0
 11
12.50046319020377
 21
80.29358978089065
 31
0.0
  0
LINE
  5
739F
330
733A
100
AcDbEntity
  8
0
100
AcDbLine
 10
-14.01604110429181
 20
63.35128572664032
 30
0.0
 11
-14.01604110429176
 21
95.60290067328551
 31
0.0
  0
LINE
  5
73A0
330
733A
100
AcDbEntity
  8
0
100
AcDbLine
 10
-44.06807930472002
 20
-60.96031871960594
 30
0.0
 11
-44.06807930472003
 21
-45.44688368197916
 31
0.0
  0
LINE
  5
73A1
330
733A
100
AcDbEntity
  8
0
100
AcDbLine
 10
-15.78380805725812
 20
60.69767183862523
 30
0.0
 11
13.91467675257686
 21
77.84410003810748
 31
0.0
  0
LINE
  5
73A2
330
733A
100
AcDbEntity
  8
0
100
AcDbLine
 10
-45.48229286709314
 20
-44.63038710105144
 30
0.0
 11
-45.48229286709311
 21
-60.14382213867822
 31
0.0
  0
LINE
  5
73A3
330
733A
100
AcDbEntity
  8
0
100
AcDbLine
 10
12.50046319020376
 20
78.6605966190352
 30
0.0
 11
-17.19802161963121
 21
61.51416841955295
 31
0.0
  0
LINE
  5
73A4
330
733A
100
AcDbEntity
  8
0
100
AcDbLine
 10
13.91467675257687
 20
81.11008636181837
 30
0.0
 11
-12.60182754191866
 21
96.41939725421325
 31
0.0
  0
LINE
  5
73A5
330
733A
100
AcDbEntity
  8
0
100
AcDbLine
 10
-12.60182754191866
 20
96.41939725421325
 30
0.0
 11
-14.01604110429176
 21
95.60290067328551
 31
0.0
  0
ELLIPSE
  5
73A6
330
733A
100
AcDbEntity
  8
0
100
AcDbEllipse
 10
16.38955048672977
 20
-29.32107620865659
 30
0.0
 11
1.249999999999871
 21
2.16506350946117
 31
0.0
210
0.0
220
0.0
230
1.0
 40
0.577350269189626
 41
3.742856870268582
 42
5.681921090500117
  0
ELLIPSE
  5
73A7
330
733A
100
AcDbEntity
  8
0
100
AcDbEllipse
 10
17.80376404910287
 20
-30.13757278958431
 30
0.0
 11
-1.25
 21
-2.165063509461096
 31
0.0
210
0.0
220
0.0
230
1.0
 40
0.577350269189626
 41
0.0
 42
6.283185307179586
  0
ELLIPSE
  5
73A8
330
733A
100
AcDbEntity
  8
0
100
AcDbEllipse
 10
16.38955048672977
 20
-12.99114459010207
 30
0.0
 11
1.249999999999871
 21
2.16506350946117
 31
0.0
210
0.0
220
0.0
230
1.0
 40
0.577350269189626
 41
3.742856870268582
 42
5.681921090500121
  0
ELLIPSE
  5
73A9
330
733A
100
AcDbEntity
  8
0
100
AcDbEllipse
 10
17.80376404910287
 20
-13.80764117102979
 30
0.0
 11
-1.25
 21
-2.165063509461096
 31
0.0
210
0.0
220
0.0
230
1.0
 40
0.577350269189626
 41
0.0
 42
6.283185307179586
  0
ELLIPSE
  5
73AA
330
733A
100
AcDbEntity
  8
0
100
AcDbEllipse
 10
16.38955048672977
 20
3.338787028452454
 30
0.0
 11
1.249999999999871
 21
2.16506350946117
 31
0.0
210
0.0
220
0.0
230
1.0
 40
0.577350269189626
 41
3.742856870268582
 42
5.681921090500118
  0
ELLIPSE
  5
73AB
330
733A
100
AcDbEntity
  8
0
100
AcDbEllipse
 10
17.80376404910287
 20
2.52229044752473
 30
0.0
 11
-1.25
 21
-2.165063509461096
 31
0.0
210
0.0
220
0.0
230
1.0
 40
0.577350269189626
 41
0.0
 42
6.283185307179586
  0
ELLIPSE
  5
73AC
330
733A
100
AcDbEntity
  8
0
100
AcDbEllipse
 10
16.38955048672977
 20
19.66871864700697
 30
0.0
 11
1.249999999999871
 21
2.16506350946117
 31
0.0
210
0.0
220
0.0
230
1.0
 40
0.577350269189626
 41
3.742856870268582
 42
5.681921090500121
  0
ELLIPSE
  5
73AD
330
733A
100
AcDbEntity
  8
0
100
AcDbEllipse
 10
17.80376404910287
 20
18.85222206607924
 30
0.0
 11
-1.25
 21
-2.165063509461096
 31
0.0
210
0.0
220
0.0
230
1.0
 40
0.577350269189626
 41
0.0
 42
6.283185307179586
  0
ELLIPSE
  5
73AE
330
733A
100
AcDbEntity
  8
0
100
AcDbEllipse
 10
-11.89472076073211
 20
-4.826178780824799
 30
0.0
 11
1.249999999999871
 21
2.165063509461171
 31
0.0
210
0.0
220
0.0
230
1.0
 40
0.5773502691896259
 41
3.742856870268582
 42
5.681921090500116
  0
ELLIPSE
  5
73AF
330
733A
100
AcDbEntity
  8
0
100
AcDbEllipse
 10
-10.48050719835901
 20
-5.642675361752522
 30
0.0
 11
1.249999999999999
 21
2.165063509461097
 31
0.0
210
0.0
220
0.0
230
0.9999999999999998
 40
0.5773502691896258
 41
0.0
 42
6.283185307179586
  0
ELLIPSE
  5
73B0
330
733A
100
AcDbEntity
  8
0
100
AcDbEllipse
 10
-11.89472076073211
 20
11.50375283772972
 30
0.0
 11
1.249999999999871
 21
2.165063509461171
 31
0.0
210
0.0
220
0.0
230
1.0
 40
0.5773502691896259
 41
3.742856870268582
 42
5.681921090500117
  0
ELLIPSE
  5
73B1
330
733A
100
AcDbEntity
  8
0
100
AcDbEllipse
 10
-10.48050719835901
 20
10.687256256802
 30
0.0
 11
1.249999999999999
 21
2.165063509461097
 31
0.0
210
0.0
220
0.0
230
0.9999999999999998
 40
0.5773502691896258
 41
0.0
 42
6.283185307179586
  0
ELLIPSE
  5
73B2
330
733A
100
AcDbEntity
  8
0
100
AcDbEllipse
 10
-11.89472076073211
 20
27.83368445628426
 30
0.0
 11
1.249999999999871
 21
2.165063509461171
 31
0.0
210
0.0
220
0.0
230
1.0
 40
0.5773502691896259
 41
3.742856870268582
 42
5.681921090500121
  0
ELLIPSE
  5
73B3
330
733A
100
AcDbEntity
  8
0
100
AcDbEllipse
 10
-10.48050719835901
 20
27.01718787535652
 30
0.0
 11
1.249999999999999
 21
2.165063509461097
 31
0.0
210
0.0
220
0.0
230
0.9999999999999998
 40
0.5773502691896258
 41
0.0
 42
6.283185307179586
  0
ELLIPSE
  5
73B4
330
733A
100
AcDbEntity
  8
0
100
AcDbEllipse
 10
-11.89472076073211
 20
44.16361607483877
 30
0.0
 11
1.249999999999871
 21
2.165063509461171
 31
0.0
210
0.0
220
0.0
230
1.0
 40
0.5773502691896259
 41
3.742856870268582
 42
5.681921090500118
  0
ELLIPSE
  5
73B5
330
733A
100
AcDbEntity
  8
0
100
AcDbEllipse
 10
-10.48050719835901
 20
43.34711949391103
 30
0.0
 11
1.249999999999999
 21
2.165063509461097
 31
0.0
210
0.0
220
0.0
230
0.9999999999999998
 40
0.5773502691896258
 41
0.0
 42
6.283185307179586
  0
ELLIPSE
  5
73B6
330
733A
100
AcDbEntity
  8
0
100
AcDbEllipse
 10
-11.89472076073211
 20
60.4935476933933
 30
0.0
 11
1.249999999999871
 21
2.165063509461171
 31
0.0
210
0.0
220
0.0
230
1.0
 40
0.5773502691896259
 41
3.742856870268582
 42
5.681921090500118
  0
ELLIPSE
  5
73B7
330
733A
100
AcDbEntity
  8
0
100
AcDbEllipse
 10
-10.48050719835901
 20
59.67705111246555
 30
0.0
 11
1.249999999999999
 21
2.165063509461097
 31
0.0
210
0.0
220
0.0
230
0.9999999999999998
 40
0.5773502691896258
 41
0.0
 42
6.283185307179586
  0
ENDBLK
  5
733C
330
733A
100
AcDbEntity
  8
0
100
AcDbBlockEnd
  0
ENDSEC
  0
SECTION
  2
ENTITIES
  0
INSERT
  5
73B8
330
1F
100
AcDbEntity
  8
0
100
AcDbBlockReference
  2
SAE300_38_2-Front
 10
0.0
 20
0.0
 30
0.0
  0
INSERT
  5
73B9
330
1F
100
AcDbEntity
  8
0
100
AcDbBlockReference
  2
SAE300_38_2-Left
 10
100.4000000000001
 20
0.0
 30
0.0
  0
INSERT
  5
73BA
330
1F
100
AcDbEntity
  8
0
100
AcDbBlockReference
  2
SAE300_38_2-Right
 10
-100.4000000000001
 20
0.0
 30
0.0
  0
INSERT
  5
73BB
330
1F
100
AcDbEntity
  8
0
100
AcDbBlockReference
  2
SAE300_38_2-Top
 10
0.0
 20
-41.9
 30
0.0
  0
INSERT
  5
73BC
330
1F
100
AcDbEntity
  8
0
100
AcDbBlockReference
  2
SAE300_38_2-Bottom
 10
0.0
 20
170.9
 30
0.0
  0
INSERT
  5
73BD
330
1F
100
AcDbEntity
  8
0
100
AcDbBlockReference
  2
SAE300_38_2-ISO
 10
145.8822928670933
 20
-138.3193972542132
 30
0.0
  0
MTEXT
  5
73BE
330
1F
100
AcDbEntity
  8
0
100
AcDbMText
 10
0.0
 20
-167.8
 30
0.0
 40
12.55000000000001
 41
0.0
 71
     5
 72
     5
  1
SAE300/38/2
 73
     1
 44
1.0
1001
ACAD
1000
MTEXTBEGIN
1070
    73
1070
     1
1070
    44
1040
1.0
1070
    74
1070
     0
1000
MTEXTEND
  0
ENDSEC
  0
SECTION
  2
OBJECTS
  0
DICTIONARY
  5
C
330
0
100
AcDbDictionary
281
     1
  3
ACAD_CIP_PREVIOUS_PRODUCT_INFO
350
216
  3
ACAD_COLOR
350
6B
  3
ACAD_DETAILVIEWSTYLE
350
21B
  3
ACAD_GROUP
350
D
  3
ACAD_LAYOUT
350
1A
  3
ACAD_MATERIAL
350
6A
  3
ACAD_MLEADERSTYLE
350
12D
  3
ACAD_MLINESTYLE
350
17
  3
ACAD_PLOTSETTINGS
350
19
  3
ACAD_PLOTSTYLENAME
350
E
  3
ACAD_SCALELIST
350
10C
  3
ACAD_SECTIONVIEWSTYLE
350
219
  3
ACAD_TABLESTYLE
350
7E
  3
ACAD_VISUALSTYLE
350
EF
  3
ACDB_RECOMPOSE_DATA
350
74BF
  3
AcDbVariableDictionary
350
5E
  3
DWGPROPS
350
74C0
  0
DICTIONARY
  5
740F
330
8
100
AcDbDictionary
280
     1
281
     1
  0
DICTIONARY
  5
1FF
330
2
100
AcDbDictionary
280
     1
281
     1
  3
ACAD_LAYERSTATES
360
200
  0
DICTIONARY
  5
13C
330
10
100
AcDbDictionary
280
     1
281
     1
  0
DICTIONARY
  5
1CE
330
1F
100
AcDbDictionary
280
     1
281
     1
  3
ACAD_LAYOUTSELFREF
360
7417
  0
DICTIONARY
  5
73C2
330
D2
100
AcDbDictionary
280
     1
281
     1
  3
ACAD_LAYOUTSELFREF
360
7420
  0
DICTIONARY
  5
73C4
330
D6
100
AcDbDictionary
280
     1
281
     1
  3
ACAD_LAYOUTSELFREF
360
7423
  0
XRECORD
  5
216
102
{ACAD_REACTORS
330
C
102
}
330
C
100
AcDbXrecord
280
     1
300
ACD
300
2021
300
87393ACD_2021_0F
  0
DICTIONARY
  5
6B
102
{ACAD_REACTORS
330
C
102
}
330
C
100
AcDbDictionary
281
     1
  0
DICTIONARY
  5
21B
102
{ACAD_REACTORS
330
C
102
}
330
C
100
AcDbDictionary
281
     1
  3
Metric50
350
21C
  0
DICTIONARY
  5
D
102
{ACAD_REACTORS
330
C
102
}
330
C
100
AcDbDictionary
281
     1
  0
DICTIONARY
  5
1A
102
{ACAD_REACTORS
330
C
102
}
330
C
100
AcDbDictionary
281
     1
  3
Layout1
350
D3
  3
Layout2
350
D7
  3
Model
350
22
  0
DICTIONARY
  5
6A
102
{ACAD_REACTORS
330
C
102
}
330
C
100
AcDbDictionary
281
     1
  3
ByBlock
350
ED
  3
ByLayer
350
EC
  3
Global
350
EE
  0
DICTIONARY
  5
12D
102
{ACAD_REACTORS
330
C
102
}
330
C
100
AcDbDictionary
281
     1
  3
Standard
350
12E
  0
DICTIONARY
  5
17
102
{ACAD_REACTORS
330
C
102
}
330
C
100
AcDbDictionary
281
     1
  3
Standard
350
18
  0
DICTIONARY
  5
19
102
{ACAD_REACTORS
330
C
102
}
330
C
100
AcDbDictionary
281
     1
  0
ACDBDICTIONARYWDFLT
  5
E
102
{ACAD_REACTORS
330
C
102
}
330
C
100
AcDbDictionary
281
     1
  3
Normal
350
F
100
AcDbDictionaryWithDefault
340
F
  0
DICTIONARY
  5
10C
102
{ACAD_REACTORS
330
C
102
}
330
C
100
AcDbDictionary
281
     1
  3
A0
350
10D
  3
A1
350
1BE
  3
A2
350
1BF
  3
A3
350
1C0
  3
A4
350
1C1
  3
A5
350
1C2
  3
A6
350
1C3
  3
A7
350
1C4
  3
A8
350
1C5
  3
A9
350
1C6
  3
B0
350
1C7
  3
B1
350
1C8
  3
B2
350
1C9
  3
B3
350
1CA
  3
B4
350
1CB
  3
B5
350
1CC
  3
B6
350
1CD
  0
DICTIONARY
  5
219
102
{ACAD_REACTORS
330
C
102
}
330
C
100
AcDbDictionary
281
     1
  3
Metric50
350
21A
  0
DICTIONARY
  5
7E
102
{ACAD_REACTORS
330
C
102
}
330
C
100
AcDbDictionary
281
     1
  3
Standard
350
7F
  0
DICTIONARY
  5
EF
102
{ACAD_REACTORS
330
C
102
}
330
C
100
AcDbDictionary
281
     1
  3
2dWireframe
350
F5
  3
Basic
350
F4
  3
Brighten
350
FB
  3
ColorChange
350
FF
  3
Conceptual
350
F8
  3
Dim
350
FA
  3
EdgeColorOff
350
1E6
  3
Facepattern
350
FE
  3
Flat
350
F0
  3
FlatWithEdges
350
F1
  3
Gouraud
350
F2
  3
GouraudWithEdges
350
F3
  3
Hidden
350
F7
  3
JitterOff
350
1E4
  3
Linepattern
350
FD
  3
OverhangOff
350
1E5
  3
Realistic
350
F9
  3
Shaded
350
1F3
  3
Shaded with edges
350
1F2
  3
Shades of Gray
350
1EF
  3
Sketchy
350
1F0
  3
Thicken
350
FC
  3
Wireframe
350
F6
  3
X-Ray
350
1F1
  0
XRECORD
  5
74BF
102
{ACAD_REACTORS
330
C
102
}
330
C
100
AcDbXrecord
280
     1
 90
        1
330
7F
  0
DICTIONARY
  5
5E
102
{ACAD_REACTORS
330
C
102
}
330
C
100
AcDbDictionary
281
     1
  3
CANNOSCALE
350
146
  3
CENTEREXE
350
259
  3
CENTERLTYPEFILE
350
25A
  3
CMLEADERSTYLE
350
145
  3
CTABLESTYLE
350
84
  3
CVIEWDETAILSTYLE
350
227
  3
CVIEWSECTIONSTYLE
350
228
  3
DIMASSOC
350
5F
  3
HIDETEXT
350
63
  3
INDEXCTL
350
746C
  3
LAYEREVAL
350
1AE
  3
LAYERNOTIFY
350
1AF
  3
LIGHTINGUNITS
350
746A
  3
MSLTSCALE
350
7469
  3
PSOLHEIGHT
350
74BC
  3
PSOLWIDTH
350
74BB
  3
SORTENTS
350
746B
  3
XCLIPFRAME
350
74BD
  0
XRECORD
  5
74C0
102
{ACAD_REACTORS
330
C
102
}
330
C
100
AcDbXrecord
280
     1
  1
DWGPROPS COOKIE
  2

  3

  4

  6

  7

  8
truole
  9

300
=
301
=
302
=
303
=
304
=
305
=
306
=
307
=
308
=
309
=
 40
0.0076041666666667
 41
2460398.356956019
 42
2460398.37375
  1

 90
        0
  0
DICTIONARY
  5
200
102
{ACAD_REACTORS
330
1FF
102
}
330
1FF
100
AcDbDictionary
281
     1
  0
XRECORD
  5
7417
102
{ACAD_REACTORS
330
1CE
102
}
330
1CE
100
AcDbXrecord
280
     1
340
1F
  0
XRECORD
  5
7420
102
{ACAD_REACTORS
330
73C2
102
}
330
73C2
100
AcDbXrecord
280
     1
340
D2
  0
XRECORD
  5
7423
102
{ACAD_REACTORS
330
73C4
102
}
330
73C4
100
AcDbXrecord
280
     1
340
D6
  0
ACDBDETAILVIEWSTYLE
  5
21C
102
{ACAD_XDICTIONARY
360
74FF
102
}
102
{ACAD_REACTORS
330
21B
102
}
330
21B
100
AcDbModelDocViewStyle
 70
     0
  3
Metric50
290
     0
100
AcDbDetailViewStyle
 70
     0
 71
     0
 90
        3
 71
     1
340
11
 40
5.0
340
0
 40
5.0
300

 40
0.0
280
     1
 71
     2
340
16
 90
       25
 71
     3
340
11
 40
5.0
 90
        0
 40
15.0
 90
        1
300
%<\AcVar ViewDetailId>% (%<\AcVar ViewScale \f "%sn">%)
 71
     4
340
16
 90
       25
340
16
 90
       25
280
     0
  0
LAYOUT
  5
D3
102
{ACAD_XDICTIONARY
360
74C4
102
}
102
{ACAD_REACTORS
330
1A
102
}
330
1A
100
AcDbPlotSettings
  1

  2
C:\Documents and Settings\basas\Application Data\Autodesk\AutoCAD 2005\R16.1\enu\plotters\Default Windows System Printer.pc3
  4

  6

 40
0.0
 41
0.0
 42
0.0
 43
0.0
 44
0.0
 45
0.0
 46
0.0
 47
0.0
 48
0.0
 49
0.0
140
0.0
141
0.0
142
1.0
143
1.0
 70
   688
 72
     0
 73
     0
 74
     5
  7

 75
    16
147
1.0
148
0.0
149
0.0
100
AcDbLayout
  1
Layout1
 70
     1
 71
     1
 10
0.0
 20
0.0
 11
12.0
 21
9.0
 12
0.0
 22
0.0
 32
0.0
 14
0.0
 24
0.0
 34
0.0
 15
0.0
 25
0.0
 35
0.0
146
0.0
 13
0.0
 23
0.0
 33
0.0
 16
1.0
 26
0.0
 36
0.0
 17
0.0
 27
1.0
 37
0.0
 76
     0
330
D2
  0
LAYOUT
  5
D7
102
{ACAD_XDICTIONARY
360
74C6
102
}
102
{ACAD_REACTORS
330
1A
102
}
330
1A
100
AcDbPlotSettings
  1

  2
C:\Documents and Settings\basas\Application Data\Autodesk\AutoCAD 2005\R16.1\enu\plotters\Default Windows System Printer.pc3
  4

  6

 40
0.0
 41
0.0
 42
0.0
 43
0.0
 44
0.0
 45
0.0
 46
0.0
 47
0.0
 48
0.0
 49
0.0
140
0.0
141
0.0
142
1.0
143
1.0
 70
   688
 72
     0
 73
     0
 74
     5
  7

 75
    16
147
1.0
148
0.0
149
0.0
100
AcDbLayout
  1
Layout2
 70
     1
 71
     2
 10
0.0
 20
0.0
 11
12.0
 21
9.0
 12
0.0
 22
0.0
 32
0.0
 14
0.0
 24
0.0
 34
0.0
 15
0.0
 25
0.0
 35
0.0
146
0.0
 13
0.0
 23
0.0
 33
0.0
 16
1.0
 26
0.0
 36
0.0
 17
0.0
 27
1.0
 37
0.0
 76
     0
330
D6
  0
LAYOUT
  5
22
102
{ACAD_XDICTIONARY
360
74C1
102
}
102
{ACAD_REACTORS
330
1A
102
}
330
1A
100
AcDbPlotSettings
  1

  2
none_device
  4
ISO_A4_(210.00_x_297.00_MM)
  6

 40
7.5
 41
20.0
 42
7.5
 43
20.0
 44
210.0
 45
297.0
 46
11.54999923706054
 47
-13.65000009536743
 48
0.0
 49
0.0
140
0.0
141
0.0
142
1.0
143
8.704084754739808
 70
 11952
 72
     1
 73
     0
 74
     0
  7

 75
     0
147
0.1148885871608098
148
0.0
149
0.0
100
AcDbLayout
  1
Model
 70
     1
 71
     0
 10
0.0
 20
0.0
 11
12.0
 21
9.0
 12
0.0
 22
0.0
 32
0.0
 14
0.0
 24
0.0
 34
0.0
 15
0.0
 25
0.0
 35
0.0
146
0.0
 13
0.0
 23
0.0
 33
0.0
 16
1.0
 26
0.0
 36
0.0
 17
0.0
 27
1.0
 37
0.0
 76
     0
330
1F
331
EA
1001
ACAD_PSEXT
1000
None
1000
None
1000
Not applicable
1000
The layout will not be plotted unless a new plotter configuration name is selected.
1070
     0
  0
MATERIAL
  5
ED
102
{ACAD_XDICTIONARY
360
1F9
102
}
102
{ACAD_REACTORS
330
6A
102
}
330
6A
100
AcDbMaterial
  1
ByBlock
  0
MATERIAL
  5
EC
102
{ACAD_XDICTIONARY
360
1F7
102
}
102
{ACAD_REACTORS
330
6A
102
}
330
6A
100
AcDbMaterial
  1
ByLayer
  0
MATERIAL
  5
EE
102
{ACAD_XDICTIONARY
360
173
102
}
102
{ACAD_REACTORS
330
6A
102
}
330
6A
100
AcDbMaterial
  1
Global
 43
0.0007999999797903
 43
0.0
 43
0.0
 43
0.0
 43
0.0
 43
0.0007999999797903
 43
0.0
 43
0.0
 43
0.0
 43
0.0
 43
1.0
 43
0.0
 43
0.0
 43
0.0
 43
0.0
 43
1.0
 49
0.0007999999797903
 49
0.0
 49
0.0
 49
0.0
 49
0.0
 49
0.0007999999797903
 49
0.0
 49
0.0
 49
0.0
 49
0.0
 49
1.0
 49
0.0
 49
0.0
 49
0.0
 49
0.0
 49
1.0
142
0.0007999999797903
142
0.0
142
0.0
142
0.0
142
0.0
142
0.0007999999797903
142
0.0
142
0.0
142
0.0
142
0.0
142
1.0
142
0.0
142
0.0
142
0.0
142
0.0
142
1.0
144
0.0007999999797903
144
0.0
144
0.0
144
0.0
144
0.0
144
0.0007999999797903
144
0.0
144
0.0
144
0.0
144
0.0
144
1.0
144
0.0
144
0.0
144
0.0
144
0.0
144
1.0
1001
ACAD
1070
    -1
1070
     3
1070
     0
1000

1071
        0
1070
     0
  0
MLEADERSTYLE
  5
12E
102
{ACAD_XDICTIONARY
360
74EB
102
}
102
{ACAD_REACTORS
330
12D
102
}
330
12D
100
AcDbMLeaderStyle
170
     2
171
     1
172
     0
 90
        2
 40
0.0
 41
0.0
173
     1
 91
-1056964608
340
14
 92
       -2
290
     1
 42
2.0
291
     1
 43
8.0
  3
Standard
 44
4.0
300

342
11
174
     1
178
     1
175
     1
176
     0
 93
-1056964608
 45
4.0
292
     0
297
     0
 46
4.0
 94
-1056964608
 47
1.0
 49
1.0
140
1.0
293
     1
141
0.0
294
     1
177
     0
142
1.0
295
     0
296
     0
143
3.75
1001
ACAD_MLEADERVER
1070
     2
  0
MLINESTYLE
  5
18
102
{ACAD_REACTORS
330
17
102
}
330
17
100
AcDbMlineStyle
  2
STANDARD
 70
     0
  3

 62
   256
 51
90.0
 52
90.0
 71
     2
 49
0.5
 62
   256
  6
BYLAYER
 49
-0.5
 62
   256
  6
BYLAYER
  0
ACDBPLACEHOLDER
  5
F
102
{ACAD_REACTORS
330
E
102
}
330
E
  0
SCALE
  5
10D
102
{ACAD_REACTORS
330
10C
102
}
330
10C
100
AcDbScale
 70
     0
300
1:1
140
1.0
141
1.0
290
     1
  0
SCALE
  5
1BE
102
{ACAD_REACTORS
330
10C
102
}
330
10C
100
AcDbScale
 70
     0
300
1:2
140
1.0
141
2.0
290
     0
  0
SCALE
  5
1BF
102
{ACAD_REACTORS
330
10C
102
}
330
10C
100
AcDbScale
 70
     0
300
1:4
140
1.0
141
4.0
290
     0
  0
SCALE
  5
1C0
102
{ACAD_REACTORS
330
10C
102
}
330
10C
100
AcDbScale
 70
     0
300
1:5
140
1.0
141
5.0
290
     0
  0
SCALE
  5
1C1
102
{ACAD_REACTORS
330
10C
102
}
330
10C
100
AcDbScale
 70
     0
300
1:8
140
1.0
141
8.0
290
     0
  0
SCALE
  5
1C2
102
{ACAD_REACTORS
330
10C
102
}
330
10C
100
AcDbScale
 70
     0
300
1:10
140
1.0
141
10.0
290
     0
  0
SCALE
  5
1C3
102
{ACAD_REACTORS
330
10C
102
}
330
10C
100
AcDbScale
 70
     0
300
1:16
140
1.0
141
16.0
290
     0
  0
SCALE
  5
1C4
102
{ACAD_REACTORS
330
10C
102
}
330
10C
100
AcDbScale
 70
     0
300
1:20
140
1.0
141
20.0
290
     0
  0
SCALE
  5
1C5
102
{ACAD_REACTORS
330
10C
102
}
330
10C
100
AcDbScale
 70
     0
300
1:30
140
1.0
141
30.0
290
     0
  0
SCALE
  5
1C6
102
{ACAD_REACTORS
330
10C
102
}
330
10C
100
AcDbScale
 70
     0
300
1:40
140
1.0
141
40.0
290
     0
  0
SCALE
  5
1C7
102
{ACAD_REACTORS
330
10C
102
}
330
10C
100
AcDbScale
 70
     0
300
1:50
140
1.0
141
50.0
290
     0
  0
SCALE
  5
1C8
102
{ACAD_REACTORS
330
10C
102
}
330
10C
100
AcDbScale
 70
     0
300
1:100
140
1.0
141
100.0
290
     0
  0
SCALE
  5
1C9
102
{ACAD_REACTORS
330
10C
102
}
330
10C
100
AcDbScale
 70
     0
300
2:1
140
2.0
141
1.0
290
     0
  0
SCALE
  5
1CA
102
{ACAD_REACTORS
330
10C
102
}
330
10C
100
AcDbScale
 70
     0
300
4:1
140
4.0
141
1.0
290
     0
  0
SCALE
  5
1CB
102
{ACAD_REACTORS
330
10C
102
}
330
10C
100
AcDbScale
 70
     0
300
8:1
140
8.0
141
1.0
290
     0
  0
SCALE
  5
1CC
102
{ACAD_REACTORS
330
10C
102
}
330
10C
100
AcDbScale
 70
     0
300
10:1
140
10.0
141
1.0
290
     0
  0
SCALE
  5
1CD
102
{ACAD_REACTORS
330
10C
102
}
330
10C
100
AcDbScale
 70
     0
300
100:1
140
100.0
141
1.0
290
     0
  0
ACDBSECTIONVIEWSTYLE
  5
21A
102
{ACAD_XDICTIONARY
360
74FD
102
}
102
{ACAD_REACTORS
330
219
102
}
330
219
100
AcDbModelDocViewStyle
 70
     0
  3
Metric50
290
     0
100
AcDbSectionViewStyle
 70
     0
 71
     0
 90
      102
 71
     1
340
11
 40
5.0
340
0
340
0
 40
5.0
300
I, O, Q, S, X, Z
 40
10.0
 90
        0
 40
2.5
 90
        0
 71
     2
340
16
 90
       25
340
16
 90
       50
 40
5.0
 40
2.5
 40
5.0
 71
     3
340
11
 40
5.0
 90
        0
 40
15.0
 90
        1
300
%<\AcVar ViewSectionStartId>%-%<\AcVar ViewSectionEndId>% (%<\AcVar ViewScale \f "%sn">%)
 71
     4
300
ANSI31
 40
1.0
 90
        0
290
     0
290
     0
 90
        6
 40
0.0
 40
1.570796326794896
 40
0.2617993877991494
 40
1.308996938995747
 40
-0.2617993877991494
 40
1.832595714594046
  0
TABLESTYLE
  5
7F
102
{ACAD_XDICTIONARY
360
162
102
}
102
{ACAD_REACTORS
330
7E
102
}
330
7E
100
AcDbTableStyle
  3
Standard
 70
     0
 71
     0
 40
1.5
 41
1.5
280
     0
281
     0
  7
Standard
140
4.5
170
     2
 62
     0
 63
     7
283
     0
274
    -2
284
     1
 64
     0
275
    -2
285
     1
 65
     0
276
    -2
286
     1
 66
     0
277
    -2
287
     1
 67
     0
278
    -2
288
     1
 68
     0
279
    -2
289
     1
 69
     0
  7
Standard
140
6.0
170
     5
 62
     0
 63
     7
283
     0
274
    -2
284
     1
 64
     0
275
    -2
285
     1
 65
     0
276
    -2
286
     1
 66
     0
277
    -2
287
     1
 67
     0
278
    -2
288
     1
 68
     0
279
    -2
289
     1
 69
     0
  7
Standard
140
4.5
170
     5
 62
     0
 63
     7
283
     0
274
    -2
284
     1
 64
     0
275
    -2
285
     1
 65
     0
276
    -2
286
     1
 66
     0
277
    -2
287
     1
 67
     0
278
    -2
288
     1
 68
     0
279
    -2
289
     1
 69
     0
  0
VISUALSTYLE
  5
F5
102
{ACAD_XDICTIONARY
360
74D5
102
}
102
{ACAD_REACTORS
330
EF
102
}
330
EF
100
AcDbVisualStyle
  2
2dWireframe
 70
     4
 71
     0
 72
     2
 73
     1
 90
        0
 40
-0.6
 41
-30.0
 62
     5
 63
     7
 74
     1
 91
        4
 64
     7
 65
   257
 75
     1
175
     1
 42
1.0
 92
        0
 66
   257
 43
1.0
 76
     1
 77
     6
 78
     2
 67
     7
 79
     5
170
     0
171
     0
290
     0
174
     0
 93
        1
 44
0.0
173
     0
291
     0
 45
0.0
1001
ACAD
1000
AcDbSavedByObjectVersion
1070
     0
  0
VISUALSTYLE
  5
F4
102
{ACAD_XDICTIONARY
360
74D3
102
}
102
{ACAD_REACTORS
330
EF
102
}
330
EF
100
AcDbVisualStyle
  2
Basic
 70
     7
 71
     1
 72
     0
 73
     1
 90
        0
 40
-0.6
 41
-30.0
 62
     5
 63
     7
 74
     0
 91
        4
 64
     7
 65
   257
 75
     1
175
     1
 42
1.0
 92
        8
 66
     7
 43
1.0
 76
     1
 77
     6
 78
     2
 67
     7
 79
     5
170
     0
171
     0
290
     0
174
     0
 93
        1
 44
0.0
173
     0
291
     1
 45
0.0
1001
ACAD
1000
AcDbSavedByObjectVersion
1070
     0
  0
VISUALSTYLE
  5
FB
102
{ACAD_XDICTIONARY
360
74E1
102
}
102
{ACAD_REACTORS
330
EF
102
}
330
EF
100
AcDbVisualStyle
  2
Brighten
 70
    12
 71
     2
 72
     2
 73
     1
 90
        0
 40
-0.6
 41
-30.0
 62
     5
 63
     7
 74
     1
 91
        4
 64
     7
 65
   257
 75
     1
175
     1
 42
1.0
 92
        8
 66
     7
 43
1.0
 76
     1
 77
     6
 78
     2
 67
     7
 79
     5
170
     0
171
     0
290
     0
174
     0
 93
        1
 44
50.0
173
     0
291
     1
 45
0.0
1001
ACAD
1000
AcDbSavedByObjectVersion
1070
     0
  0
VISUALSTYLE
  5
FF
102
{ACAD_XDICTIONARY
360
74E9
102
}
102
{ACAD_REACTORS
330
EF
102
}
330
EF
100
AcDbVisualStyle
  2
ColorChange
 70
    16
 71
     2
 72
     2
 73
     3
 90
        0
 40
-0.6
 41
-30.0
 62
     5
 63
     8
 74
     1
 91
        4
 64
     7
 65
   257
 75
     1
175
     1
 42
1.0
 92
        8
 66
     8
 43
1.0
 76
     1
 77
     6
 78
     2
 67
     7
 79
     5
170
     0
171
     0
290
     0
174
     0
 93
        1
 44
0.0
173
     0
291
     1
 45
0.0
1001
ACAD
1000
AcDbSavedByObjectVersion
1070
     0
  0
VISUALSTYLE
  5
F8
102
{ACAD_XDICTIONARY
360
74DB
102
}
102
{ACAD_REACTORS
330
EF
102
}
330
EF
100
AcDbVisualStyle
  2
Conceptual
 70
     9
 71
     3
 72
     2
 73
     1
 90
        0
 40
-0.6
 41
-30.0
 62
     5
 63
     7
 74
     2
 91
        2
 64
     7
 65
   257
 75
     1
175
     1
 42
40.0
 92
        8
 66
     7
 43
1.0
 76
     1
 77
     6
 78
     2
 67
     7
 79
     3
170
     0
171
     0
290
     0
174
     0
 93
        1
 44
0.0
173
     0
291
     0
 45
0.0
1001
ACAD
1000
AcDbSavedByObjectVersion
1070
     0
  0
VISUALSTYLE
  5
FA
102
{ACAD_XDICTIONARY
360
74DF
102
}
102
{ACAD_REACTORS
330
EF
102
}
330
EF
100
AcDbVisualStyle
  2
Dim
 70
    11
 71
     2
 72
     2
 73
     1
 90
        0
 40
-0.6
 41
-30.0
 62
     5
 63
     7
 74
     1
 91
        4
 64
     7
 65
   257
 75
     1
175
     1
 42
1.0
 92
        8
 66
     7
 43
1.0
 76
     1
 77
     6
 78
     2
 67
     7
 79
     5
170
     0
171
     0
290
     0
174
     0
 93
        1
 44
-50.0
173
     0
291
     1
 45
0.0
1001
ACAD
1000
AcDbSavedByObjectVersion
1070
     0
  0
VISUALSTYLE
  5
1E6
102
{ACAD_XDICTIONARY
360
74F1
102
}
102
{ACAD_REACTORS
330
EF
102
}
330
EF
100
AcDbVisualStyle
  2
EdgeColorOff
 70
    22
 71
     2
 72
     2
 73
     0
 90
        0
 40
-0.6
 41
-30.0
 62
     5
 63
     7
 74
     1
 91
        4
 64
     7
 65
   257
 75
     1
175
     1
 42
1.0
 92
        8
 66
     7
 43
1.0
 76
     1
 77
     6
 78
     2
 67
     7
 79
     5
170
     0
171
     0
290
     0
174
     0
 93
        1
 44
0.0
173
     0
291
     1
 45
0.0
1001
ACAD
1000
AcDbSavedByObjectVersion
1070
     0
  0
VISUALSTYLE
  5
FE
102
{ACAD_XDICTIONARY
360
74E7
102
}
102
{ACAD_REACTORS
330
EF
102
}
330
EF
100
AcDbVisualStyle
  2
Facepattern
 70
    15
 71
     2
 72
     2
 73
     1
 90
        0
 40
-0.6
 41
-30.0
 62
     5
 63
     7
 74
     1
 91
        4
 64
     7
 65
   257
 75
     1
175
     1
 42
1.0
 92
        8
 66
     7
 43
1.0
 76
     1
 77
     6
 78
     2
 67
     7
 79
     5
170
     0
171
     0
290
     0
174
     0
 93
        1
 44
0.0
173
     0
291
     1
 45
0.0
1001
ACAD
1000
AcDbSavedByObjectVersion
1070
     0
  0
VISUALSTYLE
  5
F0
102
{ACAD_XDICTIONARY
360
74CB
102
}
102
{ACAD_REACTORS
330
EF
102
}
330
EF
100
AcDbVisualStyle
  2
Flat
 70
     0
 71
     2
 72
     1
 73
     1
 90
        2
 40
-0.6
 41
30.0
 62
     5
 63
     7
 74
     0
 91
        0
 64
     7
 65
   257
 75
     1
175
     1
 42
1.0
 92
        8
 66
     7
 43
1.0
 76
     1
 77
     6
 78
     2
 67
     7
 79
     5
170
     0
171
     0
290
     0
174
     0
 93
       13
 44
0.0
173
     0
291
     1
 45
0.0
1001
ACAD
1000
AcDbSavedByObjectVersion
1070
     0
  0
VISUALSTYLE
  5
F1
102
{ACAD_XDICTIONARY
360
74CD
102
}
102
{ACAD_REACTORS
330
EF
102
}
330
EF
100
AcDbVisualStyle
  2
FlatWithEdges
 70
     1
 71
     2
 72
     1
 73
     1
 90
        2
 40
-0.6
 41
30.0
 62
     5
 63
     7
 74
     1
 91
        0
 64
     7
 65
   257
 75
     1
175
     1
 42
1.0
 92
        0
 66
   257
 43
1.0
 76
     1
 77
     6
 78
     2
 67
     7
 79
     5
170
     0
171
     0
290
     0
174
     0
 93
       13
 44
0.0
173
     0
291
     1
 45
0.0
1001
ACAD
1000
AcDbSavedByObjectVersion
1070
     0
  0
VISUALSTYLE
  5
F2
102
{ACAD_XDICTIONARY
360
74CF
102
}
102
{ACAD_REACTORS
330
EF
102
}
330
EF
100
AcDbVisualStyle
  2
Gouraud
 70
     2
 71
     2
 72
     2
 73
     1
 90
        2
 40
-0.6
 41
30.0
 62
     5
 63
     7
 74
     0
 91
        0
 64
     7
 65
   257
 75
     1
175
     1
 42
1.0
 92
        0
 66
     7
 43
1.0
 76
     1
 77
     6
 78
     2
 67
     7
 79
     5
170
     0
171
     0
290
     0
174
     0
 93
       13
 44
0.0
173
     0
291
     1
 45
0.0
1001
ACAD
1000
AcDbSavedByObjectVersion
1070
     0
  0
VISUALSTYLE
  5
F3
102
{ACAD_XDICTIONARY
360
74D1
102
}
102
{ACAD_REACTORS
330
EF
102
}
330
EF
100
AcDbVisualStyle
  2
GouraudWithEdges
 70
     3
 71
     2
 72
     2
 73
     1
 90
        2
 40
-0.6
 41
30.0
 62
     5
 63
     7
 74
     1
 91
        0
 64
     7
 65
   257
 75
     1
175
     1
 42
1.0
 92
        0
 66
   257
 43
1.0
 76
     1
 77
     6
 78
     2
 67
     7
 79
     5
170
     0
171
     0
290
     0
174
     0
 93
       13
 44
0.0
173
     0
291
     1
 45
0.0
1001
ACAD
1000
AcDbSavedByObjectVersion
1070
     0
  0
VISUALSTYLE
  5
F7
102
{ACAD_XDICTIONARY
360
74D9
102
}
102
{ACAD_REACTORS
330
EF
102
}
330
EF
100
AcDbVisualStyle
  2
Hidden
 70
     6
 71
     1
 72
     2
 73
     2
 90
        0
 40
-0.6
 41
-30.0
 62
     5
 63
     7
 74
     2
 91
        2
 64
     7
 65
   257
 75
     2
175
     1
 42
40.0
 92
        0
 66
   257
 43
1.0
 76
     1
 77
     6
 78
     2
 67
     7
 79
     3
170
     0
171
     0
290
     0
174
     0
 93
        1
 44
0.0
173
     0
291
     0
 45
0.0
1001
ACAD
1000
AcDbSavedByObjectVersion
1070
     0
  0
VISUALSTYLE
  5
1E4
102
{ACAD_XDICTIONARY
360
74ED
102
}
102
{ACAD_REACTORS
330
EF
102
}
330
EF
100
AcDbVisualStyle
  2
JitterOff
 70
    20
 71
     2
 72
     2
 73
     0
 90
        0
 40
-0.6
 41
-30.0
 62
     5
 63
     7
 74
     1
 91
        4
 64
     7
 65
   257
 75
     1
175
     1
 42
1.0
 92
       10
 66
     7
 43
1.0
 76
     1
 77
     6
 78
     2
 67
     7
 79
     5
170
     0
171
     0
290
     0
174
     0
 93
        1
 44
0.0
173
     0
291
     1
 45
0.0
1001
ACAD
1000
AcDbSavedByObjectVersion
1070
     0
  0
VISUALSTYLE
  5
FD
102
{ACAD_XDICTIONARY
360
74E5
102
}
102
{ACAD_REACTORS
330
EF
102
}
330
EF
100
AcDbVisualStyle
  2
Linepattern
 70
    14
 71
     2
 72
     2
 73
     1
 90
        0
 40
-0.6
 41
-30.0
 62
     5
 63
     7
 74
     1
 91
        4
 64
     7
 65
   257
 75
     7
175
     7
 42
1.0
 92
        8
 66
     7
 43
1.0
 76
     1
 77
     6
 78
     2
 67
     7
 79
     5
170
     0
171
     0
290
     0
174
     0
 93
        1
 44
0.0
173
     0
291
     1
 45
0.0
1001
ACAD
1000
AcDbSavedByObjectVersion
1070
     0
  0
VISUALSTYLE
  5
1E5
102
{ACAD_XDICTIONARY
360
74EF
102
}
102
{ACAD_REACTORS
330
EF
102
}
330
EF
100
AcDbVisualStyle
  2
OverhangOff
 70
    21
 71
     2
 72
     2
 73
     0
 90
        0
 40
-0.6
 41
-30.0
 62
     5
 63
     7
 74
     1
 91
        4
 64
     7
 65
   257
 75
     1
175
     1
 42
1.0
 92
        9
 66
     7
 43
1.0
 76
     1
 77
     6
 78
     2
 67
     7
 79
     5
170
     0
171
     0
290
     0
174
     0
 93
        1
 44
0.0
173
     0
291
     1
 45
0.0
1001
ACAD
1000
AcDbSavedByObjectVersion
1070
     0
  0
VISUALSTYLE
  5
F9
102
{ACAD_XDICTIONARY
360
74DD
102
}
102
{ACAD_REACTORS
330
EF
102
}
330
EF
100
AcDbVisualStyle
  2
Realistic
 70
     8
 71
     2
 72
     2
 73
     0
 90
        2
 40
-0.6
 41
30.0
 62
     5
 63
     7
 74
     0
 91
        0
 64
     7
 65
   257
 75
     1
175
     1
 42
1.0
 92
        8
 66
   257
 43
1.0
 76
     1
 77
     6
 78
     2
 67
     7
 79
     3
170
     0
171
     0
290
     0
174
     0
 93
       13
 44
0.0
173
     0
291
     0
 45
0.0
1001
ACAD
1000
AcDbSavedByObjectVersion
1070
     0
  0
VISUALSTYLE
  5
1F3
102
{ACAD_XDICTIONARY
360
74FB
102
}
102
{ACAD_REACTORS
330
EF
102
}
330
EF
100
AcDbVisualStyle
  2
Shaded
 70
    27
 71
     2
 72
     2
 73
     1
 90
        2
 40
-0.6
 41
30.0
 62
     5
 63
     7
 74
     0
 91
        4
 64
     7
 65
   257
 75
     1
175
     1
 42
1.0
 92
        8
 66
   257
 43
1.0
 76
     1
 77
     6
 78
     2
 67
     8
 79
     3
170
     0
171
     0
290
     0
174
     0
 93
        5
 44
0.0
173
     0
291
     0
 45
0.0
1001
ACAD
1000
AcDbSavedByObjectVersion
1070
     0
  0
VISUALSTYLE
  5
1F2
102
{ACAD_XDICTIONARY
360
74F9
102
}
102
{ACAD_REACTORS
330
EF
102
}
330
EF
100
AcDbVisualStyle
  2
Shaded with edges
 70
    26
 71
     2
 72
     2
 73
     1
 90
        2
 40
-0.6
 41
30.0
 62
     5
 63
     7
 74
     1
 91
        2
 64
     7
 65
   257
 75
     2
175
     1
 42
1.0
 92
        8
 66
   257
 43
1.0
 76
     1
 77
     6
 78
     2
 67
     7
 79
     3
170
     0
171
     0
290
     0
174
     0
 93
        5
 44
0.0
173
     0
291
     0
 45
0.0
1001
ACAD
1000
AcDbSavedByObjectVersion
1070
     0
  0
VISUALSTYLE
  5
1EF
102
{ACAD_XDICTIONARY
360
74F3
102
}
102
{ACAD_REACTORS
330
EF
102
}
330
EF
100
AcDbVisualStyle
  2
Shades of Gray
 70
    23
 71
     2
 72
     2
 73
     3
 90
        0
 40
-0.6
 41
-30.0
 62
     5
 63
     7
 74
     2
 91
        2
 64
     7
 65
     7
 75
     1
175
     1
 42
40.0
 92
        8
 66
     7
 43
1.0
 76
     1
 77
     6
 78
     2
 67
     7
 79
     3
170
     0
171
     0
290
     0
174
     0
 93
        1
 44
0.0
173
     0
291
     0
 45
0.0
1001
ACAD
1000
AcDbSavedByObjectVersion
1070
     0
  0
VISUALSTYLE
  5
1F0
102
{ACAD_XDICTIONARY
360
74F5
102
}
102
{ACAD_REACTORS
330
EF
102
}
330
EF
100
AcDbVisualStyle
  2
Sketchy
 70
    24
 71
     1
 72
     2
 73
     2
 90
        0
 40
-0.6
 41
-30.0
 62
     5
 63
     7
 74
     2
 91
        2
 64
     7
 65
     7
 75
     1
175
     1
 42
40.0
 92
       11
 66
     7
 43
1.0
 76
     1
 77
     6
 78
     2
 67
     7
 79
     6
170
     0
171
     0
290
     0
174
     0
 93
        1
 44
0.0
173
     0
291
     0
 45
0.0
1001
ACAD
1000
AcDbSavedByObjectVersion
1070
     0
  0
VISUALSTYLE
  5
FC
102
{ACAD_XDICTIONARY
360
74E3
102
}
102
{ACAD_REACTORS
330
EF
102
}
330
EF
100
AcDbVisualStyle
  2
Thicken
 70
    13
 71
     2
 72
     2
 73
     1
 90
        0
 40
-0.6
 41
-30.0
 62
     5
 63
     7
 74
     1
 91
        4
 64
     7
 65
   257
 75
     1
175
     1
 42
1.0
 92
       12
 66
     7
 43
1.0
 76
     1
 77
     6
 78
     2
 67
     7
 79
     5
170
     0
171
     0
290
     0
174
     0
 93
        1
 44
0.0
173
     0
291
     1
 45
0.0
1001
ACAD
1000
AcDbSavedByObjectVersion
1070
     0
  0
VISUALSTYLE
  5
F6
102
{ACAD_XDICTIONARY
360
74D7
102
}
102
{ACAD_REACTORS
330
EF
102
}
330
EF
100
AcDbVisualStyle
  2
Wireframe
 70
     5
 71
     0
 72
     2
 73
     0
 90
        0
 40
-0.6
 41
-30.0
 62
     5
 63
     7
 74
     1
 91
        4
 64
     7
 65
   257
 75
     1
175
     1
 42
1.0
 92
        0
 66
   257
 43
1.0
 76
     1
 77
     6
 78
     2
 67
     7
 79
     3
170
     0
171
     0
290
     0
174
     0
 93
        1
 44
0.0
173
     0
291
     0
 45
0.0
1001
ACAD
1000
AcDbSavedByObjectVersion
1070
     0
  0
VISUALSTYLE
  5
1F1
102
{ACAD_XDICTIONARY
360
74F7
102
}
102
{ACAD_REACTORS
330
EF
102
}
330
EF
100
AcDbVisualStyle
  2
X-Ray
 70
    25
 71
     2
 72
     2
 73
     1
 90
        1
 40
0.5
 41
-30.0
 62
     5
 63
     7
 74
     1
 91
        0
 64
     7
 65
   257
 75
     1
175
     1
 42
1.0
 92
        8
 66
     7
 43
1.0
 76
     1
 77
     6
 78
     2
 67
     7
 79
     3
170
     0
171
     0
290
     0
174
     0
 93
       13
 44
0.0
173
     0
291
     0
 45
0.0
1001
ACAD
1000
AcDbSavedByObjectVersion
1070
     0
  0
DICTIONARYVAR
  5
146
102
{ACAD_REACTORS
330
5E
102
}
330
5E
100
DictionaryVariables
280
     0
  1
1:1
  0
DICTIONARYVAR
  5
259
102
{ACAD_REACTORS
330
5E
102
}
330
5E
100
DictionaryVariables
280
     0
  1
3.500000
  0
DICTIONARYVAR
  5
25A
102
{ACAD_REACTORS
330
5E
102
}
330
5E
100
DictionaryVariables
280
     0
  1
acadiso.lin
  0
DICTIONARYVAR
  5
145
102
{ACAD_REACTORS
330
5E
102
}
330
5E
100
DictionaryVariables
280
     0
  1
STANDARD
  0
DICTIONARYVAR
  5
84
102
{ACAD_REACTORS
330
5E
102
}
330
5E
100
DictionaryVariables
280
     0
  1
STANDARD
  0
DICTIONARYVAR
  5
227
102
{ACAD_REACTORS
330
5E
102
}
330
5E
100
DictionaryVariables
280
     0
  1
Metric50
  0
DICTIONARYVAR
  5
228
102
{ACAD_REACTORS
330
5E
102
}
330
5E
100
DictionaryVariables
280
     0
  1
Metric50
  0
DICTIONARYVAR
  5
5F
102
{ACAD_REACTORS
330
5E
102
}
330
5E
100
DictionaryVariables
280
     0
  1
2
  0
DICTIONARYVAR
  5
63
102
{ACAD_REACTORS
330
5E
102
}
330
5E
100
DictionaryVariables
280
     0
  1
1
  0
DICTIONARYVAR
  5
746C
102
{ACAD_REACTORS
330
5E
102
}
330
5E
100
DictionaryVariables
280
     0
  1
0
  0
DICTIONARYVAR
  5
1AE
102
{ACAD_REACTORS
330
5E
102
}
330
5E
100
DictionaryVariables
280
     0
  1
0
  0
DICTIONARYVAR
  5
1AF
102
{ACAD_REACTORS
330
5E
102
}
330
5E
100
DictionaryVariables
280
     0
  1
0
  0
DICTIONARYVAR
  5
746A
102
{ACAD_REACTORS
330
5E
102
}
330
5E
100
DictionaryVariables
280
     0
  1
2
  0
DICTIONARYVAR
  5
7469
102
{ACAD_REACTORS
330
5E
102
}
330
5E
100
DictionaryVariables
280
     0
  1
1
  0
DICTIONARYVAR
  5
74BC
102
{ACAD_REACTORS
330
5E
102
}
330
5E
100
DictionaryVariables
280
     0
  1
80.000000
  0
DICTIONARYVAR
  5
74BB
102
{ACAD_REACTORS
330
5E
102
}
330
5E
100
DictionaryVariables
280
     0
  1
5.000000
  0
DICTIONARYVAR
  5
746B
102
{ACAD_REACTORS
330
5E
102
}
330
5E
100
DictionaryVariables
280
     0
  1
127
  0
DICTIONARYVAR
  5
74BD
102
{ACAD_REACTORS
330
5E
102
}
330
5E
100
DictionaryVariables
280
     0
  1
2
  0
DICTIONARY
  5
74FF
330
21C
100
AcDbDictionary
280
     1
281
     1
  3
ACAD_XREC_ROUNDTRIP
360
7500
  0
DICTIONARY
  5
74C4
330
D3
100
AcDbDictionary
280
     1
281
     1
  3
ACAD_XREC_ROUNDTRIP
360
74C5
  0
DICTIONARY
  5
74C6
330
D7
100
AcDbDictionary
280
     1
281
     1
  3
ACAD_XREC_ROUNDTRIP
360
74C7
  0
DICTIONARY
  5
74C1
330
22
100
AcDbDictionary
280
     1
281
     1
  3
ACAD_XREC_ROUNDTRIP
360
74C2
  0
DICTIONARY
  5
1F9
330
ED
100
AcDbDictionary
280
     1
281
     1
  3
ACAD_XREC_ROUNDTRIP
360
74C9
  3
FBXASSET
360
1FA
  0
DICTIONARY
  5
1F7
330
EC
100
AcDbDictionary
280
     1
281
     1
  3
ACAD_XREC_ROUNDTRIP
360
74C8
  3
FBXASSET
360
1F8
  0
DICTIONARY
  5
173
330
EE
100
AcDbDictionary
280
     1
281
     1
  3
ACAD_XREC_ROUNDTRIP
360
74CA
  3
BUMPTILE
360
175
  3
DIFFUSETILE
360
174
  3
FBXASSET
360
1FB
  3
OPACITYTILE
360
176
  3
REFLECTIONTILE
360
177
  0
DICTIONARY
  5
74EB
330
12E
100
AcDbDictionary
280
     1
281
     1
  3
ACAD_XREC_ROUNDTRIP
360
74EC
  0
DICTIONARY
  5
74FD
330
21A
100
AcDbDictionary
280
     1
281
     1
  3
ACAD_XREC_ROUNDTRIP
360
74FE
  0
DICTIONARY
  5
162
330
7F
100
AcDbDictionary
280
     1
281
     1
  3
ACAD_ROUNDTRIP_2008_TABLESTYLE_CELLSTYLEMAP
360
74BE
  3
ACAD_XREC_ROUNDTRIP
360
74C3
  0
DICTIONARY
  5
74D5
330
F5
100
AcDbDictionary
280
     1
281
     1
  3
ACAD_XREC_ROUNDTRIP
360
74D6
  0
DICTIONARY
  5
74D3
330
F4
100
AcDbDictionary
280
     1
281
     1
  3
ACAD_XREC_ROUNDTRIP
360
74D4
  0
DICTIONARY
  5
74E1
330
FB
100
AcDbDictionary
280
     1
281
     1
  3
ACAD_XREC_ROUNDTRIP
360
74E2
  0
DICTIONARY
  5
74E9
330
FF
100
AcDbDictionary
280
     1
281
     1
  3
ACAD_XREC_ROUNDTRIP
360
74EA
  0
DICTIONARY
  5
74DB
330
F8
100
AcDbDictionary
280
     1
281
     1
  3
ACAD_XREC_ROUNDTRIP
360
74DC
  0
DICTIONARY
  5
74DF
330
FA
100
AcDbDictionary
280
     1
281
     1
  3
ACAD_XREC_ROUNDTRIP
360
74E0
  0
DICTIONARY
  5
74F1
330
1E6
100
AcDbDictionary
280
     1
281
     1
  3
ACAD_XREC_ROUNDTRIP
360
74F2
  0
DICTIONARY
  5
74E7
330
FE
100
AcDbDictionary
280
     1
281
     1
  3
ACAD_XREC_ROUNDTRIP
360
74E8
  0
DICTIONARY
  5
74CB
330
F0
100
AcDbDictionary
280
     1
281
     1
  3
ACAD_XREC_ROUNDTRIP
360
74CC
  0
DICTIONARY
  5
74CD
330
F1
100
AcDbDictionary
280
     1
281
     1
  3
ACAD_XREC_ROUNDTRIP
360
74CE
  0
DICTIONARY
  5
74CF
330
F2
100
AcDbDictionary
280
     1
281
     1
  3
ACAD_XREC_ROUNDTRIP
360
74D0
  0
DICTIONARY
  5
74D1
330
F3
100
AcDbDictionary
280
     1
281
     1
  3
ACAD_XREC_ROUNDTRIP
360
74D2
  0
DICTIONARY
  5
74D9
330
F7
100
AcDbDictionary
280
     1
281
     1
  3
ACAD_XREC_ROUNDTRIP
360
74DA
  0
DICTIONARY
  5
74ED
330
1E4
100
AcDbDictionary
280
     1
281
     1
  3
ACAD_XREC_ROUNDTRIP
360
74EE
  0
DICTIONARY
  5
74E5
330
FD
100
AcDbDictionary
280
     1
281
     1
  3
ACAD_XREC_ROUNDTRIP
360
74E6
  0
DICTIONARY
  5
74EF
330
1E5
100
AcDbDictionary
280
     1
281
     1
  3
ACAD_XREC_ROUNDTRIP
360
74F0
  0
DICTIONARY
  5
74DD
330
F9
100
AcDbDictionary
280
     1
281
     1
  3
ACAD_XREC_ROUNDTRIP
360
74DE
  0
DICTIONARY
  5
74FB
330
1F3
100
AcDbDictionary
280
     1
281
     1
  3
ACAD_XREC_ROUNDTRIP
360
74FC
  0
DICTIONARY
  5
74F9
330
1F2
100
AcDbDictionary
280
     1
281
     1
  3
ACAD_XREC_ROUNDTRIP
360
74FA
  0
DICTIONARY
  5
74F3
330
1EF
100
AcDbDictionary
280
     1
281
     1
  3
ACAD_XREC_ROUNDTRIP
360
74F4
  0
DICTIONARY
  5
74F5
330
1F0
100
AcDbDictionary
280
     1
281
     1
  3
ACAD_XREC_ROUNDTRIP
360
74F6
  0
DICTIONARY
  5
74E3
330
FC
100
AcDbDictionary
280
     1
281
     1
  3
ACAD_XREC_ROUNDTRIP
360
74E4
  0
DICTIONARY
  5
74D7
330
F6
100
AcDbDictionary
280
     1
281
     1
  3
ACAD_XREC_ROUNDTRIP
360
74D8
  0
DICTIONARY
  5
74F7
330
1F1
100
AcDbDictionary
280
     1
281
     1
  3
ACAD_XREC_ROUNDTRIP
360
74F8
  0
XRECORD
  5
7500
102
{ACAD_REACTORS
330
74FF
102
}
330
74FF
100
AcDbXrecord
280
     1
102
DISPLAYNAME
  1
Metric50
102
FLAGS
 90
        0
  0
XRECORD
  5
74C5
102
{ACAD_REACTORS
330
74C4
102
}
330
74C4
100
AcDbXrecord
280
     1
102
SHADEPLOT
 70
     0
102
SHADEPLOTRESLEVEL
 70
     2
102
SHADEPLOTCUSTOMDPI
 70
   300
  0
XRECORD
  5
74C7
102
{ACAD_REACTORS
330
74C6
102
}
330
74C6
100
AcDbXrecord
280
     1
102
SHADEPLOT
 70
     0
102
SHADEPLOTRESLEVEL
 70
     2
102
SHADEPLOTCUSTOMDPI
 70
   300
  0
XRECORD
  5
74C2
102
{ACAD_REACTORS
330
74C1
102
}
330
74C1
100
AcDbXrecord
280
     1
102
SHADEPLOT
 70
     0
102
SHADEPLOTRESLEVEL
 70
     2
102
SHADEPLOTCUSTOMDPI
 70
   300
  0
XRECORD
  5
74C9
102
{ACAD_REACTORS
330
1F9
102
}
330
1F9
100
AcDbXrecord
280
     1
102
MATERIAL
148
0.0
149
0.0
149
0.0
 93
        0
 94
       63
282
     0
 72
     1
 77
     1
171
     1
175
     1
179
     1
273
     0
  0
XRECORD
  5
1FA
102
{ACAD_REACTORS
330
1F9
102
}
330
1F9
100
AcDbXrecord
280
     1
 70
     1
 90
429727718
  1
D62C5603-E3A1-4AEA-B7FB-FE5D8D0755AF
310
504B03040A0000080000CC70623B3DEE336E79000000790000001B0000006175746F6465736B2D64657369676E2D7061636B6167652E786D6C3C3F786D6C2076657273696F6E3D22312E302220656E636F64696E673D227574662D3822203F3E3C666F726D6174733E3C666F726D61743E687474703A2F2F736368656D612E
310
6175746F6465736B2E636F6D2F64657369676E2D7061636B6167652F323030393C2F666F726D61743E3C2F666F726D6174733E504B0304140006080800CC70623BD486FD9CA0000000F4000000130000005B436F6E74656E745F54797065735D2E786D6C7D8EC10E82300C865F65E91D8A1E8C310C0EEA1BF002731658846E
310
D98AC1B77784ABF1D8FE5FBFBF75BBCE937A534CCEB38643598122B6FEE978D0B0485F9C41B54DDD7D022595594E1A469170414C76A4D9A4D207E29CF43ECE46F218070CC6BECC4078ACAA135ACF422C856C0E68EA1BF5669944DDD7BCDE7B1F8E415D77AECB980613C2E4AC91FC167A2B244592486606FC29C8FD7F045B9A
310
EF7053A7E60B504B0304140006080800CC70623B853B8169EB0000007C01000008000000636F72652E786D6C8D90416EC3201045AF62CDB6C206821CC7C244919D9CA01740401C94182C03558F5F9C3852BBEB6A467FFE9B197D7EFC9E1EC5975982F5AE035262288C535E5B377690E21535501C055FBC8FBF6C503839990E
310
5619041F179FE64D52DE45E362569DD7661365082642A11EB9E920A89B99642953CC8E702F67A9EE7234257977194EC9EAE275C4EABCCF5EAD5940D4AC6F0E35A568B8F43562CD7046CD199FD07E60174276A7BE677B5EADB0E0D14EEFFB6A31321A0D82627C4084204C3F096B71DD52F6819B16635EADF63F509AF53FA164
310
5DDCD1EDDD17164090FCC8732078B56691CB33A85CD7DCC40F504B0304140006080800CC70623B55019EA25F0000007C00000007000000636E782E786D6C4DCB3B0E80201045D1AD90E915ED2CF8AC45050C11660C8261F98AB1B07AC9C97D42D718D865D3E909258CFD00CCE24AC6E326A164D74DC0B4128928FF32603847
310
2BA13128B1252AC747C6BAB984FC68F0B87FE8960A5C09FE86CFB69FBA01504B0304140006080800CC70623BDBABAAF470010000D40300000C0000006662782F636F72652E786D6CC553D16E823014FD95A6AF4B694182CC941A83FA05FB810A9511A125A5257EFE2E82712ECEB8A7F100CD39F7F69E734AF9FADC366850B6
310
AF8DCE7018308C942E4C59EB2AC3DE1D498AD15A706B8CFB56869196ADCAF00863C12B6B7C374385D14E6907A836A59A41D9F7CA615434B0C8705F7CAA5606D23BA8E84F41278B93AC54100640439DE0BDB320004D43C63716C7C399D30917DCFBBA9CD9BA8469F5B156168B24CED3F7248AC8769F27244EB73B92EED8862C
310
B7F13E0C179B3C8F979C8ECD82BBBABDAA2BAC924E9558448CBD9330242CFA08E3154B5651FCC6D215639C8EE5774DBE2B5F6CF2B5768B68963BB5F5588420E442FC700B1139D4CB01F450C1E918227C2E09DF070D8140C84E1E9AAB8F1340832A9CB13130A5F1376A908D57309505ECF2A0DF179C4E9D30F5B239B87E3823
310
7A79C6F31DE1A8A5AEC08474B03C7837EAE4938639B44E5932B833D2C6B6B279CDC613877FA26EE21F4A2A4C63EC7F29A2F301D1F9F7A0E37D145F504B0304140006080800CC70623B9C113CC27E0000009D0000000B0000006662782F636E782E786D6C4DCCDF0A83201C86E15B91DFB94BFB330DD428C8FB886521330DA7
310
6397BF1A1DECE883878F57749FCDA1B7892F1BBC047A23808C7F84D9FA55424E0BE6803A256208E9EF06C84F9B91703228B1C690F78B66B34CD9A5439DF5CF0BFBF65E35BCA1B8D6A5C6F540381E886698B5741C695F9503EBA150A2F8958E3DC3EA0B504B0304140006080800CC70623B7DF2F77C2A010000120200003100
310
00006662782F41393633353835312D344632462D344230382D423046372D3739314545314133324237412F636F72652E786D6C8D51DB8EC22014FC15C2939B0D2DB4B45643319AE817EC0F6041255A68B86CFCFC856D4D76DF7CE190393373060EDB3DC707F856CE6B6B7A480A0C81328395DA5C7B18C3057510EC3873D686
310
3F34088C18550F330C39BB3A1BA7051AAC09CA84841A2BD5020AEF55806078A44B0FFD7053A328440C89E1EFC52486BBB8AA8214A99D789CF9E05200300FC927E4FB4D5B375D43103D5527440FB843077C5AA3F5861C8F645F5787F59E95B390B318B55CE45AA638FAA2957BD7248B390B7A7CC51F9C124149C82B8C378810
310
84AB2F42B7B8DD56F413775B8C5999E9FF4471926F8AA236A1AE96B8B3CC434E5839373893369E1FAF30EA395917409EB7F26AF8801C171837A4A6AC9C89E9F9C9B1A58BA30FD6A5EF5DDDCF894B9AD9B6A59C957943A9FCAE2FD5BC4DFE03504B0304140006080800CC70623BAD7543B64E01000033030000300000006662
310
782F41393633353835312D344632462D344230382D423046372D3739314545314133324237412F636E782E786D6CD593CD6EC32010845F0571AD6CE3D48AD20813A9873E410FBD12D82434182C7EAAE6EDBB2424CD25871E7B41D6EC30B3FA84F9E67BB2E40B4234DE8DB46F1925E094D7C6ED479AD3AE5951B2113C789FEE
310
6C943839C1488B4C05DF079FE72A69D8C96C13AAD6B8631503449F83828872B949AC57D26200B826A308D316B4064D6E46FCDA41C05550DC9E483A00797BFD207EFB092A45DE9514C1BBD22178396BD39D891265658C238DEA00936C654E5E433CB65A26D9F6EDB5EBC14EBF49A45CB856E66048291F6939A9A81BB5C89177
310
38143CA680F4AA299D66A042CEB3354A2684DC9D8D178FE0D9B8B41CAAD720F880EE7EF93C0C18769E099ECC04D5A102C8049A8A05632F4DDF376CF1DE0F6BB65C2F8627B65A33C6BB62177CEBBDAD973006829F89F22E814B54F4BC2BE347F8AA8F681390B50FA73F804400B5F542E796F19FF974E7F78DB802FE05E20750
310
4B0304140006080800CC70623BE75B7789680500003C100000340000006662782F41393633353835312D344632462D344230382D423046372D3739314545314133324237412F6F626A656374732E786D6CAD575B8F9B3818FD2B887D06C22499CB8AA1CA655245D5B455A356FB305264C061D8018C6C3393D95FBFC7600890
310
A4CD5EF210B0B1BFEBF98E3F7B1FF6596ABC522E1296DF9BAE3D320D9A872C4AF2F8DE2CE5CEBA358D0FBEC719939D65A691938CDE9B6ADAF4BD98B3B2D05311DD91329583D9D5FC0F438434A7A611A644887B5384CF34233629258BA878B12322891DEFF6B66BD70BFB62634E8AE781D082709A4B588AF91C528CDA28B73F
310
1C998EEF39EABBEFA97FBD6A7C7E9553F9D3D79FE442923C3C523610337627CB87ABE99D359D4CC6D6E4FACAB5E6ABF9D2726FC6A3C5F56271377BB88362213924694B38DD99FE47C48627A1E7D49F5A8BB5E1A74C0A599ED3B0F21F1E56366B89112D681E218F0915D0D6F17AD41FBA2A369DCF6335D62ABBD39779D5DDD1
310
11D4D8DE3CBB96B2E04FB8202E41051754A1AA8E8F76B4C6DFE810B580B1547F4B84911149794252234D024EF8BBE963A95AE27B3D310A9D5C215C7960FAEE415ED75694C6AFB17BCACA5D99A60A9AA65F217B0BFC53292ACB92BF283FAD0D3621576592CB5BED907C2FA8E9DF794E35E97BEA31BED21FEB401ABB94C44839
310
DCACBF0E1C5DA8DA5B2F4DFFD32AD86F543D9E565E7056502E157C00AD2671CD534549AB752FCA9CDA00677A313F04E51B22FF19E57B300579E3C97EB29F682D92935CEC18CF901B7B54FD8C51F362B56FC72FE0B3C1EAE335EDCCBF5AEC39ADB17DC238973F804BA5E6F6BFE7AF1FB32E523BE9F3BD571418E3631DCA4D48
310
5250CF639223210A9446CA30052EDF057BD35F8329C1ECD84552BF0DC8D18BE7BCE23BFE6BD960AB4A7DE79923A103BEBD80F911CBAA2C60DB19B01CF164A5583B772EE6D3FFA56666CBCDA74DC97724A48F9A58967497E489C4D979006FD7A05E227A1EBDD0F737C623387A9C844D3709995625106D157315F8B8392CD4E0
310
A0B9A720C4BE9829CEF37EA1E13111214D53925356365ADA634861B52519DD27A00AEB808EAF0628E6F435519D446F45CF2C9CF5214F0A15B2F6D06B79DA3EE3CBF7F56780D2F4E7EF73A0F5E5B02A38D07DC852C6B7C1FBB6664213E0C39E3EBA7FF4E1AD23EA2829407C85E586727488B751B2DB9502BC7B228A3FD68B6E
310
A65A22397E690AA8D158D7E404EC8CDA235CC3B7D1898680131CEC2CDF2638C65196279577750F15884AEE19F94199155B92B13297978469D4F8D358DF0AEF7631E28DC8F0D9F437D5D39A83B2231A1D52D543813A824EF8D44BCFF2FA6A31BD1E8DAD87F1CCB526B3879935BF59CDADD5C37479BB1CDD4CA7B3556B516589
310
EF352754B706114D9C885EC9131DE6EFEB43D99AFE2391C2F958179413D7CFEF6B1B6DB1E7600F00DE6E5C67454A339A4BA2E0FBA85ED26F045D454F463DBFCE484C2F90F2E5E3666003662ED8F755951A7D1BECD5B30B550B2785C8E7320B7292A4838DDA71BBC863ED7613CAF659337A3354231D4FF4A182A54904C2898C
310
98B28C4AD0CE056CCF332A80986E571EE9DBC305BB5FEB7E509220A58D25CF042D712A806AC0AD0C657FDEF80D2D9CEAA2EE4D1C76F60BFE74219A06527D6F82DF6412526107381E55E353090704D085B52408A8913C4ED159D79BDA71BB4BC506F4831350EB6F975CD22D69BF7AC49B91A2C0A9DDA3D5CA36AD20FC478E37
310
E61844E2352865EBCB61A275A65283CAAA9DD27703B4102F5AF51EF5F573B75CBB5AD38BC845F7A49F82A0966A49C2E3EA5EA0ECD326CD965F1DB402C6FA8B51A4658C5C5E2EC9E214602E55810345408596591009A82E7E7FFACA19EEA299B14A0081A705CB3296EBC14CDF658DCD336EA6D1136881AAEB87B81AB9EE53D5
310
F5EB8BC8362082DA24122F98680A4E7930C01A0079749CEA14382A0783E5EBA5A10F8C098456A03D6A4AEB6BB881E2513747552A5DB22C7EDAF83BD5528081A365F7FF06504B0304140006080000CC70623B000000000000000000000000350000006662782F41393633353835312D344632462D344230382D423046372D37
310
39314545314133324237412F76657274696365732E62696E504B0304140006080800CC70623BF270F1330600000004000000360000006662782F41393633353835312D344632462D344230382D423046372D3739314545314133324237412F747269616E676C65732E62696E636660600000504B0304140006080000CC7062
310
3B000000000000000000000000370000006662782F41393633353835312D344632462D344230382D423046372D3739314545314133324237412F617474726962757465732E62696E504B0304140006080800CC70623B08DA0BD19000000041010000360000006662782F41393633353835312D344632462D344230382D4230
310
46372D3739314545314133324237412F6469726563746F72792E786D6C858F410AC3201045AF22B36F53E9A60B35CBEEBAE80D244E44489C6234F4F835464A48035D0DF398FF9F8AF63D0E6CC63039F212F8F9020C7D47C6792B21C5FE7403D62A1188E2E60C98D7234A5830286103A55745067B9D86B8A3CF9C7F90C11DE6
310
07FB144396D7B6A82D282E9A152AD114D5EF2CB866EEE831B8EEA07A7BB5A8D7D61A2BAAEB7FD5F70921FF497D00504B0304140006080800CC70623BEDD1DC58FD000000A00100003B0000006662782F41393633353835312D344632462D344230382D423046372D3739314545314133324237412F7265736F75726365732F
310
636F72652E786D6C8D504B6E833010BD0A9A6D65B00922041947112427E8052C33A156828DFCA97AFC9A40A576D7CDCCE87D344F8F9FBFE667F689CE6B6B3A6039850C8DB2A336530731DC4903D95970676DF82583CCC8193B5861107C72362E3BA4AC096842428D1D7107A5F7182053CF7474E0D507CE32973124857FE48B
310
540F3961CEF244279DE03EB81420DB9EAC1384436FA353E879B1B182C7A8C75DA3C7F453DF353A1075D537A7BA6464B8F535A99AE14A9A2BBD90E350DD183B5CFABE3AF262350B1EF4FC9351399401471025A527C218A1E53BAB5A5AB765F5469B96525EACF23FA6B88CFF34456DC2A1DCE36E360F82A5202F42F062ED2BAD
310
579969AFDD8A6F504B010214000A0000080000CC70623B3DEE336E79000000790000001B00000000000000000000000000000000006175746F6465736B2D64657369676E2D7061636B6167652E786D6C504B01021400140006080800CC70623BD486FD9CA0000000F40000001300000000000000000000000000B20000005B
310
436F6E74656E745F54797065735D2E786D6C504B01021400140006080800CC70623B853B8169EB0000007C010000080000000000000000000000000083010000636F72652E786D6C504B01021400140006080800CC70623B55019EA25F0000007C000000070000000000000000000000000094020000636E782E786D6C504B
310
01021400140006080800CC70623BDBABAAF470010000D40300000C00000000000000000000000000180300006662782F636F72652E786D6C504B01021400140006080800CC70623B9C113CC27E0000009D0000000B00000000000000000000000000B20400006662782F636E782E786D6C504B01021400140006080800CC70
310
623B7DF2F77C2A010000120200003100000000000000000000000000590500006662782F41393633353835312D344632462D344230382D423046372D3739314545314133324237412F636F72652E786D6C504B01021400140006080800CC70623BAD7543B64E010000330300003000000000000000000000000000D2060000
310
6662782F41393633353835312D344632462D344230382D423046372D3739314545314133324237412F636E782E786D6C504B01021400140006080800CC70623BE75B7789680500003C10000034000000000000000000000000006E0800006662782F41393633353835312D344632462D344230382D423046372D3739314545
310
314133324237412F6F626A656374732E786D6C504B01021400140006080000CC70623B0000000000000000000000003500000000000000000000000000280E00006662782F41393633353835312D344632462D344230382D423046372D3739314545314133324237412F76657274696365732E62696E504B01021400140006
310
080800CC70623BF270F133060000000400000036000000000000000000000000007B0E00006662782F41393633353835312D344632462D344230382D423046372D3739314545314133324237412F747269616E676C65732E62696E504B01021400140006080000CC70623B0000000000000000000000003700000000000000
310
000000000000D50E00006662782F41393633353835312D344632462D344230382D423046372D3739314545314133324237412F617474726962757465732E62696E504B01021400140006080800CC70623B08DA0BD1900000004101000036000000000000000000000000002A0F00006662782F41393633353835312D344632
310
462D344230382D423046372D3739314545314133324237412F6469726563746F72792E786D6C504B01021400140006080800CC70623BEDD1DC58FD000000A00100003B000000000000000000000000000E1000006662782F41393633353835312D344632462D344230382D423046372D3739314545314133324237412F7265
310
736F75726365732F636F72652E786D6C504B0506000000000E000E0080040000641100000000
  0
XRECORD
  5
74C8
102
{ACAD_REACTORS
330
1F7
102
}
330
1F7
100
AcDbXrecord
280
     1
102
MATERIAL
148
0.0
149
0.0
149
0.0
 93
        0
 94
       63
282
     0
 72
     1
 77
     1
171
     1
175
     1
179
     1
273
     0
  0
XRECORD
  5
1F8
102
{ACAD_REACTORS
330
1F7
102
}
330
1F7
100
AcDbXrecord
280
     1
 70
     1
 90
429727718
  1
30362254-06B7-45E0-A893-8CFA70E3D6BC
310
504B03040A0000080000CC70623B3DEE336E79000000790000001B0000006175746F6465736B2D64657369676E2D7061636B6167652E786D6C3C3F786D6C2076657273696F6E3D22312E302220656E636F64696E673D227574662D3822203F3E3C666F726D6174733E3C666F726D61743E687474703A2F2F736368656D612E
310
6175746F6465736B2E636F6D2F64657369676E2D7061636B6167652F323030393C2F666F726D61743E3C2F666F726D6174733E504B0304140006080800CC70623BD486FD9CA0000000F4000000130000005B436F6E74656E745F54797065735D2E786D6C7D8EC10E82300C865F65E91D8A1E8C310C0EEA1BF002731658846E
310
D98AC1B77784ABF1D8FE5FBFBF75BBCE937A534CCEB38643598122B6FEE978D0B0485F9C41B54DDD7D022595594E1A469170414C76A4D9A4D207E29CF43ECE46F218070CC6BECC4078ACAA135ACF422C856C0E68EA1BF5669944DDD7BCDE7B1F8E415D77AECB980613C2E4AC91FC167A2B244592486606FC29C8FD7F045B9A
310
EF7053A7E60B504B0304140006080800CC70623B1EC5D7A3EB0000007C01000008000000636F72652E786D6C8D90416EC3201045AF82665B6103C6756C6122AB4D4ED00B204C5C94182C03558F5F9C3852BBEB6A467FFE9B197D71FC9E6FE8CBACC17AD7032D0820E3B41FAD9B7A48F1820F808E52ACDEC75F36404ECDA687
310
4D0629A6D5A76597B477D1B89855E747B38B2A041301E95B6E7A08FAD3CCAA50296647B8168BD2573599823EBB0CA76447F43862C7BCCF5EAC59410E4DDD9C7973C2755553CCCFA4C603E3040F1565ED3B1FDE4E432BCA0D9622DAF9795FAF464533826484B498524CD807E51D79ED187F21878E10516EF63F505AC67F42C9
310
BA58B1FDDD071640D2FCC87D2045B96591CB3DA85CB7DCE40F504B0304140006080800CC70623B55019EA25F0000007C00000007000000636E782E786D6C4DCB3B0E80201045D1AD90E915ED2CF8AC45050C11660C8261F98AB1B07AC9C97D42D718D865D3E909258CFD00CCE24AC6E326A164D74DC0B4128928FF32603847
310
2BA13128B1252AC747C6BAB984FC68F0B87FE8960A5C09FE86CFB69FBA01504B0304140006080800CC70623B8C9102E971010000D40300000C0000006662782F636F72652E786D6CC5535B6E833010BC8AE5DF0A6C08340F1947A84D4ED00B38C6A128602363A31CBFCB234A53A551FA553EC09AD9F5CE8C31DB9E9B1AF5CA
310
7695D1198E428A91D2D214952E33ECDD315861B4E5CC1AE3BE9561A445A3323CC098B3D21ADFCE9034DA29ED00D5A6503328BA4E398C640D8B0C77F253352214DE4145770A5B214FA2546114020D759C75CE8200340D19DE981F0F6746269C33EFAB6266AB02A655C74A59CCF365BADC27CB5D902ED22848F6340DF238A141
310
BE88E2F57B92BFEDF23523433367AE6A2EEAA455C2A902F398D2751045018D3FA264435F3771F242571B4A1919CA6F9A7C5B3CD9E42BED16F12C776AEB308F40C848FC700B1139D4891EF410CEC810227CC6846F8386402064270EF5C5C709A05E49676C024C61FC95EA45ED154CA5211D1FF4FB8291A913A68E9B83EBBB33
310
E2A7673CDE118E5AE8124C0807CB8377834E366998436B950D7A7746DAD846D4CFD978E0F04FD455FC5D49D2D4C6FE9722321F10997F0F32DC47FE05504B0304140006080800CC70623BFFEA85907E0000009D0000000B0000006662782F636E782E786D6C4DCCD10A83201886E15B91FFDC95D95A811AB6F23E625948A6C3
310
E9D8E5AF46073BFAE0E1E365ED67B3E8ADC3CB78C7815C7240DA3DFC64DCC221C519D7805AC182F7F1EF06C88D9BE6703008B6049F9E274D7A1E938DBB5AE3D6131B2589BA0D3D965551E0B2EA732C9B9A624AAEB41E3A557677029960D9AFB4EF11165F504B0304140006080800CC70623B4FEEA4082C0100001202000031
310
0000006662782F39464131463745442D413632322D343644302D413938332D3331353338454246344243312F636F72652E786D6C8D515B6EC32010BC0AE2AB55850DD871ED0813254D72825EC00192A2C460F1A872FC42ED48ED5F7E00CDCECCCEB26C731F6FE05B39AFADE921293004CA082BB5B9F43086336A21D870E6AC
310
0D7F68109861543DCC30E4ECE26C9C164858139409093556AA051CBC570102714B8F1E7AF1A5C6A11862480C7F2DA6415C878B2A4891CA89C7990F2E050073937C42DE1DB7E4F87ED8A36D4329AA9B3D46DBAEAD504556557BD81DEBDD0761E52CE42C462D17B996298E3E6BE59E35C962CE821E1FF18553435012728A7187
310
0841987E927A8D9B35ADDF70BBC6989599FE4F1427F9A4286A132ABAC49D651EF234CD5CE04CDA78BA3DC2A8FB645D00B9DF8B57E215725C60BCA2A463E54C4CE327C7A65E1C7DB02E7DEFCBF594B864C5CA6CDBD49C957943E9FA5D5FBAF336F90F504B0304140006080800CC70623BAD7543B64E01000033030000300000
310
006662782F39464131463745442D413632322D343644302D413938332D3331353338454246344243312F636E782E786D6CD593CD6EC32010845F0571AD6CE3D48AD20813A9873E410FBD12D82434182C7EAAE6EDBB2424CD25871E7B41D6EC30B3FA84F9E67BB2E40B4234DE8DB46F1925E094D7C6ED479AD3AE5951B2113C
310
789FEE6C943839C1488B4C05DF079FE72A69D8C96C13AAD6B8631503449F83828872B949AC57D26200B826A308D316B4064D6E46FCDA41C05550DC9E483A00797BFD207EFB092A45DE9514C1BBD22178396BD39D891265658C238DEA00936C654E5E433CB65A26D9F6EDB5EBC14EBF49A45CB856E66048291F6939A9A81BB5
310
C8917738143CA680F4AA299D66A042CEB3354A2684DC9D8D178FE0D9B8B41CAAD720F880EE7EF93C0C18769E099ECC04D5A102C8049A8A05632F4DDF376CF1DE0F6BB65C2F8627B65A33C6BB62177CEBBDAD973006829F89F22E814B54F4BC2BE347F8AA8F681390B50FA73F804400B5F542E796F19FF974E7F78DB802FE05
310
E207504B0304140006080800CC70623B16AB87BA640500003C100000340000006662782F39464131463745442D413632322D343644302D413938332D3331353338454246344243312F6F626A656374732E786D6CAD575B6FA33818FD2B887DE6924B3BED8A326A92B68A663B534DD4D13E548A0C38942D60649B369D5FBFC7
310
600890A493BDE42160637FD7F31D7FF63E6FB3D478A55C242CBF3247B66B1A340F5994E4F19559CA8D75611A9F7D8F33263BCB4C232719BD32D5B4E97B316765A1A722BA21652A07B3B7B33F0D11D29C9A46981221AE4C113ED38CD8A4942CA2E2C58E882476BCD9DA23BB5ED8171B73523C0F841684D35CC252CCE79062D4
310
468DFA43D7747CCF51DF7D4FFDEB5593E3AB9CCA9FBEFE241792E4E19EB28198C968BAB8199F5D5A67D3E9C49A9E8F47D6EC76B6B0469F26EEFC7C3EBFBCBEB98462213924694B38DD98FE1D62C393D073EA4FADC5DAF04326852CCF6958F90F0F2B9BB5C48816348F90C7840A68EB78EDF68723159BCEE7891A6B95DDE9D3
310
BCEAEEE8086A6C6F9E5D4B59F0175C10A7A0820BAA5055C7473B5AE3CFDD452D602CD5DF12616444529E90D448938013FE6EFA58AA96F85E4F8C42275708571E98FE6827AF6B2B4AE3D7D83D64E5A64C53054DD3AF90BD06FEA9149565C94FCA0F6B834DC85599E4F2423B24DF0B6AFA979E534DFA9E7A4CC6FA631D486393
310
921829879BF5D781A373557BCB85E97FB90DB62B558F8795179C15944B051F40AB495CF35451D26A4727654E6D8033BD98EF82F21D91FF8AF2DD9982BCF1643BDD4EB516C9492E368C67C88DED563FC36D5EACF66DFF057C3658BDBFA69DF9578B3DA735B64F18C7F20770A9D45CFCF7FCF563D6456A277DBEF78A02637CA2
310
43B90A490AEAB94F72244481D24819A6C0E59B606BFA4B3025981DBB48EAB701D97BF19C577CC77F2D1B6C55A9EF3C732474C0B727303F625995056C3B02963D9EAC146BE78EC5FCEC7FA999EBC5EACBAAE41B12D27B4D2C0BBA49F244E2ECDC81B76B502F113D8F5EE8FB1BE3111CDD4FC2AA9B844CAB1288B68AB90A7CDC
310
1C166AB0D3DC5310625FCC14E779BFD0709F8890A629C9292B1B2DED31A4B0DA928CEE135085754027E3018A397D4D5427D15BD1330B677DC8934285AC3DF45A9EB68FF8F2B8FC0A509AFEECFD0FF2DE25CC6047F7214B195F07EFEB9A094D800F7BFAE8FED187B78EA8A3A400F115961BCAD1215E47C966530AF0EE8128FE
310
58CEBB996A8964FFA529A046635D9353B0336A8F700DDF46271A024E70B0B37C9DE01847591E54DED53D54202AB947E4076556AC49C6CA5C9E1226B7F1A7B1BE15DEED62C41B91E1B3E9AFAAA735036547343A925075041DF0A9979E893B391F8FCFA6967B3EFB644DCF6E5CEBFAE272625DCC6FAF3FB93793C5F90CE1EF57
310
407342756B10D1C489E8953CD1617E5CEECAD6F4EF8914CE5D5D504E5C3F1F9736DA62CFC11E00BCDDB8CC8A9466349744C1F75EBDA4DF09BA8A9E8C7A7E9991989E20E5DBDD6A6003664ED8F7A04A8DBE0DF6EAD9B9AA858342E47399053949D2C146EDB85DE4B176BB0965FBAC19BD19AA918E27FA50C1D22402E144464C
310
59462568E704B6E71915404CB72B8FF4EDE184DDAF753F284990D2C6926782963815403548A70C657FDEF80D2D9CEAA2AE4C1C76F60BFE74219A06527D6582DF6412526107381E55E353090704D085B52408D0933C4ED159D79BDA71BB4BC506F4831350EB6F979CD22D69BF7AC49B91A2C0A9DDA3D5CA36AD20FC478E37E6
310
1844E2352865EBCB6EA275A652E3836BE04EFB400BF1A2556F515F1FBB35B2AB35BD889C744FFA1004B5544B121E57F70215746DD2F5E2C1412B602CBF19455AC6C8E5E9922C4E01E65215385004546899059180EAFCF7A707CE7017CD8CDB0410789AB32C63B91E5CEBBBACB17AC6CD347A022D5075FD106377347AAABA7E
310
7D11590744509B44E205134DC1290F06580320F78E537D3D73540E06CB970B431F185308AD40BBD794D6D77003C5A36E8EAA54BA64597CD8F83BD552A080A365F7FF06504B0304140006080000CC70623B000000000000000000000000350000006662782F39464131463745442D413632322D343644302D413938332D3331
310
353338454246344243312F76657274696365732E62696E504B0304140006080800CC70623BF270F1330600000004000000360000006662782F39464131463745442D413632322D343644302D413938332D3331353338454246344243312F747269616E676C65732E62696E636660600000504B0304140006080000CC70623B
310
000000000000000000000000370000006662782F39464131463745442D413632322D343644302D413938332D3331353338454246344243312F617474726962757465732E62696E504B0304140006080800CC70623B08DA0BD19000000041010000360000006662782F39464131463745442D413632322D343644302D413938
310
332D3331353338454246344243312F6469726563746F72792E786D6C858F410AC3201045AF22B36F53E9A60B35CBEEBAE80D244E44489C6234F4F835464A48035D0DF398FF9F8AF63D0E6CC63039F212F8F9020C7D47C6792B21C5FE7403D62A1188E2E60C98D7234A5830286103A55745067B9D86B8A3CF9C7F90C11DE607
310
FB144396D7B6A82D282E9A152AD114D5EF2CB866EEE831B8EEA07A7BB5A8D7D61A2BAAEB7FD5F70921FF497D00504B0304140006080800CC70623B0D6EF93BFE000000A00100003B0000006662782F39464131463745442D413632322D343644302D413938332D3331353338454246344243312F7265736F75726365732F63
310
6F72652E786D6C8D50596E833010BD0A9ADFCA60B334011947A8694ED00B586642AC041B79A97AFC9A40A5F6AF3F33A3B7689E1E3F7DCD8FEC139DD7D6F4C0720A191A65476DA61E62B892236427C19DB5E1970C322367EC618541F0C9D9B8EC90B226A009093576C41D94DE63804C3DD2D18357379C652E63480A7FCF17A9
310
EE72C29CE5894E3AC17D702940B63D59270887DE46A7D0F36263058F518FBB468FE9A7BE6A7420864373B8D4873369AA8691FA421B3294352543C5CAF65C0F6FEF43CB8BD52C78D0F34F46E550061C419494B6843142CB0F5677F4B52BEB177AEC28E5C52AFF638ACBF84F53D42654E51E77B379102C05791282176B5F693D
310
CB4C7BED567C03504B010214000A0000080000CC70623B3DEE336E79000000790000001B00000000000000000000000000000000006175746F6465736B2D64657369676E2D7061636B6167652E786D6C504B01021400140006080800CC70623BD486FD9CA0000000F40000001300000000000000000000000000B20000005B
310
436F6E74656E745F54797065735D2E786D6C504B01021400140006080800CC70623B1EC5D7A3EB0000007C010000080000000000000000000000000083010000636F72652E786D6C504B01021400140006080800CC70623B55019EA25F0000007C000000070000000000000000000000000094020000636E782E786D6C504B
310
01021400140006080800CC70623B8C9102E971010000D40300000C00000000000000000000000000180300006662782F636F72652E786D6C504B01021400140006080800CC70623BFFEA85907E0000009D0000000B00000000000000000000000000B30400006662782F636E782E786D6C504B01021400140006080800CC70
310
623B4FEEA4082C0100001202000031000000000000000000000000005A0500006662782F39464131463745442D413632322D343644302D413938332D3331353338454246344243312F636F72652E786D6C504B01021400140006080800CC70623BAD7543B64E010000330300003000000000000000000000000000D5060000
310
6662782F39464131463745442D413632322D343644302D413938332D3331353338454246344243312F636E782E786D6C504B01021400140006080800CC70623B16AB87BA640500003C1000003400000000000000000000000000710800006662782F39464131463745442D413632322D343644302D413938332D3331353338
310
454246344243312F6F626A656374732E786D6C504B01021400140006080000CC70623B0000000000000000000000003500000000000000000000000000270E00006662782F39464131463745442D413632322D343644302D413938332D3331353338454246344243312F76657274696365732E62696E504B01021400140006
310
080800CC70623BF270F133060000000400000036000000000000000000000000007A0E00006662782F39464131463745442D413632322D343644302D413938332D3331353338454246344243312F747269616E676C65732E62696E504B01021400140006080000CC70623B0000000000000000000000003700000000000000
310
000000000000D40E00006662782F39464131463745442D413632322D343644302D413938332D3331353338454246344243312F617474726962757465732E62696E504B01021400140006080800CC70623B08DA0BD190000000410100003600000000000000000000000000290F00006662782F39464131463745442D413632
310
322D343644302D413938332D3331353338454246344243312F6469726563746F72792E786D6C504B01021400140006080800CC70623B0D6EF93BFE000000A00100003B000000000000000000000000000D1000006662782F39464131463745442D413632322D343644302D413938332D3331353338454246344243312F7265
310
736F75726365732F636F72652E786D6C504B0506000000000E000E0080040000641100000000
  0
XRECORD
  5
74CA
102
{ACAD_REACTORS
330
173
102
}
330
173
100
AcDbXrecord
280
     1
102
MATERIAL
148
0.0
149
0.0
149
0.0
 93
        0
 94
       63
282
     0
 72
     1
 77
     1
171
     1
175
     1
179
     1
273
     0
  0
XRECORD
  5
175
102
{ACAD_REACTORS
330
173
102
}
330
173
100
AcDbXrecord
280
     1
270
     1
271
     1
  0
XRECORD
  5
174
102
{ACAD_REACTORS
330
173
102
}
330
173
100
AcDbXrecord
280
     1
270
     1
271
     1
  0
XRECORD
  5
1FB
102
{ACAD_REACTORS
330
173
102
}
330
173
100
AcDbXrecord
280
     1
 70
     0
 90
1673772943
  1
ECE7A1D2-D628-4531-984C-D00F80459256
310
504B03040A0000080000CC70623B3DEE336E79000000790000001B0000006175746F6465736B2D64657369676E2D7061636B6167652E786D6C3C3F786D6C2076657273696F6E3D22312E302220656E636F64696E673D227574662D3822203F3E3C666F726D6174733E3C666F726D61743E687474703A2F2F736368656D612E
310
6175746F6465736B2E636F6D2F64657369676E2D7061636B6167652F323030393C2F666F726D61743E3C2F666F726D6174733E504B0304140006080800CC70623BD486FD9CA0000000F4000000130000005B436F6E74656E745F54797065735D2E786D6C7D8EC10E82300C865F65E91D8A1E8C310C0EEA1BF002731658846E
310
D98AC1B77784ABF1D8FE5FBFBF75BBCE937A534CCEB38643598122B6FEE978D0B0485F9C41B54DDD7D022595594E1A469170414C76A4D9A4D207E29CF43ECE46F218070CC6BECC4078ACAA135ACF422C856C0E68EA1BF5669944DDD7BCDE7B1F8E415D77AECB980613C2E4AC91FC167A2B244592486606FC29C8FD7F045B9A
310
EF7053A7E60B504B0304140006080800CC70623BD9DDAED0EC0000007C01000008000000636F72652E786D6C8D90416EC3201045AF82665B61836D9CD8C2444DD39CA01740405C94182C03558F5F9C3852BBEB6A467FFE9B197D7EF89E6EE8CB2CC17A37002D0820E394D7D68D03A478C17B4007C117EFE32F1B20272733C0
310
2A83E0E3E2D3BC49CABB685CCCAAF3DA6CA20CC14440EA969B0182FA34932C648AD911AEC52CD5558EA6A0CF2EC329598D1E47ACCEFBECC59A050463A7EA5833865FEBDD0E37353BE3EE8DBDE3F6786A48D375FBF6CC78B9C282473B3DEFABC5C86834888A900E538A49F5419B9EB47DD5BC907D4F082F57FB1F28CDFA9F50
310
B22ED6D5F6EE030B20687EE43E10BC5CB3C8E51E54AE6B6EE207504B0304140006080800CC70623B55019EA25F0000007C00000007000000636E782E786D6C4DCB3B0E80201045D1AD90E915ED2CF8AC45050C11660C8261F98AB1B07AC9C97D42D718D865D3E909258CFD00CCE24AC6E326A164D74DC0B4128928FF326038
310
472BA13128B1252AC747C6BAB984FC68F0B87FE8960A5C09FE86CFB69FBA01504B0304140006080800CC70623BA24EB22D72010000D40300000C0000006662782F636F72652E786D6CC5535B6E833010BC8AE5DF0A6C5E49888CA3A6694ED00B38E05014B091B1518EDFE511A5A9D228FD2A1F60CDEC7A67C6986DCE4D8D7A
310
69BA4AAB0C073EC548AA5C17952A33ECECD15B61B4E1CC686DBF9561A44423333CC098B3D268D7CE50AE9595CA02AA74216750749DB418E5352C32DCE59FB211BE70162ABA93DF8AFC244AE9073ED050C759670D0840D390E18DF9F1706664C23973AE2A66B62A605A75ACA4C13C4976E1364A12EF355A2EBD384AF65EFA96
310
BC7B8BED2EA6719AAE16FB8491A199335B351775B991C2CA02F390D2D40B028F861F41BCA68B7518BFD0D59A524686F29B26D7164F36B94AD9289CE54E6D1DE6010819891F6E21228B3AD1831EC219194284CF98F06DD01008846CC5A1BEF83801D4CBDC6A1303536877A57A513B0953A94FC707FDBE6064EA84A9E3E6E0FA
310
EE8CF0E9198F7784A316AA0413C2C2F2E0ECA0934D1AE6D05A69BCDE9E91D2A611F573361E38FC1375157F5752AE6B6DFE4B11990F88CCBF0719EE23FF02504B0304140006080800CC70623B408A7D3B7C0000009D0000000B0000006662782F636E782E786D6C4DCCD10A83201886E15B91FFDC552A92A0064DBC8F581632
310
D3703A76F9ABD1C18E3E78F878E5F0D9027ABBFCF2292AE86E2D20171F69F6715550CB827B40839639A5F2770314A7CD293819B45C73AAFB45B35BA61ACAA1C1C7E7855C58C15BC331339661262CC762340413D68D77DA5B42298546CBE6573AF60CEB2F504B0304140006080800CC70623B449FB9BD290100001202000031
310
0000006662782F36394639363044362D344446342D343946362D394244322D3234314243333846323333332F636F72652E786D6C8D515B6EC32010BC0AE22B55850D98B871848994463E412FE002495162B07854397EA176A4F62F3F2C9A9D991D587EB84F37F0AD7D30CEF6905418026DA553C65E7A98E219ED203808EE9D
310
8B7F6810D871D23D2C3014FCE25D9A57483A1BB58D19B54EE9151C43D0110279CB971E06F9A5A7B11A53CC8C70ADE6515EC78BAE4895DB992778883E0700CB907242D17643D7E2538BD869608875438BBAE38922CAC8F1BDD90DB4691A5E2F42C153326A951B95E398B3D1FE599322163C9AE9115F7A3D46ADA0A018778810
310
84E907617BDCEE297BC5BB3DC6BC2EF47FA234AB2745C9D8D8D035EE220B50105E2F0DC1954B9FB747187D9F9D8FA0CCDB042D5FA0C015C65B42DF78BD10F3F3B363CB56C7109DCFDFBBB97E662ED92EB62D13BC2E1BCAE5777DB9966D8A1F504B0304140006080800CC70623BAD7543B64E01000033030000300000006662
310
782F36394639363044362D344446342D343946362D394244322D3234314243333846323333332F636E782E786D6CD593CD6EC32010845F0571AD6CE3D48AD20813A9873E410FBD12D82434182C7EAAE6EDBB2424CD25871E7B41D6EC30B3FA84F9E67BB2E40B4234DE8DB46F1925E094D7C6ED479AD3AE5951B2113C789FEE
310
6C943839C1488B4C05DF079FE72A69D8C96C13AAD6B8631503449F83828872B949AC57D26200B826A308D316B4064D6E46FCDA41C05550DC9E483A00797BFD207EFB092A45DE9514C1BBD22178396BD39D891265658C238DEA00936C654E5E433CB65A26D9F6EDB5EBC14EBF49A45CB856E66048291F6939A9A81BB5C89177
310
38143CA680F4AA299D66A042CEB3354A2684DC9D8D178FE0D9B8B41CAAD720F880EE7EF93C0C18769E099ECC04D5A102C8049A8A05632F4DDF376CF1DE0F6BB65C2F8627B65A33C6BB62177CEBBDAD973006829F89F22E814B54F4BC2BE347F8AA8F681390B50FA73F804400B5F542E796F19FF974E7F78DB802FE05E20750
310
4B0304140006080800CC70623B8D05915C650500003B100000340000006662782F36394639363044362D344446342D343946362D394244322D3234314243333846323333332F6F626A656374732E786D6CAD575B6FA33814FE2B887D06429276DA1565D4266D158D3A339A6846FB502932E050B66023DB74D2FDF5FB190C01
310
9276B2973C046C8ECFF53B17071F77456EBD502133CEAE6CDF9DD81665314F32965ED995DA3A17B6F5310C04E7AA47665B8C14F4CAD6DB7618A48257A5D94AE89654B91AEDDEDDFC61C998326A5B714EA4BCB265FC440BE2924AF184CA6737218AB8E976E7FA6E4338649B0A523E8D98964450A6A029F619B8588D52FE7039
310
B1BD30F0F4F730D0FF866AF6369557DB33949F31A9088B0F848DD8CCFCF9F2767A76E99CCDE733677E3EF59D9BBB9BA5E37F984D16E78BC5E5F5ED25044B25C0C96822E8D60EEFE11B91C581D77CEA34368A1F5329E68CD1B8B61F16D63A1B8E092D294B10C78C4A48EB593D192E7DED9BDEE7995E1B91FDEDD3ACEA9FE831
310
6A756F9F7D4D79F4274C90A7A04248AA51D5F8C718DAE06FB2F75AC4796EBE65D22A88A22223B995679120E2D50E41AA49C260C046A35368846B0BECD0DFF3EBEB8AD4F835768F69B9ADF25C43D30E6B646F807FAA64AD59F61715C7A54127C4AACA98BA3006A9D792DAE165E0D59B61A01FB3A9F9D838D2DAE62445C86166
310
F37564E842E7DE6A69879FEEA2DD5AE7E371E1A5E025154AC307D06A03D73EB5978C58FFA4C8E9033066E0F3BD53BEC1F39F91BE7B55103791EDE6BBB991A2046172CB4581D8B893FA674DDA17A77B3B7C413D1B511FD2743BFF8A38F03A658705E3ADF8015C3A3417FF3D7E439FF591DA0B5F18BC20C1B8981957AE6392A3
310
F43C640C01D1A0B4728E2DD4F26DB4B3C3152A252A3B4E913CEC1C72F012782FF88EFF8637AA552DBEF76408E8A8DE9E50F9E1CB3A2DA0DB1B6039A893B56063DC5B3E3FFB5F72E67AB9FEB4AEC496C4F4C1149625DD662C53E89D7BF0F6151A046260D1337DFDC94502430F83B0EE07A130A224BCAD7DAE1D9FB6CD422FF6
310
920702629C4BB9AE79C12F243C6432A6794E18E5552BA56B431AAB5D91317302B2B071E86C3A42B1A02F999E24061403B5D0EB639195DA655DD3EBEAB4FB862DDF579F014AD0E73C22F99E28DA57FB98E75C6CA2D74D53086D600F4786E0FE3144B771A8A7B900F03594DB8A633CBC49B2EDB69228BB479CF863B5E807AAAB
310
23872F6DFEB4129B949CA33823F58830E86D65621E10047D9DB34D862E8EAC3C2ABC2F7B2C40D67CDFE01F5545B92105AF983AC54D93D69E56FB8E797F88913F898A9FEC705D3F9D1B54EC8426FB500D40A03BD0119B06E1B95DDC7EB8F6975367793EBD70E66733DFB9BC982F9CE564727731999F5D4ECFCE3B8D6A4DC2A0
310
6D50FD148437D110834A64C6CDDF57FBACB5C307A2A477DFE4939736CFEF2B175371E0E10CF0DD1D5C15654E0BCA14D1E87DD02FF93782A162C0A3D95F1524A52770F972BF1EE9809D13CE7DD599467F8ECE9ADD85CE85A34CD45355448C64F9E8A031DC2D596ACC6E5DD93D9B82DE2EF5CAF81363A8E47996A0DE24564A79
310
4115AACE09C55E14540231FDA13C319787134EBF34E3A022514E5B4D9E0826E25C02D5805B15ABE1BEF51B26383D445DD9E875EE33FE4C22DA16427D65A3BCA92CA6D28DD01DF5DC53330704308475351050232CCD31583787BA75774AFB06E5070DD0C8EF484E19968C5D83BA5B90B244D31E54D55A372320FE4786B7EA58
310
44E135AA5467CB7EA333A61683CC6A8C3257034C10CF46F40EF9F5BE59BE5BD30C3C72D235E95D10345C1D45445A5F0BB47E46A5EBE5570F9380B5FA629579952296A773720405982B9DE04011506178964401AA8BDF1FBF0A8EAB6861DD6580C0E38217056766716DAEB2D6FA0917D3E4116581EADB879C4E7CFFB11EFACD
310
3D641311495D92C8676CB409A72D18610D803CE8A626049E8EC1887CB5B44CC39883690DDA8399B4B9855B481E7D71D4A9D22F96E5BB73BF5793020C02137BF837504B0304140006080000CC70623B000000000000000000000000350000006662782F36394639363044362D344446342D343946362D394244322D32343142
310
43333846323333332F76657274696365732E62696E504B0304140006080800CC70623BF270F1330600000004000000360000006662782F36394639363044362D344446342D343946362D394244322D3234314243333846323333332F747269616E676C65732E62696E636660600000504B0304140006080000CC70623B0000
310
00000000000000000000370000006662782F36394639363044362D344446342D343946362D394244322D3234314243333846323333332F617474726962757465732E62696E504B0304140006080800CC70623B08DA0BD19000000041010000360000006662782F36394639363044362D344446342D343946362D394244322D
310
3234314243333846323333332F6469726563746F72792E786D6C858F410AC3201045AF22B36F53E9A60B35CBEEBAE80D244E44489C6234F4F835464A48035D0DF398FF9F8AF63D0E6CC63039F212F8F9020C7D47C6792B21C5FE7403D62A1188E2E60C98D7234A5830286103A55745067B9D86B8A3CF9C7F90C11DE607FB14
310
4396D7B6A82D282E9A152AD114D5EF2CB866EEE831B8EEA07A7BB5A8D7D61A2BAAEB7FD5F70921FF497D00504B0304140006080800CC70623BCA768048FE000000A00100003B0000006662782F36394639363044362D344446342D343946362D394244322D3234314243333846323333332F7265736F75726365732F636F72
310
652E786D6C8D50596E833010BD0A9ADFCA60D600328E9AA639412F609909B1126CE4A5EAF16B0295DABFFECC8CDEA2797AECF8353F924FB44E193D409E5248504B332A3D0D10FC95B4901C39B3C6F85F3248B49871801506CE266BC2B243D2688FDA47549B11775038871E12F988C7004EDE7016A9083E2ADC3D5D84BC8B09
310
D33C8D74D471E6BC8D0192EDC93A815B742658898E651BCB59086ADC356A8C3FD555A1055ED7E7E254D615792D0F075295F585746FF53B694EE78A565DD736979A65AB9933AFE69F8CD2A2F038022F28ED489E135A7CE4554F9BBEA85E68DB53CAB255FEC71496F19FA6A0B42F8B3DEE6673C0F318E4497096AD7DC5F52C33
310
EEB55BFE0D504B010214000A0000080000CC70623B3DEE336E79000000790000001B00000000000000000000000000000000006175746F6465736B2D64657369676E2D7061636B6167652E786D6C504B01021400140006080800CC70623BD486FD9CA0000000F40000001300000000000000000000000000B20000005B436F
310
6E74656E745F54797065735D2E786D6C504B01021400140006080800CC70623BD9DDAED0EC0000007C010000080000000000000000000000000083010000636F72652E786D6C504B01021400140006080800CC70623B55019EA25F0000007C000000070000000000000000000000000095020000636E782E786D6C504B0102
310
1400140006080800CC70623BA24EB22D72010000D40300000C00000000000000000000000000190300006662782F636F72652E786D6C504B01021400140006080800CC70623B408A7D3B7C0000009D0000000B00000000000000000000000000B50400006662782F636E782E786D6C504B01021400140006080800CC70623B
310
449FB9BD290100001202000031000000000000000000000000005A0500006662782F36394639363044362D344446342D343946362D394244322D3234314243333846323333332F636F72652E786D6C504B01021400140006080800CC70623BAD7543B64E010000330300003000000000000000000000000000D20600006662
310
782F36394639363044362D344446342D343946362D394244322D3234314243333846323333332F636E782E786D6C504B01021400140006080800CC70623B8D05915C650500003B10000034000000000000000000000000006E0800006662782F36394639363044362D344446342D343946362D394244322D32343142433338
310
46323333332F6F626A656374732E786D6C504B01021400140006080000CC70623B0000000000000000000000003500000000000000000000000000250E00006662782F36394639363044362D344446342D343946362D394244322D3234314243333846323333332F76657274696365732E62696E504B010214001400060808
310
00CC70623BF270F13306000000040000003600000000000000000000000000780E00006662782F36394639363044362D344446342D343946362D394244322D3234314243333846323333332F747269616E676C65732E62696E504B01021400140006080000CC70623B00000000000000000000000037000000000000000000
310
00000000D20E00006662782F36394639363044362D344446342D343946362D394244322D3234314243333846323333332F617474726962757465732E62696E504B01021400140006080800CC70623B08DA0BD190000000410100003600000000000000000000000000270F00006662782F36394639363044362D344446342D
310
343946362D394244322D3234314243333846323333332F6469726563746F72792E786D6C504B01021400140006080800CC70623BCA768048FE000000A00100003B000000000000000000000000000B1000006662782F36394639363044362D344446342D343946362D394244322D3234314243333846323333332F7265736F
310
75726365732F636F72652E786D6C504B0506000000000E000E0080040000621100000000
  0
XRECORD
  5
176
102
{ACAD_REACTORS
330
173
102
}
330
173
100
AcDbXrecord
280
     1
270
     1
271
     1
  0
XRECORD
  5
177
102
{ACAD_REACTORS
330
173
102
}
330
173
100
AcDbXrecord
280
     1
270
     1
271
     1
  0
XRECORD
  5
74EC
102
{ACAD_REACTORS
330
74EB
102
}
330
74EB
100
AcDbXrecord
280
     1
102
ACAD_ROUNDTRIP_2012_MLEADER_STYLE
298
     1
  0
XRECORD
  5
74FE
102
{ACAD_REACTORS
330
74FD
102
}
330
74FD
100
AcDbXrecord
280
     1
102
DISPLAYNAME
  1
Metric50
102
FLAGS
 90
        0
  0
CELLSTYLEMAP
  5
74BE
102
{ACAD_REACTORS
330
162
102
}
330
162
100
AcDbCellStyleMap
 90
        3
300
CELLSTYLE
  1
TABLEFORMAT_BEGIN
 90
        5
170
     1
 91
        0
 92
    32768
 62
   257
 93
        1
300
CONTENTFORMAT
  1
CONTENTFORMAT_BEGIN
 90
        0
 91
        0
 92
      512
 93
        0
300

 40
0.0
140
1.0
 94
        5
 62
     0
340
11
144
6.0
309
CONTENTFORMAT_END
171
     1
301
MARGIN
  1
CELLMARGIN_BEGIN
 40
1.5
 40
1.5
 40
1.5
 40
1.5
 40
4.5
 40
4.5
309
CELLMARGIN_END
 94
        6
 95
        1
302
GRIDFORMAT
  1
GRIDFORMAT_BEGIN
 90
        0
 91
        1
 62
     0
 92
       -2
340
14
 93
        0
 40
1.125
309
GRIDFORMAT_END
 95
        2
302
GRIDFORMAT
  1
GRIDFORMAT_BEGIN
 90
        0
 91
        1
 62
     0
 92
       -2
340
14
 93
        0
 40
1.125
309
GRIDFORMAT_END
 95
        4
302
GRIDFORMAT
  1
GRIDFORMAT_BEGIN
 90
        0
 91
        1
 62
     0
 92
       -2
340
14
 93
        0
 40
1.125
309
GRIDFORMAT_END
 95
        8
302
GRIDFORMAT
  1
GRIDFORMAT_BEGIN
 90
        0
 91
        1
 62
     0
 92
       -2
340
14
 93
        0
 40
1.125
309
GRIDFORMAT_END
 95
       16
302
GRIDFORMAT
  1
GRIDFORMAT_BEGIN
 90
        0
 91
        1
 62
     0
 92
       -2
340
14
 93
        0
 40
1.125
309
GRIDFORMAT_END
 95
       32
302
GRIDFORMAT
  1
GRIDFORMAT_BEGIN
 90
        0
 91
        1
 62
     0
 92
       -2
340
14
 93
        0
 40
1.125
309
GRIDFORMAT_END
309
TABLEFORMAT_END
  1
CELLSTYLE_BEGIN
 90
        1
 91
        1
300
_TITLE
309
CELLSTYLE_END
300
CELLSTYLE
  1
TABLEFORMAT_BEGIN
 90
        5
170
     1
 91
        0
 92
        0
 62
   257
 93
        1
300
CONTENTFORMAT
  1
CONTENTFORMAT_BEGIN
 90
        0
 91
        0
 92
      512
 93
        0
300

 40
0.0
140
1.0
 94
        5
 62
     0
340
11
144
4.5
309
CONTENTFORMAT_END
171
     1
301
MARGIN
  1
CELLMARGIN_BEGIN
 40
1.5
 40
1.5
 40
1.5
 40
1.5
 40
4.5
 40
4.5
309
CELLMARGIN_END
 94
        6
 95
        1
302
GRIDFORMAT
  1
GRIDFORMAT_BEGIN
 90
        0
 91
        1
 62
     0
 92
       -2
340
14
 93
        0
 40
1.125
309
GRIDFORMAT_END
 95
        2
302
GRIDFORMAT
  1
GRIDFORMAT_BEGIN
 90
        0
 91
        1
 62
     0
 92
       -2
340
14
 93
        0
 40
1.125
309
GRIDFORMAT_END
 95
        4
302
GRIDFORMAT
  1
GRIDFORMAT_BEGIN
 90
        0
 91
        1
 62
     0
 92
       -2
340
14
 93
        0
 40
1.125
309
GRIDFORMAT_END
 95
        8
302
GRIDFORMAT
  1
GRIDFORMAT_BEGIN
 90
        0
 91
        1
 62
     0
 92
       -2
340
14
 93
        0
 40
1.125
309
GRIDFORMAT_END
 95
       16
302
GRIDFORMAT
  1
GRIDFORMAT_BEGIN
 90
        0
 91
        1
 62
     0
 92
       -2
340
14
 93
        0
 40
1.125
309
GRIDFORMAT_END
 95
       32
302
GRIDFORMAT
  1
GRIDFORMAT_BEGIN
 90
        0
 91
        1
 62
     0
 92
       -2
340
14
 93
        0
 40
1.125
309
GRIDFORMAT_END
309
TABLEFORMAT_END
  1
CELLSTYLE_BEGIN
 90
        2
 91
        1
300
_HEADER
309
CELLSTYLE_END
300
CELLSTYLE
  1
TABLEFORMAT_BEGIN
 90
        5
170
     1
 91
        0
 92
        0
 62
   257
 93
        1
300
CONTENTFORMAT
  1
CONTENTFORMAT_BEGIN
 90
        0
 91
        0
 92
      512
 93
        0
300

 40
0.0
140
1.0
 94
        2
 62
     0
340
11
144
4.5
309
CONTENTFORMAT_END
171
     1
301
MARGIN
  1
CELLMARGIN_BEGIN
 40
1.5
 40
1.5
 40
1.5
 40
1.5
 40
4.5
 40
4.5
309
CELLMARGIN_END
 94
        6
 95
        1
302
GRIDFORMAT
  1
GRIDFORMAT_BEGIN
 90
        0
 91
        1
 62
     0
 92
       -2
340
14
 93
        0
 40
1.125
309
GRIDFORMAT_END
 95
        2
302
GRIDFORMAT
  1
GRIDFORMAT_BEGIN
 90
        0
 91
        1
 62
     0
 92
       -2
340
14
 93
        0
 40
1.125
309
GRIDFORMAT_END
 95
        4
302
GRIDFORMAT
  1
GRIDFORMAT_BEGIN
 90
        0
 91
        1
 62
     0
 92
       -2
340
14
 93
        0
 40
1.125
309
GRIDFORMAT_END
 95
        8
302
GRIDFORMAT
  1
GRIDFORMAT_BEGIN
 90
        0
 91
        1
 62
     0
 92
       -2
340
14
 93
        0
 40
1.125
309
GRIDFORMAT_END
 95
       16
302
GRIDFORMAT
  1
GRIDFORMAT_BEGIN
 90
        0
 91
        1
 62
     0
 92
       -2
340
14
 93
        0
 40
1.125
309
GRIDFORMAT_END
 95
       32
302
GRIDFORMAT
  1
GRIDFORMAT_BEGIN
 90
        0
 91
        1
 62
     0
 92
       -2
340
14
 93
        0
 40
1.125
309
GRIDFORMAT_END
309
TABLEFORMAT_END
  1
CELLSTYLE_BEGIN
 90
        3
 91
        2
300
_DATA
309
CELLSTYLE_END
  0
XRECORD
  5
74C3
102
{ACAD_REACTORS
330
162
102
}
330
162
100
AcDbXrecord
280
     1
102
ACAD_ROUNDTRIP_PRE2007_TABLESTYLE
 90
      512
 91
        0
  1

 92
      512
 93
        0
  2

 94
      512
 95
        0
  3

  0
XRECORD
  5
74D6
102
{ACAD_REACTORS
330
74D5
102
}
330
74D5
100
AcDbXrecord
280
     1
102
RTVSPost2010Prop28
280
     1
102
RTVSPost2010PropOp28
 70
     1
102
RTVSPost2010Prop29
280
     1
102
RTVSPost2010PropOp29
 70
     1
102
RTVSPost2010Prop30
280
     0
102
RTVSPost2010PropOp30
 70
     1
102
RTVSPost2010Prop31
280
     0
102
RTVSPost2010PropOp31
 70
     1
102
RTVSPost2010Prop32
280
     0
102
RTVSPost2010PropOp32
 70
     1
102
RTVSPost2010Prop33
280
     0
102
RTVSPost2010PropOp33
 70
     1
102
RTVSPost2010Prop34
280
     0
102
RTVSPost2010PropOp34
 70
     1
102
RTVSPost2010Prop35
280
     0
102
RTVSPost2010PropOp35
 70
     1
102
RTVSPost2010Prop36
280
     0
102
RTVSPost2010PropOp36
 70
     1
102
RTVSPost2010Prop37
 90
       50
102
RTVSPost2010PropOp37
 70
     1
102
RTVSPost2010Prop38
140
0.0
102
RTVSPost2010PropOp38
 70
     1
102
RTVSPost2010Prop39
140
1.0
102
RTVSPost2010PropOp39
 70
     1
102
RTVSPost2010Prop40
 90
        0
102
RTVSPost2010PropOp40
 70
     1
102
RTVSPost2010Prop41ColorIndex
 90
       18
102
RTVSPost2010Prop41ColorRGB
 90
        0
102
RTVSPost2010PropOp41
 70
     1
102
RTVSPost2010Prop42
 90
       50
102
RTVSPost2010PropOp42
 70
     1
102
RTVSPost2010Prop43
 90
        3
102
RTVSPost2010PropOp43
 70
     1
102
RTVSPost2010Prop44ColorIndex
 90
        5
102
RTVSPost2010Prop44ColorRGB
 90
      255
102
RTVSPost2010PropOp44
 70
     1
102
RTVSPost2010Prop45
280
     0
102
RTVSPost2010PropOp45
 70
     1
102
RTVSPost2010Prop46
 90
       50
102
RTVSPost2010PropOp46
 70
     1
102
RTVSPost2010Prop47
 90
       50
102
RTVSPost2010PropOp47
 70
     1
102
RTVSPost2010Prop48
 90
       50
102
RTVSPost2010PropOp48
 70
     1
102
RTVSPost2010Prop49
280
     0
102
RTVSPost2010PropOp49
 70
     1
102
RTVSPost2010Prop50
 90
       50
102
RTVSPost2010PropOp50
 70
     1
102
RTVSPost2010Prop51ColorIndex
 90
      256
102
RTVSPost2010Prop51ColorRGB
 90
-16777216
102
RTVSPost2010PropOp51
 70
     0
102
RTVSPost2010Prop52
140
1.0
102
RTVSPost2010PropOp52
 70
     0
102
RTVSPost2010Prop53
 90
        2
102
RTVSPost2010PropOp53
 70
     1
102
RTVSPost2010Prop54
  1
strokes_ogs.tif
102
RTVSPost2010PropOp54
 70
     1
102
RTVSPost2010Prop55
280
     0
102
RTVSPost2010PropOp55
 70
     1
102
RTVSPost2010Prop56
140
1.0
102
RTVSPost2010PropOp56
 70
     1
102
RTVSPost2010Prop57
140
1.0
102
RTVSPost2010PropOp57
 70
     1
102
RTVSPropertyOp0
 70
     1
102
RTVSPropertyOp1
 70
     1
102
RTVSPropertyOp2
 70
     1
102
RTVSPropertyOp3
 70
     1
102
RTVSPropertyOp4
 70
     1
102
RTVSPropertyOp5
 70
     1
102
RTVSPropertyOp6
 70
     1
102
RTVSPropertyOp7
 70
     1
102
RTVSPropertyOp8
 70
     1
102
RTVSPropertyOp9
 70
     1
102
RTVSPropertyOp10
 70
     1
102
RTVSPropertyOp11
 70
     1
102
RTVSPropertyOp12
 70
     1
102
RTVSPropertyOp13
 70
     1
102
RTVSPropertyOp14
 70
     1
102
RTVSPropertyOp15
 70
     1
102
RTVSPropertyOp16
 70
     1
102
RTVSPropertyOp17
 70
     1
102
RTVSPropertyOp18
 70
     1
102
RTVSPropertyOp19
 70
     1
102
RTVSPropertyOp20
 70
     1
102
RTVSPropertyOp21
 70
     1
102
RTVSPropertyOp22
 70
     1
102
RTVSPropertyOp23
 70
     1
102
RTVSPropertyOp24
 70
     1
102
RTVSPropertyOp25
 70
     1
102
RTVSPropertyOp26
 70
     1
102
RTVSPropertyOp27
 70
     1
102
RTVSPropertyOp28
 70
     1
102
RTVSPropertyOp29
 70
     1
102
RTVSPropertyOp30
 70
     1
102
RTVSPropertyOp31
 70
     1
102
RTVSPropertyOp32
 70
     1
102
RTVSPropertyOp33
 70
     1
102
RTVSPropertyOp34
 70
     1
102
RTVSPropertyOp35
 70
     1
102
RTVSPropertyOp36
 70
     1
102
RTVSPropertyOp37
 70
     1
102
RTVSPropertyOp38
 70
     1
102
RTVSPropertyOp39
 70
     1
102
RTVSPropertyOp40
 70
     1
102
RTVSPropertyOp41
 70
     1
102
RTVSPropertyOp42
 70
     1
102
RTVSPropertyOp43
 70
     1
102
RTVSPropertyOp44
 70
     1
102
RTVSPropertyOp45
 70
     1
102
RTVSPropertyOp46
 70
     1
102
RTVSPropertyOp47
 70
     1
102
RTVSPropertyOp48
 70
     1
102
RTVSPropertyOp49
 70
     1
102
RTVSPropertyOp50
 70
     1
102
RTVSPropertyOp51
 70
     0
102
RTVSPropertyOp52
 70
     0
102
RTVSPropertyOp53
 70
     1
102
RTVSPropertyOp54
 70
     1
102
RTVSPropertyOp55
 70
     1
102
RTVSPropertyOp56
 70
     1
102
RTVSPropertyOp57
 70
     1
102
RTVSPropertyOp58
 70
     1
102
RTVSPropertyOp59
 70
     1
102
RTVSPropertyOp60
 70
     1
102
RTVSPropertyOp61
 70
     1
102
RTVSPropertyOp62
 70
     1
  0
XRECORD
  5
74D4
102
{ACAD_REACTORS
330
74D3
102
}
330
74D3
100
AcDbXrecord
280
     1
102
RTVSPost2010Prop28
280
     0
102
RTVSPost2010PropOp28
 70
     1
102
RTVSPost2010Prop29
280
     1
102
RTVSPost2010PropOp29
 70
     1
102
RTVSPost2010Prop30
280
     1
102
RTVSPost2010PropOp30
 70
     1
102
RTVSPost2010Prop31
280
     0
102
RTVSPost2010PropOp31
 70
     1
102
RTVSPost2010Prop32
280
     0
102
RTVSPost2010PropOp32
 70
     1
102
RTVSPost2010Prop33
280
     0
102
RTVSPost2010PropOp33
 70
     1
102
RTVSPost2010Prop34
280
     0
102
RTVSPost2010PropOp34
 70
     1
102
RTVSPost2010Prop35
280
     0
102
RTVSPost2010PropOp35
 70
     1
102
RTVSPost2010Prop36
280
     0
102
RTVSPost2010PropOp36
 70
     1
102
RTVSPost2010Prop37
 90
       50
102
RTVSPost2010PropOp37
 70
     1
102
RTVSPost2010Prop38
140
0.0
102
RTVSPost2010PropOp38
 70
     1
102
RTVSPost2010Prop39
140
1.0
102
RTVSPost2010PropOp39
 70
     1
102
RTVSPost2010Prop40
 90
        0
102
RTVSPost2010PropOp40
 70
     1
102
RTVSPost2010Prop41ColorIndex
 90
       18
102
RTVSPost2010Prop41ColorRGB
 90
        0
102
RTVSPost2010PropOp41
 70
     1
102
RTVSPost2010Prop42
 90
       50
102
RTVSPost2010PropOp42
 70
     1
102
RTVSPost2010Prop43
 90
        3
102
RTVSPost2010PropOp43
 70
     1
102
RTVSPost2010Prop44ColorIndex
 90
        5
102
RTVSPost2010Prop44ColorRGB
 90
      255
102
RTVSPost2010PropOp44
 70
     1
102
RTVSPost2010Prop45
280
     0
102
RTVSPost2010PropOp45
 70
     1
102
RTVSPost2010Prop46
 90
       50
102
RTVSPost2010PropOp46
 70
     1
102
RTVSPost2010Prop47
 90
       50
102
RTVSPost2010PropOp47
 70
     1
102
RTVSPost2010Prop48
 90
       50
102
RTVSPost2010PropOp48
 70
     1
102
RTVSPost2010Prop49
280
     0
102
RTVSPost2010PropOp49
 70
     1
102
RTVSPost2010Prop50
 90
       50
102
RTVSPost2010PropOp50
 70
     1
102
RTVSPost2010Prop51ColorIndex
 90
      256
102
RTVSPost2010Prop51ColorRGB
 90
-16777216
102
RTVSPost2010PropOp51
 70
     0
102
RTVSPost2010Prop52
140
1.0
102
RTVSPost2010PropOp52
 70
     0
102
RTVSPost2010Prop53
 90
        2
102
RTVSPost2010PropOp53
 70
     1
102
RTVSPost2010Prop54
  1
strokes_ogs.tif
102
RTVSPost2010PropOp54
 70
     1
102
RTVSPost2010Prop55
280
     0
102
RTVSPost2010PropOp55
 70
     1
102
RTVSPost2010Prop56
140
1.0
102
RTVSPost2010PropOp56
 70
     1
102
RTVSPost2010Prop57
140
1.0
102
RTVSPost2010PropOp57
 70
     1
102
RTVSPropertyOp0
 70
     1
102
RTVSPropertyOp1
 70
     1
102
RTVSPropertyOp2
 70
     1
102
RTVSPropertyOp3
 70
     1
102
RTVSPropertyOp4
 70
     1
102
RTVSPropertyOp5
 70
     1
102
RTVSPropertyOp6
 70
     1
102
RTVSPropertyOp7
 70
     1
102
RTVSPropertyOp8
 70
     1
102
RTVSPropertyOp9
 70
     1
102
RTVSPropertyOp10
 70
     1
102
RTVSPropertyOp11
 70
     1
102
RTVSPropertyOp12
 70
     1
102
RTVSPropertyOp13
 70
     1
102
RTVSPropertyOp14
 70
     1
102
RTVSPropertyOp15
 70
     1
102
RTVSPropertyOp16
 70
     1
102
RTVSPropertyOp17
 70
     1
102
RTVSPropertyOp18
 70
     1
102
RTVSPropertyOp19
 70
     1
102
RTVSPropertyOp20
 70
     1
102
RTVSPropertyOp21
 70
     1
102
RTVSPropertyOp22
 70
     1
102
RTVSPropertyOp23
 70
     1
102
RTVSPropertyOp24
 70
     1
102
RTVSPropertyOp25
 70
     1
102
RTVSPropertyOp26
 70
     1
102
RTVSPropertyOp27
 70
     1
102
RTVSPropertyOp28
 70
     1
102
RTVSPropertyOp29
 70
     1
102
RTVSPropertyOp30
 70
     1
102
RTVSPropertyOp31
 70
     1
102
RTVSPropertyOp32
 70
     1
102
RTVSPropertyOp33
 70
     1
102
RTVSPropertyOp34
 70
     1
102
RTVSPropertyOp35
 70
     1
102
RTVSPropertyOp36
 70
     1
102
RTVSPropertyOp37
 70
     1
102
RTVSPropertyOp38
 70
     1
102
RTVSPropertyOp39
 70
     1
102
RTVSPropertyOp40
 70
     1
102
RTVSPropertyOp41
 70
     1
102
RTVSPropertyOp42
 70
     1
102
RTVSPropertyOp43
 70
     1
102
RTVSPropertyOp44
 70
     1
102
RTVSPropertyOp45
 70
     1
102
RTVSPropertyOp46
 70
     1
102
RTVSPropertyOp47
 70
     1
102
RTVSPropertyOp48
 70
     1
102
RTVSPropertyOp49
 70
     1
102
RTVSPropertyOp50
 70
     1
102
RTVSPropertyOp51
 70
     0
102
RTVSPropertyOp52
 70
     0
102
RTVSPropertyOp53
 70
     1
102
RTVSPropertyOp54
 70
     1
102
RTVSPropertyOp55
 70
     1
102
RTVSPropertyOp56
 70
     1
102
RTVSPropertyOp57
 70
     1
102
RTVSPropertyOp58
 70
     1
102
RTVSPropertyOp59
 70
     1
102
RTVSPropertyOp60
 70
     1
102
RTVSPropertyOp61
 70
     1
102
RTVSPropertyOp62
 70
     1
  0
XRECORD
  5
74E2
102
{ACAD_REACTORS
330
74E1
102
}
330
74E1
100
AcDbXrecord
280
     1
102
RTVSPost2010Prop28
280
     0
102
RTVSPost2010PropOp28
 70
     1
102
RTVSPost2010Prop29
280
     1
102
RTVSPost2010PropOp29
 70
     1
102
RTVSPost2010Prop30
280
     1
102
RTVSPost2010PropOp30
 70
     1
102
RTVSPost2010Prop31
280
     0
102
RTVSPost2010PropOp31
 70
     1
102
RTVSPost2010Prop32
280
     0
102
RTVSPost2010PropOp32
 70
     1
102
RTVSPost2010Prop33
280
     0
102
RTVSPost2010PropOp33
 70
     1
102
RTVSPost2010Prop34
280
     0
102
RTVSPost2010PropOp34
 70
     1
102
RTVSPost2010Prop35
280
     0
102
RTVSPost2010PropOp35
 70
     1
102
RTVSPost2010Prop36
280
     0
102
RTVSPost2010PropOp36
 70
     1
102
RTVSPost2010Prop37
 90
       50
102
RTVSPost2010PropOp37
 70
     1
102
RTVSPost2010Prop38
140
0.0
102
RTVSPost2010PropOp38
 70
     1
102
RTVSPost2010Prop39
140
1.0
102
RTVSPost2010PropOp39
 70
     1
102
RTVSPost2010Prop40
 90
        0
102
RTVSPost2010PropOp40
 70
     1
102
RTVSPost2010Prop41ColorIndex
 90
       18
102
RTVSPost2010Prop41ColorRGB
 90
        0
102
RTVSPost2010PropOp41
 70
     1
102
RTVSPost2010Prop42
 90
       50
102
RTVSPost2010PropOp42
 70
     1
102
RTVSPost2010Prop43
 90
        3
102
RTVSPost2010PropOp43
 70
     1
102
RTVSPost2010Prop44ColorIndex
 90
        5
102
RTVSPost2010Prop44ColorRGB
 90
      255
102
RTVSPost2010PropOp44
 70
     1
102
RTVSPost2010Prop45
280
     0
102
RTVSPost2010PropOp45
 70
     1
102
RTVSPost2010Prop46
 90
       50
102
RTVSPost2010PropOp46
 70
     1
102
RTVSPost2010Prop47
 90
       50
102
RTVSPost2010PropOp47
 70
     1
102
RTVSPost2010Prop48
 90
       50
102
RTVSPost2010PropOp48
 70
     1
102
RTVSPost2010Prop49
280
     0
102
RTVSPost2010PropOp49
 70
     1
102
RTVSPost2010Prop50
 90
       50
102
RTVSPost2010PropOp50
 70
     1
102
RTVSPost2010Prop51ColorIndex
 90
      256
102
RTVSPost2010Prop51ColorRGB
 90
-16777216
102
RTVSPost2010PropOp51
 70
     0
102
RTVSPost2010Prop52
140
1.0
102
RTVSPost2010PropOp52
 70
     0
102
RTVSPost2010Prop53
 90
        2
102
RTVSPost2010PropOp53
 70
     1
102
RTVSPost2010Prop54
  1
strokes_ogs.tif
102
RTVSPost2010PropOp54
 70
     1
102
RTVSPost2010Prop55
280
     0
102
RTVSPost2010PropOp55
 70
     1
102
RTVSPost2010Prop56
140
1.0
102
RTVSPost2010PropOp56
 70
     1
102
RTVSPost2010Prop57
140
1.0
102
RTVSPost2010PropOp57
 70
     1
102
RTVSPropertyOp0
 70
     1
102
RTVSPropertyOp1
 70
     1
102
RTVSPropertyOp2
 70
     1
102
RTVSPropertyOp3
 70
     1
102
RTVSPropertyOp4
 70
     1
102
RTVSPropertyOp5
 70
     1
102
RTVSPropertyOp6
 70
     1
102
RTVSPropertyOp7
 70
     1
102
RTVSPropertyOp8
 70
     1
102
RTVSPropertyOp9
 70
     1
102
RTVSPropertyOp10
 70
     1
102
RTVSPropertyOp11
 70
     1
102
RTVSPropertyOp12
 70
     1
102
RTVSPropertyOp13
 70
     1
102
RTVSPropertyOp14
 70
     1
102
RTVSPropertyOp15
 70
     1
102
RTVSPropertyOp16
 70
     1
102
RTVSPropertyOp17
 70
     1
102
RTVSPropertyOp18
 70
     1
102
RTVSPropertyOp19
 70
     1
102
RTVSPropertyOp20
 70
     1
102
RTVSPropertyOp21
 70
     1
102
RTVSPropertyOp22
 70
     1
102
RTVSPropertyOp23
 70
     1
102
RTVSPropertyOp24
 70
     1
102
RTVSPropertyOp25
 70
     1
102
RTVSPropertyOp26
 70
     1
102
RTVSPropertyOp27
 70
     1
102
RTVSPropertyOp28
 70
     1
102
RTVSPropertyOp29
 70
     1
102
RTVSPropertyOp30
 70
     1
102
RTVSPropertyOp31
 70
     1
102
RTVSPropertyOp32
 70
     1
102
RTVSPropertyOp33
 70
     1
102
RTVSPropertyOp34
 70
     1
102
RTVSPropertyOp35
 70
     1
102
RTVSPropertyOp36
 70
     1
102
RTVSPropertyOp37
 70
     1
102
RTVSPropertyOp38
 70
     1
102
RTVSPropertyOp39
 70
     1
102
RTVSPropertyOp40
 70
     1
102
RTVSPropertyOp41
 70
     1
102
RTVSPropertyOp42
 70
     1
102
RTVSPropertyOp43
 70
     1
102
RTVSPropertyOp44
 70
     1
102
RTVSPropertyOp45
 70
     1
102
RTVSPropertyOp46
 70
     1
102
RTVSPropertyOp47
 70
     1
102
RTVSPropertyOp48
 70
     1
102
RTVSPropertyOp49
 70
     1
102
RTVSPropertyOp50
 70
     1
102
RTVSPropertyOp51
 70
     0
102
RTVSPropertyOp52
 70
     0
102
RTVSPropertyOp53
 70
     1
102
RTVSPropertyOp54
 70
     1
102
RTVSPropertyOp55
 70
     1
102
RTVSPropertyOp56
 70
     1
102
RTVSPropertyOp57
 70
     1
102
RTVSPropertyOp58
 70
     1
102
RTVSPropertyOp59
 70
     1
102
RTVSPropertyOp60
 70
     1
102
RTVSPropertyOp61
 70
     1
102
RTVSPropertyOp62
 70
     1
  0
XRECORD
  5
74EA
102
{ACAD_REACTORS
330
74E9
102
}
330
74E9
100
AcDbXrecord
280
     1
102
RTVSPost2010Prop28
280
     0
102
RTVSPost2010PropOp28
 70
     1
102
RTVSPost2010Prop29
280
     1
102
RTVSPost2010PropOp29
 70
     1
102
RTVSPost2010Prop30
280
     1
102
RTVSPost2010PropOp30
 70
     1
102
RTVSPost2010Prop31
280
     0
102
RTVSPost2010PropOp31
 70
     1
102
RTVSPost2010Prop32
280
     0
102
RTVSPost2010PropOp32
 70
     1
102
RTVSPost2010Prop33
280
     0
102
RTVSPost2010PropOp33
 70
     1
102
RTVSPost2010Prop34
280
     0
102
RTVSPost2010PropOp34
 70
     1
102
RTVSPost2010Prop35
280
     0
102
RTVSPost2010PropOp35
 70
     1
102
RTVSPost2010Prop36
280
     0
102
RTVSPost2010PropOp36
 70
     1
102
RTVSPost2010Prop37
 90
       50
102
RTVSPost2010PropOp37
 70
     1
102
RTVSPost2010Prop38
140
0.0
102
RTVSPost2010PropOp38
 70
     1
102
RTVSPost2010Prop39
140
1.0
102
RTVSPost2010PropOp39
 70
     1
102
RTVSPost2010Prop40
 90
        0
102
RTVSPost2010PropOp40
 70
     1
102
RTVSPost2010Prop41ColorIndex
 90
       18
102
RTVSPost2010Prop41ColorRGB
 90
        0
102
RTVSPost2010PropOp41
 70
     1
102
RTVSPost2010Prop42
 90
       50
102
RTVSPost2010PropOp42
 70
     1
102
RTVSPost2010Prop43
 90
        3
102
RTVSPost2010PropOp43
 70
     1
102
RTVSPost2010Prop44ColorIndex
 90
        5
102
RTVSPost2010Prop44ColorRGB
 90
      255
102
RTVSPost2010PropOp44
 70
     1
102
RTVSPost2010Prop45
280
     0
102
RTVSPost2010PropOp45
 70
     1
102
RTVSPost2010Prop46
 90
       50
102
RTVSPost2010PropOp46
 70
     1
102
RTVSPost2010Prop47
 90
       50
102
RTVSPost2010PropOp47
 70
     1
102
RTVSPost2010Prop48
 90
       50
102
RTVSPost2010PropOp48
 70
     1
102
RTVSPost2010Prop49
280
     0
102
RTVSPost2010PropOp49
 70
     1
102
RTVSPost2010Prop50
 90
       50
102
RTVSPost2010PropOp50
 70
     1
102
RTVSPost2010Prop51ColorIndex
 90
      256
102
RTVSPost2010Prop51ColorRGB
 90
-16777216
102
RTVSPost2010PropOp51
 70
     0
102
RTVSPost2010Prop52
140
1.0
102
RTVSPost2010PropOp52
 70
     0
102
RTVSPost2010Prop53
 90
        2
102
RTVSPost2010PropOp53
 70
     1
102
RTVSPost2010Prop54
  1
strokes_ogs.tif
102
RTVSPost2010PropOp54
 70
     1
102
RTVSPost2010Prop55
280
     0
102
RTVSPost2010PropOp55
 70
     1
102
RTVSPost2010Prop56
140
1.0
102
RTVSPost2010PropOp56
 70
     1
102
RTVSPost2010Prop57
140
1.0
102
RTVSPost2010PropOp57
 70
     1
102
RTVSPropertyOp0
 70
     1
102
RTVSPropertyOp1
 70
     1
102
RTVSPropertyOp2
 70
     1
102
RTVSPropertyOp3
 70
     1
102
RTVSPropertyOp4
 70
     1
102
RTVSPropertyOp5
 70
     1
102
RTVSPropertyOp6
 70
     1
102
RTVSPropertyOp7
 70
     1
102
RTVSPropertyOp8
 70
     1
102
RTVSPropertyOp9
 70
     1
102
RTVSPropertyOp10
 70
     1
102
RTVSPropertyOp11
 70
     1
102
RTVSPropertyOp12
 70
     1
102
RTVSPropertyOp13
 70
     1
102
RTVSPropertyOp14
 70
     1
102
RTVSPropertyOp15
 70
     1
102
RTVSPropertyOp16
 70
     1
102
RTVSPropertyOp17
 70
     1
102
RTVSPropertyOp18
 70
     1
102
RTVSPropertyOp19
 70
     1
102
RTVSPropertyOp20
 70
     1
102
RTVSPropertyOp21
 70
     1
102
RTVSPropertyOp22
 70
     1
102
RTVSPropertyOp23
 70
     1
102
RTVSPropertyOp24
 70
     1
102
RTVSPropertyOp25
 70
     1
102
RTVSPropertyOp26
 70
     1
102
RTVSPropertyOp27
 70
     1
102
RTVSPropertyOp28
 70
     1
102
RTVSPropertyOp29
 70
     1
102
RTVSPropertyOp30
 70
     1
102
RTVSPropertyOp31
 70
     1
102
RTVSPropertyOp32
 70
     1
102
RTVSPropertyOp33
 70
     1
102
RTVSPropertyOp34
 70
     1
102
RTVSPropertyOp35
 70
     1
102
RTVSPropertyOp36
 70
     1
102
RTVSPropertyOp37
 70
     1
102
RTVSPropertyOp38
 70
     1
102
RTVSPropertyOp39
 70
     1
102
RTVSPropertyOp40
 70
     1
102
RTVSPropertyOp41
 70
     1
102
RTVSPropertyOp42
 70
     1
102
RTVSPropertyOp43
 70
     1
102
RTVSPropertyOp44
 70
     1
102
RTVSPropertyOp45
 70
     1
102
RTVSPropertyOp46
 70
     1
102
RTVSPropertyOp47
 70
     1
102
RTVSPropertyOp48
 70
     1
102
RTVSPropertyOp49
 70
     1
102
RTVSPropertyOp50
 70
     1
102
RTVSPropertyOp51
 70
     0
102
RTVSPropertyOp52
 70
     0
102
RTVSPropertyOp53
 70
     1
102
RTVSPropertyOp54
 70
     1
102
RTVSPropertyOp55
 70
     1
102
RTVSPropertyOp56
 70
     1
102
RTVSPropertyOp57
 70
     1
102
RTVSPropertyOp58
 70
     1
102
RTVSPropertyOp59
 70
     1
102
RTVSPropertyOp60
 70
     1
102
RTVSPropertyOp61
 70
     1
102
RTVSPropertyOp62
 70
     1
  0
XRECORD
  5
74DC
102
{ACAD_REACTORS
330
74DB
102
}
330
74DB
100
AcDbXrecord
280
     1
102
RTVSPost2010Prop28
280
     0
102
RTVSPost2010PropOp28
 70
     1
102
RTVSPost2010Prop29
280
     1
102
RTVSPost2010PropOp29
 70
     1
102
RTVSPost2010Prop30
280
     1
102
RTVSPost2010PropOp30
 70
     1
102
RTVSPost2010Prop31
280
     0
102
RTVSPost2010PropOp31
 70
     1
102
RTVSPost2010Prop32
280
     0
102
RTVSPost2010PropOp32
 70
     1
102
RTVSPost2010Prop33
280
     0
102
RTVSPost2010PropOp33
 70
     1
102
RTVSPost2010Prop34
280
     0
102
RTVSPost2010PropOp34
 70
     1
102
RTVSPost2010Prop35
280
     0
102
RTVSPost2010PropOp35
 70
     1
102
RTVSPost2010Prop36
280
     0
102
RTVSPost2010PropOp36
 70
     1
102
RTVSPost2010Prop37
 90
       50
102
RTVSPost2010PropOp37
 70
     1
102
RTVSPost2010Prop38
140
0.0
102
RTVSPost2010PropOp38
 70
     1
102
RTVSPost2010Prop39
140
1.0
102
RTVSPost2010PropOp39
 70
     1
102
RTVSPost2010Prop40
 90
        0
102
RTVSPost2010PropOp40
 70
     1
102
RTVSPost2010Prop41ColorIndex
 90
       18
102
RTVSPost2010Prop41ColorRGB
 90
        0
102
RTVSPost2010PropOp41
 70
     1
102
RTVSPost2010Prop42
 90
       50
102
RTVSPost2010PropOp42
 70
     1
102
RTVSPost2010Prop43
 90
        3
102
RTVSPost2010PropOp43
 70
     1
102
RTVSPost2010Prop44ColorIndex
 90
        5
102
RTVSPost2010Prop44ColorRGB
 90
      255
102
RTVSPost2010PropOp44
 70
     1
102
RTVSPost2010Prop45
280
     0
102
RTVSPost2010PropOp45
 70
     1
102
RTVSPost2010Prop46
 90
       50
102
RTVSPost2010PropOp46
 70
     1
102
RTVSPost2010Prop47
 90
       50
102
RTVSPost2010PropOp47
 70
     1
102
RTVSPost2010Prop48
 90
       50
102
RTVSPost2010PropOp48
 70
     1
102
RTVSPost2010Prop49
280
     0
102
RTVSPost2010PropOp49
 70
     1
102
RTVSPost2010Prop50
 90
       50
102
RTVSPost2010PropOp50
 70
     1
102
RTVSPost2010Prop51ColorIndex
 90
      256
102
RTVSPost2010Prop51ColorRGB
 90
-16777216
102
RTVSPost2010PropOp51
 70
     0
102
RTVSPost2010Prop52
140
1.0
102
RTVSPost2010PropOp52
 70
     0
102
RTVSPost2010Prop53
 90
        2
102
RTVSPost2010PropOp53
 70
     1
102
RTVSPost2010Prop54
  1
strokes_ogs.tif
102
RTVSPost2010PropOp54
 70
     1
102
RTVSPost2010Prop55
280
     0
102
RTVSPost2010PropOp55
 70
     1
102
RTVSPost2010Prop56
140
1.0
102
RTVSPost2010PropOp56
 70
     1
102
RTVSPost2010Prop57
140
1.0
102
RTVSPost2010PropOp57
 70
     1
102
RTVSPropertyOp0
 70
     1
102
RTVSPropertyOp1
 70
     1
102
RTVSPropertyOp2
 70
     1
102
RTVSPropertyOp3
 70
     1
102
RTVSPropertyOp4
 70
     1
102
RTVSPropertyOp5
 70
     1
102
RTVSPropertyOp6
 70
     1
102
RTVSPropertyOp7
 70
     1
102
RTVSPropertyOp8
 70
     1
102
RTVSPropertyOp9
 70
     1
102
RTVSPropertyOp10
 70
     1
102
RTVSPropertyOp11
 70
     1
102
RTVSPropertyOp12
 70
     1
102
RTVSPropertyOp13
 70
     1
102
RTVSPropertyOp14
 70
     1
102
RTVSPropertyOp15
 70
     1
102
RTVSPropertyOp16
 70
     1
102
RTVSPropertyOp17
 70
     1
102
RTVSPropertyOp18
 70
     1
102
RTVSPropertyOp19
 70
     1
102
RTVSPropertyOp20
 70
     1
102
RTVSPropertyOp21
 70
     1
102
RTVSPropertyOp22
 70
     1
102
RTVSPropertyOp23
 70
     1
102
RTVSPropertyOp24
 70
     1
102
RTVSPropertyOp25
 70
     1
102
RTVSPropertyOp26
 70
     1
102
RTVSPropertyOp27
 70
     1
102
RTVSPropertyOp28
 70
     1
102
RTVSPropertyOp29
 70
     1
102
RTVSPropertyOp30
 70
     1
102
RTVSPropertyOp31
 70
     1
102
RTVSPropertyOp32
 70
     1
102
RTVSPropertyOp33
 70
     1
102
RTVSPropertyOp34
 70
     1
102
RTVSPropertyOp35
 70
     1
102
RTVSPropertyOp36
 70
     1
102
RTVSPropertyOp37
 70
     1
102
RTVSPropertyOp38
 70
     1
102
RTVSPropertyOp39
 70
     1
102
RTVSPropertyOp40
 70
     1
102
RTVSPropertyOp41
 70
     1
102
RTVSPropertyOp42
 70
     1
102
RTVSPropertyOp43
 70
     1
102
RTVSPropertyOp44
 70
     1
102
RTVSPropertyOp45
 70
     1
102
RTVSPropertyOp46
 70
     1
102
RTVSPropertyOp47
 70
     1
102
RTVSPropertyOp48
 70
     1
102
RTVSPropertyOp49
 70
     1
102
RTVSPropertyOp50
 70
     1
102
RTVSPropertyOp51
 70
     0
102
RTVSPropertyOp52
 70
     0
102
RTVSPropertyOp53
 70
     1
102
RTVSPropertyOp54
 70
     1
102
RTVSPropertyOp55
 70
     1
102
RTVSPropertyOp56
 70
     1
102
RTVSPropertyOp57
 70
     1
102
RTVSPropertyOp58
 70
     1
102
RTVSPropertyOp59
 70
     1
102
RTVSPropertyOp60
 70
     1
102
RTVSPropertyOp61
 70
     1
102
RTVSPropertyOp62
 70
     1
  0
XRECORD
  5
74E0
102
{ACAD_REACTORS
330
74DF
102
}
330
74DF
100
AcDbXrecord
280
     1
102
RTVSPost2010Prop28
280
     0
102
RTVSPost2010PropOp28
 70
     1
102
RTVSPost2010Prop29
280
     1
102
RTVSPost2010PropOp29
 70
     1
102
RTVSPost2010Prop30
280
     1
102
RTVSPost2010PropOp30
 70
     1
102
RTVSPost2010Prop31
280
     0
102
RTVSPost2010PropOp31
 70
     1
102
RTVSPost2010Prop32
280
     0
102
RTVSPost2010PropOp32
 70
     1
102
RTVSPost2010Prop33
280
     0
102
RTVSPost2010PropOp33
 70
     1
102
RTVSPost2010Prop34
280
     0
102
RTVSPost2010PropOp34
 70
     1
102
RTVSPost2010Prop35
280
     0
102
RTVSPost2010PropOp35
 70
     1
102
RTVSPost2010Prop36
280
     0
102
RTVSPost2010PropOp36
 70
     1
102
RTVSPost2010Prop37
 90
       50
102
RTVSPost2010PropOp37
 70
     1
102
RTVSPost2010Prop38
140
0.0
102
RTVSPost2010PropOp38
 70
     1
102
RTVSPost2010Prop39
140
1.0
102
RTVSPost2010PropOp39
 70
     1
102
RTVSPost2010Prop40
 90
        0
102
RTVSPost2010PropOp40
 70
     1
102
RTVSPost2010Prop41ColorIndex
 90
       18
102
RTVSPost2010Prop41ColorRGB
 90
        0
102
RTVSPost2010PropOp41
 70
     1
102
RTVSPost2010Prop42
 90
       50
102
RTVSPost2010PropOp42
 70
     1
102
RTVSPost2010Prop43
 90
        3
102
RTVSPost2010PropOp43
 70
     1
102
RTVSPost2010Prop44ColorIndex
 90
        5
102
RTVSPost2010Prop44ColorRGB
 90
      255
102
RTVSPost2010PropOp44
 70
     1
102
RTVSPost2010Prop45
280
     0
102
RTVSPost2010PropOp45
 70
     1
102
RTVSPost2010Prop46
 90
       50
102
RTVSPost2010PropOp46
 70
     1
102
RTVSPost2010Prop47
 90
       50
102
RTVSPost2010PropOp47
 70
     1
102
RTVSPost2010Prop48
 90
       50
102
RTVSPost2010PropOp48
 70
     1
102
RTVSPost2010Prop49
280
     0
102
RTVSPost2010PropOp49
 70
     1
102
RTVSPost2010Prop50
 90
       50
102
RTVSPost2010PropOp50
 70
     1
102
RTVSPost2010Prop51ColorIndex
 90
      256
102
RTVSPost2010Prop51ColorRGB
 90
-16777216
102
RTVSPost2010PropOp51
 70
     0
102
RTVSPost2010Prop52
140
1.0
102
RTVSPost2010PropOp52
 70
     0
102
RTVSPost2010Prop53
 90
        2
102
RTVSPost2010PropOp53
 70
     1
102
RTVSPost2010Prop54
  1
strokes_ogs.tif
102
RTVSPost2010PropOp54
 70
     1
102
RTVSPost2010Prop55
280
     0
102
RTVSPost2010PropOp55
 70
     1
102
RTVSPost2010Prop56
140
1.0
102
RTVSPost2010PropOp56
 70
     1
102
RTVSPost2010Prop57
140
1.0
102
RTVSPost2010PropOp57
 70
     1
102
RTVSPropertyOp0
 70
     1
102
RTVSPropertyOp1
 70
     1
102
RTVSPropertyOp2
 70
     1
102
RTVSPropertyOp3
 70
     1
102
RTVSPropertyOp4
 70
     1
102
RTVSPropertyOp5
 70
     1
102
RTVSPropertyOp6
 70
     1
102
RTVSPropertyOp7
 70
     1
102
RTVSPropertyOp8
 70
     1
102
RTVSPropertyOp9
 70
     1
102
RTVSPropertyOp10
 70
     1
102
RTVSPropertyOp11
 70
     1
102
RTVSPropertyOp12
 70
     1
102
RTVSPropertyOp13
 70
     1
102
RTVSPropertyOp14
 70
     1
102
RTVSPropertyOp15
 70
     1
102
RTVSPropertyOp16
 70
     1
102
RTVSPropertyOp17
 70
     1
102
RTVSPropertyOp18
 70
     1
102
RTVSPropertyOp19
 70
     1
102
RTVSPropertyOp20
 70
     1
102
RTVSPropertyOp21
 70
     1
102
RTVSPropertyOp22
 70
     1
102
RTVSPropertyOp23
 70
     1
102
RTVSPropertyOp24
 70
     1
102
RTVSPropertyOp25
 70
     1
102
RTVSPropertyOp26
 70
     1
102
RTVSPropertyOp27
 70
     1
102
RTVSPropertyOp28
 70
     1
102
RTVSPropertyOp29
 70
     1
102
RTVSPropertyOp30
 70
     1
102
RTVSPropertyOp31
 70
     1
102
RTVSPropertyOp32
 70
     1
102
RTVSPropertyOp33
 70
     1
102
RTVSPropertyOp34
 70
     1
102
RTVSPropertyOp35
 70
     1
102
RTVSPropertyOp36
 70
     1
102
RTVSPropertyOp37
 70
     1
102
RTVSPropertyOp38
 70
     1
102
RTVSPropertyOp39
 70
     1
102
RTVSPropertyOp40
 70
     1
102
RTVSPropertyOp41
 70
     1
102
RTVSPropertyOp42
 70
     1
102
RTVSPropertyOp43
 70
     1
102
RTVSPropertyOp44
 70
     1
102
RTVSPropertyOp45
 70
     1
102
RTVSPropertyOp46
 70
     1
102
RTVSPropertyOp47
 70
     1
102
RTVSPropertyOp48
 70
     1
102
RTVSPropertyOp49
 70
     1
102
RTVSPropertyOp50
 70
     1
102
RTVSPropertyOp51
 70
     0
102
RTVSPropertyOp52
 70
     0
102
RTVSPropertyOp53
 70
     1
102
RTVSPropertyOp54
 70
     1
102
RTVSPropertyOp55
 70
     1
102
RTVSPropertyOp56
 70
     1
102
RTVSPropertyOp57
 70
     1
102
RTVSPropertyOp58
 70
     1
102
RTVSPropertyOp59
 70
     1
102
RTVSPropertyOp60
 70
     1
102
RTVSPropertyOp61
 70
     1
102
RTVSPropertyOp62
 70
     1
  0
XRECORD
  5
74F2
102
{ACAD_REACTORS
330
74F1
102
}
330
74F1
100
AcDbXrecord
280
     1
102
RTVSPost2010Prop28
280
     0
102
RTVSPost2010PropOp28
 70
     1
102
RTVSPost2010Prop29
280
     1
102
RTVSPost2010PropOp29
 70
     1
102
RTVSPost2010Prop30
280
     1
102
RTVSPost2010PropOp30
 70
     1
102
RTVSPost2010Prop31
280
     0
102
RTVSPost2010PropOp31
 70
     1
102
RTVSPost2010Prop32
280
     0
102
RTVSPost2010PropOp32
 70
     1
102
RTVSPost2010Prop33
280
     0
102
RTVSPost2010PropOp33
 70
     1
102
RTVSPost2010Prop34
280
     0
102
RTVSPost2010PropOp34
 70
     1
102
RTVSPost2010Prop35
280
     0
102
RTVSPost2010PropOp35
 70
     1
102
RTVSPost2010Prop36
280
     0
102
RTVSPost2010PropOp36
 70
     1
102
RTVSPost2010Prop37
 90
       50
102
RTVSPost2010PropOp37
 70
     1
102
RTVSPost2010Prop38
140
0.0
102
RTVSPost2010PropOp38
 70
     1
102
RTVSPost2010Prop39
140
1.0
102
RTVSPost2010PropOp39
 70
     1
102
RTVSPost2010Prop40
 90
        0
102
RTVSPost2010PropOp40
 70
     1
102
RTVSPost2010Prop41ColorIndex
 90
       18
102
RTVSPost2010Prop41ColorRGB
 90
        0
102
RTVSPost2010PropOp41
 70
     1
102
RTVSPost2010Prop42
 90
       50
102
RTVSPost2010PropOp42
 70
     1
102
RTVSPost2010Prop43
 90
        3
102
RTVSPost2010PropOp43
 70
     1
102
RTVSPost2010Prop44ColorIndex
 90
        5
102
RTVSPost2010Prop44ColorRGB
 90
      255
102
RTVSPost2010PropOp44
 70
     1
102
RTVSPost2010Prop45
280
     0
102
RTVSPost2010PropOp45
 70
     1
102
RTVSPost2010Prop46
 90
       50
102
RTVSPost2010PropOp46
 70
     1
102
RTVSPost2010Prop47
 90
       50
102
RTVSPost2010PropOp47
 70
     1
102
RTVSPost2010Prop48
 90
       50
102
RTVSPost2010PropOp48
 70
     1
102
RTVSPost2010Prop49
280
     0
102
RTVSPost2010PropOp49
 70
     1
102
RTVSPost2010Prop50
 90
       50
102
RTVSPost2010PropOp50
 70
     1
102
RTVSPost2010Prop51ColorIndex
 90
      256
102
RTVSPost2010Prop51ColorRGB
 90
-16777216
102
RTVSPost2010PropOp51
 70
     0
102
RTVSPost2010Prop52
140
1.0
102
RTVSPost2010PropOp52
 70
     0
102
RTVSPost2010Prop53
 90
        2
102
RTVSPost2010PropOp53
 70
     1
102
RTVSPost2010Prop54
  1
strokes_ogs.tif
102
RTVSPost2010PropOp54
 70
     1
102
RTVSPost2010Prop55
280
     0
102
RTVSPost2010PropOp55
 70
     1
102
RTVSPost2010Prop56
140
1.0
102
RTVSPost2010PropOp56
 70
     1
102
RTVSPost2010Prop57
140
1.0
102
RTVSPost2010PropOp57
 70
     1
102
RTVSPropertyOp0
 70
     0
102
RTVSPropertyOp1
 70
     0
102
RTVSPropertyOp2
 70
     0
102
RTVSPropertyOp3
 70
     0
102
RTVSPropertyOp4
 70
     0
102
RTVSPropertyOp5
 70
     0
102
RTVSPropertyOp6
 70
     0
102
RTVSPropertyOp7
 70
     0
102
RTVSPropertyOp8
 70
     0
102
RTVSPropertyOp9
 70
     0
102
RTVSPropertyOp10
 70
     0
102
RTVSPropertyOp11
 70
     0
102
RTVSPropertyOp12
 70
     0
102
RTVSPropertyOp13
 70
     0
102
RTVSPropertyOp14
 70
     2
102
RTVSPropertyOp15
 70
     0
102
RTVSPropertyOp16
 70
     0
102
RTVSPropertyOp17
 70
     0
102
RTVSPropertyOp18
 70
     0
102
RTVSPropertyOp19
 70
     0
102
RTVSPropertyOp20
 70
     0
102
RTVSPropertyOp21
 70
     0
102
RTVSPropertyOp22
 70
     0
102
RTVSPropertyOp23
 70
     0
102
RTVSPropertyOp24
 70
     0
102
RTVSPropertyOp25
 70
     0
102
RTVSPropertyOp26
 70
     0
102
RTVSPropertyOp27
 70
     0
102
RTVSPropertyOp28
 70
     1
102
RTVSPropertyOp29
 70
     1
102
RTVSPropertyOp30
 70
     1
102
RTVSPropertyOp31
 70
     1
102
RTVSPropertyOp32
 70
     1
102
RTVSPropertyOp33
 70
     1
102
RTVSPropertyOp34
 70
     1
102
RTVSPropertyOp35
 70
     1
102
RTVSPropertyOp36
 70
     1
102
RTVSPropertyOp37
 70
     1
102
RTVSPropertyOp38
 70
     1
102
RTVSPropertyOp39
 70
     1
102
RTVSPropertyOp40
 70
     1
102
RTVSPropertyOp41
 70
     1
102
RTVSPropertyOp42
 70
     1
102
RTVSPropertyOp43
 70
     1
102
RTVSPropertyOp44
 70
     1
102
RTVSPropertyOp45
 70
     1
102
RTVSPropertyOp46
 70
     1
102
RTVSPropertyOp47
 70
     1
102
RTVSPropertyOp48
 70
     1
102
RTVSPropertyOp49
 70
     1
102
RTVSPropertyOp50
 70
     1
102
RTVSPropertyOp51
 70
     0
102
RTVSPropertyOp52
 70
     0
102
RTVSPropertyOp53
 70
     1
102
RTVSPropertyOp54
 70
     1
102
RTVSPropertyOp55
 70
     1
102
RTVSPropertyOp56
 70
     1
102
RTVSPropertyOp57
 70
     1
102
RTVSPropertyOp58
 70
     1
102
RTVSPropertyOp59
 70
     1
102
RTVSPropertyOp60
 70
     1
102
RTVSPropertyOp61
 70
     1
102
RTVSPropertyOp62
 70
     1
  0
XRECORD
  5
74E8
102
{ACAD_REACTORS
330
74E7
102
}
330
74E7
100
AcDbXrecord
280
     1
102
RTVSPost2010Prop28
280
     0
102
RTVSPost2010PropOp28
 70
     1
102
RTVSPost2010Prop29
280
     1
102
RTVSPost2010PropOp29
 70
     1
102
RTVSPost2010Prop30
280
     1
102
RTVSPost2010PropOp30
 70
     1
102
RTVSPost2010Prop31
280
     0
102
RTVSPost2010PropOp31
 70
     1
102
RTVSPost2010Prop32
280
     0
102
RTVSPost2010PropOp32
 70
     1
102
RTVSPost2010Prop33
280
     0
102
RTVSPost2010PropOp33
 70
     1
102
RTVSPost2010Prop34
280
     0
102
RTVSPost2010PropOp34
 70
     1
102
RTVSPost2010Prop35
280
     0
102
RTVSPost2010PropOp35
 70
     1
102
RTVSPost2010Prop36
280
     0
102
RTVSPost2010PropOp36
 70
     1
102
RTVSPost2010Prop37
 90
       50
102
RTVSPost2010PropOp37
 70
     1
102
RTVSPost2010Prop38
140
0.0
102
RTVSPost2010PropOp38
 70
     1
102
RTVSPost2010Prop39
140
1.0
102
RTVSPost2010PropOp39
 70
     1
102
RTVSPost2010Prop40
 90
        0
102
RTVSPost2010PropOp40
 70
     1
102
RTVSPost2010Prop41ColorIndex
 90
       18
102
RTVSPost2010Prop41ColorRGB
 90
        0
102
RTVSPost2010PropOp41
 70
     1
102
RTVSPost2010Prop42
 90
       50
102
RTVSPost2010PropOp42
 70
     1
102
RTVSPost2010Prop43
 90
        3
102
RTVSPost2010PropOp43
 70
     1
102
RTVSPost2010Prop44ColorIndex
 90
        5
102
RTVSPost2010Prop44ColorRGB
 90
      255
102
RTVSPost2010PropOp44
 70
     1
102
RTVSPost2010Prop45
280
     0
102
RTVSPost2010PropOp45
 70
     1
102
RTVSPost2010Prop46
 90
       50
102
RTVSPost2010PropOp46
 70
     1
102
RTVSPost2010Prop47
 90
       50
102
RTVSPost2010PropOp47
 70
     1
102
RTVSPost2010Prop48
 90
       50
102
RTVSPost2010PropOp48
 70
     1
102
RTVSPost2010Prop49
280
     0
102
RTVSPost2010PropOp49
 70
     1
102
RTVSPost2010Prop50
 90
       50
102
RTVSPost2010PropOp50
 70
     1
102
RTVSPost2010Prop51ColorIndex
 90
      256
102
RTVSPost2010Prop51ColorRGB
 90
-16777216
102
RTVSPost2010PropOp51
 70
     0
102
RTVSPost2010Prop52
140
1.0
102
RTVSPost2010PropOp52
 70
     0
102
RTVSPost2010Prop53
 90
        2
102
RTVSPost2010PropOp53
 70
     1
102
RTVSPost2010Prop54
  1
strokes_ogs.tif
102
RTVSPost2010PropOp54
 70
     1
102
RTVSPost2010Prop55
280
     0
102
RTVSPost2010PropOp55
 70
     1
102
RTVSPost2010Prop56
140
1.0
102
RTVSPost2010PropOp56
 70
     1
102
RTVSPost2010Prop57
140
1.0
102
RTVSPost2010PropOp57
 70
     1
102
RTVSPropertyOp0
 70
     1
102
RTVSPropertyOp1
 70
     1
102
RTVSPropertyOp2
 70
     1
102
RTVSPropertyOp3
 70
     1
102
RTVSPropertyOp4
 70
     1
102
RTVSPropertyOp5
 70
     1
102
RTVSPropertyOp6
 70
     1
102
RTVSPropertyOp7
 70
     1
102
RTVSPropertyOp8
 70
     1
102
RTVSPropertyOp9
 70
     1
102
RTVSPropertyOp10
 70
     1
102
RTVSPropertyOp11
 70
     1
102
RTVSPropertyOp12
 70
     1
102
RTVSPropertyOp13
 70
     1
102
RTVSPropertyOp14
 70
     1
102
RTVSPropertyOp15
 70
     1
102
RTVSPropertyOp16
 70
     1
102
RTVSPropertyOp17
 70
     1
102
RTVSPropertyOp18
 70
     1
102
RTVSPropertyOp19
 70
     1
102
RTVSPropertyOp20
 70
     1
102
RTVSPropertyOp21
 70
     1
102
RTVSPropertyOp22
 70
     1
102
RTVSPropertyOp23
 70
     1
102
RTVSPropertyOp24
 70
     1
102
RTVSPropertyOp25
 70
     1
102
RTVSPropertyOp26
 70
     1
102
RTVSPropertyOp27
 70
     1
102
RTVSPropertyOp28
 70
     1
102
RTVSPropertyOp29
 70
     1
102
RTVSPropertyOp30
 70
     1
102
RTVSPropertyOp31
 70
     1
102
RTVSPropertyOp32
 70
     1
102
RTVSPropertyOp33
 70
     1
102
RTVSPropertyOp34
 70
     1
102
RTVSPropertyOp35
 70
     1
102
RTVSPropertyOp36
 70
     1
102
RTVSPropertyOp37
 70
     1
102
RTVSPropertyOp38
 70
     1
102
RTVSPropertyOp39
 70
     1
102
RTVSPropertyOp40
 70
     1
102
RTVSPropertyOp41
 70
     1
102
RTVSPropertyOp42
 70
     1
102
RTVSPropertyOp43
 70
     1
102
RTVSPropertyOp44
 70
     1
102
RTVSPropertyOp45
 70
     1
102
RTVSPropertyOp46
 70
     1
102
RTVSPropertyOp47
 70
     1
102
RTVSPropertyOp48
 70
     1
102
RTVSPropertyOp49
 70
     1
102
RTVSPropertyOp50
 70
     1
102
RTVSPropertyOp51
 70
     0
102
RTVSPropertyOp52
 70
     0
102
RTVSPropertyOp53
 70
     1
102
RTVSPropertyOp54
 70
     1
102
RTVSPropertyOp55
 70
     1
102
RTVSPropertyOp56
 70
     1
102
RTVSPropertyOp57
 70
     1
102
RTVSPropertyOp58
 70
     1
102
RTVSPropertyOp59
 70
     1
102
RTVSPropertyOp60
 70
     1
102
RTVSPropertyOp61
 70
     1
102
RTVSPropertyOp62
 70
     1
  0
XRECORD
  5
74CC
102
{ACAD_REACTORS
330
74CB
102
}
330
74CB
100
AcDbXrecord
280
     1
102
RTVSPost2010Prop28
280
     0
102
RTVSPost2010PropOp28
 70
     1
102
RTVSPost2010Prop29
280
     1
102
RTVSPost2010PropOp29
 70
     1
102
RTVSPost2010Prop30
280
     1
102
RTVSPost2010PropOp30
 70
     1
102
RTVSPost2010Prop31
280
     0
102
RTVSPost2010PropOp31
 70
     1
102
RTVSPost2010Prop32
280
     0
102
RTVSPost2010PropOp32
 70
     1
102
RTVSPost2010Prop33
280
     0
102
RTVSPost2010PropOp33
 70
     1
102
RTVSPost2010Prop34
280
     0
102
RTVSPost2010PropOp34
 70
     1
102
RTVSPost2010Prop35
280
     0
102
RTVSPost2010PropOp35
 70
     1
102
RTVSPost2010Prop36
280
     0
102
RTVSPost2010PropOp36
 70
     1
102
RTVSPost2010Prop37
 90
       50
102
RTVSPost2010PropOp37
 70
     1
102
RTVSPost2010Prop38
140
0.0
102
RTVSPost2010PropOp38
 70
     1
102
RTVSPost2010Prop39
140
1.0
102
RTVSPost2010PropOp39
 70
     1
102
RTVSPost2010Prop40
 90
        0
102
RTVSPost2010PropOp40
 70
     1
102
RTVSPost2010Prop41ColorIndex
 90
       18
102
RTVSPost2010Prop41ColorRGB
 90
        0
102
RTVSPost2010PropOp41
 70
     1
102
RTVSPost2010Prop42
 90
       50
102
RTVSPost2010PropOp42
 70
     1
102
RTVSPost2010Prop43
 90
        3
102
RTVSPost2010PropOp43
 70
     1
102
RTVSPost2010Prop44ColorIndex
 90
        5
102
RTVSPost2010Prop44ColorRGB
 90
      255
102
RTVSPost2010PropOp44
 70
     1
102
RTVSPost2010Prop45
280
     0
102
RTVSPost2010PropOp45
 70
     1
102
RTVSPost2010Prop46
 90
       50
102
RTVSPost2010PropOp46
 70
     1
102
RTVSPost2010Prop47
 90
       50
102
RTVSPost2010PropOp47
 70
     1
102
RTVSPost2010Prop48
 90
       50
102
RTVSPost2010PropOp48
 70
     1
102
RTVSPost2010Prop49
280
     0
102
RTVSPost2010PropOp49
 70
     1
102
RTVSPost2010Prop50
 90
       50
102
RTVSPost2010PropOp50
 70
     1
102
RTVSPost2010Prop51ColorIndex
 90
      256
102
RTVSPost2010Prop51ColorRGB
 90
-16777216
102
RTVSPost2010PropOp51
 70
     0
102
RTVSPost2010Prop52
140
1.0
102
RTVSPost2010PropOp52
 70
     0
102
RTVSPost2010Prop53
 90
        2
102
RTVSPost2010PropOp53
 70
     1
102
RTVSPost2010Prop54
  1
strokes_ogs.tif
102
RTVSPost2010PropOp54
 70
     1
102
RTVSPost2010Prop55
280
     0
102
RTVSPost2010PropOp55
 70
     1
102
RTVSPost2010Prop56
140
1.0
102
RTVSPost2010PropOp56
 70
     1
102
RTVSPost2010Prop57
140
1.0
102
RTVSPost2010PropOp57
 70
     1
102
RTVSPropertyOp0
 70
     1
102
RTVSPropertyOp1
 70
     1
102
RTVSPropertyOp2
 70
     1
102
RTVSPropertyOp3
 70
     1
102
RTVSPropertyOp4
 70
     1
102
RTVSPropertyOp5
 70
     1
102
RTVSPropertyOp6
 70
     1
102
RTVSPropertyOp7
 70
     1
102
RTVSPropertyOp8
 70
     1
102
RTVSPropertyOp9
 70
     1
102
RTVSPropertyOp10
 70
     1
102
RTVSPropertyOp11
 70
     1
102
RTVSPropertyOp12
 70
     1
102
RTVSPropertyOp13
 70
     1
102
RTVSPropertyOp14
 70
     1
102
RTVSPropertyOp15
 70
     1
102
RTVSPropertyOp16
 70
     1
102
RTVSPropertyOp17
 70
     1
102
RTVSPropertyOp18
 70
     1
102
RTVSPropertyOp19
 70
     1
102
RTVSPropertyOp20
 70
     1
102
RTVSPropertyOp21
 70
     1
102
RTVSPropertyOp22
 70
     1
102
RTVSPropertyOp23
 70
     1
102
RTVSPropertyOp24
 70
     1
102
RTVSPropertyOp25
 70
     1
102
RTVSPropertyOp26
 70
     1
102
RTVSPropertyOp27
 70
     1
102
RTVSPropertyOp28
 70
     1
102
RTVSPropertyOp29
 70
     1
102
RTVSPropertyOp30
 70
     1
102
RTVSPropertyOp31
 70
     1
102
RTVSPropertyOp32
 70
     1
102
RTVSPropertyOp33
 70
     1
102
RTVSPropertyOp34
 70
     1
102
RTVSPropertyOp35
 70
     1
102
RTVSPropertyOp36
 70
     1
102
RTVSPropertyOp37
 70
     1
102
RTVSPropertyOp38
 70
     1
102
RTVSPropertyOp39
 70
     1
102
RTVSPropertyOp40
 70
     1
102
RTVSPropertyOp41
 70
     1
102
RTVSPropertyOp42
 70
     1
102
RTVSPropertyOp43
 70
     1
102
RTVSPropertyOp44
 70
     1
102
RTVSPropertyOp45
 70
     1
102
RTVSPropertyOp46
 70
     1
102
RTVSPropertyOp47
 70
     1
102
RTVSPropertyOp48
 70
     1
102
RTVSPropertyOp49
 70
     1
102
RTVSPropertyOp50
 70
     1
102
RTVSPropertyOp51
 70
     0
102
RTVSPropertyOp52
 70
     0
102
RTVSPropertyOp53
 70
     1
102
RTVSPropertyOp54
 70
     1
102
RTVSPropertyOp55
 70
     1
102
RTVSPropertyOp56
 70
     1
102
RTVSPropertyOp57
 70
     1
102
RTVSPropertyOp58
 70
     1
102
RTVSPropertyOp59
 70
     1
102
RTVSPropertyOp60
 70
     1
102
RTVSPropertyOp61
 70
     1
102
RTVSPropertyOp62
 70
     1
  0
XRECORD
  5
74CE
102
{ACAD_REACTORS
330
74CD
102
}
330
74CD
100
AcDbXrecord
280
     1
102
RTVSPost2010Prop28
280
     0
102
RTVSPost2010PropOp28
 70
     1
102
RTVSPost2010Prop29
280
     1
102
RTVSPost2010PropOp29
 70
     1
102
RTVSPost2010Prop30
280
     1
102
RTVSPost2010PropOp30
 70
     1
102
RTVSPost2010Prop31
280
     0
102
RTVSPost2010PropOp31
 70
     1
102
RTVSPost2010Prop32
280
     0
102
RTVSPost2010PropOp32
 70
     1
102
RTVSPost2010Prop33
280
     0
102
RTVSPost2010PropOp33
 70
     1
102
RTVSPost2010Prop34
280
     0
102
RTVSPost2010PropOp34
 70
     1
102
RTVSPost2010Prop35
280
     0
102
RTVSPost2010PropOp35
 70
     1
102
RTVSPost2010Prop36
280
     0
102
RTVSPost2010PropOp36
 70
     1
102
RTVSPost2010Prop37
 90
       50
102
RTVSPost2010PropOp37
 70
     1
102
RTVSPost2010Prop38
140
0.0
102
RTVSPost2010PropOp38
 70
     1
102
RTVSPost2010Prop39
140
1.0
102
RTVSPost2010PropOp39
 70
     1
102
RTVSPost2010Prop40
 90
        0
102
RTVSPost2010PropOp40
 70
     1
102
RTVSPost2010Prop41ColorIndex
 90
       18
102
RTVSPost2010Prop41ColorRGB
 90
        0
102
RTVSPost2010PropOp41
 70
     1
102
RTVSPost2010Prop42
 90
       50
102
RTVSPost2010PropOp42
 70
     1
102
RTVSPost2010Prop43
 90
        3
102
RTVSPost2010PropOp43
 70
     1
102
RTVSPost2010Prop44ColorIndex
 90
        5
102
RTVSPost2010Prop44ColorRGB
 90
      255
102
RTVSPost2010PropOp44
 70
     1
102
RTVSPost2010Prop45
280
     0
102
RTVSPost2010PropOp45
 70
     1
102
RTVSPost2010Prop46
 90
       50
102
RTVSPost2010PropOp46
 70
     1
102
RTVSPost2010Prop47
 90
       50
102
RTVSPost2010PropOp47
 70
     1
102
RTVSPost2010Prop48
 90
       50
102
RTVSPost2010PropOp48
 70
     1
102
RTVSPost2010Prop49
280
     0
102
RTVSPost2010PropOp49
 70
     1
102
RTVSPost2010Prop50
 90
       50
102
RTVSPost2010PropOp50
 70
     1
102
RTVSPost2010Prop51ColorIndex
 90
      256
102
RTVSPost2010Prop51ColorRGB
 90
-16777216
102
RTVSPost2010PropOp51
 70
     0
102
RTVSPost2010Prop52
140
1.0
102
RTVSPost2010PropOp52
 70
     0
102
RTVSPost2010Prop53
 90
        2
102
RTVSPost2010PropOp53
 70
     1
102
RTVSPost2010Prop54
  1
strokes_ogs.tif
102
RTVSPost2010PropOp54
 70
     1
102
RTVSPost2010Prop55
280
     0
102
RTVSPost2010PropOp55
 70
     1
102
RTVSPost2010Prop56
140
1.0
102
RTVSPost2010PropOp56
 70
     1
102
RTVSPost2010Prop57
140
1.0
102
RTVSPost2010PropOp57
 70
     1
102
RTVSPropertyOp0
 70
     1
102
RTVSPropertyOp1
 70
     1
102
RTVSPropertyOp2
 70
     1
102
RTVSPropertyOp3
 70
     1
102
RTVSPropertyOp4
 70
     1
102
RTVSPropertyOp5
 70
     1
102
RTVSPropertyOp6
 70
     1
102
RTVSPropertyOp7
 70
     1
102
RTVSPropertyOp8
 70
     1
102
RTVSPropertyOp9
 70
     1
102
RTVSPropertyOp10
 70
     1
102
RTVSPropertyOp11
 70
     1
102
RTVSPropertyOp12
 70
     1
102
RTVSPropertyOp13
 70
     1
102
RTVSPropertyOp14
 70
     1
102
RTVSPropertyOp15
 70
     1
102
RTVSPropertyOp16
 70
     1
102
RTVSPropertyOp17
 70
     1
102
RTVSPropertyOp18
 70
     1
102
RTVSPropertyOp19
 70
     1
102
RTVSPropertyOp20
 70
     1
102
RTVSPropertyOp21
 70
     1
102
RTVSPropertyOp22
 70
     1
102
RTVSPropertyOp23
 70
     1
102
RTVSPropertyOp24
 70
     1
102
RTVSPropertyOp25
 70
     1
102
RTVSPropertyOp26
 70
     1
102
RTVSPropertyOp27
 70
     1
102
RTVSPropertyOp28
 70
     1
102
RTVSPropertyOp29
 70
     1
102
RTVSPropertyOp30
 70
     1
102
RTVSPropertyOp31
 70
     1
102
RTVSPropertyOp32
 70
     1
102
RTVSPropertyOp33
 70
     1
102
RTVSPropertyOp34
 70
     1
102
RTVSPropertyOp35
 70
     1
102
RTVSPropertyOp36
 70
     1
102
RTVSPropertyOp37
 70
     1
102
RTVSPropertyOp38
 70
     1
102
RTVSPropertyOp39
 70
     1
102
RTVSPropertyOp40
 70
     1
102
RTVSPropertyOp41
 70
     1
102
RTVSPropertyOp42
 70
     1
102
RTVSPropertyOp43
 70
     1
102
RTVSPropertyOp44
 70
     1
102
RTVSPropertyOp45
 70
     1
102
RTVSPropertyOp46
 70
     1
102
RTVSPropertyOp47
 70
     1
102
RTVSPropertyOp48
 70
     1
102
RTVSPropertyOp49
 70
     1
102
RTVSPropertyOp50
 70
     1
102
RTVSPropertyOp51
 70
     0
102
RTVSPropertyOp52
 70
     0
102
RTVSPropertyOp53
 70
     1
102
RTVSPropertyOp54
 70
     1
102
RTVSPropertyOp55
 70
     1
102
RTVSPropertyOp56
 70
     1
102
RTVSPropertyOp57
 70
     1
102
RTVSPropertyOp58
 70
     1
102
RTVSPropertyOp59
 70
     1
102
RTVSPropertyOp60
 70
     1
102
RTVSPropertyOp61
 70
     1
102
RTVSPropertyOp62
 70
     1
  0
XRECORD
  5
74D0
102
{ACAD_REACTORS
330
74CF
102
}
330
74CF
100
AcDbXrecord
280
     1
102
RTVSPost2010Prop28
280
     0
102
RTVSPost2010PropOp28
 70
     1
102
RTVSPost2010Prop29
280
     1
102
RTVSPost2010PropOp29
 70
     1
102
RTVSPost2010Prop30
280
     1
102
RTVSPost2010PropOp30
 70
     1
102
RTVSPost2010Prop31
280
     0
102
RTVSPost2010PropOp31
 70
     1
102
RTVSPost2010Prop32
280
     0
102
RTVSPost2010PropOp32
 70
     1
102
RTVSPost2010Prop33
280
     0
102
RTVSPost2010PropOp33
 70
     1
102
RTVSPost2010Prop34
280
     0
102
RTVSPost2010PropOp34
 70
     1
102
RTVSPost2010Prop35
280
     0
102
RTVSPost2010PropOp35
 70
     1
102
RTVSPost2010Prop36
280
     0
102
RTVSPost2010PropOp36
 70
     1
102
RTVSPost2010Prop37
 90
       50
102
RTVSPost2010PropOp37
 70
     1
102
RTVSPost2010Prop38
140
0.0
102
RTVSPost2010PropOp38
 70
     1
102
RTVSPost2010Prop39
140
1.0
102
RTVSPost2010PropOp39
 70
     1
102
RTVSPost2010Prop40
 90
        0
102
RTVSPost2010PropOp40
 70
     1
102
RTVSPost2010Prop41ColorIndex
 90
       18
102
RTVSPost2010Prop41ColorRGB
 90
        0
102
RTVSPost2010PropOp41
 70
     1
102
RTVSPost2010Prop42
 90
       50
102
RTVSPost2010PropOp42
 70
     1
102
RTVSPost2010Prop43
 90
        3
102
RTVSPost2010PropOp43
 70
     1
102
RTVSPost2010Prop44ColorIndex
 90
        5
102
RTVSPost2010Prop44ColorRGB
 90
      255
102
RTVSPost2010PropOp44
 70
     1
102
RTVSPost2010Prop45
280
     0
102
RTVSPost2010PropOp45
 70
     1
102
RTVSPost2010Prop46
 90
       50
102
RTVSPost2010PropOp46
 70
     1
102
RTVSPost2010Prop47
 90
       50
102
RTVSPost2010PropOp47
 70
     1
102
RTVSPost2010Prop48
 90
       50
102
RTVSPost2010PropOp48
 70
     1
102
RTVSPost2010Prop49
280
     0
102
RTVSPost2010PropOp49
 70
     1
102
RTVSPost2010Prop50
 90
       50
102
RTVSPost2010PropOp50
 70
     1
102
RTVSPost2010Prop51ColorIndex
 90
      256
102
RTVSPost2010Prop51ColorRGB
 90
-16777216
102
RTVSPost2010PropOp51
 70
     0
102
RTVSPost2010Prop52
140
1.0
102
RTVSPost2010PropOp52
 70
     0
102
RTVSPost2010Prop53
 90
        2
102
RTVSPost2010PropOp53
 70
     1
102
RTVSPost2010Prop54
  1
strokes_ogs.tif
102
RTVSPost2010PropOp54
 70
     1
102
RTVSPost2010Prop55
280
     0
102
RTVSPost2010PropOp55
 70
     1
102
RTVSPost2010Prop56
140
1.0
102
RTVSPost2010PropOp56
 70
     1
102
RTVSPost2010Prop57
140
1.0
102
RTVSPost2010PropOp57
 70
     1
102
RTVSPropertyOp0
 70
     1
102
RTVSPropertyOp1
 70
     1
102
RTVSPropertyOp2
 70
     1
102
RTVSPropertyOp3
 70
     1
102
RTVSPropertyOp4
 70
     1
102
RTVSPropertyOp5
 70
     1
102
RTVSPropertyOp6
 70
     1
102
RTVSPropertyOp7
 70
     1
102
RTVSPropertyOp8
 70
     1
102
RTVSPropertyOp9
 70
     1
102
RTVSPropertyOp10
 70
     1
102
RTVSPropertyOp11
 70
     1
102
RTVSPropertyOp12
 70
     1
102
RTVSPropertyOp13
 70
     1
102
RTVSPropertyOp14
 70
     1
102
RTVSPropertyOp15
 70
     1
102
RTVSPropertyOp16
 70
     1
102
RTVSPropertyOp17
 70
     1
102
RTVSPropertyOp18
 70
     1
102
RTVSPropertyOp19
 70
     1
102
RTVSPropertyOp20
 70
     1
102
RTVSPropertyOp21
 70
     1
102
RTVSPropertyOp22
 70
     1
102
RTVSPropertyOp23
 70
     1
102
RTVSPropertyOp24
 70
     1
102
RTVSPropertyOp25
 70
     1
102
RTVSPropertyOp26
 70
     1
102
RTVSPropertyOp27
 70
     1
102
RTVSPropertyOp28
 70
     1
102
RTVSPropertyOp29
 70
     1
102
RTVSPropertyOp30
 70
     1
102
RTVSPropertyOp31
 70
     1
102
RTVSPropertyOp32
 70
     1
102
RTVSPropertyOp33
 70
     1
102
RTVSPropertyOp34
 70
     1
102
RTVSPropertyOp35
 70
     1
102
RTVSPropertyOp36
 70
     1
102
RTVSPropertyOp37
 70
     1
102
RTVSPropertyOp38
 70
     1
102
RTVSPropertyOp39
 70
     1
102
RTVSPropertyOp40
 70
     1
102
RTVSPropertyOp41
 70
     1
102
RTVSPropertyOp42
 70
     1
102
RTVSPropertyOp43
 70
     1
102
RTVSPropertyOp44
 70
     1
102
RTVSPropertyOp45
 70
     1
102
RTVSPropertyOp46
 70
     1
102
RTVSPropertyOp47
 70
     1
102
RTVSPropertyOp48
 70
     1
102
RTVSPropertyOp49
 70
     1
102
RTVSPropertyOp50
 70
     1
102
RTVSPropertyOp51
 70
     0
102
RTVSPropertyOp52
 70
     0
102
RTVSPropertyOp53
 70
     1
102
RTVSPropertyOp54
 70
     1
102
RTVSPropertyOp55
 70
     1
102
RTVSPropertyOp56
 70
     1
102
RTVSPropertyOp57
 70
     1
102
RTVSPropertyOp58
 70
     1
102
RTVSPropertyOp59
 70
     1
102
RTVSPropertyOp60
 70
     1
102
RTVSPropertyOp61
 70
     1
102
RTVSPropertyOp62
 70
     1
  0
XRECORD
  5
74D2
102
{ACAD_REACTORS
330
74D1
102
}
330
74D1
100
AcDbXrecord
280
     1
102
RTVSPost2010Prop28
280
     0
102
RTVSPost2010PropOp28
 70
     1
102
RTVSPost2010Prop29
280
     1
102
RTVSPost2010PropOp29
 70
     1
102
RTVSPost2010Prop30
280
     1
102
RTVSPost2010PropOp30
 70
     1
102
RTVSPost2010Prop31
280
     0
102
RTVSPost2010PropOp31
 70
     1
102
RTVSPost2010Prop32
280
     0
102
RTVSPost2010PropOp32
 70
     1
102
RTVSPost2010Prop33
280
     0
102
RTVSPost2010PropOp33
 70
     1
102
RTVSPost2010Prop34
280
     0
102
RTVSPost2010PropOp34
 70
     1
102
RTVSPost2010Prop35
280
     0
102
RTVSPost2010PropOp35
 70
     1
102
RTVSPost2010Prop36
280
     0
102
RTVSPost2010PropOp36
 70
     1
102
RTVSPost2010Prop37
 90
       50
102
RTVSPost2010PropOp37
 70
     1
102
RTVSPost2010Prop38
140
0.0
102
RTVSPost2010PropOp38
 70
     1
102
RTVSPost2010Prop39
140
1.0
102
RTVSPost2010PropOp39
 70
     1
102
RTVSPost2010Prop40
 90
        0
102
RTVSPost2010PropOp40
 70
     1
102
RTVSPost2010Prop41ColorIndex
 90
       18
102
RTVSPost2010Prop41ColorRGB
 90
        0
102
RTVSPost2010PropOp41
 70
     1
102
RTVSPost2010Prop42
 90
       50
102
RTVSPost2010PropOp42
 70
     1
102
RTVSPost2010Prop43
 90
        3
102
RTVSPost2010PropOp43
 70
     1
102
RTVSPost2010Prop44ColorIndex
 90
        5
102
RTVSPost2010Prop44ColorRGB
 90
      255
102
RTVSPost2010PropOp44
 70
     1
102
RTVSPost2010Prop45
280
     0
102
RTVSPost2010PropOp45
 70
     1
102
RTVSPost2010Prop46
 90
       50
102
RTVSPost2010PropOp46
 70
     1
102
RTVSPost2010Prop47
 90
       50
102
RTVSPost2010PropOp47
 70
     1
102
RTVSPost2010Prop48
 90
       50
102
RTVSPost2010PropOp48
 70
     1
102
RTVSPost2010Prop49
280
     0
102
RTVSPost2010PropOp49
 70
     1
102
RTVSPost2010Prop50
 90
       50
102
RTVSPost2010PropOp50
 70
     1
102
RTVSPost2010Prop51ColorIndex
 90
      256
102
RTVSPost2010Prop51ColorRGB
 90
-16777216
102
RTVSPost2010PropOp51
 70
     0
102
RTVSPost2010Prop52
140
1.0
102
RTVSPost2010PropOp52
 70
     0
102
RTVSPost2010Prop53
 90
        2
102
RTVSPost2010PropOp53
 70
     1
102
RTVSPost2010Prop54
  1
strokes_ogs.tif
102
RTVSPost2010PropOp54
 70
     1
102
RTVSPost2010Prop55
280
     0
102
RTVSPost2010PropOp55
 70
     1
102
RTVSPost2010Prop56
140
1.0
102
RTVSPost2010PropOp56
 70
     1
102
RTVSPost2010Prop57
140
1.0
102
RTVSPost2010PropOp57
 70
     1
102
RTVSPropertyOp0
 70
     1
102
RTVSPropertyOp1
 70
     1
102
RTVSPropertyOp2
 70
     1
102
RTVSPropertyOp3
 70
     1
102
RTVSPropertyOp4
 70
     1
102
RTVSPropertyOp5
 70
     1
102
RTVSPropertyOp6
 70
     1
102
RTVSPropertyOp7
 70
     1
102
RTVSPropertyOp8
 70
     1
102
RTVSPropertyOp9
 70
     1
102
RTVSPropertyOp10
 70
     1
102
RTVSPropertyOp11
 70
     1
102
RTVSPropertyOp12
 70
     1
102
RTVSPropertyOp13
 70
     1
102
RTVSPropertyOp14
 70
     1
102
RTVSPropertyOp15
 70
     1
102
RTVSPropertyOp16
 70
     1
102
RTVSPropertyOp17
 70
     1
102
RTVSPropertyOp18
 70
     1
102
RTVSPropertyOp19
 70
     1
102
RTVSPropertyOp20
 70
     1
102
RTVSPropertyOp21
 70
     1
102
RTVSPropertyOp22
 70
     1
102
RTVSPropertyOp23
 70
     1
102
RTVSPropertyOp24
 70
     1
102
RTVSPropertyOp25
 70
     1
102
RTVSPropertyOp26
 70
     1
102
RTVSPropertyOp27
 70
     1
102
RTVSPropertyOp28
 70
     1
102
RTVSPropertyOp29
 70
     1
102
RTVSPropertyOp30
 70
     1
102
RTVSPropertyOp31
 70
     1
102
RTVSPropertyOp32
 70
     1
102
RTVSPropertyOp33
 70
     1
102
RTVSPropertyOp34
 70
     1
102
RTVSPropertyOp35
 70
     1
102
RTVSPropertyOp36
 70
     1
102
RTVSPropertyOp37
 70
     1
102
RTVSPropertyOp38
 70
     1
102
RTVSPropertyOp39
 70
     1
102
RTVSPropertyOp40
 70
     1
102
RTVSPropertyOp41
 70
     1
102
RTVSPropertyOp42
 70
     1
102
RTVSPropertyOp43
 70
     1
102
RTVSPropertyOp44
 70
     1
102
RTVSPropertyOp45
 70
     1
102
RTVSPropertyOp46
 70
     1
102
RTVSPropertyOp47
 70
     1
102
RTVSPropertyOp48
 70
     1
102
RTVSPropertyOp49
 70
     1
102
RTVSPropertyOp50
 70
     1
102
RTVSPropertyOp51
 70
     0
102
RTVSPropertyOp52
 70
     0
102
RTVSPropertyOp53
 70
     1
102
RTVSPropertyOp54
 70
     1
102
RTVSPropertyOp55
 70
     1
102
RTVSPropertyOp56
 70
     1
102
RTVSPropertyOp57
 70
     1
102
RTVSPropertyOp58
 70
     1
102
RTVSPropertyOp59
 70
     1
102
RTVSPropertyOp60
 70
     1
102
RTVSPropertyOp61
 70
     1
102
RTVSPropertyOp62
 70
     1
  0
XRECORD
  5
74DA
102
{ACAD_REACTORS
330
74D9
102
}
330
74D9
100
AcDbXrecord
280
     1
102
RTVSPost2010Prop28
280
     0
102
RTVSPost2010PropOp28
 70
     1
102
RTVSPost2010Prop29
280
     1
102
RTVSPost2010PropOp29
 70
     1
102
RTVSPost2010Prop30
280
     1
102
RTVSPost2010PropOp30
 70
     1
102
RTVSPost2010Prop31
280
     0
102
RTVSPost2010PropOp31
 70
     1
102
RTVSPost2010Prop32
280
     0
102
RTVSPost2010PropOp32
 70
     1
102
RTVSPost2010Prop33
280
     0
102
RTVSPost2010PropOp33
 70
     1
102
RTVSPost2010Prop34
280
     0
102
RTVSPost2010PropOp34
 70
     1
102
RTVSPost2010Prop35
280
     0
102
RTVSPost2010PropOp35
 70
     1
102
RTVSPost2010Prop36
280
     0
102
RTVSPost2010PropOp36
 70
     1
102
RTVSPost2010Prop37
 90
       50
102
RTVSPost2010PropOp37
 70
     1
102
RTVSPost2010Prop38
140
0.0
102
RTVSPost2010PropOp38
 70
     1
102
RTVSPost2010Prop39
140
1.0
102
RTVSPost2010PropOp39
 70
     1
102
RTVSPost2010Prop40
 90
        0
102
RTVSPost2010PropOp40
 70
     1
102
RTVSPost2010Prop41ColorIndex
 90
       18
102
RTVSPost2010Prop41ColorRGB
 90
        0
102
RTVSPost2010PropOp41
 70
     1
102
RTVSPost2010Prop42
 90
       50
102
RTVSPost2010PropOp42
 70
     1
102
RTVSPost2010Prop43
 90
        3
102
RTVSPost2010PropOp43
 70
     1
102
RTVSPost2010Prop44ColorIndex
 90
        5
102
RTVSPost2010Prop44ColorRGB
 90
      255
102
RTVSPost2010PropOp44
 70
     1
102
RTVSPost2010Prop45
280
     0
102
RTVSPost2010PropOp45
 70
     1
102
RTVSPost2010Prop46
 90
       50
102
RTVSPost2010PropOp46
 70
     1
102
RTVSPost2010Prop47
 90
       50
102
RTVSPost2010PropOp47
 70
     1
102
RTVSPost2010Prop48
 90
       50
102
RTVSPost2010PropOp48
 70
     1
102
RTVSPost2010Prop49
280
     0
102
RTVSPost2010PropOp49
 70
     1
102
RTVSPost2010Prop50
 90
       50
102
RTVSPost2010PropOp50
 70
     1
102
RTVSPost2010Prop51ColorIndex
 90
      256
102
RTVSPost2010Prop51ColorRGB
 90
-16777216
102
RTVSPost2010PropOp51
 70
     0
102
RTVSPost2010Prop52
140
1.0
102
RTVSPost2010PropOp52
 70
     0
102
RTVSPost2010Prop53
 90
        2
102
RTVSPost2010PropOp53
 70
     1
102
RTVSPost2010Prop54
  1
strokes_ogs.tif
102
RTVSPost2010PropOp54
 70
     1
102
RTVSPost2010Prop55
280
     0
102
RTVSPost2010PropOp55
 70
     1
102
RTVSPost2010Prop56
140
1.0
102
RTVSPost2010PropOp56
 70
     1
102
RTVSPost2010Prop57
140
1.0
102
RTVSPost2010PropOp57
 70
     1
102
RTVSPropertyOp0
 70
     1
102
RTVSPropertyOp1
 70
     1
102
RTVSPropertyOp2
 70
     1
102
RTVSPropertyOp3
 70
     1
102
RTVSPropertyOp4
 70
     1
102
RTVSPropertyOp5
 70
     1
102
RTVSPropertyOp6
 70
     1
102
RTVSPropertyOp7
 70
     1
102
RTVSPropertyOp8
 70
     1
102
RTVSPropertyOp9
 70
     1
102
RTVSPropertyOp10
 70
     1
102
RTVSPropertyOp11
 70
     1
102
RTVSPropertyOp12
 70
     1
102
RTVSPropertyOp13
 70
     1
102
RTVSPropertyOp14
 70
     1
102
RTVSPropertyOp15
 70
     1
102
RTVSPropertyOp16
 70
     1
102
RTVSPropertyOp17
 70
     1
102
RTVSPropertyOp18
 70
     1
102
RTVSPropertyOp19
 70
     1
102
RTVSPropertyOp20
 70
     1
102
RTVSPropertyOp21
 70
     1
102
RTVSPropertyOp22
 70
     1
102
RTVSPropertyOp23
 70
     1
102
RTVSPropertyOp24
 70
     1
102
RTVSPropertyOp25
 70
     1
102
RTVSPropertyOp26
 70
     1
102
RTVSPropertyOp27
 70
     1
102
RTVSPropertyOp28
 70
     1
102
RTVSPropertyOp29
 70
     1
102
RTVSPropertyOp30
 70
     1
102
RTVSPropertyOp31
 70
     1
102
RTVSPropertyOp32
 70
     1
102
RTVSPropertyOp33
 70
     1
102
RTVSPropertyOp34
 70
     1
102
RTVSPropertyOp35
 70
     1
102
RTVSPropertyOp36
 70
     1
102
RTVSPropertyOp37
 70
     1
102
RTVSPropertyOp38
 70
     1
102
RTVSPropertyOp39
 70
     1
102
RTVSPropertyOp40
 70
     1
102
RTVSPropertyOp41
 70
     1
102
RTVSPropertyOp42
 70
     1
102
RTVSPropertyOp43
 70
     1
102
RTVSPropertyOp44
 70
     1
102
RTVSPropertyOp45
 70
     1
102
RTVSPropertyOp46
 70
     1
102
RTVSPropertyOp47
 70
     1
102
RTVSPropertyOp48
 70
     1
102
RTVSPropertyOp49
 70
     1
102
RTVSPropertyOp50
 70
     1
102
RTVSPropertyOp51
 70
     0
102
RTVSPropertyOp52
 70
     0
102
RTVSPropertyOp53
 70
     1
102
RTVSPropertyOp54
 70
     1
102
RTVSPropertyOp55
 70
     1
102
RTVSPropertyOp56
 70
     1
102
RTVSPropertyOp57
 70
     1
102
RTVSPropertyOp58
 70
     1
102
RTVSPropertyOp59
 70
     1
102
RTVSPropertyOp60
 70
     1
102
RTVSPropertyOp61
 70
     1
102
RTVSPropertyOp62
 70
     1
  0
XRECORD
  5
74EE
102
{ACAD_REACTORS
330
74ED
102
}
330
74ED
100
AcDbXrecord
280
     1
102
RTVSPost2010Prop28
280
     0
102
RTVSPost2010PropOp28
 70
     1
102
RTVSPost2010Prop29
280
     1
102
RTVSPost2010PropOp29
 70
     1
102
RTVSPost2010Prop30
280
     1
102
RTVSPost2010PropOp30
 70
     1
102
RTVSPost2010Prop31
280
     0
102
RTVSPost2010PropOp31
 70
     1
102
RTVSPost2010Prop32
280
     0
102
RTVSPost2010PropOp32
 70
     1
102
RTVSPost2010Prop33
280
     0
102
RTVSPost2010PropOp33
 70
     1
102
RTVSPost2010Prop34
280
     0
102
RTVSPost2010PropOp34
 70
     1
102
RTVSPost2010Prop35
280
     0
102
RTVSPost2010PropOp35
 70
     1
102
RTVSPost2010Prop36
280
     0
102
RTVSPost2010PropOp36
 70
     1
102
RTVSPost2010Prop37
 90
       50
102
RTVSPost2010PropOp37
 70
     1
102
RTVSPost2010Prop38
140
0.0
102
RTVSPost2010PropOp38
 70
     1
102
RTVSPost2010Prop39
140
1.0
102
RTVSPost2010PropOp39
 70
     1
102
RTVSPost2010Prop40
 90
        0
102
RTVSPost2010PropOp40
 70
     1
102
RTVSPost2010Prop41ColorIndex
 90
       18
102
RTVSPost2010Prop41ColorRGB
 90
        0
102
RTVSPost2010PropOp41
 70
     1
102
RTVSPost2010Prop42
 90
       50
102
RTVSPost2010PropOp42
 70
     1
102
RTVSPost2010Prop43
 90
        3
102
RTVSPost2010PropOp43
 70
     1
102
RTVSPost2010Prop44ColorIndex
 90
        5
102
RTVSPost2010Prop44ColorRGB
 90
      255
102
RTVSPost2010PropOp44
 70
     1
102
RTVSPost2010Prop45
280
     0
102
RTVSPost2010PropOp45
 70
     1
102
RTVSPost2010Prop46
 90
       50
102
RTVSPost2010PropOp46
 70
     1
102
RTVSPost2010Prop47
 90
       50
102
RTVSPost2010PropOp47
 70
     1
102
RTVSPost2010Prop48
 90
       50
102
RTVSPost2010PropOp48
 70
     1
102
RTVSPost2010Prop49
280
     0
102
RTVSPost2010PropOp49
 70
     1
102
RTVSPost2010Prop50
 90
       50
102
RTVSPost2010PropOp50
 70
     1
102
RTVSPost2010Prop51ColorIndex
 90
      256
102
RTVSPost2010Prop51ColorRGB
 90
-16777216
102
RTVSPost2010PropOp51
 70
     0
102
RTVSPost2010Prop52
140
1.0
102
RTVSPost2010PropOp52
 70
     0
102
RTVSPost2010Prop53
 90
        2
102
RTVSPost2010PropOp53
 70
     1
102
RTVSPost2010Prop54
  1
strokes_ogs.tif
102
RTVSPost2010PropOp54
 70
     1
102
RTVSPost2010Prop55
280
     0
102
RTVSPost2010PropOp55
 70
     1
102
RTVSPost2010Prop56
140
1.0
102
RTVSPost2010PropOp56
 70
     1
102
RTVSPost2010Prop57
140
1.0
102
RTVSPost2010PropOp57
 70
     1
102
RTVSPropertyOp0
 70
     0
102
RTVSPropertyOp1
 70
     0
102
RTVSPropertyOp2
 70
     0
102
RTVSPropertyOp3
 70
     0
102
RTVSPropertyOp4
 70
     0
102
RTVSPropertyOp5
 70
     0
102
RTVSPropertyOp6
 70
     0
102
RTVSPropertyOp7
 70
     0
102
RTVSPropertyOp8
 70
     0
102
RTVSPropertyOp9
 70
     0
102
RTVSPropertyOp10
 70
     0
102
RTVSPropertyOp11
 70
     0
102
RTVSPropertyOp12
 70
     0
102
RTVSPropertyOp13
 70
     0
102
RTVSPropertyOp14
 70
     2
102
RTVSPropertyOp15
 70
     0
102
RTVSPropertyOp16
 70
     0
102
RTVSPropertyOp17
 70
     0
102
RTVSPropertyOp18
 70
     0
102
RTVSPropertyOp19
 70
     0
102
RTVSPropertyOp20
 70
     0
102
RTVSPropertyOp21
 70
     0
102
RTVSPropertyOp22
 70
     0
102
RTVSPropertyOp23
 70
     0
102
RTVSPropertyOp24
 70
     0
102
RTVSPropertyOp25
 70
     0
102
RTVSPropertyOp26
 70
     0
102
RTVSPropertyOp27
 70
     0
102
RTVSPropertyOp28
 70
     1
102
RTVSPropertyOp29
 70
     1
102
RTVSPropertyOp30
 70
     1
102
RTVSPropertyOp31
 70
     1
102
RTVSPropertyOp32
 70
     1
102
RTVSPropertyOp33
 70
     1
102
RTVSPropertyOp34
 70
     1
102
RTVSPropertyOp35
 70
     1
102
RTVSPropertyOp36
 70
     1
102
RTVSPropertyOp37
 70
     1
102
RTVSPropertyOp38
 70
     1
102
RTVSPropertyOp39
 70
     1
102
RTVSPropertyOp40
 70
     1
102
RTVSPropertyOp41
 70
     1
102
RTVSPropertyOp42
 70
     1
102
RTVSPropertyOp43
 70
     1
102
RTVSPropertyOp44
 70
     1
102
RTVSPropertyOp45
 70
     1
102
RTVSPropertyOp46
 70
     1
102
RTVSPropertyOp47
 70
     1
102
RTVSPropertyOp48
 70
     1
102
RTVSPropertyOp49
 70
     1
102
RTVSPropertyOp50
 70
     1
102
RTVSPropertyOp51
 70
     0
102
RTVSPropertyOp52
 70
     0
102
RTVSPropertyOp53
 70
     1
102
RTVSPropertyOp54
 70
     1
102
RTVSPropertyOp55
 70
     1
102
RTVSPropertyOp56
 70
     1
102
RTVSPropertyOp57
 70
     1
102
RTVSPropertyOp58
 70
     1
102
RTVSPropertyOp59
 70
     1
102
RTVSPropertyOp60
 70
     1
102
RTVSPropertyOp61
 70
     1
102
RTVSPropertyOp62
 70
     1
  0
XRECORD
  5
74E6
102
{ACAD_REACTORS
330
74E5
102
}
330
74E5
100
AcDbXrecord
280
     1
102
RTVSPost2010Prop28
280
     0
102
RTVSPost2010PropOp28
 70
     1
102
RTVSPost2010Prop29
280
     1
102
RTVSPost2010PropOp29
 70
     1
102
RTVSPost2010Prop30
280
     1
102
RTVSPost2010PropOp30
 70
     1
102
RTVSPost2010Prop31
280
     0
102
RTVSPost2010PropOp31
 70
     1
102
RTVSPost2010Prop32
280
     0
102
RTVSPost2010PropOp32
 70
     1
102
RTVSPost2010Prop33
280
     0
102
RTVSPost2010PropOp33
 70
     1
102
RTVSPost2010Prop34
280
     0
102
RTVSPost2010PropOp34
 70
     1
102
RTVSPost2010Prop35
280
     0
102
RTVSPost2010PropOp35
 70
     1
102
RTVSPost2010Prop36
280
     0
102
RTVSPost2010PropOp36
 70
     1
102
RTVSPost2010Prop37
 90
       50
102
RTVSPost2010PropOp37
 70
     1
102
RTVSPost2010Prop38
140
0.0
102
RTVSPost2010PropOp38
 70
     1
102
RTVSPost2010Prop39
140
1.0
102
RTVSPost2010PropOp39
 70
     1
102
RTVSPost2010Prop40
 90
        0
102
RTVSPost2010PropOp40
 70
     1
102
RTVSPost2010Prop41ColorIndex
 90
       18
102
RTVSPost2010Prop41ColorRGB
 90
        0
102
RTVSPost2010PropOp41
 70
     1
102
RTVSPost2010Prop42
 90
       50
102
RTVSPost2010PropOp42
 70
     1
102
RTVSPost2010Prop43
 90
        3
102
RTVSPost2010PropOp43
 70
     1
102
RTVSPost2010Prop44ColorIndex
 90
        5
102
RTVSPost2010Prop44ColorRGB
 90
      255
102
RTVSPost2010PropOp44
 70
     1
102
RTVSPost2010Prop45
280
     0
102
RTVSPost2010PropOp45
 70
     1
102
RTVSPost2010Prop46
 90
       50
102
RTVSPost2010PropOp46
 70
     1
102
RTVSPost2010Prop47
 90
       50
102
RTVSPost2010PropOp47
 70
     1
102
RTVSPost2010Prop48
 90
       50
102
RTVSPost2010PropOp48
 70
     1
102
RTVSPost2010Prop49
280
     0
102
RTVSPost2010PropOp49
 70
     1
102
RTVSPost2010Prop50
 90
       50
102
RTVSPost2010PropOp50
 70
     1
102
RTVSPost2010Prop51ColorIndex
 90
      256
102
RTVSPost2010Prop51ColorRGB
 90
-16777216
102
RTVSPost2010PropOp51
 70
     0
102
RTVSPost2010Prop52
140
1.0
102
RTVSPost2010PropOp52
 70
     0
102
RTVSPost2010Prop53
 90
        2
102
RTVSPost2010PropOp53
 70
     1
102
RTVSPost2010Prop54
  1
strokes_ogs.tif
102
RTVSPost2010PropOp54
 70
     1
102
RTVSPost2010Prop55
280
     0
102
RTVSPost2010PropOp55
 70
     1
102
RTVSPost2010Prop56
140
1.0
102
RTVSPost2010PropOp56
 70
     1
102
RTVSPost2010Prop57
140
1.0
102
RTVSPost2010PropOp57
 70
     1
102
RTVSPropertyOp0
 70
     1
102
RTVSPropertyOp1
 70
     1
102
RTVSPropertyOp2
 70
     1
102
RTVSPropertyOp3
 70
     1
102
RTVSPropertyOp4
 70
     1
102
RTVSPropertyOp5
 70
     1
102
RTVSPropertyOp6
 70
     1
102
RTVSPropertyOp7
 70
     1
102
RTVSPropertyOp8
 70
     1
102
RTVSPropertyOp9
 70
     1
102
RTVSPropertyOp10
 70
     1
102
RTVSPropertyOp11
 70
     1
102
RTVSPropertyOp12
 70
     1
102
RTVSPropertyOp13
 70
     1
102
RTVSPropertyOp14
 70
     1
102
RTVSPropertyOp15
 70
     1
102
RTVSPropertyOp16
 70
     1
102
RTVSPropertyOp17
 70
     1
102
RTVSPropertyOp18
 70
     1
102
RTVSPropertyOp19
 70
     1
102
RTVSPropertyOp20
 70
     1
102
RTVSPropertyOp21
 70
     1
102
RTVSPropertyOp22
 70
     1
102
RTVSPropertyOp23
 70
     1
102
RTVSPropertyOp24
 70
     1
102
RTVSPropertyOp25
 70
     1
102
RTVSPropertyOp26
 70
     1
102
RTVSPropertyOp27
 70
     1
102
RTVSPropertyOp28
 70
     1
102
RTVSPropertyOp29
 70
     1
102
RTVSPropertyOp30
 70
     1
102
RTVSPropertyOp31
 70
     1
102
RTVSPropertyOp32
 70
     1
102
RTVSPropertyOp33
 70
     1
102
RTVSPropertyOp34
 70
     1
102
RTVSPropertyOp35
 70
     1
102
RTVSPropertyOp36
 70
     1
102
RTVSPropertyOp37
 70
     1
102
RTVSPropertyOp38
 70
     1
102
RTVSPropertyOp39
 70
     1
102
RTVSPropertyOp40
 70
     1
102
RTVSPropertyOp41
 70
     1
102
RTVSPropertyOp42
 70
     1
102
RTVSPropertyOp43
 70
     1
102
RTVSPropertyOp44
 70
     1
102
RTVSPropertyOp45
 70
     1
102
RTVSPropertyOp46
 70
     1
102
RTVSPropertyOp47
 70
     1
102
RTVSPropertyOp48
 70
     1
102
RTVSPropertyOp49
 70
     1
102
RTVSPropertyOp50
 70
     1
102
RTVSPropertyOp51
 70
     0
102
RTVSPropertyOp52
 70
     0
102
RTVSPropertyOp53
 70
     1
102
RTVSPropertyOp54
 70
     1
102
RTVSPropertyOp55
 70
     1
102
RTVSPropertyOp56
 70
     1
102
RTVSPropertyOp57
 70
     1
102
RTVSPropertyOp58
 70
     1
102
RTVSPropertyOp59
 70
     1
102
RTVSPropertyOp60
 70
     1
102
RTVSPropertyOp61
 70
     1
102
RTVSPropertyOp62
 70
     1
  0
XRECORD
  5
74F0
102
{ACAD_REACTORS
330
74EF
102
}
330
74EF
100
AcDbXrecord
280
     1
102
RTVSPost2010Prop28
280
     0
102
RTVSPost2010PropOp28
 70
     1
102
RTVSPost2010Prop29
280
     1
102
RTVSPost2010PropOp29
 70
     1
102
RTVSPost2010Prop30
280
     1
102
RTVSPost2010PropOp30
 70
     1
102
RTVSPost2010Prop31
280
     0
102
RTVSPost2010PropOp31
 70
     1
102
RTVSPost2010Prop32
280
     0
102
RTVSPost2010PropOp32
 70
     1
102
RTVSPost2010Prop33
280
     0
102
RTVSPost2010PropOp33
 70
     1
102
RTVSPost2010Prop34
280
     0
102
RTVSPost2010PropOp34
 70
     1
102
RTVSPost2010Prop35
280
     0
102
RTVSPost2010PropOp35
 70
     1
102
RTVSPost2010Prop36
280
     0
102
RTVSPost2010PropOp36
 70
     1
102
RTVSPost2010Prop37
 90
       50
102
RTVSPost2010PropOp37
 70
     1
102
RTVSPost2010Prop38
140
0.0
102
RTVSPost2010PropOp38
 70
     1
102
RTVSPost2010Prop39
140
1.0
102
RTVSPost2010PropOp39
 70
     1
102
RTVSPost2010Prop40
 90
        0
102
RTVSPost2010PropOp40
 70
     1
102
RTVSPost2010Prop41ColorIndex
 90
       18
102
RTVSPost2010Prop41ColorRGB
 90
        0
102
RTVSPost2010PropOp41
 70
     1
102
RTVSPost2010Prop42
 90
       50
102
RTVSPost2010PropOp42
 70
     1
102
RTVSPost2010Prop43
 90
        3
102
RTVSPost2010PropOp43
 70
     1
102
RTVSPost2010Prop44ColorIndex
 90
        5
102
RTVSPost2010Prop44ColorRGB
 90
      255
102
RTVSPost2010PropOp44
 70
     1
102
RTVSPost2010Prop45
280
     0
102
RTVSPost2010PropOp45
 70
     1
102
RTVSPost2010Prop46
 90
       50
102
RTVSPost2010PropOp46
 70
     1
102
RTVSPost2010Prop47
 90
       50
102
RTVSPost2010PropOp47
 70
     1
102
RTVSPost2010Prop48
 90
       50
102
RTVSPost2010PropOp48
 70
     1
102
RTVSPost2010Prop49
280
     0
102
RTVSPost2010PropOp49
 70
     1
102
RTVSPost2010Prop50
 90
       50
102
RTVSPost2010PropOp50
 70
     1
102
RTVSPost2010Prop51ColorIndex
 90
      256
102
RTVSPost2010Prop51ColorRGB
 90
-16777216
102
RTVSPost2010PropOp51
 70
     0
102
RTVSPost2010Prop52
140
1.0
102
RTVSPost2010PropOp52
 70
     0
102
RTVSPost2010Prop53
 90
        2
102
RTVSPost2010PropOp53
 70
     1
102
RTVSPost2010Prop54
  1
strokes_ogs.tif
102
RTVSPost2010PropOp54
 70
     1
102
RTVSPost2010Prop55
280
     0
102
RTVSPost2010PropOp55
 70
     1
102
RTVSPost2010Prop56
140
1.0
102
RTVSPost2010PropOp56
 70
     1
102
RTVSPost2010Prop57
140
1.0
102
RTVSPost2010PropOp57
 70
     1
102
RTVSPropertyOp0
 70
     0
102
RTVSPropertyOp1
 70
     0
102
RTVSPropertyOp2
 70
     0
102
RTVSPropertyOp3
 70
     0
102
RTVSPropertyOp4
 70
     0
102
RTVSPropertyOp5
 70
     0
102
RTVSPropertyOp6
 70
     0
102
RTVSPropertyOp7
 70
     0
102
RTVSPropertyOp8
 70
     0
102
RTVSPropertyOp9
 70
     0
102
RTVSPropertyOp10
 70
     0
102
RTVSPropertyOp11
 70
     0
102
RTVSPropertyOp12
 70
     0
102
RTVSPropertyOp13
 70
     0
102
RTVSPropertyOp14
 70
     2
102
RTVSPropertyOp15
 70
     0
102
RTVSPropertyOp16
 70
     0
102
RTVSPropertyOp17
 70
     0
102
RTVSPropertyOp18
 70
     0
102
RTVSPropertyOp19
 70
     0
102
RTVSPropertyOp20
 70
     0
102
RTVSPropertyOp21
 70
     0
102
RTVSPropertyOp22
 70
     0
102
RTVSPropertyOp23
 70
     0
102
RTVSPropertyOp24
 70
     0
102
RTVSPropertyOp25
 70
     0
102
RTVSPropertyOp26
 70
     0
102
RTVSPropertyOp27
 70
     0
102
RTVSPropertyOp28
 70
     1
102
RTVSPropertyOp29
 70
     1
102
RTVSPropertyOp30
 70
     1
102
RTVSPropertyOp31
 70
     1
102
RTVSPropertyOp32
 70
     1
102
RTVSPropertyOp33
 70
     1
102
RTVSPropertyOp34
 70
     1
102
RTVSPropertyOp35
 70
     1
102
RTVSPropertyOp36
 70
     1
102
RTVSPropertyOp37
 70
     1
102
RTVSPropertyOp38
 70
     1
102
RTVSPropertyOp39
 70
     1
102
RTVSPropertyOp40
 70
     1
102
RTVSPropertyOp41
 70
     1
102
RTVSPropertyOp42
 70
     1
102
RTVSPropertyOp43
 70
     1
102
RTVSPropertyOp44
 70
     1
102
RTVSPropertyOp45
 70
     1
102
RTVSPropertyOp46
 70
     1
102
RTVSPropertyOp47
 70
     1
102
RTVSPropertyOp48
 70
     1
102
RTVSPropertyOp49
 70
     1
102
RTVSPropertyOp50
 70
     1
102
RTVSPropertyOp51
 70
     0
102
RTVSPropertyOp52
 70
     0
102
RTVSPropertyOp53
 70
     1
102
RTVSPropertyOp54
 70
     1
102
RTVSPropertyOp55
 70
     1
102
RTVSPropertyOp56
 70
     1
102
RTVSPropertyOp57
 70
     1
102
RTVSPropertyOp58
 70
     1
102
RTVSPropertyOp59
 70
     1
102
RTVSPropertyOp60
 70
     1
102
RTVSPropertyOp61
 70
     1
102
RTVSPropertyOp62
 70
     1
  0
XRECORD
  5
74DE
102
{ACAD_REACTORS
330
74DD
102
}
330
74DD
100
AcDbXrecord
280
     1
102
RTVSPost2010Prop28
280
     0
102
RTVSPost2010PropOp28
 70
     1
102
RTVSPost2010Prop29
280
     1
102
RTVSPost2010PropOp29
 70
     1
102
RTVSPost2010Prop30
280
     1
102
RTVSPost2010PropOp30
 70
     1
102
RTVSPost2010Prop31
280
     0
102
RTVSPost2010PropOp31
 70
     1
102
RTVSPost2010Prop32
280
     0
102
RTVSPost2010PropOp32
 70
     1
102
RTVSPost2010Prop33
280
     0
102
RTVSPost2010PropOp33
 70
     1
102
RTVSPost2010Prop34
280
     0
102
RTVSPost2010PropOp34
 70
     1
102
RTVSPost2010Prop35
280
     0
102
RTVSPost2010PropOp35
 70
     1
102
RTVSPost2010Prop36
280
     0
102
RTVSPost2010PropOp36
 70
     1
102
RTVSPost2010Prop37
 90
       50
102
RTVSPost2010PropOp37
 70
     1
102
RTVSPost2010Prop38
140
0.0
102
RTVSPost2010PropOp38
 70
     1
102
RTVSPost2010Prop39
140
1.0
102
RTVSPost2010PropOp39
 70
     1
102
RTVSPost2010Prop40
 90
        0
102
RTVSPost2010PropOp40
 70
     1
102
RTVSPost2010Prop41ColorIndex
 90
       18
102
RTVSPost2010Prop41ColorRGB
 90
        0
102
RTVSPost2010PropOp41
 70
     1
102
RTVSPost2010Prop42
 90
       50
102
RTVSPost2010PropOp42
 70
     1
102
RTVSPost2010Prop43
 90
        3
102
RTVSPost2010PropOp43
 70
     1
102
RTVSPost2010Prop44ColorIndex
 90
        5
102
RTVSPost2010Prop44ColorRGB
 90
      255
102
RTVSPost2010PropOp44
 70
     1
102
RTVSPost2010Prop45
280
     0
102
RTVSPost2010PropOp45
 70
     1
102
RTVSPost2010Prop46
 90
       50
102
RTVSPost2010PropOp46
 70
     1
102
RTVSPost2010Prop47
 90
       50
102
RTVSPost2010PropOp47
 70
     1
102
RTVSPost2010Prop48
 90
       50
102
RTVSPost2010PropOp48
 70
     1
102
RTVSPost2010Prop49
280
     0
102
RTVSPost2010PropOp49
 70
     1
102
RTVSPost2010Prop50
 90
       50
102
RTVSPost2010PropOp50
 70
     1
102
RTVSPost2010Prop51ColorIndex
 90
      256
102
RTVSPost2010Prop51ColorRGB
 90
-16777216
102
RTVSPost2010PropOp51
 70
     0
102
RTVSPost2010Prop52
140
1.0
102
RTVSPost2010PropOp52
 70
     0
102
RTVSPost2010Prop53
 90
        2
102
RTVSPost2010PropOp53
 70
     1
102
RTVSPost2010Prop54
  1
strokes_ogs.tif
102
RTVSPost2010PropOp54
 70
     1
102
RTVSPost2010Prop55
280
     0
102
RTVSPost2010PropOp55
 70
     1
102
RTVSPost2010Prop56
140
1.0
102
RTVSPost2010PropOp56
 70
     1
102
RTVSPost2010Prop57
140
1.0
102
RTVSPost2010PropOp57
 70
     1
102
RTVSPropertyOp0
 70
     1
102
RTVSPropertyOp1
 70
     1
102
RTVSPropertyOp2
 70
     1
102
RTVSPropertyOp3
 70
     1
102
RTVSPropertyOp4
 70
     1
102
RTVSPropertyOp5
 70
     1
102
RTVSPropertyOp6
 70
     1
102
RTVSPropertyOp7
 70
     1
102
RTVSPropertyOp8
 70
     1
102
RTVSPropertyOp9
 70
     1
102
RTVSPropertyOp10
 70
     1
102
RTVSPropertyOp11
 70
     1
102
RTVSPropertyOp12
 70
     1
102
RTVSPropertyOp13
 70
     1
102
RTVSPropertyOp14
 70
     1
102
RTVSPropertyOp15
 70
     1
102
RTVSPropertyOp16
 70
     1
102
RTVSPropertyOp17
 70
     1
102
RTVSPropertyOp18
 70
     1
102
RTVSPropertyOp19
 70
     1
102
RTVSPropertyOp20
 70
     1
102
RTVSPropertyOp21
 70
     1
102
RTVSPropertyOp22
 70
     1
102
RTVSPropertyOp23
 70
     1
102
RTVSPropertyOp24
 70
     1
102
RTVSPropertyOp25
 70
     1
102
RTVSPropertyOp26
 70
     1
102
RTVSPropertyOp27
 70
     1
102
RTVSPropertyOp28
 70
     1
102
RTVSPropertyOp29
 70
     1
102
RTVSPropertyOp30
 70
     1
102
RTVSPropertyOp31
 70
     1
102
RTVSPropertyOp32
 70
     1
102
RTVSPropertyOp33
 70
     1
102
RTVSPropertyOp34
 70
     1
102
RTVSPropertyOp35
 70
     1
102
RTVSPropertyOp36
 70
     1
102
RTVSPropertyOp37
 70
     1
102
RTVSPropertyOp38
 70
     1
102
RTVSPropertyOp39
 70
     1
102
RTVSPropertyOp40
 70
     1
102
RTVSPropertyOp41
 70
     1
102
RTVSPropertyOp42
 70
     1
102
RTVSPropertyOp43
 70
     1
102
RTVSPropertyOp44
 70
     1
102
RTVSPropertyOp45
 70
     1
102
RTVSPropertyOp46
 70
     1
102
RTVSPropertyOp47
 70
     1
102
RTVSPropertyOp48
 70
     1
102
RTVSPropertyOp49
 70
     1
102
RTVSPropertyOp50
 70
     1
102
RTVSPropertyOp51
 70
     0
102
RTVSPropertyOp52
 70
     0
102
RTVSPropertyOp53
 70
     1
102
RTVSPropertyOp54
 70
     1
102
RTVSPropertyOp55
 70
     1
102
RTVSPropertyOp56
 70
     1
102
RTVSPropertyOp57
 70
     1
102
RTVSPropertyOp58
 70
     1
102
RTVSPropertyOp59
 70
     1
102
RTVSPropertyOp60
 70
     1
102
RTVSPropertyOp61
 70
     1
102
RTVSPropertyOp62
 70
     1
  0
XRECORD
  5
74FC
102
{ACAD_REACTORS
330
74FB
102
}
330
74FB
100
AcDbXrecord
280
     1
102
RTVSPost2010Prop28
280
     0
102
RTVSPost2010PropOp28
 70
     1
102
RTVSPost2010Prop29
280
     1
102
RTVSPost2010PropOp29
 70
     1
102
RTVSPost2010Prop30
280
     1
102
RTVSPost2010PropOp30
 70
     1
102
RTVSPost2010Prop31
280
     0
102
RTVSPost2010PropOp31
 70
     1
102
RTVSPost2010Prop32
280
     0
102
RTVSPost2010PropOp32
 70
     1
102
RTVSPost2010Prop33
280
     0
102
RTVSPost2010PropOp33
 70
     1
102
RTVSPost2010Prop34
280
     0
102
RTVSPost2010PropOp34
 70
     1
102
RTVSPost2010Prop35
280
     0
102
RTVSPost2010PropOp35
 70
     1
102
RTVSPost2010Prop36
280
     0
102
RTVSPost2010PropOp36
 70
     1
102
RTVSPost2010Prop37
 90
       50
102
RTVSPost2010PropOp37
 70
     1
102
RTVSPost2010Prop38
140
0.0
102
RTVSPost2010PropOp38
 70
     1
102
RTVSPost2010Prop39
140
1.0
102
RTVSPost2010PropOp39
 70
     1
102
RTVSPost2010Prop40
 90
        0
102
RTVSPost2010PropOp40
 70
     1
102
RTVSPost2010Prop41ColorIndex
 90
       18
102
RTVSPost2010Prop41ColorRGB
 90
        0
102
RTVSPost2010PropOp41
 70
     1
102
RTVSPost2010Prop42
 90
       50
102
RTVSPost2010PropOp42
 70
     1
102
RTVSPost2010Prop43
 90
        3
102
RTVSPost2010PropOp43
 70
     1
102
RTVSPost2010Prop44ColorIndex
 90
        5
102
RTVSPost2010Prop44ColorRGB
 90
      255
102
RTVSPost2010PropOp44
 70
     1
102
RTVSPost2010Prop45
280
     0
102
RTVSPost2010PropOp45
 70
     1
102
RTVSPost2010Prop46
 90
       50
102
RTVSPost2010PropOp46
 70
     1
102
RTVSPost2010Prop47
 90
       50
102
RTVSPost2010PropOp47
 70
     1
102
RTVSPost2010Prop48
 90
       50
102
RTVSPost2010PropOp48
 70
     1
102
RTVSPost2010Prop49
280
     0
102
RTVSPost2010PropOp49
 70
     1
102
RTVSPost2010Prop50
 90
       50
102
RTVSPost2010PropOp50
 70
     1
102
RTVSPost2010Prop51ColorIndex
 90
      256
102
RTVSPost2010Prop51ColorRGB
 90
-16777216
102
RTVSPost2010PropOp51
 70
     0
102
RTVSPost2010Prop52
140
1.0
102
RTVSPost2010PropOp52
 70
     0
102
RTVSPost2010Prop53
 90
        2
102
RTVSPost2010PropOp53
 70
     1
102
RTVSPost2010Prop54
  1
strokes_ogs.tif
102
RTVSPost2010PropOp54
 70
     1
102
RTVSPost2010Prop55
280
     0
102
RTVSPost2010PropOp55
 70
     1
102
RTVSPost2010Prop56
140
1.0
102
RTVSPost2010PropOp56
 70
     1
102
RTVSPost2010Prop57
140
1.0
102
RTVSPost2010PropOp57
 70
     1
102
RTVSPropertyOp0
 70
     1
102
RTVSPropertyOp1
 70
     1
102
RTVSPropertyOp2
 70
     1
102
RTVSPropertyOp3
 70
     1
102
RTVSPropertyOp4
 70
     1
102
RTVSPropertyOp5
 70
     1
102
RTVSPropertyOp6
 70
     1
102
RTVSPropertyOp7
 70
     1
102
RTVSPropertyOp8
 70
     1
102
RTVSPropertyOp9
 70
     1
102
RTVSPropertyOp10
 70
     1
102
RTVSPropertyOp11
 70
     1
102
RTVSPropertyOp12
 70
     1
102
RTVSPropertyOp13
 70
     1
102
RTVSPropertyOp14
 70
     1
102
RTVSPropertyOp15
 70
     1
102
RTVSPropertyOp16
 70
     1
102
RTVSPropertyOp17
 70
     1
102
RTVSPropertyOp18
 70
     1
102
RTVSPropertyOp19
 70
     1
102
RTVSPropertyOp20
 70
     1
102
RTVSPropertyOp21
 70
     1
102
RTVSPropertyOp22
 70
     1
102
RTVSPropertyOp23
 70
     1
102
RTVSPropertyOp24
 70
     1
102
RTVSPropertyOp25
 70
     1
102
RTVSPropertyOp26
 70
     1
102
RTVSPropertyOp27
 70
     1
102
RTVSPropertyOp28
 70
     1
102
RTVSPropertyOp29
 70
     1
102
RTVSPropertyOp30
 70
     1
102
RTVSPropertyOp31
 70
     1
102
RTVSPropertyOp32
 70
     1
102
RTVSPropertyOp33
 70
     1
102
RTVSPropertyOp34
 70
     1
102
RTVSPropertyOp35
 70
     1
102
RTVSPropertyOp36
 70
     1
102
RTVSPropertyOp37
 70
     1
102
RTVSPropertyOp38
 70
     1
102
RTVSPropertyOp39
 70
     1
102
RTVSPropertyOp40
 70
     1
102
RTVSPropertyOp41
 70
     1
102
RTVSPropertyOp42
 70
     1
102
RTVSPropertyOp43
 70
     1
102
RTVSPropertyOp44
 70
     1
102
RTVSPropertyOp45
 70
     1
102
RTVSPropertyOp46
 70
     1
102
RTVSPropertyOp47
 70
     1
102
RTVSPropertyOp48
 70
     1
102
RTVSPropertyOp49
 70
     1
102
RTVSPropertyOp50
 70
     1
102
RTVSPropertyOp51
 70
     0
102
RTVSPropertyOp52
 70
     0
102
RTVSPropertyOp53
 70
     1
102
RTVSPropertyOp54
 70
     1
102
RTVSPropertyOp55
 70
     1
102
RTVSPropertyOp56
 70
     1
102
RTVSPropertyOp57
 70
     1
102
RTVSPropertyOp58
 70
     1
102
RTVSPropertyOp59
 70
     1
102
RTVSPropertyOp60
 70
     1
102
RTVSPropertyOp61
 70
     1
102
RTVSPropertyOp62
 70
     1
  0
XRECORD
  5
74FA
102
{ACAD_REACTORS
330
74F9
102
}
330
74F9
100
AcDbXrecord
280
     1
102
RTVSPost2010Prop28
280
     0
102
RTVSPost2010PropOp28
 70
     1
102
RTVSPost2010Prop29
280
     1
102
RTVSPost2010PropOp29
 70
     1
102
RTVSPost2010Prop30
280
     1
102
RTVSPost2010PropOp30
 70
     1
102
RTVSPost2010Prop31
280
     0
102
RTVSPost2010PropOp31
 70
     1
102
RTVSPost2010Prop32
280
     0
102
RTVSPost2010PropOp32
 70
     1
102
RTVSPost2010Prop33
280
     0
102
RTVSPost2010PropOp33
 70
     1
102
RTVSPost2010Prop34
280
     0
102
RTVSPost2010PropOp34
 70
     1
102
RTVSPost2010Prop35
280
     0
102
RTVSPost2010PropOp35
 70
     1
102
RTVSPost2010Prop36
280
     0
102
RTVSPost2010PropOp36
 70
     1
102
RTVSPost2010Prop37
 90
       50
102
RTVSPost2010PropOp37
 70
     1
102
RTVSPost2010Prop38
140
0.0
102
RTVSPost2010PropOp38
 70
     1
102
RTVSPost2010Prop39
140
1.0
102
RTVSPost2010PropOp39
 70
     1
102
RTVSPost2010Prop40
 90
        0
102
RTVSPost2010PropOp40
 70
     1
102
RTVSPost2010Prop41ColorIndex
 90
       18
102
RTVSPost2010Prop41ColorRGB
 90
        0
102
RTVSPost2010PropOp41
 70
     1
102
RTVSPost2010Prop42
 90
       50
102
RTVSPost2010PropOp42
 70
     1
102
RTVSPost2010Prop43
 90
        3
102
RTVSPost2010PropOp43
 70
     1
102
RTVSPost2010Prop44ColorIndex
 90
        5
102
RTVSPost2010Prop44ColorRGB
 90
      255
102
RTVSPost2010PropOp44
 70
     1
102
RTVSPost2010Prop45
280
     0
102
RTVSPost2010PropOp45
 70
     1
102
RTVSPost2010Prop46
 90
       50
102
RTVSPost2010PropOp46
 70
     1
102
RTVSPost2010Prop47
 90
       50
102
RTVSPost2010PropOp47
 70
     1
102
RTVSPost2010Prop48
 90
       50
102
RTVSPost2010PropOp48
 70
     1
102
RTVSPost2010Prop49
280
     0
102
RTVSPost2010PropOp49
 70
     1
102
RTVSPost2010Prop50
 90
       50
102
RTVSPost2010PropOp50
 70
     1
102
RTVSPost2010Prop51ColorIndex
 90
      256
102
RTVSPost2010Prop51ColorRGB
 90
-16777216
102
RTVSPost2010PropOp51
 70
     0
102
RTVSPost2010Prop52
140
1.0
102
RTVSPost2010PropOp52
 70
     0
102
RTVSPost2010Prop53
 90
        2
102
RTVSPost2010PropOp53
 70
     1
102
RTVSPost2010Prop54
  1
strokes_ogs.tif
102
RTVSPost2010PropOp54
 70
     1
102
RTVSPost2010Prop55
280
     0
102
RTVSPost2010PropOp55
 70
     1
102
RTVSPost2010Prop56
140
1.0
102
RTVSPost2010PropOp56
 70
     1
102
RTVSPost2010Prop57
140
1.0
102
RTVSPost2010PropOp57
 70
     1
102
RTVSPropertyOp0
 70
     1
102
RTVSPropertyOp1
 70
     1
102
RTVSPropertyOp2
 70
     1
102
RTVSPropertyOp3
 70
     1
102
RTVSPropertyOp4
 70
     1
102
RTVSPropertyOp5
 70
     1
102
RTVSPropertyOp6
 70
     1
102
RTVSPropertyOp7
 70
     1
102
RTVSPropertyOp8
 70
     1
102
RTVSPropertyOp9
 70
     1
102
RTVSPropertyOp10
 70
     1
102
RTVSPropertyOp11
 70
     1
102
RTVSPropertyOp12
 70
     1
102
RTVSPropertyOp13
 70
     1
102
RTVSPropertyOp14
 70
     1
102
RTVSPropertyOp15
 70
     1
102
RTVSPropertyOp16
 70
     1
102
RTVSPropertyOp17
 70
     1
102
RTVSPropertyOp18
 70
     1
102
RTVSPropertyOp19
 70
     1
102
RTVSPropertyOp20
 70
     1
102
RTVSPropertyOp21
 70
     1
102
RTVSPropertyOp22
 70
     1
102
RTVSPropertyOp23
 70
     1
102
RTVSPropertyOp24
 70
     1
102
RTVSPropertyOp25
 70
     1
102
RTVSPropertyOp26
 70
     1
102
RTVSPropertyOp27
 70
     1
102
RTVSPropertyOp28
 70
     1
102
RTVSPropertyOp29
 70
     1
102
RTVSPropertyOp30
 70
     1
102
RTVSPropertyOp31
 70
     1
102
RTVSPropertyOp32
 70
     1
102
RTVSPropertyOp33
 70
     1
102
RTVSPropertyOp34
 70
     1
102
RTVSPropertyOp35
 70
     1
102
RTVSPropertyOp36
 70
     1
102
RTVSPropertyOp37
 70
     1
102
RTVSPropertyOp38
 70
     1
102
RTVSPropertyOp39
 70
     1
102
RTVSPropertyOp40
 70
     1
102
RTVSPropertyOp41
 70
     1
102
RTVSPropertyOp42
 70
     1
102
RTVSPropertyOp43
 70
     1
102
RTVSPropertyOp44
 70
     1
102
RTVSPropertyOp45
 70
     1
102
RTVSPropertyOp46
 70
     1
102
RTVSPropertyOp47
 70
     1
102
RTVSPropertyOp48
 70
     1
102
RTVSPropertyOp49
 70
     1
102
RTVSPropertyOp50
 70
     1
102
RTVSPropertyOp51
 70
     0
102
RTVSPropertyOp52
 70
     0
102
RTVSPropertyOp53
 70
     1
102
RTVSPropertyOp54
 70
     1
102
RTVSPropertyOp55
 70
     1
102
RTVSPropertyOp56
 70
     1
102
RTVSPropertyOp57
 70
     1
102
RTVSPropertyOp58
 70
     1
102
RTVSPropertyOp59
 70
     1
102
RTVSPropertyOp60
 70
     1
102
RTVSPropertyOp61
 70
     1
102
RTVSPropertyOp62
 70
     1
  0
XRECORD
  5
74F4
102
{ACAD_REACTORS
330
74F3
102
}
330
74F3
100
AcDbXrecord
280
     1
102
RTVSPost2010Prop28
280
     0
102
RTVSPost2010PropOp28
 70
     1
102
RTVSPost2010Prop29
280
     1
102
RTVSPost2010PropOp29
 70
     1
102
RTVSPost2010Prop30
280
     1
102
RTVSPost2010PropOp30
 70
     1
102
RTVSPost2010Prop31
280
     0
102
RTVSPost2010PropOp31
 70
     1
102
RTVSPost2010Prop32
280
     0
102
RTVSPost2010PropOp32
 70
     1
102
RTVSPost2010Prop33
280
     0
102
RTVSPost2010PropOp33
 70
     1
102
RTVSPost2010Prop34
280
     0
102
RTVSPost2010PropOp34
 70
     1
102
RTVSPost2010Prop35
280
     0
102
RTVSPost2010PropOp35
 70
     1
102
RTVSPost2010Prop36
280
     0
102
RTVSPost2010PropOp36
 70
     1
102
RTVSPost2010Prop37
 90
       50
102
RTVSPost2010PropOp37
 70
     1
102
RTVSPost2010Prop38
140
0.0
102
RTVSPost2010PropOp38
 70
     1
102
RTVSPost2010Prop39
140
1.0
102
RTVSPost2010PropOp39
 70
     1
102
RTVSPost2010Prop40
 90
        0
102
RTVSPost2010PropOp40
 70
     1
102
RTVSPost2010Prop41ColorIndex
 90
       18
102
RTVSPost2010Prop41ColorRGB
 90
        0
102
RTVSPost2010PropOp41
 70
     1
102
RTVSPost2010Prop42
 90
       50
102
RTVSPost2010PropOp42
 70
     1
102
RTVSPost2010Prop43
 90
        3
102
RTVSPost2010PropOp43
 70
     1
102
RTVSPost2010Prop44ColorIndex
 90
        5
102
RTVSPost2010Prop44ColorRGB
 90
      255
102
RTVSPost2010PropOp44
 70
     1
102
RTVSPost2010Prop45
280
     0
102
RTVSPost2010PropOp45
 70
     1
102
RTVSPost2010Prop46
 90
       50
102
RTVSPost2010PropOp46
 70
     1
102
RTVSPost2010Prop47
 90
       50
102
RTVSPost2010PropOp47
 70
     1
102
RTVSPost2010Prop48
 90
       50
102
RTVSPost2010PropOp48
 70
     1
102
RTVSPost2010Prop49
280
     0
102
RTVSPost2010PropOp49
 70
     1
102
RTVSPost2010Prop50
 90
       50
102
RTVSPost2010PropOp50
 70
     1
102
RTVSPost2010Prop51ColorIndex
 90
      256
102
RTVSPost2010Prop51ColorRGB
 90
-16777216
102
RTVSPost2010PropOp51
 70
     0
102
RTVSPost2010Prop52
140
1.0
102
RTVSPost2010PropOp52
 70
     0
102
RTVSPost2010Prop53
 90
        2
102
RTVSPost2010PropOp53
 70
     1
102
RTVSPost2010Prop54
  1
strokes_ogs.tif
102
RTVSPost2010PropOp54
 70
     1
102
RTVSPost2010Prop55
280
     0
102
RTVSPost2010PropOp55
 70
     1
102
RTVSPost2010Prop56
140
1.0
102
RTVSPost2010PropOp56
 70
     1
102
RTVSPost2010Prop57
140
1.0
102
RTVSPost2010PropOp57
 70
     1
102
RTVSPropertyOp0
 70
     1
102
RTVSPropertyOp1
 70
     1
102
RTVSPropertyOp2
 70
     1
102
RTVSPropertyOp3
 70
     1
102
RTVSPropertyOp4
 70
     1
102
RTVSPropertyOp5
 70
     1
102
RTVSPropertyOp6
 70
     1
102
RTVSPropertyOp7
 70
     1
102
RTVSPropertyOp8
 70
     1
102
RTVSPropertyOp9
 70
     1
102
RTVSPropertyOp10
 70
     1
102
RTVSPropertyOp11
 70
     1
102
RTVSPropertyOp12
 70
     1
102
RTVSPropertyOp13
 70
     1
102
RTVSPropertyOp14
 70
     1
102
RTVSPropertyOp15
 70
     1
102
RTVSPropertyOp16
 70
     1
102
RTVSPropertyOp17
 70
     1
102
RTVSPropertyOp18
 70
     1
102
RTVSPropertyOp19
 70
     1
102
RTVSPropertyOp20
 70
     1
102
RTVSPropertyOp21
 70
     1
102
RTVSPropertyOp22
 70
     1
102
RTVSPropertyOp23
 70
     1
102
RTVSPropertyOp24
 70
     1
102
RTVSPropertyOp25
 70
     1
102
RTVSPropertyOp26
 70
     1
102
RTVSPropertyOp27
 70
     1
102
RTVSPropertyOp28
 70
     1
102
RTVSPropertyOp29
 70
     1
102
RTVSPropertyOp30
 70
     1
102
RTVSPropertyOp31
 70
     1
102
RTVSPropertyOp32
 70
     1
102
RTVSPropertyOp33
 70
     1
102
RTVSPropertyOp34
 70
     1
102
RTVSPropertyOp35
 70
     1
102
RTVSPropertyOp36
 70
     1
102
RTVSPropertyOp37
 70
     1
102
RTVSPropertyOp38
 70
     1
102
RTVSPropertyOp39
 70
     1
102
RTVSPropertyOp40
 70
     1
102
RTVSPropertyOp41
 70
     1
102
RTVSPropertyOp42
 70
     1
102
RTVSPropertyOp43
 70
     1
102
RTVSPropertyOp44
 70
     1
102
RTVSPropertyOp45
 70
     1
102
RTVSPropertyOp46
 70
     1
102
RTVSPropertyOp47
 70
     1
102
RTVSPropertyOp48
 70
     1
102
RTVSPropertyOp49
 70
     1
102
RTVSPropertyOp50
 70
     1
102
RTVSPropertyOp51
 70
     0
102
RTVSPropertyOp52
 70
     0
102
RTVSPropertyOp53
 70
     1
102
RTVSPropertyOp54
 70
     1
102
RTVSPropertyOp55
 70
     1
102
RTVSPropertyOp56
 70
     1
102
RTVSPropertyOp57
 70
     1
102
RTVSPropertyOp58
 70
     1
102
RTVSPropertyOp59
 70
     1
102
RTVSPropertyOp60
 70
     1
102
RTVSPropertyOp61
 70
     1
102
RTVSPropertyOp62
 70
     1
  0
XRECORD
  5
74F6
102
{ACAD_REACTORS
330
74F5
102
}
330
74F5
100
AcDbXrecord
280
     1
102
RTVSPost2010Prop28
280
     0
102
RTVSPost2010PropOp28
 70
     1
102
RTVSPost2010Prop29
280
     1
102
RTVSPost2010PropOp29
 70
     1
102
RTVSPost2010Prop30
280
     1
102
RTVSPost2010PropOp30
 70
     1
102
RTVSPost2010Prop31
280
     0
102
RTVSPost2010PropOp31
 70
     1
102
RTVSPost2010Prop32
280
     0
102
RTVSPost2010PropOp32
 70
     1
102
RTVSPost2010Prop33
280
     0
102
RTVSPost2010PropOp33
 70
     1
102
RTVSPost2010Prop34
280
     0
102
RTVSPost2010PropOp34
 70
     1
102
RTVSPost2010Prop35
280
     0
102
RTVSPost2010PropOp35
 70
     1
102
RTVSPost2010Prop36
280
     0
102
RTVSPost2010PropOp36
 70
     1
102
RTVSPost2010Prop37
 90
       50
102
RTVSPost2010PropOp37
 70
     1
102
RTVSPost2010Prop38
140
0.0
102
RTVSPost2010PropOp38
 70
     1
102
RTVSPost2010Prop39
140
1.0
102
RTVSPost2010PropOp39
 70
     1
102
RTVSPost2010Prop40
 90
        0
102
RTVSPost2010PropOp40
 70
     1
102
RTVSPost2010Prop41ColorIndex
 90
       18
102
RTVSPost2010Prop41ColorRGB
 90
        0
102
RTVSPost2010PropOp41
 70
     1
102
RTVSPost2010Prop42
 90
       50
102
RTVSPost2010PropOp42
 70
     1
102
RTVSPost2010Prop43
 90
        3
102
RTVSPost2010PropOp43
 70
     1
102
RTVSPost2010Prop44ColorIndex
 90
        5
102
RTVSPost2010Prop44ColorRGB
 90
      255
102
RTVSPost2010PropOp44
 70
     1
102
RTVSPost2010Prop45
280
     0
102
RTVSPost2010PropOp45
 70
     1
102
RTVSPost2010Prop46
 90
       50
102
RTVSPost2010PropOp46
 70
     1
102
RTVSPost2010Prop47
 90
       50
102
RTVSPost2010PropOp47
 70
     1
102
RTVSPost2010Prop48
 90
       50
102
RTVSPost2010PropOp48
 70
     1
102
RTVSPost2010Prop49
280
     0
102
RTVSPost2010PropOp49
 70
     1
102
RTVSPost2010Prop50
 90
       50
102
RTVSPost2010PropOp50
 70
     1
102
RTVSPost2010Prop51ColorIndex
 90
      256
102
RTVSPost2010Prop51ColorRGB
 90
-16777216
102
RTVSPost2010PropOp51
 70
     0
102
RTVSPost2010Prop52
140
1.0
102
RTVSPost2010PropOp52
 70
     0
102
RTVSPost2010Prop53
 90
        2
102
RTVSPost2010PropOp53
 70
     1
102
RTVSPost2010Prop54
  1
strokes_ogs.tif
102
RTVSPost2010PropOp54
 70
     1
102
RTVSPost2010Prop55
280
     0
102
RTVSPost2010PropOp55
 70
     1
102
RTVSPost2010Prop56
140
1.0
102
RTVSPost2010PropOp56
 70
     1
102
RTVSPost2010Prop57
140
1.0
102
RTVSPost2010PropOp57
 70
     1
102
RTVSPropertyOp0
 70
     1
102
RTVSPropertyOp1
 70
     1
102
RTVSPropertyOp2
 70
     1
102
RTVSPropertyOp3
 70
     1
102
RTVSPropertyOp4
 70
     1
102
RTVSPropertyOp5
 70
     1
102
RTVSPropertyOp6
 70
     1
102
RTVSPropertyOp7
 70
     1
102
RTVSPropertyOp8
 70
     1
102
RTVSPropertyOp9
 70
     1
102
RTVSPropertyOp10
 70
     1
102
RTVSPropertyOp11
 70
     1
102
RTVSPropertyOp12
 70
     1
102
RTVSPropertyOp13
 70
     1
102
RTVSPropertyOp14
 70
     1
102
RTVSPropertyOp15
 70
     1
102
RTVSPropertyOp16
 70
     1
102
RTVSPropertyOp17
 70
     1
102
RTVSPropertyOp18
 70
     1
102
RTVSPropertyOp19
 70
     1
102
RTVSPropertyOp20
 70
     1
102
RTVSPropertyOp21
 70
     1
102
RTVSPropertyOp22
 70
     1
102
RTVSPropertyOp23
 70
     1
102
RTVSPropertyOp24
 70
     1
102
RTVSPropertyOp25
 70
     1
102
RTVSPropertyOp26
 70
     1
102
RTVSPropertyOp27
 70
     1
102
RTVSPropertyOp28
 70
     1
102
RTVSPropertyOp29
 70
     1
102
RTVSPropertyOp30
 70
     1
102
RTVSPropertyOp31
 70
     1
102
RTVSPropertyOp32
 70
     1
102
RTVSPropertyOp33
 70
     1
102
RTVSPropertyOp34
 70
     1
102
RTVSPropertyOp35
 70
     1
102
RTVSPropertyOp36
 70
     1
102
RTVSPropertyOp37
 70
     1
102
RTVSPropertyOp38
 70
     1
102
RTVSPropertyOp39
 70
     1
102
RTVSPropertyOp40
 70
     1
102
RTVSPropertyOp41
 70
     1
102
RTVSPropertyOp42
 70
     1
102
RTVSPropertyOp43
 70
     1
102
RTVSPropertyOp44
 70
     1
102
RTVSPropertyOp45
 70
     1
102
RTVSPropertyOp46
 70
     1
102
RTVSPropertyOp47
 70
     1
102
RTVSPropertyOp48
 70
     1
102
RTVSPropertyOp49
 70
     1
102
RTVSPropertyOp50
 70
     1
102
RTVSPropertyOp51
 70
     0
102
RTVSPropertyOp52
 70
     0
102
RTVSPropertyOp53
 70
     1
102
RTVSPropertyOp54
 70
     1
102
RTVSPropertyOp55
 70
     1
102
RTVSPropertyOp56
 70
     1
102
RTVSPropertyOp57
 70
     1
102
RTVSPropertyOp58
 70
     1
102
RTVSPropertyOp59
 70
     1
102
RTVSPropertyOp60
 70
     1
102
RTVSPropertyOp61
 70
     1
102
RTVSPropertyOp62
 70
     1
  0
XRECORD
  5
74E4
102
{ACAD_REACTORS
330
74E3
102
}
330
74E3
100
AcDbXrecord
280
     1
102
RTVSPost2010Prop28
280
     0
102
RTVSPost2010PropOp28
 70
     1
102
RTVSPost2010Prop29
280
     1
102
RTVSPost2010PropOp29
 70
     1
102
RTVSPost2010Prop30
280
     1
102
RTVSPost2010PropOp30
 70
     1
102
RTVSPost2010Prop31
280
     0
102
RTVSPost2010PropOp31
 70
     1
102
RTVSPost2010Prop32
280
     0
102
RTVSPost2010PropOp32
 70
     1
102
RTVSPost2010Prop33
280
     0
102
RTVSPost2010PropOp33
 70
     1
102
RTVSPost2010Prop34
280
     0
102
RTVSPost2010PropOp34
 70
     1
102
RTVSPost2010Prop35
280
     0
102
RTVSPost2010PropOp35
 70
     1
102
RTVSPost2010Prop36
280
     0
102
RTVSPost2010PropOp36
 70
     1
102
RTVSPost2010Prop37
 90
       50
102
RTVSPost2010PropOp37
 70
     1
102
RTVSPost2010Prop38
140
0.0
102
RTVSPost2010PropOp38
 70
     1
102
RTVSPost2010Prop39
140
1.0
102
RTVSPost2010PropOp39
 70
     1
102
RTVSPost2010Prop40
 90
        0
102
RTVSPost2010PropOp40
 70
     1
102
RTVSPost2010Prop41ColorIndex
 90
       18
102
RTVSPost2010Prop41ColorRGB
 90
        0
102
RTVSPost2010PropOp41
 70
     1
102
RTVSPost2010Prop42
 90
       50
102
RTVSPost2010PropOp42
 70
     1
102
RTVSPost2010Prop43
 90
        3
102
RTVSPost2010PropOp43
 70
     1
102
RTVSPost2010Prop44ColorIndex
 90
        5
102
RTVSPost2010Prop44ColorRGB
 90
      255
102
RTVSPost2010PropOp44
 70
     1
102
RTVSPost2010Prop45
280
     0
102
RTVSPost2010PropOp45
 70
     1
102
RTVSPost2010Prop46
 90
       50
102
RTVSPost2010PropOp46
 70
     1
102
RTVSPost2010Prop47
 90
       50
102
RTVSPost2010PropOp47
 70
     1
102
RTVSPost2010Prop48
 90
       50
102
RTVSPost2010PropOp48
 70
     1
102
RTVSPost2010Prop49
280
     0
102
RTVSPost2010PropOp49
 70
     1
102
RTVSPost2010Prop50
 90
       50
102
RTVSPost2010PropOp50
 70
     1
102
RTVSPost2010Prop51ColorIndex
 90
      256
102
RTVSPost2010Prop51ColorRGB
 90
-16777216
102
RTVSPost2010PropOp51
 70
     0
102
RTVSPost2010Prop52
140
1.0
102
RTVSPost2010PropOp52
 70
     0
102
RTVSPost2010Prop53
 90
        2
102
RTVSPost2010PropOp53
 70
     1
102
RTVSPost2010Prop54
  1
strokes_ogs.tif
102
RTVSPost2010PropOp54
 70
     1
102
RTVSPost2010Prop55
280
     0
102
RTVSPost2010PropOp55
 70
     1
102
RTVSPost2010Prop56
140
1.0
102
RTVSPost2010PropOp56
 70
     1
102
RTVSPost2010Prop57
140
1.0
102
RTVSPost2010PropOp57
 70
     1
102
RTVSPropertyOp0
 70
     1
102
RTVSPropertyOp1
 70
     1
102
RTVSPropertyOp2
 70
     1
102
RTVSPropertyOp3
 70
     1
102
RTVSPropertyOp4
 70
     1
102
RTVSPropertyOp5
 70
     1
102
RTVSPropertyOp6
 70
     1
102
RTVSPropertyOp7
 70
     1
102
RTVSPropertyOp8
 70
     1
102
RTVSPropertyOp9
 70
     1
102
RTVSPropertyOp10
 70
     1
102
RTVSPropertyOp11
 70
     1
102
RTVSPropertyOp12
 70
     1
102
RTVSPropertyOp13
 70
     1
102
RTVSPropertyOp14
 70
     1
102
RTVSPropertyOp15
 70
     1
102
RTVSPropertyOp16
 70
     1
102
RTVSPropertyOp17
 70
     1
102
RTVSPropertyOp18
 70
     1
102
RTVSPropertyOp19
 70
     1
102
RTVSPropertyOp20
 70
     1
102
RTVSPropertyOp21
 70
     1
102
RTVSPropertyOp22
 70
     1
102
RTVSPropertyOp23
 70
     1
102
RTVSPropertyOp24
 70
     1
102
RTVSPropertyOp25
 70
     1
102
RTVSPropertyOp26
 70
     1
102
RTVSPropertyOp27
 70
     1
102
RTVSPropertyOp28
 70
     1
102
RTVSPropertyOp29
 70
     1
102
RTVSPropertyOp30
 70
     1
102
RTVSPropertyOp31
 70
     1
102
RTVSPropertyOp32
 70
     1
102
RTVSPropertyOp33
 70
     1
102
RTVSPropertyOp34
 70
     1
102
RTVSPropertyOp35
 70
     1
102
RTVSPropertyOp36
 70
     1
102
RTVSPropertyOp37
 70
     1
102
RTVSPropertyOp38
 70
     1
102
RTVSPropertyOp39
 70
     1
102
RTVSPropertyOp40
 70
     1
102
RTVSPropertyOp41
 70
     1
102
RTVSPropertyOp42
 70
     1
102
RTVSPropertyOp43
 70
     1
102
RTVSPropertyOp44
 70
     1
102
RTVSPropertyOp45
 70
     1
102
RTVSPropertyOp46
 70
     1
102
RTVSPropertyOp47
 70
     1
102
RTVSPropertyOp48
 70
     1
102
RTVSPropertyOp49
 70
     1
102
RTVSPropertyOp50
 70
     1
102
RTVSPropertyOp51
 70
     0
102
RTVSPropertyOp52
 70
     0
102
RTVSPropertyOp53
 70
     1
102
RTVSPropertyOp54
 70
     1
102
RTVSPropertyOp55
 70
     1
102
RTVSPropertyOp56
 70
     1
102
RTVSPropertyOp57
 70
     1
102
RTVSPropertyOp58
 70
     1
102
RTVSPropertyOp59
 70
     1
102
RTVSPropertyOp60
 70
     1
102
RTVSPropertyOp61
 70
     1
102
RTVSPropertyOp62
 70
     1
  0
XRECORD
  5
74D8
102
{ACAD_REACTORS
330
74D7
102
}
330
74D7
100
AcDbXrecord
280
     1
102
RTVSPost2010Prop28
280
     0
102
RTVSPost2010PropOp28
 70
     1
102
RTVSPost2010Prop29
280
     1
102
RTVSPost2010PropOp29
 70
     1
102
RTVSPost2010Prop30
280
     1
102
RTVSPost2010PropOp30
 70
     1
102
RTVSPost2010Prop31
280
     0
102
RTVSPost2010PropOp31
 70
     1
102
RTVSPost2010Prop32
280
     0
102
RTVSPost2010PropOp32
 70
     1
102
RTVSPost2010Prop33
280
     0
102
RTVSPost2010PropOp33
 70
     1
102
RTVSPost2010Prop34
280
     0
102
RTVSPost2010PropOp34
 70
     1
102
RTVSPost2010Prop35
280
     0
102
RTVSPost2010PropOp35
 70
     1
102
RTVSPost2010Prop36
280
     0
102
RTVSPost2010PropOp36
 70
     1
102
RTVSPost2010Prop37
 90
       50
102
RTVSPost2010PropOp37
 70
     1
102
RTVSPost2010Prop38
140
0.0
102
RTVSPost2010PropOp38
 70
     1
102
RTVSPost2010Prop39
140
1.0
102
RTVSPost2010PropOp39
 70
     1
102
RTVSPost2010Prop40
 90
        0
102
RTVSPost2010PropOp40
 70
     1
102
RTVSPost2010Prop41ColorIndex
 90
       18
102
RTVSPost2010Prop41ColorRGB
 90
        0
102
RTVSPost2010PropOp41
 70
     1
102
RTVSPost2010Prop42
 90
       50
102
RTVSPost2010PropOp42
 70
     1
102
RTVSPost2010Prop43
 90
        3
102
RTVSPost2010PropOp43
 70
     1
102
RTVSPost2010Prop44ColorIndex
 90
        5
102
RTVSPost2010Prop44ColorRGB
 90
      255
102
RTVSPost2010PropOp44
 70
     1
102
RTVSPost2010Prop45
280
     0
102
RTVSPost2010PropOp45
 70
     1
102
RTVSPost2010Prop46
 90
       50
102
RTVSPost2010PropOp46
 70
     1
102
RTVSPost2010Prop47
 90
       50
102
RTVSPost2010PropOp47
 70
     1
102
RTVSPost2010Prop48
 90
       50
102
RTVSPost2010PropOp48
 70
     1
102
RTVSPost2010Prop49
280
     0
102
RTVSPost2010PropOp49
 70
     1
102
RTVSPost2010Prop50
 90
       50
102
RTVSPost2010PropOp50
 70
     1
102
RTVSPost2010Prop51ColorIndex
 90
      256
102
RTVSPost2010Prop51ColorRGB
 90
-16777216
102
RTVSPost2010PropOp51
 70
     0
102
RTVSPost2010Prop52
140
1.0
102
RTVSPost2010PropOp52
 70
     0
102
RTVSPost2010Prop53
 90
        2
102
RTVSPost2010PropOp53
 70
     1
102
RTVSPost2010Prop54
  1
strokes_ogs.tif
102
RTVSPost2010PropOp54
 70
     1
102
RTVSPost2010Prop55
280
     0
102
RTVSPost2010PropOp55
 70
     1
102
RTVSPost2010Prop56
140
1.0
102
RTVSPost2010PropOp56
 70
     1
102
RTVSPost2010Prop57
140
1.0
102
RTVSPost2010PropOp57
 70
     1
102
RTVSPropertyOp0
 70
     1
102
RTVSPropertyOp1
 70
     1
102
RTVSPropertyOp2
 70
     1
102
RTVSPropertyOp3
 70
     1
102
RTVSPropertyOp4
 70
     1
102
RTVSPropertyOp5
 70
     1
102
RTVSPropertyOp6
 70
     1
102
RTVSPropertyOp7
 70
     1
102
RTVSPropertyOp8
 70
     1
102
RTVSPropertyOp9
 70
     1
102
RTVSPropertyOp10
 70
     1
102
RTVSPropertyOp11
 70
     1
102
RTVSPropertyOp12
 70
     1
102
RTVSPropertyOp13
 70
     1
102
RTVSPropertyOp14
 70
     1
102
RTVSPropertyOp15
 70
     1
102
RTVSPropertyOp16
 70
     1
102
RTVSPropertyOp17
 70
     1
102
RTVSPropertyOp18
 70
     1
102
RTVSPropertyOp19
 70
     1
102
RTVSPropertyOp20
 70
     1
102
RTVSPropertyOp21
 70
     1
102
RTVSPropertyOp22
 70
     1
102
RTVSPropertyOp23
 70
     1
102
RTVSPropertyOp24
 70
     1
102
RTVSPropertyOp25
 70
     1
102
RTVSPropertyOp26
 70
     1
102
RTVSPropertyOp27
 70
     1
102
RTVSPropertyOp28
 70
     1
102
RTVSPropertyOp29
 70
     1
102
RTVSPropertyOp30
 70
     1
102
RTVSPropertyOp31
 70
     1
102
RTVSPropertyOp32
 70
     1
102
RTVSPropertyOp33
 70
     1
102
RTVSPropertyOp34
 70
     1
102
RTVSPropertyOp35
 70
     1
102
RTVSPropertyOp36
 70
     1
102
RTVSPropertyOp37
 70
     1
102
RTVSPropertyOp38
 70
     1
102
RTVSPropertyOp39
 70
     1
102
RTVSPropertyOp40
 70
     1
102
RTVSPropertyOp41
 70
     1
102
RTVSPropertyOp42
 70
     1
102
RTVSPropertyOp43
 70
     1
102
RTVSPropertyOp44
 70
     1
102
RTVSPropertyOp45
 70
     1
102
RTVSPropertyOp46
 70
     1
102
RTVSPropertyOp47
 70
     1
102
RTVSPropertyOp48
 70
     1
102
RTVSPropertyOp49
 70
     1
102
RTVSPropertyOp50
 70
     1
102
RTVSPropertyOp51
 70
     0
102
RTVSPropertyOp52
 70
     0
102
RTVSPropertyOp53
 70
     1
102
RTVSPropertyOp54
 70
     1
102
RTVSPropertyOp55
 70
     1
102
RTVSPropertyOp56
 70
     1
102
RTVSPropertyOp57
 70
     1
102
RTVSPropertyOp58
 70
     1
102
RTVSPropertyOp59
 70
     1
102
RTVSPropertyOp60
 70
     1
102
RTVSPropertyOp61
 70
     1
102
RTVSPropertyOp62
 70
     1
  0
XRECORD
  5
74F8
102
{ACAD_REACTORS
330
74F7
102
}
330
74F7
100
AcDbXrecord
280
     1
102
RTVSPost2010Prop28
280
     0
102
RTVSPost2010PropOp28
 70
     1
102
RTVSPost2010Prop29
280
     1
102
RTVSPost2010PropOp29
 70
     1
102
RTVSPost2010Prop30
280
     1
102
RTVSPost2010PropOp30
 70
     1
102
RTVSPost2010Prop31
280
     0
102
RTVSPost2010PropOp31
 70
     1
102
RTVSPost2010Prop32
280
     0
102
RTVSPost2010PropOp32
 70
     1
102
RTVSPost2010Prop33
280
     0
102
RTVSPost2010PropOp33
 70
     1
102
RTVSPost2010Prop34
280
     0
102
RTVSPost2010PropOp34
 70
     1
102
RTVSPost2010Prop35
280
     0
102
RTVSPost2010PropOp35
 70
     1
102
RTVSPost2010Prop36
280
     0
102
RTVSPost2010PropOp36
 70
     1
102
RTVSPost2010Prop37
 90
       50
102
RTVSPost2010PropOp37
 70
     1
102
RTVSPost2010Prop38
140
0.0
102
RTVSPost2010PropOp38
 70
     1
102
RTVSPost2010Prop39
140
1.0
102
RTVSPost2010PropOp39
 70
     1
102
RTVSPost2010Prop40
 90
        0
102
RTVSPost2010PropOp40
 70
     1
102
RTVSPost2010Prop41ColorIndex
 90
       18
102
RTVSPost2010Prop41ColorRGB
 90
        0
102
RTVSPost2010PropOp41
 70
     1
102
RTVSPost2010Prop42
 90
       50
102
RTVSPost2010PropOp42
 70
     1
102
RTVSPost2010Prop43
 90
        3
102
RTVSPost2010PropOp43
 70
     1
102
RTVSPost2010Prop44ColorIndex
 90
        5
102
RTVSPost2010Prop44ColorRGB
 90
      255
102
RTVSPost2010PropOp44
 70
     1
102
RTVSPost2010Prop45
280
     0
102
RTVSPost2010PropOp45
 70
     1
102
RTVSPost2010Prop46
 90
       50
102
RTVSPost2010PropOp46
 70
     1
102
RTVSPost2010Prop47
 90
       50
102
RTVSPost2010PropOp47
 70
     1
102
RTVSPost2010Prop48
 90
       50
102
RTVSPost2010PropOp48
 70
     1
102
RTVSPost2010Prop49
280
     0
102
RTVSPost2010PropOp49
 70
     1
102
RTVSPost2010Prop50
 90
       50
102
RTVSPost2010PropOp50
 70
     1
102
RTVSPost2010Prop51ColorIndex
 90
      256
102
RTVSPost2010Prop51ColorRGB
 90
-16777216
102
RTVSPost2010PropOp51
 70
     0
102
RTVSPost2010Prop52
140
1.0
102
RTVSPost2010PropOp52
 70
     0
102
RTVSPost2010Prop53
 90
        2
102
RTVSPost2010PropOp53
 70
     1
102
RTVSPost2010Prop54
  1
strokes_ogs.tif
102
RTVSPost2010PropOp54
 70
     1
102
RTVSPost2010Prop55
280
     0
102
RTVSPost2010PropOp55
 70
     1
102
RTVSPost2010Prop56
140
1.0
102
RTVSPost2010PropOp56
 70
     1
102
RTVSPost2010Prop57
140
1.0
102
RTVSPost2010PropOp57
 70
     1
102
RTVSPropertyOp0
 70
     1
102
RTVSPropertyOp1
 70
     1
102
RTVSPropertyOp2
 70
     1
102
RTVSPropertyOp3
 70
     1
102
RTVSPropertyOp4
 70
     1
102
RTVSPropertyOp5
 70
     1
102
RTVSPropertyOp6
 70
     1
102
RTVSPropertyOp7
 70
     1
102
RTVSPropertyOp8
 70
     1
102
RTVSPropertyOp9
 70
     1
102
RTVSPropertyOp10
 70
     1
102
RTVSPropertyOp11
 70
     1
102
RTVSPropertyOp12
 70
     1
102
RTVSPropertyOp13
 70
     1
102
RTVSPropertyOp14
 70
     1
102
RTVSPropertyOp15
 70
     1
102
RTVSPropertyOp16
 70
     1
102
RTVSPropertyOp17
 70
     1
102
RTVSPropertyOp18
 70
     1
102
RTVSPropertyOp19
 70
     1
102
RTVSPropertyOp20
 70
     1
102
RTVSPropertyOp21
 70
     1
102
RTVSPropertyOp22
 70
     1
102
RTVSPropertyOp23
 70
     1
102
RTVSPropertyOp24
 70
     1
102
RTVSPropertyOp25
 70
     1
102
RTVSPropertyOp26
 70
     1
102
RTVSPropertyOp27
 70
     1
102
RTVSPropertyOp28
 70
     1
102
RTVSPropertyOp29
 70
     1
102
RTVSPropertyOp30
 70
     1
102
RTVSPropertyOp31
 70
     1
102
RTVSPropertyOp32
 70
     1
102
RTVSPropertyOp33
 70
     1
102
RTVSPropertyOp34
 70
     1
102
RTVSPropertyOp35
 70
     1
102
RTVSPropertyOp36
 70
     1
102
RTVSPropertyOp37
 70
     1
102
RTVSPropertyOp38
 70
     1
102
RTVSPropertyOp39
 70
     1
102
RTVSPropertyOp40
 70
     1
102
RTVSPropertyOp41
 70
     1
102
RTVSPropertyOp42
 70
     1
102
RTVSPropertyOp43
 70
     1
102
RTVSPropertyOp44
 70
     1
102
RTVSPropertyOp45
 70
     1
102
RTVSPropertyOp46
 70
     1
102
RTVSPropertyOp47
 70
     1
102
RTVSPropertyOp48
 70
     1
102
RTVSPropertyOp49
 70
     1
102
RTVSPropertyOp50
 70
     1
102
RTVSPropertyOp51
 70
     0
102
RTVSPropertyOp52
 70
     0
102
RTVSPropertyOp53
 70
     1
102
RTVSPropertyOp54
 70
     1
102
RTVSPropertyOp55
 70
     1
102
RTVSPropertyOp56
 70
     1
102
RTVSPropertyOp57
 70
     1
102
RTVSPropertyOp58
 70
     1
102
RTVSPropertyOp59
 70
     1
102
RTVSPropertyOp60
 70
     1
102
RTVSPropertyOp61
 70
     1
102
RTVSPropertyOp62
 70
     1
  0
ENDSEC
  0
EOF
