  0
SECTION
  2
HEADER
  9
$ACADVER
  1
AC1015
  9
$ACADMAINTVER
 70
    18
  9
$DWGCODEPAGE
  3
ANSI_1252
  9
$INSBASE
 10
0.0
 20
0.0
 30
0.0
  9
$EXTMIN
 10
-187.1145622282225
 20
-217.3344264413864
 30
-0.0015258207003583
  9
$EXTMAX
 10
220.958863050862
 20
255.610520052503
 30
0.0000000349246037
  9
$LIMMIN
 10
0.0
 20
0.0
  9
$LIMMAX
 10
420.0
 20
297.0
  9
$ORTHOMODE
 70
     0
  9
$REGENMODE
 70
     1
  9
$FILLMODE
 70
     1
  9
$QTEXTMODE
 70
     0
  9
$MIRRTEXT
 70
     0
  9
$LTSCALE
 40
1.0
  9
$ATTMODE
 70
     1
  9
$TEXTSIZE
 40
2.5
  9
$TRACEWID
 40
1.0
  9
$TEXTSTYLE
  7
Standard
  9
$CLAYER
  8
0
  9
$CELTYPE
  6
ByLayer
  9
$CECOLOR
 62
   256
  9
$CELTSCALE
 40
1.0
  9
$DISPSILH
 70
     0
  9
$DIMSCALE
 40
1.0
  9
$DIMASZ
 40
2.5
  9
$DIMEXO
 40
0.625
  9
$DIMDLI
 40
3.75
  9
$DIMRND
 40
0.0
  9
$DIMDLE
 40
0.0
  9
$DIMEXE
 40
1.25
  9
$DIMTP
 40
0.0
  9
$DIMTM
 40
0.0
  9
$DIMTXT
 40
2.5
  9
$DIMCEN
 40
2.5
  9
$DIMTSZ
 40
0.0
  9
$DIMTOL
 70
     0
  9
$DIMLIM
 70
     0
  9
$DIMTIH
 70
     0
  9
$DIMTOH
 70
     0
  9
$DIMSE1
 70
     0
  9
$DIMSE2
 70
     0
  9
$DIMTAD
 70
     1
  9
$DIMZIN
 70
     8
  9
$DIMBLK
  1

  9
$DIMASO
 70
     1
  9
$DIMSHO
 70
     1
  9
$DIMPOST
  1

  9
$DIMAPOST
  1

  9
$DIMALT
 70
     0
  9
$DIMALTD
 70
     3
  9
$DIMALTF
 40
0.03937007874016
  9
$DIMLFAC
 40
1.0
  9
$DIMTOFL
 70
     1
  9
$DIMTVP
 40
0.0
  9
$DIMTIX
 70
     0
  9
$DIMSOXD
 70
     0
  9
$DIMSAH
 70
     0
  9
$DIMBLK1
  1

  9
$DIMBLK2
  1

  9
$DIMSTYLE
  2
ISO-25
  9
$DIMCLRD
 70
     0
  9
$DIMCLRE
 70
     0
  9
$DIMCLRT
 70
     0
  9
$DIMTFAC
 40
1.0
  9
$DIMGAP
 40
0.625
  9
$DIMJUST
 70
     0
  9
$DIMSD1
 70
     0
  9
$DIMSD2
 70
     0
  9
$DIMTOLJ
 70
     0
  9
$DIMTZIN
 70
     8
  9
$DIMALTZ
 70
     0
  9
$DIMALTTZ
 70
     0
  9
$DIMUPT
 70
     0
  9
$DIMDEC
 70
     2
  9
$DIMTDEC
 70
     2
  9
$DIMALTU
 70
     2
  9
$DIMALTTD
 70
     3
  9
$DIMTXSTY
  7
Standard
  9
$DIMAUNIT
 70
     0
  9
$DIMADEC
 70
     0
  9
$DIMALTRND
 40
0.0
  9
$DIMAZIN
 70
     0
  9
$DIMDSEP
 70
    44
  9
$DIMATFIT
 70
     3
  9
$DIMFRAC
 70
     0
  9
$DIMLDRBLK
  1

  9
$DIMLUNIT
 70
     2
  9
$DIMLWD
 70
    -2
  9
$DIMLWE
 70
    -2
  9
$DIMTMOVE
 70
     0
  9
$LUNITS
 70
     2
  9
$LUPREC
 70
     4
  9
$SKETCHINC
 40
1.0
  9
$FILLETRAD
 40
0.0
  9
$AUNITS
 70
     0
  9
$AUPREC
 70
     0
  9
$MENU
  1
.
  9
$ELEVATION
 40
0.0
  9
$PELEVATION
 40
0.0
  9
$THICKNESS
 40
0.0
  9
$LIMCHECK
 70
     0
  9
$CHAMFERA
 40
0.0
  9
$CHAMFERB
 40
0.0
  9
$CHAMFERC
 40
0.0
  9
$CHAMFERD
 40
0.0
  9
$SKPOLY
 70
     0
  9
$TDCREATE
 40
2460398.356956019
  9
$TDUCREATE
 40
2460398.065289352
  9
$TDUPDATE
 40
2460398.373819444
  9
$TDUUPDATE
 40
2460398.082152778
  9
$TDINDWG
 40
0.0076273148
  9
$TDUSRTIMER
 40
0.0076273148
  9
$USRTIMER
 70
     1
  9
$ANGBASE
 50
0.0
  9
$ANGDIR
 70
     0
  9
$PDMODE
 70
     0
  9
$PDSIZE
 40
0.0
  9
$PLINEWID
 40
0.0
  9
$SPLFRAME
 70
     0
  9
$SPLINETYPE
 70
     6
  9
$SPLINESEGS
 70
     8
  9
$HANDSEED
  5
771E
  9
$SURFTAB1
 70
     6
  9
$SURFTAB2
 70
     6
  9
$SURFTYPE
 70
     6
  9
$SURFU
 70
     6
  9
$SURFV
 70
     6
  9
$UCSBASE
  2

  9
$UCSNAME
  2

  9
$UCSORG
 10
0.0
 20
0.0
 30
0.0
  9
$UCSXDIR
 10
1.0
 20
0.0
 30
0.0
  9
$UCSYDIR
 10
0.0
 20
1.0
 30
0.0
  9
$UCSORTHOREF
  2

  9
$UCSORTHOVIEW
 70
     0
  9
$UCSORGTOP
 10
0.0
 20
0.0
 30
0.0
  9
$UCSORGBOTTOM
 10
0.0
 20
0.0
 30
0.0
  9
$UCSORGLEFT
 10
0.0
 20
0.0
 30
0.0
  9
$UCSORGRIGHT
 10
0.0
 20
0.0
 30
0.0
  9
$UCSORGFRONT
 10
0.0
 20
0.0
 30
0.0
  9
$UCSORGBACK
 10
0.0
 20
0.0
 30
0.0
  9
$PUCSBASE
  2

  9
$PUCSNAME
  2

  9
$PUCSORG
 10
0.0
 20
0.0
 30
0.0
  9
$PUCSXDIR
 10
1.0
 20
0.0
 30
0.0
  9
$PUCSYDIR
 10
0.0
 20
1.0
 30
0.0
  9
$PUCSORTHOREF
  2

  9
$PUCSORTHOVIEW
 70
     0
  9
$PUCSORGTOP
 10
0.0
 20
0.0
 30
0.0
  9
$PUCSORGBOTTOM
 10
0.0
 20
0.0
 30
0.0
  9
$PUCSORGLEFT
 10
0.0
 20
0.0
 30
0.0
  9
$PUCSORGRIGHT
 10
0.0
 20
0.0
 30
0.0
  9
$PUCSORGFRONT
 10
0.0
 20
0.0
 30
0.0
  9
$PUCSORGBACK
 10
0.0
 20
0.0
 30
0.0
  9
$USERI1
 70
     0
  9
$USERI2
 70
     0
  9
$USERI3
 70
     0
  9
$USERI4
 70
     0
  9
$USERI5
 70
     0
  9
$USERR1
 40
0.0
  9
$USERR2
 40
0.0
  9
$USERR3
 40
0.0
  9
$USERR4
 40
0.0
  9
$USERR5
 40
0.0
  9
$WORLDVIEW
 70
     1
  9
$SHADEDGE
 70
     3
  9
$SHADEDIF
 70
    70
  9
$TILEMODE
 70
     1
  9
$MAXACTVP
 70
    48
  9
$PINSBASE
 10
0.0
 20
0.0
 30
0.0
  9
$PLIMCHECK
 70
     0
  9
$PEXTMIN
 10
0.0
 20
0.0
 30
0.0
  9
$PEXTMAX
 10
0.0
 20
0.0
 30
0.0
  9
$PLIMMIN
 10
0.0
 20
0.0
  9
$PLIMMAX
 10
12.0
 20
9.0
  9
$UNITMODE
 70
     0
  9
$VISRETAIN
 70
     1
  9
$PLINEGEN
 70
     0
  9
$PSLTSCALE
 70
     1
  9
$TREEDEPTH
 70
  3020
  9
$CMLSTYLE
  2
Standard
  9
$CMLJUST
 70
     0
  9
$CMLSCALE
 40
20.0
  9
$PROXYGRAPHICS
 70
     1
  9
$MEASUREMENT
 70
     1
  9
$CELWEIGHT
370
    -1
  9
$ENDCAPS
280
     0
  9
$JOINSTYLE
280
     0
  9
$LWDISPLAY
290
     0
  9
$INSUNITS
 70
     4
  9
$HYPERLINKBASE
  1

  9
$STYLESHEET
  1

  9
$XEDIT
290
     1
  9
$CEPSNTYPE
380
     0
  9
$PSTYLEMODE
290
     1
  9
$FINGERPRINTGUID
  2
{6C1266EE-7BC1-BF4A-B059-A6E7702B10CE}
  9
$VERSIONGUID
  2
{ECF6A555-B45B-984A-AC13-D8DCAB0FD05F}
  9
$EXTNAMES
290
     1
  9
$PSVPSCALE
 40
0.0
  9
$OLESTARTUP
290
     0
  0
ENDSEC
  0
SECTION
  2
CLASSES
  0
CLASS
  1
ACDBDICTIONARYWDFLT
  2
AcDbDictionaryWithDefault
  3
ObjectDBX Classes
 90
        0
280
     0
281
     0
  0
CLASS
  1
ACDBPLACEHOLDER
  2
AcDbPlaceHolder
  3
ObjectDBX Classes
 90
        0
280
     0
281
     0
  0
CLASS
  1
LAYOUT
  2
AcDbLayout
  3
ObjectDBX Classes
 90
        0
280
     0
281
     0
  0
CLASS
  1
DICTIONARYVAR
  2
AcDbDictionaryVar
  3
ObjectDBX Classes
 90
        0
280
     0
281
     0
  0
CLASS
  1
TABLESTYLE
  2
AcDbTableStyle
  3
ObjectDBX Classes
 90
     4095
280
     0
281
     0
  0
CLASS
  1
MATERIAL
  2
AcDbMaterial
  3
ObjectDBX Classes
 90
     1153
280
     0
281
     0
  0
CLASS
  1
VISUALSTYLE
  2
AcDbVisualStyle
  3
ObjectDBX Classes
 90
     4095
280
     0
281
     0
  0
CLASS
  1
SCALE
  2
AcDbScale
  3
ObjectDBX Classes
 90
     1153
280
     0
281
     0
  0
CLASS
  1
MLEADERSTYLE
  2
AcDbMLeaderStyle
  3
ACDB_MLEADERSTYLE_CLASS
 90
     4095
280
     0
281
     0
  0
CLASS
  1
CELLSTYLEMAP
  2
AcDbCellStyleMap
  3
ObjectDBX Classes
 90
     1152
280
     0
281
     0
  0
CLASS
  1
EXACXREFPANELOBJECT
  2
ExAcXREFPanelObject
  3
EXAC_ESW
 90
    33793
280
     0
281
     0
  0
CLASS
  1
NPOCOLLECTION
  2
AcDbImpNonPersistentObjectsCollection
  3
ObjectDBX Classes
 90
    33921
280
     0
281
     0
  0
CLASS
  1
LAYER_INDEX
  2
AcDbLayerIndex
  3
ObjectDBX Classes
 90
    32768
280
     0
281
     0
  0
CLASS
  1
SPATIAL_INDEX
  2
AcDbSpatialIndex
  3
ObjectDBX Classes
 90
    32768
280
     0
281
     0
  0
CLASS
  1
IDBUFFER
  2
AcDbIdBuffer
  3
ObjectDBX Classes
 90
    32768
280
     0
281
     0
  0
CLASS
  1
ACDBSECTIONVIEWSTYLE
  2
AcDbSectionViewStyle
  3
ObjectDBX Classes
 90
     1025
280
     0
281
     0
  0
CLASS
  1
ACDBDETAILVIEWSTYLE
  2
AcDbDetailViewStyle
  3
ObjectDBX Classes
 90
     1025
280
     0
281
     0
  0
CLASS
  1
XRECORD
  2
AcDbXrecord
  3
ObjectDBX Classes
 90
        0
280
     0
281
     0
  0
ENDSEC
  0
SECTION
  2
TABLES
  0
TABLE
  2
VPORT
  5
8
102
{ACAD_XDICTIONARY
360
762C
102
}
330
0
100
AcDbSymbolTable
 70
     1
  0
VPORT
  5
EA
330
8
100
AcDbSymbolTableRecord
100
AcDbViewportTableRecord
  2
*Active
 70
     0
 10
0.0
 20
0.0
 11
1.0
 21
1.0
 12
16.92215041131972
 22
19.13804680555833
 13
0.0
 23
0.0
 14
10.0
 24
10.0
 15
10.0
 25
10.0
 16
0.0
 26
0.0
 36
1.0
 17
0.0
 27
0.0
 37
0.0
 40
502.9340907569292
 41
0.9846153846153846
 42
50.0
 43
0.0
 44
0.0
 50
0.0
 51
0.0
 71
     0
 72
  1000
 73
     1
 74
     3
 75
     0
 76
     1
 77
     0
 78
     0
281
     0
 65
     1
110
0.0
120
0.0
130
0.0
111
1.0
121
0.0
131
0.0
112
0.0
122
1.0
132
0.0
 79
     0
146
0.0
1001
ACAD_NAV_VCDISPLAY
1070
     3
  0
ENDTAB
  0
TABLE
  2
LTYPE
  5
5
330
0
100
AcDbSymbolTable
 70
     1
  0
LTYPE
  5
14
330
5
100
AcDbSymbolTableRecord
100
AcDbLinetypeTableRecord
  2
ByBlock
 70
     0
  3

 72
    65
 73
     0
 40
0.0
  0
LTYPE
  5
15
330
5
100
AcDbSymbolTableRecord
100
AcDbLinetypeTableRecord
  2
ByLayer
 70
     0
  3

 72
    65
 73
     0
 40
0.0
  0
LTYPE
  5
16
330
5
100
AcDbSymbolTableRecord
100
AcDbLinetypeTableRecord
  2
Continuous
 70
     0
  3
Solid line
 72
    65
 73
     0
 40
0.0
  0
ENDTAB
  0
TABLE
  2
LAYER
  5
2
102
{ACAD_XDICTIONARY
360
1FF
102
}
330
0
100
AcDbSymbolTable
 70
     1
  0
LAYER
  5
10
102
{ACAD_XDICTIONARY
360
13C
102
}
330
2
100
AcDbSymbolTableRecord
100
AcDbLayerTableRecord
  2
0
 70
     0
 62
     7
  6
Continuous
370
    -3
390
F
  0
ENDTAB
  0
TABLE
  2
STYLE
  5
3
330
0
100
AcDbSymbolTable
 70
     1
  0
STYLE
  5
11
330
3
100
AcDbSymbolTableRecord
100
AcDbTextStyleTableRecord
  2
Standard
 70
     0
 40
0.0
 41
1.0
 50
0.0
 71
     0
 42
2.5
  3
arial.ttf
  4

1001
ACAD
1000
Arial
1071
       34
  0
ENDTAB
  0
TABLE
  2
VIEW
  5
6
330
0
100
AcDbSymbolTable
 70
     0
  0
ENDTAB
  0
TABLE
  2
UCS
  5
7
330
0
100
AcDbSymbolTable
 70
     0
  0
ENDTAB
  0
TABLE
  2
APPID
  5
9
330
0
100
AcDbSymbolTable
 70
     8
  0
APPID
  5
12
330
9
100
AcDbSymbolTableRecord
100
AcDbRegAppTableRecord
  2
ACAD
 70
     0
  0
APPID
  5
9E
330
9
100
AcDbSymbolTableRecord
100
AcDbRegAppTableRecord
  2
ACAD_PSEXT
 70
     0
  0
APPID
  5
133
330
9
100
AcDbSymbolTableRecord
100
AcDbRegAppTableRecord
  2
AcadAnnoPO
 70
     0
  0
APPID
  5
134
330
9
100
AcDbSymbolTableRecord
100
AcDbRegAppTableRecord
  2
AcadAnnotative
 70
     0
  0
APPID
  5
135
330
9
100
AcDbSymbolTableRecord
100
AcDbRegAppTableRecord
  2
ACAD_DSTYLE_DIMJAG
 70
     0
  0
APPID
  5
136
330
9
100
AcDbSymbolTableRecord
100
AcDbRegAppTableRecord
  2
ACAD_DSTYLE_DIMTALN
 70
     0
  0
APPID
  5
165
330
9
100
AcDbSymbolTableRecord
100
AcDbRegAppTableRecord
  2
ACAD_MLEADERVER
 70
     0
  0
APPID
  5
217
330
9
100
AcDbSymbolTableRecord
100
AcDbRegAppTableRecord
  2
ACAD_NAV_VCDISPLAY
 70
     0
  0
ENDTAB
  0
TABLE
  2
DIMSTYLE
  5
A
330
0
100
AcDbSymbolTable
 70
     1
100
AcDbDimStyleTable
 71
     0
  0
DIMSTYLE
105
27
330
A
100
AcDbSymbolTableRecord
100
AcDbDimStyleTableRecord
  2
ISO-25
 70
     0
 41
2.5
 42
0.625
 43
3.75
 44
1.25
 73
     0
 74
     0
 77
     1
 78
     8
140
2.5
141
2.5
143
0.03937007874016
147
0.625
171
     3
172
     1
271
     2
272
     2
274
     3
278
    44
283
     0
284
     8
340
11
  0
ENDTAB
  0
TABLE
  2
BLOCK_RECORD
  5
1
330
0
100
AcDbSymbolTable
 70
     7
  0
BLOCK_RECORD
  5
1F
102
{ACAD_XDICTIONARY
360
1CE
102
}
330
1
100
AcDbSymbolTableRecord
100
AcDbBlockTableRecord
  2
*Model_Space
340
22
  0
BLOCK_RECORD
  5
D2
102
{ACAD_XDICTIONARY
360
75DF
102
}
330
1
100
AcDbSymbolTableRecord
100
AcDbBlockTableRecord
  2
*Paper_Space
340
D3
  0
BLOCK_RECORD
  5
D6
102
{ACAD_XDICTIONARY
360
75E1
102
}
330
1
100
AcDbSymbolTableRecord
100
AcDbBlockTableRecord
  2
*Paper_Space0
340
D7
  0
BLOCK_RECORD
  5
7470
330
1
100
AcDbSymbolTableRecord
100
AcDbBlockTableRecord
  2
SAE300_40_2-Front
340
0
102
{BLKREFS
331
75D5
102
}
  0
BLOCK_RECORD
  5
74BE
330
1
100
AcDbSymbolTableRecord
100
AcDbBlockTableRecord
  2
SAE300_40_2-Left
340
0
102
{BLKREFS
331
75D6
102
}
  0
BLOCK_RECORD
  5
74DB
330
1
100
AcDbSymbolTableRecord
100
AcDbBlockTableRecord
  2
SAE300_40_2-Right
340
0
102
{BLKREFS
331
75D7
102
}
  0
BLOCK_RECORD
  5
74FA
330
1
100
AcDbSymbolTableRecord
100
AcDbBlockTableRecord
  2
SAE300_40_2-Top
340
0
102
{BLKREFS
331
75D8
102
}
  0
BLOCK_RECORD
  5
752C
330
1
100
AcDbSymbolTableRecord
100
AcDbBlockTableRecord
  2
SAE300_40_2-Bottom
340
0
102
{BLKREFS
331
75D9
102
}
  0
BLOCK_RECORD
  5
7557
330
1
100
AcDbSymbolTableRecord
100
AcDbBlockTableRecord
  2
SAE300_40_2-ISO
340
0
102
{BLKREFS
331
75DA
102
}
  0
ENDTAB
  0
ENDSEC
  0
SECTION
  2
BLOCKS
  0
BLOCK
  5
20
330
1F
100
AcDbEntity
  8
0
100
AcDbBlockBegin
  2
*Model_Space
 70
     0
 10
0.0
 20
0.0
 30
0.0
  3
*Model_Space
  1

  0
ENDBLK
  5
21
330
1F
100
AcDbEntity
  8
0
100
AcDbBlockEnd
  0
BLOCK
  5
D4
330
D2
100
AcDbEntity
 67
     1
  8
0
100
AcDbBlockBegin
  2
*Paper_Space
 70
     0
 10
0.0
 20
0.0
 30
0.0
  3
*Paper_Space
  1

  0
ENDBLK
  5
D5
330
D2
100
AcDbEntity
 67
     1
  8
0
100
AcDbBlockEnd
  0
BLOCK
  5
D8
330
D6
100
AcDbEntity
 67
     1
  8
0
100
AcDbBlockBegin
  2
*Paper_Space0
 70
     0
 10
0.0
 20
0.0
 30
0.0
  3
*Paper_Space0
  1

  0
ENDBLK
  5
D9
330
D6
100
AcDbEntity
 67
     1
  8
0
100
AcDbBlockEnd
  0
BLOCK
  5
7471
330
7470
100
AcDbEntity
  8
0
100
AcDbBlockBegin
  2
SAE300_40_2-Front
 70
     0
 10
0.0
 20
0.0
 30
0.0
  3
SAE300_40_2-Front
  1

  0
SPLINE
  5
7473
330
7470
100
AcDbEntity
  8
0
100
AcDbSpline
210
0.0
220
0.0
230
1.0
 70
     8
 71
     3
 72
    14
 73
    10
 74
     0
 42
0.000000001
 43
0.0000000001
 40
0.0
 40
0.0
 40
0.0
 40
0.0
 40
0.3435165591346614
 40
0.3435165591346614
 40
0.3435165591346614
 40
0.7569936138580438
 40
0.7569936138580438
 40
0.7569936138580438
 40
0.9986524957968466
 40
0.9986524957968466
 40
0.9986524957968466
 40
0.9986524957968466
 10
24.60606060606061
 20
22.56249999999999
 30
0.0
 10
24.28490249291364
 20
22.30249193735268
 30
0.0
 10
23.8724590169512
 20
22.0752903732655
 30
0.0
 10
23.47646762712214
 20
21.84407810168597
 30
0.0
 10
22.99982873095135
 20
21.56577719732947
 30
0.0
 10
22.53730090286849
 20
21.27139450216791
 30
0.0
 10
22.26243107013305
 20
20.85792877877264
 30
0.0
 10
22.10178192237807
 20
20.61627651948932
 30
0.0
 10
22.00111653428547
 20
20.36107592065683
 30
0.0
 10
22.00000922931125
 20
20.00594994761855
 30
0.0
  0
LINE
  5
7474
330
7470
100
AcDbEntity
  8
0
100
AcDbLine
 10
22.0
 20
22.56249999999998
 30
0.0
 11
24.0
 21
22.56249999999998
 31
0.0
  0
SPLINE
  5
7475
330
7470
100
AcDbEntity
  8
0
100
AcDbSpline
210
0.0
220
0.0
230
1.0
 70
     8
 71
     3
 72
    20
 73
    16
 74
     0
 42
0.000000001
 43
0.0000000001
 40
0.0120727937228529
 40
0.0120727937228529
 40
0.0120727937228529
 40
0.0120727937228529
 40
0.0124288508775436
 40
0.0124288508775436
 40
0.0135302217267038
 40
0.0135302217267038
 40
0.0142261533862463
 40
0.0142261533862463
 40
0.0153094160364619
 40
0.0153094160364619
 40
0.0162525248851078
 40
0.0162525248851078
 40
0.0174015733514943
 40
0.0174015733514943
 40
0.0202445336721119
 40
0.0202445336721119
 40
0.0202445336721119
 40
0.0202445336721119
 10
22.00029164702536
 20
20.05864902334167
 30
0.0
 10
22.00029164702507
 20
20.05864902331612
 30
0.0
 10
22.00029123369329
 20
20.058612942207
 30
0.0
 10
22.00028772502056
 20
20.05830125779232
 30
0.0
 10
22.00028065344621
 20
20.05767569685858
 30
0.0
 10
22.00026146072325
 20
20.055808757553
 30
0.0
 10
22.00025209701933
 20
20.05487008330598
 30
0.0
 10
22.00022447041408
 20
20.05189819479469
 30
0.0
 10
22.00020362500277
 20
20.04947455980248
 30
0.0
 10
22.00016554779847
 20
20.04422649456664
 30
0.0
 10
22.00014800683272
 20
20.04146120927029
 30
0.0
 10
22.00011446921863
 20
20.03509374011771
 30
0.0
 10
22.0000995666793
 20
20.03145135009129
 30
0.0
 10
22.00006174351589
 20
20.01867994133524
 30
0.0
 10
22.00005914615841
 20
20.00931579016118
 30
0.0
 10
22.0000743150159
 20
20.00000007787118
 30
0.0
  0
SPLINE
  5
7476
330
7470
100
AcDbEntity
  8
0
100
AcDbSpline
210
0.0
220
0.0
230
1.0
 70
     8
 71
     3
 72
    20
 73
    16
 74
     0
 42
0.000000001
 43
0.0000000001
 40
0.0053329317714155
 40
0.0053329317714155
 40
0.0053329317714155
 40
0.0053329317714155
 40
0.0056476384912231
 40
0.0056476384912231
 40
0.0060463986233765
 40
0.0060463986233765
 40
0.0065307473555075
 40
0.0065307473555075
 40
0.0071940330953314
 40
0.0071940330953314
 40
0.0085673556342257
 40
0.0085673556342257
 40
0.01063899611281
 40
0.01063899611281
 40
0.0111024461932319
 40
0.0111024461932319
 40
0.0111024461932319
 40
0.0111024461932319
 10
22.00010883933733
 20
20.04546313435652
 30
0.0
 10
22.00010883931875
 20
20.04546313136566
 30
0.0
 10
22.0001079601898
 20
20.04532230039964
 30
0.0
 10
22.00010437335233
 20
20.04473468128306
 30
0.0
 10
22.00010121339652
 20
20.04421103333948
 30
0.0
 10
22.0000928678947
 20
20.04276717297919
 30
0.0
 10
22.00008734603786
 20
20.04177610109718
 30
0.0
 10
22.00007384262145
 20
20.03918105372055
 30
0.0
 10
22.0000657114925
 20
20.03748299316868
 30
0.0
 10
22.00004298010613
 20
20.0321637797634
 30
0.0
 10
22.00002983085855
 20
20.02823236314358
 30
0.0
 10
22.00000644319672
 20
20.0179319458321
 30
0.0
 10
22.00000107524829
 20
20.01126252358667
 30
0.0
 10
22.00000622906632
 20
20.00302763661593
 30
0.0
 10
22.00000763232484
 20
20.00151582060576
 30
0.0
 10
22.00000948371254
 20
20.00000001080843
 30
0.0
  0
SPLINE
  5
7477
330
7470
100
AcDbEntity
  8
0
100
AcDbSpline
210
0.0
220
0.0
230
1.0
 70
     8
 71
     3
 72
     8
 73
     4
 74
     0
 42
0.000000001
 43
0.0000000001
 40
0.0
 40
0.0
 40
0.0
 40
0.0
 40
0.0015511722942406
 40
0.0015511722942406
 40
0.0015511722942406
 40
0.0015511722942406
 10
19.99955984654371
 20
20.00000111615405
 30
0.0
 10
19.99956565327768
 20
20.00446881097722
 30
0.0
 10
19.99957076641536
 20
20.00884708257879
 30
0.0
 10
19.9995751290904
 20
20.01307591322433
 30
0.0
  0
SPLINE
  5
7478
330
7470
100
AcDbEntity
  8
0
100
AcDbSpline
210
0.0
220
0.0
230
1.0
 70
     8
 71
     3
 72
    16
 73
    12
 74
     0
 42
0.000000001
 43
0.0000000001
 40
0.0
 40
0.0
 40
0.0
 40
0.0
 40
0.0021186811696106
 40
0.0021186811696106
 40
0.0037963488484963
 40
0.0037963488484963
 40
0.0060490110186
 40
0.0060490110186
 40
0.0082160740741614
 40
0.0082160740741614
 40
0.010071516874789
 40
0.010071516874789
 40
0.010071516874789
 40
0.010071516874789
 10
19.99977770285762
 20
19.99999671130077
 30
0.0
 10
19.99967060184437
 20
20.00696262095173
 30
0.0
 10
19.99956026411876
 20
20.01406437694619
 30
0.0
 10
19.99936153534864
 20
20.02670814079181
 30
0.0
 10
19.99927271948985
 20
20.0323057079297
 30
0.0
 10
19.99907108313915
 20
20.04490248806044
 30
0.0
 10
19.99895813017033
 20
20.05187273934533
 30
0.0
 10
19.99876083666373
 20
20.06395003186076
 30
0.0
 10
19.99867338960587
 20
20.06925359839401
 30
0.0
 10
19.99853375467219
 20
20.07766822126882
 30
0.0
 10
19.99847718644878
 20
20.08105233813087
 30
0.0
 10
19.99842789893652
 20
20.08398349775556
 30
0.0
  0
SPLINE
  5
7479
330
7470
100
AcDbEntity
  8
0
100
AcDbSpline
210
0.0
220
0.0
230
1.0
 70
     8
 71
     3
 72
    34
 73
    30
 74
     0
 42
0.000000001
 43
0.0000000001
 40
0.0018826910002295
 40
0.0018826910002295
 40
0.0018826910002295
 40
0.0018826910002295
 40
0.0067931669919828
 40
0.0067931669919828
 40
0.0148581762777992
 40
0.0148581762777992
 40
0.0216571624831836
 40
0.0216571624831836
 40
0.0241181605881729
 40
0.0241181605881729
 40
0.0262721351104489
 40
0.0262721351104489
 40
0.0291183974579855
 40
0.0291183974579855
 40
0.0315307617170608
 40
0.0315307617170608
 40
0.0346506209043775
 40
0.0346506209043775
 40
0.0395925192781599
 40
0.0395925192781599
 40
0.0489047040334028
 40
0.0489047040334028
 40
0.0719038372640869
 40
0.0719038372640869
 40
0.1414749575963309
 40
0.1414749575963309
 40
0.2235343188668187
 40
0.2235343188668187
 40
0.2662176350803065
 40
0.2662176350803065
 40
0.2662176350803065
 40
0.2662176350803065
 10
19.99993408575546
 20
20.00382154300668
 30
0.0
 10
19.99986408235855
 20
20.00784010263906
 30
0.0
 10
19.9997622950703
 20
20.01358798902672
 30
0.0
 10
19.99943617609072
 20
20.03150095258902
 30
0.0
 10
19.99917379096914
 20
20.04547905771016
 30
0.0
 10
19.99862147507884
 20
20.07412851673983
 30
0.0
 10
19.99834195422108
 20
20.08836978803245
 30
0.0
 10
19.99789287056014
 20
20.11129985253886
 30
0.0
 10
19.99776556978088
 20
20.11780783879772
 30
0.0
 10
19.99751102760862
 20
20.13092137199212
 30
0.0
 10
19.99738418371631
 20
20.13749599522147
 30
0.0
 10
19.99708160720942
 20
20.15339172508888
 30
0.0
 10
19.99689912594401
 20
20.16314759806919
 30
0.0
 10
19.99658164288958
 20
20.18063164072179
 30
0.0
 10
19.996440540796
 20
20.18860762352939
 30
0.0
 10
19.99613963834403
 20
20.20613328492134
 30
0.0
 10
19.99598354352545
 20
20.21562306648255
 30
0.0
 10
19.99561575572552
 20
20.23897255827085
 30
0.0
 10
19.99542133084345
 20
20.25235292943273
 30
0.0
 10
19.9949263277779
 20
20.28908036040377
 30
0.0
 10
19.99467887913301
 20
20.31107662913586
 30
0.0
 10
19.99397377071097
 20
20.38483545452667
 30
0.0
 10
19.99373075802562
 20
20.4332512871038
 30
0.0
 10
19.99330496971914
 20
20.63524513432441
 30
0.0
 10
19.99455225587734
 20
20.8115771463388
 30
0.0
 10
19.99793365451848
 20
21.23302852214081
 30
0.0
 10
19.99943798484192
 20
21.48841650280751
 30
0.0
 10
19.99998708512251
 20
21.89240745183579
 30
0.0
 10
19.99998191116097
 20
22.03407841309977
 30
0.0
 10
19.99998937018703
 20
22.17586272151751
 30
0.0
  0
SPLINE
  5
747A
330
7470
100
AcDbEntity
  8
0
100
AcDbSpline
210
0.0
220
0.0
230
1.0
 70
     8
 71
     3
 72
    12
 73
     8
 74
     0
 42
0.000000001
 43
0.0000000001
 40
0.0
 40
0.0
 40
0.0
 40
0.0
 40
0.0030437042988683
 40
0.0030437042988683
 40
0.0059481041536933
 40
0.0059481041536933
 40
0.0077014641353557
 40
0.0077014641353557
 40
0.0077014641353557
 40
0.0077014641353557
 10
19.99994095221147
 20
19.99999987947081
 30
0.0
 10
19.99992879819965
 20
20.00696128007011
 30
0.0
 10
19.99991751862583
 20
20.01274901429315
 30
0.0
 10
19.9998998856993
 20
20.02086801904881
 30
0.0
 10
19.999893217457
 20
20.02345476437579
 30
0.0
 10
19.99988738789263
 20
20.02558168406772
 30
0.0
 10
19.99988625762885
 20
20.02594367657424
 30
0.0
 10
19.99988625762891
 20
20.02594367655699
 30
0.0
  0
SPLINE
  5
747B
330
7470
100
AcDbEntity
  8
0
100
AcDbSpline
210
0.0
220
0.0
230
1.0
 70
     8
 71
     3
 72
     8
 73
     4
 74
     0
 42
0.000000001
 43
0.0000000001
 40
0.0
 40
0.0
 40
0.0
 40
0.0
 40
0.0007119893393459
 40
0.0007119893393459
 40
0.0007119893393459
 40
0.0007119893393459
 10
24.60611379963712
 20
22.56243160914645
 30
0.0
 10
24.60533819821923
 20
22.56182868808193
 30
0.0
 10
24.60453872043846
 20
22.56120758958723
 30
0.0
 10
24.60373327027526
 20
22.56058171694619
 30
0.0
  0
SPLINE
  5
747C
330
7470
100
AcDbEntity
  8
0
100
AcDbSpline
210
0.0
220
0.0
230
1.0
 70
     8
 71
     3
 72
     8
 73
     4
 74
     0
 42
0.000000001
 43
0.0000000001
 40
0.0001369350456029
 40
0.0001369350456029
 40
0.0001369350456029
 40
0.0001369350456029
 40
0.0006730443295673
 40
0.0006730443295673
 40
0.0006730443295673
 40
0.0006730443295673
 10
24.60523147098838
 20
22.56174578010059
 30
0.0
 10
24.60408446528723
 20
22.56082273200212
 30
0.0
 10
24.60290101501554
 20
22.5598712786461
 30
0.0
 10
24.60168845104274
 20
22.55889733769471
 30
0.0
  0
LINE
  5
747D
330
7470
100
AcDbEntity
  8
0
100
AcDbLine
 10
17.99999999999998
 20
-2.0
 30
0.0
 11
-17.99999999999998
 21
-2.000000000000001
 31
0.0
  0
LINE
  5
747E
330
7470
100
AcDbEntity
  8
0
100
AcDbLine
 10
-17.99999999999998
 20
0.0
 30
0.0
 11
17.99999999999998
 21
0.0
 31
0.0
  0
LINE
  5
747F
330
7470
100
AcDbEntity
  8
0
100
AcDbLine
 10
-24.0
 20
22.56249999999998
 30
0.0
 11
-22.0
 21
22.56249999999998
 31
0.0
  0
SPLINE
  5
7480
330
7470
100
AcDbEntity
  8
0
100
AcDbSpline
210
0.0
220
0.0
230
1.0
 70
     8
 71
     3
 72
    14
 73
    10
 74
     0
 42
0.000000001
 43
0.0000000001
 40
0.0
 40
0.0
 40
0.0
 40
0.0
 40
0.3435165591346614
 40
0.3435165591346614
 40
0.3435165591346614
 40
0.7569936138580438
 40
0.7569936138580438
 40
0.7569936138580438
 40
0.9986524957972767
 40
0.9986524957972767
 40
0.9986524957972767
 40
0.9986524957972767
 10
-24.60606060606061
 20
22.56249999999999
 30
0.0
 10
-24.28490249291364
 20
22.30249193735268
 30
0.0
 10
-23.8724590169512
 20
22.0752903732655
 30
0.0
 10
-23.47646762712214
 20
21.84407810168597
 30
0.0
 10
-22.99982873095135
 20
21.56577719732947
 30
0.0
 10
-22.53730090286849
 20
21.27139450216791
 30
0.0
 10
-22.26243107013305
 20
20.85792877877264
 30
0.0
 10
-22.10178192237779
 20
20.61627651948889
 30
0.0
 10
-22.00111653428512
 20
20.36107592065591
 30
0.0
 10
-22.00000922931124
 20
20.00594994761666
 30
0.0
  0
SPLINE
  5
7481
330
7470
100
AcDbEntity
  8
0
100
AcDbSpline
210
0.0
220
0.0
230
1.0
 70
     8
 71
     3
 72
    30
 73
    26
 74
     0
 42
0.000000001
 43
0.0000000001
 40
0.0
 40
0.0
 40
0.0
 40
0.0
 40
0.065551342951364
 40
0.065551342951364
 40
0.1471084880214981
 40
0.1471084880214981
 40
0.1864915416023374
 40
0.1864915416023374
 40
0.2244287006931935
 40
0.2244287006931935
 40
0.2339025228607671
 40
0.2339025228607671
 40
0.2360478139101078
 40
0.2360478139101078
 40
0.2376817992201655
 40
0.2376817992201655
 40
0.2393184066576787
 40
0.2393184066576787
 40
0.2426422771649747
 40
0.2426422771649747
 40
0.2492709696195753
 40
0.2492709696195753
 40
0.2559206221576868
 40
0.2559206221576868
 40
0.2643718038672593
 40
0.2643718038672593
 40
0.2643718038672593
 40
0.2643718038672593
 10
-19.99998937018704
 20
22.17586272151399
 30
0.0
 10
-19.99997791491087
 20
21.95811600802704
 30
0.0
 10
-19.99997499580922
 20
21.73955119268691
 30
0.0
 10
-19.99847087262149
 20
21.27766062741572
 30
0.0
 10
-19.99618388742054
 20
21.03633066426401
 30
0.0
 10
-19.99399786143326
 20
20.72034886122345
 30
0.0
 10
-19.9935618160632
 20
20.62410814310358
 30
0.0
 10
-19.99357524463088
 20
20.45120303279278
 30
0.0
 10
-19.99385398907025
 20
20.37643855044894
 30
0.0
 10
-19.99531495667007
 20
20.25912774561288
 30
0.0
 10
-19.99568020989347
 20
20.23363328537787
 30
0.0
 10
-19.99628323559812
 20
20.19771133923772
 30
0.0
 10
-19.9964019387729
 20
20.19083376342601
 30
0.0
 10
-19.99662079997781
 20
20.17847913085862
 30
0.0
 10
-19.99671935863193
 20
20.17301832039368
 30
0.0
 10
-19.99691927582667
 20
20.16211842565769
 30
0.0
 10
-19.99702160490426
 20
20.15662678217034
 30
0.0
 10
-19.99732644919474
 20
20.14045849109231
 30
0.0
 10
-19.99752713316919
 20
20.1300727342922
 30
0.0
 10
-19.99806275348928
 20
20.10255107156897
 30
0.0
 10
-19.99835960841972
 20
20.08751831595133
 30
0.0
 10
-19.99889075160776
 20
20.0602250675241
 30
0.0
 10
-19.99912909556906
 20
20.04779428334229
 30
0.0
 10
-19.99959874139534
 20
20.0227299285705
 30
0.0
 10
-19.99981365266267
 20
20.010727455887
 30
0.0
 10
-19.99993408544838
 20
20.00381398664869
 30
0.0
  0
SPLINE
  5
7482
330
7470
100
AcDbEntity
  8
0
100
AcDbSpline
210
0.0
220
0.0
230
1.0
 70
     8
 71
     3
 72
     8
 73
     4
 74
     0
 42
0.000000001
 43
0.0000000001
 40
0.0195591544660742
 40
0.0195591544660742
 40
0.0195591544660742
 40
0.0195591544660742
 40
0.0211163010459384
 40
0.0211163010459384
 40
0.0211163010459384
 40
0.0211163010459384
 10
-19.99957522640357
 20
20.01307778048264
 30
0.0
 10
-19.99957087693732
 20
20.0088617533933
 30
0.0
 10
-19.99956567564211
 20
20.00448601814694
 30
0.0
 10
-19.99955984654371
 20
20.00000111615405
 30
0.0
  0
SPLINE
  5
7483
330
7470
100
AcDbEntity
  8
0
100
AcDbSpline
210
0.0
220
0.0
230
1.0
 70
     8
 71
     3
 72
    16
 73
    12
 74
     0
 42
0.000000001
 43
0.0000000001
 40
0.0328453658078958
 40
0.0328453658078958
 40
0.0328453658078958
 40
0.0328453658078958
 40
0.034612173923177
 40
0.034612173923177
 40
0.0362943907561125
 40
0.0362943907561125
 40
0.038872634308143
 40
0.038872634308143
 40
0.0410449475460136
 40
0.0410449475460136
 40
0.0429128452238026
 40
0.0429128452238026
 40
0.0429128452238026
 40
0.0429128452238026
 10
-19.9984278991476
 20
20.0839834950651
 30
0.0
 10
-19.99847484522251
 20
20.08119158220523
 30
0.0
 10
-19.9985283564957
 20
20.0779910953307
 30
0.0
 10
-19.99864665535222
 20
20.07086662522015
 30
0.0
 10
-19.99871142262129
 20
20.06694586347505
 30
0.0
 10
-19.99889097016895
 20
20.05600293220373
 30
0.0
 10
-19.99901757415499
 20
20.04822182191437
 30
0.0
 10
-19.99925928465417
 20
20.0331593493684
 30
0.0
 10
-19.99937543020117
 20
20.0258402669849
 30
0.0
 10
-19.99958650226693
 20
20.01237477408043
 30
0.0
 10
-19.99968327914876
 20
20.00613808200223
 30
0.0
 10
-19.99977770285763
 20
19.99999671130078
 30
0.0
  0
SPLINE
  5
7484
330
7470
100
AcDbEntity
  8
0
100
AcDbSpline
210
0.0
220
0.0
230
1.0
 70
     8
 71
     3
 72
    12
 73
     8
 74
     0
 42
0.000000001
 43
0.0000000001
 40
0.0138054908283208
 40
0.0138054908283208
 40
0.0138054908283208
 40
0.0138054908283208
 40
0.0169840789956361
 40
0.0169840789956361
 40
0.0189304805951567
 40
0.0189304805951567
 40
0.0215081391830123
 40
0.0215081391830123
 40
0.0215081391830123
 40
0.0215081391830123
 10
-19.99988625762891
 20
20.02594367655787
 30
0.0
 10
-19.99988625767142
 20
20.02594366285862
 30
0.0
 10
-19.99989009445447
 20
20.02472368734718
 30
0.0
 10
-19.99990126115645
 20
20.02016530964393
 30
0.0
 10
-19.99990666457447
 20
20.01781779791292
 30
0.0
 10
-19.9999210192348
 20
20.01095228821569
 30
0.0
 10
-19.99993065919682
 20
20.0058953647994
 30
0.0
 10
-19.99994095221147
 20
19.99999987947082
 30
0.0
  0
SPLINE
  5
7485
330
7470
100
AcDbEntity
  8
0
100
AcDbSpline
210
0.0
220
0.0
230
1.0
 70
     8
 71
     3
 72
    16
 73
    12
 74
     0
 42
0.000000001
 43
0.0000000001
 40
0.0
 40
0.0
 40
0.0
 40
0.0
 40
0.0041147701412176
 40
0.0041147701412176
 40
0.0050669104878099
 40
0.0050669104878099
 40
0.0058958097637565
 40
0.0058958097637565
 40
0.0067234516707721
 40
0.0067234516707721
 40
0.0081601476143825
 40
0.0081601476143825
 40
0.0081601476143825
 40
0.0081601476143825
 10
-22.00007431501589
 20
20.00000007787121
 30
0.0
 10
-22.00005236030853
 20
20.01348321180629
 30
0.0
 10
-22.00007089001988
 20
20.02743611953608
 30
0.0
 10
-22.00015518626383
 20
20.04264323907991
 30
0.0
 10
-22.00017334253721
 20
20.04537391441295
 30
0.0
 10
-22.00020680359946
 20
20.04980909452764
 30
0.0
 10
-22.00022231882123
 20
20.05162998387644
 30
0.0
 10
-22.00024914482364
 20
20.05457669178601
 30
0.0
 10
-22.00026066603007
 20
20.0557329946652
 30
0.0
 10
-22.00028457044064
 20
20.05805391643439
 30
0.0
 10
-22.00029164702546
 20
20.05864902335048
 30
0.0
 10
-22.00029164702536
 20
20.05864902334187
 30
0.0
  0
SPLINE
  5
7486
330
7470
100
AcDbEntity
  8
0
100
AcDbSpline
210
0.0
220
0.0
230
1.0
 70
     8
 71
     3
 72
    18
 73
    14
 74
     0
 42
0.000000001
 43
0.0000000001
 40
0.0
 40
0.0
 40
0.0
 40
0.0
 40
0.0020456844952786
 40
0.0020456844952786
 40
0.0037103802385361
 40
0.0037103802385361
 40
0.0047886577826221
 40
0.0047886577826221
 40
0.005405858330311
 40
0.005405858330311
 40
0.0056713596793063
 40
0.0056713596793063
 40
0.0057658590455938
 40
0.0057658590455938
 40
0.0057658590455938
 40
0.0057658590455938
 10
-22.00000948371253
 20
20.00000001080844
 30
0.0
 10
-22.00000131162398
 20
20.00669084706302
 30
0.0
 10
-22.0000021167281
 20
20.01335086134756
 30
0.0
 10
-22.00001995709027
 20
20.02478352044766
 30
0.0
 10
-22.00003405059823
 20
20.02972464735513
 30
0.0
 10
-22.00006334256657
 20
20.03706867899531
 30
0.0
 10
-22.00007727322521
 20
20.03991934675736
 30
0.0
 10
-22.00009604289582
 20
20.04334273346253
 30
0.0
 10
-22.00010217954358
 20
20.04437249654661
 30
0.0
 10
-22.00010716091227
 20
20.0451921828893
 30
0.0
 10
-22.00010818416294
 20
20.04535741768427
 30
0.0
 10
-22.00010876159666
 20
20.04545062484315
 30
0.0
 10
-22.00010883935405
 20
20.0454631370472
 30
0.0
 10
-22.00010883933736
 20
20.04546313436006
 30
0.0
  0
SPLINE
  5
7487
330
7470
100
AcDbEntity
  8
0
100
AcDbSpline
210
0.0
220
0.0
230
1.0
 70
     8
 71
     3
 72
     8
 73
     4
 74
     0
 42
0.000000001
 43
0.0000000001
 40
0.0
 40
0.0
 40
0.0
 40
0.0
 40
0.0007418556452428
 40
0.0007418556452428
 40
0.0007418556452428
 40
0.0007418556452428
 10
-22.00001228463281
 20
20.00000003227851
 30
0.0
 10
-22.0000082358052
 20
20.00154346545952
 30
0.0
 10
-22.00000411635751
 20
20.00317717058919
 30
0.0
 10
-21.9999999854435
 20
20.00485798859906
 30
0.0
  0
SPLINE
  5
7488
330
7470
100
AcDbEntity
  8
0
100
AcDbSpline
210
0.0
220
0.0
230
1.0
 70
     8
 71
     3
 72
     8
 73
     4
 74
     0
 42
0.000000001
 43
0.0000000001
 40
0.2821150860910808
 40
0.2821150860910808
 40
0.2821150860910808
 40
0.2821150860910808
 40
0.282651374847273
 40
0.282651374847273
 40
0.282651374847273
 40
0.282651374847273
 10
-24.60168994395869
 20
22.5588986788401
 30
0.0
 10
-24.60290278623038
 20
22.55987284332334
 30
0.0
 10
-24.60408444690384
 20
22.56082272411322
 30
0.0
 10
-24.60523157670689
 20
22.56174587208216
 30
0.0
  0
SPLINE
  5
7489
330
7470
100
AcDbEntity
  8
0
100
AcDbSpline
210
0.0
220
0.0
230
1.0
 70
     8
 71
     3
 72
     8
 73
     4
 74
     0
 42
0.000000001
 43
0.0000000001
 40
0.01692671395244
 40
0.01692671395244
 40
0.01692671395244
 40
0.01692671395244
 40
0.0176395326813734
 40
0.0176395326813734
 40
0.0176395326813734
 40
0.0176395326813734
 10
-24.60373962975646
 20
22.56058639079442
 30
0.0
 10
-24.60454420305636
 20
22.56121158207147
 30
0.0
 10
-24.60533729472853
 20
22.56182798574492
 30
0.0
 10
-24.60611379963712
 20
22.56243160914644
 30
0.0
  0
ARC
  5
748A
330
7470
100
AcDbEntity
  8
0
100
AcDbCircle
 10
-17.99999999999998
 20
2.0
 30
0.0
 40
4.000000000000001
100
AcDbArc
 50
180.0
 51
270.0
  0
ARC
  5
748B
330
7470
100
AcDbEntity
  8
0
100
AcDbCircle
 10
-17.99999999999998
 20
2.0
 30
0.0
 40
1.999999999999999
100
AcDbArc
 50
180.0
 51
270.0
  0
ARC
  5
748C
330
7470
100
AcDbEntity
  8
0
100
AcDbCircle
 10
17.99999999999998
 20
2.0
 30
0.0
 40
4.000000000000001
100
AcDbArc
 50
270.0
 51
0.0
  0
LINE
  5
748D
330
7470
100
AcDbEntity
  8
0
100
AcDbLine
 10
24.60606060606062
 20
22.56249999999997
 30
0.0
 11
61.50000000000005
 21
52.99999999999998
 31
0.0
  0
LINE
  5
748E
330
7470
100
AcDbEntity
  8
0
100
AcDbLine
 10
19.99999999999998
 20
20.0
 30
0.0
 11
19.99999999999999
 21
52.99999999999998
 31
0.0
  0
LINE
  5
748F
330
7470
100
AcDbEntity
  8
0
100
AcDbLine
 10
21.99999999999998
 20
20.0
 30
0.0
 11
19.99999999999998
 21
20.0
 31
0.0
  0
LINE
  5
7490
330
7470
100
AcDbEntity
  8
0
100
AcDbLine
 10
21.99999999999999
 20
52.99999999999998
 30
0.0
 11
21.99999999999998
 21
20.0
 31
0.0
  0
LINE
  5
7491
330
7470
100
AcDbEntity
  8
0
100
AcDbLine
 10
21.99999999999999
 20
52.99999999999998
 30
0.0
 11
19.99999999999999
 21
52.99999999999998
 31
0.0
  0
LINE
  5
7492
330
7470
100
AcDbEntity
  8
0
100
AcDbLine
 10
19.99999999999999
 20
52.99999999999998
 30
0.0
 11
19.99999999999999
 21
130.0
 31
0.0
  0
LINE
  5
7493
330
7470
100
AcDbEntity
  8
0
100
AcDbLine
 10
21.99999999999999
 20
130.0
 30
0.0
 11
21.99999999999999
 21
52.99999999999998
 31
0.0
  0
LINE
  5
7494
330
7470
100
AcDbEntity
  8
0
100
AcDbLine
 10
19.99999999999999
 20
130.0
 30
0.0
 11
21.99999999999999
 21
130.0
 31
0.0
  0
LINE
  5
7495
330
7470
100
AcDbEntity
  8
0
100
AcDbLine
 10
21.99999999999998
 20
20.0
 30
0.0
 11
21.99999999999999
 21
1.999999999999999
 31
0.0
  0
LINE
  5
7496
330
7470
100
AcDbEntity
  8
0
100
AcDbLine
 10
19.99999999999998
 20
2.0
 30
0.0
 11
19.99999999999998
 21
20.0
 31
0.0
  0
ARC
  5
7497
330
7470
100
AcDbEntity
  8
0
100
AcDbCircle
 10
17.99999999999998
 20
2.0
 30
0.0
 40
1.999999999999999
100
AcDbArc
 50
270.0
 51
0.0
  0
LINE
  5
7498
330
7470
100
AcDbEntity
  8
0
100
AcDbLine
 10
23.99999999999999
 20
130.0
 30
0.0
 11
22.0
 21
130.0
 31
0.0
  0
LINE
  5
7499
330
7470
100
AcDbEntity
  8
0
100
AcDbLine
 10
61.50000000000005
 20
52.99999999999998
 30
0.0
 11
61.5
 21
130.0
 31
0.0
  0
LINE
  5
749A
330
7470
100
AcDbEntity
  8
0
100
AcDbLine
 10
61.5
 20
130.0
 30
0.0
 11
23.99999999999999
 21
130.0
 31
0.0
  0
CIRCLE
  5
749B
330
7470
100
AcDbEntity
  8
0
100
AcDbCircle
 10
42.0
 20
110.0
 30
0.0
 40
6.5
  0
CIRCLE
  5
749C
330
7470
100
AcDbEntity
  8
0
100
AcDbCircle
 10
53.0
 20
115.0
 30
0.0
 40
2.5
  0
LINE
  5
749D
330
7470
100
AcDbEntity
  8
0
100
AcDbLine
 10
-61.50000000000005
 20
52.99999999999998
 30
0.0
 11
-24.60606060606062
 21
22.56249999999997
 31
0.0
  0
LINE
  5
749E
330
7470
100
AcDbEntity
  8
0
100
AcDbLine
 10
-19.99999999999999
 20
52.99999999999998
 30
0.0
 11
-19.99999999999998
 21
20.0
 31
0.0
  0
LINE
  5
749F
330
7470
100
AcDbEntity
  8
0
100
AcDbLine
 10
-21.99999999999999
 20
52.99999999999998
 30
0.0
 11
-19.99999999999999
 21
52.99999999999998
 31
0.0
  0
LINE
  5
74A0
330
7470
100
AcDbEntity
  8
0
100
AcDbLine
 10
-21.99999999999998
 20
20.0
 30
0.0
 11
-21.99999999999999
 21
52.99999999999998
 31
0.0
  0
LINE
  5
74A1
330
7470
100
AcDbEntity
  8
0
100
AcDbLine
 10
-19.99999999999998
 20
20.0
 30
0.0
 11
-21.99999999999998
 21
20.0
 31
0.0
  0
LINE
  5
74A2
330
7470
100
AcDbEntity
  8
0
100
AcDbLine
 10
-19.99999999999999
 20
130.0
 30
0.0
 11
-19.99999999999999
 21
52.99999999999998
 31
0.0
  0
LINE
  5
74A3
330
7470
100
AcDbEntity
  8
0
100
AcDbLine
 10
-21.99999999999999
 20
130.0
 30
0.0
 11
-19.99999999999999
 21
130.0
 31
0.0
  0
LINE
  5
74A4
330
7470
100
AcDbEntity
  8
0
100
AcDbLine
 10
-21.99999999999999
 20
52.99999999999998
 30
0.0
 11
-21.99999999999999
 21
130.0
 31
0.0
  0
CIRCLE
  5
74A5
330
7470
100
AcDbEntity
  8
0
100
AcDbCircle
 10
-42.0
 20
60.0
 30
0.0
 40
6.5
  0
CIRCLE
  5
74A6
330
7470
100
AcDbEntity
  8
0
100
AcDbCircle
 10
42.0
 20
60.0
 30
0.0
 40
6.5
  0
CIRCLE
  5
74A7
330
7470
100
AcDbEntity
  8
0
100
AcDbCircle
 10
-42.0
 20
110.0
 30
0.0
 40
6.5
  0
CIRCLE
  5
74A8
330
7470
100
AcDbEntity
  8
0
100
AcDbCircle
 10
-31.0
 20
45.0
 30
0.0
 40
2.5
  0
CIRCLE
  5
74A9
330
7470
100
AcDbEntity
  8
0
100
AcDbCircle
 10
-31.0
 20
65.0
 30
0.0
 40
2.5
  0
CIRCLE
  5
74AA
330
7470
100
AcDbEntity
  8
0
100
AcDbCircle
 10
-31.0
 20
85.0
 30
0.0
 40
2.5
  0
CIRCLE
  5
74AB
330
7470
100
AcDbEntity
  8
0
100
AcDbCircle
 10
-31.0
 20
105.0
 30
0.0
 40
2.5
  0
CIRCLE
  5
74AC
330
7470
100
AcDbEntity
  8
0
100
AcDbCircle
 10
31.0
 20
45.0
 30
0.0
 40
2.5
  0
CIRCLE
  5
74AD
330
7470
100
AcDbEntity
  8
0
100
AcDbCircle
 10
31.0
 20
65.0
 30
0.0
 40
2.5
  0
CIRCLE
  5
74AE
330
7470
100
AcDbEntity
  8
0
100
AcDbCircle
 10
31.0
 20
85.0
 30
0.0
 40
2.5
  0
CIRCLE
  5
74AF
330
7470
100
AcDbEntity
  8
0
100
AcDbCircle
 10
31.0
 20
105.0
 30
0.0
 40
2.5
  0
CIRCLE
  5
74B0
330
7470
100
AcDbEntity
  8
0
100
AcDbCircle
 10
-31.0
 20
125.0
 30
0.0
 40
2.5
  0
CIRCLE
  5
74B1
330
7470
100
AcDbEntity
  8
0
100
AcDbCircle
 10
31.0
 20
125.0
 30
0.0
 40
2.5
  0
CIRCLE
  5
74B2
330
7470
100
AcDbEntity
  8
0
100
AcDbCircle
 10
-53.0
 20
55.0
 30
0.0
 40
2.5
  0
CIRCLE
  5
74B3
330
7470
100
AcDbEntity
  8
0
100
AcDbCircle
 10
-53.0
 20
75.0
 30
0.0
 40
2.5
  0
CIRCLE
  5
74B4
330
7470
100
AcDbEntity
  8
0
100
AcDbCircle
 10
-53.0
 20
95.0
 30
0.0
 40
2.5
  0
CIRCLE
  5
74B5
330
7470
100
AcDbEntity
  8
0
100
AcDbCircle
 10
53.0
 20
55.0
 30
0.0
 40
2.5
  0
CIRCLE
  5
74B6
330
7470
100
AcDbEntity
  8
0
100
AcDbCircle
 10
53.0
 20
75.0
 30
0.0
 40
2.5
  0
CIRCLE
  5
74B7
330
7470
100
AcDbEntity
  8
0
100
AcDbCircle
 10
53.0
 20
95.0
 30
0.0
 40
2.5
  0
CIRCLE
  5
74B8
330
7470
100
AcDbEntity
  8
0
100
AcDbCircle
 10
-53.0
 20
115.0
 30
0.0
 40
2.5
  0
LINE
  5
74B9
330
7470
100
AcDbEntity
  8
0
100
AcDbLine
 10
-61.5
 20
130.0
 30
0.0
 11
-23.99999999999999
 21
130.0
 31
0.0
  0
LINE
  5
74BA
330
7470
100
AcDbEntity
  8
0
100
AcDbLine
 10
-61.50000000000005
 20
52.99999999999998
 30
0.0
 11
-61.5
 21
130.0
 31
0.0
  0
LINE
  5
74BB
330
7470
100
AcDbEntity
  8
0
100
AcDbLine
 10
-19.99999999999998
 20
2.0
 30
0.0
 11
-19.99999999999998
 21
20.0
 31
0.0
  0
LINE
  5
74BC
330
7470
100
AcDbEntity
  8
0
100
AcDbLine
 10
-21.99999999999998
 20
20.0
 30
0.0
 11
-21.99999999999999
 21
1.999999999999999
 31
0.0
  0
LINE
  5
74BD
330
7470
100
AcDbEntity
  8
0
100
AcDbLine
 10
-23.99999999999999
 20
130.0
 30
0.0
 11
-22.0
 21
130.0
 31
0.0
  0
ENDBLK
  5
7472
330
7470
100
AcDbEntity
  8
0
100
AcDbBlockEnd
  0
BLOCK
  5
74BF
330
74BE
100
AcDbEntity
  8
0
100
AcDbBlockBegin
  2
SAE300_40_2-Left
 70
     0
 10
0.0
 20
0.0
 30
0.0
  3
SAE300_40_2-Left
  1

  0
LINE
  5
74C1
330
74BE
100
AcDbEntity
  8
0
100
AcDbLine
 10
2.000000000000004
 20
-2.0
 30
0.0
 11
86.00000000000001
 21
-2.000000000000001
 31
0.0
  0
LINE
  5
74C2
330
74BE
100
AcDbEntity
  8
0
100
AcDbLine
 10
2.000000000000011
 20
2.000000000000004
 30
0.0
 11
2.000000000000004
 21
-1.999999999999999
 31
0.0
  0
LINE
  5
74C3
330
74BE
100
AcDbEntity
  8
0
100
AcDbLine
 10
86.00000000000001
 20
-2.000000000000001
 30
0.0
 11
86.00000000000001
 21
2.0
 31
0.0
  0
SPLINE
  5
74C4
330
74BE
100
AcDbEntity
  8
0
100
AcDbSpline
210
0.0
220
0.0
230
1.0
 70
     8
 71
     3
 72
    14
 73
    10
 74
     0
 42
0.000000001
 43
0.0000000001
 40
-0.4813026532884941
 40
-0.4813026532884941
 40
-0.4813026532884941
 40
-0.4813026532884941
 40
-0.3760960080948636
 40
-0.3760960080948636
 40
-0.3760960080948636
 40
-0.0765284972639215
 40
-0.0765284972639215
 40
-0.0765284972639215
 40
0.0
 40
0.0
 40
0.0
 40
0.0
 10
0.9454120927188963
 20
21.73176011523402
 30
0.0
 10
0.8408297879757942
 20
21.76867618608903
 30
0.0
 10
0.7371129357391972
 20
21.80054090483747
 30
0.0
 10
0.6388614064267327
 20
21.83423666321576
 30
0.0
 10
0.3590980320001673
 20
21.93018264119428
 30
0.0
 10
0.1217220476501663
 20
22.04001612968412
 30
0.0
 10
0.0342615816111249
 20
22.3144338695689
 30
0.0
 10
0.0119186445636314
 20
22.38453752399288
 30
0.0
 10
0.000004545257406
 20
22.46769665104874
 30
0.0
 10
0.0000000001152105
 20
22.56250000004
 30
0.0
  0
SPLINE
  5
74C5
330
74BE
100
AcDbEntity
  8
0
100
AcDbSpline
210
0.0
220
0.0
230
1.0
 70
     8
 71
     3
 72
    14
 73
    10
 74
     0
 42
0.000000001
 43
0.0000000001
 40
0.0
 40
0.0
 40
0.0
 40
0.0
 40
0.3435165591346614
 40
0.3435165591346614
 40
0.3435165591346614
 40
0.7569936138580438
 40
0.7569936138580438
 40
0.7569936138580438
 40
1.0
 40
1.0
 40
1.0
 40
1.0
 10
2.000000000000004
 20
22.56249999999999
 30
0.0
 10
2.000036880260044
 20
22.30249193735268
 30
0.0
 10
1.99683390332926
 20
22.0752903732655
 30
0.0
 10
1.998675521249973
 20
21.84407810168597
 30
0.0
 10
2.000892202610837
 20
21.56577719732947
 30
0.0
 10
2.001068608701417
 20
21.27139450216791
 30
0.0
 10
2.001123034011684
 20
20.85792877877264
 30
0.0
 10
2.00115502054591
 20
20.61492905221449
 30
0.0
 10
2.00025054924191
 20
20.35822947217273
 30
0.0
 10
1.999999999992554
 20
20.00000000165287
 30
0.0
  0
LINE
  5
74C6
330
74BE
100
AcDbEntity
  8
0
100
AcDbLine
 10
0.0
 20
22.56249999999998
 30
0.0
 11
2.000000000000001
 21
22.56249999999998
 31
0.0
  0
SPLINE
  5
74C7
330
74BE
100
AcDbEntity
  8
0
100
AcDbSpline
210
0.0
220
0.0
230
1.0
 70
     8
 71
     3
 72
    18
 73
    14
 74
     0
 42
0.000000001
 43
0.0000000001
 40
0.0
 40
0.0
 40
0.0
 40
0.0
 40
0.0045852969211959
 40
0.0045852969211959
 40
0.0065400840539222
 40
0.0065400840539222
 40
0.0081563835280175
 40
0.0081563835280175
 40
0.0096016089297221
 40
0.0096016089297221
 40
0.0108226891102047
 40
0.0108226891102047
 40
0.0118646457910786
 40
0.0118646457910786
 40
0.0118646457910786
 40
0.0118646457910786
 10
1.999557272902083
 20
19.99999849939593
 30
0.0
 10
1.99951351245857
 20
20.01475838079791
 30
0.0
 10
1.99942416367927
 20
20.02919075574022
 30
0.0
 10
1.999253402731404
 20
20.04675570275162
 30
0.0
 10
1.999196850486769
 20
20.05166987650061
 30
0.0
 10
1.999091149901672
 20
20.05972733279516
 30
0.0
 10
1.999042050549807
 20
20.0630592492445
 30
0.0
 10
1.998954621959895
 20
20.06851913317748
 30
0.0
 10
1.998915397044698
 20
20.07075700277467
 30
0.0
 10
1.99885518390849
 20
20.07401363580699
 30
0.0
 10
1.998832157097502
 20
20.07517781465981
 30
0.0
 10
1.998803973819168
 20
20.07656460268997
 30
0.0
 10
1.998796572755301
 20
20.07690723965166
 30
0.0
 10
1.99879657280709
 20
20.07690723724913
 30
0.0
  0
SPLINE
  5
74C8
330
74BE
100
AcDbEntity
  8
0
100
AcDbSpline
210
0.0
220
0.0
230
1.0
 70
     8
 71
     3
 72
    12
 73
     8
 74
     0
 42
0.000000001
 43
0.0000000001
 40
0.0059633252740728
 40
0.0059633252740728
 40
0.0059633252740728
 40
0.0059633252740728
 40
0.0066536742794103
 40
0.0066536742794103
 40
0.0086398635154591
 40
0.0086398635154591
 40
0.0087253466695551
 40
0.0087253466695551
 40
0.0087253466695551
 40
0.0087253466695551
 10
1.999420479339181
 20
20.02765535993977
 30
0.0
 10
1.999406074172308
 20
20.02827987373993
 30
0.0
 10
1.99939302941829
 20
20.0288364472879
 30
0.0
 10
1.999348675823635
 20
20.03070956782699
 30
0.0
 10
1.999329089674551
 20
20.03149445621119
 30
0.0
 10
1.999327499326445
 20
20.031558586866
 30
0.0
 10
1.999327466375673
 20
20.03155991427957
 30
0.0
 10
1.999327466389786
 20
20.031559913711
 30
0.0
  0
SPLINE
  5
74C9
330
74BE
100
AcDbEntity
  8
0
100
AcDbSpline
210
0.0
220
0.0
230
1.0
 70
     8
 71
     3
 72
    32
 73
    28
 74
     0
 42
0.000000001
 43
0.0000000001
 40
0.004426961191036
 40
0.004426961191036
 40
0.004426961191036
 40
0.004426961191036
 40
0.0070666150347979
 40
0.0070666150347979
 40
0.0097359241789533
 40
0.0097359241789533
 40
0.0112195603006646
 40
0.0112195603006646
 40
0.0132974512299611
 40
0.0132974512299611
 40
0.0162697048239977
 40
0.0162697048239977
 40
0.0233581018285241
 40
0.0233581018285241
 40
0.0446188970008191
 40
0.0446188970008191
 40
0.0765645807929007
 40
0.0765645807929007
 40
0.1066779008574497
 40
0.1066779008574497
 40
0.1471724920121414
 40
0.1471724920121414
 40
0.1805118331270743
 40
0.1805118331270743
 40
0.2202828906344216
 40
0.2202828906344216
 40
0.2444799756982751
 40
0.2444799756982751
 40
0.2444799756982751
 40
0.2444799756982751
 10
1.999453047720081
 20
20.02279542166178
 30
0.0
 10
1.999343127803506
 20
20.02692527670003
 30
0.0
 10
1.999228376886381
 20
20.03099739147783
 30
0.0
 10
1.998950736159396
 20
20.04021089953223
 30
0.0
 10
1.998783229283644
 20
20.04551751491554
 30
0.0
 10
1.998427362271394
 20
20.05577852989716
 30
0.0
 10
1.998279948734531
 20
20.0598647234481
 30
0.0
 10
1.997885574296277
 20
20.0702381525377
 30
0.0
 10
1.997620188678889
 20
20.07679958463991
 30
0.0
 10
1.996919491636606
 20
20.09294424179159
 30
0.0
 10
1.996456080830911
 20
20.10272534745745
 30
0.0
 10
1.99474421098157
 20
20.13583814586984
 30
0.0
 10
1.993288976669064
 20
20.15938365213365
 30
0.0
 10
1.986467949074427
 20
20.25325816082023
 30
0.0
 10
1.979100551532588
 20
20.32335733336009
 30
0.0
 10
1.954117793168748
 20
20.49752577947592
 30
0.0
 10
1.933095164793976
 20
20.60191693618644
 30
0.0
 10
1.876943753821473
 20
20.80089509444538
 30
0.0
 10
1.842238041479382
 20
20.89654333882934
 30
0.0
 10
1.742828772820693
 20
21.10726511010096
 30
0.0
 10
1.669688386416469
 20
21.22004612023932
 30
0.0
 10
1.52266636469666
 20
21.38942910541208
 30
0.0
 10
1.450190933546639
 20
21.4546761248424
 30
0.0
 10
1.289829444598198
 20
21.57326526325916
 30
0.0
 10
1.200070169511694
 20
21.62371870284836
 30
0.0
 10
1.05425470178252
 20
21.69064800009394
 30
0.0
 10
0.998580839498939
 20
21.71273822102472
 30
0.0
 10
0.942091252089982
 20
21.73259712965184
 30
0.0
  0
LINE
  5
74CA
330
74BE
100
AcDbEntity
  8
0
100
AcDbLine
 10
2.000000000000011
 20
2.000000000000003
 30
0.0
 11
2.000000000000011
 21
20.0
 31
0.0
  0
LINE
  5
74CB
330
74BE
100
AcDbEntity
  8
0
100
AcDbLine
 10
1.999999999999992
 20
52.99999999999998
 30
0.0
 11
2.000000000000001
 21
22.56249999999997
 31
0.0
  0
LINE
  5
74CC
330
74BE
100
AcDbEntity
  8
0
100
AcDbLine
 10
0.0
 20
52.99999999999998
 30
0.0
 11
1.999999999999992
 21
52.99999999999998
 31
0.0
  0
LINE
  5
74CD
330
74BE
100
AcDbEntity
  8
0
100
AcDbLine
 10
0.0
 20
22.56249999999998
 30
0.0
 11
0.0
 21
52.99999999999998
 31
0.0
  0
LINE
  5
74CE
330
74BE
100
AcDbEntity
  8
0
100
AcDbLine
 10
86.00000000000003
 20
20.0
 30
0.0
 11
46.00000000000003
 21
52.99999999999998
 31
0.0
  0
LINE
  5
74CF
330
74BE
100
AcDbEntity
  8
0
100
AcDbLine
 10
46.00000000000003
 20
52.99999999999998
 30
0.0
 11
46.00000000000001
 21
130.0
 31
0.0
  0
LINE
  5
74D0
330
74BE
100
AcDbEntity
  8
0
100
AcDbLine
 10
1.999999999999992
 20
52.99999999999998
 30
0.0
 11
2.000000000000006
 21
130.0
 31
0.0
  0
LINE
  5
74D1
330
74BE
100
AcDbEntity
  8
0
100
AcDbLine
 10
86.00000000000003
 20
20.0
 30
0.0
 11
86.00000000000001
 21
1.999999999999999
 31
0.0
  0
LINE
  5
74D2
330
74BE
100
AcDbEntity
  8
0
100
AcDbLine
 10
4.000000000000003
 20
130.0
 30
0.0
 11
46.00000000000001
 21
130.0
 31
0.0
  0
LINE
  5
74D3
330
74BE
100
AcDbEntity
  8
0
100
AcDbLine
 10
0.0
 20
130.0
 30
0.0
 11
2.000000000000006
 21
130.0
 31
0.0
  0
LINE
  5
74D4
330
74BE
100
AcDbEntity
  8
0
100
AcDbLine
 10
0.0
 20
52.99999999999998
 30
0.0
 11
0.0
 21
130.0
 31
0.0
  0
LINE
  5
74D5
330
74BE
100
AcDbEntity
  8
0
100
AcDbLine
 10
2.000000000000007
 20
130.0
 30
0.0
 11
4.000000000000003
 21
130.0
 31
0.0
  0
CIRCLE
  5
74D6
330
74BE
100
AcDbEntity
  8
0
100
AcDbCircle
 10
38.50000000000001
 20
44.99999999999999
 30
0.0
 40
2.5
  0
CIRCLE
  5
74D7
330
74BE
100
AcDbEntity
  8
0
100
AcDbCircle
 10
38.50000000000001
 20
64.99999999999999
 30
0.0
 40
2.5
  0
CIRCLE
  5
74D8
330
74BE
100
AcDbEntity
  8
0
100
AcDbCircle
 10
38.50000000000001
 20
84.99999999999998
 30
0.0
 40
2.5
  0
CIRCLE
  5
74D9
330
74BE
100
AcDbEntity
  8
0
100
AcDbCircle
 10
38.50000000000001
 20
105.0
 30
0.0
 40
2.5
  0
CIRCLE
  5
74DA
330
74BE
100
AcDbEntity
  8
0
100
AcDbCircle
 10
38.50000000000001
 20
125.0
 30
0.0
 40
2.5
  0
ENDBLK
  5
74C0
330
74BE
100
AcDbEntity
  8
0
100
AcDbBlockEnd
  0
BLOCK
  5
74DC
330
74DB
100
AcDbEntity
  8
0
100
AcDbBlockBegin
  2
SAE300_40_2-Right
 70
     0
 10
0.0
 20
0.0
 30
0.0
  3
SAE300_40_2-Right
  1

  0
SPLINE
  5
74DE
330
74DB
100
AcDbEntity
  8
0
100
AcDbSpline
210
0.0
220
0.0
230
1.0
 70
     8
 71
     3
 72
    14
 73
    10
 74
     0
 42
0.000000001
 43
0.0000000001
 40
0.0
 40
0.0
 40
0.0
 40
0.0
 40
0.3435165591346614
 40
0.3435165591346614
 40
0.3435165591346614
 40
0.7569936138580438
 40
0.7569936138580438
 40
0.7569936138580438
 40
1.0
 40
1.0
 40
1.0
 40
1.0
 10
-2.000000000000004
 20
22.56249999999999
 30
0.0
 10
-2.000036880260044
 20
22.30249193735268
 30
0.0
 10
-1.99683390332926
 20
22.0752903732655
 30
0.0
 10
-1.998675521249973
 20
21.84407810168597
 30
0.0
 10
-2.000892202610837
 20
21.56577719732947
 30
0.0
 10
-2.001068608701417
 20
21.27139450216791
 30
0.0
 10
-2.001123034011684
 20
20.85792877877264
 30
0.0
 10
-2.00115502054591
 20
20.61492905221449
 30
0.0
 10
-2.00025054924191
 20
20.35822947217273
 30
0.0
 10
-1.999999999992554
 20
20.00000000165287
 30
0.0
  0
SPLINE
  5
74DF
330
74DB
100
AcDbEntity
  8
0
100
AcDbSpline
210
0.0
220
0.0
230
1.0
 70
     8
 71
     3
 72
    14
 73
    10
 74
     0
 42
0.000000001
 43
0.0000000001
 40
-0.4813026532884626
 40
-0.4813026532884626
 40
-0.4813026532884626
 40
-0.4813026532884626
 40
-0.3760960080948636
 40
-0.3760960080948636
 40
-0.3760960080948636
 40
-0.0765284972639215
 40
-0.0765284972639215
 40
-0.0765284972639215
 40
0.0
 40
0.0
 40
0.0
 40
0.0
 10
-0.9454120927188025
 20
21.73176011523406
 30
0.0
 10
-0.8408297879757322
 20
21.76867618608905
 30
0.0
 10
-0.7371129357391679
 20
21.80054090483748
 30
0.0
 10
-0.6388614064267327
 20
21.83423666321576
 30
0.0
 10
-0.3590980320001673
 20
21.93018264119428
 30
0.0
 10
-0.1217220476501663
 20
22.04001612968412
 30
0.0
 10
-0.0342615816111249
 20
22.3144338695689
 30
0.0
 10
-0.0119186445636314
 20
22.38453752399288
 30
0.0
 10
-0.000004545257406
 20
22.46769665104874
 30
0.0
 10
-0.0000000001152105
 20
22.56250000004
 30
0.0
  0
LINE
  5
74E0
330
74DB
100
AcDbEntity
  8
0
100
AcDbLine
 10
-2.000000000000001
 20
22.56249999999998
 30
0.0
 11
0.0
 21
22.56249999999998
 31
0.0
  0
SPLINE
  5
74E1
330
74DB
100
AcDbEntity
  8
0
100
AcDbSpline
210
0.0
220
0.0
230
1.0
 70
     8
 71
     3
 72
    16
 73
    12
 74
     0
 42
0.000000001
 43
0.0000000001
 40
0.0119733517143814
 40
0.0119733517143814
 40
0.0119733517143814
 40
0.0119733517143814
 40
0.0132101283011159
 40
0.0132101283011159
 40
0.014792145587375
 40
0.014792145587375
 40
0.0179906735624291
 40
0.0179906735624291
 40
0.020819551709389
 40
0.020819551709389
 40
0.0238392197895085
 40
0.0238392197895085
 40
0.0238392197895085
 40
0.0238392197895085
 10
-1.998796572807035
 20
20.07690723725167
 30
0.0
 10
-1.998796572804498
 20
20.0769072373694
 30
0.0
 10
-1.99880693101399
 20
20.0764281154974
 30
0.0
 10
-1.998847483381439
 20
20.07440627908572
 30
0.0
 10
-1.998882572418784
 20
20.07259041649093
 30
0.0
 10
-1.999004828701167
 20
20.06563013974558
 30
0.0
 10
-1.999108828345978
 20
20.05887921392677
 30
0.0
 10
-1.999282360815442
 20
20.04425783065427
 30
0.0
 10
-1.999357578438084
 20
20.03640621540957
 30
0.0
 10
-1.999481031818135
 20
20.01923591435177
 30
0.0
 10
-1.99952845426357
 20
20.00971868622394
 30
0.0
 10
-1.999557272902083
 20
19.99999849939593
 30
0.0
  0
SPLINE
  5
74E2
330
74DB
100
AcDbEntity
  8
0
100
AcDbSpline
210
0.0
220
0.0
230
1.0
 70
     8
 71
     3
 72
    12
 73
     8
 74
     0
 42
0.000000001
 43
0.0000000001
 40
0.0086744412342297
 40
0.0086744412342297
 40
0.0086744412342297
 40
0.0086744412342297
 40
0.0108228418506099
 40
0.0108228418506099
 40
0.0138868148076936
 40
0.0138868148076936
 40
0.0173947674150311
 40
0.0173947674150311
 40
0.0173947674150311
 40
0.0173947674150311
 10
-1.999327466389663
 20
20.031559913716
 30
0.0
 10
-1.999327466386273
 20
20.03155991385258
 30
0.0
 10
-1.99934897512389
 20
20.03070111135508
 30
0.0
 10
-1.999438185388447
 20
20.0269228666038
 30
0.0
 10
-1.999521954743464
 20
20.02325287906699
 30
0.0
 10
-1.999719011798848
 20
20.01347874862741
 30
0.0
 10
-1.999835263853037
 20
20.00705634434083
 30
0.0
 10
-1.999939280471755
 20
19.99999868572562
 30
0.0
  0
SPLINE
  5
74E3
330
74DB
100
AcDbEntity
  8
0
100
AcDbSpline
210
0.0
220
0.0
230
1.0
 70
     8
 71
     3
 72
    28
 73
    24
 74
     0
 42
0.000000001
 43
0.0000000001
 40
0.0
 40
0.0
 40
0.0
 40
0.0
 40
0.0650016965103725
 40
0.0650016965103725
 40
0.1023228294643975
 40
0.1023228294643975
 40
0.1414747326764503
 40
0.1414747326764503
 40
0.1748987385517233
 40
0.1748987385517233
 40
0.2169239991014251
 40
0.2169239991014251
 40
0.2285713936710938
 40
0.2285713936710938
 40
0.2316497790398619
 40
0.2316497790398619
 40
0.2332712167250838
 40
0.2332712167250838
 40
0.2348988842824291
 40
0.2348988842824291
 40
0.2381770016383403
 40
0.2381770016383403
 40
0.2398093120510158
 40
0.2398093120510158
 40
0.2398093120510158
 40
0.2398093120510158
 10
-0.9420912520898856
 20
21.73259712965188
 30
0.0
 10
-1.093841721498275
 20
21.67924926778337
 30
0.0
 10
-1.242353898712647
 20
21.60988799343447
 30
0.0
 10
-1.466451771001753
 20
21.44171617371801
 30
0.0
 10
-1.547407943198251
 20
21.36594146110578
 30
0.0
 10
-1.695446554661667
 20
21.18241413824776
 30
0.0
 10
-1.76306128955226
 20
21.0704074111542
 30
0.0
 10
-1.860492149637451
 20
20.85077461308069
 30
0.0
 10
-1.895809632780775
 20
20.7432152102707
 30
0.0
 10
-1.955911122109109
 20
20.49956902551232
 30
0.0
 10
-1.97660628762329
 20
20.36174326035449
 30
0.0
 10
-1.991712579949837
 20
20.18427826813509
 30
0.0
 10
-1.99430189679398
 20
20.14544791360519
 30
0.0
 10
-1.996727817407808
 20
20.09709109591661
 30
0.0
 10
-1.997190140005862
 20
20.08697087999907
 30
0.0
 10
-1.997805613578781
 20
20.07220206193536
 30
0.0
 10
-1.998002494733104
 20
20.06720827402173
 30
0.0
 10
-1.998352537520397
 20
20.05789030565471
 30
0.0
 10
-1.998506821224067
 20
20.05353772749485
 30
0.0
 10
-1.998900005510217
 20
20.0419796105542
 30
0.0
 10
-1.999076487666739
 20
20.03616553676995
 30
0.0
 10
-1.99930625964803
 20
20.02819603050193
 30
0.0
 10
-1.999380800893016
 20
20.02550450542565
 30
0.0
 10
-1.999453071715975
 20
20.02278501006709
 30
0.0
  0
LINE
  5
74E4
330
74DB
100
AcDbEntity
  8
0
100
AcDbLine
 10
-2.000000000000004
 20
-2.0
 30
0.0
 11
-86.00000000000001
 21
-2.0
 31
0.0
  0
LINE
  5
74E5
330
74DB
100
AcDbEntity
  8
0
100
AcDbLine
 10
-2.000000000000011
 20
2.000000000000003
 30
0.0
 11
-2.000000000000011
 21
20.0
 31
0.0
  0
LINE
  5
74E6
330
74DB
100
AcDbEntity
  8
0
100
AcDbLine
 10
-2.000000000000011
 20
2.000000000000004
 30
0.0
 11
-2.000000000000004
 21
-1.999999999999999
 31
0.0
  0
LINE
  5
74E7
330
74DB
100
AcDbEntity
  8
0
100
AcDbLine
 10
-86.00000000000001
 20
-2.000000000000001
 30
0.0
 11
-86.00000000000001
 21
2.0
 31
0.0
  0
LINE
  5
74E8
330
74DB
100
AcDbEntity
  8
0
100
AcDbLine
 10
0.0
 20
52.99999999999998
 30
0.0
 11
0.0
 21
22.56249999999998
 31
0.0
  0
LINE
  5
74E9
330
74DB
100
AcDbEntity
  8
0
100
AcDbLine
 10
-1.999999999999992
 20
52.99999999999998
 30
0.0
 11
0.0
 21
52.99999999999998
 31
0.0
  0
LINE
  5
74EA
330
74DB
100
AcDbEntity
  8
0
100
AcDbLine
 10
-2.000000000000001
 20
22.56249999999997
 30
0.0
 11
-1.999999999999992
 21
52.99999999999998
 31
0.0
  0
LINE
  5
74EB
330
74DB
100
AcDbEntity
  8
0
100
AcDbLine
 10
0.0
 20
52.99999999999998
 30
0.0
 11
0.0
 21
130.0
 31
0.0
  0
CIRCLE
  5
74EC
330
74DB
100
AcDbEntity
  8
0
100
AcDbCircle
 10
-38.50000000000003
 20
115.0
 30
0.0
 40
2.5
  0
LINE
  5
74ED
330
74DB
100
AcDbEntity
  8
0
100
AcDbLine
 10
-46.00000000000003
 20
52.99999999999998
 30
0.0
 11
-86.00000000000003
 21
20.0
 31
0.0
  0
LINE
  5
74EE
330
74DB
100
AcDbEntity
  8
0
100
AcDbLine
 10
-46.00000000000001
 20
130.0
 30
0.0
 11
-46.00000000000003
 21
52.99999999999998
 31
0.0
  0
LINE
  5
74EF
330
74DB
100
AcDbEntity
  8
0
100
AcDbLine
 10
-86.00000000000003
 20
20.0
 30
0.0
 11
-86.00000000000001
 21
1.999999999999999
 31
0.0
  0
LINE
  5
74F0
330
74DB
100
AcDbEntity
  8
0
100
AcDbLine
 10
-4.000000000000003
 20
130.0
 30
0.0
 11
-46.00000000000001
 21
130.0
 31
0.0
  0
LINE
  5
74F1
330
74DB
100
AcDbEntity
  8
0
100
AcDbLine
 10
-2.000000000000007
 20
130.0
 30
0.0
 11
-4.000000000000003
 21
130.0
 31
0.0
  0
LINE
  5
74F2
330
74DB
100
AcDbEntity
  8
0
100
AcDbLine
 10
0.0
 20
130.0
 30
0.0
 11
-2.000000000000006
 21
130.0
 31
0.0
  0
LINE
  5
74F3
330
74DB
100
AcDbEntity
  8
0
100
AcDbLine
 10
-1.999999999999992
 20
52.99999999999998
 30
0.0
 11
-2.000000000000006
 21
130.0
 31
0.0
  0
CIRCLE
  5
74F4
330
74DB
100
AcDbEntity
  8
0
100
AcDbCircle
 10
-38.50000000000003
 20
34.99999999999999
 30
0.0
 40
2.5
  0
CIRCLE
  5
74F5
330
74DB
100
AcDbEntity
  8
0
100
AcDbCircle
 10
-38.50000000000003
 20
54.99999999999999
 30
0.0
 40
2.5
  0
CIRCLE
  5
74F6
330
74DB
100
AcDbEntity
  8
0
100
AcDbCircle
 10
-38.50000000000003
 20
74.99999999999999
 30
0.0
 40
2.5
  0
CIRCLE
  5
74F7
330
74DB
100
AcDbEntity
  8
0
100
AcDbCircle
 10
-38.50000000000003
 20
94.99999999999998
 30
0.0
 40
2.5
  0
SPLINE
  5
74F8
330
74DB
100
AcDbEntity
  8
0
100
AcDbSpline
210
0.0
220
0.0
230
1.0
 70
     8
 71
     3
 72
     8
 73
     4
 74
     0
 42
0.000000001
 43
0.0000000001
 40
0.0214149014339164
 40
0.0214149014339164
 40
0.0214149014339164
 40
0.0214149014339164
 40
0.0238392197895085
 40
0.0238392197895085
 40
0.0238392197895085
 40
0.0238392197895085
 10
-1.999453071715976
 20
20.02278501006706
 30
0.0
 10
-1.999499008035588
 20
20.01547524238863
 30
0.0
 10
-1.999534136069664
 20
20.00780228005052
 30
0.0
 10
-1.999557272902083
 20
19.99999849939593
 30
0.0
  0
SPLINE
  5
74F9
330
74DB
100
AcDbEntity
  8
0
100
AcDbSpline
210
0.0
220
0.0
230
1.0
 70
     8
 71
     3
 72
     8
 73
     4
 74
     0
 42
0.000000001
 43
0.0000000001
 40
0.0158682426856238
 40
0.0158682426856238
 40
0.0158682426856238
 40
0.0158682426856238
 40
0.0173947674150311
 40
0.0173947674150311
 40
0.0173947674150311
 40
0.0173947674150311
 10
-1.999798457838049
 20
20.00880449254621
 30
0.0
 10
-1.999846435520496
 20
20.00602082847386
 30
0.0
 10
-1.999894016479188
 20
20.00306990464268
 30
0.0
 10
-1.999939280471755
 20
19.99999868572562
 30
0.0
  0
ENDBLK
  5
74DD
330
74DB
100
AcDbEntity
  8
0
100
AcDbBlockEnd
  0
BLOCK
  5
74FB
330
74FA
100
AcDbEntity
  8
0
100
AcDbBlockBegin
  2
SAE300_40_2-Top
 70
     0
 10
0.0
 20
0.0
 30
0.0
  3
SAE300_40_2-Top
  1

  0
LINE
  5
74FD
330
74FA
100
AcDbEntity
  8
0
100
AcDbLine
 10
20.0
 20
-2.000000000000007
 30
0.0
 11
20.0
 21
-2.069004766161551
 31
0.0
  0
SPLINE
  5
74FE
330
74FA
100
AcDbEntity
  8
0
100
AcDbSpline
210
0.0
220
0.0
230
1.0
 70
     8
 71
     3
 72
    11
 73
     7
 74
     0
 42
0.000000001
 43
0.0000000001
 40
-1.0
 40
-1.0
 40
-1.0
 40
-1.0
 40
-0.7994286890700036
 40
-0.7994286890700036
 40
-0.7994286890700036
 40
-0.653357377722069
 40
-0.653357377722069
 40
-0.653357377722069
 40
-0.653357377722069
 10
20.0
 20
-1.99999999999998
 30
0.0
 10
19.99999961270328
 20
-1.999093543231139
 30
0.0
 10
20.12633150601012
 20
-1.919863896631738
 30
0.0
 10
20.33607694564575
 20
-1.79068778619682
 30
0.0
 10
20.4888295565489
 20
-1.696611899877068
 30
0.0
 10
20.68837056421021
 20
-1.577391377848694
 30
0.0
 10
20.91982716790679
 20
-1.445337717163166
 30
0.0
  0
SPLINE
  5
74FF
330
74FA
100
AcDbEntity
  8
0
100
AcDbSpline
210
0.0
220
0.0
230
1.0
 70
     8
 71
     3
 72
    24
 73
    20
 74
     0
 42
0.000000001
 43
0.0000000001
 40
0.0
 40
0.0
 40
0.0
 40
0.0
 40
0.007045239853724
 40
0.007045239853724
 40
0.0166405949188998
 40
0.0166405949188998
 40
0.0367140942456747
 40
0.0367140942456747
 40
0.0488284899562121
 40
0.0488284899562121
 40
0.0619943402048881
 40
0.0619943402048881
 40
0.0706188779446263
 40
0.0706188779446263
 40
0.0776906910703448
 40
0.0776906910703448
 40
0.0832065316440496
 40
0.0832065316440496
 40
0.0851314111861988
 40
0.0851314111861988
 40
0.0851314111861988
 40
0.0851314111861988
 10
24.56202985674456
 20
-2.00002006197364
 30
0.0
 10
24.54510572274712
 20
-2.000020928437301
 30
0.0
 10
24.52555210341293
 20
-2.000028134291544
 30
0.0
 10
24.47775545399475
 20
-2.000061132070784
 30
0.0
 10
24.44841962904883
 20
-2.000093689688023
 30
0.0
 10
24.35657224064566
 20
-2.000268440249889
 30
0.0
 10
24.29198494486752
 20
-2.000513808507303
 30
0.0
 10
24.19633422826422
 20
-2.000879055387234
 30
0.0
 10
24.16273081690616
 20
-2.000996414973837
 30
0.0
 10
24.09182112291024
 20
-2.001409895074324
 30
0.0
 10
24.0522581531516
 20
-2.001735751882276
 30
0.0
 10
23.98348581651215
 20
-2.002882807507649
 30
0.0
 10
23.95529088128164
 20
-2.003502366164279
 30
0.0
 10
23.90345404926128
 20
-2.005128901289343
 30
0.0
 10
23.87967447366681
 20
-2.006056558887148
 30
0.0
 10
23.8378760676206
 20
-2.00813531466746
 30
0.0
 10
23.81951337903288
 20
-2.009206873093894
 30
0.0
 10
23.79591310634819
 20
-2.010819410463813
 30
0.0
 10
23.78986947331613
 20
-2.011255025615293
 30
0.0
 10
23.78400446671418
 20
-2.011698438791741
 30
0.0
  0
SPLINE
  5
7500
330
74FA
100
AcDbEntity
  8
0
100
AcDbSpline
210
0.0
220
0.0
230
1.0
 70
     8
 71
     3
 72
    20
 73
    16
 74
     0
 42
0.000000001
 43
0.0000000001
 40
0.0641171252976712
 40
0.0641171252976712
 40
0.0641171252976712
 40
0.0641171252976712
 40
0.0663363599186954
 40
0.0663363599186954
 40
0.0719856500398148
 40
0.0719856500398148
 40
0.0726843559293372
 40
0.0726843559293372
 40
0.0728640777395144
 40
0.0728640777395144
 40
0.0730236274815755
 40
0.0730236274815755
 40
0.0731531314274962
 40
0.0731531314274962
 40
0.0733711612821978
 40
0.0733711612821978
 40
0.0733711612821978
 40
0.0733711612821978
 10
22.00192057162102
 20
-3.912392842055191
 30
0.0
 10
22.00176078137858
 20
-3.917494826096476
 30
0.0
 10
22.00160446555267
 20
-3.922755100859742
 30
0.0
 10
22.00107505924485
 20
-3.941895299828718
 30
0.0
 10
22.00073813001309
 20
-3.956122014900811
 30
0.0
 10
22.00038593418891
 20
-3.975345812517815
 30
0.0
 10
22.0003464009107
 20
-3.97757404887625
 30
0.0
 10
22.0002967984861
 20
-3.980480325608612
 30
0.0
 10
22.00028660315457
 20
-3.981083561000968
 30
0.0
 10
22.00026771496914
 20
-3.982212296628675
 30
0.0
 10
22.000258897017
 20
-3.982744048785717
 30
0.0
 10
22.00024368055239
 20
-3.983669438501478
 30
0.0
 10
22.00023707559189
 20
-3.984074069619192
 30
0.0
 10
22.00022051910575
 20
-3.985094654639422
 30
0.0
 10
22.00021119894491
 20
-3.98567623089122
 30
0.0
 10
22.00020329588391
 20
-3.986173058287556
 30
0.0
  0
SPLINE
  5
7501
330
74FA
100
AcDbEntity
  8
0
100
AcDbSpline
210
0.0
220
0.0
230
1.0
 70
     8
 71
     3
 72
    14
 73
    10
 74
     0
 42
0.000000001
 43
0.0000000001
 40
0.1124643911617594
 40
0.1124643911617594
 40
0.1124643911617594
 40
0.1124643911617594
 40
0.1134183545661048
 40
0.1134183545661048
 40
0.1156434618905406
 40
0.1156434618905406
 40
0.1181749293271989
 40
0.1181749293271989
 40
0.1203710291256275
 40
0.1203710291256275
 40
0.1203710291256275
 40
0.1203710291256275
 10
22.00046661805385
 20
-3.966371371387327
 30
0.0
 10
22.00046661803849
 20
-3.96637137233674
 30
0.0
 10
22.00046289803582
 20
-3.96660020525315
 30
0.0
 10
22.00043934083118
 20
-3.968085941869654
 30
0.0
 10
22.00040387864899
 20
-3.970353256409002
 30
0.0
 10
22.00031324416914
 20
-3.976825581388574
 30
0.0
 10
22.000256372393
 20
-3.981257744298562
 30
0.0
 10
22.00015739366293
 20
-3.990423529000878
 30
0.0
 10
22.00011373649936
 20
-3.995073068481011
 30
0.0
 10
22.00007561070031
 20
-4.000000546017827
 30
0.0
  0
LINE
  5
7502
330
74FA
100
AcDbEntity
  8
0
100
AcDbLine
 10
22.00002880813531
 20
-3.989264082803511
 30
0.0
 11
22.00002895001325
 21
-3.989305408335121
 31
0.0
  0
SPLINE
  5
7503
330
74FA
100
AcDbEntity
  8
0
100
AcDbSpline
210
0.0
220
0.0
230
1.0
 70
     8
 71
     3
 72
    12
 73
     8
 74
     0
 42
0.000000001
 43
0.0000000001
 40
0.0101225238895403
 40
0.0101225238895403
 40
0.0101225238895403
 40
0.0101225238895403
 40
0.0121410335300211
 40
0.0121410335300211
 40
0.0133830840932401
 40
0.0133830840932401
 40
0.0141064575993923
 40
0.0141064575993923
 40
0.0141064575993923
 40
0.0141064575993923
 10
21.99998998734454
 20
-3.99841211849865
 30
0.0
 10
21.99998998734456
 20
-3.998412118503297
 30
0.0
 10
21.99999068851493
 20
-3.998522768481085
 30
0.0
 10
21.99999494973991
 20
-3.999182165232615
 30
0.0
 10
21.99999820806065
 20
-3.999684003572942
 30
0.0
 10
22.0000019163048
 20
-4.000251941295681
 30
0.0
 10
22.00000285308914
 20
-4.000394832900327
 30
0.0
 10
22.00000285306549
 20
-4.000394829291186
 30
0.0
  0
SPLINE
  5
7504
330
74FA
100
AcDbEntity
  8
0
100
AcDbSpline
210
0.0
220
0.0
230
1.0
 70
     8
 71
     3
 72
    28
 73
    24
 74
     0
 42
0.000000001
 43
0.0000000001
 40
0.0059924036429317
 40
0.0059924036429317
 40
0.0059924036429317
 40
0.0059924036429317
 40
0.0060018358131735
 40
0.0060018358131735
 40
0.006034371358844
 40
0.006034371358844
 40
0.0061001192257919
 40
0.0061001192257919
 40
0.0063665692734554
 40
0.0063665692734554
 40
0.0733610800877038
 40
0.0733610800877038
 40
0.1461777355563753
 40
0.1461777355563753
 40
0.1822196915715291
 40
0.1822196915715291
 40
0.2005090779547196
 40
0.2005090779547196
 40
0.2098937640457067
 40
0.2098937640457067
 40
0.2150065138765308
 40
0.2150065138765308
 40
0.22042177227822
 40
0.22042177227822
 40
0.22042177227822
 40
0.22042177227822
 10
19.99996683550282
 20
-3.99826242436056
 30
0.0
 10
19.99996641670489
 20
-3.998238334459067
 30
0.0
 10
19.99996598731802
 20
-3.998213634324754
 30
0.0
 10
19.99996403037965
 20
-3.998101057359167
 30
0.0
 10
19.99996237840177
 20
-3.998006008423724
 30
0.0
 10
19.99995717597206
 20
-3.997706616433807
 30
0.0
 10
19.99995334733424
 20
-3.997486198513457
 30
0.0
 10
19.99993419849455
 20
-3.996383278032593
 30
0.0
 10
19.99991873484072
 20
-3.995491004361079
 30
0.0
 10
19.99618180279454
 20
-3.779498378135861
 30
0.0
 10
19.99444383444521
 20
-3.585310893726322
 30
0.0
 10
19.99316940515435
 20
-3.164117847862775
 30
0.0
 10
19.99375519457977
 20
-2.938045375316855
 30
0.0
 10
19.99572386428293
 20
-2.59703892156323
 30
0.0
 10
19.99651060472981
 20
-2.485243704015551
 30
0.0
 10
19.99791998371481
 20
-2.319629948027624
 30
0.0
 10
19.9985217290669
 20
-2.262941079811963
 30
0.0
 10
19.99923838812237
 20
-2.180972857436788
 30
0.0
 10
19.99942028449518
 20
-2.153992794414916
 30
0.0
 10
19.99955633664709
 20
-2.117588906741362
 30
0.0
 10
19.99957946474464
 20
-2.10561084560095
 30
0.0
 10
19.99959432355414
 20
-2.084188249651325
 30
0.0
 10
19.99958391145549
 20
-2.074632509699761
 30
0.0
 10
19.99957228829784
 20
-2.069004766161551
 30
0.0
  0
SPLINE
  5
7505
330
74FA
100
AcDbEntity
  8
0
100
AcDbSpline
210
0.0
220
0.0
230
1.0
 70
     8
 71
     3
 72
    12
 73
     8
 74
     0
 42
0.000000001
 43
0.0000000001
 40
0.0
 40
0.0
 40
0.0
 40
0.0
 40
0.0073680638614213
 40
0.0073680638614213
 40
0.0094714794553281
 40
0.0094714794553281
 40
0.0106892344325262
 40
0.0106892344325262
 40
0.0106892344325262
 40
0.0106892344325262
 10
19.99996053853822
 20
-3.999985503002882
 30
0.0
 10
20.00000120689113
 20
-3.988738678362713
 30
0.0
 10
20.00005705426695
 20
-3.976817397480743
 30
0.0
 10
20.00011475911479
 20
-3.966829073043927
 30
0.0
 10
20.00012596496208
 20
-3.965004429903059
 30
0.0
 10
20.0001362474145
 20
-3.963340749421344
 30
0.0
 10
20.00013843227595
 20
-3.962989239744898
 30
0.0
 10
20.0001384322759
 20
-3.962989239752841
 30
0.0
  0
LINE
  5
7506
330
74FA
100
AcDbEntity
  8
0
100
AcDbLine
 10
-20.0
 20
-2.000000000000007
 30
0.0
 11
-20.0
 21
-2.069004766161643
 31
0.0
  0
SPLINE
  5
7507
330
74FA
100
AcDbEntity
  8
0
100
AcDbSpline
210
0.0
220
0.0
230
1.0
 70
     8
 71
     3
 72
    11
 73
     7
 74
     0
 42
0.000000001
 43
0.0000000001
 40
-1.0
 40
-1.0
 40
-1.0
 40
-1.0
 40
-0.7994286890700036
 40
-0.7994286890700036
 40
-0.7994286890700036
 40
-0.653357377722069
 40
-0.653357377722069
 40
-0.653357377722069
 40
-0.653357377722069
 10
-20.0
 20
-1.99999999999998
 30
0.0
 10
-19.99999961270328
 20
-1.999093543231139
 30
0.0
 10
-20.12633150601012
 20
-1.919863896631738
 30
0.0
 10
-20.33607694564575
 20
-1.79068778619682
 30
0.0
 10
-20.4888295565489
 20
-1.696611899877068
 30
0.0
 10
-20.68837056421021
 20
-1.577391377848694
 30
0.0
 10
-20.91982716790679
 20
-1.445337717163166
 30
0.0
  0
SPLINE
  5
7508
330
74FA
100
AcDbEntity
  8
0
100
AcDbSpline
210
0.0
220
0.0
230
1.0
 70
     8
 71
     3
 72
    40
 73
    36
 74
     0
 42
0.000000001
 43
0.0000000001
 40
0.0
 40
0.0
 40
0.0
 40
0.0
 40
0.0038040597921437
 40
0.0038040597921437
 40
0.0084789254023999
 40
0.0084789254023999
 40
0.0158054477972211
 40
0.0158054477972211
 40
0.0260000339229496
 40
0.0260000339229496
 40
0.0495206342059543
 40
0.0495206342059543
 40
0.1201103978173302
 40
0.1201103978173302
 40
0.1773337563545171
 40
0.1773337563545171
 40
0.1996793205937094
 40
0.1996793205937094
 40
0.2080576294297407
 40
0.2080576294297407
 40
0.2111994533184625
 40
0.2111994533184625
 40
0.2135558715527556
 40
0.2135558715527556
 40
0.21399775788473
 40
0.21399775788473
 40
0.2143300849324674
 40
0.2143300849324674
 40
0.2143843561196671
 40
0.2143843561196671
 40
0.2144316601453652
 40
0.2144316601453652
 40
0.2144792386746886
 40
0.2144792386746886
 40
0.2144971596319177
 40
0.2144971596319177
 40
0.2144971596319177
 40
0.2144971596319177
 10
-19.99957228829784
 20
-2.069004766161643
 30
0.0
 10
-19.99958045322432
 20
-2.072958090513831
 30
0.0
 10
-19.99958825487934
 20
-2.078881092785033
 30
0.0
 10
-19.99959053786114
 20
-2.094285445062681
 30
0.0
 10
-19.99958182785675
 20
-2.104402911695914
 30
0.0
 10
-19.99951287324445
 20
-2.132562809517297
 30
0.0
 10
-19.9994221662479
 20
-2.15217078945733
 30
0.0
 10
-19.99908018252576
 20
-2.201629641620856
 30
0.0
 10
-19.99878019266218
 20
-2.232656804260232
 30
0.0
 10
-19.99777927585662
 20
-2.335149022030437
 30
0.0
 10
-19.99716324842447
 20
-2.406783095797446
 30
0.0
 10
-19.99498744670758
 20
-2.695965521595065
 30
0.0
 10
-19.99378539075279
 20
-2.921302546188397
 30
0.0
 10
-19.99344334744133
 20
-3.312943746688175
 30
0.0
 10
-19.99387955180721
 20
-3.483506423316303
 30
0.0
 10
-19.99604610978058
 20
-3.72404448379767
 30
0.0
 10
-19.9968312050563
 20
-3.792158754529029
 30
0.0
 10
-19.99816331316994
 20
-3.886565427782458
 30
0.0
 10
-19.9985519242381
 20
-3.912373806745424
 30
0.0
 10
-19.99912013919764
 20
-3.947930082132251
 30
0.0
 10
-19.99927855674109
 20
-3.957633749978634
 30
0.0
 10
-19.99956197412903
 20
-3.974638551568599
 30
0.0
 10
-19.99968506330981
 20
-3.981912968912358
 30
0.0
 10
-19.9998352241406
 20
-3.990654824321589
 30
0.0
 10
-19.99985906979378
 20
-3.992039211705977
 30
0.0
 10
-19.99990152975645
 20
-3.994497290532805
 30
0.0
 10
-19.99992010926268
 20
-3.995570674811508
 30
0.0
 10
-19.99994240116113
 20
-3.996855637866369
 30
0.0
 10
-19.99994555603273
 20
-3.997037427337168
 30
0.0
 10
-19.99995141891941
 20
-3.997375135908054
 30
0.0
 10
-19.99995415567152
 20
-3.997532725234274
 30
0.0
 10
-19.9999594383263
 20
-3.997836823656931
 30
0.0
 10
-19.99996202130146
 20
-3.997985465422058
 30
0.0
 10
-19.99996520045298
 20
-3.998168369661519
 30
0.0
 10
-19.9999660370212
 20
-3.998216494434173
 30
0.0
 10
-19.99996683550314
 20
-3.998262424272374
 30
0.0
  0
SPLINE
  5
7509
330
74FA
100
AcDbEntity
  8
0
100
AcDbSpline
210
0.0
220
0.0
230
1.0
 70
     8
 71
     3
 72
    14
 73
    10
 74
     0
 42
0.000000001
 43
0.0000000001
 40
0.007786780782503
 40
0.007786780782503
 40
0.007786780782503
 40
0.007786780782503
 40
0.0083979033289328
 40
0.0083979033289328
 40
0.0105249655039536
 40
0.0105249655039536
 40
0.0138644923571709
 40
0.0138644923571709
 40
0.018480134683472
 40
0.018480134683472
 40
0.018480134683472
 40
0.018480134683472
 10
-20.00013843227587
 20
-3.962989239755254
 30
0.0
 10
-20.00013843227584
 20
-3.962989239760441
 30
0.0
 10
-20.00013788506628
 20
-3.963077842490245
 30
0.0
 10
-20.00013331027563
 20
-3.963815700326636
 30
0.0
 10
-20.0001239404965
 20
-3.965314845143534
 30
0.0
 10
-20.0000936463219
 20
-3.970424767436873
 30
0.0
 10
-20.00006960355266
 20
-3.974738183303757
 30
0.0
 10
-20.00001543374108
 20
-3.985811780901282
 30
0.0
 10
-19.99998601477926
 20
-3.992940053774857
 30
0.0
 10
-19.99996053853821
 20
-3.999985503002879
 30
0.0
  0
LINE
  5
750A
330
74FA
100
AcDbEntity
  8
0
100
AcDbLine
 10
-22.00002899803211
 20
-3.989291181850087
 30
0.0
 11
-22.0000288563605
 21
-3.989249798101801
 31
0.0
  0
SPLINE
  5
750B
330
74FA
100
AcDbEntity
  8
0
100
AcDbSpline
210
0.0
220
0.0
230
1.0
 70
     8
 71
     3
 72
    14
 73
    10
 74
     0
 42
0.000000001
 43
0.0000000001
 40
0.0
 40
0.0
 40
0.0
 40
0.0
 40
0.0032434846756598
 40
0.0032434846756598
 40
0.006013864635587
 40
0.006013864635587
 40
0.0075916569443223
 40
0.0075916569443223
 40
0.0079057527611854
 40
0.0079057527611854
 40
0.0079057527611854
 40
0.0079057527611854
 10
-22.0000756107003
 20
-4.000000546017827
 30
0.0
 10
-22.00013191981933
 20
-3.992723008862423
 30
0.0
 10
-22.00020122245249
 20
-3.986003497415881
 30
0.0
 10
-22.0003291857553
 20
-3.975520321541546
 30
0.0
 10
-22.00038843661241
 20
-3.971430114711644
 30
0.0
 10
-22.00044735462716
 20
-3.967564487898847
 30
0.0
 10
-22.00046151096337
 20
-3.966688239500955
 30
0.0
 10
-22.00046622403315
 20
-3.966395704695036
 30
0.0
 10
-22.00046661805364
 20
-3.966371371400743
 30
0.0
 10
-22.00046661805385
 20
-3.966371371387664
 30
0.0
  0
SPLINE
  5
750C
330
74FA
100
AcDbEntity
  8
0
100
AcDbSpline
210
0.0
220
0.0
230
1.0
 70
     8
 71
     3
 72
    24
 73
    20
 74
     0
 42
0.000000001
 43
0.0000000001
 40
0.0470124644886182
 40
0.0470124644886182
 40
0.0470124644886182
 40
0.0470124644886182
 40
0.0470594863012883
 40
0.0470594863012883
 40
0.0472222671566097
 40
0.0472222671566097
 40
0.047385275662747
 40
0.047385275662747
 40
0.0477156444420293
 40
0.0477156444420293
 40
0.0480404847040689
 40
0.0480404847040689
 40
0.0485975737361795
 40
0.0485975737361795
 40
0.0497869624997528
 40
0.0497869624997528
 40
0.0528454621109783
 40
0.0528454621109783
 40
0.0562813693910081
 40
0.0562813693910081
 40
0.0562813693910081
 40
0.0562813693910081
 10
-22.00020328819319
 20
-3.986173504462714
 30
0.0
 10
-22.00020498471641
 20
-3.986066852215874
 30
0.0
 10
-22.00020673789916
 20
-3.985956866607289
 30
0.0
 10
-22.00021482566604
 20
-3.985450355392718
 30
0.0
 10
-22.00022190424395
 20
-3.985009745230935
 30
0.0
 10
-22.00023728140994
 20
-3.984060982626732
 30
0.0
 10
-22.00024569671115
 20
-3.983545742166724
 30
0.0
 10
-22.00027200251201
 20
-3.981950180891614
 30
0.0
 10
-22.00029116770364
 20
-3.980808390458407
 30
0.0
 10
-22.00032816847533
 20
-3.978644439953672
 30
0.0
 10
-22.00034655085915
 20
-3.977588311878234
 30
0.0
 10
-22.00039589246336
 20
-3.974799056281433
 30
0.0
 10
-22.00042683733761
 20
-3.973098995982303
 30
0.0
 10
-22.00052365233601
 20
-3.96791121914115
 30
0.0
 10
-22.00058996950801
 20
-3.964546877855996
 30
0.0
 10
-22.00083206547618
 20
-3.952823329026822
 30
0.0
 10
-22.0010173682107
 20
-3.944864404171451
 30
0.0
 10
-22.00143573435619
 20
-3.928560255689497
 30
0.0
 10
-22.0016733613725
 20
-3.920275299782879
 30
0.0
 10
-22.00192055535828
 20
-3.912382578980707
 30
0.0
  0
SPLINE
  5
750D
330
74FA
100
AcDbEntity
  8
0
100
AcDbSpline
210
0.0
220
0.0
230
1.0
 70
     8
 71
     3
 72
    22
 73
    18
 74
     0
 42
0.000000001
 43
0.0000000001
 40
0.0476063149336774
 40
0.0476063149336774
 40
0.0476063149336774
 40
0.0476063149336774
 40
0.0508588183431326
 40
0.0508588183431326
 40
0.0564344058105396
 40
0.0564344058105396
 40
0.0648023423673015
 40
0.0648023423673015
 40
0.0767552506802864
 40
0.0767552506802864
 40
0.0917780121746392
 40
0.0917780121746392
 40
0.1072507868843827
 40
0.1072507868843827
 40
0.1198341484912862
 40
0.1198341484912862
 40
0.1326977751179327
 40
0.1326977751179327
 40
0.1326977751179327
 40
0.1326977751179327
 10
-23.7840062207363
 20
-2.0116976113809
 30
0.0
 10
-23.7938839376909
 20
-2.010950824523149
 30
0.0
 10
-23.80427095824372
 20
-2.010228853027514
 30
0.0
 10
-23.83280378297445
 20
-2.008415998507564
 30
0.0
 10
-23.85145782781789
 20
-2.007412645519428
 30
0.0
 10
-23.89787165525915
 20
-2.005293632037164
 30
0.0
 10
-23.92595398961333
 20
-2.004348362005634
 30
0.0
 10
-23.99235680276885
 20
-2.002623639102379
 30
0.0
 10
-24.03061934952743
 20
-2.002057343052358
 30
0.0
 10
-24.11157659549069
 20
-2.001218624424958
 30
0.0
 10
-24.1519171099598
 20
-2.001057299340084
 30
0.0
 10
-24.23944796285213
 20
-2.000709652475251
 30
0.0
 10
-24.28742485034954
 20
-2.000521820028112
 30
0.0
 10
-24.37520939547126
 20
-2.000238129767667
 30
0.0
 10
-24.41494029462782
 20
-2.000146008632376
 30
0.0
 10
-24.49225339939946
 20
-2.000041569053337
 30
0.0
 10
-24.53112874546342
 20
-2.000021644015595
 30
0.0
 10
-24.5620298567446
 20
-2.000020061973642
 30
0.0
  0
LINE
  5
750E
330
74FA
100
AcDbEntity
  8
0
100
AcDbLine
 10
-20.0
 20
-2.000000000000007
 30
0.0
 11
-18.0
 21
-2.000000000000004
 31
0.0
  0
LINE
  5
750F
330
74FA
100
AcDbEntity
  8
0
100
AcDbLine
 10
-19.99999999999998
 20
-86.00000000000001
 30
0.0
 11
-17.99999999999998
 21
-86.00000000000001
 31
0.0
  0
LINE
  5
7510
330
74FA
100
AcDbEntity
  8
0
100
AcDbLine
 10
18.0
 20
-2.000000000000004
 30
0.0
 11
-18.0
 21
-2.000000000000004
 31
0.0
  0
LINE
  5
7511
330
74FA
100
AcDbEntity
  8
0
100
AcDbLine
 10
-17.99999999999998
 20
-86.00000000000001
 30
0.0
 11
17.99999999999998
 21
-86.00000000000001
 31
0.0
  0
CIRCLE
  5
7512
330
74FA
100
AcDbEntity
  8
0
100
AcDbCircle
 10
0.0
 20
-47.99999999999998
 30
0.0
 40
2.5
  0
CIRCLE
  5
7513
330
74FA
100
AcDbEntity
  8
0
100
AcDbCircle
 10
0.0
 20
-67.99999999999998
 30
0.0
 40
2.5
  0
LINE
  5
7514
330
74FA
100
AcDbEntity
  8
0
100
AcDbLine
 10
20.0
 20
-2.000000000000007
 30
0.0
 11
18.0
 21
-2.000000000000004
 31
0.0
  0
LINE
  5
7515
330
74FA
100
AcDbEntity
  8
0
100
AcDbLine
 10
23.99999999999999
 20
0.0
 30
0.0
 11
61.5
 21
0.0
 31
0.0
  0
ARC
  5
7516
330
74FA
100
AcDbEntity
  8
0
100
AcDbCircle
 10
24.0
 20
-4.000000000000004
 30
0.0
 40
3.999999999999999
100
AcDbArc
 50
90.00000000000012
 51
180.0
  0
LINE
  5
7517
330
74FA
100
AcDbEntity
  8
0
100
AcDbLine
 10
19.99999999999998
 20
-86.00000000000003
 30
0.0
 11
19.99999999999999
 21
-46.00000000000003
 31
0.0
  0
LINE
  5
7518
330
74FA
100
AcDbEntity
  8
0
100
AcDbLine
 10
21.99999999999998
 20
-86.00000000000003
 30
0.0
 11
19.99999999999998
 21
-86.00000000000003
 31
0.0
  0
LINE
  5
7519
330
74FA
100
AcDbEntity
  8
0
100
AcDbLine
 10
21.99999999999999
 20
-46.00000000000003
 30
0.0
 11
21.99999999999998
 21
-86.00000000000003
 31
0.0
  0
LINE
  5
751A
330
74FA
100
AcDbEntity
  8
0
100
AcDbLine
 10
19.99999999999999
 20
-46.00000000000001
 30
0.0
 11
21.99999999999999
 21
-46.00000000000001
 31
0.0
  0
LINE
  5
751B
330
74FA
100
AcDbEntity
  8
0
100
AcDbLine
 10
22.0
 20
-4.000000000000003
 30
0.0
 11
21.99999999999999
 21
-46.00000000000001
 31
0.0
  0
LINE
  5
751C
330
74FA
100
AcDbEntity
  8
0
100
AcDbLine
 10
19.99999999999999
 20
-46.00000000000001
 30
0.0
 11
20.0
 21
-4.000000000000003
 31
0.0
  0
LINE
  5
751D
330
74FA
100
AcDbEntity
  8
0
100
AcDbLine
 10
19.99999999999998
 20
-86.00000000000001
 30
0.0
 11
17.99999999999998
 21
-86.00000000000001
 31
0.0
  0
ARC
  5
751E
330
74FA
100
AcDbEntity
  8
0
100
AcDbCircle
 10
24.0
 20
-4.000000000000004
 30
0.0
 40
1.999999999999997
100
AcDbArc
 50
90.00000000000026
 51
180.0
  0
LINE
  5
751F
330
74FA
100
AcDbEntity
  8
0
100
AcDbLine
 10
61.5
 20
0.0
 30
0.0
 11
61.5
 21
-2.000000000000006
 31
0.0
  0
LINE
  5
7520
330
74FA
100
AcDbEntity
  8
0
100
AcDbLine
 10
61.5
 20
-2.000000000000006
 30
0.0
 11
23.99999999999999
 21
-2.000000000000006
 31
0.0
  0
LINE
  5
7521
330
74FA
100
AcDbEntity
  8
0
100
AcDbLine
 10
-61.5
 20
-2.000000000000006
 30
0.0
 11
-23.99999999999999
 21
-2.000000000000006
 31
0.0
  0
LINE
  5
7522
330
74FA
100
AcDbEntity
  8
0
100
AcDbLine
 10
-19.99999999999999
 20
-46.00000000000001
 30
0.0
 11
-20.0
 21
-4.000000000000003
 31
0.0
  0
LINE
  5
7523
330
74FA
100
AcDbEntity
  8
0
100
AcDbLine
 10
-22.0
 20
-4.000000000000003
 30
0.0
 11
-21.99999999999999
 21
-46.00000000000001
 31
0.0
  0
LINE
  5
7524
330
74FA
100
AcDbEntity
  8
0
100
AcDbLine
 10
-23.99999999999999
 20
0.0
 30
0.0
 11
-61.5
 21
0.0
 31
0.0
  0
LINE
  5
7525
330
74FA
100
AcDbEntity
  8
0
100
AcDbLine
 10
-61.5
 20
0.0
 30
0.0
 11
-61.5
 21
-2.000000000000006
 31
0.0
  0
ARC
  5
7526
330
74FA
100
AcDbEntity
  8
0
100
AcDbCircle
 10
-24.0
 20
-4.000000000000004
 30
0.0
 40
1.999999999999997
100
AcDbArc
 50
0.0
 51
89.99999999999975
  0
ARC
  5
7527
330
74FA
100
AcDbEntity
  8
0
100
AcDbCircle
 10
-24.0
 20
-4.000000000000004
 30
0.0
 40
3.999999999999999
100
AcDbArc
 50
0.0
 51
89.99999999999987
  0
LINE
  5
7528
330
74FA
100
AcDbEntity
  8
0
100
AcDbLine
 10
-19.99999999999999
 20
-46.00000000000003
 30
0.0
 11
-19.99999999999998
 21
-86.00000000000003
 31
0.0
  0
LINE
  5
7529
330
74FA
100
AcDbEntity
  8
0
100
AcDbLine
 10
-21.99999999999998
 20
-86.00000000000003
 30
0.0
 11
-21.99999999999999
 21
-46.00000000000003
 31
0.0
  0
LINE
  5
752A
330
74FA
100
AcDbEntity
  8
0
100
AcDbLine
 10
-19.99999999999998
 20
-86.00000000000003
 30
0.0
 11
-21.99999999999998
 21
-86.00000000000003
 31
0.0
  0
LINE
  5
752B
330
74FA
100
AcDbEntity
  8
0
100
AcDbLine
 10
-21.99999999999999
 20
-46.00000000000001
 30
0.0
 11
-19.99999999999999
 21
-46.00000000000001
 31
0.0
  0
ENDBLK
  5
74FC
330
74FA
100
AcDbEntity
  8
0
100
AcDbBlockEnd
  0
BLOCK
  5
752D
330
752C
100
AcDbEntity
  8
0
100
AcDbBlockBegin
  2
SAE300_40_2-Bottom
 70
     0
 10
0.0
 20
0.0
 30
0.0
  3
SAE300_40_2-Bottom
  1

  0
SPLINE
  5
752F
330
752C
100
AcDbEntity
  8
0
100
AcDbSpline
210
0.0
220
0.0
230
1.0
 70
     8
 71
     3
 72
    14
 73
    10
 74
     0
 42
0.000000001
 43
0.0000000001
 40
0.0
 40
0.0
 40
0.0
 40
0.0
 40
0.3435165591346614
 40
0.3435165591346614
 40
0.3435165591346614
 40
0.7569936138580438
 40
0.7569936138580438
 40
0.7569936138580438
 40
1.0
 40
1.0
 40
1.0
 40
1.0
 10
24.60606060606061
 20
2.000000000000004
 30
0.0
 10
24.28490249291364
 20
2.000036880260044
 30
0.0
 10
23.8724590169512
 20
1.99683390332926
 30
0.0
 10
23.47646762712214
 20
1.998675521249973
 30
0.0
 10
22.99982873095135
 20
2.000892202610837
 30
0.0
 10
22.53730090286849
 20
2.001068608701417
 30
0.0
 10
22.26243107013305
 20
2.001123034011684
 30
0.0
 10
22.10088613323887
 20
2.00115502054591
 30
0.0
 10
21.99999576702377
 20
2.00025054924191
 30
0.0
 10
21.99999999948815
 20
1.999999999992554
 30
0.0
  0
LINE
  5
7530
330
752C
100
AcDbEntity
  8
0
100
AcDbLine
 10
24.00221806269487
 20
2.0
 30
0.0
 11
24.00619229309673
 21
2.0
 31
0.0
  0
LINE
  5
7531
330
752C
100
AcDbEntity
  8
0
100
AcDbLine
 10
24.5620298567446
 20
2.0
 30
0.0
 11
24.60606060606062
 21
2.0
 31
0.0
  0
ARC
  5
7532
330
752C
100
AcDbEntity
  8
0
100
AcDbCircle
 10
24.0
 20
4.000000000000004
 30
0.0
 40
2.000000000000001
100
AcDbArc
 50
182.3975787949465
 51
263.8071649175199
  0
ARC
  5
7533
330
752C
100
AcDbEntity
  8
0
100
AcDbCircle
 10
24.0
 20
4.000000000000004
 30
0.0
 40
4.0
100
AcDbArc
 50
219.6927749101243
 51
270.0
  0
LINE
  5
7534
330
752C
100
AcDbEntity
  8
0
100
AcDbLine
 10
24.60606060606063
 20
0.0
 30
0.0
 11
24.0
 21
0.0
 31
0.0
  0
SPLINE
  5
7535
330
752C
100
AcDbEntity
  8
0
100
AcDbSpline
210
0.0
220
0.0
230
1.0
 70
     8
 71
     3
 72
    17
 73
    13
 74
     0
 42
0.000000001
 43
0.0000000001
 40
-1.0
 40
-1.0
 40
-1.0
 40
-1.0
 40
-0.7994286890700036
 40
-0.7994286890700036
 40
-0.7994286890700036
 40
-0.3760960080948636
 40
-0.3760960080948636
 40
-0.3760960080948636
 40
-0.0765284972639215
 40
-0.0765284972639215
 40
-0.0765284972639215
 40
0.0
 40
0.0
 40
0.0
 40
0.0
 10
20.0
 20
1.99999999999998
 30
0.0
 10
19.99999961270328
 20
1.999093543231139
 30
0.0
 10
20.12633150601012
 20
1.919863896631738
 30
0.0
 10
20.33607694564575
 20
1.79068778619682
 30
0.0
 10
20.77877285699794
 20
1.518044261583071
 30
0.0
 10
21.61445008347132
 20
1.034207947866221
 30
0.0
 10
22.48107962104626
 20
0.6388614064267327
 30
0.0
 10
23.09434210951248
 20
0.3590980320001673
 30
0.0
 10
23.71765761687687
 20
0.1217220476501663
 30
0.0
 10
24.23393420695973
 20
0.0342615816111249
 30
0.0
 10
24.3658239152328
 20
0.0119186445636314
 30
0.0
 10
24.4883202610569
 20
0.000004545257406
 30
0.0
 10
24.60606060611089
 20
0.0000000001152105
 30
0.0
  0
LINE
  5
7536
330
752C
100
AcDbEntity
  8
0
100
AcDbLine
 10
24.60606060606063
 20
2.000000000000001
 30
0.0
 11
24.60606060606063
 21
0.0
 31
0.0
  0
SPLINE
  5
7537
330
752C
100
AcDbEntity
  8
0
100
AcDbSpline
210
0.0
220
0.0
230
1.0
 70
     8
 71
     3
 72
    30
 73
    26
 74
     0
 42
0.000000001
 43
0.0000000001
 40
0.036696001335945
 40
0.036696001335945
 40
0.036696001335945
 40
0.036696001335945
 40
0.0387040495327924
 40
0.0387040495327924
 40
0.0416753918220239
 40
0.0416753918220239
 40
0.0443408604044685
 40
0.0443408604044685
 40
0.0471659016238478
 40
0.0471659016238478
 40
0.050858818343228
 40
0.050858818343228
 40
0.0564344058107109
 40
0.0564344058107109
 40
0.0648023423675445
 40
0.0648023423675445
 40
0.076755250680615
 40
0.076755250680615
 40
0.0917780121750242
 40
0.0917780121750242
 40
0.1072507868845215
 40
0.1072507868845215
 40
0.1198341484913533
 40
0.1198341484913533
 40
0.1326977751179285
 40
0.1326977751179285
 40
0.1326977751179285
 40
0.1326977751179285
 10
23.72500073281558
 20
2.017018519314793
 30
0.0
 10
23.72500072908056
 20
2.017018519729095
 30
0.0
 10
23.72572952029346
 20
2.016937352501451
 30
0.0
 10
23.72932838811602
 20
2.016551818653236
 30
0.0
 10
23.73317327178435
 20
2.016146672994118
 30
0.0
 10
23.74334857985065
 20
2.015145763277529
 30
0.0
 10
23.74944855201347
 20
2.014569429662346
 30
0.0
 10
23.76345433886976
 20
2.013331244276522
 30
0.0
 10
23.77157152805233
 20
2.012655394130304
 30
0.0
 10
23.79107158254678
 20
2.011147932005438
 30
0.0
 10
23.80284752072503
 20
2.01031929220288
 30
0.0
 10
23.83280378297571
 20
2.008415998507491
 30
0.0
 10
23.85145782781942
 20
2.007412645519351
 30
0.0
 10
23.89787165526117
 20
2.005293632037086
 30
0.0
 10
23.92595398961558
 20
2.004348362005565
 30
0.0
 10
23.99235680277154
 20
2.002623639102329
 30
0.0
 10
24.03061934953033
 20
2.002057343052319
 30
0.0
 10
24.11157659549375
 20
2.001218624424939
 30
0.0
 10
24.15191710996289
 20
2.00105729934007
 30
0.0
 10
24.23944796285494
 20
2.000709652475241
 30
0.0
 10
24.28742485035165
 20
2.000521820028106
 30
0.0
 10
24.37520939547239
 20
2.000238129767665
 30
0.0
 10
24.41494029462871
 20
2.000146008632374
 30
0.0
 10
24.49225339939989
 20
2.000041569053336
 30
0.0
 10
24.53112874546363
 20
2.000021644015594
 30
0.0
 10
24.5620298567446
 20
2.000020061973641
 30
0.0
  0
SPLINE
  5
7538
330
752C
100
AcDbEntity
  8
0
100
AcDbSpline
210
0.0
220
0.0
230
1.0
 70
     8
 71
     3
 72
     8
 73
     4
 74
     0
 42
0.000000001
 43
0.0000000001
 40
0.0
 40
0.0
 40
0.0
 40
0.0
 40
0.0021922129172508
 40
0.0021922129172508
 40
0.0021922129172508
 40
0.0021922129172508
 10
22.00007561070031
 20
4.000000546017827
 30
0.0
 10
22.00011366902044
 20
3.995081789632819
 30
0.0
 10
22.00015752102086
 20
3.990423534197862
 30
0.0
 10
22.00020349201442
 20
3.986165730169681
 30
0.0
  0
SPLINE
  5
7539
330
752C
100
AcDbEntity
  8
0
100
AcDbSpline
210
0.0
220
0.0
230
1.0
 70
     8
 71
     3
 72
    42
 73
    38
 74
     0
 42
0.000000001
 43
0.0000000001
 40
0.0208995100036126
 40
0.0208995100036126
 40
0.0208995100036126
 40
0.0208995100036126
 40
0.0215652950132511
 40
0.0215652950132511
 40
0.0272926507004381
 40
0.0272926507004381
 40
0.0444615055527667
 40
0.0444615055527667
 40
0.0458716637237401
 40
0.0458716637237401
 40
0.0463959748884883
 40
0.0463959748884883
 40
0.0467402725462001
 40
0.0467402725462001
 40
0.0470594862931136
 40
0.0470594862931136
 40
0.0472222671476175
 40
0.0472222671476175
 40
0.0473852756535768
 40
0.0473852756535768
 40
0.0477156444334809
 40
0.0477156444334809
 40
0.0480404846954457
 40
0.0480404846954457
 40
0.0485975737152445
 40
0.0485975737152445
 40
0.0497869624651765
 40
0.0497869624651765
 40
0.052845462002004
 40
0.052845462002004
 40
0.0608569442810416
 40
0.0608569442810416
 40
0.0725270544885228
 40
0.0725270544885228
 40
0.0777168334061387
 40
0.0777168334061387
 40
0.0804599345357199
 40
0.0804599345357199
 40
0.0804599345357199
 40
0.0804599345357199
 10
22.00005494500381
 20
3.996550139374564
 30
0.0
 10
22.00005766156496
 20
3.996319345006451
 30
0.0
 10
22.00006027844562
 20
3.996099316546494
 30
0.0
 10
22.00008432070825
 20
3.994095289222333
 30
0.0
 10
22.00009667717974
 20
3.993179402817101
 30
0.0
 10
22.00011457606373
 20
3.991839500312535
 30
0.0
 10
22.00005184384246
 20
3.996173196199375
 30
0.0
 10
22.00012103904581
 20
3.991508538519143
 30
0.0
 10
22.00012746597245
 20
3.991074889288532
 30
0.0
 10
22.00014525703529
 20
3.989901323049562
 30
0.0
 10
22.0001510518432
 20
3.989520423886837
 30
0.0
 10
22.00016443235853
 20
3.988650911041333
 30
0.0
 10
22.00017075323627
 20
3.988241896532824
 30
0.0
 10
22.00018667832962
 20
3.987222674140372
 30
0.0
 10
22.00019624506309
 20
3.986613999685855
 30
0.0
 10
22.00021482566543
 20
3.985450355431881
 30
0.0
 10
22.00022190424267
 20
3.985009745311088
 30
0.0
 10
22.00023728140849
 20
3.984060982716651
 30
0.0
 10
22.00024569670956
 20
3.983545742263694
 30
0.0
 10
22.00027200251034
 20
3.981950180991811
 30
0.0
 10
22.00029116770202
 20
3.980808390554511
 30
0.0
 10
22.00032816847373
 20
3.978644440046013
 30
0.0
 10
22.00034655085759
 20
3.977588311967704
 30
0.0
 10
22.0003958924611
 20
3.974799056407726
 30
0.0
 10
22.00042683733448
 20
3.973098996154109
 30
0.0
 10
22.00052365233144
 20
3.967911219379042
 30
0.0
 10
22.00058996950265
 20
3.964546878125104
 30
0.0
 10
22.00083206546552
 20
3.952823329518412
 30
0.0
 10
22.00101736819505
 20
3.944864404836102
 30
0.0
 10
22.00173049037566
 20
3.917073317709127
 30
0.0
 10
22.00233445984777
 20
3.898814162695138
 30
0.0
 10
22.00383645535783
 20
3.860103825283609
 30
0.0
 10
22.00474895115045
 20
3.842295195759424
 30
0.0
 10
22.00559432142314
 20
3.826960735124579
 30
0.0
 10
22.00582699314639
 20
3.822999217359222
 30
0.0
 10
22.00603368918109
 20
3.819550803341993
 30
0.0
 10
22.00607492124288
 20
3.818880539278732
 30
0.0
 10
22.00607492126392
 20
3.818880538935628
 30
0.0
  0
SPLINE
  5
753A
330
752C
100
AcDbEntity
  8
0
100
AcDbSpline
210
0.0
220
0.0
230
1.0
 70
     8
 71
     3
 72
     8
 73
     4
 74
     0
 42
0.000000001
 43
0.0000000001
 40
0.0
 40
0.0
 40
0.0
 40
0.0
 40
0.0035844670240401
 40
0.0035844670240401
 40
0.0035844670240401
 40
0.0035844670240401
 10
22.00006818308745
 20
3.999999804535634
 30
0.0
 10
22.00004435171729
 20
3.993919444581813
 30
0.0
 10
22.00002088735831
 20
3.987176465214208
 30
0.0
 10
22.00000004833698
 20
3.980382203417132
 30
0.0
  0
CIRCLE
  5
753B
330
752C
100
AcDbEntity
  8
0
100
AcDbCircle
 10
0.0
 20
67.99999999999998
 30
0.0
 40
2.5
  0
CIRCLE
  5
753C
330
752C
100
AcDbEntity
  8
0
100
AcDbCircle
 10
0.0
 20
47.99999999999998
 30
0.0
 40
2.5
  0
LINE
  5
753D
330
752C
100
AcDbEntity
  8
0
100
AcDbLine
 10
18.0
 20
2.000000000000004
 30
0.0
 11
-18.0
 21
2.000000000000004
 31
0.0
  0
LINE
  5
753E
330
752C
100
AcDbEntity
  8
0
100
AcDbLine
 10
17.99999999999998
 20
86.00000000000001
 30
0.0
 11
-17.99999999999998
 21
86.00000000000001
 31
0.0
  0
SPLINE
  5
753F
330
752C
100
AcDbEntity
  8
0
100
AcDbSpline
210
0.0
220
0.0
230
1.0
 70
     8
 71
     3
 72
    17
 73
    13
 74
     0
 42
0.000000001
 43
0.0000000001
 40
-1.0
 40
-1.0
 40
-1.0
 40
-1.0
 40
-0.7994286890700036
 40
-0.7994286890700036
 40
-0.7994286890700036
 40
-0.3760960080948636
 40
-0.3760960080948636
 40
-0.3760960080948636
 40
-0.0765284972639215
 40
-0.0765284972639215
 40
-0.0765284972639215
 40
0.0
 40
0.0
 40
0.0
 40
0.0
 10
-20.0
 20
1.99999999999998
 30
0.0
 10
-19.99999961270328
 20
1.999093543231139
 30
0.0
 10
-20.12633150601012
 20
1.919863896631738
 30
0.0
 10
-20.33607694564575
 20
1.79068778619682
 30
0.0
 10
-20.77877285699794
 20
1.518044261583071
 30
0.0
 10
-21.61445008347132
 20
1.034207947866221
 30
0.0
 10
-22.48107962104626
 20
0.6388614064267327
 30
0.0
 10
-23.09434210951248
 20
0.3590980320001673
 30
0.0
 10
-23.71765761687687
 20
0.1217220476501663
 30
0.0
 10
-24.23393420695973
 20
0.0342615816111249
 30
0.0
 10
-24.3658239152328
 20
0.0119186445636314
 30
0.0
 10
-24.4883202610569
 20
0.000004545257406
 30
0.0
 10
-24.60606060611089
 20
0.0000000001152105
 30
0.0
  0
LINE
  5
7540
330
752C
100
AcDbEntity
  8
0
100
AcDbLine
 10
-24.0
 20
0.0
 30
0.0
 11
-24.60606060606063
 21
0.0
 31
0.0
  0
ARC
  5
7541
330
752C
100
AcDbEntity
  8
0
100
AcDbCircle
 10
-24.0
 20
4.000000000000004
 30
0.0
 40
4.0
100
AcDbArc
 50
270.0000000000001
 51
320.3072250898757
  0
ARC
  5
7542
330
752C
100
AcDbEntity
  8
0
100
AcDbCircle
 10
-24.0
 20
4.000000000000004
 30
0.0
 40
2.000000000000001
100
AcDbArc
 50
276.1928350824778
 51
357.6024212050478
  0
LINE
  5
7543
330
752C
100
AcDbEntity
  8
0
100
AcDbLine
 10
-24.60606060606062
 20
2.0
 30
0.0
 11
-24.56202985674461
 21
2.0
 31
0.0
  0
LINE
  5
7544
330
752C
100
AcDbEntity
  8
0
100
AcDbLine
 10
-24.0061922930969
 20
2.0
 30
0.0
 11
-24.00221806269478
 21
2.0
 31
0.0
  0
SPLINE
  5
7545
330
752C
100
AcDbEntity
  8
0
100
AcDbSpline
210
0.0
220
0.0
230
1.0
 70
     8
 71
     3
 72
    14
 73
    10
 74
     0
 42
0.000000001
 43
0.0000000001
 40
0.0
 40
0.0
 40
0.0
 40
0.0
 40
0.3435165591346614
 40
0.3435165591346614
 40
0.3435165591346614
 40
0.7569936138580438
 40
0.7569936138580438
 40
0.7569936138580438
 40
1.0
 40
1.0
 40
1.0
 40
1.0
 10
-24.60606060606061
 20
2.000000000000004
 30
0.0
 10
-24.28490249291364
 20
2.000036880260044
 30
0.0
 10
-23.8724590169512
 20
1.99683390332926
 30
0.0
 10
-23.47646762712214
 20
1.998675521249973
 30
0.0
 10
-22.99982873095135
 20
2.000892202610837
 30
0.0
 10
-22.53730090286849
 20
2.001068608701417
 30
0.0
 10
-22.26243107013305
 20
2.001123034011684
 30
0.0
 10
-22.10088613323887
 20
2.00115502054591
 30
0.0
 10
-21.99999576702377
 20
2.00025054924191
 30
0.0
 10
-21.99999999948815
 20
1.999999999992554
 30
0.0
  0
LINE
  5
7546
330
752C
100
AcDbEntity
  8
0
100
AcDbLine
 10
-24.60606060606063
 20
0.0
 30
0.0
 11
-24.60606060606063
 21
2.000000000000001
 31
0.0
  0
SPLINE
  5
7547
330
752C
100
AcDbEntity
  8
0
100
AcDbSpline
210
0.0
220
0.0
230
1.0
 70
     8
 71
     3
 72
    10
 73
     6
 74
     0
 42
0.000000001
 43
0.0000000001
 40
0.0194209731569095
 40
0.0194209731569095
 40
0.0194209731569095
 40
0.0194209731569095
 40
0.0196622419431344
 40
0.0196622419431344
 40
0.0230051729618413
 40
0.0230051729618413
 40
0.0230051729618413
 40
0.0230051729618413
 10
-22.00000000127189
 20
3.980395661608162
 30
0.0
 10
-22.00000140351045
 20
3.980852841232165
 30
0.0
 10
-22.00000281603951
 20
3.98131017273848
 30
0.0
 10
-22.00002398161064
 20
3.988091083066432
 30
0.0
 10
-22.00004595757218
 20
3.994329164030769
 30
0.0
 10
-22.00006818308744
 20
3.999999804535634
 30
0.0
  0
SPLINE
  5
7548
330
752C
100
AcDbEntity
  8
0
100
AcDbSpline
210
0.0
220
0.0
230
1.0
 70
     8
 71
     3
 72
    38
 73
    34
 74
     0
 42
0.000000001
 43
0.0000000001
 40
0.0399336669910743
 40
0.0399336669910743
 40
0.0399336669910743
 40
0.0399336669910743
 40
0.046987759281788
 40
0.046987759281788
 40
0.0558887431919967
 40
0.0558887431919967
 40
0.066336359921876
 40
0.066336359921876
 40
0.0719856500444454
 40
0.0719856500444454
 40
0.0726843559306594
 40
0.0726843559306594
 40
0.0728640777394311
 40
0.0728640777394311
 40
0.0730236274830442
 40
0.0730236274830442
 40
0.0731531314281559
 40
0.0731531314281559
 40
0.0734162155835535
 40
0.0734162155835535
 40
0.0736759486768811
 40
0.0736759486768811
 40
0.0740295768864243
 40
0.0740295768864243
 40
0.074710876704976
 40
0.074710876704976
 40
0.0763270283830007
 40
0.0763270283830007
 40
0.0811704854816092
 40
0.0811704854816092
 40
0.0956913220153532
 40
0.0956913220153532
 40
0.0994858058271036
 40
0.0994858058271036
 40
0.0994858058271036
 40
0.0994858058271036
 10
-22.00607492126395
 20
3.818880538935442
 30
0.0
 10
-22.00607492126678
 20
3.818880538889246
 30
0.0
 10
-22.00578748915874
 20
3.823572110495801
 30
0.0
 10
-22.00504768936331
 20
3.836773053275092
 30
0.0
 10
-22.00444215035044
 20
3.848146501707748
 30
0.0
 10
-22.00300543882767
 20
3.880404143743934
 30
0.0
 10
-22.00215808361066
 20
3.902739548290248
 30
0.0
 10
-22.00107505924425
 20
3.941895299852202
 30
0.0
 10
-22.0007381300123
 20
3.956122014934893
 30
0.0
 10
-22.00038593418813
 20
3.975345812561315
 30
0.0
 10
-22.00034640091015
 20
3.977574048908176
 30
0.0
 10
-22.00029679848582
 20
3.980480325625751
 30
0.0
 10
-22.00028660315437
 20
3.981083561012341
 30
0.0
 10
-22.00026771496894
 20
3.982212296640541
 30
0.0
 10
-22.00025889701684
 20
3.982744048796051
 30
0.0
 10
-22.0002436805522
 20
3.983669438512812
 30
0.0
 10
-22.00023707559128
 20
3.984074069655715
 30
0.0
 10
-22.00021837272145
 20
3.985226963369333
 30
0.0
 10
-22.00020742276484
 20
3.985912209638779
 30
0.0
 10
-22.00018981506269
 20
3.98702293018446
 30
0.0
 10
-22.00018272838961
 20
3.987474949814264
 30
0.0
 10
-22.00016865651977
 20
3.988377090281331
 30
0.0
 10
-22.00016246630875
 20
3.988778267179819
 30
0.0
 10
-22.0001472515133
 20
3.989768420212257
 30
0.0
 10
-22.00014072337244
 20
3.990199595303485
 30
0.0
 10
-22.00012271297209
 20
3.991392637150519
 30
0.0
 10
-22.00011664020775
 20
3.99180426695806
 30
0.0
 10
-22.00009685267694
 20
3.993143689853256
 30
0.0
 10
-22.0000943890807
 20
3.993322807885558
 30
0.0
 10
-22.00009023560813
 20
3.993612486016373
 30
0.0
 10
-22.00012025262437
 20
3.991345317052068
 30
0.0
 10
-22.00008240237883
 20
3.994287389054589
 30
0.0
 10
-22.00007025673367
 20
3.995246987860924
 30
0.0
 10
-22.00005476880315
 20
3.996562815830667
 30
0.0
  0
SPLINE
  5
7549
330
752C
100
AcDbEntity
  8
0
100
AcDbSpline
210
0.0
220
0.0
230
1.0
 70
     8
 71
     3
 72
     8
 73
     4
 74
     0
 42
0.000000001
 43
0.0000000001
 40
0.1181762712972023
 40
0.1181762712972023
 40
0.1181762712972023
 40
0.1181762712972023
 40
0.1203710291436923
 40
0.1203710291436923
 40
0.1203710291436923
 40
0.1203710291436923
 10
-22.00020328803037
 20
3.986173546976191
 30
0.0
 10
-22.00015733998629
 20
3.9904292254389
 30
0.0
 10
-22.00011371320216
 20
3.995076079472545
 30
0.0
 10
-22.00007561070032
 20
4.000000546017827
 30
0.0
  0
SPLINE
  5
754A
330
752C
100
AcDbEntity
  8
0
100
AcDbSpline
210
0.0
220
0.0
230
1.0
 70
     8
 71
     3
 72
    32
 73
    28
 74
     0
 42
0.000000001
 43
0.0000000001
 40
0.0
 40
0.0
 40
0.0
 40
0.0
 40
0.0070452398538519
 40
0.0070452398538519
 40
0.0166405949191239
 40
0.0166405949191239
 40
0.0367140942461794
 40
0.0367140942461794
 40
0.0488284899568475
 40
0.0488284899568475
 40
0.0619943402031512
 40
0.0619943402031512
 40
0.0706188779429287
 40
0.0706188779429287
 40
0.0776906910689043
 40
0.0776906910689043
 40
0.0832065316430065
 40
0.0832065316430065
 40
0.0869816428326923
 40
0.0869816428326923
 40
0.0893395345113333
 40
0.0893395345113333
 40
0.0926179312804196
 40
0.0926179312804196
 40
0.0952642665622897
 40
0.0952642665622897
 40
0.0960437177919017
 40
0.0960437177919017
 40
0.0960437177919017
 40
0.0960437177919017
 10
-24.56202985674461
 20
2.00002006197364
 30
0.0
 10
-24.54510572274685
 20
2.000020928437301
 30
0.0
 10
-24.5255521034123
 20
2.000028134291545
 30
0.0
 10
-24.47775545399339
 20
2.000061132070785
 30
0.0
 10
-24.44841962904711
 20
2.000093689688026
 30
0.0
 10
-24.35657224064269
 20
2.000268440249898
 30
0.0
 10
-24.29198494486366
 20
2.000513808507317
 30
0.0
 10
-24.19633422825951
 20
2.000879055387252
 30
0.0
 10
-24.1627308169014
 20
2.000996414973857
 30
0.0
 10
-24.09182112291141
 20
2.001409895074328
 30
0.0
 10
-24.05225815316026
 20
2.001735751882224
 30
0.0
 10
-23.98348581652903
 20
2.002882807507305
 30
0.0
 10
-23.95529088129867
 20
2.00350236616385
 30
0.0
 10
-23.90345404927762
 20
2.005128901288743
 30
0.0
 10
-23.87967447368236
 20
2.006056558886479
 30
0.0
 10
-23.8378760676338
 20
2.008135314666721
 30
0.0
 10
-23.81951337904462
 20
2.009206873093162
 30
0.0
 10
-23.79004459219124
 20
2.011220388813059
 30
0.0
 10
-23.77830835328769
 20
2.012109549264629
 30
0.0
 10
-23.76105715756433
 20
2.013538564148449
 30
0.0
 10
-23.75481154103698
 20
2.014087788310672
 30
0.0
 10
-23.74169544417049
 20
2.015295134090666
 30
0.0
 10
-23.73541374732051
 20
2.015923299456702
 30
0.0
 10
-23.72806571936728
 20
2.016683001038029
 30
0.0
 10
-23.72605888497091
 20
2.016902319444839
 30
0.0
 10
-23.72510873457132
 20
2.017006531576836
 30
0.0
 10
-23.72500073281617
 20
2.017018519314731
 30
0.0
 10
-23.72500073281651
 20
2.017018519314693
 30
0.0
  0
LINE
  5
754B
330
752C
100
AcDbEntity
  8
0
100
AcDbLine
 10
-22.0
 20
2.000000000000011
 30
0.0
 11
-18.0
 21
2.000000000000004
 31
0.0
  0
LINE
  5
754C
330
752C
100
AcDbEntity
  8
0
100
AcDbLine
 10
-17.99999999999998
 20
86.00000000000001
 30
0.0
 11
-21.99999999999999
 21
86.00000000000001
 31
0.0
  0
LINE
  5
754D
330
752C
100
AcDbEntity
  8
0
100
AcDbLine
 10
-21.99999999999999
 20
2.000000000000011
 30
0.0
 11
-21.99999999999999
 21
86.00000000000001
 31
0.0
  0
LINE
  5
754E
330
752C
100
AcDbEntity
  8
0
100
AcDbLine
 10
22.0
 20
2.000000000000011
 30
0.0
 11
18.0
 21
2.000000000000004
 31
0.0
  0
LINE
  5
754F
330
752C
100
AcDbEntity
  8
0
100
AcDbLine
 10
21.99999999999999
 20
2.000000000000011
 30
0.0
 11
21.99999999999999
 21
86.00000000000001
 31
0.0
  0
LINE
  5
7550
330
752C
100
AcDbEntity
  8
0
100
AcDbLine
 10
17.99999999999998
 20
86.00000000000001
 30
0.0
 11
21.99999999999999
 21
86.00000000000001
 31
0.0
  0
LINE
  5
7551
330
752C
100
AcDbEntity
  8
0
100
AcDbLine
 10
61.50000000000005
 20
0.0
 30
0.0
 11
24.60606060606063
 21
0.0
 31
0.0
  0
LINE
  5
7552
330
752C
100
AcDbEntity
  8
0
100
AcDbLine
 10
61.50000000000005
 20
1.999999999999992
 30
0.0
 11
61.50000000000005
 21
0.0
 31
0.0
  0
LINE
  5
7553
330
752C
100
AcDbEntity
  8
0
100
AcDbLine
 10
24.60606060606062
 20
2.000000000000001
 30
0.0
 11
61.50000000000005
 21
1.999999999999992
 31
0.0
  0
LINE
  5
7554
330
752C
100
AcDbEntity
  8
0
100
AcDbLine
 10
-61.50000000000005
 20
1.999999999999992
 30
0.0
 11
-24.60606060606062
 21
2.000000000000001
 31
0.0
  0
LINE
  5
7555
330
752C
100
AcDbEntity
  8
0
100
AcDbLine
 10
-61.50000000000005
 20
0.0
 30
0.0
 11
-61.50000000000005
 21
1.999999999999992
 31
0.0
  0
LINE
  5
7556
330
752C
100
AcDbEntity
  8
0
100
AcDbLine
 10
-24.60606060606063
 20
0.0
 30
0.0
 11
-61.50000000000005
 21
0.0
 31
0.0
  0
ENDBLK
  5
752E
330
752C
100
AcDbEntity
  8
0
100
AcDbBlockEnd
  0
BLOCK
  5
7558
330
7557
100
AcDbEntity
  8
0
100
AcDbBlockBegin
  2
SAE300_40_2-ISO
 70
     0
 10
0.0
 20
0.0
 30
0.0
  3
SAE300_40_2-ISO
  1

  0
LINE
  5
755A
330
7557
100
AcDbEntity
  8
0
100
AcDbLine
 10
44.32026834360022
 20
-28.30045548249588
 30
0.0
 11
44.0682956789428
 21
-28.44593196826426
 31
0.0
  0
SPLINE
  5
755B
330
7557
100
AcDbEntity
  8
0
100
AcDbSpline
210
0.0
220
0.0
230
1.0
 70
     8
 71
     3
 72
    14
 73
    10
 74
     0
 42
0.000000001
 43
0.0000000001
 40
0.0
 40
0.0
 40
0.0
 40
0.0
 40
0.3435165591346614
 40
0.3435165591346614
 40
0.3435165591346614
 40
0.7569936138580438
 40
0.7569936138580438
 40
0.7569936138580438
 40
1.0
 40
1.0
 40
1.0
 40
1.0
 10
46.16303147032879
 20
-27.27210278113805
 30
0.0
 10
45.93591231240752
 20
-27.35330128094548
 30
0.0
 10
45.64653558040607
 20
-27.36912362737307
 30
0.0
 10
45.36522516284637
 20
-27.39699668601799
 30
0.0
 10
45.02662313676474
 20
-27.43054636473992
 30
0.0
 10
44.69944183509697
 20
-27.48215465120174
 30
0.0
 10
44.50504102792018
 20
-27.70755508041034
 30
0.0
 10
44.39078888968069
 20
-27.84002614043922
 30
0.0
 10
44.32008818536604
 20
-28.00806290147367
 30
0.0
 10
44.32026834324354
 20
-28.3004554809343
 30
0.0
  0
LINE
  5
755C
330
7557
100
AcDbEntity
  8
0
100
AcDbLine
 10
45.73448190597331
 20
-27.02467957479632
 30
0.0
 11
46.1630314703288
 21
-27.27210278113806
 31
0.0
  0
ELLIPSE
  5
755D
330
7557
100
AcDbEntity
  8
0
100
AcDbEllipse
 10
44.32026834360022
 20
-27.84117615572405
 30
0.0
 11
2.000000000000001
 21
-0.0000000000001193
 31
0.0
210
0.0
220
0.0
230
1.0
 40
0.5773502691896258
 41
0.7853981633976899
 42
2.356194490192605
  0
LINE
  5
755E
330
7557
100
AcDbEntity
  8
0
100
AcDbLine
 10
42.90605478122711
 20
-28.25319602769992
 30
0.0
 11
42.90605478122711
 21
-27.02467957479632
 31
0.0
  0
LINE
  5
755F
330
7557
100
AcDbEntity
  8
0
100
AcDbLine
 10
42.90605478122711
 20
-28.36364249456011
 30
0.0
 11
42.90605478122711
 21
-28.25319602769992
 31
0.0
  0
LINE
  5
7560
330
7557
100
AcDbEntity
  8
0
100
AcDbLine
 10
42.90605478122711
 20
-29.1169520634236
 30
0.0
 11
42.90605478122711
 21
-28.36364249456011
 31
0.0
  0
LINE
  5
7561
330
7557
100
AcDbEntity
  8
0
100
AcDbLine
 10
44.0682956789428
 20
-28.44593196826426
 30
0.0
 11
42.90605478122711
 21
-29.1169520634236
 31
0.0
  0
ELLIPSE
  5
7562
330
7557
100
AcDbEntity
  8
0
100
AcDbEllipse
 10
-17.90512840081595
 20
-64.2263050433158
 30
0.0
 11
-2.5
 21
-0.0000000000001495
 31
0.0
210
0.0
220
0.0
230
1.0
 40
0.5773502691896257
 41
4.111124763705442
 42
5.681921090500218
  0
LINE
  5
7563
330
7557
100
AcDbEntity
  8
0
100
AcDbLine
 10
-17.90512840081599
 20
-78.92324350001487
 30
0.0
 11
-43.36097252353167
 21
-64.22630504331582
 31
0.0
  0
LINE
  5
7564
330
7557
100
AcDbEntity
  8
0
100
AcDbLine
 10
18.75891049607517
 20
-29.87253026692948
 30
0.0
 11
17.90927777391393
 21
-29.38199458607737
 31
0.0
  0
LINE
  5
7565
330
7557
100
AcDbEntity
  8
0
100
AcDbLine
 10
-43.36097252353167
 20
-62.59331188146036
 30
0.0
 11
-17.90512840081599
 21
-77.29025033815942
 31
0.0
  0
ELLIPSE
  5
7566
330
7557
100
AcDbEntity
  8
0
100
AcDbEllipse
 10
-17.90512840081595
 20
-62.59331188146035
 30
0.0
 11
-2.5
 21
0.0000000000001492
 31
0.0
210
0.0
220
0.0
230
1.0
 40
0.5773502691896257
 41
4.015739147173699
 42
8.455245850653728
  0
LINE
  5
7567
330
7557
100
AcDbEntity
  8
0
100
AcDbLine
 10
44.3202683436002
 20
-42.99739393919494
 30
0.0
 11
44.32026834360022
 21
-28.30045548249588
 31
0.0
  0
ELLIPSE
  5
7568
330
7557
100
AcDbEntity
  8
0
100
AcDbEllipse
 10
41.49184121885402
 20
-41.36440077733948
 30
0.0
 11
1.999999999999997
 21
-3.464101615137756
 31
0.0
210
0.0
220
0.0
230
1.0
 40
0.5773502691896248
 41
0.0
 42
0.7853981633974494
  0
LINE
  5
7569
330
7557
100
AcDbEntity
  8
0
100
AcDbLine
 10
-17.90512840081599
 20
-77.29025033815942
 30
0.0
 11
-16.4909148384429
 21
-76.47375375723171
 31
0.0
  0
LINE
  5
756A
330
7557
100
AcDbEntity
  8
0
100
AcDbLine
 10
44.3202683436002
 20
-42.99739393919494
 30
0.0
 11
-15.0767012760698
 21
-77.29025033815942
 31
0.0
  0
ELLIPSE
  5
756B
330
7557
100
AcDbEntity
  8
0
100
AcDbEllipse
 10
-17.90512840081599
 20
-75.65725717630397
 30
0.0
 11
2.000000000000001
 21
-3.464101615137756
 31
0.0
210
0.0
220
0.0
230
1.0
 40
0.5773502691896258
 41
5.497787143782137
 42
7.068583470577033
  0
LINE
  5
756C
330
7557
100
AcDbEntity
  8
0
100
AcDbLine
 10
72.2509862004689
 20
-17.48187578520353
 30
0.0
 11
73.66519976284199
 21
-16.66537920427581
 31
0.0
  0
LINE
  5
756D
330
7557
100
AcDbEntity
  8
0
100
AcDbLine
 10
46.1630314703288
 20
-27.27210278113806
 30
0.0
 11
72.2509862004689
 21
-17.48187578520353
 31
0.0
  0
ELLIPSE
  5
756E
330
7557
100
AcDbEntity
  8
0
100
AcDbEllipse
 10
59.87661752970426
 20
37.83576757264993
 30
0.0
 11
-3.25
 21
5.62916512459885
 31
0.0
210
0.0
220
0.0
230
0.9999999999999998
 40
0.5773502691896258
 41
0.2193254863005966
 42
2.922267167289197
  0
ELLIPSE
  5
756F
330
7557
100
AcDbEntity
  8
0
100
AcDbEllipse
 10
67.65479212275629
 20
37.42751928218607
 30
0.0
 11
1.250000000000129
 21
-2.165063509461022
 31
0.0
210
0.0
220
0.0
230
1.0
 40
0.5773502691896259
 41
3.742856870268584
 42
5.681921090500111
  0
LINE
  5
7570
330
7557
100
AcDbEntity
  8
0
100
AcDbLine
 10
47.1486954683464
 20
61.51416841955399
 30
0.0
 11
73.66519976284194
 21
46.20485752715912
 31
0.0
  0
LINE
  5
7571
330
7557
100
AcDbEntity
  8
0
100
AcDbLine
 10
73.66519976284199
 20
-16.66537920427581
 30
0.0
 11
73.66519976284194
 21
46.20485752715911
 31
0.0
  0
ELLIPSE
  5
7572
330
7557
100
AcDbEntity
  8
0
100
AcDbEllipse
 10
44.32026834360022
 20
59.88117525769852
 30
0.0
 11
3.999999999999999
 21
-0.0000000000002383
 31
0.0
210
0.0
220
0.0
230
1.0
 40
0.5773502691896257
 41
0.7853981633976881
 42
2.356194490192585
  0
ELLIPSE
  5
7573
330
7557
100
AcDbEntity
  8
0
100
AcDbEllipse
 10
17.0966572679181
 20
35.18215368463479
 30
0.0
 11
1.249999999999871
 21
2.16506350946117
 31
0.0
210
0.0
220
0.0
230
1.0
 40
0.5773502691896261
 41
3.742856870268578
 42
5.681921090500118
  0
ELLIPSE
  5
7574
330
7557
100
AcDbEntity
  8
0
100
AcDbEllipse
 10
18.5108708302912
 20
34.36565710370707
 30
0.0
 11
-1.25
 21
-2.165063509461096
 31
0.0
210
0.0
220
0.0
230
0.9999999999999998
 40
0.577350269189626
 41
0.0
 42
6.283185307179586
  0
LINE
  5
7575
330
7557
100
AcDbEntity
  8
0
100
AcDbLine
 10
-16.49091483844291
 20
-61.77681530053264
 30
0.0
 11
11.79335640901899
 21
-18.50249651136318
 31
0.0
  0
LINE
  5
7576
330
7557
100
AcDbEntity
  8
0
100
AcDbLine
 10
-15.07670127606982
 20
-62.59331188146036
 30
0.0
 11
-16.49091483844291
 21
-61.77681530053264
 31
0.0
  0
LINE
  5
7577
330
7557
100
AcDbEntity
  8
0
100
AcDbLine
 10
13.20756997139209
 20
-19.31899309229091
 30
0.0
 11
-15.07670127606982
 21
-62.59331188146036
 31
0.0
  0
LINE
  5
7578
330
7557
100
AcDbEntity
  8
0
100
AcDbLine
 10
13.20756997139209
 20
-19.31899309229091
 30
0.0
 11
11.793356409019
 21
-18.50249651136318
 31
0.0
  0
LINE
  5
7579
330
7557
100
AcDbEntity
  8
0
100
AcDbLine
 10
11.793356409019
 20
-18.50249651136318
 30
0.0
 11
11.79335640901901
 21
44.36774022007171
 31
0.0
  0
LINE
  5
757A
330
7557
100
AcDbEntity
  8
0
100
AcDbLine
 10
13.20756997139211
 20
43.55124363914399
 30
0.0
 11
13.20756997139209
 21
-19.31899309229091
 31
0.0
  0
LINE
  5
757B
330
7557
100
AcDbEntity
  8
0
100
AcDbLine
 10
11.79335640901901
 20
44.36774022007171
 30
0.0
 11
13.20756997139211
 21
43.55124363914399
 31
0.0
  0
LINE
  5
757C
330
7557
100
AcDbEntity
  8
0
100
AcDbLine
 10
-15.07670127606982
 20
-62.59331188146036
 30
0.0
 11
-15.0767012760698
 21
-77.29025033815942
 31
0.0
  0
LINE
  5
757D
330
7557
100
AcDbEntity
  8
0
100
AcDbLine
 10
42.90605478122711
 20
-27.02467957479632
 30
0.0
 11
42.90605478122713
 21
60.69767183862625
 31
0.0
  0
LINE
  5
757E
330
7557
100
AcDbEntity
  8
0
100
AcDbLine
 10
42.90605478122713
 20
60.69767183862627
 30
0.0
 11
13.2075699713921
 21
43.55124363914399
 31
0.0
  0
LINE
  5
757F
330
7557
100
AcDbEntity
  8
0
100
AcDbLine
 10
11.79335640901901
 20
44.36774022007171
 30
0.0
 11
41.49184121885402
 21
61.51416841955398
 31
0.0
  0
LINE
  5
7580
330
7557
100
AcDbEntity
  8
0
100
AcDbLine
 10
-16.49091483844289
 20
-76.47375375723169
 30
0.0
 11
-16.49091483844291
 21
-61.77681530053264
 31
0.0
  0
LINE
  5
7581
330
7557
100
AcDbEntity
  8
0
100
AcDbLine
 10
-17.90512840081599
 20
-77.29025033815942
 30
0.0
 11
-17.90512840081599
 21
-78.92324350001487
 31
0.0
  0
LINE
  5
7582
330
7557
100
AcDbEntity
  8
0
100
AcDbLine
 10
-16.49091483844289
 20
-76.47375375723169
 30
0.0
 11
-15.0767012760698
 21
-77.29025033815942
 31
0.0
  0
ELLIPSE
  5
7583
330
7557
100
AcDbEntity
  8
0
100
AcDbEllipse
 10
-17.90512840081599
 20
-75.65725717630397
 30
0.0
 11
1.0
 21
-1.732050807568876
 31
0.0
210
0.0
220
0.0
230
1.0
 40
0.5773502691896258
 41
5.497787143782136
 42
7.068583470577032
  0
LINE
  5
7584
330
7557
100
AcDbEntity
  8
0
100
AcDbLine
 10
45.73448190597331
 20
-27.02467957479632
 30
0.0
 11
45.73448190597329
 21
60.69767183862625
 31
0.0
  0
ELLIPSE
  5
7585
330
7557
100
AcDbEntity
  8
0
100
AcDbEllipse
 10
44.32026834360022
 20
59.88117525769852
 30
0.0
 11
-1.999999999999997
 21
-0.0000000000001194
 31
0.0
210
0.0
220
0.0
230
1.0
 40
0.5773502691896258
 41
3.926990816987004
 42
5.497787143781901
  0
LINE
  5
7586
330
7557
100
AcDbEntity
  8
0
100
AcDbLine
 10
73.66519976284194
 20
46.20485752715912
 30
0.0
 11
72.25098620046884
 21
45.3883609462314
 31
0.0
  0
LINE
  5
7587
330
7557
100
AcDbEntity
  8
0
100
AcDbLine
 10
72.2509862004689
 20
-17.48187578520353
 30
0.0
 11
72.25098620046884
 21
45.38836094623142
 31
0.0
  0
LINE
  5
7588
330
7557
100
AcDbEntity
  8
0
100
AcDbLine
 10
42.90605478122713
 20
60.69767183862627
 30
0.0
 11
41.49184121885402
 21
61.51416841955398
 31
0.0
  0
LINE
  5
7589
330
7557
100
AcDbEntity
  8
0
100
AcDbLine
 10
45.73448190597329
 20
60.69767183862627
 30
0.0
 11
47.1486954683464
 21
61.51416841955399
 31
0.0
  0
LINE
  5
758A
330
7557
100
AcDbEntity
  8
0
100
AcDbLine
 10
72.25098620046884
 20
45.3883609462314
 30
0.0
 11
45.73448190597329
 21
60.69767183862627
 31
0.0
  0
ELLIPSE
  5
758B
330
7557
100
AcDbEntity
  8
0
100
AcDbEllipse
 10
58.46240396733116
 20
37.0192709917222
 30
0.0
 11
-3.25
 21
5.629165124598853
 31
0.0
210
0.0
220
0.0
230
1.0
 40
0.5773502691896258
 41
0.0
 42
6.283185307179586
  0
ELLIPSE
  5
758C
330
7557
100
AcDbEntity
  8
0
100
AcDbEllipse
 10
66.24057856038318
 20
36.61102270125834
 30
0.0
 11
-1.249999999999999
 21
2.165063509461096
 31
0.0
210
0.0
220
0.0
230
1.0
 40
0.5773502691896259
 41
0.0
 42
6.283185307179586
  0
LINE
  5
758D
330
7557
100
AcDbEntity
  8
0
100
AcDbLine
 10
-15.90512840081598
 20
-79.12135879144172
 30
0.0
 11
43.49184121885402
 21
-44.82850239247724
 31
0.0
  0
LINE
  5
758E
330
7557
100
AcDbEntity
  8
0
100
AcDbLine
 10
-1.063130521645487
 20
-38.17264141553111
 30
0.0
 11
-43.36097252353166
 21
-62.59331188146036
 31
0.0
  0
ELLIPSE
  5
758F
330
7557
100
AcDbEntity
  8
0
100
AcDbEllipse
 10
-43.36097252353167
 20
-60.96031871960492
 30
0.0
 11
2.000000000000209
 21
-3.464101615137636
 31
0.0
210
0.0
220
0.0
230
1.0
 40
0.5773502691896258
 41
3.926990816986997
 42
5.497787143781895
  0
LINE
  5
7590
330
7557
100
AcDbEntity
  8
0
100
AcDbLine
 10
-44.77518608590478
 20
-60.14382213867719
 30
0.0
 11
2.365265993198359
 21
-32.92726944108635
 31
0.0
  0
LINE
  5
7591
330
7557
100
AcDbEntity
  8
0
100
AcDbLine
 10
-46.18939964827787
 20
-59.32732555774947
 30
0.0
 11
-44.77518608590478
 21
-60.14382213867719
 31
0.0
  0
LINE
  5
7592
330
7557
100
AcDbEntity
  8
0
100
AcDbLine
 10
-43.36097252353167
 20
-64.22630504331582
 30
0.0
 11
-43.36097252353167
 21
-62.59331188146036
 31
0.0
  0
ELLIPSE
  5
7593
330
7557
100
AcDbEntity
  8
0
100
AcDbEllipse
 10
-43.36097252353167
 20
-60.96031871960492
 30
0.0
 11
1.000000000000103
 21
-1.732050807568816
 31
0.0
210
0.0
220
0.0
230
1.0
 40
0.5773502691896259
 41
3.926990816986995
 42
5.497787143781889
  0
ELLIPSE
  5
7594
330
7557
100
AcDbEntity
  8
0
100
AcDbEllipse
 10
59.87661752970426
 20
-2.989061473736365
 30
0.0
 11
-3.249999999999999
 21
5.629165124598848
 31
0.0
210
0.0
220
0.0
230
0.9999999999999996
 40
0.5773502691896258
 41
0.2193254863005958
 42
2.9222671672892
  0
ELLIPSE
  5
7595
330
7557
100
AcDbEntity
  8
0
100
AcDbEllipse
 10
58.46240396733116
 20
-3.805558054664093
 30
0.0
 11
-3.25
 21
5.629165124598853
 31
0.0
210
0.0
220
0.0
230
1.0
 40
0.5773502691896258
 41
0.0
 42
6.283185307179586
  0
ELLIPSE
  5
7596
330
7557
100
AcDbEntity
  8
0
100
AcDbEllipse
 10
52.09844293665224
 20
-10.74577899254976
 30
0.0
 11
1.250000000000129
 21
-2.165063509461022
 31
0.0
210
0.0
220
0.0
230
1.0
 40
0.5773502691896259
 41
3.742856870268585
 42
5.681921090500115
  0
ELLIPSE
  5
7597
330
7557
100
AcDbEntity
  8
0
100
AcDbEllipse
 10
52.09844293665224
 20
5.584152626004756
 30
0.0
 11
1.250000000000129
 21
-2.165063509461022
 31
0.0
210
0.0
220
0.0
230
1.0
 40
0.5773502691896259
 41
3.742856870268585
 42
5.681921090500115
  0
ELLIPSE
  5
7598
330
7557
100
AcDbEntity
  8
0
100
AcDbEllipse
 10
52.09844293665224
 20
21.91408424455927
 30
0.0
 11
1.250000000000129
 21
-2.165063509461022
 31
0.0
210
0.0
220
0.0
230
1.0
 40
0.5773502691896259
 41
3.742856870268585
 42
5.681921090500111
  0
ELLIPSE
  5
7599
330
7557
100
AcDbEntity
  8
0
100
AcDbEllipse
 10
52.09844293665224
 20
38.24401586311379
 30
0.0
 11
1.250000000000129
 21
-2.165063509461022
 31
0.0
210
0.0
220
0.0
230
1.0
 40
0.5773502691896259
 41
3.742856870268584
 42
5.681921090500111
  0
ELLIPSE
  5
759A
330
7557
100
AcDbEntity
  8
0
100
AcDbEllipse
 10
50.68422937427914
 20
-11.56227557347749
 30
0.0
 11
-1.249999999999999
 21
2.165063509461096
 31
0.0
210
0.0
220
0.0
230
1.0
 40
0.5773502691896259
 41
0.0
 42
6.283185307179586
  0
ELLIPSE
  5
759B
330
7557
100
AcDbEntity
  8
0
100
AcDbEllipse
 10
50.68422937427914
 20
4.767656045077028
 30
0.0
 11
-1.249999999999999
 21
2.165063509461096
 31
0.0
210
0.0
220
0.0
230
1.0
 40
0.5773502691896259
 41
0.0
 42
6.283185307179586
  0
ELLIPSE
  5
759C
330
7557
100
AcDbEntity
  8
0
100
AcDbEllipse
 10
50.68422937427914
 20
21.09758766363154
 30
0.0
 11
-1.249999999999999
 21
2.165063509461096
 31
0.0
210
0.0
220
0.0
230
1.0
 40
0.5773502691896259
 41
0.0
 42
6.283185307179586
  0
ELLIPSE
  5
759D
330
7557
100
AcDbEntity
  8
0
100
AcDbEllipse
 10
50.68422937427914
 20
37.42751928218606
 30
0.0
 11
-1.249999999999999
 21
2.165063509461096
 31
0.0
210
0.0
220
0.0
230
1.0
 40
0.5773502691896259
 41
0.0
 42
6.283185307179586
  0
ELLIPSE
  5
759E
330
7557
100
AcDbEntity
  8
0
100
AcDbEllipse
 10
52.09844293665224
 20
54.57394748166831
 30
0.0
 11
1.250000000000129
 21
-2.165063509461022
 31
0.0
210
0.0
220
0.0
230
1.0
 40
0.5773502691896259
 41
3.742856870268584
 42
5.681921090500111
  0
ELLIPSE
  5
759F
330
7557
100
AcDbEntity
  8
0
100
AcDbEllipse
 10
6.84360894071319
 20
79.06884490950009
 30
0.0
 11
1.25
 21
-2.165063509461096
 31
0.0
210
0.0
220
0.0
230
0.9999999999999998
 40
0.577350269189626
 41
0.0
 42
6.283185307179586
  0
ELLIPSE
  5
75A0
330
7557
100
AcDbEntity
  8
0
100
AcDbEllipse
 10
8.257822503086291
 20
79.88534149042782
 30
0.0
 11
1.250000000000129
 21
-2.165063509461021
 31
0.0
210
0.0
220
0.0
230
1.0
 40
0.577350269189626
 41
3.742856870268582
 42
5.681921090500114
  0
ELLIPSE
  5
75A1
330
7557
100
AcDbEntity
  8
0
100
AcDbEllipse
 10
50.68422937427914
 20
53.75745090074059
 30
0.0
 11
-1.249999999999999
 21
2.165063509461096
 31
0.0
210
0.0
220
0.0
230
1.0
 40
0.5773502691896259
 41
0.0
 42
6.283185307179586
  0
ELLIPSE
  5
75A2
330
7557
100
AcDbEntity
  8
0
100
AcDbEllipse
 10
67.65479212275629
 20
-11.56227557347749
 30
0.0
 11
1.250000000000129
 21
-2.165063509461022
 31
0.0
210
0.0
220
0.0
230
1.0
 40
0.5773502691896259
 41
3.742856870268585
 42
5.681921090500115
  0
ELLIPSE
  5
75A3
330
7557
100
AcDbEntity
  8
0
100
AcDbEllipse
 10
67.65479212275629
 20
4.767656045077024
 30
0.0
 11
1.250000000000129
 21
-2.165063509461022
 31
0.0
210
0.0
220
0.0
230
1.0
 40
0.5773502691896259
 41
3.742856870268585
 42
5.681921090500115
  0
ELLIPSE
  5
75A4
330
7557
100
AcDbEntity
  8
0
100
AcDbEllipse
 10
67.65479212275629
 20
21.09758766363154
 30
0.0
 11
1.250000000000129
 21
-2.165063509461022
 31
0.0
210
0.0
220
0.0
230
1.0
 40
0.5773502691896259
 41
3.742856870268584
 42
5.68192109050011
  0
ELLIPSE
  5
75A5
330
7557
100
AcDbEntity
  8
0
100
AcDbEllipse
 10
66.24057856038318
 20
-12.37877215440522
 30
0.0
 11
-1.249999999999999
 21
2.165063509461096
 31
0.0
210
0.0
220
0.0
230
1.0
 40
0.5773502691896259
 41
0.0
 42
6.283185307179586
  0
ELLIPSE
  5
75A6
330
7557
100
AcDbEntity
  8
0
100
AcDbEllipse
 10
66.24057856038318
 20
3.951159464149291
 30
0.0
 11
-1.249999999999999
 21
2.165063509461096
 31
0.0
210
0.0
220
0.0
230
1.0
 40
0.5773502691896259
 41
0.0
 42
6.283185307179586
  0
ELLIPSE
  5
75A7
330
7557
100
AcDbEntity
  8
0
100
AcDbEllipse
 10
66.24057856038318
 20
20.28109108270381
 30
0.0
 11
-1.249999999999999
 21
2.165063509461096
 31
0.0
210
0.0
220
0.0
230
1.0
 40
0.5773502691896259
 41
0.0
 42
6.283185307179586
  0
LINE
  5
75A8
330
7557
100
AcDbEntity
  8
0
100
AcDbLine
 10
-11.92313252232779
 20
28.44870143918176
 30
0.0
 11
-11.21592067833713
 21
27.36668272565121
 31
0.0
  0
LINE
  5
75A9
330
7557
100
AcDbEntity
  8
0
100
AcDbLine
 10
-16.49091483844288
 20
-2.172564892808672
 30
0.0
 11
-44.77518608590479
 21
-45.44688368197814
 31
0.0
  0
LINE
  5
75AA
330
7557
100
AcDbEntity
  8
0
100
AcDbLine
 10
-17.90512840081598
 20
-1.356068311880944
 30
0.0
 11
-16.49091483844288
 21
-2.172564892808672
 31
0.0
  0
LINE
  5
75AB
330
7557
100
AcDbEntity
  8
0
100
AcDbLine
 10
-46.18939964827788
 20
-44.63038710105041
 30
0.0
 11
-17.90512840081598
 21
-1.356068311880944
 31
0.0
  0
LINE
  5
75AC
330
7557
100
AcDbEntity
  8
0
100
AcDbLine
 10
-44.77518608590479
 20
-45.44688368197814
 30
0.0
 11
-46.18939964827788
 21
-44.63038710105041
 31
0.0
  0
LINE
  5
75AD
330
7557
100
AcDbEntity
  8
0
100
AcDbLine
 10
-16.49091483844287
 20
60.69767183862624
 30
0.0
 11
-16.49091483844288
 21
-2.172564892808672
 31
0.0
  0
LINE
  5
75AE
330
7557
100
AcDbEntity
  8
0
100
AcDbLine
 10
-17.90512840081597
 20
61.51416841955396
 30
0.0
 11
-16.49091483844287
 21
60.69767183862624
 31
0.0
  0
LINE
  5
75AF
330
7557
100
AcDbEntity
  8
0
100
AcDbLine
 10
-17.90512840081598
 20
-1.356068311880944
 30
0.0
 11
-17.90512840081597
 21
61.51416841955396
 31
0.0
  0
ELLIPSE
  5
75B0
330
7557
100
AcDbEntity
  8
0
100
AcDbEllipse
 10
-0.9345656523388345
 20
71.31212739068669
 30
0.0
 11
-3.250000000000004
 21
5.629165124598848
 31
0.0
210
0.0
220
0.0
230
0.9999999999999998
 40
0.577350269189626
 41
4.712388980384691
 42
7.853981633974484
  0
ELLIPSE
  5
75B1
330
7557
100
AcDbEntity
  8
0
100
AcDbEllipse
 10
0.4796479100342666
 20
72.12862397161441
 30
0.0
 11
-3.250000000000002
 21
5.62916512459885
 31
0.0
210
0.0
220
0.0
230
1.0
 40
0.5773502691896259
 41
0.2193254863005948
 42
1.570796326794897
  0
ELLIPSE
  5
75B2
330
7557
100
AcDbEntity
  8
0
100
AcDbEllipse
 10
-8.712740245390859
 20
79.88534149042782
 30
0.0
 11
1.25
 21
-2.165063509461096
 31
0.0
210
0.0
220
0.0
230
0.9999999999999998
 40
0.577350269189626
 41
0.0
 42
6.283185307179586
  0
ELLIPSE
  5
75B3
330
7557
100
AcDbEntity
  8
0
100
AcDbEllipse
 10
-7.298526683017758
 20
80.70183807135553
 30
0.0
 11
1.250000000000129
 21
-2.165063509461021
 31
0.0
210
0.0
220
0.0
230
1.0
 40
0.577350269189626
 41
3.742856870268576
 42
5.681921090500111
  0
LINE
  5
75B4
330
7557
100
AcDbEntity
  8
0
100
AcDbLine
 10
11.79335640901903
 20
78.66059661903618
 30
0.0
 11
11.79335640901903
 21
80.29358978089167
 31
0.0
  0
ELLIPSE
  5
75B5
330
7557
100
AcDbEntity
  8
0
100
AcDbEllipse
 10
10.37914284664593
 20
79.47709319996396
 30
0.0
 11
1.999999999999997
 21
0.0000000000000001
 31
0.0
210
0.0
220
0.0
230
1.0
 40
0.5773502691896258
 41
5.497787143782143
 42
7.068583470577036
  0
LINE
  5
75B6
330
7557
100
AcDbEntity
  8
0
100
AcDbLine
 10
13.20756997139212
 20
77.84410003810851
 30
0.0
 11
13.20756997139212
 21
45.18423680099943
 31
0.0
  0
ELLIPSE
  5
75B7
330
7557
100
AcDbEntity
  8
0
100
AcDbEllipse
 10
10.37914284664593
 20
79.47709319996396
 30
0.0
 11
3.999999999999999
 21
-0.0000000000000003
 31
0.0
210
0.0
220
0.0
230
1.0
 40
0.5773502691896257
 41
5.497787143782139
 42
7.068583470577032
  0
LINE
  5
75B8
330
7557
100
AcDbEntity
  8
0
100
AcDbLine
 10
11.79335640901903
 20
80.29358978089167
 30
0.0
 11
13.20756997139213
 21
81.11008636181939
 31
0.0
  0
LINE
  5
75B9
330
7557
100
AcDbEntity
  8
0
100
AcDbLine
 10
11.79335640901902
 20
78.66059661903623
 30
0.0
 11
13.20756997139212
 21
77.84410003810851
 31
0.0
  0
LINE
  5
75BA
330
7557
100
AcDbEntity
  8
0
100
AcDbLine
 10
14.37914284664593
 20
45.86064471590248
 30
0.0
 11
14.37914284664593
 21
79.47709319996396
 31
0.0
  0
LINE
  5
75BB
330
7557
100
AcDbEntity
  8
0
100
AcDbLine
 10
-14.72314788547651
 20
95.60290067328654
 30
0.0
 11
11.79335640901903
 21
80.29358978089167
 31
0.0
  0
LINE
  5
75BC
330
7557
100
AcDbEntity
  8
0
100
AcDbLine
 10
-14.72314788547654
 20
63.35128572664132
 30
0.0
 11
-14.72314788547651
 21
95.60290067328654
 31
0.0
  0
LINE
  5
75BD
330
7557
100
AcDbEntity
  8
0
100
AcDbLine
 10
-44.77518608590478
 20
-60.14382213867719
 30
0.0
 11
-44.77518608590479
 21
-45.44688368197814
 31
0.0
  0
LINE
  5
75BE
330
7557
100
AcDbEntity
  8
0
100
AcDbLine
 10
-16.49091483844287
 20
60.69767183862624
 30
0.0
 11
13.20756997139212
 21
77.84410003810851
 31
0.0
  0
LINE
  5
75BF
330
7557
100
AcDbEntity
  8
0
100
AcDbLine
 10
-46.18939964827788
 20
-44.63038710105041
 30
0.0
 11
-46.18939964827787
 21
-59.32732555774947
 31
0.0
  0
LINE
  5
75C0
330
7557
100
AcDbEntity
  8
0
100
AcDbLine
 10
11.79335640901902
 20
78.66059661903623
 30
0.0
 11
-17.90512840081596
 21
61.51416841955396
 31
0.0
  0
LINE
  5
75C1
330
7557
100
AcDbEntity
  8
0
100
AcDbLine
 10
13.20756997139213
 20
81.11008636181939
 30
0.0
 11
-13.30893432310342
 21
96.41939725421426
 31
0.0
  0
LINE
  5
75C2
330
7557
100
AcDbEntity
  8
0
100
AcDbLine
 10
-13.30893432310342
 20
96.41939725421426
 30
0.0
 11
-14.72314788547651
 21
95.60290067328654
 31
0.0
  0
ELLIPSE
  5
75C3
330
7557
100
AcDbEntity
  8
0
100
AcDbEllipse
 10
17.0966572679181
 20
-30.13757278958328
 30
0.0
 11
1.249999999999871
 21
2.16506350946117
 31
0.0
210
0.0
220
0.0
230
1.0
 40
0.5773502691896261
 41
3.742856870268578
 42
5.681921090500118
  0
ELLIPSE
  5
75C4
330
7557
100
AcDbEntity
  8
0
100
AcDbEllipse
 10
18.5108708302912
 20
-30.954069370511
 30
0.0
 11
-1.25
 21
-2.165063509461096
 31
0.0
210
0.0
220
0.0
230
0.9999999999999998
 40
0.577350269189626
 41
0.0
 42
6.283185307179586
  0
ELLIPSE
  5
75C5
330
7557
100
AcDbEntity
  8
0
100
AcDbEllipse
 10
17.0966572679181
 20
-13.80764117102876
 30
0.0
 11
1.249999999999871
 21
2.16506350946117
 31
0.0
210
0.0
220
0.0
230
1.0
 40
0.5773502691896261
 41
3.742856870268578
 42
5.681921090500118
  0
ELLIPSE
  5
75C6
330
7557
100
AcDbEntity
  8
0
100
AcDbEllipse
 10
18.5108708302912
 20
-14.62413775195648
 30
0.0
 11
-1.25
 21
-2.165063509461096
 31
0.0
210
0.0
220
0.0
230
0.9999999999999998
 40
0.577350269189626
 41
0.0
 42
6.283185307179586
  0
ELLIPSE
  5
75C7
330
7557
100
AcDbEntity
  8
0
100
AcDbEllipse
 10
17.0966572679181
 20
2.522290447525761
 30
0.0
 11
1.249999999999871
 21
2.16506350946117
 31
0.0
210
0.0
220
0.0
230
1.0
 40
0.5773502691896261
 41
3.742856870268578
 42
5.681921090500119
  0
ELLIPSE
  5
75C8
330
7557
100
AcDbEntity
  8
0
100
AcDbEllipse
 10
18.5108708302912
 20
1.705793866598037
 30
0.0
 11
-1.25
 21
-2.165063509461096
 31
0.0
210
0.0
220
0.0
230
0.9999999999999998
 40
0.577350269189626
 41
0.0
 42
6.283185307179586
  0
ELLIPSE
  5
75C9
330
7557
100
AcDbEntity
  8
0
100
AcDbEllipse
 10
17.0966572679181
 20
18.85222206608028
 30
0.0
 11
1.249999999999871
 21
2.16506350946117
 31
0.0
210
0.0
220
0.0
230
1.0
 40
0.5773502691896261
 41
3.742856870268578
 42
5.681921090500118
  0
ELLIPSE
  5
75CA
330
7557
100
AcDbEntity
  8
0
100
AcDbEllipse
 10
18.5108708302912
 20
18.03572548515255
 30
0.0
 11
-1.25
 21
-2.165063509461096
 31
0.0
210
0.0
220
0.0
230
0.9999999999999998
 40
0.577350269189626
 41
0.0
 42
6.283185307179586
  0
ELLIPSE
  5
75CB
330
7557
100
AcDbEntity
  8
0
100
AcDbEllipse
 10
-12.60182754191686
 20
-4.826178780823777
 30
0.0
 11
1.249999999999871
 21
2.165063509461171
 31
0.0
210
0.0
220
0.0
230
1.0
 40
0.5773502691896257
 41
3.742856870268582
 42
5.681921090500121
  0
ELLIPSE
  5
75CC
330
7557
100
AcDbEntity
  8
0
100
AcDbEllipse
 10
-11.18761397954376
 20
-5.642675361751501
 30
0.0
 11
1.249999999999999
 21
2.165063509461096
 31
0.0
210
0.0
220
0.0
230
1.0
 40
0.5773502691896258
 41
0.0
 42
6.283185307179586
  0
ELLIPSE
  5
75CD
330
7557
100
AcDbEntity
  8
0
100
AcDbEllipse
 10
-12.60182754191686
 20
11.50375283773074
 30
0.0
 11
1.249999999999871
 21
2.165063509461171
 31
0.0
210
0.0
220
0.0
230
1.0
 40
0.5773502691896257
 41
3.742856870268582
 42
5.681921090500122
  0
ELLIPSE
  5
75CE
330
7557
100
AcDbEntity
  8
0
100
AcDbEllipse
 10
-11.18761397954376
 20
10.68725625680302
 30
0.0
 11
1.249999999999999
 21
2.165063509461096
 31
0.0
210
0.0
220
0.0
230
1.0
 40
0.5773502691896258
 41
0.0
 42
6.283185307179586
  0
ELLIPSE
  5
75CF
330
7557
100
AcDbEntity
  8
0
100
AcDbEllipse
 10
-12.60182754191686
 20
27.83368445628526
 30
0.0
 11
1.249999999999871
 21
2.165063509461171
 31
0.0
210
0.0
220
0.0
230
1.0
 40
0.5773502691896257
 41
3.742856870268582
 42
5.68192109050012
  0
ELLIPSE
  5
75D0
330
7557
100
AcDbEntity
  8
0
100
AcDbEllipse
 10
-11.18761397954376
 20
27.01718787535754
 30
0.0
 11
1.249999999999999
 21
2.165063509461096
 31
0.0
210
0.0
220
0.0
230
1.0
 40
0.5773502691896258
 41
0.0
 42
6.283185307179586
  0
ELLIPSE
  5
75D1
330
7557
100
AcDbEntity
  8
0
100
AcDbEllipse
 10
-12.60182754191686
 20
44.16361607483977
 30
0.0
 11
1.249999999999871
 21
2.165063509461171
 31
0.0
210
0.0
220
0.0
230
1.0
 40
0.5773502691896257
 41
3.742856870268582
 42
5.681921090500118
  0
ELLIPSE
  5
75D2
330
7557
100
AcDbEntity
  8
0
100
AcDbEllipse
 10
-11.18761397954376
 20
43.34711949391205
 30
0.0
 11
1.249999999999999
 21
2.165063509461096
 31
0.0
210
0.0
220
0.0
230
1.0
 40
0.5773502691896258
 41
0.0
 42
6.283185307179586
  0
ELLIPSE
  5
75D3
330
7557
100
AcDbEntity
  8
0
100
AcDbEllipse
 10
-12.60182754191686
 20
60.4935476933943
 30
0.0
 11
1.249999999999871
 21
2.165063509461171
 31
0.0
210
0.0
220
0.0
230
1.0
 40
0.5773502691896257
 41
3.742856870268582
 42
5.681921090500118
  0
ELLIPSE
  5
75D4
330
7557
100
AcDbEntity
  8
0
100
AcDbEllipse
 10
-11.18761397954376
 20
59.67705111246658
 30
0.0
 11
1.249999999999999
 21
2.165063509461096
 31
0.0
210
0.0
220
0.0
230
1.0
 40
0.5773502691896258
 41
0.0
 42
6.283185307179586
  0
ENDBLK
  5
7559
330
7557
100
AcDbEntity
  8
0
100
AcDbBlockEnd
  0
ENDSEC
  0
SECTION
  2
ENTITIES
  0
INSERT
  5
75D5
330
1F
100
AcDbEntity
  8
0
100
AcDbBlockReference
  2
SAE300_40_2-Front
 10
0.0
 20
0.0
 30
0.0
  0
INSERT
  5
75D6
330
1F
100
AcDbEntity
  8
0
100
AcDbBlockReference
  2
SAE300_40_2-Left
 10
101.1
 20
0.0
 30
0.0
  0
INSERT
  5
75D7
330
1F
100
AcDbEntity
  8
0
100
AcDbBlockReference
  2
SAE300_40_2-Right
 10
-101.1
 20
0.0
 30
0.0
  0
INSERT
  5
75D8
330
1F
100
AcDbEntity
  8
0
100
AcDbBlockReference
  2
SAE300_40_2-Top
 10
0.0
 20
-41.6
 30
0.0
  0
INSERT
  5
75D9
330
1F
100
AcDbEntity
  8
0
100
AcDbBlockReference
  2
SAE300_40_2-Bottom
 10
0.0
 20
169.6
 30
0.0
  0
INSERT
  5
75DA
330
1F
100
AcDbEntity
  8
0
100
AcDbBlockReference
  2
SAE300_40_2-ISO
 10
147.289399648278
 20
-138.0193972542142
 30
0.0
  0
MTEXT
  5
75DB
330
1F
100
AcDbEntity
  8
0
100
AcDbMText
 10
0.0
 20
-167.2
 30
0.0
 40
12.63750000000001
 41
0.0
 71
     5
 72
     5
  1
SAE300/40/2
 73
     1
 44
1.0
1001
ACAD
1000
MTEXTBEGIN
1070
    73
1070
     1
1070
    44
1040
1.0
1070
    74
1070
     0
1000
MTEXTEND
  0
ENDSEC
  0
SECTION
  2
OBJECTS
  0
DICTIONARY
  5
C
330
0
100
AcDbDictionary
281
     1
  3
ACAD_CIP_PREVIOUS_PRODUCT_INFO
350
216
  3
ACAD_COLOR
350
6B
  3
ACAD_DETAILVIEWSTYLE
350
21B
  3
ACAD_GROUP
350
D
  3
ACAD_LAYOUT
350
1A
  3
ACAD_MATERIAL
350
6A
  3
ACAD_MLEADERSTYLE
350
12D
  3
ACAD_MLINESTYLE
350
17
  3
ACAD_PLOTSETTINGS
350
19
  3
ACAD_PLOTSTYLENAME
350
E
  3
ACAD_SCALELIST
350
10C
  3
ACAD_SECTIONVIEWSTYLE
350
219
  3
ACAD_TABLESTYLE
350
7E
  3
ACAD_VISUALSTYLE
350
EF
  3
ACDB_RECOMPOSE_DATA
350
76DC
  3
AcDbVariableDictionary
350
5E
  3
DWGPROPS
350
76DD
  0
DICTIONARY
  5
762C
330
8
100
AcDbDictionary
280
     1
281
     1
  0
DICTIONARY
  5
1FF
330
2
100
AcDbDictionary
280
     1
281
     1
  3
ACAD_LAYERSTATES
360
200
  0
DICTIONARY
  5
13C
330
10
100
AcDbDictionary
280
     1
281
     1
  0
DICTIONARY
  5
1CE
330
1F
100
AcDbDictionary
280
     1
281
     1
  3
ACAD_LAYOUTSELFREF
360
7634
  0
DICTIONARY
  5
75DF
330
D2
100
AcDbDictionary
280
     1
281
     1
  3
ACAD_LAYOUTSELFREF
360
763D
  0
DICTIONARY
  5
75E1
330
D6
100
AcDbDictionary
280
     1
281
     1
  3
ACAD_LAYOUTSELFREF
360
7640
  0
XRECORD
  5
216
102
{ACAD_REACTORS
330
C
102
}
330
C
100
AcDbXrecord
280
     1
300
ACD
300
2021
300
87393ACD_2021_0F
  0
DICTIONARY
  5
6B
102
{ACAD_REACTORS
330
C
102
}
330
C
100
AcDbDictionary
281
     1
  0
DICTIONARY
  5
21B
102
{ACAD_REACTORS
330
C
102
}
330
C
100
AcDbDictionary
281
     1
  3
Metric50
350
21C
  0
DICTIONARY
  5
D
102
{ACAD_REACTORS
330
C
102
}
330
C
100
AcDbDictionary
281
     1
  0
DICTIONARY
  5
1A
102
{ACAD_REACTORS
330
C
102
}
330
C
100
AcDbDictionary
281
     1
  3
Layout1
350
D3
  3
Layout2
350
D7
  3
Model
350
22
  0
DICTIONARY
  5
6A
102
{ACAD_REACTORS
330
C
102
}
330
C
100
AcDbDictionary
281
     1
  3
ByBlock
350
ED
  3
ByLayer
350
EC
  3
Global
350
EE
  0
DICTIONARY
  5
12D
102
{ACAD_REACTORS
330
C
102
}
330
C
100
AcDbDictionary
281
     1
  3
Standard
350
12E
  0
DICTIONARY
  5
17
102
{ACAD_REACTORS
330
C
102
}
330
C
100
AcDbDictionary
281
     1
  3
Standard
350
18
  0
DICTIONARY
  5
19
102
{ACAD_REACTORS
330
C
102
}
330
C
100
AcDbDictionary
281
     1
  0
ACDBDICTIONARYWDFLT
  5
E
102
{ACAD_REACTORS
330
C
102
}
330
C
100
AcDbDictionary
281
     1
  3
Normal
350
F
100
AcDbDictionaryWithDefault
340
F
  0
DICTIONARY
  5
10C
102
{ACAD_REACTORS
330
C
102
}
330
C
100
AcDbDictionary
281
     1
  3
A0
350
10D
  3
A1
350
1BE
  3
A2
350
1BF
  3
A3
350
1C0
  3
A4
350
1C1
  3
A5
350
1C2
  3
A6
350
1C3
  3
A7
350
1C4
  3
A8
350
1C5
  3
A9
350
1C6
  3
B0
350
1C7
  3
B1
350
1C8
  3
B2
350
1C9
  3
B3
350
1CA
  3
B4
350
1CB
  3
B5
350
1CC
  3
B6
350
1CD
  0
DICTIONARY
  5
219
102
{ACAD_REACTORS
330
C
102
}
330
C
100
AcDbDictionary
281
     1
  3
Metric50
350
21A
  0
DICTIONARY
  5
7E
102
{ACAD_REACTORS
330
C
102
}
330
C
100
AcDbDictionary
281
     1
  3
Standard
350
7F
  0
DICTIONARY
  5
EF
102
{ACAD_REACTORS
330
C
102
}
330
C
100
AcDbDictionary
281
     1
  3
2dWireframe
350
F5
  3
Basic
350
F4
  3
Brighten
350
FB
  3
ColorChange
350
FF
  3
Conceptual
350
F8
  3
Dim
350
FA
  3
EdgeColorOff
350
1E6
  3
Facepattern
350
FE
  3
Flat
350
F0
  3
FlatWithEdges
350
F1
  3
Gouraud
350
F2
  3
GouraudWithEdges
350
F3
  3
Hidden
350
F7
  3
JitterOff
350
1E4
  3
Linepattern
350
FD
  3
OverhangOff
350
1E5
  3
Realistic
350
F9
  3
Shaded
350
1F3
  3
Shaded with edges
350
1F2
  3
Shades of Gray
350
1EF
  3
Sketchy
350
1F0
  3
Thicken
350
FC
  3
Wireframe
350
F6
  3
X-Ray
350
1F1
  0
XRECORD
  5
76DC
102
{ACAD_REACTORS
330
C
102
}
330
C
100
AcDbXrecord
280
     1
 90
        1
330
7F
  0
DICTIONARY
  5
5E
102
{ACAD_REACTORS
330
C
102
}
330
C
100
AcDbDictionary
281
     1
  3
CANNOSCALE
350
146
  3
CENTEREXE
350
259
  3
CENTERLTYPEFILE
350
25A
  3
CMLEADERSTYLE
350
145
  3
CTABLESTYLE
350
84
  3
CVIEWDETAILSTYLE
350
227
  3
CVIEWSECTIONSTYLE
350
228
  3
DIMASSOC
350
5F
  3
HIDETEXT
350
63
  3
INDEXCTL
350
7689
  3
LAYEREVAL
350
1AE
  3
LAYERNOTIFY
350
1AF
  3
LIGHTINGUNITS
350
7687
  3
MSLTSCALE
350
7686
  3
PSOLHEIGHT
350
76D9
  3
PSOLWIDTH
350
76D8
  3
SORTENTS
350
7688
  3
XCLIPFRAME
350
76DA
  0
XRECORD
  5
76DD
102
{ACAD_REACTORS
330
C
102
}
330
C
100
AcDbXrecord
280
     1
  1
DWGPROPS COOKIE
  2

  3

  4

  6

  7

  8
truole
  9

300
=
301
=
302
=
303
=
304
=
305
=
306
=
307
=
308
=
309
=
 40
0.0076273148148148
 41
2460398.356956019
 42
2460398.373819444
  1

 90
        0
  0
DICTIONARY
  5
200
102
{ACAD_REACTORS
330
1FF
102
}
330
1FF
100
AcDbDictionary
281
     1
  0
XRECORD
  5
7634
102
{ACAD_REACTORS
330
1CE
102
}
330
1CE
100
AcDbXrecord
280
     1
340
1F
  0
XRECORD
  5
763D
102
{ACAD_REACTORS
330
75DF
102
}
330
75DF
100
AcDbXrecord
280
     1
340
D2
  0
XRECORD
  5
7640
102
{ACAD_REACTORS
330
75E1
102
}
330
75E1
100
AcDbXrecord
280
     1
340
D6
  0
ACDBDETAILVIEWSTYLE
  5
21C
102
{ACAD_XDICTIONARY
360
771C
102
}
102
{ACAD_REACTORS
330
21B
102
}
330
21B
100
AcDbModelDocViewStyle
 70
     0
  3
Metric50
290
     0
100
AcDbDetailViewStyle
 70
     0
 71
     0
 90
        3
 71
     1
340
11
 40
5.0
340
0
 40
5.0
300

 40
0.0
280
     1
 71
     2
340
16
 90
       25
 71
     3
340
11
 40
5.0
 90
        0
 40
15.0
 90
        1
300
%<\AcVar ViewDetailId>% (%<\AcVar ViewScale \f "%sn">%)
 71
     4
340
16
 90
       25
340
16
 90
       25
280
     0
  0
LAYOUT
  5
D3
102
{ACAD_XDICTIONARY
360
76E1
102
}
102
{ACAD_REACTORS
330
1A
102
}
330
1A
100
AcDbPlotSettings
  1

  2
C:\Documents and Settings\basas\Application Data\Autodesk\AutoCAD 2005\R16.1\enu\plotters\Default Windows System Printer.pc3
  4

  6

 40
0.0
 41
0.0
 42
0.0
 43
0.0
 44
0.0
 45
0.0
 46
0.0
 47
0.0
 48
0.0
 49
0.0
140
0.0
141
0.0
142
1.0
143
1.0
 70
   688
 72
     0
 73
     0
 74
     5
  7

 75
    16
147
1.0
148
0.0
149
0.0
100
AcDbLayout
  1
Layout1
 70
     1
 71
     1
 10
0.0
 20
0.0
 11
12.0
 21
9.0
 12
0.0
 22
0.0
 32
0.0
 14
0.0
 24
0.0
 34
0.0
 15
0.0
 25
0.0
 35
0.0
146
0.0
 13
0.0
 23
0.0
 33
0.0
 16
1.0
 26
0.0
 36
0.0
 17
0.0
 27
1.0
 37
0.0
 76
     0
330
D2
  0
LAYOUT
  5
D7
102
{ACAD_XDICTIONARY
360
76E3
102
}
102
{ACAD_REACTORS
330
1A
102
}
330
1A
100
AcDbPlotSettings
  1

  2
C:\Documents and Settings\basas\Application Data\Autodesk\AutoCAD 2005\R16.1\enu\plotters\Default Windows System Printer.pc3
  4

  6

 40
0.0
 41
0.0
 42
0.0
 43
0.0
 44
0.0
 45
0.0
 46
0.0
 47
0.0
 48
0.0
 49
0.0
140
0.0
141
0.0
142
1.0
143
1.0
 70
   688
 72
     0
 73
     0
 74
     5
  7

 75
    16
147
1.0
148
0.0
149
0.0
100
AcDbLayout
  1
Layout2
 70
     1
 71
     2
 10
0.0
 20
0.0
 11
12.0
 21
9.0
 12
0.0
 22
0.0
 32
0.0
 14
0.0
 24
0.0
 34
0.0
 15
0.0
 25
0.0
 35
0.0
146
0.0
 13
0.0
 23
0.0
 33
0.0
 16
1.0
 26
0.0
 36
0.0
 17
0.0
 27
1.0
 37
0.0
 76
     0
330
D6
  0
LAYOUT
  5
22
102
{ACAD_XDICTIONARY
360
76DE
102
}
102
{ACAD_REACTORS
330
1A
102
}
330
1A
100
AcDbPlotSettings
  1

  2
none_device
  4
ISO_A4_(210.00_x_297.00_MM)
  6

 40
7.5
 41
20.0
 42
7.5
 43
20.0
 44
210.0
 45
297.0
 46
11.54999923706054
 47
-13.65000009536743
 48
0.0
 49
0.0
140
0.0
141
0.0
142
1.0
143
8.704084754739808
 70
 11952
 72
     1
 73
     0
 74
     0
  7

 75
     0
147
0.1148885871608098
148
0.0
149
0.0
100
AcDbLayout
  1
Model
 70
     1
 71
     0
 10
0.0
 20
0.0
 11
12.0
 21
9.0
 12
0.0
 22
0.0
 32
0.0
 14
0.0
 24
0.0
 34
0.0
 15
0.0
 25
0.0
 35
0.0
146
0.0
 13
0.0
 23
0.0
 33
0.0
 16
1.0
 26
0.0
 36
0.0
 17
0.0
 27
1.0
 37
0.0
 76
     0
330
1F
331
EA
1001
ACAD_PSEXT
1000
None
1000
None
1000
Not applicable
1000
The layout will not be plotted unless a new plotter configuration name is selected.
1070
     0
  0
MATERIAL
  5
ED
102
{ACAD_XDICTIONARY
360
1F9
102
}
102
{ACAD_REACTORS
330
6A
102
}
330
6A
100
AcDbMaterial
  1
ByBlock
  0
MATERIAL
  5
EC
102
{ACAD_XDICTIONARY
360
1F7
102
}
102
{ACAD_REACTORS
330
6A
102
}
330
6A
100
AcDbMaterial
  1
ByLayer
  0
MATERIAL
  5
EE
102
{ACAD_XDICTIONARY
360
173
102
}
102
{ACAD_REACTORS
330
6A
102
}
330
6A
100
AcDbMaterial
  1
Global
 43
0.0007999999797903
 43
0.0
 43
0.0
 43
0.0
 43
0.0
 43
0.0007999999797903
 43
0.0
 43
0.0
 43
0.0
 43
0.0
 43
1.0
 43
0.0
 43
0.0
 43
0.0
 43
0.0
 43
1.0
 49
0.0007999999797903
 49
0.0
 49
0.0
 49
0.0
 49
0.0
 49
0.0007999999797903
 49
0.0
 49
0.0
 49
0.0
 49
0.0
 49
1.0
 49
0.0
 49
0.0
 49
0.0
 49
0.0
 49
1.0
142
0.0007999999797903
142
0.0
142
0.0
142
0.0
142
0.0
142
0.0007999999797903
142
0.0
142
0.0
142
0.0
142
0.0
142
1.0
142
0.0
142
0.0
142
0.0
142
0.0
142
1.0
144
0.0007999999797903
144
0.0
144
0.0
144
0.0
144
0.0
144
0.0007999999797903
144
0.0
144
0.0
144
0.0
144
0.0
144
1.0
144
0.0
144
0.0
144
0.0
144
0.0
144
1.0
1001
ACAD
1070
    -1
1070
     3
1070
     0
1000

1071
        0
1070
     0
  0
MLEADERSTYLE
  5
12E
102
{ACAD_XDICTIONARY
360
7708
102
}
102
{ACAD_REACTORS
330
12D
102
}
330
12D
100
AcDbMLeaderStyle
170
     2
171
     1
172
     0
 90
        2
 40
0.0
 41
0.0
173
     1
 91
-1056964608
340
14
 92
       -2
290
     1
 42
2.0
291
     1
 43
8.0
  3
Standard
 44
4.0
300

342
11
174
     1
178
     1
175
     1
176
     0
 93
-1056964608
 45
4.0
292
     0
297
     0
 46
4.0
 94
-1056964608
 47
1.0
 49
1.0
140
1.0
293
     1
141
0.0
294
     1
177
     0
142
1.0
295
     0
296
     0
143
3.75
1001
ACAD_MLEADERVER
1070
     2
  0
MLINESTYLE
  5
18
102
{ACAD_REACTORS
330
17
102
}
330
17
100
AcDbMlineStyle
  2
STANDARD
 70
     0
  3

 62
   256
 51
90.0
 52
90.0
 71
     2
 49
0.5
 62
   256
  6
BYLAYER
 49
-0.5
 62
   256
  6
BYLAYER
  0
ACDBPLACEHOLDER
  5
F
102
{ACAD_REACTORS
330
E
102
}
330
E
  0
SCALE
  5
10D
102
{ACAD_REACTORS
330
10C
102
}
330
10C
100
AcDbScale
 70
     0
300
1:1
140
1.0
141
1.0
290
     1
  0
SCALE
  5
1BE
102
{ACAD_REACTORS
330
10C
102
}
330
10C
100
AcDbScale
 70
     0
300
1:2
140
1.0
141
2.0
290
     0
  0
SCALE
  5
1BF
102
{ACAD_REACTORS
330
10C
102
}
330
10C
100
AcDbScale
 70
     0
300
1:4
140
1.0
141
4.0
290
     0
  0
SCALE
  5
1C0
102
{ACAD_REACTORS
330
10C
102
}
330
10C
100
AcDbScale
 70
     0
300
1:5
140
1.0
141
5.0
290
     0
  0
SCALE
  5
1C1
102
{ACAD_REACTORS
330
10C
102
}
330
10C
100
AcDbScale
 70
     0
300
1:8
140
1.0
141
8.0
290
     0
  0
SCALE
  5
1C2
102
{ACAD_REACTORS
330
10C
102
}
330
10C
100
AcDbScale
 70
     0
300
1:10
140
1.0
141
10.0
290
     0
  0
SCALE
  5
1C3
102
{ACAD_REACTORS
330
10C
102
}
330
10C
100
AcDbScale
 70
     0
300
1:16
140
1.0
141
16.0
290
     0
  0
SCALE
  5
1C4
102
{ACAD_REACTORS
330
10C
102
}
330
10C
100
AcDbScale
 70
     0
300
1:20
140
1.0
141
20.0
290
     0
  0
SCALE
  5
1C5
102
{ACAD_REACTORS
330
10C
102
}
330
10C
100
AcDbScale
 70
     0
300
1:30
140
1.0
141
30.0
290
     0
  0
SCALE
  5
1C6
102
{ACAD_REACTORS
330
10C
102
}
330
10C
100
AcDbScale
 70
     0
300
1:40
140
1.0
141
40.0
290
     0
  0
SCALE
  5
1C7
102
{ACAD_REACTORS
330
10C
102
}
330
10C
100
AcDbScale
 70
     0
300
1:50
140
1.0
141
50.0
290
     0
  0
SCALE
  5
1C8
102
{ACAD_REACTORS
330
10C
102
}
330
10C
100
AcDbScale
 70
     0
300
1:100
140
1.0
141
100.0
290
     0
  0
SCALE
  5
1C9
102
{ACAD_REACTORS
330
10C
102
}
330
10C
100
AcDbScale
 70
     0
300
2:1
140
2.0
141
1.0
290
     0
  0
SCALE
  5
1CA
102
{ACAD_REACTORS
330
10C
102
}
330
10C
100
AcDbScale
 70
     0
300
4:1
140
4.0
141
1.0
290
     0
  0
SCALE
  5
1CB
102
{ACAD_REACTORS
330
10C
102
}
330
10C
100
AcDbScale
 70
     0
300
8:1
140
8.0
141
1.0
290
     0
  0
SCALE
  5
1CC
102
{ACAD_REACTORS
330
10C
102
}
330
10C
100
AcDbScale
 70
     0
300
10:1
140
10.0
141
1.0
290
     0
  0
SCALE
  5
1CD
102
{ACAD_REACTORS
330
10C
102
}
330
10C
100
AcDbScale
 70
     0
300
100:1
140
100.0
141
1.0
290
     0
  0
ACDBSECTIONVIEWSTYLE
  5
21A
102
{ACAD_XDICTIONARY
360
771A
102
}
102
{ACAD_REACTORS
330
219
102
}
330
219
100
AcDbModelDocViewStyle
 70
     0
  3
Metric50
290
     0
100
AcDbSectionViewStyle
 70
     0
 71
     0
 90
      102
 71
     1
340
11
 40
5.0
340
0
340
0
 40
5.0
300
I, O, Q, S, X, Z
 40
10.0
 90
        0
 40
2.5
 90
        0
 71
     2
340
16
 90
       25
340
16
 90
       50
 40
5.0
 40
2.5
 40
5.0
 71
     3
340
11
 40
5.0
 90
        0
 40
15.0
 90
        1
300
%<\AcVar ViewSectionStartId>%-%<\AcVar ViewSectionEndId>% (%<\AcVar ViewScale \f "%sn">%)
 71
     4
300
ANSI31
 40
1.0
 90
        0
290
     0
290
     0
 90
        6
 40
0.0
 40
1.570796326794896
 40
0.2617993877991494
 40
1.308996938995747
 40
-0.2617993877991494
 40
1.832595714594046
  0
TABLESTYLE
  5
7F
102
{ACAD_XDICTIONARY
360
162
102
}
102
{ACAD_REACTORS
330
7E
102
}
330
7E
100
AcDbTableStyle
  3
Standard
 70
     0
 71
     0
 40
1.5
 41
1.5
280
     0
281
     0
  7
Standard
140
4.5
170
     2
 62
     0
 63
     7
283
     0
274
    -2
284
     1
 64
     0
275
    -2
285
     1
 65
     0
276
    -2
286
     1
 66
     0
277
    -2
287
     1
 67
     0
278
    -2
288
     1
 68
     0
279
    -2
289
     1
 69
     0
  7
Standard
140
6.0
170
     5
 62
     0
 63
     7
283
     0
274
    -2
284
     1
 64
     0
275
    -2
285
     1
 65
     0
276
    -2
286
     1
 66
     0
277
    -2
287
     1
 67
     0
278
    -2
288
     1
 68
     0
279
    -2
289
     1
 69
     0
  7
Standard
140
4.5
170
     5
 62
     0
 63
     7
283
     0
274
    -2
284
     1
 64
     0
275
    -2
285
     1
 65
     0
276
    -2
286
     1
 66
     0
277
    -2
287
     1
 67
     0
278
    -2
288
     1
 68
     0
279
    -2
289
     1
 69
     0
  0
VISUALSTYLE
  5
F5
102
{ACAD_XDICTIONARY
360
76F2
102
}
102
{ACAD_REACTORS
330
EF
102
}
330
EF
100
AcDbVisualStyle
  2
2dWireframe
 70
     4
 71
     0
 72
     2
 73
     1
 90
        0
 40
-0.6
 41
-30.0
 62
     5
 63
     7
 74
     1
 91
        4
 64
     7
 65
   257
 75
     1
175
     1
 42
1.0
 92
        0
 66
   257
 43
1.0
 76
     1
 77
     6
 78
     2
 67
     7
 79
     5
170
     0
171
     0
290
     0
174
     0
 93
        1
 44
0.0
173
     0
291
     0
 45
0.0
1001
ACAD
1000
AcDbSavedByObjectVersion
1070
     0
  0
VISUALSTYLE
  5
F4
102
{ACAD_XDICTIONARY
360
76F0
102
}
102
{ACAD_REACTORS
330
EF
102
}
330
EF
100
AcDbVisualStyle
  2
Basic
 70
     7
 71
     1
 72
     0
 73
     1
 90
        0
 40
-0.6
 41
-30.0
 62
     5
 63
     7
 74
     0
 91
        4
 64
     7
 65
   257
 75
     1
175
     1
 42
1.0
 92
        8
 66
     7
 43
1.0
 76
     1
 77
     6
 78
     2
 67
     7
 79
     5
170
     0
171
     0
290
     0
174
     0
 93
        1
 44
0.0
173
     0
291
     1
 45
0.0
1001
ACAD
1000
AcDbSavedByObjectVersion
1070
     0
  0
VISUALSTYLE
  5
FB
102
{ACAD_XDICTIONARY
360
76FE
102
}
102
{ACAD_REACTORS
330
EF
102
}
330
EF
100
AcDbVisualStyle
  2
Brighten
 70
    12
 71
     2
 72
     2
 73
     1
 90
        0
 40
-0.6
 41
-30.0
 62
     5
 63
     7
 74
     1
 91
        4
 64
     7
 65
   257
 75
     1
175
     1
 42
1.0
 92
        8
 66
     7
 43
1.0
 76
     1
 77
     6
 78
     2
 67
     7
 79
     5
170
     0
171
     0
290
     0
174
     0
 93
        1
 44
50.0
173
     0
291
     1
 45
0.0
1001
ACAD
1000
AcDbSavedByObjectVersion
1070
     0
  0
VISUALSTYLE
  5
FF
102
{ACAD_XDICTIONARY
360
7706
102
}
102
{ACAD_REACTORS
330
EF
102
}
330
EF
100
AcDbVisualStyle
  2
ColorChange
 70
    16
 71
     2
 72
     2
 73
     3
 90
        0
 40
-0.6
 41
-30.0
 62
     5
 63
     8
 74
     1
 91
        4
 64
     7
 65
   257
 75
     1
175
     1
 42
1.0
 92
        8
 66
     8
 43
1.0
 76
     1
 77
     6
 78
     2
 67
     7
 79
     5
170
     0
171
     0
290
     0
174
     0
 93
        1
 44
0.0
173
     0
291
     1
 45
0.0
1001
ACAD
1000
AcDbSavedByObjectVersion
1070
     0
  0
VISUALSTYLE
  5
F8
102
{ACAD_XDICTIONARY
360
76F8
102
}
102
{ACAD_REACTORS
330
EF
102
}
330
EF
100
AcDbVisualStyle
  2
Conceptual
 70
     9
 71
     3
 72
     2
 73
     1
 90
        0
 40
-0.6
 41
-30.0
 62
     5
 63
     7
 74
     2
 91
        2
 64
     7
 65
   257
 75
     1
175
     1
 42
40.0
 92
        8
 66
     7
 43
1.0
 76
     1
 77
     6
 78
     2
 67
     7
 79
     3
170
     0
171
     0
290
     0
174
     0
 93
        1
 44
0.0
173
     0
291
     0
 45
0.0
1001
ACAD
1000
AcDbSavedByObjectVersion
1070
     0
  0
VISUALSTYLE
  5
FA
102
{ACAD_XDICTIONARY
360
76FC
102
}
102
{ACAD_REACTORS
330
EF
102
}
330
EF
100
AcDbVisualStyle
  2
Dim
 70
    11
 71
     2
 72
     2
 73
     1
 90
        0
 40
-0.6
 41
-30.0
 62
     5
 63
     7
 74
     1
 91
        4
 64
     7
 65
   257
 75
     1
175
     1
 42
1.0
 92
        8
 66
     7
 43
1.0
 76
     1
 77
     6
 78
     2
 67
     7
 79
     5
170
     0
171
     0
290
     0
174
     0
 93
        1
 44
-50.0
173
     0
291
     1
 45
0.0
1001
ACAD
1000
AcDbSavedByObjectVersion
1070
     0
  0
VISUALSTYLE
  5
1E6
102
{ACAD_XDICTIONARY
360
770E
102
}
102
{ACAD_REACTORS
330
EF
102
}
330
EF
100
AcDbVisualStyle
  2
EdgeColorOff
 70
    22
 71
     2
 72
     2
 73
     0
 90
        0
 40
-0.6
 41
-30.0
 62
     5
 63
     7
 74
     1
 91
        4
 64
     7
 65
   257
 75
     1
175
     1
 42
1.0
 92
        8
 66
     7
 43
1.0
 76
     1
 77
     6
 78
     2
 67
     7
 79
     5
170
     0
171
     0
290
     0
174
     0
 93
        1
 44
0.0
173
     0
291
     1
 45
0.0
1001
ACAD
1000
AcDbSavedByObjectVersion
1070
     0
  0
VISUALSTYLE
  5
FE
102
{ACAD_XDICTIONARY
360
7704
102
}
102
{ACAD_REACTORS
330
EF
102
}
330
EF
100
AcDbVisualStyle
  2
Facepattern
 70
    15
 71
     2
 72
     2
 73
     1
 90
        0
 40
-0.6
 41
-30.0
 62
     5
 63
     7
 74
     1
 91
        4
 64
     7
 65
   257
 75
     1
175
     1
 42
1.0
 92
        8
 66
     7
 43
1.0
 76
     1
 77
     6
 78
     2
 67
     7
 79
     5
170
     0
171
     0
290
     0
174
     0
 93
        1
 44
0.0
173
     0
291
     1
 45
0.0
1001
ACAD
1000
AcDbSavedByObjectVersion
1070
     0
  0
VISUALSTYLE
  5
F0
102
{ACAD_XDICTIONARY
360
76E8
102
}
102
{ACAD_REACTORS
330
EF
102
}
330
EF
100
AcDbVisualStyle
  2
Flat
 70
     0
 71
     2
 72
     1
 73
     1
 90
        2
 40
-0.6
 41
30.0
 62
     5
 63
     7
 74
     0
 91
        0
 64
     7
 65
   257
 75
     1
175
     1
 42
1.0
 92
        8
 66
     7
 43
1.0
 76
     1
 77
     6
 78
     2
 67
     7
 79
     5
170
     0
171
     0
290
     0
174
     0
 93
       13
 44
0.0
173
     0
291
     1
 45
0.0
1001
ACAD
1000
AcDbSavedByObjectVersion
1070
     0
  0
VISUALSTYLE
  5
F1
102
{ACAD_XDICTIONARY
360
76EA
102
}
102
{ACAD_REACTORS
330
EF
102
}
330
EF
100
AcDbVisualStyle
  2
FlatWithEdges
 70
     1
 71
     2
 72
     1
 73
     1
 90
        2
 40
-0.6
 41
30.0
 62
     5
 63
     7
 74
     1
 91
        0
 64
     7
 65
   257
 75
     1
175
     1
 42
1.0
 92
        0
 66
   257
 43
1.0
 76
     1
 77
     6
 78
     2
 67
     7
 79
     5
170
     0
171
     0
290
     0
174
     0
 93
       13
 44
0.0
173
     0
291
     1
 45
0.0
1001
ACAD
1000
AcDbSavedByObjectVersion
1070
     0
  0
VISUALSTYLE
  5
F2
102
{ACAD_XDICTIONARY
360
76EC
102
}
102
{ACAD_REACTORS
330
EF
102
}
330
EF
100
AcDbVisualStyle
  2
Gouraud
 70
     2
 71
     2
 72
     2
 73
     1
 90
        2
 40
-0.6
 41
30.0
 62
     5
 63
     7
 74
     0
 91
        0
 64
     7
 65
   257
 75
     1
175
     1
 42
1.0
 92
        0
 66
     7
 43
1.0
 76
     1
 77
     6
 78
     2
 67
     7
 79
     5
170
     0
171
     0
290
     0
174
     0
 93
       13
 44
0.0
173
     0
291
     1
 45
0.0
1001
ACAD
1000
AcDbSavedByObjectVersion
1070
     0
  0
VISUALSTYLE
  5
F3
102
{ACAD_XDICTIONARY
360
76EE
102
}
102
{ACAD_REACTORS
330
EF
102
}
330
EF
100
AcDbVisualStyle
  2
GouraudWithEdges
 70
     3
 71
     2
 72
     2
 73
     1
 90
        2
 40
-0.6
 41
30.0
 62
     5
 63
     7
 74
     1
 91
        0
 64
     7
 65
   257
 75
     1
175
     1
 42
1.0
 92
        0
 66
   257
 43
1.0
 76
     1
 77
     6
 78
     2
 67
     7
 79
     5
170
     0
171
     0
290
     0
174
     0
 93
       13
 44
0.0
173
     0
291
     1
 45
0.0
1001
ACAD
1000
AcDbSavedByObjectVersion
1070
     0
  0
VISUALSTYLE
  5
F7
102
{ACAD_XDICTIONARY
360
76F6
102
}
102
{ACAD_REACTORS
330
EF
102
}
330
EF
100
AcDbVisualStyle
  2
Hidden
 70
     6
 71
     1
 72
     2
 73
     2
 90
        0
 40
-0.6
 41
-30.0
 62
     5
 63
     7
 74
     2
 91
        2
 64
     7
 65
   257
 75
     2
175
     1
 42
40.0
 92
        0
 66
   257
 43
1.0
 76
     1
 77
     6
 78
     2
 67
     7
 79
     3
170
     0
171
     0
290
     0
174
     0
 93
        1
 44
0.0
173
     0
291
     0
 45
0.0
1001
ACAD
1000
AcDbSavedByObjectVersion
1070
     0
  0
VISUALSTYLE
  5
1E4
102
{ACAD_XDICTIONARY
360
770A
102
}
102
{ACAD_REACTORS
330
EF
102
}
330
EF
100
AcDbVisualStyle
  2
JitterOff
 70
    20
 71
     2
 72
     2
 73
     0
 90
        0
 40
-0.6
 41
-30.0
 62
     5
 63
     7
 74
     1
 91
        4
 64
     7
 65
   257
 75
     1
175
     1
 42
1.0
 92
       10
 66
     7
 43
1.0
 76
     1
 77
     6
 78
     2
 67
     7
 79
     5
170
     0
171
     0
290
     0
174
     0
 93
        1
 44
0.0
173
     0
291
     1
 45
0.0
1001
ACAD
1000
AcDbSavedByObjectVersion
1070
     0
  0
VISUALSTYLE
  5
FD
102
{ACAD_XDICTIONARY
360
7702
102
}
102
{ACAD_REACTORS
330
EF
102
}
330
EF
100
AcDbVisualStyle
  2
Linepattern
 70
    14
 71
     2
 72
     2
 73
     1
 90
        0
 40
-0.6
 41
-30.0
 62
     5
 63
     7
 74
     1
 91
        4
 64
     7
 65
   257
 75
     7
175
     7
 42
1.0
 92
        8
 66
     7
 43
1.0
 76
     1
 77
     6
 78
     2
 67
     7
 79
     5
170
     0
171
     0
290
     0
174
     0
 93
        1
 44
0.0
173
     0
291
     1
 45
0.0
1001
ACAD
1000
AcDbSavedByObjectVersion
1070
     0
  0
VISUALSTYLE
  5
1E5
102
{ACAD_XDICTIONARY
360
770C
102
}
102
{ACAD_REACTORS
330
EF
102
}
330
EF
100
AcDbVisualStyle
  2
OverhangOff
 70
    21
 71
     2
 72
     2
 73
     0
 90
        0
 40
-0.6
 41
-30.0
 62
     5
 63
     7
 74
     1
 91
        4
 64
     7
 65
   257
 75
     1
175
     1
 42
1.0
 92
        9
 66
     7
 43
1.0
 76
     1
 77
     6
 78
     2
 67
     7
 79
     5
170
     0
171
     0
290
     0
174
     0
 93
        1
 44
0.0
173
     0
291
     1
 45
0.0
1001
ACAD
1000
AcDbSavedByObjectVersion
1070
     0
  0
VISUALSTYLE
  5
F9
102
{ACAD_XDICTIONARY
360
76FA
102
}
102
{ACAD_REACTORS
330
EF
102
}
330
EF
100
AcDbVisualStyle
  2
Realistic
 70
     8
 71
     2
 72
     2
 73
     0
 90
        2
 40
-0.6
 41
30.0
 62
     5
 63
     7
 74
     0
 91
        0
 64
     7
 65
   257
 75
     1
175
     1
 42
1.0
 92
        8
 66
   257
 43
1.0
 76
     1
 77
     6
 78
     2
 67
     7
 79
     3
170
     0
171
     0
290
     0
174
     0
 93
       13
 44
0.0
173
     0
291
     0
 45
0.0
1001
ACAD
1000
AcDbSavedByObjectVersion
1070
     0
  0
VISUALSTYLE
  5
1F3
102
{ACAD_XDICTIONARY
360
7718
102
}
102
{ACAD_REACTORS
330
EF
102
}
330
EF
100
AcDbVisualStyle
  2
Shaded
 70
    27
 71
     2
 72
     2
 73
     1
 90
        2
 40
-0.6
 41
30.0
 62
     5
 63
     7
 74
     0
 91
        4
 64
     7
 65
   257
 75
     1
175
     1
 42
1.0
 92
        8
 66
   257
 43
1.0
 76
     1
 77
     6
 78
     2
 67
     8
 79
     3
170
     0
171
     0
290
     0
174
     0
 93
        5
 44
0.0
173
     0
291
     0
 45
0.0
1001
ACAD
1000
AcDbSavedByObjectVersion
1070
     0
  0
VISUALSTYLE
  5
1F2
102
{ACAD_XDICTIONARY
360
7716
102
}
102
{ACAD_REACTORS
330
EF
102
}
330
EF
100
AcDbVisualStyle
  2
Shaded with edges
 70
    26
 71
     2
 72
     2
 73
     1
 90
        2
 40
-0.6
 41
30.0
 62
     5
 63
     7
 74
     1
 91
        2
 64
     7
 65
   257
 75
     2
175
     1
 42
1.0
 92
        8
 66
   257
 43
1.0
 76
     1
 77
     6
 78
     2
 67
     7
 79
     3
170
     0
171
     0
290
     0
174
     0
 93
        5
 44
0.0
173
     0
291
     0
 45
0.0
1001
ACAD
1000
AcDbSavedByObjectVersion
1070
     0
  0
VISUALSTYLE
  5
1EF
102
{ACAD_XDICTIONARY
360
7710
102
}
102
{ACAD_REACTORS
330
EF
102
}
330
EF
100
AcDbVisualStyle
  2
Shades of Gray
 70
    23
 71
     2
 72
     2
 73
     3
 90
        0
 40
-0.6
 41
-30.0
 62
     5
 63
     7
 74
     2
 91
        2
 64
     7
 65
     7
 75
     1
175
     1
 42
40.0
 92
        8
 66
     7
 43
1.0
 76
     1
 77
     6
 78
     2
 67
     7
 79
     3
170
     0
171
     0
290
     0
174
     0
 93
        1
 44
0.0
173
     0
291
     0
 45
0.0
1001
ACAD
1000
AcDbSavedByObjectVersion
1070
     0
  0
VISUALSTYLE
  5
1F0
102
{ACAD_XDICTIONARY
360
7712
102
}
102
{ACAD_REACTORS
330
EF
102
}
330
EF
100
AcDbVisualStyle
  2
Sketchy
 70
    24
 71
     1
 72
     2
 73
     2
 90
        0
 40
-0.6
 41
-30.0
 62
     5
 63
     7
 74
     2
 91
        2
 64
     7
 65
     7
 75
     1
175
     1
 42
40.0
 92
       11
 66
     7
 43
1.0
 76
     1
 77
     6
 78
     2
 67
     7
 79
     6
170
     0
171
     0
290
     0
174
     0
 93
        1
 44
0.0
173
     0
291
     0
 45
0.0
1001
ACAD
1000
AcDbSavedByObjectVersion
1070
     0
  0
VISUALSTYLE
  5
FC
102
{ACAD_XDICTIONARY
360
7700
102
}
102
{ACAD_REACTORS
330
EF
102
}
330
EF
100
AcDbVisualStyle
  2
Thicken
 70
    13
 71
     2
 72
     2
 73
     1
 90
        0
 40
-0.6
 41
-30.0
 62
     5
 63
     7
 74
     1
 91
        4
 64
     7
 65
   257
 75
     1
175
     1
 42
1.0
 92
       12
 66
     7
 43
1.0
 76
     1
 77
     6
 78
     2
 67
     7
 79
     5
170
     0
171
     0
290
     0
174
     0
 93
        1
 44
0.0
173
     0
291
     1
 45
0.0
1001
ACAD
1000
AcDbSavedByObjectVersion
1070
     0
  0
VISUALSTYLE
  5
F6
102
{ACAD_XDICTIONARY
360
76F4
102
}
102
{ACAD_REACTORS
330
EF
102
}
330
EF
100
AcDbVisualStyle
  2
Wireframe
 70
     5
 71
     0
 72
     2
 73
     0
 90
        0
 40
-0.6
 41
-30.0
 62
     5
 63
     7
 74
     1
 91
        4
 64
     7
 65
   257
 75
     1
175
     1
 42
1.0
 92
        0
 66
   257
 43
1.0
 76
     1
 77
     6
 78
     2
 67
     7
 79
     3
170
     0
171
     0
290
     0
174
     0
 93
        1
 44
0.0
173
     0
291
     0
 45
0.0
1001
ACAD
1000
AcDbSavedByObjectVersion
1070
     0
  0
VISUALSTYLE
  5
1F1
102
{ACAD_XDICTIONARY
360
7714
102
}
102
{ACAD_REACTORS
330
EF
102
}
330
EF
100
AcDbVisualStyle
  2
X-Ray
 70
    25
 71
     2
 72
     2
 73
     1
 90
        1
 40
0.5
 41
-30.0
 62
     5
 63
     7
 74
     1
 91
        0
 64
     7
 65
   257
 75
     1
175
     1
 42
1.0
 92
        8
 66
     7
 43
1.0
 76
     1
 77
     6
 78
     2
 67
     7
 79
     3
170
     0
171
     0
290
     0
174
     0
 93
       13
 44
0.0
173
     0
291
     0
 45
0.0
1001
ACAD
1000
AcDbSavedByObjectVersion
1070
     0
  0
DICTIONARYVAR
  5
146
102
{ACAD_REACTORS
330
5E
102
}
330
5E
100
DictionaryVariables
280
     0
  1
1:1
  0
DICTIONARYVAR
  5
259
102
{ACAD_REACTORS
330
5E
102
}
330
5E
100
DictionaryVariables
280
     0
  1
3.500000
  0
DICTIONARYVAR
  5
25A
102
{ACAD_REACTORS
330
5E
102
}
330
5E
100
DictionaryVariables
280
     0
  1
acadiso.lin
  0
DICTIONARYVAR
  5
145
102
{ACAD_REACTORS
330
5E
102
}
330
5E
100
DictionaryVariables
280
     0
  1
STANDARD
  0
DICTIONARYVAR
  5
84
102
{ACAD_REACTORS
330
5E
102
}
330
5E
100
DictionaryVariables
280
     0
  1
STANDARD
  0
DICTIONARYVAR
  5
227
102
{ACAD_REACTORS
330
5E
102
}
330
5E
100
DictionaryVariables
280
     0
  1
Metric50
  0
DICTIONARYVAR
  5
228
102
{ACAD_REACTORS
330
5E
102
}
330
5E
100
DictionaryVariables
280
     0
  1
Metric50
  0
DICTIONARYVAR
  5
5F
102
{ACAD_REACTORS
330
5E
102
}
330
5E
100
DictionaryVariables
280
     0
  1
2
  0
DICTIONARYVAR
  5
63
102
{ACAD_REACTORS
330
5E
102
}
330
5E
100
DictionaryVariables
280
     0
  1
1
  0
DICTIONARYVAR
  5
7689
102
{ACAD_REACTORS
330
5E
102
}
330
5E
100
DictionaryVariables
280
     0
  1
0
  0
DICTIONARYVAR
  5
1AE
102
{ACAD_REACTORS
330
5E
102
}
330
5E
100
DictionaryVariables
280
     0
  1
0
  0
DICTIONARYVAR
  5
1AF
102
{ACAD_REACTORS
330
5E
102
}
330
5E
100
DictionaryVariables
280
     0
  1
0
  0
DICTIONARYVAR
  5
7687
102
{ACAD_REACTORS
330
5E
102
}
330
5E
100
DictionaryVariables
280
     0
  1
2
  0
DICTIONARYVAR
  5
7686
102
{ACAD_REACTORS
330
5E
102
}
330
5E
100
DictionaryVariables
280
     0
  1
1
  0
DICTIONARYVAR
  5
76D9
102
{ACAD_REACTORS
330
5E
102
}
330
5E
100
DictionaryVariables
280
     0
  1
80.000000
  0
DICTIONARYVAR
  5
76D8
102
{ACAD_REACTORS
330
5E
102
}
330
5E
100
DictionaryVariables
280
     0
  1
5.000000
  0
DICTIONARYVAR
  5
7688
102
{ACAD_REACTORS
330
5E
102
}
330
5E
100
DictionaryVariables
280
     0
  1
127
  0
DICTIONARYVAR
  5
76DA
102
{ACAD_REACTORS
330
5E
102
}
330
5E
100
DictionaryVariables
280
     0
  1
2
  0
DICTIONARY
  5
771C
330
21C
100
AcDbDictionary
280
     1
281
     1
  3
ACAD_XREC_ROUNDTRIP
360
771D
  0
DICTIONARY
  5
76E1
330
D3
100
AcDbDictionary
280
     1
281
     1
  3
ACAD_XREC_ROUNDTRIP
360
76E2
  0
DICTIONARY
  5
76E3
330
D7
100
AcDbDictionary
280
     1
281
     1
  3
ACAD_XREC_ROUNDTRIP
360
76E4
  0
DICTIONARY
  5
76DE
330
22
100
AcDbDictionary
280
     1
281
     1
  3
ACAD_XREC_ROUNDTRIP
360
76DF
  0
DICTIONARY
  5
1F9
330
ED
100
AcDbDictionary
280
     1
281
     1
  3
ACAD_XREC_ROUNDTRIP
360
76E6
  3
FBXASSET
360
1FA
  0
DICTIONARY
  5
1F7
330
EC
100
AcDbDictionary
280
     1
281
     1
  3
ACAD_XREC_ROUNDTRIP
360
76E5
  3
FBXASSET
360
1F8
  0
DICTIONARY
  5
173
330
EE
100
AcDbDictionary
280
     1
281
     1
  3
ACAD_XREC_ROUNDTRIP
360
76E7
  3
BUMPTILE
360
175
  3
DIFFUSETILE
360
174
  3
FBXASSET
360
1FB
  3
OPACITYTILE
360
176
  3
REFLECTIONTILE
360
177
  0
DICTIONARY
  5
7708
330
12E
100
AcDbDictionary
280
     1
281
     1
  3
ACAD_XREC_ROUNDTRIP
360
7709
  0
DICTIONARY
  5
771A
330
21A
100
AcDbDictionary
280
     1
281
     1
  3
ACAD_XREC_ROUNDTRIP
360
771B
  0
DICTIONARY
  5
162
330
7F
100
AcDbDictionary
280
     1
281
     1
  3
ACAD_ROUNDTRIP_2008_TABLESTYLE_CELLSTYLEMAP
360
76DB
  3
ACAD_XREC_ROUNDTRIP
360
76E0
  0
DICTIONARY
  5
76F2
330
F5
100
AcDbDictionary
280
     1
281
     1
  3
ACAD_XREC_ROUNDTRIP
360
76F3
  0
DICTIONARY
  5
76F0
330
F4
100
AcDbDictionary
280
     1
281
     1
  3
ACAD_XREC_ROUNDTRIP
360
76F1
  0
DICTIONARY
  5
76FE
330
FB
100
AcDbDictionary
280
     1
281
     1
  3
ACAD_XREC_ROUNDTRIP
360
76FF
  0
DICTIONARY
  5
7706
330
FF
100
AcDbDictionary
280
     1
281
     1
  3
ACAD_XREC_ROUNDTRIP
360
7707
  0
DICTIONARY
  5
76F8
330
F8
100
AcDbDictionary
280
     1
281
     1
  3
ACAD_XREC_ROUNDTRIP
360
76F9
  0
DICTIONARY
  5
76FC
330
FA
100
AcDbDictionary
280
     1
281
     1
  3
ACAD_XREC_ROUNDTRIP
360
76FD
  0
DICTIONARY
  5
770E
330
1E6
100
AcDbDictionary
280
     1
281
     1
  3
ACAD_XREC_ROUNDTRIP
360
770F
  0
DICTIONARY
  5
7704
330
FE
100
AcDbDictionary
280
     1
281
     1
  3
ACAD_XREC_ROUNDTRIP
360
7705
  0
DICTIONARY
  5
76E8
330
F0
100
AcDbDictionary
280
     1
281
     1
  3
ACAD_XREC_ROUNDTRIP
360
76E9
  0
DICTIONARY
  5
76EA
330
F1
100
AcDbDictionary
280
     1
281
     1
  3
ACAD_XREC_ROUNDTRIP
360
76EB
  0
DICTIONARY
  5
76EC
330
F2
100
AcDbDictionary
280
     1
281
     1
  3
ACAD_XREC_ROUNDTRIP
360
76ED
  0
DICTIONARY
  5
76EE
330
F3
100
AcDbDictionary
280
     1
281
     1
  3
ACAD_XREC_ROUNDTRIP
360
76EF
  0
DICTIONARY
  5
76F6
330
F7
100
AcDbDictionary
280
     1
281
     1
  3
ACAD_XREC_ROUNDTRIP
360
76F7
  0
DICTIONARY
  5
770A
330
1E4
100
AcDbDictionary
280
     1
281
     1
  3
ACAD_XREC_ROUNDTRIP
360
770B
  0
DICTIONARY
  5
7702
330
FD
100
AcDbDictionary
280
     1
281
     1
  3
ACAD_XREC_ROUNDTRIP
360
7703
  0
DICTIONARY
  5
770C
330
1E5
100
AcDbDictionary
280
     1
281
     1
  3
ACAD_XREC_ROUNDTRIP
360
770D
  0
DICTIONARY
  5
76FA
330
F9
100
AcDbDictionary
280
     1
281
     1
  3
ACAD_XREC_ROUNDTRIP
360
76FB
  0
DICTIONARY
  5
7718
330
1F3
100
AcDbDictionary
280
     1
281
     1
  3
ACAD_XREC_ROUNDTRIP
360
7719
  0
DICTIONARY
  5
7716
330
1F2
100
AcDbDictionary
280
     1
281
     1
  3
ACAD_XREC_ROUNDTRIP
360
7717
  0
DICTIONARY
  5
7710
330
1EF
100
AcDbDictionary
280
     1
281
     1
  3
ACAD_XREC_ROUNDTRIP
360
7711
  0
DICTIONARY
  5
7712
330
1F0
100
AcDbDictionary
280
     1
281
     1
  3
ACAD_XREC_ROUNDTRIP
360
7713
  0
DICTIONARY
  5
7700
330
FC
100
AcDbDictionary
280
     1
281
     1
  3
ACAD_XREC_ROUNDTRIP
360
7701
  0
DICTIONARY
  5
76F4
330
F6
100
AcDbDictionary
280
     1
281
     1
  3
ACAD_XREC_ROUNDTRIP
360
76F5
  0
DICTIONARY
  5
7714
330
1F1
100
AcDbDictionary
280
     1
281
     1
  3
ACAD_XREC_ROUNDTRIP
360
7715
  0
XRECORD
  5
771D
102
{ACAD_REACTORS
330
771C
102
}
330
771C
100
AcDbXrecord
280
     1
102
DISPLAYNAME
  1
Metric50
102
FLAGS
 90
        0
  0
XRECORD
  5
76E2
102
{ACAD_REACTORS
330
76E1
102
}
330
76E1
100
AcDbXrecord
280
     1
102
SHADEPLOT
 70
     0
102
SHADEPLOTRESLEVEL
 70
     2
102
SHADEPLOTCUSTOMDPI
 70
   300
  0
XRECORD
  5
76E4
102
{ACAD_REACTORS
330
76E3
102
}
330
76E3
100
AcDbXrecord
280
     1
102
SHADEPLOT
 70
     0
102
SHADEPLOTRESLEVEL
 70
     2
102
SHADEPLOTCUSTOMDPI
 70
   300
  0
XRECORD
  5
76DF
102
{ACAD_REACTORS
330
76DE
102
}
330
76DE
100
AcDbXrecord
280
     1
102
SHADEPLOT
 70
     0
102
SHADEPLOTRESLEVEL
 70
     2
102
SHADEPLOTCUSTOMDPI
 70
   300
  0
XRECORD
  5
76E6
102
{ACAD_REACTORS
330
1F9
102
}
330
1F9
100
AcDbXrecord
280
     1
102
MATERIAL
148
0.0
149
0.0
149
0.0
 93
        0
 94
       63
282
     0
 72
     1
 77
     1
171
     1
175
     1
179
     1
273
     0
  0
XRECORD
  5
1FA
102
{ACAD_REACTORS
330
1F9
102
}
330
1F9
100
AcDbXrecord
280
     1
 70
     1
 90
429727718
  1
D62C5603-E3A1-4AEA-B7FB-FE5D8D0755AF
310
504B03040A0000080000CC70623B3DEE336E79000000790000001B0000006175746F6465736B2D64657369676E2D7061636B6167652E786D6C3C3F786D6C2076657273696F6E3D22312E302220656E636F64696E673D227574662D3822203F3E3C666F726D6174733E3C666F726D61743E687474703A2F2F736368656D612E
310
6175746F6465736B2E636F6D2F64657369676E2D7061636B6167652F323030393C2F666F726D61743E3C2F666F726D6174733E504B0304140006080800CC70623BD486FD9CA0000000F4000000130000005B436F6E74656E745F54797065735D2E786D6C7D8EC10E82300C865F65E91D8A1E8C310C0EEA1BF002731658846E
310
D98AC1B77784ABF1D8FE5FBFBF75BBCE937A534CCEB38643598122B6FEE978D0B0485F9C41B54DDD7D022595594E1A469170414C76A4D9A4D207E29CF43ECE46F218070CC6BECC4078ACAA135ACF422C856C0E68EA1BF5669944DDD7BCDE7B1F8E415D77AECB980613C2E4AC91FC167A2B244592486606FC29C8FD7F045B9A
310
EF7053A7E60B504B0304140006080800CC70623B853B8169EB0000007C01000008000000636F72652E786D6C8D90416EC3201045AF62CDB6C206821CC7C244919D9CA01740401C94182C03558F5F9C3852BBEB6A467FFE9B197D7EFC9E1EC5975982F5AE035262288C535E5B377690E21535501C055FBC8FBF6C503839990E
310
5619041F179FE64D52DE45E362569DD7661365082642A11EB9E920A89B99642953CC8E702F67A9EE7234257977194EC9EAE275C4EABCCF5EAD5940D4AC6F0E35A568B8F43562CD7046CD199FD07E60174276A7BE677B5EADB0E0D14EEFFB6A31321A0D82627C4084204C3F096B71DD52F6819B16635EADF63F509AF53FA164
310
5DDCD1EDDD17164090FCC8732078B56691CB33A85CD7DCC40F504B0304140006080800CC70623B55019EA25F0000007C00000007000000636E782E786D6C4DCB3B0E80201045D1AD90E915ED2CF8AC45050C11660C8261F98AB1B07AC9C97D42D718D865D3E909258CFD00CCE24AC6E326A164D74DC0B4128928FF32603847
310
2BA13128B1252AC747C6BAB984FC68F0B87FE8960A5C09FE86CFB69FBA01504B0304140006080800CC70623BDBABAAF470010000D40300000C0000006662782F636F72652E786D6CC553D16E823014FD95A6AF4B694182CC941A83FA05FB810A9511A125A5257EFE2E82712ECEB8A7F100CD39F7F69E734AF9FADC366850B6
310
AF8DCE7018308C942E4C59EB2AC3DE1D498AD15A706B8CFB56869196ADCAF00863C12B6B7C374385D14E6907A836A59A41D9F7CA615434B0C8705F7CAA5606D23BA8E84F41278B93AC54100640439DE0BDB320004D43C63716C7C399D30917DCFBBA9CD9BA8469F5B156168B24CED3F7248AC8769F27244EB73B92EED8862C
310
B7F13E0C179B3C8F979C8ECD82BBBABDAA2BAC924E9558448CBD9330242CFA08E3154B5651FCC6D215639C8EE5774DBE2B5F6CF2B5768B68963BB5F5588420E442FC700B1139D4CB01F450C1E918227C2E09DF070D8140C84E1E9AAB8F1340832A9CB13130A5F1376A908D57309505ECF2A0DF179C4E9D30F5B239B87E3823
310
7A79C6F31DE1A8A5AEC08474B03C7837EAE4938639B44E5932B833D2C6B6B279CDC613877FA26EE21F4A2A4C63EC7F29A2F301D1F9F7A0E37D145F504B0304140006080800CC70623B9C113CC27E0000009D0000000B0000006662782F636E782E786D6C4DCCDF0A83201C86E15B91DFB94BFB330DD428C8FB886521330DA7
310
6397BF1A1DECE883878F57749FCDA1B7892F1BBC047A23808C7F84D9FA55424E0BE6803A256208E9EF06C84F9B91703228B1C690F78B66B34CD9A5439DF5CF0BFBF65E35BCA1B8D6A5C6F540381E886698B5741C695F9503EBA150A2F8958E3DC3EA0B504B0304140006080800CC70623B7DF2F77C2A010000120200003100
310
00006662782F41393633353835312D344632462D344230382D423046372D3739314545314133324237412F636F72652E786D6C8D51DB8EC22014FC15C2939B0D2DB4B45643319AE817EC0F6041255A68B86CFCFC856D4D76DF7CE190393373060EDB3DC707F856CE6B6B7A480A0C81328395DA5C7B18C3057510EC3873D686
310
3F34088C18550F330C39BB3A1BA7051AAC09CA84841A2BD5020AEF55806078A44B0FFD7053A328440C89E1EFC52486BBB8AA8214A99D789CF9E05200300FC927E4FB4D5B375D43103D5527440FB843077C5AA3F5861C8F645F5787F59E95B390B318B55CE45AA638FAA2957BD7248B390B7A7CC51F9C124149C82B8C378810
310
84AB2F42B7B8DD56F413775B8C5999E9FF4471926F8AA236A1AE96B8B3CC434E5839373893369E1FAF30EA395917409EB7F26AF8801C171837A4A6AC9C89E9F9C9B1A58BA30FD6A5EF5DDDCF894B9AD9B6A59C957943A9FCAE2FD5BC4DFE03504B0304140006080800CC70623BAD7543B64E01000033030000300000006662
310
782F41393633353835312D344632462D344230382D423046372D3739314545314133324237412F636E782E786D6CD593CD6EC32010845F0571AD6CE3D48AD20813A9873E410FBD12D82434182C7EAAE6EDBB2424CD25871E7B41D6EC30B3FA84F9E67BB2E40B4234DE8DB46F1925E094D7C6ED479AD3AE5951B2113C789FEE
310
6C943839C1488B4C05DF079FE72A69D8C96C13AAD6B8631503449F83828872B949AC57D26200B826A308D316B4064D6E46FCDA41C05550DC9E483A00797BFD207EFB092A45DE9514C1BBD22178396BD39D891265658C238DEA00936C654E5E433CB65A26D9F6EDB5EBC14EBF49A45CB856E66048291F6939A9A81BB5C89177
310
38143CA680F4AA299D66A042CEB3354A2684DC9D8D178FE0D9B8B41CAAD720F880EE7EF93C0C18769E099ECC04D5A102C8049A8A05632F4DDF376CF1DE0F6BB65C2F8627B65A33C6BB62177CEBBDAD973006829F89F22E814B54F4BC2BE347F8AA8F681390B50FA73F804400B5F542E796F19FF974E7F78DB802FE05E20750
310
4B0304140006080800CC70623BE75B7789680500003C100000340000006662782F41393633353835312D344632462D344230382D423046372D3739314545314133324237412F6F626A656374732E786D6CAD575B8F9B3818FD2B887D06C22499CB8AA1CA655245D5B455A356FB305264C061D8018C6C3393D95FBFC7600890
310
A4CD5EF210B0B1BFEBF98E3F7B1FF6596ABC522E1296DF9BAE3D320D9A872C4AF2F8DE2CE5CEBA358D0FBEC719939D65A691938CDE9B6ADAF4BD98B3B2D05311DD91329583D9D5FC0F438434A7A611A644887B5384CF34233629258BA878B12322891DEFF6B66BD70BFB62634E8AE781D082709A4B588AF91C528CDA28B73F
310
1C998EEF39EABBEFA97FBD6A7C7E9553F9D3D79FE442923C3C523610337627CB87ABE99D359D4CC6D6E4FACAB5E6ABF9D2726FC6A3C5F56271377BB88362213924694B38DD99FE47C48627A1E7D49F5A8BB5E1A74C0A599ED3B0F21F1E56366B89112D681E218F0915D0D6F17AD41FBA2A369DCF6335D62ABBD39779D5DDD1
310
11D4D8DE3CBB96B2E04FB8202E41051754A1AA8E8F76B4C6DFE810B580B1547F4B84911149794252234D024EF8BBE963A95AE27B3D310A9D5C215C7960FAEE415ED75694C6AFB17BCACA5D99A60A9AA65F217B0BFC53292ACB92BF283FAD0D3621576592CB5BED907C2FA8E9DF794E35E97BEA31BED21FEB401ABB94C44839
310
DCACBF0E1C5DA8DA5B2F4DFFD32AD86F543D9E565E7056502E157C00AD2671CD534549AB752FCA9CDA00677A313F04E51B22FF19E57B300579E3C97EB29F682D92935CEC18CF901B7B54FD8C51F362B56FC72FE0B3C1EAE335EDCCBF5AEC39ADB17DC238973F804BA5E6F6BFE7AF1FB32E523BE9F3BD571418E3631DCA4D48
310
5250CF639223210A9446CA30052EDF057BD35F8329C1ECD84552BF0DC8D18BE7BCE23BFE6BD960AB4A7DE79923A103BEBD80F911CBAA2C60DB19B01CF164A5583B772EE6D3FFA56666CBCDA74DC97724A48F9A58967497E489C4D979006FD7A05E227A1EBDD0F737C623387A9C844D3709995625106D157315F8B8392CD4E0
310
A0B9A720C4BE9829CEF37EA1E13111214D53925356365ADA634861B52519DD27A00AEB808EAF0628E6F435519D446F45CF2C9CF5214F0A15B2F6D06B79DA3EE3CBF7F56780D2F4E7EF73A0F5E5B02A38D07DC852C6B7C1FBB6664213E0C39E3EBA7FF4E1AD23EA2829407C85E586727488B751B2DB9502BC7B228A3FD68B6E
310
A65A22397E690AA8D158D7E404EC8CDA235CC3B7D1898680131CEC2CDF2638C65196279577750F15884AEE19F94199155B92B13297978469D4F8D358DF0AEF7631E28DC8F0D9F437D5D39A83B2231A1D52D543813A824EF8D44BCFF2FA6A31BD1E8DAD87F1CCB526B3879935BF59CDADD5C37479BB1CDD4CA7B3556B516589
310
EF352754B706114D9C885EC9131DE6EFEB43D99AFE2391C2F958179413D7CFEF6B1B6DB1E7600F00DE6E5C67454A339A4BA2E0FBA85ED26F045D454F463DBFCE484C2F90F2E5E3666003662ED8F755951A7D1BECD5B30B550B2785C8E7320B7292A4838DDA71BBC863ED7613CAF659337A3354231D4FF4A182A54904C2898C
310
98B28C4AD0CE056CCF332A80986E571EE9DBC305BB5FEB7E509220A58D25CF042D712A806AC0AD0C657FDEF80D2D9CEAA2EE4D1C76F60BFE74219A06527D6F82DF6412526107381E55E353090704D085B52408A8913C4ED159D79BDA71BB4BC506F4831350EB6F975CD22D69BF7AC49B91A2C0A9DDA3D5CA36AD20FC478E37
310
E61844E2352865EBCB61A275A65283CAAA9DD27703B4102F5AF51EF5F573B75CBB5AD38BC845F7A49F82A0966A49C2E3EA5EA0ECD326CD965F1DB402C6FA8B51A4658C5C5E2EC9E214602E55810345408596591009A82E7E7FFACA19EEA299B14A0081A705CB3296EBC14CDF658DCD336EA6D1136881AAEB87B81AB9EE53D5
310
F5EB8BC8362082DA24122F98680A4E7930C01A0079749CEA14382A0783E5EBA5A10F8C098456A03D6A4AEB6BB881E2513747552A5DB22C7EDAF83BD5528081A365F7FF06504B0304140006080000CC70623B000000000000000000000000350000006662782F41393633353835312D344632462D344230382D423046372D37
310
39314545314133324237412F76657274696365732E62696E504B0304140006080800CC70623BF270F1330600000004000000360000006662782F41393633353835312D344632462D344230382D423046372D3739314545314133324237412F747269616E676C65732E62696E636660600000504B0304140006080000CC7062
310
3B000000000000000000000000370000006662782F41393633353835312D344632462D344230382D423046372D3739314545314133324237412F617474726962757465732E62696E504B0304140006080800CC70623B08DA0BD19000000041010000360000006662782F41393633353835312D344632462D344230382D4230
310
46372D3739314545314133324237412F6469726563746F72792E786D6C858F410AC3201045AF22B36F53E9A60B35CBEEBAE80D244E44489C6234F4F835464A48035D0DF398FF9F8AF63D0E6CC63039F212F8F9020C7D47C6792B21C5FE7403D62A1188E2E60C98D7234A5830286103A55745067B9D86B8A3CF9C7F90C11DE6
310
07FB144396D7B6A82D282E9A152AD114D5EF2CB866EEE831B8EEA07A7BB5A8D7D61A2BAAEB7FD5F70921FF497D00504B0304140006080800CC70623BEDD1DC58FD000000A00100003B0000006662782F41393633353835312D344632462D344230382D423046372D3739314545314133324237412F7265736F75726365732F
310
636F72652E786D6C8D504B6E833010BD0A9A6D65B00922041947112427E8052C33A156828DFCA97AFC9A40A576D7CDCCE87D344F8F9FBFE667F689CE6B6B3A6039850C8DB2A336530731DC4903D95970676DF82583CCC8193B5861107C72362E3BA4AC096842428D1D7107A5F7182053CF7474E0D507CE32973124857FE48B
310
540F3961CEF244279DE03EB81420DB9EAC1384436FA353E879B1B182C7A8C75DA3C7F453DF353A1075D537A7BA6464B8F535A99AE14A9A2BBD90E350DD183B5CFABE3AF262350B1EF4FC9351399401471025A527C218A1E53BAB5A5AB765F5469B96525EACF23FA6B88CFF34456DC2A1DCE36E360F82A5202F42F062ED2BAD
310
579969AFDD8A6F504B010214000A0000080000CC70623B3DEE336E79000000790000001B00000000000000000000000000000000006175746F6465736B2D64657369676E2D7061636B6167652E786D6C504B01021400140006080800CC70623BD486FD9CA0000000F40000001300000000000000000000000000B20000005B
310
436F6E74656E745F54797065735D2E786D6C504B01021400140006080800CC70623B853B8169EB0000007C010000080000000000000000000000000083010000636F72652E786D6C504B01021400140006080800CC70623B55019EA25F0000007C000000070000000000000000000000000094020000636E782E786D6C504B
310
01021400140006080800CC70623BDBABAAF470010000D40300000C00000000000000000000000000180300006662782F636F72652E786D6C504B01021400140006080800CC70623B9C113CC27E0000009D0000000B00000000000000000000000000B20400006662782F636E782E786D6C504B01021400140006080800CC70
310
623B7DF2F77C2A010000120200003100000000000000000000000000590500006662782F41393633353835312D344632462D344230382D423046372D3739314545314133324237412F636F72652E786D6C504B01021400140006080800CC70623BAD7543B64E010000330300003000000000000000000000000000D2060000
310
6662782F41393633353835312D344632462D344230382D423046372D3739314545314133324237412F636E782E786D6C504B01021400140006080800CC70623BE75B7789680500003C10000034000000000000000000000000006E0800006662782F41393633353835312D344632462D344230382D423046372D3739314545
310
314133324237412F6F626A656374732E786D6C504B01021400140006080000CC70623B0000000000000000000000003500000000000000000000000000280E00006662782F41393633353835312D344632462D344230382D423046372D3739314545314133324237412F76657274696365732E62696E504B01021400140006
310
080800CC70623BF270F133060000000400000036000000000000000000000000007B0E00006662782F41393633353835312D344632462D344230382D423046372D3739314545314133324237412F747269616E676C65732E62696E504B01021400140006080000CC70623B0000000000000000000000003700000000000000
310
000000000000D50E00006662782F41393633353835312D344632462D344230382D423046372D3739314545314133324237412F617474726962757465732E62696E504B01021400140006080800CC70623B08DA0BD1900000004101000036000000000000000000000000002A0F00006662782F41393633353835312D344632
310
462D344230382D423046372D3739314545314133324237412F6469726563746F72792E786D6C504B01021400140006080800CC70623BEDD1DC58FD000000A00100003B000000000000000000000000000E1000006662782F41393633353835312D344632462D344230382D423046372D3739314545314133324237412F7265
310
736F75726365732F636F72652E786D6C504B0506000000000E000E0080040000641100000000
  0
XRECORD
  5
76E5
102
{ACAD_REACTORS
330
1F7
102
}
330
1F7
100
AcDbXrecord
280
     1
102
MATERIAL
148
0.0
149
0.0
149
0.0
 93
        0
 94
       63
282
     0
 72
     1
 77
     1
171
     1
175
     1
179
     1
273
     0
  0
XRECORD
  5
1F8
102
{ACAD_REACTORS
330
1F7
102
}
330
1F7
100
AcDbXrecord
280
     1
 70
     1
 90
429727718
  1
30362254-06B7-45E0-A893-8CFA70E3D6BC
310
504B03040A0000080000CC70623B3DEE336E79000000790000001B0000006175746F6465736B2D64657369676E2D7061636B6167652E786D6C3C3F786D6C2076657273696F6E3D22312E302220656E636F64696E673D227574662D3822203F3E3C666F726D6174733E3C666F726D61743E687474703A2F2F736368656D612E
310
6175746F6465736B2E636F6D2F64657369676E2D7061636B6167652F323030393C2F666F726D61743E3C2F666F726D6174733E504B0304140006080800CC70623BD486FD9CA0000000F4000000130000005B436F6E74656E745F54797065735D2E786D6C7D8EC10E82300C865F65E91D8A1E8C310C0EEA1BF002731658846E
310
D98AC1B77784ABF1D8FE5FBFBF75BBCE937A534CCEB38643598122B6FEE978D0B0485F9C41B54DDD7D022595594E1A469170414C76A4D9A4D207E29CF43ECE46F218070CC6BECC4078ACAA135ACF422C856C0E68EA1BF5669944DDD7BCDE7B1F8E415D77AECB980613C2E4AC91FC167A2B244592486606FC29C8FD7F045B9A
310
EF7053A7E60B504B0304140006080800CC70623B1EC5D7A3EB0000007C01000008000000636F72652E786D6C8D90416EC3201045AF82665B6103C6756C6122AB4D4ED00B204C5C94182C03558F5F9C3852BBEB6A467FFE9B197D71FC9E6FE8CBACC17AD7032D0820E3B41FAD9B7A48F1820F808E52ACDEC75F36404ECDA687
310
4D0629A6D5A76597B477D1B89855E747B38B2A041301E95B6E7A08FAD3CCAA50296647B8168BD2573599823EBB0CA76447F43862C7BCCF5EAC59410E4DDD9C7973C2755553CCCFA4C603E3040F1565ED3B1FDE4E432BCA0D9622DAF9795FAF464533826484B498524CD807E51D79ED187F21878E10516EF63F505AC67F42C9
310
BA58B1FDDD071640D2FCC87D2045B96591CB3DA85CB7DCE40F504B0304140006080800CC70623B55019EA25F0000007C00000007000000636E782E786D6C4DCB3B0E80201045D1AD90E915ED2CF8AC45050C11660C8261F98AB1B07AC9C97D42D718D865D3E909258CFD00CCE24AC6E326A164D74DC0B4128928FF32603847
310
2BA13128B1252AC747C6BAB984FC68F0B87FE8960A5C09FE86CFB69FBA01504B0304140006080800CC70623B8C9102E971010000D40300000C0000006662782F636F72652E786D6CC5535B6E833010BC8AE5DF0A6C08340F1947A84D4ED00B38C6A128602363A31CBFCB234A53A551FA553EC09AD9F5CE8C31DB9E9B1AF5CA
310
7695D1198E428A91D2D214952E33ECDD315861B4E5CC1AE3BE9561A445A3323CC098B3D21ADFCE9034DA29ED00D5A6503328BA4E398C640D8B0C77F253352214DE4145770A5B214FA2546114020D759C75CE8200340D19DE981F0F6746269C33EFAB6266AB02A655C74A59CCF365BADC27CB5D902ED22848F6340DF238A141
310
BE88E2F57B92BFEDF23523433367AE6A2EEAA455C2A902F398D2751045018D3FA264435F3771F242571B4A1919CA6F9A7C5B3CD9E42BED16F12C776AEB308F40C848FC700B1139D4891EF410CEC810227CC6846F8386402064270EF5C5C709A05E49676C024C61FC95EA45ED154CA5211D1FF4FB8291A913A68E9B83EBBB33
310
E2A7673CDE118E5AE8124C0807CB8377834E366998436B950D7A7746DAD846D4CFD978E0F04FD455FC5D49D2D4C6FE9722321F10997F0F32DC47FE05504B0304140006080800CC70623BFFEA85907E0000009D0000000B0000006662782F636E782E786D6C4DCCD10A83201886E15B91FFDC95D95A811AB6F23E625948A6C3
310
E9D8E5AF46073BFAE0E1E365ED67B3E8ADC3CB78C7815C7240DA3DFC64DCC221C519D7805AC182F7F1EF06C88D9BE6703008B6049F9E274D7A1E938DBB5AE3D6131B2589BA0D3D965551E0B2EA732C9B9A624AAEB41E3A557677029960D9AFB4EF11165F504B0304140006080800CC70623B4FEEA4082C0100001202000031
310
0000006662782F39464131463745442D413632322D343644302D413938332D3331353338454246344243312F636F72652E786D6C8D515B6EC32010BC0AE2AB55850DD871ED0813254D72825EC00192A2C460F1A872FC42ED48ED5F7E00CDCECCCEB26C731F6FE05B39AFADE921293004CA082BB5B9F43086336A21D870E6AC
310
0D7F68109861543DCC30E4ECE26C9C164858139409093556AA051CBC570102714B8F1E7AF1A5C6A11862480C7F2DA6415C878B2A4891CA89C7990F2E050073937C42DE1DB7E4F87ED8A36D4329AA9B3D46DBAEAD504556557BD81DEBDD0761E52CE42C462D17B996298E3E6BE59E35C962CE821E1FF18553435012728A7187
310
0841987E927A8D9B35ADDF70BBC6989599FE4F1427F9A4286A132ABAC49D651EF234CD5CE04CDA78BA3DC2A8FB645D00B9DF8B57E215725C60BCA2A463E54C4CE327C7A65E1C7DB02E7DEFCBF594B864C5CA6CDBD49C957943E9FA5D5FBAF336F90F504B0304140006080800CC70623BAD7543B64E01000033030000300000
310
006662782F39464131463745442D413632322D343644302D413938332D3331353338454246344243312F636E782E786D6CD593CD6EC32010845F0571AD6CE3D48AD20813A9873E410FBD12D82434182C7EAAE6EDBB2424CD25871E7B41D6EC30B3FA84F9E67BB2E40B4234DE8DB46F1925E094D7C6ED479AD3AE5951B2113C
310
789FEE6C943839C1488B4C05DF079FE72A69D8C96C13AAD6B8631503449F83828872B949AC57D26200B826A308D316B4064D6E46FCDA41C05550DC9E483A00797BFD207EFB092A45DE9514C1BBD22178396BD39D891265658C238DEA00936C654E5E433CB65A26D9F6EDB5EBC14EBF49A45CB856E66048291F6939A9A81BB5
310
C8917738143CA680F4AA299D66A042CEB3354A2684DC9D8D178FE0D9B8B41CAAD720F880EE7EF93C0C18769E099ECC04D5A102C8049A8A05632F4DDF376CF1DE0F6BB65C2F8627B65A33C6BB62177CEBBDAD973006829F89F22E814B54F4BC2BE347F8AA8F681390B50FA73F804400B5F542E796F19FF974E7F78DB802FE05
310
E207504B0304140006080800CC70623B16AB87BA640500003C100000340000006662782F39464131463745442D413632322D343644302D413938332D3331353338454246344243312F6F626A656374732E786D6CAD575B6FA33818FD2B887DE6924B3BED8A326A92B68A663B534DD4D13E548A0C38942D60649B369D5FBFC7
310
600890A493BDE42160637FD7F31D7FF63E6FB3D478A55C242CBF3247B66B1A340F5994E4F19559CA8D75611A9F7D8F33263BCB4C232719BD32D5B4E97B316765A1A722BA21652A07B3B7B33F0D11D29C9A46981221AE4C113ED38CD8A4942CA2E2C58E882476BCD9DA23BB5ED8171B73523C0F841684D35CC252CCE79062D4
310
468DFA43D7747CCF51DF7D4FFDEB5593E3AB9CCA9FBEFE241792E4E19EB28198C968BAB8199F5D5A67D3E9C49A9E8F47D6EC76B6B0469F26EEFC7C3EBFBCBEB98462213924694B38DD98FE1D62C393D073EA4FADC5DAF04326852CCF6958F90F0F2B9BB5C48816348F90C7840A68EB78EDF68723159BCEE7891A6B95DDE9D3
310
BCEAEEE8086A6C6F9E5D4B59F0175C10A7A0820BAA5055C7473B5AE3CFDD452D602CD5DF12616444529E90D448938013FE6EFA58AA96F85E4F8C42275708571E98FE6827AF6B2B4AE3D7D83D64E5A64C53054DD3AF90BD06FEA9149565C94FCA0F6B834DC85599E4F2423B24DF0B6AFA979E534DFA9E7A4CC6FA631D486393
310
921829879BF5D781A373557BCB85E97FB90DB62B558F8795179C15944B051F40AB495CF35451D26A4727654E6D8033BD98EF82F21D91FF8AF2DD9982BCF1643BDD4EB516C9492E368C67C88DED563FC36D5EACF66DFF057C3658BDBFA69DF9578B3DA735B64F18C7F20770A9D45CFCF7FCF563D6456A277DBEF78A02637CA2
310
43B90A490AEAB94F72244481D24819A6C0E59B606BFA4B3025981DBB48EAB701D97BF19C577CC77F2D1B6C55A9EF3C732474C0B727303F625995056C3B02963D9EAC146BE78EC5FCEC7FA999EBC5EACBAAE41B12D27B4D2C0BBA49F244E2ECDC81B76B502F113D8F5EE8FB1BE3111CDD4FC2AA9B844CAB1288B68AB90A7CDC
310
1C166AB0D3DC5310625FCC14E779BFD0709F8890A629C9292B1B2DED31A4B0DA928CEE135085754027E3018A397D4D5427D15BD1330B677DC8934285AC3DF45A9EB68FF8F2B8FC0A509AFEECFD0FF2DE25CC6047F7214B195F07EFEB9A094D800F7BFAE8FED187B78EA8A3A400F115961BCAD1215E47C966530AF0EE8128FE
310
58CEBB996A8964FFA529A046635D9353B0336A8F700DDF46271A024E70B0B37C9DE01847591E54DED53D54202AB947E4076556AC49C6CA5C9E1226B7F1A7B1BE15DEED62C41B91E1B3E9AFAAA735036547343A925075041DF0A9979E893B391F8FCFA6967B3EFB644DCF6E5CEBFAE272625DCC6FAF3FB93793C5F90CE1EF57
310
407342756B10D1C489E8953CD1617E5CEECAD6F4EF8914CE5D5D504E5C3F1F9736DA62CFC11E00BCDDB8CC8A9466349744C1F75EBDA4DF09BA8A9E8C7A7E9991989E20E5DBDD6A6003664ED8F7A04A8DBE0DF6EAD9B9AA858342E47399053949D2C146EDB85DE4B176BB0965FBAC19BD19AA918E27FA50C1D22402E144464C
310
59462568E704B6E71915404CB72B8FF4EDE184DDAF753F284990D2C6926782963815403548A70C657FDEF80D2D9CEAA2AE4C1C76F60BFE74219A06527D6582DF6412526107381E55E353090704D085B52408D0933C4ED159D79BDA71BB4BC506F4831350EB6F979CD22D69BF7AC49B91A2C0A9DDA3D5CA36AD20FC478E37E6
310
1844E2352865EBCB6EA275A652E3836BE04EFB400BF1A2556F515F1FBB35B2AB35BD889C744FFA1004B5544B121E57F70215746DD2F5E2C1412B602CBF19455AC6C8E5E9922C4E01E65215385004546899059180EAFCF7A707CE7017CD8CDB0410789AB32C63B91E5CEBBBACB17AC6CD347A022D5075FD106377347AAABA7E
310
7D11590744509B44E205134DC1290F06580320F78E537D3D73540E06CB970B431F185308AD40BBD794D6D77003C5A36E8EAA54BA64597CD8F83BD552A080A365F7FF06504B0304140006080000CC70623B000000000000000000000000350000006662782F39464131463745442D413632322D343644302D413938332D3331
310
353338454246344243312F76657274696365732E62696E504B0304140006080800CC70623BF270F1330600000004000000360000006662782F39464131463745442D413632322D343644302D413938332D3331353338454246344243312F747269616E676C65732E62696E636660600000504B0304140006080000CC70623B
310
000000000000000000000000370000006662782F39464131463745442D413632322D343644302D413938332D3331353338454246344243312F617474726962757465732E62696E504B0304140006080800CC70623B08DA0BD19000000041010000360000006662782F39464131463745442D413632322D343644302D413938
310
332D3331353338454246344243312F6469726563746F72792E786D6C858F410AC3201045AF22B36F53E9A60B35CBEEBAE80D244E44489C6234F4F835464A48035D0DF398FF9F8AF63D0E6CC63039F212F8F9020C7D47C6792B21C5FE7403D62A1188E2E60C98D7234A5830286103A55745067B9D86B8A3CF9C7F90C11DE607
310
FB144396D7B6A82D282E9A152AD114D5EF2CB866EEE831B8EEA07A7BB5A8D7D61A2BAAEB7FD5F70921FF497D00504B0304140006080800CC70623B0D6EF93BFE000000A00100003B0000006662782F39464131463745442D413632322D343644302D413938332D3331353338454246344243312F7265736F75726365732F63
310
6F72652E786D6C8D50596E833010BD0A9ADFCA60B334011947A8694ED00B586642AC041B79A97AFC9A40A5F6AF3F33A3B7689E1E3F7DCD8FEC139DD7D6F4C0720A191A65476DA61E62B892236427C19DB5E1970C322367EC618541F0C9D9B8EC90B226A009093576C41D94DE63804C3DD2D18357379C652E63480A7FCF17A9
310
EE72C29CE5894E3AC17D702940B63D59270887DE46A7D0F36263058F518FBB468FE9A7BE6A7420864373B8D4873369AA8691FA421B3294352543C5CAF65C0F6FEF43CB8BD52C78D0F34F46E550061C419494B6843142CB0F5677F4B52BEB177AEC28E5C52AFF638ACBF84F53D42654E51E77B379102C05791282176B5F693D
310
CB4C7BED567C03504B010214000A0000080000CC70623B3DEE336E79000000790000001B00000000000000000000000000000000006175746F6465736B2D64657369676E2D7061636B6167652E786D6C504B01021400140006080800CC70623BD486FD9CA0000000F40000001300000000000000000000000000B20000005B
310
436F6E74656E745F54797065735D2E786D6C504B01021400140006080800CC70623B1EC5D7A3EB0000007C010000080000000000000000000000000083010000636F72652E786D6C504B01021400140006080800CC70623B55019EA25F0000007C000000070000000000000000000000000094020000636E782E786D6C504B
310
01021400140006080800CC70623B8C9102E971010000D40300000C00000000000000000000000000180300006662782F636F72652E786D6C504B01021400140006080800CC70623BFFEA85907E0000009D0000000B00000000000000000000000000B30400006662782F636E782E786D6C504B01021400140006080800CC70
310
623B4FEEA4082C0100001202000031000000000000000000000000005A0500006662782F39464131463745442D413632322D343644302D413938332D3331353338454246344243312F636F72652E786D6C504B01021400140006080800CC70623BAD7543B64E010000330300003000000000000000000000000000D5060000
310
6662782F39464131463745442D413632322D343644302D413938332D3331353338454246344243312F636E782E786D6C504B01021400140006080800CC70623B16AB87BA640500003C1000003400000000000000000000000000710800006662782F39464131463745442D413632322D343644302D413938332D3331353338
310
454246344243312F6F626A656374732E786D6C504B01021400140006080000CC70623B0000000000000000000000003500000000000000000000000000270E00006662782F39464131463745442D413632322D343644302D413938332D3331353338454246344243312F76657274696365732E62696E504B01021400140006
310
080800CC70623BF270F133060000000400000036000000000000000000000000007A0E00006662782F39464131463745442D413632322D343644302D413938332D3331353338454246344243312F747269616E676C65732E62696E504B01021400140006080000CC70623B0000000000000000000000003700000000000000
310
000000000000D40E00006662782F39464131463745442D413632322D343644302D413938332D3331353338454246344243312F617474726962757465732E62696E504B01021400140006080800CC70623B08DA0BD190000000410100003600000000000000000000000000290F00006662782F39464131463745442D413632
310
322D343644302D413938332D3331353338454246344243312F6469726563746F72792E786D6C504B01021400140006080800CC70623B0D6EF93BFE000000A00100003B000000000000000000000000000D1000006662782F39464131463745442D413632322D343644302D413938332D3331353338454246344243312F7265
310
736F75726365732F636F72652E786D6C504B0506000000000E000E0080040000641100000000
  0
XRECORD
  5
76E7
102
{ACAD_REACTORS
330
173
102
}
330
173
100
AcDbXrecord
280
     1
102
MATERIAL
148
0.0
149
0.0
149
0.0
 93
        0
 94
       63
282
     0
 72
     1
 77
     1
171
     1
175
     1
179
     1
273
     0
  0
XRECORD
  5
175
102
{ACAD_REACTORS
330
173
102
}
330
173
100
AcDbXrecord
280
     1
270
     1
271
     1
  0
XRECORD
  5
174
102
{ACAD_REACTORS
330
173
102
}
330
173
100
AcDbXrecord
280
     1
270
     1
271
     1
  0
XRECORD
  5
1FB
102
{ACAD_REACTORS
330
173
102
}
330
173
100
AcDbXrecord
280
     1
 70
     0
 90
1673772943
  1
ECE7A1D2-D628-4531-984C-D00F80459256
310
504B03040A0000080000CC70623B3DEE336E79000000790000001B0000006175746F6465736B2D64657369676E2D7061636B6167652E786D6C3C3F786D6C2076657273696F6E3D22312E302220656E636F64696E673D227574662D3822203F3E3C666F726D6174733E3C666F726D61743E687474703A2F2F736368656D612E
310
6175746F6465736B2E636F6D2F64657369676E2D7061636B6167652F323030393C2F666F726D61743E3C2F666F726D6174733E504B0304140006080800CC70623BD486FD9CA0000000F4000000130000005B436F6E74656E745F54797065735D2E786D6C7D8EC10E82300C865F65E91D8A1E8C310C0EEA1BF002731658846E
310
D98AC1B77784ABF1D8FE5FBFBF75BBCE937A534CCEB38643598122B6FEE978D0B0485F9C41B54DDD7D022595594E1A469170414C76A4D9A4D207E29CF43ECE46F218070CC6BECC4078ACAA135ACF422C856C0E68EA1BF5669944DDD7BCDE7B1F8E415D77AECB980613C2E4AC91FC167A2B244592486606FC29C8FD7F045B9A
310
EF7053A7E60B504B0304140006080800CC70623BD9DDAED0EC0000007C01000008000000636F72652E786D6C8D90416EC3201045AF82665B61836D9CD8C2444DD39CA01740405C94182C03558F5F9C3852BBEB6A467FFE9B197D7EF89E6EE8CB2CC17A37002D0820E394D7D68D03A478C17B4007C117EFE32F1B20272733C0
310
2A83E0E3E2D3BC49CABB685CCCAAF3DA6CA20CC14440EA969B0182FA34932C648AD911AEC52CD5558EA6A0CF2EC329598D1E47ACCEFBECC59A050463A7EA5833865FEBDD0E37353BE3EE8DBDE3F6786A48D375FBF6CC78B9C282473B3DEFABC5C86834888A900E538A49F5419B9EB47DD5BC907D4F082F57FB1F28CDFA9F50
310
B22ED6D5F6EE030B20687EE43E10BC5CB3C8E51E54AE6B6EE207504B0304140006080800CC70623B55019EA25F0000007C00000007000000636E782E786D6C4DCB3B0E80201045D1AD90E915ED2CF8AC45050C11660C8261F98AB1B07AC9C97D42D718D865D3E909258CFD00CCE24AC6E326A164D74DC0B4128928FF326038
310
472BA13128B1252AC747C6BAB984FC68F0B87FE8960A5C09FE86CFB69FBA01504B0304140006080800CC70623BA24EB22D72010000D40300000C0000006662782F636F72652E786D6CC5535B6E833010BC8AE5DF0A6C5E49888CA3A6694ED00B38E05014B091B1518EDFE511A5A9D228FD2A1F60CDEC7A67C6986DCE4D8D7A
310
69BA4AAB0C073EC548AA5C17952A33ECECD15B61B4E1CC686DBF9561A44423333CC098B3D268D7CE50AE9595CA02AA74216750749DB418E5352C32DCE59FB211BE70162ABA93DF8AFC244AE9073ED050C759670D0840D390E18DF9F1706664C23973AE2A66B62A605A75ACA4C13C4976E1364A12EF355A2EBD384AF65EFA96
310
BC7B8BED2EA6719AAE16FB8491A199335B351775B991C2CA02F390D2D40B028F861F41BCA68B7518BFD0D59A524686F29B26D7164F36B94AD9289CE54E6D1DE6010819891F6E21228B3AD1831EC219194284CF98F06DD01008846CC5A1BEF83801D4CBDC6A1303536877A57A513B0953A94FC707FDBE6064EA84A9E3E6E0FA
310
EE8CF0E9198F7784A316AA0413C2C2F2E0ECA0934D1AE6D05A69BCDE9E91D2A611F573361E38FC1375157F5752AE6B6DFE4B11990F88CCBF0719EE23FF02504B0304140006080800CC70623B408A7D3B7C0000009D0000000B0000006662782F636E782E786D6C4DCCD10A83201886E15B91FFDC552A92A0064DBC8F581632
310
D3703A76F9ABD1C18E3E78F878E5F0D9027ABBFCF2292AE86E2D20171F69F6715550CB827B40839639A5F2770314A7CD293819B45C73AAFB45B35BA61ACAA1C1C7E7855C58C15BC331339661262CC762340413D68D77DA5B42298546CBE6573AF60CEB2F504B0304140006080800CC70623B449FB9BD290100001202000031
310
0000006662782F36394639363044362D344446342D343946362D394244322D3234314243333846323333332F636F72652E786D6C8D515B6EC32010BC0AE22B55850D98B871848994463E412FE002495162B07854397EA176A4F62F3F2C9A9D991D587EB84F37F0AD7D30CEF6905418026DA553C65E7A98E219ED203808EE9D
310
8B7F6810D871D23D2C3014FCE25D9A57483A1BB58D19B54EE9151C43D0110279CB971E06F9A5A7B11A53CC8C70ADE6515EC78BAE4895DB992778883E0700CB907242D17643D7E2538BD869608875438BBAE38922CAC8F1BDD90DB4691A5E2F42C153326A951B95E398B3D1FE599322163C9AE9115F7A3D46ADA0A018778810
310
84E907617BDCEE297BC5BB3DC6BC2EF47FA234AB2745C9D8D8D035EE220B50105E2F0DC1954B9FB747187D9F9D8FA0CCDB042D5FA0C015C65B42DF78BD10F3F3B363CB56C7109DCFDFBBB97E662ED92EB62D13BC2E1BCAE5777DB9966D8A1F504B0304140006080800CC70623BAD7543B64E01000033030000300000006662
310
782F36394639363044362D344446342D343946362D394244322D3234314243333846323333332F636E782E786D6CD593CD6EC32010845F0571AD6CE3D48AD20813A9873E410FBD12D82434182C7EAAE6EDBB2424CD25871E7B41D6EC30B3FA84F9E67BB2E40B4234DE8DB46F1925E094D7C6ED479AD3AE5951B2113C789FEE
310
6C943839C1488B4C05DF079FE72A69D8C96C13AAD6B8631503449F83828872B949AC57D26200B826A308D316B4064D6E46FCDA41C05550DC9E483A00797BFD207EFB092A45DE9514C1BBD22178396BD39D891265658C238DEA00936C654E5E433CB65A26D9F6EDB5EBC14EBF49A45CB856E66048291F6939A9A81BB5C89177
310
38143CA680F4AA299D66A042CEB3354A2684DC9D8D178FE0D9B8B41CAAD720F880EE7EF93C0C18769E099ECC04D5A102C8049A8A05632F4DDF376CF1DE0F6BB65C2F8627B65A33C6BB62177CEBBDAD973006829F89F22E814B54F4BC2BE347F8AA8F681390B50FA73F804400B5F542E796F19FF974E7F78DB802FE05E20750
310
4B0304140006080800CC70623B8D05915C650500003B100000340000006662782F36394639363044362D344446342D343946362D394244322D3234314243333846323333332F6F626A656374732E786D6CAD575B6FA33814FE2B887D06429276DA1565D4266D158D3A339A6846FB502932E050B66023DB74D2FDF5FB190C01
310
9276B2973C046C8ECFF53B17071F77456EBD502133CEAE6CDF9DD81665314F32965ED995DA3A17B6F5310C04E7AA47665B8C14F4CAD6DB7618A48257A5D94AE89654B91AEDDEDDFC61C998326A5B714EA4BCB265FC440BE2924AF184CA6737218AB8E976E7FA6E4338649B0A523E8D98964450A6A029F619B8588D52FE7039
310
B1BD30F0F4F730D0FF866AF6369557DB33949F31A9088B0F848DD8CCFCF9F2767A76E99CCDE733677E3EF59D9BBB9BA5E37F984D16E78BC5E5F5ED25044B25C0C96822E8D60EEFE11B91C581D77CEA34368A1F5329E68CD1B8B61F16D63A1B8E092D294B10C78C4A48EB593D192E7DED9BDEE7995E1B91FDEDD3ACEA9FE831
310
6A756F9F7D4D79F4274C90A7A04248AA51D5F8C718DAE06FB2F75AC4796EBE65D22A88A22223B995679120E2D50E41AA49C260C046A35368846B0BECD0DFF3EBEB8AD4F835768F69B9ADF25C43D30E6B646F807FAA64AD59F61715C7A54127C4AACA98BA3006A9D792DAE165E0D59B61A01FB3A9F9D838D2DAE62445C86166
310
F37564E842E7DE6A69879FEEA2DD5AE7E371E1A5E025154AC307D06A03D73EB5978C58FFA4C8E9033066E0F3BD53BEC1F39F91BE7B55103791EDE6BBB991A2046172CB4581D8B893FA674DDA17A77B3B7C413D1B511FD2743BFF8A38F03A658705E3ADF8015C3A3417FF3D7E439FF591DA0B5F18BC20C1B8981957AE6392A3
310
F43C640C01D1A0B4728E2DD4F26DB4B3C3152A252A3B4E913CEC1C72F012782FF88EFF8637AA552DBEF76408E8A8DE9E50F9E1CB3A2DA0DB1B6039A893B56063DC5B3E3FFB5F72E67AB9FEB4AEC496C4F4C1149625DD662C53E89D7BF0F6151A046260D1337DFDC94502430F83B0EE07A130A224BCAD7DAE1D9FB6CD422FF6
310
920702629C4BB9AE79C12F243C6432A6794E18E5552BA56B431AAB5D91317302B2B071E86C3A42B1A02F999E24061403B5D0EB639195DA655DD3EBEAB4FB862DDF579F014AD0E73C22F99E28DA57FB98E75C6CA2D74D53086D600F4786E0FE3144B771A8A7B900F03594DB8A633CBC49B2EDB69228BB479CF863B5E807AAAB
310
23872F6DFEB4129B949CA33823F58830E86D65621E10047D9DB34D862E8EAC3C2ABC2F7B2C40D67CDFE01F5545B92105AF983AC54D93D69E56FB8E797F88913F898A9FEC705D3F9D1B54EC8426FB500D40A03BD0119B06E1B95DDC7EB8F6975367793EBD70E66733DFB9BC982F9CE564727731999F5D4ECFCE3B8D6A4DC2A0
310
6D50FD148437D110834A64C6CDDF57FBACB5C307A2A477DFE4939736CFEF2B175371E0E10CF0DD1D5C15654E0BCA14D1E87DD02FF93782A162C0A3D95F1524A52770F972BF1EE9809D13CE7DD599467F8ECE9ADD85CE85A34CD45355448C64F9E8A031DC2D596ACC6E5DD93D9B82DE2EF5CAF81363A8E47996A0DE24564A79
310
4115AACE09C55E14540231FDA13C319787134EBF34E3A022514E5B4D9E0826E25C02D5805B15ABE1BEF51B26383D445DD9E875EE33FE4C22DA16427D65A3BCA92CA6D28DD01DF5DC53330704308475351050232CCD31583787BA75774AFB06E5070DD0C8EF484E19968C5D83BA5B90B244D31E54D55A372320FE4786B7EA58
310
44E135AA5467CB7EA333A61683CC6A8C3257034C10CF46F40EF9F5BE59BE5BD30C3C72D235E95D10345C1D45445A5F0BB47E46A5EBE5570F9380B5FA629579952296A773720405982B9DE04011506178964401AA8BDF1FBF0A8EAB6861DD6580C0E38217056766716DAEB2D6FA0917D3E4116581EADB879C4E7CFFB11EFACD
310
3D641311495D92C8676CB409A72D18610D803CE8A626049E8EC1887CB5B44CC39883690DDA8399B4B9855B481E7D71D4A9D22F96E5BB73BF5793020C02137BF837504B0304140006080000CC70623B000000000000000000000000350000006662782F36394639363044362D344446342D343946362D394244322D32343142
310
43333846323333332F76657274696365732E62696E504B0304140006080800CC70623BF270F1330600000004000000360000006662782F36394639363044362D344446342D343946362D394244322D3234314243333846323333332F747269616E676C65732E62696E636660600000504B0304140006080000CC70623B0000
310
00000000000000000000370000006662782F36394639363044362D344446342D343946362D394244322D3234314243333846323333332F617474726962757465732E62696E504B0304140006080800CC70623B08DA0BD19000000041010000360000006662782F36394639363044362D344446342D343946362D394244322D
310
3234314243333846323333332F6469726563746F72792E786D6C858F410AC3201045AF22B36F53E9A60B35CBEEBAE80D244E44489C6234F4F835464A48035D0DF398FF9F8AF63D0E6CC63039F212F8F9020C7D47C6792B21C5FE7403D62A1188E2E60C98D7234A5830286103A55745067B9D86B8A3CF9C7F90C11DE607FB14
310
4396D7B6A82D282E9A152AD114D5EF2CB866EEE831B8EEA07A7BB5A8D7D61A2BAAEB7FD5F70921FF497D00504B0304140006080800CC70623BCA768048FE000000A00100003B0000006662782F36394639363044362D344446342D343946362D394244322D3234314243333846323333332F7265736F75726365732F636F72
310
652E786D6C8D50596E833010BD0A9ADFCA60D600328E9AA639412F609909B1126CE4A5EAF16B0295DABFFECC8CDEA2797AECF8353F924FB44E193D409E5248504B332A3D0D10FC95B4901C39B3C6F85F3248B49871801506CE266BC2B243D2688FDA47549B11775038871E12F988C7004EDE7016A9083E2ADC3D5D84BC8B09
310
D33C8D74D471E6BC8D0192EDC93A815B742658898E651BCB59086ADC356A8C3FD555A1055ED7E7E254D615792D0F075295F585746FF53B694EE78A565DD736979A65AB9933AFE69F8CD2A2F038022F28ED489E135A7CE4554F9BBEA85E68DB53CAB255FEC71496F19FA6A0B42F8B3DEE6673C0F318E4497096AD7DC5F52C33
310
EEB55BFE0D504B010214000A0000080000CC70623B3DEE336E79000000790000001B00000000000000000000000000000000006175746F6465736B2D64657369676E2D7061636B6167652E786D6C504B01021400140006080800CC70623BD486FD9CA0000000F40000001300000000000000000000000000B20000005B436F
310
6E74656E745F54797065735D2E786D6C504B01021400140006080800CC70623BD9DDAED0EC0000007C010000080000000000000000000000000083010000636F72652E786D6C504B01021400140006080800CC70623B55019EA25F0000007C000000070000000000000000000000000095020000636E782E786D6C504B0102
310
1400140006080800CC70623BA24EB22D72010000D40300000C00000000000000000000000000190300006662782F636F72652E786D6C504B01021400140006080800CC70623B408A7D3B7C0000009D0000000B00000000000000000000000000B50400006662782F636E782E786D6C504B01021400140006080800CC70623B
310
449FB9BD290100001202000031000000000000000000000000005A0500006662782F36394639363044362D344446342D343946362D394244322D3234314243333846323333332F636F72652E786D6C504B01021400140006080800CC70623BAD7543B64E010000330300003000000000000000000000000000D20600006662
310
782F36394639363044362D344446342D343946362D394244322D3234314243333846323333332F636E782E786D6C504B01021400140006080800CC70623B8D05915C650500003B10000034000000000000000000000000006E0800006662782F36394639363044362D344446342D343946362D394244322D32343142433338
310
46323333332F6F626A656374732E786D6C504B01021400140006080000CC70623B0000000000000000000000003500000000000000000000000000250E00006662782F36394639363044362D344446342D343946362D394244322D3234314243333846323333332F76657274696365732E62696E504B010214001400060808
310
00CC70623BF270F13306000000040000003600000000000000000000000000780E00006662782F36394639363044362D344446342D343946362D394244322D3234314243333846323333332F747269616E676C65732E62696E504B01021400140006080000CC70623B00000000000000000000000037000000000000000000
310
00000000D20E00006662782F36394639363044362D344446342D343946362D394244322D3234314243333846323333332F617474726962757465732E62696E504B01021400140006080800CC70623B08DA0BD190000000410100003600000000000000000000000000270F00006662782F36394639363044362D344446342D
310
343946362D394244322D3234314243333846323333332F6469726563746F72792E786D6C504B01021400140006080800CC70623BCA768048FE000000A00100003B000000000000000000000000000B1000006662782F36394639363044362D344446342D343946362D394244322D3234314243333846323333332F7265736F
310
75726365732F636F72652E786D6C504B0506000000000E000E0080040000621100000000
  0
XRECORD
  5
176
102
{ACAD_REACTORS
330
173
102
}
330
173
100
AcDbXrecord
280
     1
270
     1
271
     1
  0
XRECORD
  5
177
102
{ACAD_REACTORS
330
173
102
}
330
173
100
AcDbXrecord
280
     1
270
     1
271
     1
  0
XRECORD
  5
7709
102
{ACAD_REACTORS
330
7708
102
}
330
7708
100
AcDbXrecord
280
     1
102
ACAD_ROUNDTRIP_2012_MLEADER_STYLE
298
     1
  0
XRECORD
  5
771B
102
{ACAD_REACTORS
330
771A
102
}
330
771A
100
AcDbXrecord
280
     1
102
DISPLAYNAME
  1
Metric50
102
FLAGS
 90
        0
  0
CELLSTYLEMAP
  5
76DB
102
{ACAD_REACTORS
330
162
102
}
330
162
100
AcDbCellStyleMap
 90
        3
300
CELLSTYLE
  1
TABLEFORMAT_BEGIN
 90
        5
170
     1
 91
        0
 92
    32768
 62
   257
 93
        1
300
CONTENTFORMAT
  1
CONTENTFORMAT_BEGIN
 90
        0
 91
        0
 92
      512
 93
        0
300

 40
0.0
140
1.0
 94
        5
 62
     0
340
11
144
6.0
309
CONTENTFORMAT_END
171
     1
301
MARGIN
  1
CELLMARGIN_BEGIN
 40
1.5
 40
1.5
 40
1.5
 40
1.5
 40
4.5
 40
4.5
309
CELLMARGIN_END
 94
        6
 95
        1
302
GRIDFORMAT
  1
GRIDFORMAT_BEGIN
 90
        0
 91
        1
 62
     0
 92
       -2
340
14
 93
        0
 40
1.125
309
GRIDFORMAT_END
 95
        2
302
GRIDFORMAT
  1
GRIDFORMAT_BEGIN
 90
        0
 91
        1
 62
     0
 92
       -2
340
14
 93
        0
 40
1.125
309
GRIDFORMAT_END
 95
        4
302
GRIDFORMAT
  1
GRIDFORMAT_BEGIN
 90
        0
 91
        1
 62
     0
 92
       -2
340
14
 93
        0
 40
1.125
309
GRIDFORMAT_END
 95
        8
302
GRIDFORMAT
  1
GRIDFORMAT_BEGIN
 90
        0
 91
        1
 62
     0
 92
       -2
340
14
 93
        0
 40
1.125
309
GRIDFORMAT_END
 95
       16
302
GRIDFORMAT
  1
GRIDFORMAT_BEGIN
 90
        0
 91
        1
 62
     0
 92
       -2
340
14
 93
        0
 40
1.125
309
GRIDFORMAT_END
 95
       32
302
GRIDFORMAT
  1
GRIDFORMAT_BEGIN
 90
        0
 91
        1
 62
     0
 92
       -2
340
14
 93
        0
 40
1.125
309
GRIDFORMAT_END
309
TABLEFORMAT_END
  1
CELLSTYLE_BEGIN
 90
        1
 91
        1
300
_TITLE
309
CELLSTYLE_END
300
CELLSTYLE
  1
TABLEFORMAT_BEGIN
 90
        5
170
     1
 91
        0
 92
        0
 62
   257
 93
        1
300
CONTENTFORMAT
  1
CONTENTFORMAT_BEGIN
 90
        0
 91
        0
 92
      512
 93
        0
300

 40
0.0
140
1.0
 94
        5
 62
     0
340
11
144
4.5
309
CONTENTFORMAT_END
171
     1
301
MARGIN
  1
CELLMARGIN_BEGIN
 40
1.5
 40
1.5
 40
1.5
 40
1.5
 40
4.5
 40
4.5
309
CELLMARGIN_END
 94
        6
 95
        1
302
GRIDFORMAT
  1
GRIDFORMAT_BEGIN
 90
        0
 91
        1
 62
     0
 92
       -2
340
14
 93
        0
 40
1.125
309
GRIDFORMAT_END
 95
        2
302
GRIDFORMAT
  1
GRIDFORMAT_BEGIN
 90
        0
 91
        1
 62
     0
 92
       -2
340
14
 93
        0
 40
1.125
309
GRIDFORMAT_END
 95
        4
302
GRIDFORMAT
  1
GRIDFORMAT_BEGIN
 90
        0
 91
        1
 62
     0
 92
       -2
340
14
 93
        0
 40
1.125
309
GRIDFORMAT_END
 95
        8
302
GRIDFORMAT
  1
GRIDFORMAT_BEGIN
 90
        0
 91
        1
 62
     0
 92
       -2
340
14
 93
        0
 40
1.125
309
GRIDFORMAT_END
 95
       16
302
GRIDFORMAT
  1
GRIDFORMAT_BEGIN
 90
        0
 91
        1
 62
     0
 92
       -2
340
14
 93
        0
 40
1.125
309
GRIDFORMAT_END
 95
       32
302
GRIDFORMAT
  1
GRIDFORMAT_BEGIN
 90
        0
 91
        1
 62
     0
 92
       -2
340
14
 93
        0
 40
1.125
309
GRIDFORMAT_END
309
TABLEFORMAT_END
  1
CELLSTYLE_BEGIN
 90
        2
 91
        1
300
_HEADER
309
CELLSTYLE_END
300
CELLSTYLE
  1
TABLEFORMAT_BEGIN
 90
        5
170
     1
 91
        0
 92
        0
 62
   257
 93
        1
300
CONTENTFORMAT
  1
CONTENTFORMAT_BEGIN
 90
        0
 91
        0
 92
      512
 93
        0
300

 40
0.0
140
1.0
 94
        2
 62
     0
340
11
144
4.5
309
CONTENTFORMAT_END
171
     1
301
MARGIN
  1
CELLMARGIN_BEGIN
 40
1.5
 40
1.5
 40
1.5
 40
1.5
 40
4.5
 40
4.5
309
CELLMARGIN_END
 94
        6
 95
        1
302
GRIDFORMAT
  1
GRIDFORMAT_BEGIN
 90
        0
 91
        1
 62
     0
 92
       -2
340
14
 93
        0
 40
1.125
309
GRIDFORMAT_END
 95
        2
302
GRIDFORMAT
  1
GRIDFORMAT_BEGIN
 90
        0
 91
        1
 62
     0
 92
       -2
340
14
 93
        0
 40
1.125
309
GRIDFORMAT_END
 95
        4
302
GRIDFORMAT
  1
GRIDFORMAT_BEGIN
 90
        0
 91
        1
 62
     0
 92
       -2
340
14
 93
        0
 40
1.125
309
GRIDFORMAT_END
 95
        8
302
GRIDFORMAT
  1
GRIDFORMAT_BEGIN
 90
        0
 91
        1
 62
     0
 92
       -2
340
14
 93
        0
 40
1.125
309
GRIDFORMAT_END
 95
       16
302
GRIDFORMAT
  1
GRIDFORMAT_BEGIN
 90
        0
 91
        1
 62
     0
 92
       -2
340
14
 93
        0
 40
1.125
309
GRIDFORMAT_END
 95
       32
302
GRIDFORMAT
  1
GRIDFORMAT_BEGIN
 90
        0
 91
        1
 62
     0
 92
       -2
340
14
 93
        0
 40
1.125
309
GRIDFORMAT_END
309
TABLEFORMAT_END
  1
CELLSTYLE_BEGIN
 90
        3
 91
        2
300
_DATA
309
CELLSTYLE_END
  0
XRECORD
  5
76E0
102
{ACAD_REACTORS
330
162
102
}
330
162
100
AcDbXrecord
280
     1
102
ACAD_ROUNDTRIP_PRE2007_TABLESTYLE
 90
      512
 91
        0
  1

 92
      512
 93
        0
  2

 94
      512
 95
        0
  3

  0
XRECORD
  5
76F3
102
{ACAD_REACTORS
330
76F2
102
}
330
76F2
100
AcDbXrecord
280
     1
102
RTVSPost2010Prop28
280
     1
102
RTVSPost2010PropOp28
 70
     1
102
RTVSPost2010Prop29
280
     1
102
RTVSPost2010PropOp29
 70
     1
102
RTVSPost2010Prop30
280
     0
102
RTVSPost2010PropOp30
 70
     1
102
RTVSPost2010Prop31
280
     0
102
RTVSPost2010PropOp31
 70
     1
102
RTVSPost2010Prop32
280
     0
102
RTVSPost2010PropOp32
 70
     1
102
RTVSPost2010Prop33
280
     0
102
RTVSPost2010PropOp33
 70
     1
102
RTVSPost2010Prop34
280
     0
102
RTVSPost2010PropOp34
 70
     1
102
RTVSPost2010Prop35
280
     0
102
RTVSPost2010PropOp35
 70
     1
102
RTVSPost2010Prop36
280
     0
102
RTVSPost2010PropOp36
 70
     1
102
RTVSPost2010Prop37
 90
       50
102
RTVSPost2010PropOp37
 70
     1
102
RTVSPost2010Prop38
140
0.0
102
RTVSPost2010PropOp38
 70
     1
102
RTVSPost2010Prop39
140
1.0
102
RTVSPost2010PropOp39
 70
     1
102
RTVSPost2010Prop40
 90
        0
102
RTVSPost2010PropOp40
 70
     1
102
RTVSPost2010Prop41ColorIndex
 90
       18
102
RTVSPost2010Prop41ColorRGB
 90
        0
102
RTVSPost2010PropOp41
 70
     1
102
RTVSPost2010Prop42
 90
       50
102
RTVSPost2010PropOp42
 70
     1
102
RTVSPost2010Prop43
 90
        3
102
RTVSPost2010PropOp43
 70
     1
102
RTVSPost2010Prop44ColorIndex
 90
        5
102
RTVSPost2010Prop44ColorRGB
 90
      255
102
RTVSPost2010PropOp44
 70
     1
102
RTVSPost2010Prop45
280
     0
102
RTVSPost2010PropOp45
 70
     1
102
RTVSPost2010Prop46
 90
       50
102
RTVSPost2010PropOp46
 70
     1
102
RTVSPost2010Prop47
 90
       50
102
RTVSPost2010PropOp47
 70
     1
102
RTVSPost2010Prop48
 90
       50
102
RTVSPost2010PropOp48
 70
     1
102
RTVSPost2010Prop49
280
     0
102
RTVSPost2010PropOp49
 70
     1
102
RTVSPost2010Prop50
 90
       50
102
RTVSPost2010PropOp50
 70
     1
102
RTVSPost2010Prop51ColorIndex
 90
      256
102
RTVSPost2010Prop51ColorRGB
 90
-16777216
102
RTVSPost2010PropOp51
 70
     0
102
RTVSPost2010Prop52
140
1.0
102
RTVSPost2010PropOp52
 70
     0
102
RTVSPost2010Prop53
 90
        2
102
RTVSPost2010PropOp53
 70
     1
102
RTVSPost2010Prop54
  1
strokes_ogs.tif
102
RTVSPost2010PropOp54
 70
     1
102
RTVSPost2010Prop55
280
     0
102
RTVSPost2010PropOp55
 70
     1
102
RTVSPost2010Prop56
140
1.0
102
RTVSPost2010PropOp56
 70
     1
102
RTVSPost2010Prop57
140
1.0
102
RTVSPost2010PropOp57
 70
     1
102
RTVSPropertyOp0
 70
     1
102
RTVSPropertyOp1
 70
     1
102
RTVSPropertyOp2
 70
     1
102
RTVSPropertyOp3
 70
     1
102
RTVSPropertyOp4
 70
     1
102
RTVSPropertyOp5
 70
     1
102
RTVSPropertyOp6
 70
     1
102
RTVSPropertyOp7
 70
     1
102
RTVSPropertyOp8
 70
     1
102
RTVSPropertyOp9
 70
     1
102
RTVSPropertyOp10
 70
     1
102
RTVSPropertyOp11
 70
     1
102
RTVSPropertyOp12
 70
     1
102
RTVSPropertyOp13
 70
     1
102
RTVSPropertyOp14
 70
     1
102
RTVSPropertyOp15
 70
     1
102
RTVSPropertyOp16
 70
     1
102
RTVSPropertyOp17
 70
     1
102
RTVSPropertyOp18
 70
     1
102
RTVSPropertyOp19
 70
     1
102
RTVSPropertyOp20
 70
     1
102
RTVSPropertyOp21
 70
     1
102
RTVSPropertyOp22
 70
     1
102
RTVSPropertyOp23
 70
     1
102
RTVSPropertyOp24
 70
     1
102
RTVSPropertyOp25
 70
     1
102
RTVSPropertyOp26
 70
     1
102
RTVSPropertyOp27
 70
     1
102
RTVSPropertyOp28
 70
     1
102
RTVSPropertyOp29
 70
     1
102
RTVSPropertyOp30
 70
     1
102
RTVSPropertyOp31
 70
     1
102
RTVSPropertyOp32
 70
     1
102
RTVSPropertyOp33
 70
     1
102
RTVSPropertyOp34
 70
     1
102
RTVSPropertyOp35
 70
     1
102
RTVSPropertyOp36
 70
     1
102
RTVSPropertyOp37
 70
     1
102
RTVSPropertyOp38
 70
     1
102
RTVSPropertyOp39
 70
     1
102
RTVSPropertyOp40
 70
     1
102
RTVSPropertyOp41
 70
     1
102
RTVSPropertyOp42
 70
     1
102
RTVSPropertyOp43
 70
     1
102
RTVSPropertyOp44
 70
     1
102
RTVSPropertyOp45
 70
     1
102
RTVSPropertyOp46
 70
     1
102
RTVSPropertyOp47
 70
     1
102
RTVSPropertyOp48
 70
     1
102
RTVSPropertyOp49
 70
     1
102
RTVSPropertyOp50
 70
     1
102
RTVSPropertyOp51
 70
     0
102
RTVSPropertyOp52
 70
     0
102
RTVSPropertyOp53
 70
     1
102
RTVSPropertyOp54
 70
     1
102
RTVSPropertyOp55
 70
     1
102
RTVSPropertyOp56
 70
     1
102
RTVSPropertyOp57
 70
     1
102
RTVSPropertyOp58
 70
     1
102
RTVSPropertyOp59
 70
     1
102
RTVSPropertyOp60
 70
     1
102
RTVSPropertyOp61
 70
     1
102
RTVSPropertyOp62
 70
     1
  0
XRECORD
  5
76F1
102
{ACAD_REACTORS
330
76F0
102
}
330
76F0
100
AcDbXrecord
280
     1
102
RTVSPost2010Prop28
280
     0
102
RTVSPost2010PropOp28
 70
     1
102
RTVSPost2010Prop29
280
     1
102
RTVSPost2010PropOp29
 70
     1
102
RTVSPost2010Prop30
280
     1
102
RTVSPost2010PropOp30
 70
     1
102
RTVSPost2010Prop31
280
     0
102
RTVSPost2010PropOp31
 70
     1
102
RTVSPost2010Prop32
280
     0
102
RTVSPost2010PropOp32
 70
     1
102
RTVSPost2010Prop33
280
     0
102
RTVSPost2010PropOp33
 70
     1
102
RTVSPost2010Prop34
280
     0
102
RTVSPost2010PropOp34
 70
     1
102
RTVSPost2010Prop35
280
     0
102
RTVSPost2010PropOp35
 70
     1
102
RTVSPost2010Prop36
280
     0
102
RTVSPost2010PropOp36
 70
     1
102
RTVSPost2010Prop37
 90
       50
102
RTVSPost2010PropOp37
 70
     1
102
RTVSPost2010Prop38
140
0.0
102
RTVSPost2010PropOp38
 70
     1
102
RTVSPost2010Prop39
140
1.0
102
RTVSPost2010PropOp39
 70
     1
102
RTVSPost2010Prop40
 90
        0
102
RTVSPost2010PropOp40
 70
     1
102
RTVSPost2010Prop41ColorIndex
 90
       18
102
RTVSPost2010Prop41ColorRGB
 90
        0
102
RTVSPost2010PropOp41
 70
     1
102
RTVSPost2010Prop42
 90
       50
102
RTVSPost2010PropOp42
 70
     1
102
RTVSPost2010Prop43
 90
        3
102
RTVSPost2010PropOp43
 70
     1
102
RTVSPost2010Prop44ColorIndex
 90
        5
102
RTVSPost2010Prop44ColorRGB
 90
      255
102
RTVSPost2010PropOp44
 70
     1
102
RTVSPost2010Prop45
280
     0
102
RTVSPost2010PropOp45
 70
     1
102
RTVSPost2010Prop46
 90
       50
102
RTVSPost2010PropOp46
 70
     1
102
RTVSPost2010Prop47
 90
       50
102
RTVSPost2010PropOp47
 70
     1
102
RTVSPost2010Prop48
 90
       50
102
RTVSPost2010PropOp48
 70
     1
102
RTVSPost2010Prop49
280
     0
102
RTVSPost2010PropOp49
 70
     1
102
RTVSPost2010Prop50
 90
       50
102
RTVSPost2010PropOp50
 70
     1
102
RTVSPost2010Prop51ColorIndex
 90
      256
102
RTVSPost2010Prop51ColorRGB
 90
-16777216
102
RTVSPost2010PropOp51
 70
     0
102
RTVSPost2010Prop52
140
1.0
102
RTVSPost2010PropOp52
 70
     0
102
RTVSPost2010Prop53
 90
        2
102
RTVSPost2010PropOp53
 70
     1
102
RTVSPost2010Prop54
  1
strokes_ogs.tif
102
RTVSPost2010PropOp54
 70
     1
102
RTVSPost2010Prop55
280
     0
102
RTVSPost2010PropOp55
 70
     1
102
RTVSPost2010Prop56
140
1.0
102
RTVSPost2010PropOp56
 70
     1
102
RTVSPost2010Prop57
140
1.0
102
RTVSPost2010PropOp57
 70
     1
102
RTVSPropertyOp0
 70
     1
102
RTVSPropertyOp1
 70
     1
102
RTVSPropertyOp2
 70
     1
102
RTVSPropertyOp3
 70
     1
102
RTVSPropertyOp4
 70
     1
102
RTVSPropertyOp5
 70
     1
102
RTVSPropertyOp6
 70
     1
102
RTVSPropertyOp7
 70
     1
102
RTVSPropertyOp8
 70
     1
102
RTVSPropertyOp9
 70
     1
102
RTVSPropertyOp10
 70
     1
102
RTVSPropertyOp11
 70
     1
102
RTVSPropertyOp12
 70
     1
102
RTVSPropertyOp13
 70
     1
102
RTVSPropertyOp14
 70
     1
102
RTVSPropertyOp15
 70
     1
102
RTVSPropertyOp16
 70
     1
102
RTVSPropertyOp17
 70
     1
102
RTVSPropertyOp18
 70
     1
102
RTVSPropertyOp19
 70
     1
102
RTVSPropertyOp20
 70
     1
102
RTVSPropertyOp21
 70
     1
102
RTVSPropertyOp22
 70
     1
102
RTVSPropertyOp23
 70
     1
102
RTVSPropertyOp24
 70
     1
102
RTVSPropertyOp25
 70
     1
102
RTVSPropertyOp26
 70
     1
102
RTVSPropertyOp27
 70
     1
102
RTVSPropertyOp28
 70
     1
102
RTVSPropertyOp29
 70
     1
102
RTVSPropertyOp30
 70
     1
102
RTVSPropertyOp31
 70
     1
102
RTVSPropertyOp32
 70
     1
102
RTVSPropertyOp33
 70
     1
102
RTVSPropertyOp34
 70
     1
102
RTVSPropertyOp35
 70
     1
102
RTVSPropertyOp36
 70
     1
102
RTVSPropertyOp37
 70
     1
102
RTVSPropertyOp38
 70
     1
102
RTVSPropertyOp39
 70
     1
102
RTVSPropertyOp40
 70
     1
102
RTVSPropertyOp41
 70
     1
102
RTVSPropertyOp42
 70
     1
102
RTVSPropertyOp43
 70
     1
102
RTVSPropertyOp44
 70
     1
102
RTVSPropertyOp45
 70
     1
102
RTVSPropertyOp46
 70
     1
102
RTVSPropertyOp47
 70
     1
102
RTVSPropertyOp48
 70
     1
102
RTVSPropertyOp49
 70
     1
102
RTVSPropertyOp50
 70
     1
102
RTVSPropertyOp51
 70
     0
102
RTVSPropertyOp52
 70
     0
102
RTVSPropertyOp53
 70
     1
102
RTVSPropertyOp54
 70
     1
102
RTVSPropertyOp55
 70
     1
102
RTVSPropertyOp56
 70
     1
102
RTVSPropertyOp57
 70
     1
102
RTVSPropertyOp58
 70
     1
102
RTVSPropertyOp59
 70
     1
102
RTVSPropertyOp60
 70
     1
102
RTVSPropertyOp61
 70
     1
102
RTVSPropertyOp62
 70
     1
  0
XRECORD
  5
76FF
102
{ACAD_REACTORS
330
76FE
102
}
330
76FE
100
AcDbXrecord
280
     1
102
RTVSPost2010Prop28
280
     0
102
RTVSPost2010PropOp28
 70
     1
102
RTVSPost2010Prop29
280
     1
102
RTVSPost2010PropOp29
 70
     1
102
RTVSPost2010Prop30
280
     1
102
RTVSPost2010PropOp30
 70
     1
102
RTVSPost2010Prop31
280
     0
102
RTVSPost2010PropOp31
 70
     1
102
RTVSPost2010Prop32
280
     0
102
RTVSPost2010PropOp32
 70
     1
102
RTVSPost2010Prop33
280
     0
102
RTVSPost2010PropOp33
 70
     1
102
RTVSPost2010Prop34
280
     0
102
RTVSPost2010PropOp34
 70
     1
102
RTVSPost2010Prop35
280
     0
102
RTVSPost2010PropOp35
 70
     1
102
RTVSPost2010Prop36
280
     0
102
RTVSPost2010PropOp36
 70
     1
102
RTVSPost2010Prop37
 90
       50
102
RTVSPost2010PropOp37
 70
     1
102
RTVSPost2010Prop38
140
0.0
102
RTVSPost2010PropOp38
 70
     1
102
RTVSPost2010Prop39
140
1.0
102
RTVSPost2010PropOp39
 70
     1
102
RTVSPost2010Prop40
 90
        0
102
RTVSPost2010PropOp40
 70
     1
102
RTVSPost2010Prop41ColorIndex
 90
       18
102
RTVSPost2010Prop41ColorRGB
 90
        0
102
RTVSPost2010PropOp41
 70
     1
102
RTVSPost2010Prop42
 90
       50
102
RTVSPost2010PropOp42
 70
     1
102
RTVSPost2010Prop43
 90
        3
102
RTVSPost2010PropOp43
 70
     1
102
RTVSPost2010Prop44ColorIndex
 90
        5
102
RTVSPost2010Prop44ColorRGB
 90
      255
102
RTVSPost2010PropOp44
 70
     1
102
RTVSPost2010Prop45
280
     0
102
RTVSPost2010PropOp45
 70
     1
102
RTVSPost2010Prop46
 90
       50
102
RTVSPost2010PropOp46
 70
     1
102
RTVSPost2010Prop47
 90
       50
102
RTVSPost2010PropOp47
 70
     1
102
RTVSPost2010Prop48
 90
       50
102
RTVSPost2010PropOp48
 70
     1
102
RTVSPost2010Prop49
280
     0
102
RTVSPost2010PropOp49
 70
     1
102
RTVSPost2010Prop50
 90
       50
102
RTVSPost2010PropOp50
 70
     1
102
RTVSPost2010Prop51ColorIndex
 90
      256
102
RTVSPost2010Prop51ColorRGB
 90
-16777216
102
RTVSPost2010PropOp51
 70
     0
102
RTVSPost2010Prop52
140
1.0
102
RTVSPost2010PropOp52
 70
     0
102
RTVSPost2010Prop53
 90
        2
102
RTVSPost2010PropOp53
 70
     1
102
RTVSPost2010Prop54
  1
strokes_ogs.tif
102
RTVSPost2010PropOp54
 70
     1
102
RTVSPost2010Prop55
280
     0
102
RTVSPost2010PropOp55
 70
     1
102
RTVSPost2010Prop56
140
1.0
102
RTVSPost2010PropOp56
 70
     1
102
RTVSPost2010Prop57
140
1.0
102
RTVSPost2010PropOp57
 70
     1
102
RTVSPropertyOp0
 70
     1
102
RTVSPropertyOp1
 70
     1
102
RTVSPropertyOp2
 70
     1
102
RTVSPropertyOp3
 70
     1
102
RTVSPropertyOp4
 70
     1
102
RTVSPropertyOp5
 70
     1
102
RTVSPropertyOp6
 70
     1
102
RTVSPropertyOp7
 70
     1
102
RTVSPropertyOp8
 70
     1
102
RTVSPropertyOp9
 70
     1
102
RTVSPropertyOp10
 70
     1
102
RTVSPropertyOp11
 70
     1
102
RTVSPropertyOp12
 70
     1
102
RTVSPropertyOp13
 70
     1
102
RTVSPropertyOp14
 70
     1
102
RTVSPropertyOp15
 70
     1
102
RTVSPropertyOp16
 70
     1
102
RTVSPropertyOp17
 70
     1
102
RTVSPropertyOp18
 70
     1
102
RTVSPropertyOp19
 70
     1
102
RTVSPropertyOp20
 70
     1
102
RTVSPropertyOp21
 70
     1
102
RTVSPropertyOp22
 70
     1
102
RTVSPropertyOp23
 70
     1
102
RTVSPropertyOp24
 70
     1
102
RTVSPropertyOp25
 70
     1
102
RTVSPropertyOp26
 70
     1
102
RTVSPropertyOp27
 70
     1
102
RTVSPropertyOp28
 70
     1
102
RTVSPropertyOp29
 70
     1
102
RTVSPropertyOp30
 70
     1
102
RTVSPropertyOp31
 70
     1
102
RTVSPropertyOp32
 70
     1
102
RTVSPropertyOp33
 70
     1
102
RTVSPropertyOp34
 70
     1
102
RTVSPropertyOp35
 70
     1
102
RTVSPropertyOp36
 70
     1
102
RTVSPropertyOp37
 70
     1
102
RTVSPropertyOp38
 70
     1
102
RTVSPropertyOp39
 70
     1
102
RTVSPropertyOp40
 70
     1
102
RTVSPropertyOp41
 70
     1
102
RTVSPropertyOp42
 70
     1
102
RTVSPropertyOp43
 70
     1
102
RTVSPropertyOp44
 70
     1
102
RTVSPropertyOp45
 70
     1
102
RTVSPropertyOp46
 70
     1
102
RTVSPropertyOp47
 70
     1
102
RTVSPropertyOp48
 70
     1
102
RTVSPropertyOp49
 70
     1
102
RTVSPropertyOp50
 70
     1
102
RTVSPropertyOp51
 70
     0
102
RTVSPropertyOp52
 70
     0
102
RTVSPropertyOp53
 70
     1
102
RTVSPropertyOp54
 70
     1
102
RTVSPropertyOp55
 70
     1
102
RTVSPropertyOp56
 70
     1
102
RTVSPropertyOp57
 70
     1
102
RTVSPropertyOp58
 70
     1
102
RTVSPropertyOp59
 70
     1
102
RTVSPropertyOp60
 70
     1
102
RTVSPropertyOp61
 70
     1
102
RTVSPropertyOp62
 70
     1
  0
XRECORD
  5
7707
102
{ACAD_REACTORS
330
7706
102
}
330
7706
100
AcDbXrecord
280
     1
102
RTVSPost2010Prop28
280
     0
102
RTVSPost2010PropOp28
 70
     1
102
RTVSPost2010Prop29
280
     1
102
RTVSPost2010PropOp29
 70
     1
102
RTVSPost2010Prop30
280
     1
102
RTVSPost2010PropOp30
 70
     1
102
RTVSPost2010Prop31
280
     0
102
RTVSPost2010PropOp31
 70
     1
102
RTVSPost2010Prop32
280
     0
102
RTVSPost2010PropOp32
 70
     1
102
RTVSPost2010Prop33
280
     0
102
RTVSPost2010PropOp33
 70
     1
102
RTVSPost2010Prop34
280
     0
102
RTVSPost2010PropOp34
 70
     1
102
RTVSPost2010Prop35
280
     0
102
RTVSPost2010PropOp35
 70
     1
102
RTVSPost2010Prop36
280
     0
102
RTVSPost2010PropOp36
 70
     1
102
RTVSPost2010Prop37
 90
       50
102
RTVSPost2010PropOp37
 70
     1
102
RTVSPost2010Prop38
140
0.0
102
RTVSPost2010PropOp38
 70
     1
102
RTVSPost2010Prop39
140
1.0
102
RTVSPost2010PropOp39
 70
     1
102
RTVSPost2010Prop40
 90
        0
102
RTVSPost2010PropOp40
 70
     1
102
RTVSPost2010Prop41ColorIndex
 90
       18
102
RTVSPost2010Prop41ColorRGB
 90
        0
102
RTVSPost2010PropOp41
 70
     1
102
RTVSPost2010Prop42
 90
       50
102
RTVSPost2010PropOp42
 70
     1
102
RTVSPost2010Prop43
 90
        3
102
RTVSPost2010PropOp43
 70
     1
102
RTVSPost2010Prop44ColorIndex
 90
        5
102
RTVSPost2010Prop44ColorRGB
 90
      255
102
RTVSPost2010PropOp44
 70
     1
102
RTVSPost2010Prop45
280
     0
102
RTVSPost2010PropOp45
 70
     1
102
RTVSPost2010Prop46
 90
       50
102
RTVSPost2010PropOp46
 70
     1
102
RTVSPost2010Prop47
 90
       50
102
RTVSPost2010PropOp47
 70
     1
102
RTVSPost2010Prop48
 90
       50
102
RTVSPost2010PropOp48
 70
     1
102
RTVSPost2010Prop49
280
     0
102
RTVSPost2010PropOp49
 70
     1
102
RTVSPost2010Prop50
 90
       50
102
RTVSPost2010PropOp50
 70
     1
102
RTVSPost2010Prop51ColorIndex
 90
      256
102
RTVSPost2010Prop51ColorRGB
 90
-16777216
102
RTVSPost2010PropOp51
 70
     0
102
RTVSPost2010Prop52
140
1.0
102
RTVSPost2010PropOp52
 70
     0
102
RTVSPost2010Prop53
 90
        2
102
RTVSPost2010PropOp53
 70
     1
102
RTVSPost2010Prop54
  1
strokes_ogs.tif
102
RTVSPost2010PropOp54
 70
     1
102
RTVSPost2010Prop55
280
     0
102
RTVSPost2010PropOp55
 70
     1
102
RTVSPost2010Prop56
140
1.0
102
RTVSPost2010PropOp56
 70
     1
102
RTVSPost2010Prop57
140
1.0
102
RTVSPost2010PropOp57
 70
     1
102
RTVSPropertyOp0
 70
     1
102
RTVSPropertyOp1
 70
     1
102
RTVSPropertyOp2
 70
     1
102
RTVSPropertyOp3
 70
     1
102
RTVSPropertyOp4
 70
     1
102
RTVSPropertyOp5
 70
     1
102
RTVSPropertyOp6
 70
     1
102
RTVSPropertyOp7
 70
     1
102
RTVSPropertyOp8
 70
     1
102
RTVSPropertyOp9
 70
     1
102
RTVSPropertyOp10
 70
     1
102
RTVSPropertyOp11
 70
     1
102
RTVSPropertyOp12
 70
     1
102
RTVSPropertyOp13
 70
     1
102
RTVSPropertyOp14
 70
     1
102
RTVSPropertyOp15
 70
     1
102
RTVSPropertyOp16
 70
     1
102
RTVSPropertyOp17
 70
     1
102
RTVSPropertyOp18
 70
     1
102
RTVSPropertyOp19
 70
     1
102
RTVSPropertyOp20
 70
     1
102
RTVSPropertyOp21
 70
     1
102
RTVSPropertyOp22
 70
     1
102
RTVSPropertyOp23
 70
     1
102
RTVSPropertyOp24
 70
     1
102
RTVSPropertyOp25
 70
     1
102
RTVSPropertyOp26
 70
     1
102
RTVSPropertyOp27
 70
     1
102
RTVSPropertyOp28
 70
     1
102
RTVSPropertyOp29
 70
     1
102
RTVSPropertyOp30
 70
     1
102
RTVSPropertyOp31
 70
     1
102
RTVSPropertyOp32
 70
     1
102
RTVSPropertyOp33
 70
     1
102
RTVSPropertyOp34
 70
     1
102
RTVSPropertyOp35
 70
     1
102
RTVSPropertyOp36
 70
     1
102
RTVSPropertyOp37
 70
     1
102
RTVSPropertyOp38
 70
     1
102
RTVSPropertyOp39
 70
     1
102
RTVSPropertyOp40
 70
     1
102
RTVSPropertyOp41
 70
     1
102
RTVSPropertyOp42
 70
     1
102
RTVSPropertyOp43
 70
     1
102
RTVSPropertyOp44
 70
     1
102
RTVSPropertyOp45
 70
     1
102
RTVSPropertyOp46
 70
     1
102
RTVSPropertyOp47
 70
     1
102
RTVSPropertyOp48
 70
     1
102
RTVSPropertyOp49
 70
     1
102
RTVSPropertyOp50
 70
     1
102
RTVSPropertyOp51
 70
     0
102
RTVSPropertyOp52
 70
     0
102
RTVSPropertyOp53
 70
     1
102
RTVSPropertyOp54
 70
     1
102
RTVSPropertyOp55
 70
     1
102
RTVSPropertyOp56
 70
     1
102
RTVSPropertyOp57
 70
     1
102
RTVSPropertyOp58
 70
     1
102
RTVSPropertyOp59
 70
     1
102
RTVSPropertyOp60
 70
     1
102
RTVSPropertyOp61
 70
     1
102
RTVSPropertyOp62
 70
     1
  0
XRECORD
  5
76F9
102
{ACAD_REACTORS
330
76F8
102
}
330
76F8
100
AcDbXrecord
280
     1
102
RTVSPost2010Prop28
280
     0
102
RTVSPost2010PropOp28
 70
     1
102
RTVSPost2010Prop29
280
     1
102
RTVSPost2010PropOp29
 70
     1
102
RTVSPost2010Prop30
280
     1
102
RTVSPost2010PropOp30
 70
     1
102
RTVSPost2010Prop31
280
     0
102
RTVSPost2010PropOp31
 70
     1
102
RTVSPost2010Prop32
280
     0
102
RTVSPost2010PropOp32
 70
     1
102
RTVSPost2010Prop33
280
     0
102
RTVSPost2010PropOp33
 70
     1
102
RTVSPost2010Prop34
280
     0
102
RTVSPost2010PropOp34
 70
     1
102
RTVSPost2010Prop35
280
     0
102
RTVSPost2010PropOp35
 70
     1
102
RTVSPost2010Prop36
280
     0
102
RTVSPost2010PropOp36
 70
     1
102
RTVSPost2010Prop37
 90
       50
102
RTVSPost2010PropOp37
 70
     1
102
RTVSPost2010Prop38
140
0.0
102
RTVSPost2010PropOp38
 70
     1
102
RTVSPost2010Prop39
140
1.0
102
RTVSPost2010PropOp39
 70
     1
102
RTVSPost2010Prop40
 90
        0
102
RTVSPost2010PropOp40
 70
     1
102
RTVSPost2010Prop41ColorIndex
 90
       18
102
RTVSPost2010Prop41ColorRGB
 90
        0
102
RTVSPost2010PropOp41
 70
     1
102
RTVSPost2010Prop42
 90
       50
102
RTVSPost2010PropOp42
 70
     1
102
RTVSPost2010Prop43
 90
        3
102
RTVSPost2010PropOp43
 70
     1
102
RTVSPost2010Prop44ColorIndex
 90
        5
102
RTVSPost2010Prop44ColorRGB
 90
      255
102
RTVSPost2010PropOp44
 70
     1
102
RTVSPost2010Prop45
280
     0
102
RTVSPost2010PropOp45
 70
     1
102
RTVSPost2010Prop46
 90
       50
102
RTVSPost2010PropOp46
 70
     1
102
RTVSPost2010Prop47
 90
       50
102
RTVSPost2010PropOp47
 70
     1
102
RTVSPost2010Prop48
 90
       50
102
RTVSPost2010PropOp48
 70
     1
102
RTVSPost2010Prop49
280
     0
102
RTVSPost2010PropOp49
 70
     1
102
RTVSPost2010Prop50
 90
       50
102
RTVSPost2010PropOp50
 70
     1
102
RTVSPost2010Prop51ColorIndex
 90
      256
102
RTVSPost2010Prop51ColorRGB
 90
-16777216
102
RTVSPost2010PropOp51
 70
     0
102
RTVSPost2010Prop52
140
1.0
102
RTVSPost2010PropOp52
 70
     0
102
RTVSPost2010Prop53
 90
        2
102
RTVSPost2010PropOp53
 70
     1
102
RTVSPost2010Prop54
  1
strokes_ogs.tif
102
RTVSPost2010PropOp54
 70
     1
102
RTVSPost2010Prop55
280
     0
102
RTVSPost2010PropOp55
 70
     1
102
RTVSPost2010Prop56
140
1.0
102
RTVSPost2010PropOp56
 70
     1
102
RTVSPost2010Prop57
140
1.0
102
RTVSPost2010PropOp57
 70
     1
102
RTVSPropertyOp0
 70
     1
102
RTVSPropertyOp1
 70
     1
102
RTVSPropertyOp2
 70
     1
102
RTVSPropertyOp3
 70
     1
102
RTVSPropertyOp4
 70
     1
102
RTVSPropertyOp5
 70
     1
102
RTVSPropertyOp6
 70
     1
102
RTVSPropertyOp7
 70
     1
102
RTVSPropertyOp8
 70
     1
102
RTVSPropertyOp9
 70
     1
102
RTVSPropertyOp10
 70
     1
102
RTVSPropertyOp11
 70
     1
102
RTVSPropertyOp12
 70
     1
102
RTVSPropertyOp13
 70
     1
102
RTVSPropertyOp14
 70
     1
102
RTVSPropertyOp15
 70
     1
102
RTVSPropertyOp16
 70
     1
102
RTVSPropertyOp17
 70
     1
102
RTVSPropertyOp18
 70
     1
102
RTVSPropertyOp19
 70
     1
102
RTVSPropertyOp20
 70
     1
102
RTVSPropertyOp21
 70
     1
102
RTVSPropertyOp22
 70
     1
102
RTVSPropertyOp23
 70
     1
102
RTVSPropertyOp24
 70
     1
102
RTVSPropertyOp25
 70
     1
102
RTVSPropertyOp26
 70
     1
102
RTVSPropertyOp27
 70
     1
102
RTVSPropertyOp28
 70
     1
102
RTVSPropertyOp29
 70
     1
102
RTVSPropertyOp30
 70
     1
102
RTVSPropertyOp31
 70
     1
102
RTVSPropertyOp32
 70
     1
102
RTVSPropertyOp33
 70
     1
102
RTVSPropertyOp34
 70
     1
102
RTVSPropertyOp35
 70
     1
102
RTVSPropertyOp36
 70
     1
102
RTVSPropertyOp37
 70
     1
102
RTVSPropertyOp38
 70
     1
102
RTVSPropertyOp39
 70
     1
102
RTVSPropertyOp40
 70
     1
102
RTVSPropertyOp41
 70
     1
102
RTVSPropertyOp42
 70
     1
102
RTVSPropertyOp43
 70
     1
102
RTVSPropertyOp44
 70
     1
102
RTVSPropertyOp45
 70
     1
102
RTVSPropertyOp46
 70
     1
102
RTVSPropertyOp47
 70
     1
102
RTVSPropertyOp48
 70
     1
102
RTVSPropertyOp49
 70
     1
102
RTVSPropertyOp50
 70
     1
102
RTVSPropertyOp51
 70
     0
102
RTVSPropertyOp52
 70
     0
102
RTVSPropertyOp53
 70
     1
102
RTVSPropertyOp54
 70
     1
102
RTVSPropertyOp55
 70
     1
102
RTVSPropertyOp56
 70
     1
102
RTVSPropertyOp57
 70
     1
102
RTVSPropertyOp58
 70
     1
102
RTVSPropertyOp59
 70
     1
102
RTVSPropertyOp60
 70
     1
102
RTVSPropertyOp61
 70
     1
102
RTVSPropertyOp62
 70
     1
  0
XRECORD
  5
76FD
102
{ACAD_REACTORS
330
76FC
102
}
330
76FC
100
AcDbXrecord
280
     1
102
RTVSPost2010Prop28
280
     0
102
RTVSPost2010PropOp28
 70
     1
102
RTVSPost2010Prop29
280
     1
102
RTVSPost2010PropOp29
 70
     1
102
RTVSPost2010Prop30
280
     1
102
RTVSPost2010PropOp30
 70
     1
102
RTVSPost2010Prop31
280
     0
102
RTVSPost2010PropOp31
 70
     1
102
RTVSPost2010Prop32
280
     0
102
RTVSPost2010PropOp32
 70
     1
102
RTVSPost2010Prop33
280
     0
102
RTVSPost2010PropOp33
 70
     1
102
RTVSPost2010Prop34
280
     0
102
RTVSPost2010PropOp34
 70
     1
102
RTVSPost2010Prop35
280
     0
102
RTVSPost2010PropOp35
 70
     1
102
RTVSPost2010Prop36
280
     0
102
RTVSPost2010PropOp36
 70
     1
102
RTVSPost2010Prop37
 90
       50
102
RTVSPost2010PropOp37
 70
     1
102
RTVSPost2010Prop38
140
0.0
102
RTVSPost2010PropOp38
 70
     1
102
RTVSPost2010Prop39
140
1.0
102
RTVSPost2010PropOp39
 70
     1
102
RTVSPost2010Prop40
 90
        0
102
RTVSPost2010PropOp40
 70
     1
102
RTVSPost2010Prop41ColorIndex
 90
       18
102
RTVSPost2010Prop41ColorRGB
 90
        0
102
RTVSPost2010PropOp41
 70
     1
102
RTVSPost2010Prop42
 90
       50
102
RTVSPost2010PropOp42
 70
     1
102
RTVSPost2010Prop43
 90
        3
102
RTVSPost2010PropOp43
 70
     1
102
RTVSPost2010Prop44ColorIndex
 90
        5
102
RTVSPost2010Prop44ColorRGB
 90
      255
102
RTVSPost2010PropOp44
 70
     1
102
RTVSPost2010Prop45
280
     0
102
RTVSPost2010PropOp45
 70
     1
102
RTVSPost2010Prop46
 90
       50
102
RTVSPost2010PropOp46
 70
     1
102
RTVSPost2010Prop47
 90
       50
102
RTVSPost2010PropOp47
 70
     1
102
RTVSPost2010Prop48
 90
       50
102
RTVSPost2010PropOp48
 70
     1
102
RTVSPost2010Prop49
280
     0
102
RTVSPost2010PropOp49
 70
     1
102
RTVSPost2010Prop50
 90
       50
102
RTVSPost2010PropOp50
 70
     1
102
RTVSPost2010Prop51ColorIndex
 90
      256
102
RTVSPost2010Prop51ColorRGB
 90
-16777216
102
RTVSPost2010PropOp51
 70
     0
102
RTVSPost2010Prop52
140
1.0
102
RTVSPost2010PropOp52
 70
     0
102
RTVSPost2010Prop53
 90
        2
102
RTVSPost2010PropOp53
 70
     1
102
RTVSPost2010Prop54
  1
strokes_ogs.tif
102
RTVSPost2010PropOp54
 70
     1
102
RTVSPost2010Prop55
280
     0
102
RTVSPost2010PropOp55
 70
     1
102
RTVSPost2010Prop56
140
1.0
102
RTVSPost2010PropOp56
 70
     1
102
RTVSPost2010Prop57
140
1.0
102
RTVSPost2010PropOp57
 70
     1
102
RTVSPropertyOp0
 70
     1
102
RTVSPropertyOp1
 70
     1
102
RTVSPropertyOp2
 70
     1
102
RTVSPropertyOp3
 70
     1
102
RTVSPropertyOp4
 70
     1
102
RTVSPropertyOp5
 70
     1
102
RTVSPropertyOp6
 70
     1
102
RTVSPropertyOp7
 70
     1
102
RTVSPropertyOp8
 70
     1
102
RTVSPropertyOp9
 70
     1
102
RTVSPropertyOp10
 70
     1
102
RTVSPropertyOp11
 70
     1
102
RTVSPropertyOp12
 70
     1
102
RTVSPropertyOp13
 70
     1
102
RTVSPropertyOp14
 70
     1
102
RTVSPropertyOp15
 70
     1
102
RTVSPropertyOp16
 70
     1
102
RTVSPropertyOp17
 70
     1
102
RTVSPropertyOp18
 70
     1
102
RTVSPropertyOp19
 70
     1
102
RTVSPropertyOp20
 70
     1
102
RTVSPropertyOp21
 70
     1
102
RTVSPropertyOp22
 70
     1
102
RTVSPropertyOp23
 70
     1
102
RTVSPropertyOp24
 70
     1
102
RTVSPropertyOp25
 70
     1
102
RTVSPropertyOp26
 70
     1
102
RTVSPropertyOp27
 70
     1
102
RTVSPropertyOp28
 70
     1
102
RTVSPropertyOp29
 70
     1
102
RTVSPropertyOp30
 70
     1
102
RTVSPropertyOp31
 70
     1
102
RTVSPropertyOp32
 70
     1
102
RTVSPropertyOp33
 70
     1
102
RTVSPropertyOp34
 70
     1
102
RTVSPropertyOp35
 70
     1
102
RTVSPropertyOp36
 70
     1
102
RTVSPropertyOp37
 70
     1
102
RTVSPropertyOp38
 70
     1
102
RTVSPropertyOp39
 70
     1
102
RTVSPropertyOp40
 70
     1
102
RTVSPropertyOp41
 70
     1
102
RTVSPropertyOp42
 70
     1
102
RTVSPropertyOp43
 70
     1
102
RTVSPropertyOp44
 70
     1
102
RTVSPropertyOp45
 70
     1
102
RTVSPropertyOp46
 70
     1
102
RTVSPropertyOp47
 70
     1
102
RTVSPropertyOp48
 70
     1
102
RTVSPropertyOp49
 70
     1
102
RTVSPropertyOp50
 70
     1
102
RTVSPropertyOp51
 70
     0
102
RTVSPropertyOp52
 70
     0
102
RTVSPropertyOp53
 70
     1
102
RTVSPropertyOp54
 70
     1
102
RTVSPropertyOp55
 70
     1
102
RTVSPropertyOp56
 70
     1
102
RTVSPropertyOp57
 70
     1
102
RTVSPropertyOp58
 70
     1
102
RTVSPropertyOp59
 70
     1
102
RTVSPropertyOp60
 70
     1
102
RTVSPropertyOp61
 70
     1
102
RTVSPropertyOp62
 70
     1
  0
XRECORD
  5
770F
102
{ACAD_REACTORS
330
770E
102
}
330
770E
100
AcDbXrecord
280
     1
102
RTVSPost2010Prop28
280
     0
102
RTVSPost2010PropOp28
 70
     1
102
RTVSPost2010Prop29
280
     1
102
RTVSPost2010PropOp29
 70
     1
102
RTVSPost2010Prop30
280
     1
102
RTVSPost2010PropOp30
 70
     1
102
RTVSPost2010Prop31
280
     0
102
RTVSPost2010PropOp31
 70
     1
102
RTVSPost2010Prop32
280
     0
102
RTVSPost2010PropOp32
 70
     1
102
RTVSPost2010Prop33
280
     0
102
RTVSPost2010PropOp33
 70
     1
102
RTVSPost2010Prop34
280
     0
102
RTVSPost2010PropOp34
 70
     1
102
RTVSPost2010Prop35
280
     0
102
RTVSPost2010PropOp35
 70
     1
102
RTVSPost2010Prop36
280
     0
102
RTVSPost2010PropOp36
 70
     1
102
RTVSPost2010Prop37
 90
       50
102
RTVSPost2010PropOp37
 70
     1
102
RTVSPost2010Prop38
140
0.0
102
RTVSPost2010PropOp38
 70
     1
102
RTVSPost2010Prop39
140
1.0
102
RTVSPost2010PropOp39
 70
     1
102
RTVSPost2010Prop40
 90
        0
102
RTVSPost2010PropOp40
 70
     1
102
RTVSPost2010Prop41ColorIndex
 90
       18
102
RTVSPost2010Prop41ColorRGB
 90
        0
102
RTVSPost2010PropOp41
 70
     1
102
RTVSPost2010Prop42
 90
       50
102
RTVSPost2010PropOp42
 70
     1
102
RTVSPost2010Prop43
 90
        3
102
RTVSPost2010PropOp43
 70
     1
102
RTVSPost2010Prop44ColorIndex
 90
        5
102
RTVSPost2010Prop44ColorRGB
 90
      255
102
RTVSPost2010PropOp44
 70
     1
102
RTVSPost2010Prop45
280
     0
102
RTVSPost2010PropOp45
 70
     1
102
RTVSPost2010Prop46
 90
       50
102
RTVSPost2010PropOp46
 70
     1
102
RTVSPost2010Prop47
 90
       50
102
RTVSPost2010PropOp47
 70
     1
102
RTVSPost2010Prop48
 90
       50
102
RTVSPost2010PropOp48
 70
     1
102
RTVSPost2010Prop49
280
     0
102
RTVSPost2010PropOp49
 70
     1
102
RTVSPost2010Prop50
 90
       50
102
RTVSPost2010PropOp50
 70
     1
102
RTVSPost2010Prop51ColorIndex
 90
      256
102
RTVSPost2010Prop51ColorRGB
 90
-16777216
102
RTVSPost2010PropOp51
 70
     0
102
RTVSPost2010Prop52
140
1.0
102
RTVSPost2010PropOp52
 70
     0
102
RTVSPost2010Prop53
 90
        2
102
RTVSPost2010PropOp53
 70
     1
102
RTVSPost2010Prop54
  1
strokes_ogs.tif
102
RTVSPost2010PropOp54
 70
     1
102
RTVSPost2010Prop55
280
     0
102
RTVSPost2010PropOp55
 70
     1
102
RTVSPost2010Prop56
140
1.0
102
RTVSPost2010PropOp56
 70
     1
102
RTVSPost2010Prop57
140
1.0
102
RTVSPost2010PropOp57
 70
     1
102
RTVSPropertyOp0
 70
     0
102
RTVSPropertyOp1
 70
     0
102
RTVSPropertyOp2
 70
     0
102
RTVSPropertyOp3
 70
     0
102
RTVSPropertyOp4
 70
     0
102
RTVSPropertyOp5
 70
     0
102
RTVSPropertyOp6
 70
     0
102
RTVSPropertyOp7
 70
     0
102
RTVSPropertyOp8
 70
     0
102
RTVSPropertyOp9
 70
     0
102
RTVSPropertyOp10
 70
     0
102
RTVSPropertyOp11
 70
     0
102
RTVSPropertyOp12
 70
     0
102
RTVSPropertyOp13
 70
     0
102
RTVSPropertyOp14
 70
     2
102
RTVSPropertyOp15
 70
     0
102
RTVSPropertyOp16
 70
     0
102
RTVSPropertyOp17
 70
     0
102
RTVSPropertyOp18
 70
     0
102
RTVSPropertyOp19
 70
     0
102
RTVSPropertyOp20
 70
     0
102
RTVSPropertyOp21
 70
     0
102
RTVSPropertyOp22
 70
     0
102
RTVSPropertyOp23
 70
     0
102
RTVSPropertyOp24
 70
     0
102
RTVSPropertyOp25
 70
     0
102
RTVSPropertyOp26
 70
     0
102
RTVSPropertyOp27
 70
     0
102
RTVSPropertyOp28
 70
     1
102
RTVSPropertyOp29
 70
     1
102
RTVSPropertyOp30
 70
     1
102
RTVSPropertyOp31
 70
     1
102
RTVSPropertyOp32
 70
     1
102
RTVSPropertyOp33
 70
     1
102
RTVSPropertyOp34
 70
     1
102
RTVSPropertyOp35
 70
     1
102
RTVSPropertyOp36
 70
     1
102
RTVSPropertyOp37
 70
     1
102
RTVSPropertyOp38
 70
     1
102
RTVSPropertyOp39
 70
     1
102
RTVSPropertyOp40
 70
     1
102
RTVSPropertyOp41
 70
     1
102
RTVSPropertyOp42
 70
     1
102
RTVSPropertyOp43
 70
     1
102
RTVSPropertyOp44
 70
     1
102
RTVSPropertyOp45
 70
     1
102
RTVSPropertyOp46
 70
     1
102
RTVSPropertyOp47
 70
     1
102
RTVSPropertyOp48
 70
     1
102
RTVSPropertyOp49
 70
     1
102
RTVSPropertyOp50
 70
     1
102
RTVSPropertyOp51
 70
     0
102
RTVSPropertyOp52
 70
     0
102
RTVSPropertyOp53
 70
     1
102
RTVSPropertyOp54
 70
     1
102
RTVSPropertyOp55
 70
     1
102
RTVSPropertyOp56
 70
     1
102
RTVSPropertyOp57
 70
     1
102
RTVSPropertyOp58
 70
     1
102
RTVSPropertyOp59
 70
     1
102
RTVSPropertyOp60
 70
     1
102
RTVSPropertyOp61
 70
     1
102
RTVSPropertyOp62
 70
     1
  0
XRECORD
  5
7705
102
{ACAD_REACTORS
330
7704
102
}
330
7704
100
AcDbXrecord
280
     1
102
RTVSPost2010Prop28
280
     0
102
RTVSPost2010PropOp28
 70
     1
102
RTVSPost2010Prop29
280
     1
102
RTVSPost2010PropOp29
 70
     1
102
RTVSPost2010Prop30
280
     1
102
RTVSPost2010PropOp30
 70
     1
102
RTVSPost2010Prop31
280
     0
102
RTVSPost2010PropOp31
 70
     1
102
RTVSPost2010Prop32
280
     0
102
RTVSPost2010PropOp32
 70
     1
102
RTVSPost2010Prop33
280
     0
102
RTVSPost2010PropOp33
 70
     1
102
RTVSPost2010Prop34
280
     0
102
RTVSPost2010PropOp34
 70
     1
102
RTVSPost2010Prop35
280
     0
102
RTVSPost2010PropOp35
 70
     1
102
RTVSPost2010Prop36
280
     0
102
RTVSPost2010PropOp36
 70
     1
102
RTVSPost2010Prop37
 90
       50
102
RTVSPost2010PropOp37
 70
     1
102
RTVSPost2010Prop38
140
0.0
102
RTVSPost2010PropOp38
 70
     1
102
RTVSPost2010Prop39
140
1.0
102
RTVSPost2010PropOp39
 70
     1
102
RTVSPost2010Prop40
 90
        0
102
RTVSPost2010PropOp40
 70
     1
102
RTVSPost2010Prop41ColorIndex
 90
       18
102
RTVSPost2010Prop41ColorRGB
 90
        0
102
RTVSPost2010PropOp41
 70
     1
102
RTVSPost2010Prop42
 90
       50
102
RTVSPost2010PropOp42
 70
     1
102
RTVSPost2010Prop43
 90
        3
102
RTVSPost2010PropOp43
 70
     1
102
RTVSPost2010Prop44ColorIndex
 90
        5
102
RTVSPost2010Prop44ColorRGB
 90
      255
102
RTVSPost2010PropOp44
 70
     1
102
RTVSPost2010Prop45
280
     0
102
RTVSPost2010PropOp45
 70
     1
102
RTVSPost2010Prop46
 90
       50
102
RTVSPost2010PropOp46
 70
     1
102
RTVSPost2010Prop47
 90
       50
102
RTVSPost2010PropOp47
 70
     1
102
RTVSPost2010Prop48
 90
       50
102
RTVSPost2010PropOp48
 70
     1
102
RTVSPost2010Prop49
280
     0
102
RTVSPost2010PropOp49
 70
     1
102
RTVSPost2010Prop50
 90
       50
102
RTVSPost2010PropOp50
 70
     1
102
RTVSPost2010Prop51ColorIndex
 90
      256
102
RTVSPost2010Prop51ColorRGB
 90
-16777216
102
RTVSPost2010PropOp51
 70
     0
102
RTVSPost2010Prop52
140
1.0
102
RTVSPost2010PropOp52
 70
     0
102
RTVSPost2010Prop53
 90
        2
102
RTVSPost2010PropOp53
 70
     1
102
RTVSPost2010Prop54
  1
strokes_ogs.tif
102
RTVSPost2010PropOp54
 70
     1
102
RTVSPost2010Prop55
280
     0
102
RTVSPost2010PropOp55
 70
     1
102
RTVSPost2010Prop56
140
1.0
102
RTVSPost2010PropOp56
 70
     1
102
RTVSPost2010Prop57
140
1.0
102
RTVSPost2010PropOp57
 70
     1
102
RTVSPropertyOp0
 70
     1
102
RTVSPropertyOp1
 70
     1
102
RTVSPropertyOp2
 70
     1
102
RTVSPropertyOp3
 70
     1
102
RTVSPropertyOp4
 70
     1
102
RTVSPropertyOp5
 70
     1
102
RTVSPropertyOp6
 70
     1
102
RTVSPropertyOp7
 70
     1
102
RTVSPropertyOp8
 70
     1
102
RTVSPropertyOp9
 70
     1
102
RTVSPropertyOp10
 70
     1
102
RTVSPropertyOp11
 70
     1
102
RTVSPropertyOp12
 70
     1
102
RTVSPropertyOp13
 70
     1
102
RTVSPropertyOp14
 70
     1
102
RTVSPropertyOp15
 70
     1
102
RTVSPropertyOp16
 70
     1
102
RTVSPropertyOp17
 70
     1
102
RTVSPropertyOp18
 70
     1
102
RTVSPropertyOp19
 70
     1
102
RTVSPropertyOp20
 70
     1
102
RTVSPropertyOp21
 70
     1
102
RTVSPropertyOp22
 70
     1
102
RTVSPropertyOp23
 70
     1
102
RTVSPropertyOp24
 70
     1
102
RTVSPropertyOp25
 70
     1
102
RTVSPropertyOp26
 70
     1
102
RTVSPropertyOp27
 70
     1
102
RTVSPropertyOp28
 70
     1
102
RTVSPropertyOp29
 70
     1
102
RTVSPropertyOp30
 70
     1
102
RTVSPropertyOp31
 70
     1
102
RTVSPropertyOp32
 70
     1
102
RTVSPropertyOp33
 70
     1
102
RTVSPropertyOp34
 70
     1
102
RTVSPropertyOp35
 70
     1
102
RTVSPropertyOp36
 70
     1
102
RTVSPropertyOp37
 70
     1
102
RTVSPropertyOp38
 70
     1
102
RTVSPropertyOp39
 70
     1
102
RTVSPropertyOp40
 70
     1
102
RTVSPropertyOp41
 70
     1
102
RTVSPropertyOp42
 70
     1
102
RTVSPropertyOp43
 70
     1
102
RTVSPropertyOp44
 70
     1
102
RTVSPropertyOp45
 70
     1
102
RTVSPropertyOp46
 70
     1
102
RTVSPropertyOp47
 70
     1
102
RTVSPropertyOp48
 70
     1
102
RTVSPropertyOp49
 70
     1
102
RTVSPropertyOp50
 70
     1
102
RTVSPropertyOp51
 70
     0
102
RTVSPropertyOp52
 70
     0
102
RTVSPropertyOp53
 70
     1
102
RTVSPropertyOp54
 70
     1
102
RTVSPropertyOp55
 70
     1
102
RTVSPropertyOp56
 70
     1
102
RTVSPropertyOp57
 70
     1
102
RTVSPropertyOp58
 70
     1
102
RTVSPropertyOp59
 70
     1
102
RTVSPropertyOp60
 70
     1
102
RTVSPropertyOp61
 70
     1
102
RTVSPropertyOp62
 70
     1
  0
XRECORD
  5
76E9
102
{ACAD_REACTORS
330
76E8
102
}
330
76E8
100
AcDbXrecord
280
     1
102
RTVSPost2010Prop28
280
     0
102
RTVSPost2010PropOp28
 70
     1
102
RTVSPost2010Prop29
280
     1
102
RTVSPost2010PropOp29
 70
     1
102
RTVSPost2010Prop30
280
     1
102
RTVSPost2010PropOp30
 70
     1
102
RTVSPost2010Prop31
280
     0
102
RTVSPost2010PropOp31
 70
     1
102
RTVSPost2010Prop32
280
     0
102
RTVSPost2010PropOp32
 70
     1
102
RTVSPost2010Prop33
280
     0
102
RTVSPost2010PropOp33
 70
     1
102
RTVSPost2010Prop34
280
     0
102
RTVSPost2010PropOp34
 70
     1
102
RTVSPost2010Prop35
280
     0
102
RTVSPost2010PropOp35
 70
     1
102
RTVSPost2010Prop36
280
     0
102
RTVSPost2010PropOp36
 70
     1
102
RTVSPost2010Prop37
 90
       50
102
RTVSPost2010PropOp37
 70
     1
102
RTVSPost2010Prop38
140
0.0
102
RTVSPost2010PropOp38
 70
     1
102
RTVSPost2010Prop39
140
1.0
102
RTVSPost2010PropOp39
 70
     1
102
RTVSPost2010Prop40
 90
        0
102
RTVSPost2010PropOp40
 70
     1
102
RTVSPost2010Prop41ColorIndex
 90
       18
102
RTVSPost2010Prop41ColorRGB
 90
        0
102
RTVSPost2010PropOp41
 70
     1
102
RTVSPost2010Prop42
 90
       50
102
RTVSPost2010PropOp42
 70
     1
102
RTVSPost2010Prop43
 90
        3
102
RTVSPost2010PropOp43
 70
     1
102
RTVSPost2010Prop44ColorIndex
 90
        5
102
RTVSPost2010Prop44ColorRGB
 90
      255
102
RTVSPost2010PropOp44
 70
     1
102
RTVSPost2010Prop45
280
     0
102
RTVSPost2010PropOp45
 70
     1
102
RTVSPost2010Prop46
 90
       50
102
RTVSPost2010PropOp46
 70
     1
102
RTVSPost2010Prop47
 90
       50
102
RTVSPost2010PropOp47
 70
     1
102
RTVSPost2010Prop48
 90
       50
102
RTVSPost2010PropOp48
 70
     1
102
RTVSPost2010Prop49
280
     0
102
RTVSPost2010PropOp49
 70
     1
102
RTVSPost2010Prop50
 90
       50
102
RTVSPost2010PropOp50
 70
     1
102
RTVSPost2010Prop51ColorIndex
 90
      256
102
RTVSPost2010Prop51ColorRGB
 90
-16777216
102
RTVSPost2010PropOp51
 70
     0
102
RTVSPost2010Prop52
140
1.0
102
RTVSPost2010PropOp52
 70
     0
102
RTVSPost2010Prop53
 90
        2
102
RTVSPost2010PropOp53
 70
     1
102
RTVSPost2010Prop54
  1
strokes_ogs.tif
102
RTVSPost2010PropOp54
 70
     1
102
RTVSPost2010Prop55
280
     0
102
RTVSPost2010PropOp55
 70
     1
102
RTVSPost2010Prop56
140
1.0
102
RTVSPost2010PropOp56
 70
     1
102
RTVSPost2010Prop57
140
1.0
102
RTVSPost2010PropOp57
 70
     1
102
RTVSPropertyOp0
 70
     1
102
RTVSPropertyOp1
 70
     1
102
RTVSPropertyOp2
 70
     1
102
RTVSPropertyOp3
 70
     1
102
RTVSPropertyOp4
 70
     1
102
RTVSPropertyOp5
 70
     1
102
RTVSPropertyOp6
 70
     1
102
RTVSPropertyOp7
 70
     1
102
RTVSPropertyOp8
 70
     1
102
RTVSPropertyOp9
 70
     1
102
RTVSPropertyOp10
 70
     1
102
RTVSPropertyOp11
 70
     1
102
RTVSPropertyOp12
 70
     1
102
RTVSPropertyOp13
 70
     1
102
RTVSPropertyOp14
 70
     1
102
RTVSPropertyOp15
 70
     1
102
RTVSPropertyOp16
 70
     1
102
RTVSPropertyOp17
 70
     1
102
RTVSPropertyOp18
 70
     1
102
RTVSPropertyOp19
 70
     1
102
RTVSPropertyOp20
 70
     1
102
RTVSPropertyOp21
 70
     1
102
RTVSPropertyOp22
 70
     1
102
RTVSPropertyOp23
 70
     1
102
RTVSPropertyOp24
 70
     1
102
RTVSPropertyOp25
 70
     1
102
RTVSPropertyOp26
 70
     1
102
RTVSPropertyOp27
 70
     1
102
RTVSPropertyOp28
 70
     1
102
RTVSPropertyOp29
 70
     1
102
RTVSPropertyOp30
 70
     1
102
RTVSPropertyOp31
 70
     1
102
RTVSPropertyOp32
 70
     1
102
RTVSPropertyOp33
 70
     1
102
RTVSPropertyOp34
 70
     1
102
RTVSPropertyOp35
 70
     1
102
RTVSPropertyOp36
 70
     1
102
RTVSPropertyOp37
 70
     1
102
RTVSPropertyOp38
 70
     1
102
RTVSPropertyOp39
 70
     1
102
RTVSPropertyOp40
 70
     1
102
RTVSPropertyOp41
 70
     1
102
RTVSPropertyOp42
 70
     1
102
RTVSPropertyOp43
 70
     1
102
RTVSPropertyOp44
 70
     1
102
RTVSPropertyOp45
 70
     1
102
RTVSPropertyOp46
 70
     1
102
RTVSPropertyOp47
 70
     1
102
RTVSPropertyOp48
 70
     1
102
RTVSPropertyOp49
 70
     1
102
RTVSPropertyOp50
 70
     1
102
RTVSPropertyOp51
 70
     0
102
RTVSPropertyOp52
 70
     0
102
RTVSPropertyOp53
 70
     1
102
RTVSPropertyOp54
 70
     1
102
RTVSPropertyOp55
 70
     1
102
RTVSPropertyOp56
 70
     1
102
RTVSPropertyOp57
 70
     1
102
RTVSPropertyOp58
 70
     1
102
RTVSPropertyOp59
 70
     1
102
RTVSPropertyOp60
 70
     1
102
RTVSPropertyOp61
 70
     1
102
RTVSPropertyOp62
 70
     1
  0
XRECORD
  5
76EB
102
{ACAD_REACTORS
330
76EA
102
}
330
76EA
100
AcDbXrecord
280
     1
102
RTVSPost2010Prop28
280
     0
102
RTVSPost2010PropOp28
 70
     1
102
RTVSPost2010Prop29
280
     1
102
RTVSPost2010PropOp29
 70
     1
102
RTVSPost2010Prop30
280
     1
102
RTVSPost2010PropOp30
 70
     1
102
RTVSPost2010Prop31
280
     0
102
RTVSPost2010PropOp31
 70
     1
102
RTVSPost2010Prop32
280
     0
102
RTVSPost2010PropOp32
 70
     1
102
RTVSPost2010Prop33
280
     0
102
RTVSPost2010PropOp33
 70
     1
102
RTVSPost2010Prop34
280
     0
102
RTVSPost2010PropOp34
 70
     1
102
RTVSPost2010Prop35
280
     0
102
RTVSPost2010PropOp35
 70
     1
102
RTVSPost2010Prop36
280
     0
102
RTVSPost2010PropOp36
 70
     1
102
RTVSPost2010Prop37
 90
       50
102
RTVSPost2010PropOp37
 70
     1
102
RTVSPost2010Prop38
140
0.0
102
RTVSPost2010PropOp38
 70
     1
102
RTVSPost2010Prop39
140
1.0
102
RTVSPost2010PropOp39
 70
     1
102
RTVSPost2010Prop40
 90
        0
102
RTVSPost2010PropOp40
 70
     1
102
RTVSPost2010Prop41ColorIndex
 90
       18
102
RTVSPost2010Prop41ColorRGB
 90
        0
102
RTVSPost2010PropOp41
 70
     1
102
RTVSPost2010Prop42
 90
       50
102
RTVSPost2010PropOp42
 70
     1
102
RTVSPost2010Prop43
 90
        3
102
RTVSPost2010PropOp43
 70
     1
102
RTVSPost2010Prop44ColorIndex
 90
        5
102
RTVSPost2010Prop44ColorRGB
 90
      255
102
RTVSPost2010PropOp44
 70
     1
102
RTVSPost2010Prop45
280
     0
102
RTVSPost2010PropOp45
 70
     1
102
RTVSPost2010Prop46
 90
       50
102
RTVSPost2010PropOp46
 70
     1
102
RTVSPost2010Prop47
 90
       50
102
RTVSPost2010PropOp47
 70
     1
102
RTVSPost2010Prop48
 90
       50
102
RTVSPost2010PropOp48
 70
     1
102
RTVSPost2010Prop49
280
     0
102
RTVSPost2010PropOp49
 70
     1
102
RTVSPost2010Prop50
 90
       50
102
RTVSPost2010PropOp50
 70
     1
102
RTVSPost2010Prop51ColorIndex
 90
      256
102
RTVSPost2010Prop51ColorRGB
 90
-16777216
102
RTVSPost2010PropOp51
 70
     0
102
RTVSPost2010Prop52
140
1.0
102
RTVSPost2010PropOp52
 70
     0
102
RTVSPost2010Prop53
 90
        2
102
RTVSPost2010PropOp53
 70
     1
102
RTVSPost2010Prop54
  1
strokes_ogs.tif
102
RTVSPost2010PropOp54
 70
     1
102
RTVSPost2010Prop55
280
     0
102
RTVSPost2010PropOp55
 70
     1
102
RTVSPost2010Prop56
140
1.0
102
RTVSPost2010PropOp56
 70
     1
102
RTVSPost2010Prop57
140
1.0
102
RTVSPost2010PropOp57
 70
     1
102
RTVSPropertyOp0
 70
     1
102
RTVSPropertyOp1
 70
     1
102
RTVSPropertyOp2
 70
     1
102
RTVSPropertyOp3
 70
     1
102
RTVSPropertyOp4
 70
     1
102
RTVSPropertyOp5
 70
     1
102
RTVSPropertyOp6
 70
     1
102
RTVSPropertyOp7
 70
     1
102
RTVSPropertyOp8
 70
     1
102
RTVSPropertyOp9
 70
     1
102
RTVSPropertyOp10
 70
     1
102
RTVSPropertyOp11
 70
     1
102
RTVSPropertyOp12
 70
     1
102
RTVSPropertyOp13
 70
     1
102
RTVSPropertyOp14
 70
     1
102
RTVSPropertyOp15
 70
     1
102
RTVSPropertyOp16
 70
     1
102
RTVSPropertyOp17
 70
     1
102
RTVSPropertyOp18
 70
     1
102
RTVSPropertyOp19
 70
     1
102
RTVSPropertyOp20
 70
     1
102
RTVSPropertyOp21
 70
     1
102
RTVSPropertyOp22
 70
     1
102
RTVSPropertyOp23
 70
     1
102
RTVSPropertyOp24
 70
     1
102
RTVSPropertyOp25
 70
     1
102
RTVSPropertyOp26
 70
     1
102
RTVSPropertyOp27
 70
     1
102
RTVSPropertyOp28
 70
     1
102
RTVSPropertyOp29
 70
     1
102
RTVSPropertyOp30
 70
     1
102
RTVSPropertyOp31
 70
     1
102
RTVSPropertyOp32
 70
     1
102
RTVSPropertyOp33
 70
     1
102
RTVSPropertyOp34
 70
     1
102
RTVSPropertyOp35
 70
     1
102
RTVSPropertyOp36
 70
     1
102
RTVSPropertyOp37
 70
     1
102
RTVSPropertyOp38
 70
     1
102
RTVSPropertyOp39
 70
     1
102
RTVSPropertyOp40
 70
     1
102
RTVSPropertyOp41
 70
     1
102
RTVSPropertyOp42
 70
     1
102
RTVSPropertyOp43
 70
     1
102
RTVSPropertyOp44
 70
     1
102
RTVSPropertyOp45
 70
     1
102
RTVSPropertyOp46
 70
     1
102
RTVSPropertyOp47
 70
     1
102
RTVSPropertyOp48
 70
     1
102
RTVSPropertyOp49
 70
     1
102
RTVSPropertyOp50
 70
     1
102
RTVSPropertyOp51
 70
     0
102
RTVSPropertyOp52
 70
     0
102
RTVSPropertyOp53
 70
     1
102
RTVSPropertyOp54
 70
     1
102
RTVSPropertyOp55
 70
     1
102
RTVSPropertyOp56
 70
     1
102
RTVSPropertyOp57
 70
     1
102
RTVSPropertyOp58
 70
     1
102
RTVSPropertyOp59
 70
     1
102
RTVSPropertyOp60
 70
     1
102
RTVSPropertyOp61
 70
     1
102
RTVSPropertyOp62
 70
     1
  0
XRECORD
  5
76ED
102
{ACAD_REACTORS
330
76EC
102
}
330
76EC
100
AcDbXrecord
280
     1
102
RTVSPost2010Prop28
280
     0
102
RTVSPost2010PropOp28
 70
     1
102
RTVSPost2010Prop29
280
     1
102
RTVSPost2010PropOp29
 70
     1
102
RTVSPost2010Prop30
280
     1
102
RTVSPost2010PropOp30
 70
     1
102
RTVSPost2010Prop31
280
     0
102
RTVSPost2010PropOp31
 70
     1
102
RTVSPost2010Prop32
280
     0
102
RTVSPost2010PropOp32
 70
     1
102
RTVSPost2010Prop33
280
     0
102
RTVSPost2010PropOp33
 70
     1
102
RTVSPost2010Prop34
280
     0
102
RTVSPost2010PropOp34
 70
     1
102
RTVSPost2010Prop35
280
     0
102
RTVSPost2010PropOp35
 70
     1
102
RTVSPost2010Prop36
280
     0
102
RTVSPost2010PropOp36
 70
     1
102
RTVSPost2010Prop37
 90
       50
102
RTVSPost2010PropOp37
 70
     1
102
RTVSPost2010Prop38
140
0.0
102
RTVSPost2010PropOp38
 70
     1
102
RTVSPost2010Prop39
140
1.0
102
RTVSPost2010PropOp39
 70
     1
102
RTVSPost2010Prop40
 90
        0
102
RTVSPost2010PropOp40
 70
     1
102
RTVSPost2010Prop41ColorIndex
 90
       18
102
RTVSPost2010Prop41ColorRGB
 90
        0
102
RTVSPost2010PropOp41
 70
     1
102
RTVSPost2010Prop42
 90
       50
102
RTVSPost2010PropOp42
 70
     1
102
RTVSPost2010Prop43
 90
        3
102
RTVSPost2010PropOp43
 70
     1
102
RTVSPost2010Prop44ColorIndex
 90
        5
102
RTVSPost2010Prop44ColorRGB
 90
      255
102
RTVSPost2010PropOp44
 70
     1
102
RTVSPost2010Prop45
280
     0
102
RTVSPost2010PropOp45
 70
     1
102
RTVSPost2010Prop46
 90
       50
102
RTVSPost2010PropOp46
 70
     1
102
RTVSPost2010Prop47
 90
       50
102
RTVSPost2010PropOp47
 70
     1
102
RTVSPost2010Prop48
 90
       50
102
RTVSPost2010PropOp48
 70
     1
102
RTVSPost2010Prop49
280
     0
102
RTVSPost2010PropOp49
 70
     1
102
RTVSPost2010Prop50
 90
       50
102
RTVSPost2010PropOp50
 70
     1
102
RTVSPost2010Prop51ColorIndex
 90
      256
102
RTVSPost2010Prop51ColorRGB
 90
-16777216
102
RTVSPost2010PropOp51
 70
     0
102
RTVSPost2010Prop52
140
1.0
102
RTVSPost2010PropOp52
 70
     0
102
RTVSPost2010Prop53
 90
        2
102
RTVSPost2010PropOp53
 70
     1
102
RTVSPost2010Prop54
  1
strokes_ogs.tif
102
RTVSPost2010PropOp54
 70
     1
102
RTVSPost2010Prop55
280
     0
102
RTVSPost2010PropOp55
 70
     1
102
RTVSPost2010Prop56
140
1.0
102
RTVSPost2010PropOp56
 70
     1
102
RTVSPost2010Prop57
140
1.0
102
RTVSPost2010PropOp57
 70
     1
102
RTVSPropertyOp0
 70
     1
102
RTVSPropertyOp1
 70
     1
102
RTVSPropertyOp2
 70
     1
102
RTVSPropertyOp3
 70
     1
102
RTVSPropertyOp4
 70
     1
102
RTVSPropertyOp5
 70
     1
102
RTVSPropertyOp6
 70
     1
102
RTVSPropertyOp7
 70
     1
102
RTVSPropertyOp8
 70
     1
102
RTVSPropertyOp9
 70
     1
102
RTVSPropertyOp10
 70
     1
102
RTVSPropertyOp11
 70
     1
102
RTVSPropertyOp12
 70
     1
102
RTVSPropertyOp13
 70
     1
102
RTVSPropertyOp14
 70
     1
102
RTVSPropertyOp15
 70
     1
102
RTVSPropertyOp16
 70
     1
102
RTVSPropertyOp17
 70
     1
102
RTVSPropertyOp18
 70
     1
102
RTVSPropertyOp19
 70
     1
102
RTVSPropertyOp20
 70
     1
102
RTVSPropertyOp21
 70
     1
102
RTVSPropertyOp22
 70
     1
102
RTVSPropertyOp23
 70
     1
102
RTVSPropertyOp24
 70
     1
102
RTVSPropertyOp25
 70
     1
102
RTVSPropertyOp26
 70
     1
102
RTVSPropertyOp27
 70
     1
102
RTVSPropertyOp28
 70
     1
102
RTVSPropertyOp29
 70
     1
102
RTVSPropertyOp30
 70
     1
102
RTVSPropertyOp31
 70
     1
102
RTVSPropertyOp32
 70
     1
102
RTVSPropertyOp33
 70
     1
102
RTVSPropertyOp34
 70
     1
102
RTVSPropertyOp35
 70
     1
102
RTVSPropertyOp36
 70
     1
102
RTVSPropertyOp37
 70
     1
102
RTVSPropertyOp38
 70
     1
102
RTVSPropertyOp39
 70
     1
102
RTVSPropertyOp40
 70
     1
102
RTVSPropertyOp41
 70
     1
102
RTVSPropertyOp42
 70
     1
102
RTVSPropertyOp43
 70
     1
102
RTVSPropertyOp44
 70
     1
102
RTVSPropertyOp45
 70
     1
102
RTVSPropertyOp46
 70
     1
102
RTVSPropertyOp47
 70
     1
102
RTVSPropertyOp48
 70
     1
102
RTVSPropertyOp49
 70
     1
102
RTVSPropertyOp50
 70
     1
102
RTVSPropertyOp51
 70
     0
102
RTVSPropertyOp52
 70
     0
102
RTVSPropertyOp53
 70
     1
102
RTVSPropertyOp54
 70
     1
102
RTVSPropertyOp55
 70
     1
102
RTVSPropertyOp56
 70
     1
102
RTVSPropertyOp57
 70
     1
102
RTVSPropertyOp58
 70
     1
102
RTVSPropertyOp59
 70
     1
102
RTVSPropertyOp60
 70
     1
102
RTVSPropertyOp61
 70
     1
102
RTVSPropertyOp62
 70
     1
  0
XRECORD
  5
76EF
102
{ACAD_REACTORS
330
76EE
102
}
330
76EE
100
AcDbXrecord
280
     1
102
RTVSPost2010Prop28
280
     0
102
RTVSPost2010PropOp28
 70
     1
102
RTVSPost2010Prop29
280
     1
102
RTVSPost2010PropOp29
 70
     1
102
RTVSPost2010Prop30
280
     1
102
RTVSPost2010PropOp30
 70
     1
102
RTVSPost2010Prop31
280
     0
102
RTVSPost2010PropOp31
 70
     1
102
RTVSPost2010Prop32
280
     0
102
RTVSPost2010PropOp32
 70
     1
102
RTVSPost2010Prop33
280
     0
102
RTVSPost2010PropOp33
 70
     1
102
RTVSPost2010Prop34
280
     0
102
RTVSPost2010PropOp34
 70
     1
102
RTVSPost2010Prop35
280
     0
102
RTVSPost2010PropOp35
 70
     1
102
RTVSPost2010Prop36
280
     0
102
RTVSPost2010PropOp36
 70
     1
102
RTVSPost2010Prop37
 90
       50
102
RTVSPost2010PropOp37
 70
     1
102
RTVSPost2010Prop38
140
0.0
102
RTVSPost2010PropOp38
 70
     1
102
RTVSPost2010Prop39
140
1.0
102
RTVSPost2010PropOp39
 70
     1
102
RTVSPost2010Prop40
 90
        0
102
RTVSPost2010PropOp40
 70
     1
102
RTVSPost2010Prop41ColorIndex
 90
       18
102
RTVSPost2010Prop41ColorRGB
 90
        0
102
RTVSPost2010PropOp41
 70
     1
102
RTVSPost2010Prop42
 90
       50
102
RTVSPost2010PropOp42
 70
     1
102
RTVSPost2010Prop43
 90
        3
102
RTVSPost2010PropOp43
 70
     1
102
RTVSPost2010Prop44ColorIndex
 90
        5
102
RTVSPost2010Prop44ColorRGB
 90
      255
102
RTVSPost2010PropOp44
 70
     1
102
RTVSPost2010Prop45
280
     0
102
RTVSPost2010PropOp45
 70
     1
102
RTVSPost2010Prop46
 90
       50
102
RTVSPost2010PropOp46
 70
     1
102
RTVSPost2010Prop47
 90
       50
102
RTVSPost2010PropOp47
 70
     1
102
RTVSPost2010Prop48
 90
       50
102
RTVSPost2010PropOp48
 70
     1
102
RTVSPost2010Prop49
280
     0
102
RTVSPost2010PropOp49
 70
     1
102
RTVSPost2010Prop50
 90
       50
102
RTVSPost2010PropOp50
 70
     1
102
RTVSPost2010Prop51ColorIndex
 90
      256
102
RTVSPost2010Prop51ColorRGB
 90
-16777216
102
RTVSPost2010PropOp51
 70
     0
102
RTVSPost2010Prop52
140
1.0
102
RTVSPost2010PropOp52
 70
     0
102
RTVSPost2010Prop53
 90
        2
102
RTVSPost2010PropOp53
 70
     1
102
RTVSPost2010Prop54
  1
strokes_ogs.tif
102
RTVSPost2010PropOp54
 70
     1
102
RTVSPost2010Prop55
280
     0
102
RTVSPost2010PropOp55
 70
     1
102
RTVSPost2010Prop56
140
1.0
102
RTVSPost2010PropOp56
 70
     1
102
RTVSPost2010Prop57
140
1.0
102
RTVSPost2010PropOp57
 70
     1
102
RTVSPropertyOp0
 70
     1
102
RTVSPropertyOp1
 70
     1
102
RTVSPropertyOp2
 70
     1
102
RTVSPropertyOp3
 70
     1
102
RTVSPropertyOp4
 70
     1
102
RTVSPropertyOp5
 70
     1
102
RTVSPropertyOp6
 70
     1
102
RTVSPropertyOp7
 70
     1
102
RTVSPropertyOp8
 70
     1
102
RTVSPropertyOp9
 70
     1
102
RTVSPropertyOp10
 70
     1
102
RTVSPropertyOp11
 70
     1
102
RTVSPropertyOp12
 70
     1
102
RTVSPropertyOp13
 70
     1
102
RTVSPropertyOp14
 70
     1
102
RTVSPropertyOp15
 70
     1
102
RTVSPropertyOp16
 70
     1
102
RTVSPropertyOp17
 70
     1
102
RTVSPropertyOp18
 70
     1
102
RTVSPropertyOp19
 70
     1
102
RTVSPropertyOp20
 70
     1
102
RTVSPropertyOp21
 70
     1
102
RTVSPropertyOp22
 70
     1
102
RTVSPropertyOp23
 70
     1
102
RTVSPropertyOp24
 70
     1
102
RTVSPropertyOp25
 70
     1
102
RTVSPropertyOp26
 70
     1
102
RTVSPropertyOp27
 70
     1
102
RTVSPropertyOp28
 70
     1
102
RTVSPropertyOp29
 70
     1
102
RTVSPropertyOp30
 70
     1
102
RTVSPropertyOp31
 70
     1
102
RTVSPropertyOp32
 70
     1
102
RTVSPropertyOp33
 70
     1
102
RTVSPropertyOp34
 70
     1
102
RTVSPropertyOp35
 70
     1
102
RTVSPropertyOp36
 70
     1
102
RTVSPropertyOp37
 70
     1
102
RTVSPropertyOp38
 70
     1
102
RTVSPropertyOp39
 70
     1
102
RTVSPropertyOp40
 70
     1
102
RTVSPropertyOp41
 70
     1
102
RTVSPropertyOp42
 70
     1
102
RTVSPropertyOp43
 70
     1
102
RTVSPropertyOp44
 70
     1
102
RTVSPropertyOp45
 70
     1
102
RTVSPropertyOp46
 70
     1
102
RTVSPropertyOp47
 70
     1
102
RTVSPropertyOp48
 70
     1
102
RTVSPropertyOp49
 70
     1
102
RTVSPropertyOp50
 70
     1
102
RTVSPropertyOp51
 70
     0
102
RTVSPropertyOp52
 70
     0
102
RTVSPropertyOp53
 70
     1
102
RTVSPropertyOp54
 70
     1
102
RTVSPropertyOp55
 70
     1
102
RTVSPropertyOp56
 70
     1
102
RTVSPropertyOp57
 70
     1
102
RTVSPropertyOp58
 70
     1
102
RTVSPropertyOp59
 70
     1
102
RTVSPropertyOp60
 70
     1
102
RTVSPropertyOp61
 70
     1
102
RTVSPropertyOp62
 70
     1
  0
XRECORD
  5
76F7
102
{ACAD_REACTORS
330
76F6
102
}
330
76F6
100
AcDbXrecord
280
     1
102
RTVSPost2010Prop28
280
     0
102
RTVSPost2010PropOp28
 70
     1
102
RTVSPost2010Prop29
280
     1
102
RTVSPost2010PropOp29
 70
     1
102
RTVSPost2010Prop30
280
     1
102
RTVSPost2010PropOp30
 70
     1
102
RTVSPost2010Prop31
280
     0
102
RTVSPost2010PropOp31
 70
     1
102
RTVSPost2010Prop32
280
     0
102
RTVSPost2010PropOp32
 70
     1
102
RTVSPost2010Prop33
280
     0
102
RTVSPost2010PropOp33
 70
     1
102
RTVSPost2010Prop34
280
     0
102
RTVSPost2010PropOp34
 70
     1
102
RTVSPost2010Prop35
280
     0
102
RTVSPost2010PropOp35
 70
     1
102
RTVSPost2010Prop36
280
     0
102
RTVSPost2010PropOp36
 70
     1
102
RTVSPost2010Prop37
 90
       50
102
RTVSPost2010PropOp37
 70
     1
102
RTVSPost2010Prop38
140
0.0
102
RTVSPost2010PropOp38
 70
     1
102
RTVSPost2010Prop39
140
1.0
102
RTVSPost2010PropOp39
 70
     1
102
RTVSPost2010Prop40
 90
        0
102
RTVSPost2010PropOp40
 70
     1
102
RTVSPost2010Prop41ColorIndex
 90
       18
102
RTVSPost2010Prop41ColorRGB
 90
        0
102
RTVSPost2010PropOp41
 70
     1
102
RTVSPost2010Prop42
 90
       50
102
RTVSPost2010PropOp42
 70
     1
102
RTVSPost2010Prop43
 90
        3
102
RTVSPost2010PropOp43
 70
     1
102
RTVSPost2010Prop44ColorIndex
 90
        5
102
RTVSPost2010Prop44ColorRGB
 90
      255
102
RTVSPost2010PropOp44
 70
     1
102
RTVSPost2010Prop45
280
     0
102
RTVSPost2010PropOp45
 70
     1
102
RTVSPost2010Prop46
 90
       50
102
RTVSPost2010PropOp46
 70
     1
102
RTVSPost2010Prop47
 90
       50
102
RTVSPost2010PropOp47
 70
     1
102
RTVSPost2010Prop48
 90
       50
102
RTVSPost2010PropOp48
 70
     1
102
RTVSPost2010Prop49
280
     0
102
RTVSPost2010PropOp49
 70
     1
102
RTVSPost2010Prop50
 90
       50
102
RTVSPost2010PropOp50
 70
     1
102
RTVSPost2010Prop51ColorIndex
 90
      256
102
RTVSPost2010Prop51ColorRGB
 90
-16777216
102
RTVSPost2010PropOp51
 70
     0
102
RTVSPost2010Prop52
140
1.0
102
RTVSPost2010PropOp52
 70
     0
102
RTVSPost2010Prop53
 90
        2
102
RTVSPost2010PropOp53
 70
     1
102
RTVSPost2010Prop54
  1
strokes_ogs.tif
102
RTVSPost2010PropOp54
 70
     1
102
RTVSPost2010Prop55
280
     0
102
RTVSPost2010PropOp55
 70
     1
102
RTVSPost2010Prop56
140
1.0
102
RTVSPost2010PropOp56
 70
     1
102
RTVSPost2010Prop57
140
1.0
102
RTVSPost2010PropOp57
 70
     1
102
RTVSPropertyOp0
 70
     1
102
RTVSPropertyOp1
 70
     1
102
RTVSPropertyOp2
 70
     1
102
RTVSPropertyOp3
 70
     1
102
RTVSPropertyOp4
 70
     1
102
RTVSPropertyOp5
 70
     1
102
RTVSPropertyOp6
 70
     1
102
RTVSPropertyOp7
 70
     1
102
RTVSPropertyOp8
 70
     1
102
RTVSPropertyOp9
 70
     1
102
RTVSPropertyOp10
 70
     1
102
RTVSPropertyOp11
 70
     1
102
RTVSPropertyOp12
 70
     1
102
RTVSPropertyOp13
 70
     1
102
RTVSPropertyOp14
 70
     1
102
RTVSPropertyOp15
 70
     1
102
RTVSPropertyOp16
 70
     1
102
RTVSPropertyOp17
 70
     1
102
RTVSPropertyOp18
 70
     1
102
RTVSPropertyOp19
 70
     1
102
RTVSPropertyOp20
 70
     1
102
RTVSPropertyOp21
 70
     1
102
RTVSPropertyOp22
 70
     1
102
RTVSPropertyOp23
 70
     1
102
RTVSPropertyOp24
 70
     1
102
RTVSPropertyOp25
 70
     1
102
RTVSPropertyOp26
 70
     1
102
RTVSPropertyOp27
 70
     1
102
RTVSPropertyOp28
 70
     1
102
RTVSPropertyOp29
 70
     1
102
RTVSPropertyOp30
 70
     1
102
RTVSPropertyOp31
 70
     1
102
RTVSPropertyOp32
 70
     1
102
RTVSPropertyOp33
 70
     1
102
RTVSPropertyOp34
 70
     1
102
RTVSPropertyOp35
 70
     1
102
RTVSPropertyOp36
 70
     1
102
RTVSPropertyOp37
 70
     1
102
RTVSPropertyOp38
 70
     1
102
RTVSPropertyOp39
 70
     1
102
RTVSPropertyOp40
 70
     1
102
RTVSPropertyOp41
 70
     1
102
RTVSPropertyOp42
 70
     1
102
RTVSPropertyOp43
 70
     1
102
RTVSPropertyOp44
 70
     1
102
RTVSPropertyOp45
 70
     1
102
RTVSPropertyOp46
 70
     1
102
RTVSPropertyOp47
 70
     1
102
RTVSPropertyOp48
 70
     1
102
RTVSPropertyOp49
 70
     1
102
RTVSPropertyOp50
 70
     1
102
RTVSPropertyOp51
 70
     0
102
RTVSPropertyOp52
 70
     0
102
RTVSPropertyOp53
 70
     1
102
RTVSPropertyOp54
 70
     1
102
RTVSPropertyOp55
 70
     1
102
RTVSPropertyOp56
 70
     1
102
RTVSPropertyOp57
 70
     1
102
RTVSPropertyOp58
 70
     1
102
RTVSPropertyOp59
 70
     1
102
RTVSPropertyOp60
 70
     1
102
RTVSPropertyOp61
 70
     1
102
RTVSPropertyOp62
 70
     1
  0
XRECORD
  5
770B
102
{ACAD_REACTORS
330
770A
102
}
330
770A
100
AcDbXrecord
280
     1
102
RTVSPost2010Prop28
280
     0
102
RTVSPost2010PropOp28
 70
     1
102
RTVSPost2010Prop29
280
     1
102
RTVSPost2010PropOp29
 70
     1
102
RTVSPost2010Prop30
280
     1
102
RTVSPost2010PropOp30
 70
     1
102
RTVSPost2010Prop31
280
     0
102
RTVSPost2010PropOp31
 70
     1
102
RTVSPost2010Prop32
280
     0
102
RTVSPost2010PropOp32
 70
     1
102
RTVSPost2010Prop33
280
     0
102
RTVSPost2010PropOp33
 70
     1
102
RTVSPost2010Prop34
280
     0
102
RTVSPost2010PropOp34
 70
     1
102
RTVSPost2010Prop35
280
     0
102
RTVSPost2010PropOp35
 70
     1
102
RTVSPost2010Prop36
280
     0
102
RTVSPost2010PropOp36
 70
     1
102
RTVSPost2010Prop37
 90
       50
102
RTVSPost2010PropOp37
 70
     1
102
RTVSPost2010Prop38
140
0.0
102
RTVSPost2010PropOp38
 70
     1
102
RTVSPost2010Prop39
140
1.0
102
RTVSPost2010PropOp39
 70
     1
102
RTVSPost2010Prop40
 90
        0
102
RTVSPost2010PropOp40
 70
     1
102
RTVSPost2010Prop41ColorIndex
 90
       18
102
RTVSPost2010Prop41ColorRGB
 90
        0
102
RTVSPost2010PropOp41
 70
     1
102
RTVSPost2010Prop42
 90
       50
102
RTVSPost2010PropOp42
 70
     1
102
RTVSPost2010Prop43
 90
        3
102
RTVSPost2010PropOp43
 70
     1
102
RTVSPost2010Prop44ColorIndex
 90
        5
102
RTVSPost2010Prop44ColorRGB
 90
      255
102
RTVSPost2010PropOp44
 70
     1
102
RTVSPost2010Prop45
280
     0
102
RTVSPost2010PropOp45
 70
     1
102
RTVSPost2010Prop46
 90
       50
102
RTVSPost2010PropOp46
 70
     1
102
RTVSPost2010Prop47
 90
       50
102
RTVSPost2010PropOp47
 70
     1
102
RTVSPost2010Prop48
 90
       50
102
RTVSPost2010PropOp48
 70
     1
102
RTVSPost2010Prop49
280
     0
102
RTVSPost2010PropOp49
 70
     1
102
RTVSPost2010Prop50
 90
       50
102
RTVSPost2010PropOp50
 70
     1
102
RTVSPost2010Prop51ColorIndex
 90
      256
102
RTVSPost2010Prop51ColorRGB
 90
-16777216
102
RTVSPost2010PropOp51
 70
     0
102
RTVSPost2010Prop52
140
1.0
102
RTVSPost2010PropOp52
 70
     0
102
RTVSPost2010Prop53
 90
        2
102
RTVSPost2010PropOp53
 70
     1
102
RTVSPost2010Prop54
  1
strokes_ogs.tif
102
RTVSPost2010PropOp54
 70
     1
102
RTVSPost2010Prop55
280
     0
102
RTVSPost2010PropOp55
 70
     1
102
RTVSPost2010Prop56
140
1.0
102
RTVSPost2010PropOp56
 70
     1
102
RTVSPost2010Prop57
140
1.0
102
RTVSPost2010PropOp57
 70
     1
102
RTVSPropertyOp0
 70
     0
102
RTVSPropertyOp1
 70
     0
102
RTVSPropertyOp2
 70
     0
102
RTVSPropertyOp3
 70
     0
102
RTVSPropertyOp4
 70
     0
102
RTVSPropertyOp5
 70
     0
102
RTVSPropertyOp6
 70
     0
102
RTVSPropertyOp7
 70
     0
102
RTVSPropertyOp8
 70
     0
102
RTVSPropertyOp9
 70
     0
102
RTVSPropertyOp10
 70
     0
102
RTVSPropertyOp11
 70
     0
102
RTVSPropertyOp12
 70
     0
102
RTVSPropertyOp13
 70
     0
102
RTVSPropertyOp14
 70
     2
102
RTVSPropertyOp15
 70
     0
102
RTVSPropertyOp16
 70
     0
102
RTVSPropertyOp17
 70
     0
102
RTVSPropertyOp18
 70
     0
102
RTVSPropertyOp19
 70
     0
102
RTVSPropertyOp20
 70
     0
102
RTVSPropertyOp21
 70
     0
102
RTVSPropertyOp22
 70
     0
102
RTVSPropertyOp23
 70
     0
102
RTVSPropertyOp24
 70
     0
102
RTVSPropertyOp25
 70
     0
102
RTVSPropertyOp26
 70
     0
102
RTVSPropertyOp27
 70
     0
102
RTVSPropertyOp28
 70
     1
102
RTVSPropertyOp29
 70
     1
102
RTVSPropertyOp30
 70
     1
102
RTVSPropertyOp31
 70
     1
102
RTVSPropertyOp32
 70
     1
102
RTVSPropertyOp33
 70
     1
102
RTVSPropertyOp34
 70
     1
102
RTVSPropertyOp35
 70
     1
102
RTVSPropertyOp36
 70
     1
102
RTVSPropertyOp37
 70
     1
102
RTVSPropertyOp38
 70
     1
102
RTVSPropertyOp39
 70
     1
102
RTVSPropertyOp40
 70
     1
102
RTVSPropertyOp41
 70
     1
102
RTVSPropertyOp42
 70
     1
102
RTVSPropertyOp43
 70
     1
102
RTVSPropertyOp44
 70
     1
102
RTVSPropertyOp45
 70
     1
102
RTVSPropertyOp46
 70
     1
102
RTVSPropertyOp47
 70
     1
102
RTVSPropertyOp48
 70
     1
102
RTVSPropertyOp49
 70
     1
102
RTVSPropertyOp50
 70
     1
102
RTVSPropertyOp51
 70
     0
102
RTVSPropertyOp52
 70
     0
102
RTVSPropertyOp53
 70
     1
102
RTVSPropertyOp54
 70
     1
102
RTVSPropertyOp55
 70
     1
102
RTVSPropertyOp56
 70
     1
102
RTVSPropertyOp57
 70
     1
102
RTVSPropertyOp58
 70
     1
102
RTVSPropertyOp59
 70
     1
102
RTVSPropertyOp60
 70
     1
102
RTVSPropertyOp61
 70
     1
102
RTVSPropertyOp62
 70
     1
  0
XRECORD
  5
7703
102
{ACAD_REACTORS
330
7702
102
}
330
7702
100
AcDbXrecord
280
     1
102
RTVSPost2010Prop28
280
     0
102
RTVSPost2010PropOp28
 70
     1
102
RTVSPost2010Prop29
280
     1
102
RTVSPost2010PropOp29
 70
     1
102
RTVSPost2010Prop30
280
     1
102
RTVSPost2010PropOp30
 70
     1
102
RTVSPost2010Prop31
280
     0
102
RTVSPost2010PropOp31
 70
     1
102
RTVSPost2010Prop32
280
     0
102
RTVSPost2010PropOp32
 70
     1
102
RTVSPost2010Prop33
280
     0
102
RTVSPost2010PropOp33
 70
     1
102
RTVSPost2010Prop34
280
     0
102
RTVSPost2010PropOp34
 70
     1
102
RTVSPost2010Prop35
280
     0
102
RTVSPost2010PropOp35
 70
     1
102
RTVSPost2010Prop36
280
     0
102
RTVSPost2010PropOp36
 70
     1
102
RTVSPost2010Prop37
 90
       50
102
RTVSPost2010PropOp37
 70
     1
102
RTVSPost2010Prop38
140
0.0
102
RTVSPost2010PropOp38
 70
     1
102
RTVSPost2010Prop39
140
1.0
102
RTVSPost2010PropOp39
 70
     1
102
RTVSPost2010Prop40
 90
        0
102
RTVSPost2010PropOp40
 70
     1
102
RTVSPost2010Prop41ColorIndex
 90
       18
102
RTVSPost2010Prop41ColorRGB
 90
        0
102
RTVSPost2010PropOp41
 70
     1
102
RTVSPost2010Prop42
 90
       50
102
RTVSPost2010PropOp42
 70
     1
102
RTVSPost2010Prop43
 90
        3
102
RTVSPost2010PropOp43
 70
     1
102
RTVSPost2010Prop44ColorIndex
 90
        5
102
RTVSPost2010Prop44ColorRGB
 90
      255
102
RTVSPost2010PropOp44
 70
     1
102
RTVSPost2010Prop45
280
     0
102
RTVSPost2010PropOp45
 70
     1
102
RTVSPost2010Prop46
 90
       50
102
RTVSPost2010PropOp46
 70
     1
102
RTVSPost2010Prop47
 90
       50
102
RTVSPost2010PropOp47
 70
     1
102
RTVSPost2010Prop48
 90
       50
102
RTVSPost2010PropOp48
 70
     1
102
RTVSPost2010Prop49
280
     0
102
RTVSPost2010PropOp49
 70
     1
102
RTVSPost2010Prop50
 90
       50
102
RTVSPost2010PropOp50
 70
     1
102
RTVSPost2010Prop51ColorIndex
 90
      256
102
RTVSPost2010Prop51ColorRGB
 90
-16777216
102
RTVSPost2010PropOp51
 70
     0
102
RTVSPost2010Prop52
140
1.0
102
RTVSPost2010PropOp52
 70
     0
102
RTVSPost2010Prop53
 90
        2
102
RTVSPost2010PropOp53
 70
     1
102
RTVSPost2010Prop54
  1
strokes_ogs.tif
102
RTVSPost2010PropOp54
 70
     1
102
RTVSPost2010Prop55
280
     0
102
RTVSPost2010PropOp55
 70
     1
102
RTVSPost2010Prop56
140
1.0
102
RTVSPost2010PropOp56
 70
     1
102
RTVSPost2010Prop57
140
1.0
102
RTVSPost2010PropOp57
 70
     1
102
RTVSPropertyOp0
 70
     1
102
RTVSPropertyOp1
 70
     1
102
RTVSPropertyOp2
 70
     1
102
RTVSPropertyOp3
 70
     1
102
RTVSPropertyOp4
 70
     1
102
RTVSPropertyOp5
 70
     1
102
RTVSPropertyOp6
 70
     1
102
RTVSPropertyOp7
 70
     1
102
RTVSPropertyOp8
 70
     1
102
RTVSPropertyOp9
 70
     1
102
RTVSPropertyOp10
 70
     1
102
RTVSPropertyOp11
 70
     1
102
RTVSPropertyOp12
 70
     1
102
RTVSPropertyOp13
 70
     1
102
RTVSPropertyOp14
 70
     1
102
RTVSPropertyOp15
 70
     1
102
RTVSPropertyOp16
 70
     1
102
RTVSPropertyOp17
 70
     1
102
RTVSPropertyOp18
 70
     1
102
RTVSPropertyOp19
 70
     1
102
RTVSPropertyOp20
 70
     1
102
RTVSPropertyOp21
 70
     1
102
RTVSPropertyOp22
 70
     1
102
RTVSPropertyOp23
 70
     1
102
RTVSPropertyOp24
 70
     1
102
RTVSPropertyOp25
 70
     1
102
RTVSPropertyOp26
 70
     1
102
RTVSPropertyOp27
 70
     1
102
RTVSPropertyOp28
 70
     1
102
RTVSPropertyOp29
 70
     1
102
RTVSPropertyOp30
 70
     1
102
RTVSPropertyOp31
 70
     1
102
RTVSPropertyOp32
 70
     1
102
RTVSPropertyOp33
 70
     1
102
RTVSPropertyOp34
 70
     1
102
RTVSPropertyOp35
 70
     1
102
RTVSPropertyOp36
 70
     1
102
RTVSPropertyOp37
 70
     1
102
RTVSPropertyOp38
 70
     1
102
RTVSPropertyOp39
 70
     1
102
RTVSPropertyOp40
 70
     1
102
RTVSPropertyOp41
 70
     1
102
RTVSPropertyOp42
 70
     1
102
RTVSPropertyOp43
 70
     1
102
RTVSPropertyOp44
 70
     1
102
RTVSPropertyOp45
 70
     1
102
RTVSPropertyOp46
 70
     1
102
RTVSPropertyOp47
 70
     1
102
RTVSPropertyOp48
 70
     1
102
RTVSPropertyOp49
 70
     1
102
RTVSPropertyOp50
 70
     1
102
RTVSPropertyOp51
 70
     0
102
RTVSPropertyOp52
 70
     0
102
RTVSPropertyOp53
 70
     1
102
RTVSPropertyOp54
 70
     1
102
RTVSPropertyOp55
 70
     1
102
RTVSPropertyOp56
 70
     1
102
RTVSPropertyOp57
 70
     1
102
RTVSPropertyOp58
 70
     1
102
RTVSPropertyOp59
 70
     1
102
RTVSPropertyOp60
 70
     1
102
RTVSPropertyOp61
 70
     1
102
RTVSPropertyOp62
 70
     1
  0
XRECORD
  5
770D
102
{ACAD_REACTORS
330
770C
102
}
330
770C
100
AcDbXrecord
280
     1
102
RTVSPost2010Prop28
280
     0
102
RTVSPost2010PropOp28
 70
     1
102
RTVSPost2010Prop29
280
     1
102
RTVSPost2010PropOp29
 70
     1
102
RTVSPost2010Prop30
280
     1
102
RTVSPost2010PropOp30
 70
     1
102
RTVSPost2010Prop31
280
     0
102
RTVSPost2010PropOp31
 70
     1
102
RTVSPost2010Prop32
280
     0
102
RTVSPost2010PropOp32
 70
     1
102
RTVSPost2010Prop33
280
     0
102
RTVSPost2010PropOp33
 70
     1
102
RTVSPost2010Prop34
280
     0
102
RTVSPost2010PropOp34
 70
     1
102
RTVSPost2010Prop35
280
     0
102
RTVSPost2010PropOp35
 70
     1
102
RTVSPost2010Prop36
280
     0
102
RTVSPost2010PropOp36
 70
     1
102
RTVSPost2010Prop37
 90
       50
102
RTVSPost2010PropOp37
 70
     1
102
RTVSPost2010Prop38
140
0.0
102
RTVSPost2010PropOp38
 70
     1
102
RTVSPost2010Prop39
140
1.0
102
RTVSPost2010PropOp39
 70
     1
102
RTVSPost2010Prop40
 90
        0
102
RTVSPost2010PropOp40
 70
     1
102
RTVSPost2010Prop41ColorIndex
 90
       18
102
RTVSPost2010Prop41ColorRGB
 90
        0
102
RTVSPost2010PropOp41
 70
     1
102
RTVSPost2010Prop42
 90
       50
102
RTVSPost2010PropOp42
 70
     1
102
RTVSPost2010Prop43
 90
        3
102
RTVSPost2010PropOp43
 70
     1
102
RTVSPost2010Prop44ColorIndex
 90
        5
102
RTVSPost2010Prop44ColorRGB
 90
      255
102
RTVSPost2010PropOp44
 70
     1
102
RTVSPost2010Prop45
280
     0
102
RTVSPost2010PropOp45
 70
     1
102
RTVSPost2010Prop46
 90
       50
102
RTVSPost2010PropOp46
 70
     1
102
RTVSPost2010Prop47
 90
       50
102
RTVSPost2010PropOp47
 70
     1
102
RTVSPost2010Prop48
 90
       50
102
RTVSPost2010PropOp48
 70
     1
102
RTVSPost2010Prop49
280
     0
102
RTVSPost2010PropOp49
 70
     1
102
RTVSPost2010Prop50
 90
       50
102
RTVSPost2010PropOp50
 70
     1
102
RTVSPost2010Prop51ColorIndex
 90
      256
102
RTVSPost2010Prop51ColorRGB
 90
-16777216
102
RTVSPost2010PropOp51
 70
     0
102
RTVSPost2010Prop52
140
1.0
102
RTVSPost2010PropOp52
 70
     0
102
RTVSPost2010Prop53
 90
        2
102
RTVSPost2010PropOp53
 70
     1
102
RTVSPost2010Prop54
  1
strokes_ogs.tif
102
RTVSPost2010PropOp54
 70
     1
102
RTVSPost2010Prop55
280
     0
102
RTVSPost2010PropOp55
 70
     1
102
RTVSPost2010Prop56
140
1.0
102
RTVSPost2010PropOp56
 70
     1
102
RTVSPost2010Prop57
140
1.0
102
RTVSPost2010PropOp57
 70
     1
102
RTVSPropertyOp0
 70
     0
102
RTVSPropertyOp1
 70
     0
102
RTVSPropertyOp2
 70
     0
102
RTVSPropertyOp3
 70
     0
102
RTVSPropertyOp4
 70
     0
102
RTVSPropertyOp5
 70
     0
102
RTVSPropertyOp6
 70
     0
102
RTVSPropertyOp7
 70
     0
102
RTVSPropertyOp8
 70
     0
102
RTVSPropertyOp9
 70
     0
102
RTVSPropertyOp10
 70
     0
102
RTVSPropertyOp11
 70
     0
102
RTVSPropertyOp12
 70
     0
102
RTVSPropertyOp13
 70
     0
102
RTVSPropertyOp14
 70
     2
102
RTVSPropertyOp15
 70
     0
102
RTVSPropertyOp16
 70
     0
102
RTVSPropertyOp17
 70
     0
102
RTVSPropertyOp18
 70
     0
102
RTVSPropertyOp19
 70
     0
102
RTVSPropertyOp20
 70
     0
102
RTVSPropertyOp21
 70
     0
102
RTVSPropertyOp22
 70
     0
102
RTVSPropertyOp23
 70
     0
102
RTVSPropertyOp24
 70
     0
102
RTVSPropertyOp25
 70
     0
102
RTVSPropertyOp26
 70
     0
102
RTVSPropertyOp27
 70
     0
102
RTVSPropertyOp28
 70
     1
102
RTVSPropertyOp29
 70
     1
102
RTVSPropertyOp30
 70
     1
102
RTVSPropertyOp31
 70
     1
102
RTVSPropertyOp32
 70
     1
102
RTVSPropertyOp33
 70
     1
102
RTVSPropertyOp34
 70
     1
102
RTVSPropertyOp35
 70
     1
102
RTVSPropertyOp36
 70
     1
102
RTVSPropertyOp37
 70
     1
102
RTVSPropertyOp38
 70
     1
102
RTVSPropertyOp39
 70
     1
102
RTVSPropertyOp40
 70
     1
102
RTVSPropertyOp41
 70
     1
102
RTVSPropertyOp42
 70
     1
102
RTVSPropertyOp43
 70
     1
102
RTVSPropertyOp44
 70
     1
102
RTVSPropertyOp45
 70
     1
102
RTVSPropertyOp46
 70
     1
102
RTVSPropertyOp47
 70
     1
102
RTVSPropertyOp48
 70
     1
102
RTVSPropertyOp49
 70
     1
102
RTVSPropertyOp50
 70
     1
102
RTVSPropertyOp51
 70
     0
102
RTVSPropertyOp52
 70
     0
102
RTVSPropertyOp53
 70
     1
102
RTVSPropertyOp54
 70
     1
102
RTVSPropertyOp55
 70
     1
102
RTVSPropertyOp56
 70
     1
102
RTVSPropertyOp57
 70
     1
102
RTVSPropertyOp58
 70
     1
102
RTVSPropertyOp59
 70
     1
102
RTVSPropertyOp60
 70
     1
102
RTVSPropertyOp61
 70
     1
102
RTVSPropertyOp62
 70
     1
  0
XRECORD
  5
76FB
102
{ACAD_REACTORS
330
76FA
102
}
330
76FA
100
AcDbXrecord
280
     1
102
RTVSPost2010Prop28
280
     0
102
RTVSPost2010PropOp28
 70
     1
102
RTVSPost2010Prop29
280
     1
102
RTVSPost2010PropOp29
 70
     1
102
RTVSPost2010Prop30
280
     1
102
RTVSPost2010PropOp30
 70
     1
102
RTVSPost2010Prop31
280
     0
102
RTVSPost2010PropOp31
 70
     1
102
RTVSPost2010Prop32
280
     0
102
RTVSPost2010PropOp32
 70
     1
102
RTVSPost2010Prop33
280
     0
102
RTVSPost2010PropOp33
 70
     1
102
RTVSPost2010Prop34
280
     0
102
RTVSPost2010PropOp34
 70
     1
102
RTVSPost2010Prop35
280
     0
102
RTVSPost2010PropOp35
 70
     1
102
RTVSPost2010Prop36
280
     0
102
RTVSPost2010PropOp36
 70
     1
102
RTVSPost2010Prop37
 90
       50
102
RTVSPost2010PropOp37
 70
     1
102
RTVSPost2010Prop38
140
0.0
102
RTVSPost2010PropOp38
 70
     1
102
RTVSPost2010Prop39
140
1.0
102
RTVSPost2010PropOp39
 70
     1
102
RTVSPost2010Prop40
 90
        0
102
RTVSPost2010PropOp40
 70
     1
102
RTVSPost2010Prop41ColorIndex
 90
       18
102
RTVSPost2010Prop41ColorRGB
 90
        0
102
RTVSPost2010PropOp41
 70
     1
102
RTVSPost2010Prop42
 90
       50
102
RTVSPost2010PropOp42
 70
     1
102
RTVSPost2010Prop43
 90
        3
102
RTVSPost2010PropOp43
 70
     1
102
RTVSPost2010Prop44ColorIndex
 90
        5
102
RTVSPost2010Prop44ColorRGB
 90
      255
102
RTVSPost2010PropOp44
 70
     1
102
RTVSPost2010Prop45
280
     0
102
RTVSPost2010PropOp45
 70
     1
102
RTVSPost2010Prop46
 90
       50
102
RTVSPost2010PropOp46
 70
     1
102
RTVSPost2010Prop47
 90
       50
102
RTVSPost2010PropOp47
 70
     1
102
RTVSPost2010Prop48
 90
       50
102
RTVSPost2010PropOp48
 70
     1
102
RTVSPost2010Prop49
280
     0
102
RTVSPost2010PropOp49
 70
     1
102
RTVSPost2010Prop50
 90
       50
102
RTVSPost2010PropOp50
 70
     1
102
RTVSPost2010Prop51ColorIndex
 90
      256
102
RTVSPost2010Prop51ColorRGB
 90
-16777216
102
RTVSPost2010PropOp51
 70
     0
102
RTVSPost2010Prop52
140
1.0
102
RTVSPost2010PropOp52
 70
     0
102
RTVSPost2010Prop53
 90
        2
102
RTVSPost2010PropOp53
 70
     1
102
RTVSPost2010Prop54
  1
strokes_ogs.tif
102
RTVSPost2010PropOp54
 70
     1
102
RTVSPost2010Prop55
280
     0
102
RTVSPost2010PropOp55
 70
     1
102
RTVSPost2010Prop56
140
1.0
102
RTVSPost2010PropOp56
 70
     1
102
RTVSPost2010Prop57
140
1.0
102
RTVSPost2010PropOp57
 70
     1
102
RTVSPropertyOp0
 70
     1
102
RTVSPropertyOp1
 70
     1
102
RTVSPropertyOp2
 70
     1
102
RTVSPropertyOp3
 70
     1
102
RTVSPropertyOp4
 70
     1
102
RTVSPropertyOp5
 70
     1
102
RTVSPropertyOp6
 70
     1
102
RTVSPropertyOp7
 70
     1
102
RTVSPropertyOp8
 70
     1
102
RTVSPropertyOp9
 70
     1
102
RTVSPropertyOp10
 70
     1
102
RTVSPropertyOp11
 70
     1
102
RTVSPropertyOp12
 70
     1
102
RTVSPropertyOp13
 70
     1
102
RTVSPropertyOp14
 70
     1
102
RTVSPropertyOp15
 70
     1
102
RTVSPropertyOp16
 70
     1
102
RTVSPropertyOp17
 70
     1
102
RTVSPropertyOp18
 70
     1
102
RTVSPropertyOp19
 70
     1
102
RTVSPropertyOp20
 70
     1
102
RTVSPropertyOp21
 70
     1
102
RTVSPropertyOp22
 70
     1
102
RTVSPropertyOp23
 70
     1
102
RTVSPropertyOp24
 70
     1
102
RTVSPropertyOp25
 70
     1
102
RTVSPropertyOp26
 70
     1
102
RTVSPropertyOp27
 70
     1
102
RTVSPropertyOp28
 70
     1
102
RTVSPropertyOp29
 70
     1
102
RTVSPropertyOp30
 70
     1
102
RTVSPropertyOp31
 70
     1
102
RTVSPropertyOp32
 70
     1
102
RTVSPropertyOp33
 70
     1
102
RTVSPropertyOp34
 70
     1
102
RTVSPropertyOp35
 70
     1
102
RTVSPropertyOp36
 70
     1
102
RTVSPropertyOp37
 70
     1
102
RTVSPropertyOp38
 70
     1
102
RTVSPropertyOp39
 70
     1
102
RTVSPropertyOp40
 70
     1
102
RTVSPropertyOp41
 70
     1
102
RTVSPropertyOp42
 70
     1
102
RTVSPropertyOp43
 70
     1
102
RTVSPropertyOp44
 70
     1
102
RTVSPropertyOp45
 70
     1
102
RTVSPropertyOp46
 70
     1
102
RTVSPropertyOp47
 70
     1
102
RTVSPropertyOp48
 70
     1
102
RTVSPropertyOp49
 70
     1
102
RTVSPropertyOp50
 70
     1
102
RTVSPropertyOp51
 70
     0
102
RTVSPropertyOp52
 70
     0
102
RTVSPropertyOp53
 70
     1
102
RTVSPropertyOp54
 70
     1
102
RTVSPropertyOp55
 70
     1
102
RTVSPropertyOp56
 70
     1
102
RTVSPropertyOp57
 70
     1
102
RTVSPropertyOp58
 70
     1
102
RTVSPropertyOp59
 70
     1
102
RTVSPropertyOp60
 70
     1
102
RTVSPropertyOp61
 70
     1
102
RTVSPropertyOp62
 70
     1
  0
XRECORD
  5
7719
102
{ACAD_REACTORS
330
7718
102
}
330
7718
100
AcDbXrecord
280
     1
102
RTVSPost2010Prop28
280
     0
102
RTVSPost2010PropOp28
 70
     1
102
RTVSPost2010Prop29
280
     1
102
RTVSPost2010PropOp29
 70
     1
102
RTVSPost2010Prop30
280
     1
102
RTVSPost2010PropOp30
 70
     1
102
RTVSPost2010Prop31
280
     0
102
RTVSPost2010PropOp31
 70
     1
102
RTVSPost2010Prop32
280
     0
102
RTVSPost2010PropOp32
 70
     1
102
RTVSPost2010Prop33
280
     0
102
RTVSPost2010PropOp33
 70
     1
102
RTVSPost2010Prop34
280
     0
102
RTVSPost2010PropOp34
 70
     1
102
RTVSPost2010Prop35
280
     0
102
RTVSPost2010PropOp35
 70
     1
102
RTVSPost2010Prop36
280
     0
102
RTVSPost2010PropOp36
 70
     1
102
RTVSPost2010Prop37
 90
       50
102
RTVSPost2010PropOp37
 70
     1
102
RTVSPost2010Prop38
140
0.0
102
RTVSPost2010PropOp38
 70
     1
102
RTVSPost2010Prop39
140
1.0
102
RTVSPost2010PropOp39
 70
     1
102
RTVSPost2010Prop40
 90
        0
102
RTVSPost2010PropOp40
 70
     1
102
RTVSPost2010Prop41ColorIndex
 90
       18
102
RTVSPost2010Prop41ColorRGB
 90
        0
102
RTVSPost2010PropOp41
 70
     1
102
RTVSPost2010Prop42
 90
       50
102
RTVSPost2010PropOp42
 70
     1
102
RTVSPost2010Prop43
 90
        3
102
RTVSPost2010PropOp43
 70
     1
102
RTVSPost2010Prop44ColorIndex
 90
        5
102
RTVSPost2010Prop44ColorRGB
 90
      255
102
RTVSPost2010PropOp44
 70
     1
102
RTVSPost2010Prop45
280
     0
102
RTVSPost2010PropOp45
 70
     1
102
RTVSPost2010Prop46
 90
       50
102
RTVSPost2010PropOp46
 70
     1
102
RTVSPost2010Prop47
 90
       50
102
RTVSPost2010PropOp47
 70
     1
102
RTVSPost2010Prop48
 90
       50
102
RTVSPost2010PropOp48
 70
     1
102
RTVSPost2010Prop49
280
     0
102
RTVSPost2010PropOp49
 70
     1
102
RTVSPost2010Prop50
 90
       50
102
RTVSPost2010PropOp50
 70
     1
102
RTVSPost2010Prop51ColorIndex
 90
      256
102
RTVSPost2010Prop51ColorRGB
 90
-16777216
102
RTVSPost2010PropOp51
 70
     0
102
RTVSPost2010Prop52
140
1.0
102
RTVSPost2010PropOp52
 70
     0
102
RTVSPost2010Prop53
 90
        2
102
RTVSPost2010PropOp53
 70
     1
102
RTVSPost2010Prop54
  1
strokes_ogs.tif
102
RTVSPost2010PropOp54
 70
     1
102
RTVSPost2010Prop55
280
     0
102
RTVSPost2010PropOp55
 70
     1
102
RTVSPost2010Prop56
140
1.0
102
RTVSPost2010PropOp56
 70
     1
102
RTVSPost2010Prop57
140
1.0
102
RTVSPost2010PropOp57
 70
     1
102
RTVSPropertyOp0
 70
     1
102
RTVSPropertyOp1
 70
     1
102
RTVSPropertyOp2
 70
     1
102
RTVSPropertyOp3
 70
     1
102
RTVSPropertyOp4
 70
     1
102
RTVSPropertyOp5
 70
     1
102
RTVSPropertyOp6
 70
     1
102
RTVSPropertyOp7
 70
     1
102
RTVSPropertyOp8
 70
     1
102
RTVSPropertyOp9
 70
     1
102
RTVSPropertyOp10
 70
     1
102
RTVSPropertyOp11
 70
     1
102
RTVSPropertyOp12
 70
     1
102
RTVSPropertyOp13
 70
     1
102
RTVSPropertyOp14
 70
     1
102
RTVSPropertyOp15
 70
     1
102
RTVSPropertyOp16
 70
     1
102
RTVSPropertyOp17
 70
     1
102
RTVSPropertyOp18
 70
     1
102
RTVSPropertyOp19
 70
     1
102
RTVSPropertyOp20
 70
     1
102
RTVSPropertyOp21
 70
     1
102
RTVSPropertyOp22
 70
     1
102
RTVSPropertyOp23
 70
     1
102
RTVSPropertyOp24
 70
     1
102
RTVSPropertyOp25
 70
     1
102
RTVSPropertyOp26
 70
     1
102
RTVSPropertyOp27
 70
     1
102
RTVSPropertyOp28
 70
     1
102
RTVSPropertyOp29
 70
     1
102
RTVSPropertyOp30
 70
     1
102
RTVSPropertyOp31
 70
     1
102
RTVSPropertyOp32
 70
     1
102
RTVSPropertyOp33
 70
     1
102
RTVSPropertyOp34
 70
     1
102
RTVSPropertyOp35
 70
     1
102
RTVSPropertyOp36
 70
     1
102
RTVSPropertyOp37
 70
     1
102
RTVSPropertyOp38
 70
     1
102
RTVSPropertyOp39
 70
     1
102
RTVSPropertyOp40
 70
     1
102
RTVSPropertyOp41
 70
     1
102
RTVSPropertyOp42
 70
     1
102
RTVSPropertyOp43
 70
     1
102
RTVSPropertyOp44
 70
     1
102
RTVSPropertyOp45
 70
     1
102
RTVSPropertyOp46
 70
     1
102
RTVSPropertyOp47
 70
     1
102
RTVSPropertyOp48
 70
     1
102
RTVSPropertyOp49
 70
     1
102
RTVSPropertyOp50
 70
     1
102
RTVSPropertyOp51
 70
     0
102
RTVSPropertyOp52
 70
     0
102
RTVSPropertyOp53
 70
     1
102
RTVSPropertyOp54
 70
     1
102
RTVSPropertyOp55
 70
     1
102
RTVSPropertyOp56
 70
     1
102
RTVSPropertyOp57
 70
     1
102
RTVSPropertyOp58
 70
     1
102
RTVSPropertyOp59
 70
     1
102
RTVSPropertyOp60
 70
     1
102
RTVSPropertyOp61
 70
     1
102
RTVSPropertyOp62
 70
     1
  0
XRECORD
  5
7717
102
{ACAD_REACTORS
330
7716
102
}
330
7716
100
AcDbXrecord
280
     1
102
RTVSPost2010Prop28
280
     0
102
RTVSPost2010PropOp28
 70
     1
102
RTVSPost2010Prop29
280
     1
102
RTVSPost2010PropOp29
 70
     1
102
RTVSPost2010Prop30
280
     1
102
RTVSPost2010PropOp30
 70
     1
102
RTVSPost2010Prop31
280
     0
102
RTVSPost2010PropOp31
 70
     1
102
RTVSPost2010Prop32
280
     0
102
RTVSPost2010PropOp32
 70
     1
102
RTVSPost2010Prop33
280
     0
102
RTVSPost2010PropOp33
 70
     1
102
RTVSPost2010Prop34
280
     0
102
RTVSPost2010PropOp34
 70
     1
102
RTVSPost2010Prop35
280
     0
102
RTVSPost2010PropOp35
 70
     1
102
RTVSPost2010Prop36
280
     0
102
RTVSPost2010PropOp36
 70
     1
102
RTVSPost2010Prop37
 90
       50
102
RTVSPost2010PropOp37
 70
     1
102
RTVSPost2010Prop38
140
0.0
102
RTVSPost2010PropOp38
 70
     1
102
RTVSPost2010Prop39
140
1.0
102
RTVSPost2010PropOp39
 70
     1
102
RTVSPost2010Prop40
 90
        0
102
RTVSPost2010PropOp40
 70
     1
102
RTVSPost2010Prop41ColorIndex
 90
       18
102
RTVSPost2010Prop41ColorRGB
 90
        0
102
RTVSPost2010PropOp41
 70
     1
102
RTVSPost2010Prop42
 90
       50
102
RTVSPost2010PropOp42
 70
     1
102
RTVSPost2010Prop43
 90
        3
102
RTVSPost2010PropOp43
 70
     1
102
RTVSPost2010Prop44ColorIndex
 90
        5
102
RTVSPost2010Prop44ColorRGB
 90
      255
102
RTVSPost2010PropOp44
 70
     1
102
RTVSPost2010Prop45
280
     0
102
RTVSPost2010PropOp45
 70
     1
102
RTVSPost2010Prop46
 90
       50
102
RTVSPost2010PropOp46
 70
     1
102
RTVSPost2010Prop47
 90
       50
102
RTVSPost2010PropOp47
 70
     1
102
RTVSPost2010Prop48
 90
       50
102
RTVSPost2010PropOp48
 70
     1
102
RTVSPost2010Prop49
280
     0
102
RTVSPost2010PropOp49
 70
     1
102
RTVSPost2010Prop50
 90
       50
102
RTVSPost2010PropOp50
 70
     1
102
RTVSPost2010Prop51ColorIndex
 90
      256
102
RTVSPost2010Prop51ColorRGB
 90
-16777216
102
RTVSPost2010PropOp51
 70
     0
102
RTVSPost2010Prop52
140
1.0
102
RTVSPost2010PropOp52
 70
     0
102
RTVSPost2010Prop53
 90
        2
102
RTVSPost2010PropOp53
 70
     1
102
RTVSPost2010Prop54
  1
strokes_ogs.tif
102
RTVSPost2010PropOp54
 70
     1
102
RTVSPost2010Prop55
280
     0
102
RTVSPost2010PropOp55
 70
     1
102
RTVSPost2010Prop56
140
1.0
102
RTVSPost2010PropOp56
 70
     1
102
RTVSPost2010Prop57
140
1.0
102
RTVSPost2010PropOp57
 70
     1
102
RTVSPropertyOp0
 70
     1
102
RTVSPropertyOp1
 70
     1
102
RTVSPropertyOp2
 70
     1
102
RTVSPropertyOp3
 70
     1
102
RTVSPropertyOp4
 70
     1
102
RTVSPropertyOp5
 70
     1
102
RTVSPropertyOp6
 70
     1
102
RTVSPropertyOp7
 70
     1
102
RTVSPropertyOp8
 70
     1
102
RTVSPropertyOp9
 70
     1
102
RTVSPropertyOp10
 70
     1
102
RTVSPropertyOp11
 70
     1
102
RTVSPropertyOp12
 70
     1
102
RTVSPropertyOp13
 70
     1
102
RTVSPropertyOp14
 70
     1
102
RTVSPropertyOp15
 70
     1
102
RTVSPropertyOp16
 70
     1
102
RTVSPropertyOp17
 70
     1
102
RTVSPropertyOp18
 70
     1
102
RTVSPropertyOp19
 70
     1
102
RTVSPropertyOp20
 70
     1
102
RTVSPropertyOp21
 70
     1
102
RTVSPropertyOp22
 70
     1
102
RTVSPropertyOp23
 70
     1
102
RTVSPropertyOp24
 70
     1
102
RTVSPropertyOp25
 70
     1
102
RTVSPropertyOp26
 70
     1
102
RTVSPropertyOp27
 70
     1
102
RTVSPropertyOp28
 70
     1
102
RTVSPropertyOp29
 70
     1
102
RTVSPropertyOp30
 70
     1
102
RTVSPropertyOp31
 70
     1
102
RTVSPropertyOp32
 70
     1
102
RTVSPropertyOp33
 70
     1
102
RTVSPropertyOp34
 70
     1
102
RTVSPropertyOp35
 70
     1
102
RTVSPropertyOp36
 70
     1
102
RTVSPropertyOp37
 70
     1
102
RTVSPropertyOp38
 70
     1
102
RTVSPropertyOp39
 70
     1
102
RTVSPropertyOp40
 70
     1
102
RTVSPropertyOp41
 70
     1
102
RTVSPropertyOp42
 70
     1
102
RTVSPropertyOp43
 70
     1
102
RTVSPropertyOp44
 70
     1
102
RTVSPropertyOp45
 70
     1
102
RTVSPropertyOp46
 70
     1
102
RTVSPropertyOp47
 70
     1
102
RTVSPropertyOp48
 70
     1
102
RTVSPropertyOp49
 70
     1
102
RTVSPropertyOp50
 70
     1
102
RTVSPropertyOp51
 70
     0
102
RTVSPropertyOp52
 70
     0
102
RTVSPropertyOp53
 70
     1
102
RTVSPropertyOp54
 70
     1
102
RTVSPropertyOp55
 70
     1
102
RTVSPropertyOp56
 70
     1
102
RTVSPropertyOp57
 70
     1
102
RTVSPropertyOp58
 70
     1
102
RTVSPropertyOp59
 70
     1
102
RTVSPropertyOp60
 70
     1
102
RTVSPropertyOp61
 70
     1
102
RTVSPropertyOp62
 70
     1
  0
XRECORD
  5
7711
102
{ACAD_REACTORS
330
7710
102
}
330
7710
100
AcDbXrecord
280
     1
102
RTVSPost2010Prop28
280
     0
102
RTVSPost2010PropOp28
 70
     1
102
RTVSPost2010Prop29
280
     1
102
RTVSPost2010PropOp29
 70
     1
102
RTVSPost2010Prop30
280
     1
102
RTVSPost2010PropOp30
 70
     1
102
RTVSPost2010Prop31
280
     0
102
RTVSPost2010PropOp31
 70
     1
102
RTVSPost2010Prop32
280
     0
102
RTVSPost2010PropOp32
 70
     1
102
RTVSPost2010Prop33
280
     0
102
RTVSPost2010PropOp33
 70
     1
102
RTVSPost2010Prop34
280
     0
102
RTVSPost2010PropOp34
 70
     1
102
RTVSPost2010Prop35
280
     0
102
RTVSPost2010PropOp35
 70
     1
102
RTVSPost2010Prop36
280
     0
102
RTVSPost2010PropOp36
 70
     1
102
RTVSPost2010Prop37
 90
       50
102
RTVSPost2010PropOp37
 70
     1
102
RTVSPost2010Prop38
140
0.0
102
RTVSPost2010PropOp38
 70
     1
102
RTVSPost2010Prop39
140
1.0
102
RTVSPost2010PropOp39
 70
     1
102
RTVSPost2010Prop40
 90
        0
102
RTVSPost2010PropOp40
 70
     1
102
RTVSPost2010Prop41ColorIndex
 90
       18
102
RTVSPost2010Prop41ColorRGB
 90
        0
102
RTVSPost2010PropOp41
 70
     1
102
RTVSPost2010Prop42
 90
       50
102
RTVSPost2010PropOp42
 70
     1
102
RTVSPost2010Prop43
 90
        3
102
RTVSPost2010PropOp43
 70
     1
102
RTVSPost2010Prop44ColorIndex
 90
        5
102
RTVSPost2010Prop44ColorRGB
 90
      255
102
RTVSPost2010PropOp44
 70
     1
102
RTVSPost2010Prop45
280
     0
102
RTVSPost2010PropOp45
 70
     1
102
RTVSPost2010Prop46
 90
       50
102
RTVSPost2010PropOp46
 70
     1
102
RTVSPost2010Prop47
 90
       50
102
RTVSPost2010PropOp47
 70
     1
102
RTVSPost2010Prop48
 90
       50
102
RTVSPost2010PropOp48
 70
     1
102
RTVSPost2010Prop49
280
     0
102
RTVSPost2010PropOp49
 70
     1
102
RTVSPost2010Prop50
 90
       50
102
RTVSPost2010PropOp50
 70
     1
102
RTVSPost2010Prop51ColorIndex
 90
      256
102
RTVSPost2010Prop51ColorRGB
 90
-16777216
102
RTVSPost2010PropOp51
 70
     0
102
RTVSPost2010Prop52
140
1.0
102
RTVSPost2010PropOp52
 70
     0
102
RTVSPost2010Prop53
 90
        2
102
RTVSPost2010PropOp53
 70
     1
102
RTVSPost2010Prop54
  1
strokes_ogs.tif
102
RTVSPost2010PropOp54
 70
     1
102
RTVSPost2010Prop55
280
     0
102
RTVSPost2010PropOp55
 70
     1
102
RTVSPost2010Prop56
140
1.0
102
RTVSPost2010PropOp56
 70
     1
102
RTVSPost2010Prop57
140
1.0
102
RTVSPost2010PropOp57
 70
     1
102
RTVSPropertyOp0
 70
     1
102
RTVSPropertyOp1
 70
     1
102
RTVSPropertyOp2
 70
     1
102
RTVSPropertyOp3
 70
     1
102
RTVSPropertyOp4
 70
     1
102
RTVSPropertyOp5
 70
     1
102
RTVSPropertyOp6
 70
     1
102
RTVSPropertyOp7
 70
     1
102
RTVSPropertyOp8
 70
     1
102
RTVSPropertyOp9
 70
     1
102
RTVSPropertyOp10
 70
     1
102
RTVSPropertyOp11
 70
     1
102
RTVSPropertyOp12
 70
     1
102
RTVSPropertyOp13
 70
     1
102
RTVSPropertyOp14
 70
     1
102
RTVSPropertyOp15
 70
     1
102
RTVSPropertyOp16
 70
     1
102
RTVSPropertyOp17
 70
     1
102
RTVSPropertyOp18
 70
     1
102
RTVSPropertyOp19
 70
     1
102
RTVSPropertyOp20
 70
     1
102
RTVSPropertyOp21
 70
     1
102
RTVSPropertyOp22
 70
     1
102
RTVSPropertyOp23
 70
     1
102
RTVSPropertyOp24
 70
     1
102
RTVSPropertyOp25
 70
     1
102
RTVSPropertyOp26
 70
     1
102
RTVSPropertyOp27
 70
     1
102
RTVSPropertyOp28
 70
     1
102
RTVSPropertyOp29
 70
     1
102
RTVSPropertyOp30
 70
     1
102
RTVSPropertyOp31
 70
     1
102
RTVSPropertyOp32
 70
     1
102
RTVSPropertyOp33
 70
     1
102
RTVSPropertyOp34
 70
     1
102
RTVSPropertyOp35
 70
     1
102
RTVSPropertyOp36
 70
     1
102
RTVSPropertyOp37
 70
     1
102
RTVSPropertyOp38
 70
     1
102
RTVSPropertyOp39
 70
     1
102
RTVSPropertyOp40
 70
     1
102
RTVSPropertyOp41
 70
     1
102
RTVSPropertyOp42
 70
     1
102
RTVSPropertyOp43
 70
     1
102
RTVSPropertyOp44
 70
     1
102
RTVSPropertyOp45
 70
     1
102
RTVSPropertyOp46
 70
     1
102
RTVSPropertyOp47
 70
     1
102
RTVSPropertyOp48
 70
     1
102
RTVSPropertyOp49
 70
     1
102
RTVSPropertyOp50
 70
     1
102
RTVSPropertyOp51
 70
     0
102
RTVSPropertyOp52
 70
     0
102
RTVSPropertyOp53
 70
     1
102
RTVSPropertyOp54
 70
     1
102
RTVSPropertyOp55
 70
     1
102
RTVSPropertyOp56
 70
     1
102
RTVSPropertyOp57
 70
     1
102
RTVSPropertyOp58
 70
     1
102
RTVSPropertyOp59
 70
     1
102
RTVSPropertyOp60
 70
     1
102
RTVSPropertyOp61
 70
     1
102
RTVSPropertyOp62
 70
     1
  0
XRECORD
  5
7713
102
{ACAD_REACTORS
330
7712
102
}
330
7712
100
AcDbXrecord
280
     1
102
RTVSPost2010Prop28
280
     0
102
RTVSPost2010PropOp28
 70
     1
102
RTVSPost2010Prop29
280
     1
102
RTVSPost2010PropOp29
 70
     1
102
RTVSPost2010Prop30
280
     1
102
RTVSPost2010PropOp30
 70
     1
102
RTVSPost2010Prop31
280
     0
102
RTVSPost2010PropOp31
 70
     1
102
RTVSPost2010Prop32
280
     0
102
RTVSPost2010PropOp32
 70
     1
102
RTVSPost2010Prop33
280
     0
102
RTVSPost2010PropOp33
 70
     1
102
RTVSPost2010Prop34
280
     0
102
RTVSPost2010PropOp34
 70
     1
102
RTVSPost2010Prop35
280
     0
102
RTVSPost2010PropOp35
 70
     1
102
RTVSPost2010Prop36
280
     0
102
RTVSPost2010PropOp36
 70
     1
102
RTVSPost2010Prop37
 90
       50
102
RTVSPost2010PropOp37
 70
     1
102
RTVSPost2010Prop38
140
0.0
102
RTVSPost2010PropOp38
 70
     1
102
RTVSPost2010Prop39
140
1.0
102
RTVSPost2010PropOp39
 70
     1
102
RTVSPost2010Prop40
 90
        0
102
RTVSPost2010PropOp40
 70
     1
102
RTVSPost2010Prop41ColorIndex
 90
       18
102
RTVSPost2010Prop41ColorRGB
 90
        0
102
RTVSPost2010PropOp41
 70
     1
102
RTVSPost2010Prop42
 90
       50
102
RTVSPost2010PropOp42
 70
     1
102
RTVSPost2010Prop43
 90
        3
102
RTVSPost2010PropOp43
 70
     1
102
RTVSPost2010Prop44ColorIndex
 90
        5
102
RTVSPost2010Prop44ColorRGB
 90
      255
102
RTVSPost2010PropOp44
 70
     1
102
RTVSPost2010Prop45
280
     0
102
RTVSPost2010PropOp45
 70
     1
102
RTVSPost2010Prop46
 90
       50
102
RTVSPost2010PropOp46
 70
     1
102
RTVSPost2010Prop47
 90
       50
102
RTVSPost2010PropOp47
 70
     1
102
RTVSPost2010Prop48
 90
       50
102
RTVSPost2010PropOp48
 70
     1
102
RTVSPost2010Prop49
280
     0
102
RTVSPost2010PropOp49
 70
     1
102
RTVSPost2010Prop50
 90
       50
102
RTVSPost2010PropOp50
 70
     1
102
RTVSPost2010Prop51ColorIndex
 90
      256
102
RTVSPost2010Prop51ColorRGB
 90
-16777216
102
RTVSPost2010PropOp51
 70
     0
102
RTVSPost2010Prop52
140
1.0
102
RTVSPost2010PropOp52
 70
     0
102
RTVSPost2010Prop53
 90
        2
102
RTVSPost2010PropOp53
 70
     1
102
RTVSPost2010Prop54
  1
strokes_ogs.tif
102
RTVSPost2010PropOp54
 70
     1
102
RTVSPost2010Prop55
280
     0
102
RTVSPost2010PropOp55
 70
     1
102
RTVSPost2010Prop56
140
1.0
102
RTVSPost2010PropOp56
 70
     1
102
RTVSPost2010Prop57
140
1.0
102
RTVSPost2010PropOp57
 70
     1
102
RTVSPropertyOp0
 70
     1
102
RTVSPropertyOp1
 70
     1
102
RTVSPropertyOp2
 70
     1
102
RTVSPropertyOp3
 70
     1
102
RTVSPropertyOp4
 70
     1
102
RTVSPropertyOp5
 70
     1
102
RTVSPropertyOp6
 70
     1
102
RTVSPropertyOp7
 70
     1
102
RTVSPropertyOp8
 70
     1
102
RTVSPropertyOp9
 70
     1
102
RTVSPropertyOp10
 70
     1
102
RTVSPropertyOp11
 70
     1
102
RTVSPropertyOp12
 70
     1
102
RTVSPropertyOp13
 70
     1
102
RTVSPropertyOp14
 70
     1
102
RTVSPropertyOp15
 70
     1
102
RTVSPropertyOp16
 70
     1
102
RTVSPropertyOp17
 70
     1
102
RTVSPropertyOp18
 70
     1
102
RTVSPropertyOp19
 70
     1
102
RTVSPropertyOp20
 70
     1
102
RTVSPropertyOp21
 70
     1
102
RTVSPropertyOp22
 70
     1
102
RTVSPropertyOp23
 70
     1
102
RTVSPropertyOp24
 70
     1
102
RTVSPropertyOp25
 70
     1
102
RTVSPropertyOp26
 70
     1
102
RTVSPropertyOp27
 70
     1
102
RTVSPropertyOp28
 70
     1
102
RTVSPropertyOp29
 70
     1
102
RTVSPropertyOp30
 70
     1
102
RTVSPropertyOp31
 70
     1
102
RTVSPropertyOp32
 70
     1
102
RTVSPropertyOp33
 70
     1
102
RTVSPropertyOp34
 70
     1
102
RTVSPropertyOp35
 70
     1
102
RTVSPropertyOp36
 70
     1
102
RTVSPropertyOp37
 70
     1
102
RTVSPropertyOp38
 70
     1
102
RTVSPropertyOp39
 70
     1
102
RTVSPropertyOp40
 70
     1
102
RTVSPropertyOp41
 70
     1
102
RTVSPropertyOp42
 70
     1
102
RTVSPropertyOp43
 70
     1
102
RTVSPropertyOp44
 70
     1
102
RTVSPropertyOp45
 70
     1
102
RTVSPropertyOp46
 70
     1
102
RTVSPropertyOp47
 70
     1
102
RTVSPropertyOp48
 70
     1
102
RTVSPropertyOp49
 70
     1
102
RTVSPropertyOp50
 70
     1
102
RTVSPropertyOp51
 70
     0
102
RTVSPropertyOp52
 70
     0
102
RTVSPropertyOp53
 70
     1
102
RTVSPropertyOp54
 70
     1
102
RTVSPropertyOp55
 70
     1
102
RTVSPropertyOp56
 70
     1
102
RTVSPropertyOp57
 70
     1
102
RTVSPropertyOp58
 70
     1
102
RTVSPropertyOp59
 70
     1
102
RTVSPropertyOp60
 70
     1
102
RTVSPropertyOp61
 70
     1
102
RTVSPropertyOp62
 70
     1
  0
XRECORD
  5
7701
102
{ACAD_REACTORS
330
7700
102
}
330
7700
100
AcDbXrecord
280
     1
102
RTVSPost2010Prop28
280
     0
102
RTVSPost2010PropOp28
 70
     1
102
RTVSPost2010Prop29
280
     1
102
RTVSPost2010PropOp29
 70
     1
102
RTVSPost2010Prop30
280
     1
102
RTVSPost2010PropOp30
 70
     1
102
RTVSPost2010Prop31
280
     0
102
RTVSPost2010PropOp31
 70
     1
102
RTVSPost2010Prop32
280
     0
102
RTVSPost2010PropOp32
 70
     1
102
RTVSPost2010Prop33
280
     0
102
RTVSPost2010PropOp33
 70
     1
102
RTVSPost2010Prop34
280
     0
102
RTVSPost2010PropOp34
 70
     1
102
RTVSPost2010Prop35
280
     0
102
RTVSPost2010PropOp35
 70
     1
102
RTVSPost2010Prop36
280
     0
102
RTVSPost2010PropOp36
 70
     1
102
RTVSPost2010Prop37
 90
       50
102
RTVSPost2010PropOp37
 70
     1
102
RTVSPost2010Prop38
140
0.0
102
RTVSPost2010PropOp38
 70
     1
102
RTVSPost2010Prop39
140
1.0
102
RTVSPost2010PropOp39
 70
     1
102
RTVSPost2010Prop40
 90
        0
102
RTVSPost2010PropOp40
 70
     1
102
RTVSPost2010Prop41ColorIndex
 90
       18
102
RTVSPost2010Prop41ColorRGB
 90
        0
102
RTVSPost2010PropOp41
 70
     1
102
RTVSPost2010Prop42
 90
       50
102
RTVSPost2010PropOp42
 70
     1
102
RTVSPost2010Prop43
 90
        3
102
RTVSPost2010PropOp43
 70
     1
102
RTVSPost2010Prop44ColorIndex
 90
        5
102
RTVSPost2010Prop44ColorRGB
 90
      255
102
RTVSPost2010PropOp44
 70
     1
102
RTVSPost2010Prop45
280
     0
102
RTVSPost2010PropOp45
 70
     1
102
RTVSPost2010Prop46
 90
       50
102
RTVSPost2010PropOp46
 70
     1
102
RTVSPost2010Prop47
 90
       50
102
RTVSPost2010PropOp47
 70
     1
102
RTVSPost2010Prop48
 90
       50
102
RTVSPost2010PropOp48
 70
     1
102
RTVSPost2010Prop49
280
     0
102
RTVSPost2010PropOp49
 70
     1
102
RTVSPost2010Prop50
 90
       50
102
RTVSPost2010PropOp50
 70
     1
102
RTVSPost2010Prop51ColorIndex
 90
      256
102
RTVSPost2010Prop51ColorRGB
 90
-16777216
102
RTVSPost2010PropOp51
 70
     0
102
RTVSPost2010Prop52
140
1.0
102
RTVSPost2010PropOp52
 70
     0
102
RTVSPost2010Prop53
 90
        2
102
RTVSPost2010PropOp53
 70
     1
102
RTVSPost2010Prop54
  1
strokes_ogs.tif
102
RTVSPost2010PropOp54
 70
     1
102
RTVSPost2010Prop55
280
     0
102
RTVSPost2010PropOp55
 70
     1
102
RTVSPost2010Prop56
140
1.0
102
RTVSPost2010PropOp56
 70
     1
102
RTVSPost2010Prop57
140
1.0
102
RTVSPost2010PropOp57
 70
     1
102
RTVSPropertyOp0
 70
     1
102
RTVSPropertyOp1
 70
     1
102
RTVSPropertyOp2
 70
     1
102
RTVSPropertyOp3
 70
     1
102
RTVSPropertyOp4
 70
     1
102
RTVSPropertyOp5
 70
     1
102
RTVSPropertyOp6
 70
     1
102
RTVSPropertyOp7
 70
     1
102
RTVSPropertyOp8
 70
     1
102
RTVSPropertyOp9
 70
     1
102
RTVSPropertyOp10
 70
     1
102
RTVSPropertyOp11
 70
     1
102
RTVSPropertyOp12
 70
     1
102
RTVSPropertyOp13
 70
     1
102
RTVSPropertyOp14
 70
     1
102
RTVSPropertyOp15
 70
     1
102
RTVSPropertyOp16
 70
     1
102
RTVSPropertyOp17
 70
     1
102
RTVSPropertyOp18
 70
     1
102
RTVSPropertyOp19
 70
     1
102
RTVSPropertyOp20
 70
     1
102
RTVSPropertyOp21
 70
     1
102
RTVSPropertyOp22
 70
     1
102
RTVSPropertyOp23
 70
     1
102
RTVSPropertyOp24
 70
     1
102
RTVSPropertyOp25
 70
     1
102
RTVSPropertyOp26
 70
     1
102
RTVSPropertyOp27
 70
     1
102
RTVSPropertyOp28
 70
     1
102
RTVSPropertyOp29
 70
     1
102
RTVSPropertyOp30
 70
     1
102
RTVSPropertyOp31
 70
     1
102
RTVSPropertyOp32
 70
     1
102
RTVSPropertyOp33
 70
     1
102
RTVSPropertyOp34
 70
     1
102
RTVSPropertyOp35
 70
     1
102
RTVSPropertyOp36
 70
     1
102
RTVSPropertyOp37
 70
     1
102
RTVSPropertyOp38
 70
     1
102
RTVSPropertyOp39
 70
     1
102
RTVSPropertyOp40
 70
     1
102
RTVSPropertyOp41
 70
     1
102
RTVSPropertyOp42
 70
     1
102
RTVSPropertyOp43
 70
     1
102
RTVSPropertyOp44
 70
     1
102
RTVSPropertyOp45
 70
     1
102
RTVSPropertyOp46
 70
     1
102
RTVSPropertyOp47
 70
     1
102
RTVSPropertyOp48
 70
     1
102
RTVSPropertyOp49
 70
     1
102
RTVSPropertyOp50
 70
     1
102
RTVSPropertyOp51
 70
     0
102
RTVSPropertyOp52
 70
     0
102
RTVSPropertyOp53
 70
     1
102
RTVSPropertyOp54
 70
     1
102
RTVSPropertyOp55
 70
     1
102
RTVSPropertyOp56
 70
     1
102
RTVSPropertyOp57
 70
     1
102
RTVSPropertyOp58
 70
     1
102
RTVSPropertyOp59
 70
     1
102
RTVSPropertyOp60
 70
     1
102
RTVSPropertyOp61
 70
     1
102
RTVSPropertyOp62
 70
     1
  0
XRECORD
  5
76F5
102
{ACAD_REACTORS
330
76F4
102
}
330
76F4
100
AcDbXrecord
280
     1
102
RTVSPost2010Prop28
280
     0
102
RTVSPost2010PropOp28
 70
     1
102
RTVSPost2010Prop29
280
     1
102
RTVSPost2010PropOp29
 70
     1
102
RTVSPost2010Prop30
280
     1
102
RTVSPost2010PropOp30
 70
     1
102
RTVSPost2010Prop31
280
     0
102
RTVSPost2010PropOp31
 70
     1
102
RTVSPost2010Prop32
280
     0
102
RTVSPost2010PropOp32
 70
     1
102
RTVSPost2010Prop33
280
     0
102
RTVSPost2010PropOp33
 70
     1
102
RTVSPost2010Prop34
280
     0
102
RTVSPost2010PropOp34
 70
     1
102
RTVSPost2010Prop35
280
     0
102
RTVSPost2010PropOp35
 70
     1
102
RTVSPost2010Prop36
280
     0
102
RTVSPost2010PropOp36
 70
     1
102
RTVSPost2010Prop37
 90
       50
102
RTVSPost2010PropOp37
 70
     1
102
RTVSPost2010Prop38
140
0.0
102
RTVSPost2010PropOp38
 70
     1
102
RTVSPost2010Prop39
140
1.0
102
RTVSPost2010PropOp39
 70
     1
102
RTVSPost2010Prop40
 90
        0
102
RTVSPost2010PropOp40
 70
     1
102
RTVSPost2010Prop41ColorIndex
 90
       18
102
RTVSPost2010Prop41ColorRGB
 90
        0
102
RTVSPost2010PropOp41
 70
     1
102
RTVSPost2010Prop42
 90
       50
102
RTVSPost2010PropOp42
 70
     1
102
RTVSPost2010Prop43
 90
        3
102
RTVSPost2010PropOp43
 70
     1
102
RTVSPost2010Prop44ColorIndex
 90
        5
102
RTVSPost2010Prop44ColorRGB
 90
      255
102
RTVSPost2010PropOp44
 70
     1
102
RTVSPost2010Prop45
280
     0
102
RTVSPost2010PropOp45
 70
     1
102
RTVSPost2010Prop46
 90
       50
102
RTVSPost2010PropOp46
 70
     1
102
RTVSPost2010Prop47
 90
       50
102
RTVSPost2010PropOp47
 70
     1
102
RTVSPost2010Prop48
 90
       50
102
RTVSPost2010PropOp48
 70
     1
102
RTVSPost2010Prop49
280
     0
102
RTVSPost2010PropOp49
 70
     1
102
RTVSPost2010Prop50
 90
       50
102
RTVSPost2010PropOp50
 70
     1
102
RTVSPost2010Prop51ColorIndex
 90
      256
102
RTVSPost2010Prop51ColorRGB
 90
-16777216
102
RTVSPost2010PropOp51
 70
     0
102
RTVSPost2010Prop52
140
1.0
102
RTVSPost2010PropOp52
 70
     0
102
RTVSPost2010Prop53
 90
        2
102
RTVSPost2010PropOp53
 70
     1
102
RTVSPost2010Prop54
  1
strokes_ogs.tif
102
RTVSPost2010PropOp54
 70
     1
102
RTVSPost2010Prop55
280
     0
102
RTVSPost2010PropOp55
 70
     1
102
RTVSPost2010Prop56
140
1.0
102
RTVSPost2010PropOp56
 70
     1
102
RTVSPost2010Prop57
140
1.0
102
RTVSPost2010PropOp57
 70
     1
102
RTVSPropertyOp0
 70
     1
102
RTVSPropertyOp1
 70
     1
102
RTVSPropertyOp2
 70
     1
102
RTVSPropertyOp3
 70
     1
102
RTVSPropertyOp4
 70
     1
102
RTVSPropertyOp5
 70
     1
102
RTVSPropertyOp6
 70
     1
102
RTVSPropertyOp7
 70
     1
102
RTVSPropertyOp8
 70
     1
102
RTVSPropertyOp9
 70
     1
102
RTVSPropertyOp10
 70
     1
102
RTVSPropertyOp11
 70
     1
102
RTVSPropertyOp12
 70
     1
102
RTVSPropertyOp13
 70
     1
102
RTVSPropertyOp14
 70
     1
102
RTVSPropertyOp15
 70
     1
102
RTVSPropertyOp16
 70
     1
102
RTVSPropertyOp17
 70
     1
102
RTVSPropertyOp18
 70
     1
102
RTVSPropertyOp19
 70
     1
102
RTVSPropertyOp20
 70
     1
102
RTVSPropertyOp21
 70
     1
102
RTVSPropertyOp22
 70
     1
102
RTVSPropertyOp23
 70
     1
102
RTVSPropertyOp24
 70
     1
102
RTVSPropertyOp25
 70
     1
102
RTVSPropertyOp26
 70
     1
102
RTVSPropertyOp27
 70
     1
102
RTVSPropertyOp28
 70
     1
102
RTVSPropertyOp29
 70
     1
102
RTVSPropertyOp30
 70
     1
102
RTVSPropertyOp31
 70
     1
102
RTVSPropertyOp32
 70
     1
102
RTVSPropertyOp33
 70
     1
102
RTVSPropertyOp34
 70
     1
102
RTVSPropertyOp35
 70
     1
102
RTVSPropertyOp36
 70
     1
102
RTVSPropertyOp37
 70
     1
102
RTVSPropertyOp38
 70
     1
102
RTVSPropertyOp39
 70
     1
102
RTVSPropertyOp40
 70
     1
102
RTVSPropertyOp41
 70
     1
102
RTVSPropertyOp42
 70
     1
102
RTVSPropertyOp43
 70
     1
102
RTVSPropertyOp44
 70
     1
102
RTVSPropertyOp45
 70
     1
102
RTVSPropertyOp46
 70
     1
102
RTVSPropertyOp47
 70
     1
102
RTVSPropertyOp48
 70
     1
102
RTVSPropertyOp49
 70
     1
102
RTVSPropertyOp50
 70
     1
102
RTVSPropertyOp51
 70
     0
102
RTVSPropertyOp52
 70
     0
102
RTVSPropertyOp53
 70
     1
102
RTVSPropertyOp54
 70
     1
102
RTVSPropertyOp55
 70
     1
102
RTVSPropertyOp56
 70
     1
102
RTVSPropertyOp57
 70
     1
102
RTVSPropertyOp58
 70
     1
102
RTVSPropertyOp59
 70
     1
102
RTVSPropertyOp60
 70
     1
102
RTVSPropertyOp61
 70
     1
102
RTVSPropertyOp62
 70
     1
  0
XRECORD
  5
7715
102
{ACAD_REACTORS
330
7714
102
}
330
7714
100
AcDbXrecord
280
     1
102
RTVSPost2010Prop28
280
     0
102
RTVSPost2010PropOp28
 70
     1
102
RTVSPost2010Prop29
280
     1
102
RTVSPost2010PropOp29
 70
     1
102
RTVSPost2010Prop30
280
     1
102
RTVSPost2010PropOp30
 70
     1
102
RTVSPost2010Prop31
280
     0
102
RTVSPost2010PropOp31
 70
     1
102
RTVSPost2010Prop32
280
     0
102
RTVSPost2010PropOp32
 70
     1
102
RTVSPost2010Prop33
280
     0
102
RTVSPost2010PropOp33
 70
     1
102
RTVSPost2010Prop34
280
     0
102
RTVSPost2010PropOp34
 70
     1
102
RTVSPost2010Prop35
280
     0
102
RTVSPost2010PropOp35
 70
     1
102
RTVSPost2010Prop36
280
     0
102
RTVSPost2010PropOp36
 70
     1
102
RTVSPost2010Prop37
 90
       50
102
RTVSPost2010PropOp37
 70
     1
102
RTVSPost2010Prop38
140
0.0
102
RTVSPost2010PropOp38
 70
     1
102
RTVSPost2010Prop39
140
1.0
102
RTVSPost2010PropOp39
 70
     1
102
RTVSPost2010Prop40
 90
        0
102
RTVSPost2010PropOp40
 70
     1
102
RTVSPost2010Prop41ColorIndex
 90
       18
102
RTVSPost2010Prop41ColorRGB
 90
        0
102
RTVSPost2010PropOp41
 70
     1
102
RTVSPost2010Prop42
 90
       50
102
RTVSPost2010PropOp42
 70
     1
102
RTVSPost2010Prop43
 90
        3
102
RTVSPost2010PropOp43
 70
     1
102
RTVSPost2010Prop44ColorIndex
 90
        5
102
RTVSPost2010Prop44ColorRGB
 90
      255
102
RTVSPost2010PropOp44
 70
     1
102
RTVSPost2010Prop45
280
     0
102
RTVSPost2010PropOp45
 70
     1
102
RTVSPost2010Prop46
 90
       50
102
RTVSPost2010PropOp46
 70
     1
102
RTVSPost2010Prop47
 90
       50
102
RTVSPost2010PropOp47
 70
     1
102
RTVSPost2010Prop48
 90
       50
102
RTVSPost2010PropOp48
 70
     1
102
RTVSPost2010Prop49
280
     0
102
RTVSPost2010PropOp49
 70
     1
102
RTVSPost2010Prop50
 90
       50
102
RTVSPost2010PropOp50
 70
     1
102
RTVSPost2010Prop51ColorIndex
 90
      256
102
RTVSPost2010Prop51ColorRGB
 90
-16777216
102
RTVSPost2010PropOp51
 70
     0
102
RTVSPost2010Prop52
140
1.0
102
RTVSPost2010PropOp52
 70
     0
102
RTVSPost2010Prop53
 90
        2
102
RTVSPost2010PropOp53
 70
     1
102
RTVSPost2010Prop54
  1
strokes_ogs.tif
102
RTVSPost2010PropOp54
 70
     1
102
RTVSPost2010Prop55
280
     0
102
RTVSPost2010PropOp55
 70
     1
102
RTVSPost2010Prop56
140
1.0
102
RTVSPost2010PropOp56
 70
     1
102
RTVSPost2010Prop57
140
1.0
102
RTVSPost2010PropOp57
 70
     1
102
RTVSPropertyOp0
 70
     1
102
RTVSPropertyOp1
 70
     1
102
RTVSPropertyOp2
 70
     1
102
RTVSPropertyOp3
 70
     1
102
RTVSPropertyOp4
 70
     1
102
RTVSPropertyOp5
 70
     1
102
RTVSPropertyOp6
 70
     1
102
RTVSPropertyOp7
 70
     1
102
RTVSPropertyOp8
 70
     1
102
RTVSPropertyOp9
 70
     1
102
RTVSPropertyOp10
 70
     1
102
RTVSPropertyOp11
 70
     1
102
RTVSPropertyOp12
 70
     1
102
RTVSPropertyOp13
 70
     1
102
RTVSPropertyOp14
 70
     1
102
RTVSPropertyOp15
 70
     1
102
RTVSPropertyOp16
 70
     1
102
RTVSPropertyOp17
 70
     1
102
RTVSPropertyOp18
 70
     1
102
RTVSPropertyOp19
 70
     1
102
RTVSPropertyOp20
 70
     1
102
RTVSPropertyOp21
 70
     1
102
RTVSPropertyOp22
 70
     1
102
RTVSPropertyOp23
 70
     1
102
RTVSPropertyOp24
 70
     1
102
RTVSPropertyOp25
 70
     1
102
RTVSPropertyOp26
 70
     1
102
RTVSPropertyOp27
 70
     1
102
RTVSPropertyOp28
 70
     1
102
RTVSPropertyOp29
 70
     1
102
RTVSPropertyOp30
 70
     1
102
RTVSPropertyOp31
 70
     1
102
RTVSPropertyOp32
 70
     1
102
RTVSPropertyOp33
 70
     1
102
RTVSPropertyOp34
 70
     1
102
RTVSPropertyOp35
 70
     1
102
RTVSPropertyOp36
 70
     1
102
RTVSPropertyOp37
 70
     1
102
RTVSPropertyOp38
 70
     1
102
RTVSPropertyOp39
 70
     1
102
RTVSPropertyOp40
 70
     1
102
RTVSPropertyOp41
 70
     1
102
RTVSPropertyOp42
 70
     1
102
RTVSPropertyOp43
 70
     1
102
RTVSPropertyOp44
 70
     1
102
RTVSPropertyOp45
 70
     1
102
RTVSPropertyOp46
 70
     1
102
RTVSPropertyOp47
 70
     1
102
RTVSPropertyOp48
 70
     1
102
RTVSPropertyOp49
 70
     1
102
RTVSPropertyOp50
 70
     1
102
RTVSPropertyOp51
 70
     0
102
RTVSPropertyOp52
 70
     0
102
RTVSPropertyOp53
 70
     1
102
RTVSPropertyOp54
 70
     1
102
RTVSPropertyOp55
 70
     1
102
RTVSPropertyOp56
 70
     1
102
RTVSPropertyOp57
 70
     1
102
RTVSPropertyOp58
 70
     1
102
RTVSPropertyOp59
 70
     1
102
RTVSPropertyOp60
 70
     1
102
RTVSPropertyOp61
 70
     1
102
RTVSPropertyOp62
 70
     1
  0
ENDSEC
  0
EOF
