  0
SECTION
  2
HEADER
  9
$ACADVER
  1
AC1015
  9
$ACADMAINTVER
 70
    18
  9
$DWGCODEPAGE
  3
ANSI_1252
  9
$INSBASE
 10
0.0
 20
0.0
 30
0.0
  9
$EXTMIN
 10
-190.6072990486948
 20
-215.8389125236297
 30
-0.0015258207003583
  9
$EXTMAX
 10
231.5332038834845
 20
249.1073004404401
 30
0.0000000349246037
  9
$LIMMIN
 10
0.0
 20
0.0
  9
$LIMMAX
 10
420.0
 20
297.0
  9
$ORTHOMODE
 70
     0
  9
$REGENMODE
 70
     1
  9
$FILLMODE
 70
     1
  9
$QTEXTMODE
 70
     0
  9
$MIRRTEXT
 70
     0
  9
$LTSCALE
 40
1.0
  9
$ATTMODE
 70
     1
  9
$TEXTSIZE
 40
2.5
  9
$TRACEWID
 40
1.0
  9
$TEXTSTYLE
  7
Standard
  9
$CLAYER
  8
0
  9
$CELTYPE
  6
ByLayer
  9
$CECOLOR
 62
   256
  9
$CELTSCALE
 40
1.0
  9
$DISPSILH
 70
     0
  9
$DIMSCALE
 40
1.0
  9
$DIMASZ
 40
2.5
  9
$DIMEXO
 40
0.625
  9
$DIMDLI
 40
3.75
  9
$DIMRND
 40
0.0
  9
$DIMDLE
 40
0.0
  9
$DIMEXE
 40
1.25
  9
$DIMTP
 40
0.0
  9
$DIMTM
 40
0.0
  9
$DIMTXT
 40
2.5
  9
$DIMCEN
 40
2.5
  9
$DIMTSZ
 40
0.0
  9
$DIMTOL
 70
     0
  9
$DIMLIM
 70
     0
  9
$DIMTIH
 70
     0
  9
$DIMTOH
 70
     0
  9
$DIMSE1
 70
     0
  9
$DIMSE2
 70
     0
  9
$DIMTAD
 70
     1
  9
$DIMZIN
 70
     8
  9
$DIMBLK
  1

  9
$DIMASO
 70
     1
  9
$DIMSHO
 70
     1
  9
$DIMPOST
  1

  9
$DIMAPOST
  1

  9
$DIMALT
 70
     0
  9
$DIMALTD
 70
     3
  9
$DIMALTF
 40
0.03937007874016
  9
$DIMLFAC
 40
1.0
  9
$DIMTOFL
 70
     1
  9
$DIMTVP
 40
0.0
  9
$DIMTIX
 70
     0
  9
$DIMSOXD
 70
     0
  9
$DIMSAH
 70
     0
  9
$DIMBLK1
  1

  9
$DIMBLK2
  1

  9
$DIMSTYLE
  2
ISO-25
  9
$DIMCLRD
 70
     0
  9
$DIMCLRE
 70
     0
  9
$DIMCLRT
 70
     0
  9
$DIMTFAC
 40
1.0
  9
$DIMGAP
 40
0.625
  9
$DIMJUST
 70
     0
  9
$DIMSD1
 70
     0
  9
$DIMSD2
 70
     0
  9
$DIMTOLJ
 70
     0
  9
$DIMTZIN
 70
     8
  9
$DIMALTZ
 70
     0
  9
$DIMALTTZ
 70
     0
  9
$DIMUPT
 70
     0
  9
$DIMDEC
 70
     2
  9
$DIMTDEC
 70
     2
  9
$DIMALTU
 70
     2
  9
$DIMALTTD
 70
     3
  9
$DIMTXSTY
  7
Standard
  9
$DIMAUNIT
 70
     0
  9
$DIMADEC
 70
     0
  9
$DIMALTRND
 40
0.0
  9
$DIMAZIN
 70
     0
  9
$DIMDSEP
 70
    44
  9
$DIMATFIT
 70
     3
  9
$DIMFRAC
 70
     0
  9
$DIMLDRBLK
  1

  9
$DIMLUNIT
 70
     2
  9
$DIMLWD
 70
    -2
  9
$DIMLWE
 70
    -2
  9
$DIMTMOVE
 70
     0
  9
$LUNITS
 70
     2
  9
$LUPREC
 70
     4
  9
$SKETCHINC
 40
1.0
  9
$FILLETRAD
 40
0.0
  9
$AUNITS
 70
     0
  9
$AUPREC
 70
     0
  9
$MENU
  1
.
  9
$ELEVATION
 40
0.0
  9
$PELEVATION
 40
0.0
  9
$THICKNESS
 40
0.0
  9
$LIMCHECK
 70
     0
  9
$CHAMFERA
 40
0.0
  9
$CHAMFERB
 40
0.0
  9
$CHAMFERC
 40
0.0
  9
$CHAMFERD
 40
0.0
  9
$SKPOLY
 70
     0
  9
$TDCREATE
 40
2460398.356956019
  9
$TDUCREATE
 40
2460398.065289352
  9
$TDUPDATE
 40
2460398.373888889
  9
$TDUUPDATE
 40
2460398.082222222
  9
$TDINDWG
 40
0.0076157407
  9
$TDUSRTIMER
 40
0.0076157407
  9
$USRTIMER
 70
     1
  9
$ANGBASE
 50
0.0
  9
$ANGDIR
 70
     0
  9
$PDMODE
 70
     0
  9
$PDSIZE
 40
0.0
  9
$PLINEWID
 40
0.0
  9
$SPLFRAME
 70
     0
  9
$SPLINETYPE
 70
     6
  9
$SPLINESEGS
 70
     8
  9
$HANDSEED
  5
7944
  9
$SURFTAB1
 70
     6
  9
$SURFTAB2
 70
     6
  9
$SURFTYPE
 70
     6
  9
$SURFU
 70
     6
  9
$SURFV
 70
     6
  9
$UCSBASE
  2

  9
$UCSNAME
  2

  9
$UCSORG
 10
0.0
 20
0.0
 30
0.0
  9
$UCSXDIR
 10
1.0
 20
0.0
 30
0.0
  9
$UCSYDIR
 10
0.0
 20
1.0
 30
0.0
  9
$UCSORTHOREF
  2

  9
$UCSORTHOVIEW
 70
     0
  9
$UCSORGTOP
 10
0.0
 20
0.0
 30
0.0
  9
$UCSORGBOTTOM
 10
0.0
 20
0.0
 30
0.0
  9
$UCSORGLEFT
 10
0.0
 20
0.0
 30
0.0
  9
$UCSORGRIGHT
 10
0.0
 20
0.0
 30
0.0
  9
$UCSORGFRONT
 10
0.0
 20
0.0
 30
0.0
  9
$UCSORGBACK
 10
0.0
 20
0.0
 30
0.0
  9
$PUCSBASE
  2

  9
$PUCSNAME
  2

  9
$PUCSORG
 10
0.0
 20
0.0
 30
0.0
  9
$PUCSXDIR
 10
1.0
 20
0.0
 30
0.0
  9
$PUCSYDIR
 10
0.0
 20
1.0
 30
0.0
  9
$PUCSORTHOREF
  2

  9
$PUCSORTHOVIEW
 70
     0
  9
$PUCSORGTOP
 10
0.0
 20
0.0
 30
0.0
  9
$PUCSORGBOTTOM
 10
0.0
 20
0.0
 30
0.0
  9
$PUCSORGLEFT
 10
0.0
 20
0.0
 30
0.0
  9
$PUCSORGRIGHT
 10
0.0
 20
0.0
 30
0.0
  9
$PUCSORGFRONT
 10
0.0
 20
0.0
 30
0.0
  9
$PUCSORGBACK
 10
0.0
 20
0.0
 30
0.0
  9
$USERI1
 70
     0
  9
$USERI2
 70
     0
  9
$USERI3
 70
     0
  9
$USERI4
 70
     0
  9
$USERI5
 70
     0
  9
$USERR1
 40
0.0
  9
$USERR2
 40
0.0
  9
$USERR3
 40
0.0
  9
$USERR4
 40
0.0
  9
$USERR5
 40
0.0
  9
$WORLDVIEW
 70
     1
  9
$SHADEDGE
 70
     3
  9
$SHADEDIF
 70
    70
  9
$TILEMODE
 70
     1
  9
$MAXACTVP
 70
    48
  9
$PINSBASE
 10
0.0
 20
0.0
 30
0.0
  9
$PLIMCHECK
 70
     0
  9
$PEXTMIN
 10
0.0
 20
0.0
 30
0.0
  9
$PEXTMAX
 10
0.0
 20
0.0
 30
0.0
  9
$PLIMMIN
 10
0.0
 20
0.0
  9
$PLIMMAX
 10
12.0
 20
9.0
  9
$UNITMODE
 70
     0
  9
$VISRETAIN
 70
     1
  9
$PLINEGEN
 70
     0
  9
$PSLTSCALE
 70
     1
  9
$TREEDEPTH
 70
  3020
  9
$CMLSTYLE
  2
Standard
  9
$CMLJUST
 70
     0
  9
$CMLSCALE
 40
20.0
  9
$PROXYGRAPHICS
 70
     1
  9
$MEASUREMENT
 70
     1
  9
$CELWEIGHT
370
    -1
  9
$ENDCAPS
280
     0
  9
$JOINSTYLE
280
     0
  9
$LWDISPLAY
290
     0
  9
$INSUNITS
 70
     4
  9
$HYPERLINKBASE
  1

  9
$STYLESHEET
  1

  9
$XEDIT
290
     1
  9
$CEPSNTYPE
380
     0
  9
$PSTYLEMODE
290
     1
  9
$FINGERPRINTGUID
  2
{6C1266EE-7BC1-BF4A-B059-A6E7702B10CE}
  9
$VERSIONGUID
  2
{CECB6384-1B4B-C741-8E9F-8612C914349A}
  9
$EXTNAMES
290
     1
  9
$PSVPSCALE
 40
0.0
  9
$OLESTARTUP
290
     0
  0
ENDSEC
  0
SECTION
  2
CLASSES
  0
CLASS
  1
ACDBDICTIONARYWDFLT
  2
AcDbDictionaryWithDefault
  3
ObjectDBX Classes
 90
        0
280
     0
281
     0
  0
CLASS
  1
ACDBPLACEHOLDER
  2
AcDbPlaceHolder
  3
ObjectDBX Classes
 90
        0
280
     0
281
     0
  0
CLASS
  1
LAYOUT
  2
AcDbLayout
  3
ObjectDBX Classes
 90
        0
280
     0
281
     0
  0
CLASS
  1
DICTIONARYVAR
  2
AcDbDictionaryVar
  3
ObjectDBX Classes
 90
        0
280
     0
281
     0
  0
CLASS
  1
TABLESTYLE
  2
AcDbTableStyle
  3
ObjectDBX Classes
 90
     4095
280
     0
281
     0
  0
CLASS
  1
MATERIAL
  2
AcDbMaterial
  3
ObjectDBX Classes
 90
     1153
280
     0
281
     0
  0
CLASS
  1
VISUALSTYLE
  2
AcDbVisualStyle
  3
ObjectDBX Classes
 90
     4095
280
     0
281
     0
  0
CLASS
  1
SCALE
  2
AcDbScale
  3
ObjectDBX Classes
 90
     1153
280
     0
281
     0
  0
CLASS
  1
MLEADERSTYLE
  2
AcDbMLeaderStyle
  3
ACDB_MLEADERSTYLE_CLASS
 90
     4095
280
     0
281
     0
  0
CLASS
  1
CELLSTYLEMAP
  2
AcDbCellStyleMap
  3
ObjectDBX Classes
 90
     1152
280
     0
281
     0
  0
CLASS
  1
EXACXREFPANELOBJECT
  2
ExAcXREFPanelObject
  3
EXAC_ESW
 90
    33793
280
     0
281
     0
  0
CLASS
  1
NPOCOLLECTION
  2
AcDbImpNonPersistentObjectsCollection
  3
ObjectDBX Classes
 90
    33921
280
     0
281
     0
  0
CLASS
  1
LAYER_INDEX
  2
AcDbLayerIndex
  3
ObjectDBX Classes
 90
    32768
280
     0
281
     0
  0
CLASS
  1
SPATIAL_INDEX
  2
AcDbSpatialIndex
  3
ObjectDBX Classes
 90
    32768
280
     0
281
     0
  0
CLASS
  1
IDBUFFER
  2
AcDbIdBuffer
  3
ObjectDBX Classes
 90
    32768
280
     0
281
     0
  0
CLASS
  1
ACDBSECTIONVIEWSTYLE
  2
AcDbSectionViewStyle
  3
ObjectDBX Classes
 90
     1025
280
     0
281
     0
  0
CLASS
  1
ACDBDETAILVIEWSTYLE
  2
AcDbDetailViewStyle
  3
ObjectDBX Classes
 90
     1025
280
     0
281
     0
  0
CLASS
  1
XRECORD
  2
AcDbXrecord
  3
ObjectDBX Classes
 90
        0
280
     0
281
     0
  0
ENDSEC
  0
SECTION
  2
TABLES
  0
TABLE
  2
VPORT
  5
8
102
{ACAD_XDICTIONARY
360
7852
102
}
330
0
100
AcDbSymbolTable
 70
     1
  0
VPORT
  5
EA
330
8
100
AcDbSymbolTableRecord
100
AcDbViewportTableRecord
  2
*Active
 70
     0
 10
0.0
 20
0.0
 11
1.0
 21
1.0
 12
20.46295241739482
 22
16.63419395840518
 13
0.0
 23
0.0
 14
10.0
 24
10.0
 15
10.0
 25
10.0
 16
0.0
 26
0.0
 36
1.0
 17
0.0
 27
0.0
 37
0.0
 40
494.4281625197223
 41
0.9846153846153846
 42
50.0
 43
0.0
 44
0.0
 50
0.0
 51
0.0
 71
     0
 72
  1000
 73
     1
 74
     3
 75
     0
 76
     1
 77
     0
 78
     0
281
     0
 65
     1
110
0.0
120
0.0
130
0.0
111
1.0
121
0.0
131
0.0
112
0.0
122
1.0
132
0.0
 79
     0
146
0.0
1001
ACAD_NAV_VCDISPLAY
1070
     3
  0
ENDTAB
  0
TABLE
  2
LTYPE
  5
5
330
0
100
AcDbSymbolTable
 70
     1
  0
LTYPE
  5
14
330
5
100
AcDbSymbolTableRecord
100
AcDbLinetypeTableRecord
  2
ByBlock
 70
     0
  3

 72
    65
 73
     0
 40
0.0
  0
LTYPE
  5
15
330
5
100
AcDbSymbolTableRecord
100
AcDbLinetypeTableRecord
  2
ByLayer
 70
     0
  3

 72
    65
 73
     0
 40
0.0
  0
LTYPE
  5
16
330
5
100
AcDbSymbolTableRecord
100
AcDbLinetypeTableRecord
  2
Continuous
 70
     0
  3
Solid line
 72
    65
 73
     0
 40
0.0
  0
ENDTAB
  0
TABLE
  2
LAYER
  5
2
102
{ACAD_XDICTIONARY
360
1FF
102
}
330
0
100
AcDbSymbolTable
 70
     1
  0
LAYER
  5
10
102
{ACAD_XDICTIONARY
360
13C
102
}
330
2
100
AcDbSymbolTableRecord
100
AcDbLayerTableRecord
  2
0
 70
     0
 62
     7
  6
Continuous
370
    -3
390
F
  0
ENDTAB
  0
TABLE
  2
STYLE
  5
3
330
0
100
AcDbSymbolTable
 70
     1
  0
STYLE
  5
11
330
3
100
AcDbSymbolTableRecord
100
AcDbTextStyleTableRecord
  2
Standard
 70
     0
 40
0.0
 41
1.0
 50
0.0
 71
     0
 42
2.5
  3
arial.ttf
  4

1001
ACAD
1000
Arial
1071
       34
  0
ENDTAB
  0
TABLE
  2
VIEW
  5
6
330
0
100
AcDbSymbolTable
 70
     0
  0
ENDTAB
  0
TABLE
  2
UCS
  5
7
330
0
100
AcDbSymbolTable
 70
     0
  0
ENDTAB
  0
TABLE
  2
APPID
  5
9
330
0
100
AcDbSymbolTable
 70
     8
  0
APPID
  5
12
330
9
100
AcDbSymbolTableRecord
100
AcDbRegAppTableRecord
  2
ACAD
 70
     0
  0
APPID
  5
9E
330
9
100
AcDbSymbolTableRecord
100
AcDbRegAppTableRecord
  2
ACAD_PSEXT
 70
     0
  0
APPID
  5
133
330
9
100
AcDbSymbolTableRecord
100
AcDbRegAppTableRecord
  2
AcadAnnoPO
 70
     0
  0
APPID
  5
134
330
9
100
AcDbSymbolTableRecord
100
AcDbRegAppTableRecord
  2
AcadAnnotative
 70
     0
  0
APPID
  5
135
330
9
100
AcDbSymbolTableRecord
100
AcDbRegAppTableRecord
  2
ACAD_DSTYLE_DIMJAG
 70
     0
  0
APPID
  5
136
330
9
100
AcDbSymbolTableRecord
100
AcDbRegAppTableRecord
  2
ACAD_DSTYLE_DIMTALN
 70
     0
  0
APPID
  5
165
330
9
100
AcDbSymbolTableRecord
100
AcDbRegAppTableRecord
  2
ACAD_MLEADERVER
 70
     0
  0
APPID
  5
217
330
9
100
AcDbSymbolTableRecord
100
AcDbRegAppTableRecord
  2
ACAD_NAV_VCDISPLAY
 70
     0
  0
ENDTAB
  0
TABLE
  2
DIMSTYLE
  5
A
330
0
100
AcDbSymbolTable
 70
     1
100
AcDbDimStyleTable
 71
     0
  0
DIMSTYLE
105
27
330
A
100
AcDbSymbolTableRecord
100
AcDbDimStyleTableRecord
  2
ISO-25
 70
     0
 41
2.5
 42
0.625
 43
3.75
 44
1.25
 73
     0
 74
     0
 77
     1
 78
     8
140
2.5
141
2.5
143
0.03937007874016
147
0.625
171
     3
172
     1
271
     2
272
     2
274
     3
278
    44
283
     0
284
     8
340
11
  0
ENDTAB
  0
TABLE
  2
BLOCK_RECORD
  5
1
330
0
100
AcDbSymbolTable
 70
     7
  0
BLOCK_RECORD
  5
1F
102
{ACAD_XDICTIONARY
360
1CE
102
}
330
1
100
AcDbSymbolTableRecord
100
AcDbBlockTableRecord
  2
*Model_Space
340
22
  0
BLOCK_RECORD
  5
D2
102
{ACAD_XDICTIONARY
360
7805
102
}
330
1
100
AcDbSymbolTableRecord
100
AcDbBlockTableRecord
  2
*Paper_Space
340
D3
  0
BLOCK_RECORD
  5
D6
102
{ACAD_XDICTIONARY
360
7807
102
}
330
1
100
AcDbSymbolTableRecord
100
AcDbBlockTableRecord
  2
*Paper_Space0
340
D7
  0
BLOCK_RECORD
  5
768D
330
1
100
AcDbSymbolTableRecord
100
AcDbBlockTableRecord
  2
SAE300_50_2-Front
340
0
102
{BLKREFS
331
77FB
102
}
  0
BLOCK_RECORD
  5
76DB
330
1
100
AcDbSymbolTableRecord
100
AcDbBlockTableRecord
  2
SAE300_50_2-Left
340
0
102
{BLKREFS
331
77FC
102
}
  0
BLOCK_RECORD
  5
76F9
330
1
100
AcDbSymbolTableRecord
100
AcDbBlockTableRecord
  2
SAE300_50_2-Right
340
0
102
{BLKREFS
331
77FD
102
}
  0
BLOCK_RECORD
  5
7716
330
1
100
AcDbSymbolTableRecord
100
AcDbBlockTableRecord
  2
SAE300_50_2-Top
340
0
102
{BLKREFS
331
77FE
102
}
  0
BLOCK_RECORD
  5
7745
330
1
100
AcDbSymbolTableRecord
100
AcDbBlockTableRecord
  2
SAE300_50_2-Bottom
340
0
102
{BLKREFS
331
77FF
102
}
  0
BLOCK_RECORD
  5
7770
330
1
100
AcDbSymbolTableRecord
100
AcDbBlockTableRecord
  2
SAE300_50_2-ISO
340
0
102
{BLKREFS
331
7800
102
}
  0
ENDTAB
  0
ENDSEC
  0
SECTION
  2
BLOCKS
  0
BLOCK
  5
20
330
1F
100
AcDbEntity
  8
0
100
AcDbBlockBegin
  2
*Model_Space
 70
     0
 10
0.0
 20
0.0
 30
0.0
  3
*Model_Space
  1

  0
ENDBLK
  5
21
330
1F
100
AcDbEntity
  8
0
100
AcDbBlockEnd
  0
BLOCK
  5
D4
330
D2
100
AcDbEntity
 67
     1
  8
0
100
AcDbBlockBegin
  2
*Paper_Space
 70
     0
 10
0.0
 20
0.0
 30
0.0
  3
*Paper_Space
  1

  0
ENDBLK
  5
D5
330
D2
100
AcDbEntity
 67
     1
  8
0
100
AcDbBlockEnd
  0
BLOCK
  5
D8
330
D6
100
AcDbEntity
 67
     1
  8
0
100
AcDbBlockBegin
  2
*Paper_Space0
 70
     0
 10
0.0
 20
0.0
 30
0.0
  3
*Paper_Space0
  1

  0
ENDBLK
  5
D9
330
D6
100
AcDbEntity
 67
     1
  8
0
100
AcDbBlockEnd
  0
BLOCK
  5
768E
330
768D
100
AcDbEntity
  8
0
100
AcDbBlockBegin
  2
SAE300_50_2-Front
 70
     0
 10
0.0
 20
0.0
 30
0.0
  3
SAE300_50_2-Front
  1

  0
SPLINE
  5
7690
330
768D
100
AcDbEntity
  8
0
100
AcDbSpline
210
0.0
220
0.0
230
1.0
 70
     8
 71
     3
 72
    14
 73
    10
 74
     0
 42
0.000000001
 43
0.0000000001
 40
0.0
 40
0.0
 40
0.0
 40
0.0
 40
0.3435149790888484
 40
0.3435149790888484
 40
0.3435149790888484
 40
0.7569946960383361
 40
0.7569946960383361
 40
0.7569946960383361
 40
0.9986524936714328
 40
0.9986524936714328
 40
0.9986524936714328
 40
0.9986524936714328
 10
29.6060606060607
 20
17.56250000000001
 30
0.0
 10
29.28490751412572
 20
17.30249600250133
 30
0.0
 10
28.87246524437342
 20
17.07529385309501
 30
0.0
 10
28.47647431546914
 20
16.8440818254127
 30
0.0
 10
27.99983071281693
 20
16.56577814265925
 30
0.0
 10
27.53729909952534
 20
16.27139347196551
 30
0.0
 10
27.26242924351304
 20
15.85792543824352
 30
0.0
 10
27.10178183732413
 20
15.61627446886079
 30
0.0
 10
27.00111654013395
 20
15.36107377147033
 30
0.0
 10
27.00000922941566
 20
15.00594994759512
 30
0.0
  0
LINE
  5
7691
330
768D
100
AcDbEntity
  8
0
100
AcDbLine
 10
27.0
 20
17.56250000000001
 30
0.0
 11
29.0
 21
17.56250000000001
 31
0.0
  0
SPLINE
  5
7692
330
768D
100
AcDbEntity
  8
0
100
AcDbSpline
210
0.0
220
0.0
230
1.0
 70
     8
 71
     3
 72
    20
 73
    16
 74
     0
 42
0.000000001
 43
0.0000000001
 40
0.0120727937238466
 40
0.0120727937238466
 40
0.0120727937238466
 40
0.0120727937238466
 40
0.0124288508787358
 40
0.0124288508787358
 40
0.0135302217280483
 40
0.0135302217280483
 40
0.0142261533878867
 40
0.0142261533878867
 40
0.0153094160366738
 40
0.0153094160366738
 40
0.0162525248857388
 40
0.0162525248857388
 40
0.0174015733522834
 40
0.0174015733522834
 40
0.0202445336741962
 40
0.0202445336741962
 40
0.0202445336741962
 40
0.0202445336741962
 10
27.00029164702541
 20
15.05864902334607
 30
0.0
 10
27.00029164702512
 20
15.05864902332051
 30
0.0
 10
27.00029123369334
 20
15.05861294221263
 30
0.0
 10
27.00028772502062
 20
15.05830125779795
 30
0.0
 10
27.00028065344632
 20
15.05767569686764
 30
0.0
 10
27.00026146072335
 20
15.05580875756197
 30
0.0
 10
27.00025209701941
 20
15.05487008331246
 30
0.0
 10
27.00022447041417
 20
15.05189819480165
 30
0.0
 10
27.00020362500286
 20
15.0494745598133
 30
0.0
 10
27.00016554779858
 20
15.04422649458156
 30
0.0
 10
27.00014800683283
 20
15.04146120928523
 30
0.0
 10
27.00011446921872
 20
15.03509374013164
 30
0.0
 10
27.00009956667937
 20
15.03145135010418
 30
0.0
 10
27.00006174351593
 20
15.01867994134385
 30
0.0
 10
27.00005914615844
 20
15.00931579016555
 30
0.0
 10
27.00007431501595
 20
15.0000000778712
 30
0.0
  0
SPLINE
  5
7693
330
768D
100
AcDbEntity
  8
0
100
AcDbSpline
210
0.0
220
0.0
230
1.0
 70
     8
 71
     3
 72
    20
 73
    16
 74
     0
 42
0.000000001
 43
0.0000000001
 40
0.0053329317610908
 40
0.0053329317610908
 40
0.0053329317610908
 40
0.0053329317610908
 40
0.0056476384796775
 40
0.0056476384796775
 40
0.006046398610078
 40
0.006046398610078
 40
0.0065307473407871
 40
0.0065307473407871
 40
0.0071940330786689
 40
0.0071940330786689
 40
0.0085673555960003
 40
0.0085673555960003
 40
0.0106389960801009
 40
0.0106389960801009
 40
0.0111024458958816
 40
0.0111024458958816
 40
0.0111024458958816
 40
0.0111024458958816
 10
27.00010883933692
 20
15.04546313428221
 30
0.0
 10
27.00010883931835
 20
15.04546313129132
 30
0.0
 10
27.00010796018937
 20
15.0453223003263
 30
0.0
 10
27.00010437335193
 20
15.04473468121181
 30
0.0
 10
27.00010121339615
 20
15.04421103326951
 30
0.0
 10
27.00009286789438
 20
15.04276717291496
 30
0.0
 10
27.00008734603756
 20
15.04177610103429
 30
0.0
 10
27.00007384262122
 20
15.03918105366587
 30
0.0
 10
27.00006571149235
 20
15.03748299312002
 30
0.0
 10
27.00004298010626
 20
15.03216377976884
 30
0.0
 10
27.00002983085883
 20
15.02823236321036
 30
0.0
 10
27.00000644319691
 20
15.01793194595765
 30
0.0
 10
27.00000107524834
 20
15.01126252369875
 30
0.0
 10
27.00000622906574
 20
15.00302763757002
 30
0.0
 10
27.00000763232318
 20
15.00151582242618
 30
0.0
 10
27.00000948370929
 20
15.00000001349922
 30
0.0
  0
SPLINE
  5
7694
330
768D
100
AcDbEntity
  8
0
100
AcDbSpline
210
0.0
220
0.0
230
1.0
 70
     8
 71
     3
 72
     8
 73
     4
 74
     0
 42
0.000000001
 43
0.0000000001
 40
0.0
 40
0.0
 40
0.0
 40
0.0
 40
0.0015511722890305
 40
0.0015511722890305
 40
0.0015511722890305
 40
0.0015511722890305
 10
24.99955984654367
 20
15.00000111615405
 30
0.0
 10
24.99956565327762
 20
15.00446881096218
 30
0.0
 10
24.99957076641529
 20
15.00884708254936
 30
0.0
 10
24.99957512909031
 20
15.01307591318172
 30
0.0
  0
SPLINE
  5
7695
330
768D
100
AcDbEntity
  8
0
100
AcDbSpline
210
0.0
220
0.0
230
1.0
 70
     8
 71
     3
 72
    16
 73
    12
 74
     0
 42
0.000000001
 43
0.0000000001
 40
0.0
 40
0.0
 40
0.0
 40
0.0
 40
0.0021186811718759
 40
0.0021186811718759
 40
0.0037963488517398
 40
0.0037963488517398
 40
0.0060490110242935
 40
0.0060490110242935
 40
0.0082160740814163
 40
0.0082160740814163
 40
0.0100715169033065
 40
0.0100715169033065
 40
0.0100715169033065
 40
0.0100715169033065
 10
24.99977770285682
 20
14.99999671130077
 30
0.0
 10
24.99967060184348
 20
15.00696262095948
 30
0.0
 10
24.99956026411777
 20
15.01406437696184
 30
0.0
 10
24.99936153534751
 20
15.02670814081808
 30
0.0
 10
24.99927271948869
 20
15.03230570795919
 30
0.0
 10
24.99907108313787
 20
15.04490248810006
 30
0.0
 10
24.99895813016895
 20
15.05187273939134
 30
0.0
 10
24.99876083666225
 20
15.06395003191476
 30
0.0
 10
24.99867338960434
 20
15.06925359845105
 30
0.0
 10
24.99853375466994
 20
15.07766822137039
 30
0.0
 10
24.99847718644597
 20
15.08105233826487
 30
0.0
 10
24.99842789893333
 20
15.08398349791218
 30
0.0
  0
SPLINE
  5
7696
330
768D
100
AcDbEntity
  8
0
100
AcDbSpline
210
0.0
220
0.0
230
1.0
 70
     8
 71
     3
 72
    34
 73
    30
 74
     0
 42
0.000000001
 43
0.0000000001
 40
0.0018969143516489
 40
0.0018969143516489
 40
0.0018969143516489
 40
0.0018969143516489
 40
0.0067931669936204
 40
0.0067931669936204
 40
0.0148581762804557
 40
0.0148581762804557
 40
0.0216571619539325
 40
0.0216571619539325
 40
0.0241183018050281
 40
0.0241183018050281
 40
0.0262727013513254
 40
0.0262727013513254
 40
0.0291188541970028
 40
0.0291188541970028
 40
0.0315306353734026
 40
0.0315306353734026
 40
0.0346499258845857
 40
0.0346499258845857
 40
0.0395922465935907
 40
0.0395922465935907
 40
0.0489104491860441
 40
0.0489104491860441
 40
0.0719043752313932
 40
0.0719043752313932
 40
0.141459528636348
 40
0.141459528636348
 40
0.2235227557919328
 40
0.2235227557919328
 40
0.2666868422939115
 40
0.2666868422939115
 40
0.2666868422939115
 40
0.2666868422939115
 10
24.99993347590362
 20
15.0038565114314
 30
0.0
 10
24.99986349226223
 20
15.00787341970237
 30
0.0
 10
24.99976193758888
 20
15.01360762465603
 30
0.0
 10
24.99943617609204
 20
15.03150095251622
 30
0.0
 10
24.99917379097082
 20
15.04547905761914
 30
0.0
 10
24.99862147510088
 20
15.07412851559201
 30
0.0
 10
24.99834195126855
 20
15.0883699382086
 30
0.0
 10
24.99789286602768
 20
15.11130008430749
 30
0.0
 10
24.99776556119497
 20
15.11780827896381
 30
0.0
 10
24.99751099402908
 20
15.13092311794911
 30
0.0
 10
24.99738412632887
 20
15.13749899509556
 30
0.0
 10
24.99708153128028
 20
15.15339583226526
 30
0.0
 10
24.9968990557096
 20
15.16315151462135
 30
0.0
 10
24.99658162062962
 20
15.18063314065778
 30
0.0
 10
24.99644055697724
 20
15.18860701807594
 30
0.0
 10
24.99613972443307
 20
15.20612857830079
 30
0.0
 10
24.99598366139409
 20
15.21561629028809
 30
0.0
 10
24.99561587443532
 20
15.23896503002539
 30
0.0
 10
24.99542142459431
 20
15.25234656262634
 30
0.0
 10
24.99492615431722
 20
15.28909266107686
 30
0.0
 10
24.99467858080287
 20
15.31110290021353
 30
0.0
 10
24.99397365087524
 20
15.38486018620199
 30
0.0
 10
24.9937307208464
 20
15.43326579116904
 30
0.0
 10
24.99330505605423
 20
15.63521365516421
 30
0.0
 10
24.99455178428402
 20
15.81149935530709
 30
0.0
 10
24.99793250064065
 20
16.23289785133795
 30
0.0
 10
24.99943751533252
 20
16.48829527435409
 30
0.0
 10
24.99998947019264
 20
16.89388825715905
 30
0.0
 10
24.99998278728958
 20
17.03723763695244
 30
0.0
 10
24.99999053643045
 20
17.18062729457406
 30
0.0
  0
SPLINE
  5
7697
330
768D
100
AcDbEntity
  8
0
100
AcDbSpline
210
0.0
220
0.0
230
1.0
 70
     8
 71
     3
 72
    12
 73
     8
 74
     0
 42
0.000000001
 43
0.0000000001
 40
0.0
 40
0.0
 40
0.0
 40
0.0
 40
0.0029763423146302
 40
0.0029763423146302
 40
0.0058215423472254
 40
0.0058215423472254
 40
0.0072780875715828
 40
0.0072780875715828
 40
0.0072780875715828
 40
0.0072780875715828
 10
24.99994048875978
 20
14.99999988046351
 30
0.0
 10
24.99992879776435
 20
15.00662300611819
 30
0.0
 10
24.99991806073906
 20
15.01206400461357
 30
0.0
 10
24.99990163951448
 20
15.01957263756343
 30
0.0
 10
24.99989565395938
 20
15.02187985213935
 30
0.0
 10
24.99989113661124
 20
15.02353105234547
 30
0.0
 10
24.99989036107344
 20
15.02378586033044
 30
0.0
 10
24.99989036107352
 20
15.02378586030069
 30
0.0
  0
SPLINE
  5
7698
330
768D
100
AcDbEntity
  8
0
100
AcDbSpline
210
0.0
220
0.0
230
1.0
 70
     8
 71
     3
 72
     8
 73
     4
 74
     0
 42
0.000000001
 43
0.0000000001
 40
0.0
 40
0.0
 40
0.0
 40
0.0
 40
0.0004175944858233
 40
0.0004175944858233
 40
0.0004175944858233
 40
0.0004175944858233
 10
29.60608753399731
 20
17.56246533477949
 30
0.0
 10
29.60571552654805
 20
17.56217722341178
 30
0.0
 10
29.60533670558439
 20
17.56188389113706
 30
0.0
 10
29.6049552280769
 20
17.56158846482135
 30
0.0
  0
SPLINE
  5
7699
330
768D
100
AcDbEntity
  8
0
100
AcDbSpline
210
0.0
220
0.0
230
1.0
 70
     8
 71
     3
 72
     8
 73
     4
 74
     0
 42
0.000000001
 43
0.0000000001
 40
0.0
 40
0.0
 40
0.0
 40
0.0
 40
0.000673044057034
 40
0.000673044057034
 40
0.000673044057034
 40
0.000673044057034
 10
29.606103018412
 20
17.56244730639221
 30
0.0
 10
29.60468731029902
 20
17.56130750446392
 30
0.0
 10
29.6032107338527
 20
17.56012004726143
 30
0.0
 10
29.60168845289173
 20
17.5588973391799
 30
0.0
  0
LINE
  5
769A
330
768D
100
AcDbEntity
  8
0
100
AcDbLine
 10
22.99999999999998
 20
-2.0
 30
0.0
 11
-22.99999999999998
 21
-1.999999999999999
 31
0.0
  0
LINE
  5
769B
330
768D
100
AcDbEntity
  8
0
100
AcDbLine
 10
-22.99999999999999
 20
0.0
 30
0.0
 11
22.99999999999997
 21
0.0
 31
0.0
  0
LINE
  5
769C
330
768D
100
AcDbEntity
  8
0
100
AcDbLine
 10
-29.0
 20
17.56250000000001
 30
0.0
 11
-27.0
 21
17.56250000000001
 31
0.0
  0
SPLINE
  5
769D
330
768D
100
AcDbEntity
  8
0
100
AcDbSpline
210
0.0
220
0.0
230
1.0
 70
     8
 71
     3
 72
    14
 73
    10
 74
     0
 42
0.000000001
 43
0.0000000001
 40
0.0
 40
0.0
 40
0.0
 40
0.0
 40
0.3435149790888484
 40
0.3435149790888484
 40
0.3435149790888484
 40
0.7569946960383361
 40
0.7569946960383361
 40
0.7569946960383361
 40
0.9986524936720677
 40
0.9986524936720677
 40
0.9986524936720677
 40
0.9986524936720677
 10
-29.6060606060607
 20
17.56250000000001
 30
0.0
 10
-29.28490751412572
 20
17.30249600250133
 30
0.0
 10
-28.87246524437342
 20
17.07529385309501
 30
0.0
 10
-28.47647431546914
 20
16.8440818254127
 30
0.0
 10
-27.99983071281693
 20
16.56577814265925
 30
0.0
 10
-27.53729909952534
 20
16.27139347196551
 30
0.0
 10
-27.26242924351304
 20
15.85792543824352
 30
0.0
 10
-27.10178183732371
 20
15.61627446886016
 30
0.0
 10
-27.00111654013343
 20
15.36107377146898
 30
0.0
 10
-27.00000922941564
 20
15.00594994759232
 30
0.0
  0
SPLINE
  5
769E
330
768D
100
AcDbEntity
  8
0
100
AcDbSpline
210
0.0
220
0.0
230
1.0
 70
     8
 71
     3
 72
    32
 73
    28
 74
     0
 42
0.000000001
 43
0.0000000001
 40
0.0
 40
0.0
 40
0.0
 40
0.0
 40
0.0776272699617772
 40
0.0776272699617772
 40
0.1568375567197479
 40
0.1568375567197479
 40
0.1970113737798807
 40
0.1970113737798807
 40
0.2169380337469252
 40
0.2169380337469252
 40
0.231887299006002
 40
0.231887299006002
 40
0.2359025886292986
 40
0.2359025886292986
 40
0.2378332127950924
 40
0.2378332127950924
 40
0.2397692340778349
 40
0.2397692340778349
 40
0.2417048030903298
 40
0.2417048030903298
 40
0.2456034020221525
 40
0.2456034020221525
 40
0.2533500446622607
 40
0.2533500446622607
 40
0.2645754921321588
 40
0.2645754921321588
 40
0.2647524238443795
 40
0.2647524238443795
 40
0.2647524238443795
 40
0.2647524238443795
 10
-24.99999053643045
 20
17.18062729456159
 30
0.0
 10
-24.99997660020014
 20
16.92275208940908
 30
0.0
 10
-24.99994864797607
 20
16.66281396569965
 30
0.0
 10
-24.99779570903164
 20
16.18065849118179
 30
0.0
 10
-24.99540694559902
 20
15.9513784288516
 30
0.0
 10
-24.99366130132795
 20
15.64942469861845
 30
0.0
 10
-24.99342296771913
 20
15.55634255429964
 30
0.0
 10
-24.993776962434
 20
15.42576138338619
 30
0.0
 10
-24.99400311791694
 20
15.38346324721889
 30
0.0
 10
-24.99473243700661
 20
15.3043841905002
 30
0.0
 10
-24.99514589639288
 20
15.26897852317764
 30
0.0
 10
-24.99600430295708
 20
15.21426134588085
 30
0.0
 10
-24.99620976728435
 20
15.20187144024309
 30
0.0
 10
-24.99654594787699
 20
15.18265931361464
 30
0.0
 10
-24.99666105666103
 20
15.1762299071601
 30
0.0
 10
-24.99689624679164
 20
15.16335100263533
 30
0.0
 10
-24.99701785483597
 20
15.15681912869087
 30
0.0
 10
-24.99725549873805
 20
15.14422908915809
 30
0.0
 10
-24.99737307126971
 20
15.13808696248382
 30
0.0
 10
-24.99770888935702
 20
15.12067794771503
 30
0.0
 10
-24.99791299483887
 20
15.11026828822945
 30
0.0
 10
-24.99846195388377
 20
15.08225491713886
 30
0.0
 10
-24.99876852550187
 20
15.06658624586443
 30
0.0
 10
-24.99943605972537
 20
15.03166344987762
 30
0.0
 10
-24.99976075546993
 20
15.01375873173705
 30
0.0
 10
-24.99992847700583
 20
15.00414726362387
 30
0.0
 10
-24.99993103942288
 20
15.00400029788878
 30
0.0
 10
-24.99993356181941
 20
15.00385551783329
 30
0.0
  0
SPLINE
  5
769F
330
768D
100
AcDbEntity
  8
0
100
AcDbSpline
210
0.0
220
0.0
230
1.0
 70
     8
 71
     3
 72
     8
 73
     4
 74
     0
 42
0.000000001
 43
0.0000000001
 40
0.0195591544683366
 40
0.0195591544683366
 40
0.0195591544683366
 40
0.0195591544683366
 40
0.021116301042904
 40
0.021116301042904
 40
0.021116301042904
 40
0.021116301042904
 10
-24.99957522640349
 20
15.01307778043996
 30
0.0
 10
-24.99957087693726
 20
15.00886175336362
 30
0.0
 10
-24.99956567564207
 20
15.00448601813166
 30
0.0
 10
-24.99955984654369
 20
15.00000111615405
 30
0.0
  0
SPLINE
  5
76A0
330
768D
100
AcDbEntity
  8
0
100
AcDbSpline
210
0.0
220
0.0
230
1.0
 70
     8
 71
     3
 72
    16
 73
    12
 74
     0
 42
0.000000001
 43
0.0000000001
 40
0.0328453658147586
 40
0.0328453658147586
 40
0.0328453658147586
 40
0.0328453658147586
 40
0.0346121739321224
 40
0.0346121739321224
 40
0.0362943907725758
 40
0.0362943907725758
 40
0.0388726343318859
 40
0.0388726343318859
 40
0.0410449475717534
 40
0.0410449475717534
 40
0.0429128452581842
 40
0.0429128452581842
 40
0.0429128452581842
 40
0.0429128452581842
 10
-24.99842789914446
 20
15.08398349521842
 30
0.0
 10
-24.99847484521926
 20
15.08119158236495
 30
0.0
 10
-24.99852835649236
 20
15.07799109549639
 30
0.0
 10
-24.99864665534887
 20
15.07086662538696
 30
0.0
 10
-24.99871142261809
 20
15.06694586363279
 30
0.0
 10
-24.99889097016608
 20
15.05600293234126
 30
0.0
 10
-24.99901757415237
 20
15.04822182203662
 30
0.0
 10
-24.9992592846519
 20
15.03315934946742
 30
0.0
 10
-24.999375430199
 20
15.02584026707855
 30
0.0
 10
-24.99958650226528
 20
15.01237477413872
 30
0.0
 10
-24.99968327914754
 20
15.00613808203088
 30
0.0
 10
-24.99977770285683
 20
14.99999671130076
 30
0.0
  0
SPLINE
  5
76A1
330
768D
100
AcDbEntity
  8
0
100
AcDbSpline
210
0.0
220
0.0
230
1.0
 70
     8
 71
     3
 72
    12
 73
     8
 74
     0
 42
0.000000001
 43
0.0000000001
 40
0.0136503417123657
 40
0.0136503417123657
 40
0.0136503417123657
 40
0.0136503417123657
 40
0.0164817675451216
 40
0.0164817675451216
 40
0.0184448018894894
 40
0.0184448018894894
 40
0.0209304327231974
 40
0.0209304327231974
 40
0.0209304327231974
 40
0.0209304327231974
 10
-24.99989036107352
 20
15.02378586030079
 30
0.0
 10
-24.9998903610734
 20
15.02378586033746
 30
0.0
 10
-24.99989338766211
 20
15.02279889108112
 30
0.0
 10
-24.99990289572868
 20
15.01893476163229
 30
0.0
 10
-24.99990804267686
 20
15.01671479666296
 30
0.0
 10
-24.99992165027364
 20
15.01024149498386
 30
0.0
 10
-24.99993072526632
 20
15.00553104711149
 30
0.0
 10
-24.99994048875978
 20
14.99999988046351
 30
0.0
  0
SPLINE
  5
76A2
330
768D
100
AcDbEntity
  8
0
100
AcDbSpline
210
0.0
220
0.0
230
1.0
 70
     8
 71
     3
 72
    16
 73
    12
 74
     0
 42
0.000000001
 43
0.0000000001
 40
0.0
 40
0.0
 40
0.0
 40
0.0
 40
0.004114770138611
 40
0.004114770138611
 40
0.0050669104884892
 40
0.0050669104884892
 40
0.0058958097639061
 40
0.0058958097639061
 40
0.0067234516704333
 40
0.0067234516704333
 40
0.0081601476151233
 40
0.0081601476151233
 40
0.0081601476151233
 40
0.0081601476151233
 10
-27.00007431501595
 20
15.0000000778712
 30
0.0
 10
-27.00005236030859
 20
15.01348321179793
 30
0.0
 10
-27.00007089001986
 20
15.027436119516
 30
0.0
 10
-27.00015518626376
 20
15.04264323906688
 30
0.0
 10
-27.0001733425372
 20
15.04537391441034
 30
0.0
 10
-27.00020680359952
 20
15.04980909453317
 30
0.0
 10
-27.0002223188213
 20
15.05162998388259
 30
0.0
 10
-27.0002491448237
 20
15.05457669179053
 30
0.0
 10
-27.00026066603007
 20
15.05573299466574
 30
0.0
 10
-27.00028457044067
 20
15.0580539164374
 30
0.0
 10
-27.0002916470255
 20
15.05864902335374
 30
0.0
 10
-27.00029164702539
 20
15.05864902334525
 30
0.0
  0
SPLINE
  5
76A3
330
768D
100
AcDbEntity
  8
0
100
AcDbSpline
210
0.0
220
0.0
230
1.0
 70
     8
 71
     3
 72
    18
 73
    14
 74
     0
 42
0.000000001
 43
0.0000000001
 40
0.0
 40
0.0
 40
0.0
 40
0.0
 40
0.0020456842424734
 40
0.0020456842424734
 40
0.0037103798950398
 40
0.0037103798950398
 40
0.0047886574444956
 40
0.0047886574444956
 40
0.0054058580279263
 40
0.0054058580279263
 40
0.0056713593825235
 40
0.0056713593825235
 40
0.0057658587598095
 40
0.0057658587598095
 40
0.0057658587598095
 40
0.0057658587598095
 10
-27.00000948370928
 20
15.00000001349922
 30
0.0
 10
-27.00000131162408
 20
15.00669084890538
 30
0.0
 10
-27.00000211672947
 20
15.01335086232389
 30
0.0
 10
-27.00001995709032
 20
15.02478352035299
 30
0.0
 10
-27.00003405059725
 20
15.02972464699193
 30
0.0
 10
-27.00006334256419
 20
15.03706867846863
 30
0.0
 10
-27.00007727322273
 20
15.03991934626656
 30
0.0
 10
-27.00009604289417
 20
15.04334273317372
 30
0.0
 10
-27.00010217954254
 20
15.04437249636564
 30
0.0
 10
-27.00010716091166
 20
15.04519218278389
 30
0.0
 10
-27.00010818416241
 20
15.04535741759243
 30
0.0
 10
-27.00010876159622
 20
15.04545062476693
 30
0.0
 10
-27.00010883935362
 20
15.04546313697134
 30
0.0
 10
-27.00010883933693
 20
15.04546313428425
 30
0.0
  0
SPLINE
  5
76A4
330
768D
100
AcDbEntity
  8
0
100
AcDbSpline
210
0.0
220
0.0
230
1.0
 70
     8
 71
     3
 72
     8
 73
     4
 74
     0
 42
0.000000001
 43
0.0000000001
 40
0.0
 40
0.0
 40
0.0
 40
0.0
 40
0.0007418618412099
 40
0.0007418618412099
 40
0.0007418618412099
 40
0.0007418618412099
 10
-27.00001228473429
 20
14.99999999359673
 30
0.0
 10
-27.0000082358739
 20
15.00154343845625
 30
0.0
 10
-27.00000411639133
 20
15.00317715696475
 30
0.0
 10
-26.99999998544272
 20
15.00485798905177
 30
0.0
  0
SPLINE
  5
76A5
330
768D
100
AcDbEntity
  8
0
100
AcDbSpline
210
0.0
220
0.0
230
1.0
 70
     8
 71
     3
 72
     8
 73
     4
 74
     0
 42
0.000000001
 43
0.0000000001
 40
0.2821158685169409
 40
0.2821158685169409
 40
0.2821158685169409
 40
0.2821158685169409
 40
0.2827891091120715
 40
0.2827891091120715
 40
0.2827891091120715
 40
0.2827891091120715
 10
-29.60168994739018
 20
17.55889868172078
 30
0.0
 10
-29.60321251191185
 20
17.56012161756051
 30
0.0
 10
-29.60468689689279
 20
17.5613071716261
 30
0.0
 10
-29.60610301841197
 20
17.5624473063922
 30
0.0
  0
SPLINE
  5
76A6
330
768D
100
AcDbEntity
  8
0
100
AcDbSpline
210
0.0
220
0.0
230
1.0
 70
     8
 71
     3
 72
     8
 73
     4
 74
     0
 42
0.000000001
 43
0.0000000001
 40
0.0184886276201092
 40
0.0184886276201092
 40
0.0184886276201092
 40
0.0184886276201092
 40
0.0189064975927641
 40
0.0189064975927641
 40
0.0189064975927641
 40
0.0189064975927641
 10
-29.60495655146768
 20
17.56158945739468
 30
0.0
 10
-29.60533779132703
 20
17.56188469966937
 30
0.0
 10
-29.60571528113494
 20
17.56217703334488
 30
0.0
 10
-29.6060875339973
 20
17.56246533477949
 30
0.0
  0
ARC
  5
76A7
330
768D
100
AcDbEntity
  8
0
100
AcDbCircle
 10
-22.99999999999999
 20
2.0
 30
0.0
 40
3.999999999999999
100
AcDbArc
 50
180.0
 51
270.0
  0
ARC
  5
76A8
330
768D
100
AcDbEntity
  8
0
100
AcDbCircle
 10
-22.99999999999999
 20
2.0
 30
0.0
 40
1.999999999999997
100
AcDbArc
 50
180.0
 51
270.0
  0
ARC
  5
76A9
330
768D
100
AcDbEntity
  8
0
100
AcDbCircle
 10
22.99999999999999
 20
2.0
 30
0.0
 40
3.999999999999999
100
AcDbArc
 50
270.0
 51
0.0
  0
LINE
  5
76AA
330
768D
100
AcDbEntity
  8
0
100
AcDbLine
 10
29.60606060606068
 20
17.56250000000001
 30
0.0
 11
66.50000000000007
 21
47.99999999999998
 31
0.0
  0
LINE
  5
76AB
330
768D
100
AcDbEntity
  8
0
100
AcDbLine
 10
24.99999999999998
 20
15.0
 30
0.0
 11
25.0
 21
47.99999999999998
 31
0.0
  0
LINE
  5
76AC
330
768D
100
AcDbEntity
  8
0
100
AcDbLine
 10
26.99999999999998
 20
15.0
 30
0.0
 11
24.99999999999998
 21
15.0
 31
0.0
  0
LINE
  5
76AD
330
768D
100
AcDbEntity
  8
0
100
AcDbLine
 10
26.99999999999999
 20
47.99999999999998
 30
0.0
 11
26.99999999999998
 21
15.0
 31
0.0
  0
LINE
  5
76AE
330
768D
100
AcDbEntity
  8
0
100
AcDbLine
 10
26.99999999999999
 20
47.99999999999998
 30
0.0
 11
25.0
 21
47.99999999999998
 31
0.0
  0
LINE
  5
76AF
330
768D
100
AcDbEntity
  8
0
100
AcDbLine
 10
25.0
 20
47.99999999999998
 30
0.0
 11
25.0
 21
125.0
 31
0.0
  0
LINE
  5
76B0
330
768D
100
AcDbEntity
  8
0
100
AcDbLine
 10
26.99999999999999
 20
125.0
 30
0.0
 11
26.99999999999999
 21
47.99999999999998
 31
0.0
  0
LINE
  5
76B1
330
768D
100
AcDbEntity
  8
0
100
AcDbLine
 10
25.0
 20
125.0
 30
0.0
 11
26.99999999999999
 21
125.0
 31
0.0
  0
LINE
  5
76B2
330
768D
100
AcDbEntity
  8
0
100
AcDbLine
 10
26.99999999999998
 20
15.0
 30
0.0
 11
26.99999999999999
 21
1.999999999999999
 31
0.0
  0
LINE
  5
76B3
330
768D
100
AcDbEntity
  8
0
100
AcDbLine
 10
24.99999999999998
 20
2.0
 30
0.0
 11
24.99999999999998
 21
15.0
 31
0.0
  0
ARC
  5
76B4
330
768D
100
AcDbEntity
  8
0
100
AcDbCircle
 10
22.99999999999999
 20
2.0
 30
0.0
 40
1.999999999999997
100
AcDbArc
 50
270.0
 51
0.0
  0
LINE
  5
76B5
330
768D
100
AcDbEntity
  8
0
100
AcDbLine
 10
29.0
 20
125.0
 30
0.0
 11
27.0
 21
125.0
 31
0.0
  0
LINE
  5
76B6
330
768D
100
AcDbEntity
  8
0
100
AcDbLine
 10
66.50000000000007
 20
47.99999999999998
 30
0.0
 11
66.50000000000002
 21
125.0
 31
0.0
  0
LINE
  5
76B7
330
768D
100
AcDbEntity
  8
0
100
AcDbLine
 10
66.50000000000002
 20
125.0
 30
0.0
 11
29.0
 21
125.0
 31
0.0
  0
CIRCLE
  5
76B8
330
768D
100
AcDbEntity
  8
0
100
AcDbCircle
 10
47.00000000000001
 20
105.0
 30
0.0
 40
6.5
  0
CIRCLE
  5
76B9
330
768D
100
AcDbEntity
  8
0
100
AcDbCircle
 10
58.0
 20
110.0
 30
0.0
 40
2.5
  0
LINE
  5
76BA
330
768D
100
AcDbEntity
  8
0
100
AcDbLine
 10
-66.50000000000007
 20
47.99999999999998
 30
0.0
 11
-29.60606060606068
 21
17.56250000000001
 31
0.0
  0
LINE
  5
76BB
330
768D
100
AcDbEntity
  8
0
100
AcDbLine
 10
-25.0
 20
47.99999999999998
 30
0.0
 11
-24.99999999999998
 21
15.0
 31
0.0
  0
LINE
  5
76BC
330
768D
100
AcDbEntity
  8
0
100
AcDbLine
 10
-26.99999999999999
 20
47.99999999999998
 30
0.0
 11
-25.0
 21
47.99999999999998
 31
0.0
  0
LINE
  5
76BD
330
768D
100
AcDbEntity
  8
0
100
AcDbLine
 10
-26.99999999999998
 20
15.0
 30
0.0
 11
-26.99999999999999
 21
47.99999999999998
 31
0.0
  0
LINE
  5
76BE
330
768D
100
AcDbEntity
  8
0
100
AcDbLine
 10
-24.99999999999998
 20
15.0
 30
0.0
 11
-26.99999999999998
 21
15.0
 31
0.0
  0
LINE
  5
76BF
330
768D
100
AcDbEntity
  8
0
100
AcDbLine
 10
-25.0
 20
125.0
 30
0.0
 11
-25.0
 21
47.99999999999998
 31
0.0
  0
LINE
  5
76C0
330
768D
100
AcDbEntity
  8
0
100
AcDbLine
 10
-26.99999999999999
 20
125.0
 30
0.0
 11
-25.0
 21
125.0
 31
0.0
  0
LINE
  5
76C1
330
768D
100
AcDbEntity
  8
0
100
AcDbLine
 10
-26.99999999999999
 20
47.99999999999998
 30
0.0
 11
-26.99999999999999
 21
125.0
 31
0.0
  0
CIRCLE
  5
76C2
330
768D
100
AcDbEntity
  8
0
100
AcDbCircle
 10
-47.00000000000001
 20
55.0
 30
0.0
 40
6.5
  0
CIRCLE
  5
76C3
330
768D
100
AcDbEntity
  8
0
100
AcDbCircle
 10
47.00000000000001
 20
55.0
 30
0.0
 40
6.5
  0
CIRCLE
  5
76C4
330
768D
100
AcDbEntity
  8
0
100
AcDbCircle
 10
-47.00000000000001
 20
105.0
 30
0.0
 40
6.5
  0
CIRCLE
  5
76C5
330
768D
100
AcDbEntity
  8
0
100
AcDbCircle
 10
-36.00000000000001
 20
40.0
 30
0.0
 40
2.5
  0
CIRCLE
  5
76C6
330
768D
100
AcDbEntity
  8
0
100
AcDbCircle
 10
-36.00000000000001
 20
60.0
 30
0.0
 40
2.5
  0
CIRCLE
  5
76C7
330
768D
100
AcDbEntity
  8
0
100
AcDbCircle
 10
-36.00000000000001
 20
80.0
 30
0.0
 40
2.5
  0
CIRCLE
  5
76C8
330
768D
100
AcDbEntity
  8
0
100
AcDbCircle
 10
-36.00000000000001
 20
100.0
 30
0.0
 40
2.5
  0
CIRCLE
  5
76C9
330
768D
100
AcDbEntity
  8
0
100
AcDbCircle
 10
36.00000000000001
 20
40.0
 30
0.0
 40
2.5
  0
CIRCLE
  5
76CA
330
768D
100
AcDbEntity
  8
0
100
AcDbCircle
 10
36.00000000000001
 20
60.0
 30
0.0
 40
2.5
  0
CIRCLE
  5
76CB
330
768D
100
AcDbEntity
  8
0
100
AcDbCircle
 10
36.00000000000001
 20
80.0
 30
0.0
 40
2.5
  0
CIRCLE
  5
76CC
330
768D
100
AcDbEntity
  8
0
100
AcDbCircle
 10
36.00000000000001
 20
100.0
 30
0.0
 40
2.5
  0
CIRCLE
  5
76CD
330
768D
100
AcDbEntity
  8
0
100
AcDbCircle
 10
-36.00000000000001
 20
120.0
 30
0.0
 40
2.5
  0
CIRCLE
  5
76CE
330
768D
100
AcDbEntity
  8
0
100
AcDbCircle
 10
36.00000000000001
 20
120.0
 30
0.0
 40
2.5
  0
CIRCLE
  5
76CF
330
768D
100
AcDbEntity
  8
0
100
AcDbCircle
 10
-58.0
 20
50.0
 30
0.0
 40
2.5
  0
CIRCLE
  5
76D0
330
768D
100
AcDbEntity
  8
0
100
AcDbCircle
 10
-58.0
 20
70.0
 30
0.0
 40
2.5
  0
CIRCLE
  5
76D1
330
768D
100
AcDbEntity
  8
0
100
AcDbCircle
 10
-58.0
 20
90.0
 30
0.0
 40
2.5
  0
CIRCLE
  5
76D2
330
768D
100
AcDbEntity
  8
0
100
AcDbCircle
 10
58.0
 20
50.0
 30
0.0
 40
2.5
  0
CIRCLE
  5
76D3
330
768D
100
AcDbEntity
  8
0
100
AcDbCircle
 10
58.0
 20
70.0
 30
0.0
 40
2.5
  0
CIRCLE
  5
76D4
330
768D
100
AcDbEntity
  8
0
100
AcDbCircle
 10
58.0
 20
90.0
 30
0.0
 40
2.5
  0
CIRCLE
  5
76D5
330
768D
100
AcDbEntity
  8
0
100
AcDbCircle
 10
-58.0
 20
110.0
 30
0.0
 40
2.5
  0
LINE
  5
76D6
330
768D
100
AcDbEntity
  8
0
100
AcDbLine
 10
-66.50000000000002
 20
125.0
 30
0.0
 11
-29.0
 21
125.0
 31
0.0
  0
LINE
  5
76D7
330
768D
100
AcDbEntity
  8
0
100
AcDbLine
 10
-66.50000000000007
 20
47.99999999999998
 30
0.0
 11
-66.50000000000002
 21
125.0
 31
0.0
  0
LINE
  5
76D8
330
768D
100
AcDbEntity
  8
0
100
AcDbLine
 10
-24.99999999999998
 20
2.0
 30
0.0
 11
-24.99999999999998
 21
15.0
 31
0.0
  0
LINE
  5
76D9
330
768D
100
AcDbEntity
  8
0
100
AcDbLine
 10
-26.99999999999998
 20
15.0
 30
0.0
 11
-26.99999999999999
 21
1.999999999999999
 31
0.0
  0
LINE
  5
76DA
330
768D
100
AcDbEntity
  8
0
100
AcDbLine
 10
-29.0
 20
125.0
 30
0.0
 11
-27.0
 21
125.0
 31
0.0
  0
ENDBLK
  5
768F
330
768D
100
AcDbEntity
  8
0
100
AcDbBlockEnd
  0
BLOCK
  5
76DC
330
76DB
100
AcDbEntity
  8
0
100
AcDbBlockBegin
  2
SAE300_50_2-Left
 70
     0
 10
0.0
 20
0.0
 30
0.0
  3
SAE300_50_2-Left
  1

  0
LINE
  5
76DE
330
76DB
100
AcDbEntity
  8
0
100
AcDbLine
 10
2.000000000000006
 20
-2.0
 30
0.0
 11
86.00000000000001
 21
-1.999999999999999
 31
0.0
  0
LINE
  5
76DF
330
76DB
100
AcDbEntity
  8
0
100
AcDbLine
 10
2.000000000000013
 20
2.000000000000004
 30
0.0
 11
2.000000000000006
 21
-1.999999999999999
 31
0.0
  0
LINE
  5
76E0
330
76DB
100
AcDbEntity
  8
0
100
AcDbLine
 10
86.00000000000001
 20
-1.999999999999999
 30
0.0
 11
86.00000000000001
 21
2.0
 31
0.0
  0
SPLINE
  5
76E1
330
76DB
100
AcDbEntity
  8
0
100
AcDbSpline
210
0.0
220
0.0
230
1.0
 70
     8
 71
     3
 72
    14
 73
    10
 74
     0
 42
0.000000001
 43
0.0000000001
 40
-0.4813026533005863
 40
-0.4813026533005863
 40
-0.4813026533005863
 40
-0.4813026533005863
 40
-0.3760960081035631
 40
-0.3760960081035631
 40
-0.3760960081035631
 40
-0.0765284972713521
 40
-0.0765284972713521
 40
-0.0765284972713521
 40
0.0
 40
0.0
 40
0.0
 40
0.0
 10
0.9454120927539428
 20
16.73176011522149
 30
0.0
 10
0.8408297880073753
 20
16.76867618607881
 30
0.0
 10
0.7371129357670024
 20
16.80054090482845
 30
0.0
 10
0.638861406450987
 20
16.8342366632075
 30
0.0
 10
0.3590980320221488
 20
16.93018264118553
 30
0.0
 10
0.1217220476640936
 20
17.04001612967091
 30
0.0
 10
0.0342615816174917
 20
17.31443386954853
 30
0.0
 10
0.011918644565992
 20
17.38453752397719
 30
0.0
 10
0.0000045452574053
 20
17.46769665103961
 30
0.0
 10
0.0000000001152104
 20
17.56250000004009
 30
0.0
  0
SPLINE
  5
76E2
330
76DB
100
AcDbEntity
  8
0
100
AcDbSpline
210
0.0
220
0.0
230
1.0
 70
     8
 71
     3
 72
    14
 73
    10
 74
     0
 42
0.000000001
 43
0.0000000001
 40
0.0
 40
0.0
 40
0.0
 40
0.0
 40
0.3435149790888484
 40
0.3435149790888484
 40
0.3435149790888484
 40
0.7569946960383361
 40
0.7569946960383361
 40
0.7569946960383361
 40
1.0
 40
1.0
 40
1.0
 40
1.0
 10
2.000000000000008
 20
17.56250000000001
 30
0.0
 10
2.000036879683416
 20
17.30249600250133
 30
0.0
 10
1.99683399967494
 20
17.07529385309501
 30
0.0
 10
1.998675888895958
 20
16.8440818254127
 30
0.0
 10
2.000892921282082
 20
16.56577814265925
 30
0.0
 10
2.001068771447641
 20
16.27139347196551
 30
0.0
 10
2.001123144171222
 20
15.85792543824352
 30
0.0
 10
2.001155099451444
 20
15.61492700060718
 30
0.0
 10
2.000250547725926
 20
15.3582273045798
 30
0.0
 10
1.999999999992541
 20
15.00000000165286
 30
0.0
  0
LINE
  5
76E3
330
76DB
100
AcDbEntity
  8
0
100
AcDbLine
 10
0.0
 20
17.56250000000001
 30
0.0
 11
2.000000000000004
 21
17.56250000000001
 31
0.0
  0
SPLINE
  5
76E4
330
76DB
100
AcDbEntity
  8
0
100
AcDbSpline
210
0.0
220
0.0
230
1.0
 70
     8
 71
     3
 72
    18
 73
    14
 74
     0
 42
0.000000001
 43
0.0000000001
 40
0.0
 40
0.0
 40
0.0
 40
0.0
 40
0.0045852970590534
 40
0.0045852970590534
 40
0.0065400842522963
 40
0.0065400842522963
 40
0.0081563837475159
 40
0.0081563837475159
 40
0.0096016091892197
 40
0.0096016091892197
 40
0.010822689412125
 40
0.010822689412125
 40
0.0118646463036772
 40
0.0118646463036772
 40
0.0118646463036772
 40
0.0118646463036772
 10
1.999557272916874
 20
14.99999849441624
 30
0.0
 10
1.999513512481326
 20
15.01475837640433
 30
0.0
 10
1.999424163707878
 20
15.02919075200616
 30
0.0
 10
1.999253402761355
 20
15.04675570001694
 30
0.0
 10
1.999196850516275
 20
15.05166987406719
 30
0.0
 10
1.999091149929555
 20
15.05972733083274
 30
0.0
 10
1.999042050576835
 20
15.06305924746804
 30
0.0
 10
1.998954621983162
 20
15.0685191318147
 30
0.0
 10
1.998915397065265
 20
15.07075700162841
 30
0.0
 10
1.998855183922944
 20
15.07401363506455
 30
0.0
 10
1.998832157108727
 20
15.07517781410243
 30
0.0
 10
1.998803973822264
 20
15.07656460255232
 30
0.0
 10
1.998796572755359
 20
15.07690723965446
 30
0.0
 10
1.998796572807148
 20
15.07690723725193
 30
0.0
  0
SPLINE
  5
76E5
330
76DB
100
AcDbEntity
  8
0
100
AcDbSpline
210
0.0
220
0.0
230
1.0
 70
     8
 71
     3
 72
    12
 73
     8
 74
     0
 42
0.000000001
 43
0.0000000001
 40
0.0059632887896154
 40
0.0059632887896154
 40
0.0059632887896154
 40
0.0059632887896154
 40
0.0066536476482548
 40
0.0066536476482548
 40
0.0086398335368789
 40
0.0086398335368789
 40
0.0087253101749353
 40
0.0087253101749353
 40
0.0087253101749353
 40
0.0087253101749353
 10
1.999420479339237
 20
15.02765535993847
 30
0.0
 10
1.999406073966368
 20
15.02827988266929
 30
0.0
 10
1.999393029045243
 20
15.02883646320646
 30
0.0
 10
1.999348675519255
 20
15.03070958021258
 30
0.0
 10
1.999329089541437
 20
15.03149446158455
 30
0.0
 10
1.999327499321771
 20
15.03155858705503
 30
0.0
 10
1.999327466376023
 20
15.0315599142662
 30
0.0
 10
1.999327466390134
 20
15.03155991369775
 30
0.0
  0
SPLINE
  5
76E6
330
76DB
100
AcDbEntity
  8
0
100
AcDbSpline
210
0.0
220
0.0
230
1.0
 70
     8
 71
     3
 72
    32
 73
    28
 74
     0
 42
0.000000001
 43
0.0000000001
 40
0.0044273794767794
 40
0.0044273794767794
 40
0.0044273794767794
 40
0.0044273794767794
 40
0.0070673973337186
 40
0.0070673973337186
 40
0.0097303217334248
 40
0.0097303217334248
 40
0.0113867433973761
 40
0.0113867433973761
 40
0.0131313888571321
 40
0.0131313888571321
 40
0.0155637091313771
 40
0.0155637091313771
 40
0.0212053482982223
 40
0.0212053482982223
 40
0.0381196950680626
 40
0.0381196950680626
 40
0.0891493965830969
 40
0.0891493965830969
 40
0.1164044165280199
 40
0.1164044165280199
 40
0.1533848181981245
 40
0.1533848181981245
 40
0.18698629591542
 40
0.18698629591542
 40
0.2293223813073093
 40
0.2293223813073093
 40
0.2446903970722259
 40
0.2446903970722259
 40
0.2446903970722259
 40
0.2446903970722259
 10
1.99945304773695
 20
15.02279541899514
 30
0.0
 10
1.999344030427342
 20
15.02689134400141
 30
0.0
 10
1.999234209887659
 20
15.03077854344154
 30
0.0
 10
1.99898195820892
 20
15.0391940405947
 30
0.0
 10
1.998837948641704
 20
15.04380863797232
 30
0.0
 10
1.998501707632272
 20
15.05367318601308
 30
0.0
 10
1.998344214526949
 20
15.05811419088654
 30
0.0
 10
1.997972209229703
 20
15.0679864172792
 30
0.0
 10
1.9977536139753
 20
15.07349149181172
 30
0.0
 10
1.997190390130454
 20
15.08684393582829
 30
0.0
 10
1.996826621591033
 20
15.09485302663752
 30
0.0
 10
1.995525606128159
 20
15.12144474429367
 30
0.0
 10
1.994458437625045
 20
15.14020120808108
 30
0.0
 10
1.989568412718814
 20
15.21499817853589
 30
0.0
 10
1.984487682052875
 20
15.27097401515904
 30
0.0
 10
1.957792180790331
 20
15.49421667113142
 30
0.0
 10
1.92308494415448
 20
15.66277078315297
 30
0.0
 10
1.836500244999723
 20
15.90878102731167
 30
0.0
 10
1.799734604490233
 20
15.99266080313608
 30
0.0
 10
1.698969808006427
 20
16.17634684273489
 30
0.0
 10
1.628283816591727
 20
16.27300714390514
 30
0.0
 10
1.483809900340957
 20
16.42613965915692
 30
0.0
 10
1.409903626295401
 20
16.48743021799788
 30
0.0
 10
1.242072317788231
 20
16.60220111841589
 30
0.0
 10
1.146007575704672
 20
16.65141561424566
 30
0.0
 10
1.013496694578657
 20
16.70647318942609
 30
0.0
 10
0.9779688327337012
 20
16.71998436987666
 30
0.0
 10
0.9420912521259964
 20
16.73259712963916
 30
0.0
  0
LINE
  5
76E7
330
76DB
100
AcDbEntity
  8
0
100
AcDbLine
 10
2.000000000000013
 20
2.000000000000003
 30
0.0
 11
2.000000000000013
 21
15.0
 31
0.0
  0
LINE
  5
76E8
330
76DB
100
AcDbEntity
  8
0
100
AcDbLine
 10
2.000000000000077
 20
47.99999999999998
 30
0.0
 11
2.000000000000004
 21
17.56250000000001
 31
0.0
  0
LINE
  5
76E9
330
76DB
100
AcDbEntity
  8
0
100
AcDbLine
 10
0.0
 20
47.99999999999998
 30
0.0
 11
2.000000000000077
 21
47.99999999999998
 31
0.0
  0
LINE
  5
76EA
330
76DB
100
AcDbEntity
  8
0
100
AcDbLine
 10
0.0
 20
17.56250000000002
 30
0.0
 11
0.0
 21
47.99999999999998
 31
0.0
  0
LINE
  5
76EB
330
76DB
100
AcDbEntity
  8
0
100
AcDbLine
 10
86.00000000000003
 20
15.0
 30
0.0
 11
46.00000000000003
 21
47.99999999999998
 31
0.0
  0
LINE
  5
76EC
330
76DB
100
AcDbEntity
  8
0
100
AcDbLine
 10
46.00000000000003
 20
47.99999999999998
 30
0.0
 11
46.00000000000001
 21
125.0
 31
0.0
  0
LINE
  5
76ED
330
76DB
100
AcDbEntity
  8
0
100
AcDbLine
 10
2.000000000000077
 20
47.99999999999998
 30
0.0
 11
2.000000000000001
 21
125.0
 31
0.0
  0
LINE
  5
76EE
330
76DB
100
AcDbEntity
  8
0
100
AcDbLine
 10
86.00000000000003
 20
15.0
 30
0.0
 11
86.00000000000001
 21
1.999999999999999
 31
0.0
  0
LINE
  5
76EF
330
76DB
100
AcDbEntity
  8
0
100
AcDbLine
 10
4.000000000000003
 20
125.0
 30
0.0
 11
46.00000000000001
 21
125.0
 31
0.0
  0
LINE
  5
76F0
330
76DB
100
AcDbEntity
  8
0
100
AcDbLine
 10
0.0
 20
125.0
 30
0.0
 11
2.000000000000001
 21
125.0
 31
0.0
  0
LINE
  5
76F1
330
76DB
100
AcDbEntity
  8
0
100
AcDbLine
 10
0.0
 20
47.99999999999998
 30
0.0
 11
0.0
 21
125.0
 31
0.0
  0
LINE
  5
76F2
330
76DB
100
AcDbEntity
  8
0
100
AcDbLine
 10
2.000000000000007
 20
125.0
 30
0.0
 11
4.000000000000003
 21
125.0
 31
0.0
  0
CIRCLE
  5
76F3
330
76DB
100
AcDbEntity
  8
0
100
AcDbCircle
 10
38.50000000000001
 20
39.99999999999996
 30
0.0
 40
2.5
  0
CIRCLE
  5
76F4
330
76DB
100
AcDbEntity
  8
0
100
AcDbCircle
 10
38.50000000000001
 20
59.99999999999996
 30
0.0
 40
2.5
  0
CIRCLE
  5
76F5
330
76DB
100
AcDbEntity
  8
0
100
AcDbCircle
 10
38.50000000000001
 20
79.99999999999997
 30
0.0
 40
2.5
  0
CIRCLE
  5
76F6
330
76DB
100
AcDbEntity
  8
0
100
AcDbCircle
 10
38.50000000000001
 20
99.99999999999998
 30
0.0
 40
2.5
  0
CIRCLE
  5
76F7
330
76DB
100
AcDbEntity
  8
0
100
AcDbCircle
 10
38.50000000000001
 20
119.9999999999999
 30
0.0
 40
2.5
  0
SPLINE
  5
76F8
330
76DB
100
AcDbEntity
  8
0
100
AcDbSpline
210
0.0
220
0.0
230
1.0
 70
     8
 71
     3
 72
     8
 73
     4
 74
     0
 42
0.000000001
 43
0.0000000001
 40
0.0
 40
0.0
 40
0.0
 40
0.0
 40
0.0024158825245659
 40
0.0024158825245659
 40
0.0024158825245659
 40
0.0024158825245659
 10
1.999557272916874
 20
14.99999849441624
 30
0.0
 10
1.999534216597916
 20
15.00777512055418
 30
0.0
 10
1.999499214249904
 20
15.01546438737064
 30
0.0
 10
1.999453047736905
 20
15.02279541899612
 30
0.0
  0
ENDBLK
  5
76DD
330
76DB
100
AcDbEntity
  8
0
100
AcDbBlockEnd
  0
BLOCK
  5
76FA
330
76F9
100
AcDbEntity
  8
0
100
AcDbBlockBegin
  2
SAE300_50_2-Right
 70
     0
 10
0.0
 20
0.0
 30
0.0
  3
SAE300_50_2-Right
  1

  0
SPLINE
  5
76FC
330
76F9
100
AcDbEntity
  8
0
100
AcDbSpline
210
0.0
220
0.0
230
1.0
 70
     8
 71
     3
 72
    14
 73
    10
 74
     0
 42
0.000000001
 43
0.0000000001
 40
0.0
 40
0.0
 40
0.0
 40
0.0
 40
0.3435149790888484
 40
0.3435149790888484
 40
0.3435149790888484
 40
0.7569946960383361
 40
0.7569946960383361
 40
0.7569946960383361
 40
1.0
 40
1.0
 40
1.0
 40
1.0
 10
-2.000000000000008
 20
17.56250000000001
 30
0.0
 10
-2.000036879683416
 20
17.30249600250133
 30
0.0
 10
-1.99683399967494
 20
17.07529385309501
 30
0.0
 10
-1.998675888895958
 20
16.8440818254127
 30
0.0
 10
-2.000892921282082
 20
16.56577814265925
 30
0.0
 10
-2.001068771447641
 20
16.27139347196551
 30
0.0
 10
-2.001123144171222
 20
15.85792543824352
 30
0.0
 10
-2.001155099451444
 20
15.61492700060718
 30
0.0
 10
-2.000250547725926
 20
15.3582273045798
 30
0.0
 10
-1.999999999992541
 20
15.00000000165286
 30
0.0
  0
SPLINE
  5
76FD
330
76F9
100
AcDbEntity
  8
0
100
AcDbSpline
210
0.0
220
0.0
230
1.0
 70
     8
 71
     3
 72
    14
 73
    10
 74
     0
 42
0.000000001
 43
0.0000000001
 40
-0.4813026533006051
 40
-0.4813026533006051
 40
-0.4813026533006051
 40
-0.4813026533006051
 40
-0.3760960081035631
 40
-0.3760960081035631
 40
-0.3760960081035631
 40
-0.0765284972713521
 40
-0.0765284972713521
 40
-0.0765284972713521
 40
0.0
 40
0.0
 40
0.0
 40
0.0
 10
-0.9454120927539989
 20
16.73176011522147
 30
0.0
 10
-0.8408297880074123
 20
16.76867618607879
 30
0.0
 10
-0.7371129357670199
 20
16.80054090482844
 30
0.0
 10
-0.638861406450987
 20
16.8342366632075
 30
0.0
 10
-0.3590980320221488
 20
16.93018264118553
 30
0.0
 10
-0.1217220476640936
 20
17.04001612967091
 30
0.0
 10
-0.0342615816174917
 20
17.31443386954853
 30
0.0
 10
-0.011918644565992
 20
17.38453752397719
 30
0.0
 10
-0.0000045452574053
 20
17.46769665103961
 30
0.0
 10
-0.0000000001152104
 20
17.56250000004009
 30
0.0
  0
LINE
  5
76FE
330
76F9
100
AcDbEntity
  8
0
100
AcDbLine
 10
-2.000000000000004
 20
17.56250000000001
 30
0.0
 11
0.0
 21
17.56250000000001
 31
0.0
  0
SPLINE
  5
76FF
330
76F9
100
AcDbEntity
  8
0
100
AcDbSpline
210
0.0
220
0.0
230
1.0
 70
     8
 71
     3
 72
    16
 73
    12
 74
     0
 42
0.000000001
 43
0.0000000001
 40
0.0119734590529313
 40
0.0119734590529313
 40
0.0119734590529313
 40
0.0119734590529313
 40
0.0132060105656344
 40
0.0132060105656344
 40
0.0147875485911532
 40
0.0147875485911532
 40
0.0179851231620869
 40
0.0179851231620869
 40
0.0208164923286659
 40
0.0208164923286659
 40
0.0238392903313126
 40
0.0238392903313126
 40
0.0238392903313126
 40
0.0238392903313126
 10
-1.998796572807091
 20
15.07690723725456
 30
0.0
 10
-1.998796572804498
 20
15.07690723737492
 30
0.0
 10
-1.99880685980885
 20
15.07643140310669
 30
0.0
 10
-1.99884722875148
 20
15.07441930803047
 30
0.0
 10
-1.998882256898897
 20
15.07260732535468
 30
0.0
 10
-1.999004373872902
 20
15.06565815131609
 30
0.0
 10
-1.999108337846386
 20
15.05891402488271
 30
0.0
 10
-1.999281967769146
 20
15.04429668593985
 30
0.0
 10
-1.999357294645356
 20
15.03644011293554
 30
0.0
 10
-1.999480931971465
 20
15.01925573226704
 30
0.0
 10
-1.999528424413612
 20
15.00972875642943
 30
0.0
 10
-1.999557272916875
 20
14.99999849441625
 30
0.0
  0
SPLINE
  5
7700
330
76F9
100
AcDbEntity
  8
0
100
AcDbSpline
210
0.0
220
0.0
230
1.0
 70
     8
 71
     3
 72
    12
 73
     8
 74
     0
 42
0.000000001
 43
0.0000000001
 40
0.0086744467564777
 40
0.0086744467564777
 40
0.0086744467564777
 40
0.0086744467564777
 40
0.0108228443960537
 40
0.0108228443960537
 40
0.0138868168071045
 40
0.0138868168071045
 40
0.017394736464808
 40
0.017394736464808
 40
0.017394736464808
 40
0.017394736464808
 10
-1.999327466390009
 20
15.03155991370275
 30
0.0
 10
-1.99932746638662
 20
15.03155991383934
 30
0.0
 10
-1.999348975063864
 20
15.03070111373522
 30
0.0
 10
-1.999438185166111
 20
15.02692287625371
 30
0.0
 10
-1.999521954463167
 20
15.02325289188059
 30
0.0
 10
-1.999719010469833
 20
15.01347881579694
 30
0.0
 10
-1.999835261352893
 20
15.00705648459333
 30
0.0
 10
-1.999939277216387
 20
14.99999890660716
 30
0.0
  0
SPLINE
  5
7701
330
76F9
100
AcDbEntity
  8
0
100
AcDbSpline
210
0.0
220
0.0
230
1.0
 70
     8
 71
     3
 72
    28
 73
    24
 74
     0
 42
0.000000001
 43
0.0000000001
 40
0.0
 40
0.0
 40
0.0
 40
0.0
 40
0.0650016965073909
 40
0.0650016965073909
 40
0.1023228294596922
 40
0.1023228294596922
 40
0.1414747326704151
 40
0.1414747326704151
 40
0.1748987385445711
 40
0.1748987385445711
 40
0.216922470678454
 40
0.216922470678454
 40
0.2285442957629291
 40
0.2285442957629291
 40
0.2315623554995502
 40
0.2315623554995502
 40
0.2331850669706861
 40
0.2331850669706861
 40
0.2348181536419609
 40
0.2348181536419609
 40
0.2381012825548196
 40
0.2381012825548196
 40
0.2400473958334469
 40
0.2400473958334469
 40
0.2400473958334469
 40
0.2400473958334469
 10
-0.9420912521260548
 20
16.73259712963914
 30
0.0
 10
-1.093841721526626
 20
16.67924926777173
 30
0.0
 10
-1.242353898735619
 20
16.60988799342314
 30
0.0
 10
-1.466451771014556
 20
16.44171617371063
 30
0.0
 10
-1.547407943207296
 20
16.36594146110051
 30
0.0
 10
-1.69544655466461
 20
16.18241413824835
 30
0.0
 10
-1.763061289552788
 20
16.07040741115838
 30
0.0
 10
-1.86049214963516
 20
15.85077461309205
 30
0.0
 10
-1.895809632777623
 20
15.74321521028604
 30
0.0
 10
-1.95590990459871
 20
15.49957396120156
 30
0.0
 10
-1.97660478986055
 20
15.36178356810429
 30
0.0
 10
-1.991708370045894
 20
15.1843195484337
 30
0.0
 10
-1.994292668286907
 20
15.14560068188416
 30
0.0
 10
-1.996716767737049
 20
15.09729833474192
 30
0.0
 10
-1.997174214293485
 20
15.0873086217638
 30
0.0
 10
-1.997791798966563
 20
15.07253299448224
 30
0.0
 10
-1.99799285983246
 20
15.06744444987858
 30
0.0
 10
-1.998347801857067
 20
15.05801266119628
 30
0.0
 10
-1.998502717456372
 20
15.05364292558948
 30
0.0
 10
-1.998885695993918
 20
15.04240910921462
 30
0.0
 10
-1.999047032383308
 20
15.03711943350894
 30
0.0
 10
-1.999281891493124
 20
15.02906885816666
 30
0.0
 10
-1.99936858975919
 20
15.02595505250465
 30
0.0
 10
-1.999453182830624
 20
15.02276725159183
 30
0.0
  0
LINE
  5
7702
330
76F9
100
AcDbEntity
  8
0
100
AcDbLine
 10
-2.000000000000006
 20
-2.0
 30
0.0
 11
-86.00000000000001
 21
-2.0
 31
0.0
  0
LINE
  5
7703
330
76F9
100
AcDbEntity
  8
0
100
AcDbLine
 10
-2.000000000000013
 20
2.000000000000003
 30
0.0
 11
-2.000000000000013
 21
15.0
 31
0.0
  0
LINE
  5
7704
330
76F9
100
AcDbEntity
  8
0
100
AcDbLine
 10
-2.000000000000013
 20
2.000000000000004
 30
0.0
 11
-2.000000000000006
 21
-1.999999999999999
 31
0.0
  0
LINE
  5
7705
330
76F9
100
AcDbEntity
  8
0
100
AcDbLine
 10
-86.00000000000001
 20
-1.999999999999999
 30
0.0
 11
-86.00000000000001
 21
2.0
 31
0.0
  0
LINE
  5
7706
330
76F9
100
AcDbEntity
  8
0
100
AcDbLine
 10
0.0
 20
47.99999999999998
 30
0.0
 11
0.0
 21
17.56250000000001
 31
0.0
  0
LINE
  5
7707
330
76F9
100
AcDbEntity
  8
0
100
AcDbLine
 10
-2.000000000000077
 20
47.99999999999998
 30
0.0
 11
0.0
 21
47.99999999999998
 31
0.0
  0
LINE
  5
7708
330
76F9
100
AcDbEntity
  8
0
100
AcDbLine
 10
-2.000000000000004
 20
17.56250000000001
 30
0.0
 11
-2.000000000000077
 21
47.99999999999998
 31
0.0
  0
LINE
  5
7709
330
76F9
100
AcDbEntity
  8
0
100
AcDbLine
 10
0.0
 20
47.99999999999998
 30
0.0
 11
0.0
 21
125.0
 31
0.0
  0
CIRCLE
  5
770A
330
76F9
100
AcDbEntity
  8
0
100
AcDbCircle
 10
-38.50000000000002
 20
110.0
 30
0.0
 40
2.5
  0
LINE
  5
770B
330
76F9
100
AcDbEntity
  8
0
100
AcDbLine
 10
-46.00000000000003
 20
47.99999999999998
 30
0.0
 11
-86.00000000000003
 21
15.0
 31
0.0
  0
LINE
  5
770C
330
76F9
100
AcDbEntity
  8
0
100
AcDbLine
 10
-46.00000000000001
 20
125.0
 30
0.0
 11
-46.00000000000003
 21
47.99999999999998
 31
0.0
  0
LINE
  5
770D
330
76F9
100
AcDbEntity
  8
0
100
AcDbLine
 10
-86.00000000000003
 20
15.0
 30
0.0
 11
-86.00000000000001
 21
1.999999999999999
 31
0.0
  0
LINE
  5
770E
330
76F9
100
AcDbEntity
  8
0
100
AcDbLine
 10
-4.000000000000003
 20
125.0
 30
0.0
 11
-46.00000000000001
 21
125.0
 31
0.0
  0
LINE
  5
770F
330
76F9
100
AcDbEntity
  8
0
100
AcDbLine
 10
-2.000000000000007
 20
125.0
 30
0.0
 11
-4.000000000000003
 21
125.0
 31
0.0
  0
LINE
  5
7710
330
76F9
100
AcDbEntity
  8
0
100
AcDbLine
 10
0.0
 20
125.0
 30
0.0
 11
-2.000000000000001
 21
125.0
 31
0.0
  0
LINE
  5
7711
330
76F9
100
AcDbEntity
  8
0
100
AcDbLine
 10
-2.000000000000077
 20
47.99999999999998
 30
0.0
 11
-2.000000000000001
 21
125.0
 31
0.0
  0
CIRCLE
  5
7712
330
76F9
100
AcDbEntity
  8
0
100
AcDbCircle
 10
-38.50000000000002
 20
29.99999999999998
 30
0.0
 40
2.5
  0
CIRCLE
  5
7713
330
76F9
100
AcDbEntity
  8
0
100
AcDbCircle
 10
-38.50000000000002
 20
49.99999999999999
 30
0.0
 40
2.5
  0
CIRCLE
  5
7714
330
76F9
100
AcDbEntity
  8
0
100
AcDbCircle
 10
-38.50000000000002
 20
69.99999999999999
 30
0.0
 40
2.5
  0
CIRCLE
  5
7715
330
76F9
100
AcDbEntity
  8
0
100
AcDbCircle
 10
-38.50000000000002
 20
89.99999999999998
 30
0.0
 40
2.5
  0
ENDBLK
  5
76FB
330
76F9
100
AcDbEntity
  8
0
100
AcDbBlockEnd
  0
BLOCK
  5
7717
330
7716
100
AcDbEntity
  8
0
100
AcDbBlockBegin
  2
SAE300_50_2-Top
 70
     0
 10
0.0
 20
0.0
 30
0.0
  3
SAE300_50_2-Top
  1

  0
LINE
  5
7719
330
7716
100
AcDbEntity
  8
0
100
AcDbLine
 10
25.00000000000001
 20
-2.000000000000009
 30
0.0
 11
25.00000000000001
 21
-2.069004766158101
 31
0.0
  0
SPLINE
  5
771A
330
7716
100
AcDbEntity
  8
0
100
AcDbSpline
210
0.0
220
0.0
230
1.0
 70
     8
 71
     3
 72
    11
 73
     7
 74
     0
 42
0.000000001
 43
0.0000000001
 40
-1.0
 40
-1.0
 40
-1.0
 40
-1.0
 40
-0.7994286890812475
 40
-0.7994286890812475
 40
-0.7994286890812475
 40
-0.6533573777220845
 40
-0.6533573777220845
 40
-0.6533573777220845
 40
-0.6533573777220845
 10
25.00000000000002
 20
-1.999999999999995
 30
0.0
 10
24.9999996127032
 20
-1.999093543231066
 30
0.0
 10
25.1263315059962
 20
-1.919863896640947
 30
0.0
 10
25.33607694561047
 20
-1.790687786218504
 30
0.0
 10
25.48882955651837
 20
-1.696611899895331
 30
0.0
 10
25.68837056419245
 20
-1.577391377858504
 30
0.0
 10
25.91982716790663
 20
-1.445337717162577
 30
0.0
  0
SPLINE
  5
771B
330
7716
100
AcDbEntity
  8
0
100
AcDbSpline
210
0.0
220
0.0
230
1.0
 70
     8
 71
     3
 72
    24
 73
    20
 74
     0
 42
0.000000001
 43
0.0000000001
 40
0.0
 40
0.0
 40
0.0
 40
0.0
 40
0.0070452398543801
 40
0.0070452398543801
 40
0.0166405949208149
 40
0.0166405949208149
 40
0.0367140942526894
 40
0.0367140942526894
 40
0.0488284899631916
 40
0.0488284899631916
 40
0.0619943401931351
 40
0.0619943401931351
 40
0.0706188779319251
 40
0.0706188779319251
 40
0.0776906910594658
 40
0.0776906910594658
 40
0.083206531636081
 40
0.083206531636081
 40
0.0851314111873615
 40
0.0851314111873615
 40
0.0851314111873615
 40
0.0851314111873615
 10
29.56202985674483
 20
-2.000020061973676
 30
0.0
 10
29.54510572274508
 20
-2.000020928437343
 30
0.0
 10
29.52555210340852
 20
-2.00002813429159
 30
0.0
 10
29.47775545398381
 20
-2.000061132070842
 30
0.0
 10
29.44841962903366
 20
-2.000093689688092
 30
0.0
 10
29.35657224061016
 20
-2.000268440250027
 30
0.0
 10
29.29198494481536
 20
-2.000513808507546
 30
0.0
 10
29.19633422820279
 20
-2.000879055387541
 30
0.0
 10
29.16273081684794
 20
-2.000996414974151
 30
0.0
 10
29.09182112290169
 20
-2.001409895074581
 30
0.0
 10
29.05225815320083
 20
-2.001735751882186
 30
0.0
 10
28.98348581662935
 20
-2.002882807505421
 30
0.0
 10
28.95529088140397
 20
-2.003502366161387
 30
0.0
 10
28.90345404938291
 20
-2.005128901285085
 30
0.0
 10
28.8796744737828
 20
-2.006056558882388
 30
0.0
 10
28.83787606771966
 20
-2.008135314662197
 30
0.0
 10
28.81951337912119
 20
-2.009206873088675
 30
0.0
 10
28.79591310639502
 20
-2.010819410460756
 30
0.0
 10
28.78986947333356
 20
-2.011255025614281
 30
0.0
 10
28.78400446670401
 20
-2.011698438792847
 30
0.0
  0
SPLINE
  5
771C
330
7716
100
AcDbEntity
  8
0
100
AcDbSpline
210
0.0
220
0.0
230
1.0
 70
     8
 71
     3
 72
    10
 73
     6
 74
     0
 42
0.000000001
 43
0.0000000001
 40
0.0662129554628028
 40
0.0662129554628028
 40
0.0662129554628028
 40
0.0662129554628028
 40
0.0674413381114768
 40
0.0674413381114768
 40
0.0706012009771657
 40
0.0706012009771657
 40
0.0706012009771657
 40
0.0706012009771657
 10
27.00189270278972
 20
-3.913021602234251
 30
0.0
 10
27.00179633192374
 20
-3.916137797508642
 30
0.0
 10
27.00170141113557
 20
-3.919304413944744
 30
0.0
 10
27.00137023795211
 20
-3.930825838607096
 30
0.0
 10
27.0011439412111
 20
-3.939519344805632
 30
0.0
 10
27.00093640231722
 20
-3.948477388680664
 30
0.0
  0
SPLINE
  5
771D
330
7716
100
AcDbEntity
  8
0
100
AcDbSpline
210
0.0
220
0.0
230
1.0
 70
     8
 71
     3
 72
    16
 73
    12
 74
     0
 42
0.000000001
 43
0.0000000001
 40
0.0298160538780856
 40
0.0298160538780856
 40
0.0298160538780856
 40
0.0298160538780856
 40
0.0305405477203526
 40
0.0305405477203526
 40
0.0359537494560723
 40
0.0359537494560723
 40
0.0382248945888476
 40
0.0382248945888476
 40
0.0413340175708262
 40
0.0413340175708262
 40
0.0433661963677782
 40
0.0433661963677782
 40
0.0433661963677782
 40
0.0433661963677782
 10
27.00114771962361
 20
-3.937776707722747
 30
0.0
 10
27.00114771962508
 20
-3.937776707656897
 30
0.0
 10
27.00114687919761
 20
-3.937814366113602
 30
0.0
 10
27.00113196491245
 20
-3.938489912030077
 30
0.0
 10
27.00105779565499
 20
-3.941612112500058
 30
0.0
 10
27.00087662543261
 20
-3.951851162985183
 30
0.0
 10
27.00081397971063
 20
-3.955643184506545
 30
0.0
 10
27.0006607037018
 20
-3.96644415968619
 30
0.0
 10
27.00056980542484
 20
-3.974140929946234
 30
0.0
 10
27.00045087419502
 20
-3.988060750088129
 30
0.0
 10
27.00041102197446
 20
-3.993926924169035
 30
0.0
 10
27.00037993279673
 20
-4.000001918246692
 30
0.0
  0
SPLINE
  5
771E
330
7716
100
AcDbEntity
  8
0
100
AcDbSpline
210
0.0
220
0.0
230
1.0
 70
     8
 71
     3
 72
    34
 73
    30
 74
     0
 42
0.000000001
 43
0.0000000001
 40
0.0039758408616058
 40
0.0039758408616058
 40
0.0039758408616058
 40
0.0039758408616058
 40
0.0043284518017166
 40
0.0043284518017166
 40
0.0052172287267891
 40
0.0052172287267891
 40
0.0058541032858753
 40
0.0058541032858753
 40
0.0071468167890965
 40
0.0071468167890965
 40
0.0096702989245081
 40
0.0096702989245081
 40
0.0170746892204624
 40
0.0170746892204624
 40
0.0392881564400602
 40
0.0392881564400602
 40
0.1059230615780043
 40
0.1059230615780043
 40
0.1621014185688921
 40
0.1621014185688921
 40
0.1901091063054375
 40
0.1901091063054375
 40
0.2042724722548181
 40
0.2042724722548181
 40
0.2117849858066898
 40
0.2117849858066898
 40
0.2158306255143449
 40
0.2158306255143449
 40
0.2200550032061927
 40
0.2200550032061927
 40
0.2200550032061927
 40
0.2200550032061927
 10
24.99996703331558
 20
-3.998206082993141
 30
0.0
 10
24.9999647134214
 20
-3.998072479769835
 30
0.0
 10
24.99996206869305
 20
-3.997920143741957
 30
0.0
 10
24.99995127526096
 20
-3.997298312217426
 30
0.0
 10
24.9999408744503
 20
-3.9966992297745
 30
0.0
 10
24.99990879434348
 20
-3.994846384720008
 30
0.0
 10
24.99989026122733
 20
-3.993774987182883
 30
0.0
 10
24.99981962766935
 20
-3.98967840147459
 30
0.0
 10
24.99975470362221
 20
-3.985894053982934
 30
0.0
 10
24.99956625057175
 20
-3.974812083993631
 30
0.0
 10
24.99943653286486
 20
-3.967069912142911
 30
0.0
 10
24.9989375178006
 20
-3.936782340518285
 30
0.0
 10
24.99857954897827
 20
-3.913959837691201
 30
0.0
 10
24.99722784224297
 20
-3.822979281230782
 30
0.0
 10
24.99638960020864
 20
-3.755037111994765
 30
0.0
 10
24.99375589574512
 20
-3.485827678902063
 30
0.0
 10
24.99333854835715
 20
-3.287664726494504
 30
0.0
 10
24.99393916763018
 20
-2.909608080489029
 30
0.0
 10
24.9948329404824
 20
-2.731512377779639
 30
0.0
 10
24.99665976651295
 20
-2.470364940717939
 30
0.0
 10
24.99731388633437
 20
-2.385186406494907
 30
0.0
 10
24.99853948975945
 20
-2.256565866807806
 30
0.0
 10
24.99900450142011
 20
-2.212639978855719
 30
0.0
 10
24.99942674649108
 20
-2.151473636822839
 30
0.0
 10
24.99951784749626
 20
-2.131398703453096
 30
0.0
 10
24.99958032659438
 20
-2.104490721872955
 30
0.0
 10
24.99958887420363
 20
-2.095739111861095
 30
0.0
 10
24.99958989785258
 20
-2.080205771018859
 30
0.0
 10
24.99958135538272
 20
-2.073394900942466
 30
0.0
 10
24.99957228829778
 20
-2.069004766158101
 30
0.0
  0
SPLINE
  5
771F
330
7716
100
AcDbEntity
  8
0
100
AcDbSpline
210
0.0
220
0.0
230
1.0
 70
     8
 71
     3
 72
    12
 73
     8
 74
     0
 42
0.000000001
 43
0.0000000001
 40
0.0
 40
0.0
 40
0.0
 40
0.0
 40
0.007383708204244
 40
0.007383708204244
 40
0.0094968776857734
 40
0.0094968776857734
 40
0.0106851798948604
 40
0.0106851798948604
 40
0.0106851798948604
 40
0.0106851798948604
 10
24.99996052260955
 20
-3.999985103458846
 30
0.0
 10
25.00000146855733
 20
-3.988676024696919
 30
0.0
 10
25.00005745707825
 20
-3.97674001335504
 30
0.0
 10
25.00011516119727
 20
-3.966761709152697
 30
0.0
 10
25.00012635319182
 20
-3.964941242430051
 30
0.0
 10
25.00013635879029
 20
-3.963322951694027
 30
0.0
 10
25.00013843235795
 20
-3.962989226421091
 30
0.0
 10
25.00013843227589
 20
-3.962989239746211
 30
0.0
  0
LINE
  5
7720
330
7716
100
AcDbEntity
  8
0
100
AcDbLine
 10
-25.00000000000001
 20
-2.000000000000009
 30
0.0
 11
-25.00000000000001
 21
-2.069004766157564
 31
0.0
  0
SPLINE
  5
7721
330
7716
100
AcDbEntity
  8
0
100
AcDbSpline
210
0.0
220
0.0
230
1.0
 70
     8
 71
     3
 72
    11
 73
     7
 74
     0
 42
0.000000001
 43
0.0000000001
 40
-1.0
 40
-1.0
 40
-1.0
 40
-1.0
 40
-0.7994286890812475
 40
-0.7994286890812475
 40
-0.7994286890812475
 40
-0.6533573777220845
 40
-0.6533573777220845
 40
-0.6533573777220845
 40
-0.6533573777220845
 10
-25.00000000000002
 20
-1.999999999999995
 30
0.0
 10
-24.9999996127032
 20
-1.999093543231066
 30
0.0
 10
-25.1263315059962
 20
-1.919863896640947
 30
0.0
 10
-25.33607694561047
 20
-1.790687786218504
 30
0.0
 10
-25.48882955651837
 20
-1.696611899895331
 30
0.0
 10
-25.68837056419245
 20
-1.577391377858504
 30
0.0
 10
-25.91982716790663
 20
-1.445337717162577
 30
0.0
  0
SPLINE
  5
7722
330
7716
100
AcDbEntity
  8
0
100
AcDbSpline
210
0.0
220
0.0
230
1.0
 70
     8
 71
     3
 72
    38
 73
    34
 74
     0
 42
0.000000001
 43
0.0000000001
 40
0.0
 40
0.0
 40
0.0
 40
0.0
 40
0.0038040598020416
 40
0.0038040598020416
 40
0.0084789254202065
 40
0.0084789254202065
 40
0.015805447824377
 40
0.015805447824377
 40
0.0260000339610505
 40
0.0260000339610505
 40
0.0495206343522465
 40
0.0495206343522465
 40
0.120110394111403
 40
0.120110394111403
 40
0.1686209653744771
 40
0.1686209653744771
 40
0.1929653960261327
 40
0.1929653960261327
 40
0.2050564616574332
 40
0.2050564616574332
 40
0.2110709531650462
 40
0.2110709531650462
 40
0.2126094599583844
 40
0.2126094599583844
 40
0.2137665049942043
 40
0.2137665049942043
 40
0.2142206951636745
 40
0.2142206951636745
 40
0.214972296273294
 40
0.214972296273294
 40
0.2156290212618324
 40
0.2156290212618324
 40
0.2160937321804121
 40
0.2160937321804121
 40
0.2160937321804121
 40
0.2160937321804121
 10
-24.99957228829779
 20
-2.069004766157564
 30
0.0
 10
-24.99958045322429
 20
-2.07295809052366
 30
0.0
 10
-24.99958825487932
 20
-2.078881092813916
 30
0.0
 10
-24.99959053786105
 20
-2.09428544513658
 30
0.0
 10
-24.99958182785656
 20
-2.104402911793456
 30
0.0
 10
-24.9995128732438
 20
-2.132562809672944
 30
0.0
 10
-24.99942216624678
 20
-2.152170789648439
 30
0.0
 10
-24.99908018252336
 20
-2.201629641889751
 30
0.0
 10
-24.99878019265903
 20
-2.232656804567715
 30
0.0
 10
-24.9977792758497
 20
-2.335149022707029
 30
0.0
 10
-24.99716324832063
 20
-2.406783033809362
 30
0.0
 10
-24.99498744722448
 20
-2.695965692844816
 30
0.0
 10
-24.99378539087098
 20
-2.921302523083184
 30
0.0
 10
-24.99346666387034
 20
-3.286246246951713
 30
0.0
 10
-24.99376363257827
 20
-3.431552031521981
 30
0.0
 10
-24.99532428581402
 20
-3.650952816713417
 30
0.0
 10
-24.99603927351814
 20
-3.724616111781671
 30
0.0
 10
-24.99744147466647
 20
-3.83600959495651
 30
0.0
 10
-24.99796050842828
 20
-3.873144776556102
 30
0.0
 10
-24.99881242354205
 20
-3.928769411061737
 30
0.0
 10
-24.99910880773191
 20
-3.947312180210581
 30
0.0
 10
-24.99949016238077
 20
-3.970256463545343
 30
0.0
 10
-24.99956839696722
 20
-3.974916814527508
 30
0.0
 10
-24.99970311280022
 20
-3.982867825454109
 30
0.0
 10
-24.99976115595558
 20
-3.986267909971335
 30
0.0
 10
-24.99983236506484
 20
-3.990415381052251
 30
0.0
 10
-24.9998513180432
 20
-3.991516436279773
 30
0.0
 10
-24.9998952329334
 20
-3.994063222024901
 30
0.0
 10
-24.99991568181567
 20
-3.995244497448082
 30
0.0
 10
-24.99994167161202
 20
-3.996744783081052
 30
0.0
 10
-24.99994973816232
 20
-3.997209677116845
 30
0.0
 10
-24.99996047995934
 20
-3.997828644112069
 30
0.0
 10
-24.9999640142266
 20
-3.998032201806951
 30
0.0
 10
-24.9999670333771
 20
-3.998206066376631
 30
0.0
  0
SPLINE
  5
7723
330
7716
100
AcDbEntity
  8
0
100
AcDbSpline
210
0.0
220
0.0
230
1.0
 70
     8
 71
     3
 72
    14
 73
    10
 74
     0
 42
0.000000001
 43
0.0000000001
 40
0.0078284967075998
 40
0.0078284967075998
 40
0.0078284967075998
 40
0.0078284967075998
 40
0.0081754702576933
 40
0.0081754702576933
 40
0.0102323022308044
 40
0.0102323022308044
 40
0.0133243205865108
 40
0.0133243205865108
 40
0.0185174889442719
 40
0.0185174889442719
 40
0.0185174889442719
 40
0.0185174889442719
 10
-25.00013843227589
 20
-3.96298923974525
 30
0.0
 10
-25.00013843227588
 20
-3.962989239745819
 30
0.0
 10
-25.00013825702483
 20
-3.963017667596111
 30
0.0
 10
-25.00013591754642
 20
-3.963395595972404
 30
0.0
 10
-25.00012809275752
 20
-3.964642654689873
 30
0.0
 10
-25.00010165207916
 20
-3.96904645226186
 30
0.0
 10
-25.00007995556419
 20
-3.972835758739829
 30
0.0
 10
-25.00002328167465
 20
-3.983975793908602
 30
0.0
 10
-24.99998932103908
 20
-3.992031112272066
 30
0.0
 10
-24.99996052260956
 20
-3.999985103458846
 30
0.0
  0
SPLINE
  5
7724
330
7716
100
AcDbEntity
  8
0
100
AcDbSpline
210
0.0
220
0.0
230
1.0
 70
     8
 71
     3
 72
    10
 73
     6
 74
     0
 42
0.000000001
 43
0.0000000001
 40
0.0195253794094299
 40
0.0195253794094299
 40
0.0195253794094299
 40
0.0195253794094299
 40
0.0208022966430737
 40
0.0208022966430737
 40
0.0239116363754684
 40
0.0239116363754684
 40
0.0239116363754684
 40
0.0239116363754684
 10
-27.00093548283037
 20
-3.948553504710503
 30
0.0
 10
-27.0010192527775
 20
-3.944937725288589
 30
0.0
 10
-27.00110691300337
 20
-3.941288415983017
 30
0.0
 10
-27.00141418948069
 20
-3.929194122533025
 30
0.0
 10
-27.00164889665013
 20
-3.9209105143399
 30
0.0
 10
-27.00189277597421
 20
-3.91302456676097
 30
0.0
  0
SPLINE
  5
7725
330
7716
100
AcDbEntity
  8
0
100
AcDbSpline
210
0.0
220
0.0
230
1.0
 70
     8
 71
     3
 72
    14
 73
    10
 74
     0
 42
0.000000001
 43
0.0000000001
 40
0.0
 40
0.0
 40
0.0
 40
0.0
 40
0.004262959141761
 40
0.004262959141761
 40
0.0078984681301114
 40
0.0078984681301114
 40
0.0110131179258043
 40
0.0110131179258043
 40
0.0135447396185951
 40
0.0135447396185951
 40
0.0135447396185951
 40
0.0135447396185951
 10
-27.00037993279674
 20
-4.000001918246693
 30
0.0
 10
-27.00044514944726
 20
-3.987258230743373
 30
0.0
 10
-27.00055430094363
 20
-3.975277108855608
 30
0.0
 10
-27.00077809152648
 20
-3.957593797817901
 30
0.0
 10
-27.00088547667005
 20
-3.951225734892092
 30
0.0
 10
-27.0010336057084
 20
-3.943153125307827
 30
0.0
 10
-27.00108435725236
 20
-3.940732005745815
 30
0.0
 10
-27.00113729054041
 20
-3.938236590097731
 30
0.0
 10
-27.00114771962724
 20
-3.937776707560749
 30
0.0
 10
-27.00114771962363
 20
-3.937776707722622
 30
0.0
  0
SPLINE
  5
7726
330
7716
100
AcDbEntity
  8
0
100
AcDbSpline
210
0.0
220
0.0
230
1.0
 70
     8
 71
     3
 72
    22
 73
    18
 74
     0
 42
0.000000001
 43
0.0000000001
 40
0.0478714372283439
 40
0.0478714372283439
 40
0.0478714372283439
 40
0.0478714372283439
 40
0.0509143159315533
 40
0.0509143159315533
 40
0.0563767803257
 40
0.0563767803257
 40
0.0645907840558355
 40
0.0645907840558355
 40
0.0763651691511595
 40
0.0763651691511595
 40
0.0912951856621985
 40
0.0912951856621985
 40
0.1030602334673938
 40
0.1030602334673938
 40
0.1261855897745826
 40
0.1261855897745826
 40
0.1329877986826911
 40
0.1329877986826911
 40
0.1329877986826911
 40
0.1329877986826911
 10
-28.7840060195443
 20
-2.011697685532157
 30
0.0
 10
-28.79325004180093
 20
-2.010998808011547
 30
0.0
 10
-28.80294149058548
 20
-2.010321376285414
 30
0.0
 10
-28.83036210267377
 20
-2.008558782982588
 30
0.0
 10
-28.84861440994243
 20
-2.007560852152292
 30
0.0
 10
-28.89412250011834
 20
-2.005440889662614
 30
0.0
 10
-28.92171315942038
 20
-2.004484871868695
 30
0.0
 10
-28.98716908322878
 20
-2.002725717476701
 30
0.0
 10
-29.02499984789746
 20
-2.002137209318662
 30
0.0
 10
-29.10564424691057
 20
-2.001256390125963
 30
0.0
 10
-29.14602486064399
 20
-2.001083596417144
 30
0.0
 10
-29.22219734686804
 20
-2.000776233594637
 30
0.0
 10
-29.25771658170351
 20
-2.000641943224966
 30
0.0
 10
-29.36567727317252
 20
-2.000249312092969
 30
0.0
 10
-29.44121991927312
 20
-2.000084894496313
 30
0.0
 10
-29.52688938047818
 20
-2.000027671332644
 30
0.0
 10
-29.54568953371322
 20
-2.000020898548015
 30
0.0
 10
-29.56202985674473
 20
-2.000020061973676
 30
0.0
  0
LINE
  5
7727
330
7716
100
AcDbEntity
  8
0
100
AcDbLine
 10
-25.0
 20
-2.000000000000009
 30
0.0
 11
-23.0
 21
-2.000000000000006
 31
0.0
  0
LINE
  5
7728
330
7716
100
AcDbEntity
  8
0
100
AcDbLine
 10
-24.99999999999999
 20
-86.00000000000001
 30
0.0
 11
-22.99999999999999
 21
-86.00000000000001
 31
0.0
  0
LINE
  5
7729
330
7716
100
AcDbEntity
  8
0
100
AcDbLine
 10
23.00000000000001
 20
-2.000000000000006
 30
0.0
 11
-23.00000000000001
 21
-2.000000000000006
 31
0.0
  0
LINE
  5
772A
330
7716
100
AcDbEntity
  8
0
100
AcDbLine
 10
-22.99999999999999
 20
-86.00000000000001
 30
0.0
 11
22.99999999999997
 21
-86.00000000000001
 31
0.0
  0
CIRCLE
  5
772B
330
7716
100
AcDbEntity
  8
0
100
AcDbCircle
 10
0.0
 20
-47.99999999999998
 30
0.0
 40
2.5
  0
CIRCLE
  5
772C
330
7716
100
AcDbEntity
  8
0
100
AcDbCircle
 10
0.0
 20
-67.99999999999998
 30
0.0
 40
2.5
  0
LINE
  5
772D
330
7716
100
AcDbEntity
  8
0
100
AcDbLine
 10
25.0
 20
-2.000000000000009
 30
0.0
 11
23.0
 21
-2.000000000000006
 31
0.0
  0
LINE
  5
772E
330
7716
100
AcDbEntity
  8
0
100
AcDbLine
 10
29.0
 20
0.0
 30
0.0
 11
66.50000000000002
 21
0.0
 31
0.0
  0
ARC
  5
772F
330
7716
100
AcDbEntity
  8
0
100
AcDbCircle
 10
29.0
 20
-4.000000000000004
 30
0.0
 40
3.999999999999999
100
AcDbArc
 50
90.00000000000005
 51
180.0
  0
LINE
  5
7730
330
7716
100
AcDbEntity
  8
0
100
AcDbLine
 10
24.99999999999998
 20
-86.00000000000003
 30
0.0
 11
25.0
 21
-46.00000000000003
 31
0.0
  0
LINE
  5
7731
330
7716
100
AcDbEntity
  8
0
100
AcDbLine
 10
26.99999999999998
 20
-86.00000000000003
 30
0.0
 11
24.99999999999998
 21
-86.00000000000003
 31
0.0
  0
LINE
  5
7732
330
7716
100
AcDbEntity
  8
0
100
AcDbLine
 10
26.99999999999999
 20
-46.00000000000003
 30
0.0
 11
26.99999999999998
 21
-86.00000000000003
 31
0.0
  0
LINE
  5
7733
330
7716
100
AcDbEntity
  8
0
100
AcDbLine
 10
25.0
 20
-46.00000000000001
 30
0.0
 11
26.99999999999999
 21
-46.00000000000001
 31
0.0
  0
LINE
  5
7734
330
7716
100
AcDbEntity
  8
0
100
AcDbLine
 10
27.0
 20
-4.000000000000003
 30
0.0
 11
26.99999999999999
 21
-46.00000000000001
 31
0.0
  0
LINE
  5
7735
330
7716
100
AcDbEntity
  8
0
100
AcDbLine
 10
25.0
 20
-46.00000000000001
 30
0.0
 11
25.0
 21
-4.000000000000003
 31
0.0
  0
LINE
  5
7736
330
7716
100
AcDbEntity
  8
0
100
AcDbLine
 10
24.99999999999999
 20
-86.00000000000001
 30
0.0
 11
22.99999999999999
 21
-86.00000000000001
 31
0.0
  0
ARC
  5
7737
330
7716
100
AcDbEntity
  8
0
100
AcDbCircle
 10
29.0
 20
-4.000000000000004
 30
0.0
 40
1.999999999999997
100
AcDbArc
 50
90.00000000000012
 51
180.0
  0
LINE
  5
7738
330
7716
100
AcDbEntity
  8
0
100
AcDbLine
 10
66.50000000000002
 20
0.0
 30
0.0
 11
66.50000000000002
 21
-2.000000000000001
 31
0.0
  0
LINE
  5
7739
330
7716
100
AcDbEntity
  8
0
100
AcDbLine
 10
66.50000000000002
 20
-2.000000000000001
 30
0.0
 11
29.0
 21
-2.000000000000006
 31
0.0
  0
LINE
  5
773A
330
7716
100
AcDbEntity
  8
0
100
AcDbLine
 10
-66.50000000000002
 20
-2.000000000000001
 30
0.0
 11
-29.0
 21
-2.000000000000006
 31
0.0
  0
LINE
  5
773B
330
7716
100
AcDbEntity
  8
0
100
AcDbLine
 10
-25.0
 20
-46.00000000000001
 30
0.0
 11
-25.0
 21
-4.000000000000003
 31
0.0
  0
LINE
  5
773C
330
7716
100
AcDbEntity
  8
0
100
AcDbLine
 10
-27.0
 20
-4.000000000000003
 30
0.0
 11
-26.99999999999999
 21
-46.00000000000001
 31
0.0
  0
LINE
  5
773D
330
7716
100
AcDbEntity
  8
0
100
AcDbLine
 10
-29.0
 20
0.0
 30
0.0
 11
-66.50000000000002
 21
0.0
 31
0.0
  0
LINE
  5
773E
330
7716
100
AcDbEntity
  8
0
100
AcDbLine
 10
-66.50000000000002
 20
0.0
 30
0.0
 11
-66.50000000000002
 21
-2.000000000000001
 31
0.0
  0
ARC
  5
773F
330
7716
100
AcDbEntity
  8
0
100
AcDbCircle
 10
-29.0
 20
-4.000000000000004
 30
0.0
 40
1.999999999999997
100
AcDbArc
 50
0.0
 51
89.99999999999987
  0
ARC
  5
7740
330
7716
100
AcDbEntity
  8
0
100
AcDbCircle
 10
-29.0
 20
-4.000000000000004
 30
0.0
 40
3.999999999999999
100
AcDbArc
 50
0.0
 51
89.99999999999992
  0
LINE
  5
7741
330
7716
100
AcDbEntity
  8
0
100
AcDbLine
 10
-25.0
 20
-46.00000000000003
 30
0.0
 11
-24.99999999999998
 21
-86.00000000000003
 31
0.0
  0
LINE
  5
7742
330
7716
100
AcDbEntity
  8
0
100
AcDbLine
 10
-26.99999999999998
 20
-86.00000000000003
 30
0.0
 11
-26.99999999999999
 21
-46.00000000000003
 31
0.0
  0
LINE
  5
7743
330
7716
100
AcDbEntity
  8
0
100
AcDbLine
 10
-24.99999999999998
 20
-86.00000000000003
 30
0.0
 11
-26.99999999999998
 21
-86.00000000000003
 31
0.0
  0
LINE
  5
7744
330
7716
100
AcDbEntity
  8
0
100
AcDbLine
 10
-26.99999999999999
 20
-46.00000000000001
 30
0.0
 11
-25.0
 21
-46.00000000000001
 31
0.0
  0
ENDBLK
  5
7718
330
7716
100
AcDbEntity
  8
0
100
AcDbBlockEnd
  0
BLOCK
  5
7746
330
7745
100
AcDbEntity
  8
0
100
AcDbBlockBegin
  2
SAE300_50_2-Bottom
 70
     0
 10
0.0
 20
0.0
 30
0.0
  3
SAE300_50_2-Bottom
  1

  0
SPLINE
  5
7748
330
7745
100
AcDbEntity
  8
0
100
AcDbSpline
210
0.0
220
0.0
230
1.0
 70
     8
 71
     3
 72
    14
 73
    10
 74
     0
 42
0.000000001
 43
0.0000000001
 40
0.0
 40
0.0
 40
0.0
 40
0.0
 40
0.3435149790888484
 40
0.3435149790888484
 40
0.3435149790888484
 40
0.7569946960383361
 40
0.7569946960383361
 40
0.7569946960383361
 40
1.0
 40
1.0
 40
1.0
 40
1.0
 10
29.6060606060607
 20
2.000000000000008
 30
0.0
 10
29.28490751412572
 20
2.000036879683416
 30
0.0
 10
28.87246524437342
 20
1.99683399967494
 30
0.0
 10
28.47647431546914
 20
1.998675888895958
 30
0.0
 10
27.99983071281693
 20
2.000892921282082
 30
0.0
 10
27.53729909952534
 20
2.001068771447641
 30
0.0
 10
27.26242924351304
 20
2.001123144171222
 30
0.0
 10
27.10088605246377
 20
2.001155099451444
 30
0.0
 10
26.99999576704938
 20
2.000250547725926
 30
0.0
 10
26.99999999948815
 20
1.999999999992541
 30
0.0
  0
LINE
  5
7749
330
7745
100
AcDbEntity
  8
0
100
AcDbLine
 10
29.00221930020477
 20
2.000000000000004
 30
0.0
 11
29.00619229308124
 21
2.000000000000004
 31
0.0
  0
LINE
  5
774A
330
7745
100
AcDbEntity
  8
0
100
AcDbLine
 10
29.56202985674477
 20
2.000000000000004
 30
0.0
 11
29.60606060606068
 21
2.000000000000004
 31
0.0
  0
ARC
  5
774B
330
7745
100
AcDbEntity
  8
0
100
AcDbCircle
 10
29.0
 20
4.000000000000004
 30
0.0
 40
2.000000000000001
100
AcDbArc
 50
182.3401701222698
 51
263.7599697048837
  0
ARC
  5
774C
330
7745
100
AcDbEntity
  8
0
100
AcDbCircle
 10
29.0
 20
4.000000000000004
 30
0.0
 40
4.000000000000002
100
AcDbArc
 50
219.6927749101228
 51
270.0
  0
LINE
  5
774D
330
7745
100
AcDbEntity
  8
0
100
AcDbLine
 10
29.60606060606068
 20
0.0
 30
0.0
 11
29.0
 21
0.0
 31
0.0
  0
SPLINE
  5
774E
330
7745
100
AcDbEntity
  8
0
100
AcDbSpline
210
0.0
220
0.0
230
1.0
 70
     8
 71
     3
 72
    17
 73
    13
 74
     0
 42
0.000000001
 43
0.0000000001
 40
-1.0
 40
-1.0
 40
-1.0
 40
-1.0
 40
-0.7994286890812475
 40
-0.7994286890812475
 40
-0.7994286890812475
 40
-0.3760960081035631
 40
-0.3760960081035631
 40
-0.3760960081035631
 40
-0.0765284972713521
 40
-0.0765284972713521
 40
-0.0765284972713521
 40
0.0
 40
0.0
 40
0.0
 40
0.0
 10
25.00000000000002
 20
1.999999999999995
 30
0.0
 10
24.9999996127032
 20
1.999093543231066
 30
0.0
 10
25.1263315059962
 20
1.919863896640947
 30
0.0
 10
25.33607694561047
 20
1.790687786218504
 30
0.0
 10
25.77877285694508
 20
1.51804426161416
 30
0.0
 10
26.6144500834124
 20
1.03420794789439
 30
0.0
 10
27.48107962099294
 20
0.638861406450987
 30
0.0
 10
28.09434210946204
 20
0.3590980320221488
 30
0.0
 10
28.71765761683163
 20
0.1217220476640936
 30
0.0
 10
29.23393420692137
 20
0.0342615816174917
 30
0.0
 10
29.36582391520844
 20
0.011918644565992
 30
0.0
 10
29.48832026104536
 20
0.0000045452574053
 30
0.0
 10
29.60606060611091
 20
0.0000000001152104
 30
0.0
  0
LINE
  5
774F
330
7745
100
AcDbEntity
  8
0
100
AcDbLine
 10
29.60606060606068
 20
2.000000000000004
 30
0.0
 11
29.60606060606068
 21
0.0
 31
0.0
  0
SPLINE
  5
7750
330
7745
100
AcDbEntity
  8
0
100
AcDbSpline
210
0.0
220
0.0
230
1.0
 70
     8
 71
     3
 72
    30
 73
    26
 74
     0
 42
0.000000001
 43
0.0000000001
 40
0.0364728668697159
 40
0.0364728668697159
 40
0.0364728668697159
 40
0.0364728668697159
 40
0.0383798159873339
 40
0.0383798159873339
 40
0.0414118567184773
 40
0.0414118567184773
 40
0.0445182445824863
 40
0.0445182445824863
 40
0.0472747035493001
 40
0.0472747035493001
 40
0.0509143159313804
 40
0.0509143159313804
 40
0.0563767803255003
 40
0.0563767803255003
 40
0.0645907840555008
 40
0.0645907840555008
 40
0.0763651691507159
 40
0.0763651691507159
 40
0.0912951856616914
 40
0.0912951856616914
 40
0.103060233528266
 40
0.103060233528266
 40
0.1261855898710862
 40
0.1261855898710862
 40
0.132987798682052
 40
0.132987798682052
 40
0.132987798682052
 40
0.132987798682052
 10
28.72383606961717
 20
2.017146192079795
 30
0.0
 10
28.72383606956587
 20
2.017146192085539
 30
0.0
 10
28.72450836877625
 20
2.017070754858231
 30
0.0
 10
28.72768868687433
 20
2.016725559064597
 30
0.0
 10
28.73087807074396
 20
2.016383757555027
 30
0.0
 10
28.74081665140908
 20
2.015388200707474
 30
0.0
 10
28.74771468895897
 20
2.014725511048851
 30
0.0
 10
28.76255940648488
 20
2.013408092464024
 30
0.0
 10
28.77042163539723
 20
2.012749694936084
 30
0.0
 10
28.78945151443095
 20
2.01126701784447
 30
0.0
 10
28.80101766428522
 20
2.010445039584467
 30
0.0
 10
28.83036210267184
 20
2.008558782982702
 30
0.0
 10
28.84861440994039
 20
2.007560852152397
 30
0.0
 10
28.89412250011576
 20
2.005440889662716
 30
0.0
 10
28.92171315941737
 20
2.004484871868794
 30
0.0
 10
28.98716908322506
 20
2.002725717476776
 30
0.0
 10
29.02499984789348
 20
2.00213720931872
 30
0.0
 10
29.10564424690641
 20
2.001256390125991
 30
0.0
 10
29.14602486063989
 20
2.001083596417164
 30
0.0
 10
29.2221973470386
 20
2.000776233593949
 30
0.0
 10
29.25771658207171
 20
2.000641943223492
 30
0.0
 10
29.36567727386631
 20
2.000249312090709
 30
0.0
 10
29.44121992010095
 20
2.000084894495169
 30
0.0
 10
29.52688938101175
 20
2.000027671332459
 30
0.0
 10
29.54568953394662
 20
2.000020898548002
 30
0.0
 10
29.56202985674477
 20
2.000020061973676
 30
0.0
  0
SPLINE
  5
7751
330
7745
100
AcDbEntity
  8
0
100
AcDbSpline
210
0.0
220
0.0
230
1.0
 70
     8
 71
     3
 72
    22
 73
    18
 74
     0
 42
0.000000001
 43
0.0000000001
 40
0.0134911028344197
 40
0.0134911028344197
 40
0.0134911028344197
 40
0.0134911028344197
 40
0.0138932028359886
 40
0.0138932028359886
 40
0.0142591867093392
 40
0.0142591867093392
 40
0.0150031500612988
 40
0.0150031500612988
 40
0.0208022966422982
 40
0.0208022966422982
 40
0.0268750412224073
 40
0.0268750412224073
 40
0.0354664528589198
 40
0.0354664528589198
 40
0.0437552132792152
 40
0.0437552132792152
 40
0.0478142849900834
 40
0.0478142849900834
 40
0.0478142849900834
 40
0.0478142849900834
 10
27.00005073664096
 20
3.996303860348697
 30
0.0
 10
27.00005390486472
 20
3.996079286823282
 30
0.0
 10
27.00005820051059
 20
3.99577588799564
 30
0.0
 10
27.00007057036173
 20
3.994909617119091
 30
0.0
 10
27.00007873159336
 20
3.994340684910995
 30
0.0
 10
27.00011123818477
 20
3.992111429635253
 30
0.0
 10
27.00014290616061
 20
3.989991833986481
 30
0.0
 10
27.00043113339931
 20
3.971514303335288
 30
0.0
 10
27.00079011106531
 20
3.953757628203254
 30
0.0
 10
27.0016217889453
 20
3.921023081037731
 30
0.0
 10
27.00211168185891
 20
3.905387044881252
 30
0.0
 10
27.00331065885231
 20
3.87220519675892
 30
0.0
 10
27.00403812700503
 20
3.856166796595662
 30
0.0
 10
27.00516669320122
 20
3.833446591645224
 30
0.0
 10
27.00558617563259
 20
3.826159793787733
 30
0.0
 10
27.0058905790159
 20
3.820930206055572
 30
0.0
 10
27.00594192677514
 20
3.820082353058781
 30
0.0
 10
27.00594192710263
 20
3.820082347613614
 30
0.0
  0
SPLINE
  5
7752
330
7745
100
AcDbEntity
  8
0
100
AcDbSpline
210
0.0
220
0.0
230
1.0
 70
     8
 71
     3
 72
    10
 73
     6
 74
     0
 42
0.000000001
 43
0.0000000001
 40
0.0
 40
0.0
 40
0.0
 40
0.0
 40
0.004262959142806
 40
0.004262959142806
 40
0.0074741985025863
 40
0.0074741985025863
 40
0.0074741985025863
 40
0.0074741985025863
 10
27.00037993279674
 20
4.000001918246694
 30
0.0
 10
27.00044514944727
 20
3.98725823074033
 30
0.0
 10
27.00055430094368
 20
3.975277108849978
 30
0.0
 10
27.0007660705187
 20
3.958543664505151
 30
0.0
 10
27.00086108439667
 20
3.952702520528071
 30
0.0
 10
27.00093624793656
 20
3.948482298023393
 30
0.0
  0
SPLINE
  5
7753
330
7745
100
AcDbEntity
  8
0
100
AcDbSpline
210
0.0
220
0.0
230
1.0
 70
     8
 71
     3
 72
     8
 73
     4
 74
     0
 42
0.000000001
 43
0.0000000001
 40
0.0
 40
0.0
 40
0.0
 40
0.0
 40
0.0034296909737997
 40
0.0034296909737997
 40
0.0034296909737997
 40
0.0034296909737997
 10
27.00006462070009
 20
3.999999780186868
 30
0.0
 10
27.00004298616628
 20
3.994303237334491
 30
0.0
 10
27.00002047254573
 20
3.987666424337692
 30
0.0
 10
26.99999999999995
 20
3.980806637207283
 30
0.0
  0
CIRCLE
  5
7754
330
7745
100
AcDbEntity
  8
0
100
AcDbCircle
 10
0.0
 20
67.99999999999998
 30
0.0
 40
2.5
  0
CIRCLE
  5
7755
330
7745
100
AcDbEntity
  8
0
100
AcDbCircle
 10
0.0
 20
47.99999999999998
 30
0.0
 40
2.5
  0
LINE
  5
7756
330
7745
100
AcDbEntity
  8
0
100
AcDbLine
 10
23.00000000000001
 20
2.000000000000006
 30
0.0
 11
-23.00000000000001
 21
2.000000000000006
 31
0.0
  0
LINE
  5
7757
330
7745
100
AcDbEntity
  8
0
100
AcDbLine
 10
22.99999999999998
 20
86.00000000000001
 30
0.0
 11
-22.99999999999998
 21
86.00000000000001
 31
0.0
  0
SPLINE
  5
7758
330
7745
100
AcDbEntity
  8
0
100
AcDbSpline
210
0.0
220
0.0
230
1.0
 70
     8
 71
     3
 72
    17
 73
    13
 74
     0
 42
0.000000001
 43
0.0000000001
 40
-1.0
 40
-1.0
 40
-1.0
 40
-1.0
 40
-0.7994286890812475
 40
-0.7994286890812475
 40
-0.7994286890812475
 40
-0.3760960081035631
 40
-0.3760960081035631
 40
-0.3760960081035631
 40
-0.0765284972713521
 40
-0.0765284972713521
 40
-0.0765284972713521
 40
0.0
 40
0.0
 40
0.0
 40
0.0
 10
-25.00000000000002
 20
1.999999999999995
 30
0.0
 10
-24.9999996127032
 20
1.999093543231066
 30
0.0
 10
-25.1263315059962
 20
1.919863896640947
 30
0.0
 10
-25.33607694561047
 20
1.790687786218504
 30
0.0
 10
-25.77877285694508
 20
1.51804426161416
 30
0.0
 10
-26.6144500834124
 20
1.03420794789439
 30
0.0
 10
-27.48107962099294
 20
0.638861406450987
 30
0.0
 10
-28.09434210946204
 20
0.3590980320221488
 30
0.0
 10
-28.71765761683163
 20
0.1217220476640936
 30
0.0
 10
-29.23393420692137
 20
0.0342615816174917
 30
0.0
 10
-29.36582391520844
 20
0.011918644565992
 30
0.0
 10
-29.48832026104536
 20
0.0000045452574053
 30
0.0
 10
-29.60606060611091
 20
0.0000000001152104
 30
0.0
  0
LINE
  5
7759
330
7745
100
AcDbEntity
  8
0
100
AcDbLine
 10
-29.0
 20
0.0
 30
0.0
 11
-29.60606060606068
 21
0.0
 31
0.0
  0
ARC
  5
775A
330
7745
100
AcDbEntity
  8
0
100
AcDbCircle
 10
-29.0
 20
4.000000000000004
 30
0.0
 40
4.000000000000002
100
AcDbArc
 50
270.0000000000001
 51
320.3072250898772
  0
ARC
  5
775B
330
7745
100
AcDbEntity
  8
0
100
AcDbCircle
 10
-29.0
 20
4.000000000000004
 30
0.0
 40
2.000000000000001
100
AcDbArc
 50
276.2400302951146
 51
357.6598298777327
  0
LINE
  5
775C
330
7745
100
AcDbEntity
  8
0
100
AcDbLine
 10
-29.60606060606068
 20
2.000000000000004
 30
0.0
 11
-29.56202985674479
 21
2.000000000000004
 31
0.0
  0
LINE
  5
775D
330
7745
100
AcDbEntity
  8
0
100
AcDbLine
 10
-29.00619229308118
 20
2.000000000000004
 30
0.0
 11
-29.0022193002047
 21
2.000000000000004
 31
0.0
  0
SPLINE
  5
775E
330
7745
100
AcDbEntity
  8
0
100
AcDbSpline
210
0.0
220
0.0
230
1.0
 70
     8
 71
     3
 72
    14
 73
    10
 74
     0
 42
0.000000001
 43
0.0000000001
 40
0.0
 40
0.0
 40
0.0
 40
0.0
 40
0.3435149790888484
 40
0.3435149790888484
 40
0.3435149790888484
 40
0.7569946960383361
 40
0.7569946960383361
 40
0.7569946960383361
 40
1.0
 40
1.0
 40
1.0
 40
1.0
 10
-29.6060606060607
 20
2.000000000000008
 30
0.0
 10
-29.28490751412572
 20
2.000036879683416
 30
0.0
 10
-28.87246524437342
 20
1.99683399967494
 30
0.0
 10
-28.47647431546914
 20
1.998675888895958
 30
0.0
 10
-27.99983071281693
 20
2.000892921282082
 30
0.0
 10
-27.53729909952534
 20
2.001068771447641
 30
0.0
 10
-27.26242924351304
 20
2.001123144171222
 30
0.0
 10
-27.10088605246377
 20
2.001155099451444
 30
0.0
 10
-26.99999576704938
 20
2.000250547725926
 30
0.0
 10
-26.99999999948815
 20
1.999999999992541
 30
0.0
  0
LINE
  5
775F
330
7745
100
AcDbEntity
  8
0
100
AcDbLine
 10
-29.60606060606068
 20
0.0
 30
0.0
 11
-29.60606060606068
 21
2.000000000000004
 31
0.0
  0
SPLINE
  5
7760
330
7745
100
AcDbEntity
  8
0
100
AcDbSpline
210
0.0
220
0.0
230
1.0
 70
     8
 71
     3
 72
    10
 73
     6
 74
     0
 42
0.000000001
 43
0.0000000001
 40
0.0192480434123718
 40
0.0192480434123718
 40
0.0192480434123718
 40
0.0192480434123718
 40
0.0195090937464786
 40
0.0195090937464786
 40
0.0226780111072712
 40
0.0226780111072712
 40
0.0226780111072712
 40
0.0226780111072712
 10
-27.0000000023891
 20
3.980806449264831
 30
0.0
 10
-27.00000156126268
 20
3.981328784933113
 30
0.0
 10
-27.00000312971334
 20
3.981850397477174
 30
0.0
 10
-27.000023909841
 20
3.988683518891636
 30
0.0
 10
-27.0000446311295
 20
3.994736369086904
 30
0.0
 10
-27.00006462070008
 20
3.999999780186869
 30
0.0
  0
SPLINE
  5
7761
330
7745
100
AcDbEntity
  8
0
100
AcDbSpline
210
0.0
220
0.0
230
1.0
 70
     8
 71
     3
 72
    14
 73
    10
 74
     0
 42
0.000000001
 43
0.0000000001
 40
0.0358655447348146
 40
0.0358655447348146
 40
0.0358655447348146
 40
0.0358655447348146
 40
0.0359537494514199
 40
0.0359537494514199
 40
0.0382248945852932
 40
0.0382248945852932
 40
0.0413340175679559
 40
0.0413340175679559
 40
0.0433661963661591
 40
0.0433661963661591
 40
0.0433661963661591
 40
0.0433661963661591
 10
-27.00093636722276
 20
3.94847562800743
 30
0.0
 10
-27.0009343104596
 20
3.948591109505811
 30
0.0
 10
-27.00093225071161
 20
3.948707434216751
 30
0.0
 10
-27.00087662543281
 20
3.951851162971951
 30
0.0
 10
-27.00081397971084
 20
3.955643184493137
 30
0.0
 10
-27.00066070370195
 20
3.966444159673233
 30
0.0
 10
-27.00056980542495
 20
3.974140929934769
 30
0.0
 10
-27.00045087419507
 20
3.988060750080543
 30
0.0
 10
-27.00041102197447
 20
3.993926924165425
 30
0.0
 10
-27.00037993279674
 20
4.000001918246694
 30
0.0
  0
SPLINE
  5
7762
330
7745
100
AcDbEntity
  8
0
100
AcDbSpline
210
0.0
220
0.0
230
1.0
 70
     8
 71
     3
 72
    26
 73
    22
 74
     0
 42
0.000000001
 43
0.0000000001
 40
0.0423486644487703
 40
0.0423486644487703
 40
0.0423486644487703
 40
0.0423486644487703
 40
0.0483636529806772
 40
0.0483636529806772
 40
0.0586880658743642
 40
0.0586880658743642
 40
0.0674413381177908
 40
0.0674413381177908
 40
0.0715211996974772
 40
0.0715211996974772
 40
0.0739353548464711
 40
0.0739353548464711
 40
0.0748404282920783
 40
0.0748404282920783
 40
0.0755203186569227
 40
0.0755203186569227
 40
0.0758686409372106
 40
0.0758686409372106
 40
0.076195579357242
 40
0.076195579357242
 40
0.0766405262595548
 40
0.0766405262595548
 40
0.0766405262595548
 40
0.0766405262595548
 10
-27.00594192710268
 20
3.820082347612878
 30
0.0
 10
-27.0059419273964
 20
3.820082342729272
 30
0.0
 10
-27.00582793431499
 20
3.821949407451869
 30
0.0
 10
-27.00523926439691
 20
3.832329603904918
 30
0.0
 10
-27.00453526994277
 20
3.845111578800108
 30
0.0
 10
-27.00303841265569
 20
3.879316908051828
 30
0.0
 10
-27.00226930133847
 20
3.899547668777211
 30
0.0
 10
-27.00130080726328
 20
3.933241313324733
 30
0.0
 10
-27.00101327303406
 20
3.944620218082216
 30
0.0
 10
-27.00061012473267
 20
3.963309123369196
 30
0.0
 10
-27.00047172799037
 20
3.97040437787459
 30
0.0
 10
-27.00030096611922
 20
3.980163661889525
 30
0.0
 10
-27.00025634559557
 20
3.982828161624231
 30
0.0
 10
-27.00018293879288
 20
3.98740448471079
 30
0.0
 10
-27.00015262207939
 20
3.989363714270213
 30
0.0
 10
-27.00011259008236
 20
3.992028816861333
 30
0.0
 10
-27.00010004176911
 20
3.992879466287559
 30
0.0
 10
-27.00008017114623
 20
3.994241778748018
 30
0.0
 10
-27.00007255574448
 20
3.994771470973159
 30
0.0
 10
-27.00005909357521
 20
3.995712470051005
 30
0.0
 10
-27.00005431345148
 20
3.996050570044857
 30
0.0
 10
-27.00005080504621
 20
3.996299256691
 30
0.0
  0
SPLINE
  5
7763
330
7745
100
AcDbEntity
  8
0
100
AcDbSpline
210
0.0
220
0.0
230
1.0
 70
     8
 71
     3
 72
    32
 73
    28
 74
     0
 42
0.000000001
 43
0.0000000001
 40
0.0
 40
0.0
 40
0.0
 40
0.0
 40
0.0070452398542347
 40
0.0070452398542347
 40
0.0166405949205881
 40
0.0166405949205881
 40
0.0367140942520545
 40
0.0367140942520545
 40
0.0488284899624972
 40
0.0488284899624972
 40
0.0619943401941964
 40
0.0619943401941964
 40
0.0706188779330705
 40
0.0706188779330705
 40
0.0776906910604493
 40
0.0776906910604493
 40
0.083206531636797
 40
0.083206531636797
 40
0.0869816428287535
 40
0.0869816428287535
 40
0.0893395345090057
 40
0.0893395345090057
 40
0.0926179312802295
 40
0.0926179312802295
 40
0.0952548521151767
 40
0.0952548521151767
 40
0.0965320203296263
 40
0.0965320203296263
 40
0.0965320203296263
 40
0.0965320203296263
 10
-29.56202985674479
 20
2.000020061973675
 30
0.0
 10
-29.54510572274541
 20
2.000020928437341
 30
0.0
 10
-29.52555210340927
 20
2.000028134291589
 30
0.0
 10
-29.47775545398532
 20
2.000061132070841
 30
0.0
 10
-29.44841962903547
 20
2.000093689688089
 30
0.0
 10
-29.35657224061356
 20
2.000268440250017
 30
0.0
 10
-29.29198494482008
 20
2.000513808507527
 30
0.0
 10
-29.19633422820841
 20
2.000879055387518
 30
0.0
 10
-29.16273081685346
 20
2.00099641497413
 30
0.0
 10
-29.09182112290278
 20
2.001409895074564
 30
0.0
 10
-29.0522581531965
 20
2.001735751882199
 30
0.0
 10
-28.98348581661868
 20
2.002882807505635
 30
0.0
 10
-28.95529088139286
 20
2.003502366161665
 30
0.0
 10
-28.90345404937186
 20
2.005128901285491
 30
0.0
 10
-28.87967447377225
 20
2.006056558882843
 30
0.0
 10
-28.83787606771065
 20
2.008135314662702
 30
0.0
 10
-28.81951337911314
 20
2.009206873089176
 30
0.0
 10
-28.79004459224225
 20
2.011220388809627
 30
0.0
 10
-28.77830835332992
 20
2.012109549261642
 30
0.0
 10
-28.76105715759173
 20
2.013538564146442
 30
0.0
 10
-28.75481154105838
 20
2.014087788309124
 30
0.0
 10
-28.74169544417851
 20
2.01529513409025
 30
0.0
 10
-28.73541374732173
 20
2.015923299456956
 30
0.0
 10
-28.72807739543983
 20
2.016681793866805
 30
0.0
 10
-28.72587093350121
 20
2.016921975300224
 30
0.0
 10
-28.72413583696751
 20
2.017112587256202
 30
0.0
 10
-28.72383606974861
 20
2.017146192065075
 30
0.0
 10
-28.7238360696156
 20
2.017146192079971
 30
0.0
  0
LINE
  5
7764
330
7745
100
AcDbEntity
  8
0
100
AcDbLine
 10
-27.0
 20
2.000000000000013
 30
0.0
 11
-23.0
 21
2.000000000000006
 31
0.0
  0
LINE
  5
7765
330
7745
100
AcDbEntity
  8
0
100
AcDbLine
 10
-22.99999999999999
 20
86.00000000000001
 30
0.0
 11
-26.99999999999999
 21
86.00000000000001
 31
0.0
  0
LINE
  5
7766
330
7745
100
AcDbEntity
  8
0
100
AcDbLine
 10
-26.99999999999999
 20
2.000000000000013
 30
0.0
 11
-26.99999999999999
 21
86.00000000000001
 31
0.0
  0
LINE
  5
7767
330
7745
100
AcDbEntity
  8
0
100
AcDbLine
 10
27.0
 20
2.000000000000013
 30
0.0
 11
23.0
 21
2.000000000000006
 31
0.0
  0
LINE
  5
7768
330
7745
100
AcDbEntity
  8
0
100
AcDbLine
 10
26.99999999999999
 20
2.000000000000013
 30
0.0
 11
26.99999999999999
 21
86.00000000000001
 31
0.0
  0
LINE
  5
7769
330
7745
100
AcDbEntity
  8
0
100
AcDbLine
 10
22.99999999999999
 20
86.00000000000001
 30
0.0
 11
26.99999999999999
 21
86.00000000000001
 31
0.0
  0
LINE
  5
776A
330
7745
100
AcDbEntity
  8
0
100
AcDbLine
 10
66.50000000000007
 20
0.0
 30
0.0
 11
29.60606060606068
 21
0.0
 31
0.0
  0
LINE
  5
776B
330
7745
100
AcDbEntity
  8
0
100
AcDbLine
 10
66.50000000000007
 20
2.000000000000077
 30
0.0
 11
66.50000000000007
 21
0.0
 31
0.0
  0
LINE
  5
776C
330
7745
100
AcDbEntity
  8
0
100
AcDbLine
 10
29.60606060606068
 20
2.000000000000004
 30
0.0
 11
66.50000000000007
 21
2.000000000000077
 31
0.0
  0
LINE
  5
776D
330
7745
100
AcDbEntity
  8
0
100
AcDbLine
 10
-66.50000000000007
 20
2.000000000000077
 30
0.0
 11
-29.60606060606068
 21
2.000000000000004
 31
0.0
  0
LINE
  5
776E
330
7745
100
AcDbEntity
  8
0
100
AcDbLine
 10
-66.50000000000007
 20
0.0
 30
0.0
 11
-66.50000000000007
 21
2.000000000000077
 31
0.0
  0
LINE
  5
776F
330
7745
100
AcDbEntity
  8
0
100
AcDbLine
 10
-29.60606060606068
 20
0.0
 30
0.0
 11
-66.50000000000007
 21
0.0
 31
0.0
  0
ENDBLK
  5
7747
330
7745
100
AcDbEntity
  8
0
100
AcDbBlockEnd
  0
BLOCK
  5
7771
330
7770
100
AcDbEntity
  8
0
100
AcDbBlockBegin
  2
SAE300_50_2-ISO
 70
     0
 10
0.0
 20
0.0
 30
0.0
  3
SAE300_50_2-ISO
  1

  0
LINE
  5
7773
330
7770
100
AcDbEntity
  8
0
100
AcDbLine
 10
47.85580224953043
 20
-32.3829383871359
 30
0.0
 11
47.60382958495218
 21
-32.52841487285858
 31
0.0
  0
SPLINE
  5
7774
330
7770
100
AcDbEntity
  8
0
100
AcDbSpline
210
0.0
220
0.0
230
1.0
 70
     8
 71
     3
 72
    14
 73
    10
 74
     0
 42
0.000000001
 43
0.0000000001
 40
0.0
 40
0.0
 40
0.0
 40
0.0
 40
0.3435149790888484
 40
0.3435149790888484
 40
0.3435149790888484
 40
0.7569946960383361
 40
0.7569946960383361
 40
0.7569946960383361
 40
1.0
 40
1.0
 40
1.0
 40
1.0
 10
49.69856537625908
 20
-31.3545856857781
 30
0.0
 10
49.4714497692786
 20
-31.43578291607138
 30
0.0
 10
49.1820738216621
 20
-31.45160627241163
 30
0.0
 10
48.90076353818714
 20
-31.47947943084494
 30
0.0
 10
48.56215793590824
 20
-31.51302960001097
 30
0.0
 10
48.23497435079206
 20
-31.56463772722761
 30
0.0
 10
48.04057356434044
 20
-31.79004001183891
 30
0.0
 10
47.92632268269965
 20
-31.92251071944634
 30
0.0
 10
47.85562209238634
 20
-32.09054757533748
 30
0.0
 10
47.85580224917378
 20
-32.38293838557433
 30
0.0
  0
LINE
  5
7775
330
7770
100
AcDbEntity
  8
0
100
AcDbLine
 10
49.27001581190353
 20
-31.10716247943632
 30
0.0
 11
49.69856537625907
 21
-31.35458568577808
 31
0.0
  0
ELLIPSE
  5
7776
330
7770
100
AcDbEntity
  8
0
100
AcDbEllipse
 10
47.85580224953044
 20
-31.92365906036404
 30
0.0
 11
2.0
 21
-0.0000000000001193
 31
0.0
210
0.0
220
0.0
230
1.0
 40
0.577350269189626
 41
0.7853981633976899
 42
2.356194490192603
  0
LINE
  5
7777
330
7770
100
AcDbEntity
  8
0
100
AcDbLine
 10
46.44158868715734
 20
-31.3025207862295
 30
0.0
 11
46.44158868715734
 21
-31.10716247943632
 31
0.0
  0
LINE
  5
7778
330
7770
100
AcDbEntity
  8
0
100
AcDbLine
 10
46.44158868715734
 20
-32.32373893321041
 30
0.0
 11
46.44158868715734
 21
-31.3025207862295
 31
0.0
  0
LINE
  5
7779
330
7770
100
AcDbEntity
  8
0
100
AcDbLine
 10
46.44158868715734
 20
-32.33567893243162
 30
0.0
 11
46.44158868715734
 21
-32.32373893321041
 31
0.0
  0
LINE
  5
777A
330
7770
100
AcDbEntity
  8
0
100
AcDbLine
 10
46.44158868715734
 20
-33.19943496806363
 30
0.0
 11
46.44158868715734
 21
-32.33567893243162
 31
0.0
  0
LINE
  5
777B
330
7770
100
AcDbEntity
  8
0
100
AcDbLine
 10
47.60382958495218
 20
-32.52841487285858
 30
0.0
 11
46.44158868715734
 21
-33.19943496806363
 31
0.0
  0
ELLIPSE
  5
777C
330
7770
100
AcDbEntity
  8
0
100
AcDbEllipse
 10
-17.90512840081844
 20
-62.1850635909979
 30
0.0
 11
-2.499999999999999
 21
-0.0000000000001496
 31
0.0
210
0.0
220
0.0
230
1.0
 40
0.5773502691896259
 41
3.742856870268582
 42
5.681921090500121
  0
ELLIPSE
  5
777D
330
7770
100
AcDbEntity
  8
0
100
AcDbEllipse
 10
-3.762992777087497
 20
-54.02009778172064
 30
0.0
 11
-2.499999999999999
 21
-0.0000000000000001
 31
0.0
210
0.0
220
0.0
230
1.0
 40
0.577350269189626
 41
4.927029415582293
 42
5.681921090500456
  0
LINE
  5
777E
330
7770
100
AcDbEntity
  8
0
100
AcDbLine
 10
-14.36959449488574
 20
-78.92324350001628
 30
0.0
 11
-46.89650642946689
 21
-60.1438221386786
 31
0.0
  0
LINE
  5
777F
330
7770
100
AcDbEntity
  8
0
100
AcDbLine
 10
11.08624962782996
 20
-11.15402728301502
 30
0.0
 11
11.08624962782997
 21
-21.76848283507547
 31
0.0
  0
LINE
  5
7780
330
7770
100
AcDbEntity
  8
0
100
AcDbLine
 10
13.77906723289652
 20
-24.95617496609468
 30
0.0
 11
12.50046319020306
 21
-24.21797257785864
 31
0.0
  0
LINE
  5
7781
330
7770
100
AcDbEntity
  8
0
100
AcDbLine
 10
-46.89650642946689
 20
-58.51082897682314
 30
0.0
 11
-14.36959449488574
 21
-77.29025033816083
 31
0.0
  0
ELLIPSE
  5
7782
330
7770
100
AcDbEntity
  8
0
100
AcDbEllipse
 10
-3.762992777087497
 20
-52.38710461986517
 30
0.0
 11
-2.499999999999999
 21
-0.0000000000000001
 31
0.0
210
0.0
220
0.0
230
1.0
 40
0.5773502691896259
 41
4.496859522426841
 42
7.347837525866149
  0
ELLIPSE
  5
7783
330
7770
100
AcDbEntity
  8
0
100
AcDbEllipse
 10
-17.90512840081844
 20
-60.55207042914243
 30
0.0
 11
-2.499999999999999
 21
0.000000000000149
 31
0.0
210
0.0
220
0.0
230
1.0
 40
0.577350269189626
 41
0.0
 42
6.283185307179586
  0
LINE
  5
7784
330
7770
100
AcDbEntity
  8
0
100
AcDbLine
 10
11.08624962782996
 20
-11.15402728301502
 30
0.0
 11
11.00100772182697
 21
-11.20324172039208
 31
0.0
  0
SPLINE
  5
7785
330
7770
100
AcDbEntity
  8
0
100
AcDbSpline
210
0.0
220
0.0
230
1.0
 70
     8
 71
     3
 72
    11
 73
     7
 74
     0
 42
0.000000001
 43
0.0000000001
 40
-1.0
 40
-1.0
 40
-1.0
 40
-1.0
 40
-0.7994286890812475
 40
-0.7994286890812475
 40
-0.7994286890812475
 40
-0.6581413664843012
 40
-0.6581413664843012
 40
-0.6581413664843012
 40
-0.6581413664843012
 10
11.08624962782997
 20
-11.15402728301502
 30
0.0
 10
11.08689086341834
 20
-10.75941519642538
 30
0.0
 10
11.0535845453656
 20
-10.40066690798805
 30
0.0
 10
10.99661342633841
 20
-10.05933017750528
 30
0.0
 10
10.95648158078267
 20
-9.818884260624169
 30
0.0
 10
10.9020313426004
 20
-9.589048041169757
 30
0.0
 10
10.83490164356787
 20
-9.36625388439856
 30
0.0
  0
ELLIPSE
  5
7786
330
7770
100
AcDbEntity
  8
0
100
AcDbEllipse
 10
6.84360894071069
 20
-8.24525821345999
 30
0.0
 11
4.000000000000002
 21
0.0000000000000003
 31
0.0
210
0.0
220
0.0
230
1.0
 40
0.577350269189626
 41
6.058746940098228
 42
6.283185307179586
  0
ELLIPSE
  5
7787
330
7770
100
AcDbEntity
  8
0
100
AcDbEllipse
 10
6.84360894071069
 20
-8.24525821345999
 30
0.0
 11
4.000000000000001
 21
0.0000000000000006
 31
0.0
210
0.0
220
0.0
230
1.0
 40
0.577350269189626
 41
5.497787143782129
 42
6.058746940098228
  0
LINE
  5
7788
330
7770
100
AcDbEntity
  8
0
100
AcDbLine
 10
9.672036065456882
 20
-9.878251375315446
 30
0.0
 11
9.672036065456882
 21
-10.07421557573185
 31
0.0
  0
LINE
  5
7789
330
7770
100
AcDbEntity
  8
0
100
AcDbLine
 10
9.672036065456882
 20
-10.07421557573185
 30
0.0
 11
9.672036065456882
 21
-11.97052386394275
 31
0.0
  0
LINE
  5
778A
330
7770
100
AcDbEntity
  8
0
100
AcDbLine
 10
11.00100772182697
 20
-11.20324172039208
 30
0.0
 11
9.672036065456879
 21
-11.97052386394275
 31
0.0
  0
SPLINE
  5
778B
330
7770
100
AcDbEntity
  8
0
100
AcDbSpline
210
0.0
220
0.0
230
1.0
 70
     8
 71
     3
 72
    16
 73
    12
 74
     0
 42
0.000000001
 43
0.0000000001
 40
0.0
 40
0.0
 40
0.0
 40
0.0
 40
0.0351246664892801
 40
0.0351246664892801
 40
0.0553378252774679
 40
0.0553378252774679
 40
0.0803966055199897
 40
0.0803966055199897
 40
0.1060253304010659
 40
0.1060253304010659
 40
0.1164301718642318
 40
0.1164301718642318
 40
0.1164301718642318
 40
0.1164301718642318
 10
10.83223627107717
 20
-8.419285955878837
 30
0.0
 10
10.81704164569883
 20
-8.535374196787369
 30
0.0
 10
10.80211177125031
 20
-8.653602470366577
 30
0.0
 10
10.78725913412879
 20
-8.830967630076816
 30
0.0
 10
10.78368315988381
 20
-8.894480575493929
 30
0.0
 10
10.7814393875028
 20
-9.025574786614924
 30
0.0
 10
10.78417341572027
 20
-9.09142795201561
 30
0.0
 10
10.79603849812023
 20
-9.206868713682059
 30
0.0
 10
10.80509012323744
 20
-9.257474196293319
 30
0.0
 10
10.8219340587965
 20
-9.326323946299432
 30
0.0
 10
10.82732376683559
 20
-9.346047811412594
 30
0.0
 10
10.83343349274938
 20
-9.366352504659879
 30
0.0
  0
ELLIPSE
  5
778C
330
7770
100
AcDbEntity
  8
0
100
AcDbEllipse
 10
12.50046319020307
 20
-22.58497941600319
 30
0.0
 11
1.000000000000105
 21
-1.732050807568816
 31
0.0
210
0.0
220
0.0
230
1.0
 40
0.5773502691896269
 41
3.926990816987
 42
5.497787143781895
  0
LINE
  5
778D
330
7770
100
AcDbEntity
  8
0
100
AcDbLine
 10
12.50046319020306
 20
-24.21797257785864
 30
0.0
 11
-46.89650642946689
 21
-58.51082897682314
 31
0.0
  0
ELLIPSE
  5
778E
330
7770
100
AcDbEntity
  8
0
100
AcDbEllipse
 10
-46.89650642946689
 20
-56.8778358149677
 30
0.0
 11
2.000000000000206
 21
-3.464101615137633
 31
0.0
210
0.0
220
0.0
230
1.0
 40
0.5773502691896259
 41
3.926990816986998
 42
5.497787143781896
  0
LINE
  5
778F
330
7770
100
AcDbEntity
  8
0
100
AcDbLine
 10
-48.31071999183999
 20
-56.06133923403996
 30
0.0
 11
11.08624962782997
 21
-21.76848283507547
 31
0.0
  0
LINE
  5
7790
330
7770
100
AcDbEntity
  8
0
100
AcDbLine
 10
-49.72493355421308
 20
-55.24484265311224
 30
0.0
 11
-48.31071999183999
 21
-56.06133923403996
 31
0.0
  0
LINE
  5
7791
330
7770
100
AcDbEntity
  8
0
100
AcDbLine
 10
-46.89650642946689
 20
-60.1438221386786
 30
0.0
 11
-46.89650642946689
 21
-58.51082897682314
 31
0.0
  0
ELLIPSE
  5
7792
330
7770
100
AcDbEntity
  8
0
100
AcDbEllipse
 10
-46.89650642946689
 20
-56.8778358149677
 30
0.0
 11
1.000000000000101
 21
-1.732050807568815
 31
0.0
210
0.0
220
0.0
230
1.0
 40
0.577350269189626
 41
3.926990816987002
 42
5.497787143781891
  0
LINE
  5
7793
330
7770
100
AcDbEntity
  8
0
100
AcDbLine
 10
47.85580224953043
 20
-42.99739393919633
 30
0.0
 11
47.85580224953043
 21
-32.3829383871359
 31
0.0
  0
ELLIPSE
  5
7794
330
7770
100
AcDbEntity
  8
0
100
AcDbEllipse
 10
45.02737512478424
 20
-41.36440077734087
 30
0.0
 11
1.999999999999997
 21
-3.464101615137754
 31
0.0
210
0.0
220
0.0
230
1.0
 40
0.5773502691896249
 41
0.0
 42
0.7853981633974457
  0
LINE
  5
7795
330
7770
100
AcDbEntity
  8
0
100
AcDbLine
 10
-14.36959449488574
 20
-77.29025033816083
 30
0.0
 11
-12.95538093251265
 21
-76.47375375723311
 31
0.0
  0
LINE
  5
7796
330
7770
100
AcDbEntity
  8
0
100
AcDbLine
 10
47.85580224953043
 20
-42.99739393919633
 30
0.0
 11
-11.54116737013954
 21
-77.29025033816083
 31
0.0
  0
ELLIPSE
  5
7797
330
7770
100
AcDbEntity
  8
0
100
AcDbEllipse
 10
-14.36959449488574
 20
-75.65725717630536
 30
0.0
 11
1.999999999999999
 21
-3.464101615137753
 31
0.0
210
0.0
220
0.0
230
1.0
 40
0.5773502691896259
 41
5.497787143782139
 42
7.068583470577036
  0
LINE
  5
7798
330
7770
100
AcDbEntity
  8
0
100
AcDbLine
 10
75.78652010639905
 20
-21.5643586898436
 30
0.0
 11
77.20073366877215
 21
-20.74786210891588
 31
0.0
  0
LINE
  5
7799
330
7770
100
AcDbEntity
  8
0
100
AcDbLine
 10
49.69856537625907
 20
-31.35458568577808
 30
0.0
 11
75.78652010639905
 21
-21.5643586898436
 31
0.0
  0
ELLIPSE
  5
779A
330
7770
100
AcDbEntity
  8
0
100
AcDbEllipse
 10
63.41215143563449
 20
33.7532846680099
 30
0.0
 11
-3.249999999999999
 21
5.629165124598853
 31
0.0
210
0.0
220
0.0
230
1.0
 40
0.5773502691896258
 41
0.219325486300596
 42
2.922267167289199
  0
ELLIPSE
  5
779B
330
7770
100
AcDbEntity
  8
0
100
AcDbEllipse
 10
71.19032602868651
 20
33.34503637754604
 30
0.0
 11
1.250000000000128
 21
-2.165063509461021
 31
0.0
210
0.0
220
0.0
230
0.9999999999999998
 40
0.5773502691896258
 41
3.742856870268576
 42
5.681921090500116
  0
LINE
  5
779C
330
7770
100
AcDbEntity
  8
0
100
AcDbLine
 10
50.68422937427662
 20
57.43168551491395
 30
0.0
 11
77.20073366877217
 21
42.12237462251909
 31
0.0
  0
LINE
  5
779D
330
7770
100
AcDbEntity
  8
0
100
AcDbLine
 10
77.20073366877215
 20
-20.74786210891588
 30
0.0
 11
77.20073366877217
 21
42.12237462251909
 31
0.0
  0
ELLIPSE
  5
779E
330
7770
100
AcDbEntity
  8
0
100
AcDbEllipse
 10
47.85580224953044
 20
55.79869235305851
 30
0.0
 11
3.999999999999998
 21
-0.0000000000002379
 31
0.0
210
0.0
220
0.0
230
1.0
 40
0.5773502691896258
 41
0.7853981633976881
 42
2.356194490192583
  0
ELLIPSE
  5
779F
330
7770
100
AcDbEntity
  8
0
100
AcDbEllipse
 10
20.63219117384836
 20
31.09967077999477
 30
0.0
 11
1.24999999999987
 21
2.16506350946117
 31
0.0
210
0.0
220
0.0
230
1.0
 40
0.5773502691896259
 41
3.74285687026858
 42
5.681921090500117
  0
ELLIPSE
  5
77A0
330
7770
100
AcDbEntity
  8
0
100
AcDbEllipse
 10
22.04640473622145
 20
30.28317419906704
 30
0.0
 11
-1.249999999999999
 21
-2.165063509461097
 31
0.0
210
0.0
220
0.0
230
0.9999999999999998
 40
0.5773502691896258
 41
0.0
 42
6.283185307179586
  0
LINE
  5
77A1
330
7770
100
AcDbEntity
  8
0
100
AcDbLine
 10
-12.95538093251265
 20
-65.85929820517268
 30
0.0
 11
15.32889031494924
 21
-22.58497941600321
 31
0.0
  0
LINE
  5
77A2
330
7770
100
AcDbEntity
  8
0
100
AcDbLine
 10
-11.54116737013956
 20
-66.6757947861004
 30
0.0
 11
-12.95538093251265
 21
-65.85929820517268
 31
0.0
  0
LINE
  5
77A3
330
7770
100
AcDbEntity
  8
0
100
AcDbLine
 10
16.74310387732233
 20
-23.40147599693094
 30
0.0
 11
-11.54116737013956
 21
-66.67579478610038
 31
0.0
  0
LINE
  5
77A4
330
7770
100
AcDbEntity
  8
0
100
AcDbLine
 10
16.74310387732233
 20
-23.40147599693094
 30
0.0
 11
15.32889031494924
 21
-22.58497941600321
 31
0.0
  0
LINE
  5
77A5
330
7770
100
AcDbEntity
  8
0
100
AcDbLine
 10
15.32889031494924
 20
-22.58497941600321
 30
0.0
 11
15.32889031494925
 21
40.28525731543169
 31
0.0
  0
LINE
  5
77A6
330
7770
100
AcDbEntity
  8
0
100
AcDbLine
 10
16.74310387732235
 20
39.46876073450397
 30
0.0
 11
16.74310387732233
 21
-23.40147599693094
 31
0.0
  0
LINE
  5
77A7
330
7770
100
AcDbEntity
  8
0
100
AcDbLine
 10
15.32889031494925
 20
40.28525731543169
 30
0.0
 11
16.74310387732235
 21
39.46876073450397
 31
0.0
  0
LINE
  5
77A8
330
7770
100
AcDbEntity
  8
0
100
AcDbLine
 10
-11.54116737013956
 20
-66.6757947861004
 30
0.0
 11
-11.54116737013954
 21
-77.29025033816085
 31
0.0
  0
LINE
  5
77A9
330
7770
100
AcDbEntity
  8
0
100
AcDbLine
 10
46.44158868715734
 20
-31.10716247943632
 30
0.0
 11
46.44158868715734
 21
56.61518893398623
 31
0.0
  0
LINE
  5
77AA
330
7770
100
AcDbEntity
  8
0
100
AcDbLine
 10
46.44158868715734
 20
56.61518893398623
 30
0.0
 11
16.74310387732235
 21
39.46876073450397
 31
0.0
  0
LINE
  5
77AB
330
7770
100
AcDbEntity
  8
0
100
AcDbLine
 10
15.32889031494925
 20
40.28525731543169
 30
0.0
 11
45.02737512478425
 21
57.43168551491395
 31
0.0
  0
LINE
  5
77AC
330
7770
100
AcDbEntity
  8
0
100
AcDbLine
 10
-12.95538093251265
 20
-76.47375375723308
 30
0.0
 11
-12.95538093251265
 21
-65.85929820517268
 31
0.0
  0
LINE
  5
77AD
330
7770
100
AcDbEntity
  8
0
100
AcDbLine
 10
-14.36959449488574
 20
-77.29025033816083
 30
0.0
 11
-14.36959449488574
 21
-78.92324350001628
 31
0.0
  0
LINE
  5
77AE
330
7770
100
AcDbEntity
  8
0
100
AcDbLine
 10
-12.95538093251265
 20
-76.47375375723308
 30
0.0
 11
-11.54116737013954
 21
-77.29025033816083
 31
0.0
  0
ELLIPSE
  5
77AF
330
7770
100
AcDbEntity
  8
0
100
AcDbEllipse
 10
-14.36959449488574
 20
-75.65725717630536
 30
0.0
 11
0.9999999999999984
 21
-1.732050807568875
 31
0.0
210
0.0
220
0.0
230
1.0
 40
0.5773502691896261
 41
5.497787143782135
 42
7.068583470577031
  0
LINE
  5
77B0
330
7770
100
AcDbEntity
  8
0
100
AcDbLine
 10
49.27001581190353
 20
-31.10716247943632
 30
0.0
 11
49.27001581190353
 21
56.61518893398623
 31
0.0
  0
ELLIPSE
  5
77B1
330
7770
100
AcDbEntity
  8
0
100
AcDbEllipse
 10
47.85580224953044
 20
55.79869235305851
 30
0.0
 11
-1.999999999999996
 21
-0.0000000000001196
 31
0.0
210
0.0
220
0.0
230
1.0
 40
0.5773502691896259
 41
3.926990816987004
 42
5.497787143781892
  0
LINE
  5
77B2
330
7770
100
AcDbEntity
  8
0
100
AcDbLine
 10
77.20073366877217
 20
42.12237462251909
 30
0.0
 11
75.78652010639908
 21
41.30587804159137
 31
0.0
  0
LINE
  5
77B3
330
7770
100
AcDbEntity
  8
0
100
AcDbLine
 10
75.78652010639905
 20
-21.5643586898436
 30
0.0
 11
75.78652010639908
 21
41.30587804159137
 31
0.0
  0
LINE
  5
77B4
330
7770
100
AcDbEntity
  8
0
100
AcDbLine
 10
46.44158868715734
 20
56.61518893398623
 30
0.0
 11
45.02737512478425
 21
57.43168551491395
 31
0.0
  0
LINE
  5
77B5
330
7770
100
AcDbEntity
  8
0
100
AcDbLine
 10
49.27001581190353
 20
56.61518893398623
 30
0.0
 11
50.68422937427662
 21
57.43168551491395
 31
0.0
  0
LINE
  5
77B6
330
7770
100
AcDbEntity
  8
0
100
AcDbLine
 10
75.78652010639908
 20
41.30587804159137
 30
0.0
 11
49.27001581190353
 21
56.61518893398623
 31
0.0
  0
ELLIPSE
  5
77B7
330
7770
100
AcDbEntity
  8
0
100
AcDbEllipse
 10
61.99793787326139
 20
32.93678808708217
 30
0.0
 11
-3.249999999999999
 21
5.629165124598848
 31
0.0
210
0.0
220
0.0
230
0.9999999999999998
 40
0.577350269189626
 41
0.0
 42
6.283185307179586
  0
ELLIPSE
  5
77B8
330
7770
100
AcDbEntity
  8
0
100
AcDbEllipse
 10
69.77611246631342
 20
32.52853979661831
 30
0.0
 11
-1.249999999999999
 21
2.165063509461097
 31
0.0
210
0.0
220
0.0
230
0.9999999999999998
 40
0.5773502691896259
 41
0.0
 42
6.283185307179586
  0
LINE
  5
77B9
330
7770
100
AcDbEntity
  8
0
100
AcDbLine
 10
-12.36959449488573
 20
-79.12135879144314
 30
0.0
 11
47.02737512478424
 21
-44.82850239247864
 31
0.0
  0
ELLIPSE
  5
77BA
330
7770
100
AcDbEntity
  8
0
100
AcDbEllipse
 10
63.41215143563449
 20
-7.071544378376395
 30
0.0
 11
-3.249999999999999
 21
5.629165124598853
 31
0.0
210
0.0
220
0.0
230
1.0
 40
0.5773502691896258
 41
0.2193254863005959
 42
2.9222671672892
  0
ELLIPSE
  5
77BB
330
7770
100
AcDbEntity
  8
0
100
AcDbEllipse
 10
61.99793787326139
 20
-7.888040959304127
 30
0.0
 11
-3.249999999999999
 21
5.629165124598848
 31
0.0
210
0.0
220
0.0
230
0.9999999999999998
 40
0.577350269189626
 41
0.0
 42
6.283185307179586
  0
ELLIPSE
  5
77BC
330
7770
100
AcDbEntity
  8
0
100
AcDbEllipse
 10
55.63397684258247
 20
-14.82826189718979
 30
0.0
 11
1.250000000000128
 21
-2.165063509461022
 31
0.0
210
0.0
220
0.0
230
1.0
 40
0.5773502691896259
 41
3.742856870268587
 42
5.681921090500116
  0
ELLIPSE
  5
77BD
330
7770
100
AcDbEntity
  8
0
100
AcDbEllipse
 10
55.63397684258247
 20
1.501669721364731
 30
0.0
 11
1.250000000000128
 21
-2.165063509461022
 31
0.0
210
0.0
220
0.0
230
1.0
 40
0.5773502691896259
 41
3.742856870268587
 42
5.681921090500116
  0
ELLIPSE
  5
77BE
330
7770
100
AcDbEntity
  8
0
100
AcDbEllipse
 10
55.63397684258247
 20
17.83160133991925
 30
0.0
 11
1.250000000000128
 21
-2.165063509461022
 31
0.0
210
0.0
220
0.0
230
1.0
 40
0.5773502691896259
 41
3.742856870268587
 42
5.681921090500116
  0
ELLIPSE
  5
77BF
330
7770
100
AcDbEntity
  8
0
100
AcDbEllipse
 10
55.63397684258247
 20
34.16153295847376
 30
0.0
 11
1.250000000000128
 21
-2.165063509461021
 31
0.0
210
0.0
220
0.0
230
0.9999999999999998
 40
0.5773502691896258
 41
3.742856870268576
 42
5.681921090500116
  0
ELLIPSE
  5
77C0
330
7770
100
AcDbEntity
  8
0
100
AcDbEllipse
 10
54.21976328020936
 20
-15.64475847811752
 30
0.0
 11
-1.249999999999999
 21
2.165063509461097
 31
0.0
210
0.0
220
0.0
230
0.9999999999999998
 40
0.5773502691896259
 41
0.0
 42
6.283185307179586
  0
ELLIPSE
  5
77C1
330
7770
100
AcDbEntity
  8
0
100
AcDbEllipse
 10
54.21976328020938
 20
0.6851731404369988
 30
0.0
 11
-1.249999999999999
 21
2.165063509461097
 31
0.0
210
0.0
220
0.0
230
0.9999999999999998
 40
0.5773502691896259
 41
0.0
 42
6.283185307179586
  0
ELLIPSE
  5
77C2
330
7770
100
AcDbEntity
  8
0
100
AcDbEllipse
 10
54.21976328020938
 20
17.01510475899151
 30
0.0
 11
-1.249999999999999
 21
2.165063509461097
 31
0.0
210
0.0
220
0.0
230
0.9999999999999998
 40
0.5773502691896259
 41
0.0
 42
6.283185307179586
  0
ELLIPSE
  5
77C3
330
7770
100
AcDbEntity
  8
0
100
AcDbEllipse
 10
54.21976328020938
 20
33.34503637754603
 30
0.0
 11
-1.249999999999999
 21
2.165063509461097
 31
0.0
210
0.0
220
0.0
230
0.9999999999999998
 40
0.5773502691896259
 41
0.0
 42
6.283185307179586
  0
ELLIPSE
  5
77C4
330
7770
100
AcDbEntity
  8
0
100
AcDbEllipse
 10
55.63397684258247
 20
50.49146457702828
 30
0.0
 11
1.250000000000128
 21
-2.165063509461021
 31
0.0
210
0.0
220
0.0
230
0.9999999999999998
 40
0.5773502691896258
 41
3.742856870268576
 42
5.681921090500115
  0
ELLIPSE
  5
77C5
330
7770
100
AcDbEntity
  8
0
100
AcDbEllipse
 10
3.30807503477795
 20
79.06884490949869
 30
0.0
 11
1.249999999999999
 21
-2.165063509461097
 31
0.0
210
0.0
220
0.0
230
0.9999999999999998
 40
0.5773502691896258
 41
0.0
 42
6.283185307179586
  0
ELLIPSE
  5
77C6
330
7770
100
AcDbEntity
  8
0
100
AcDbEllipse
 10
4.722288597151056
 20
79.88534149042642
 30
0.0
 11
1.250000000000128
 21
-2.165063509461021
 31
0.0
210
0.0
220
0.0
230
0.9999999999999998
 40
0.5773502691896258
 41
3.742856870268578
 42
5.681921090500111
  0
ELLIPSE
  5
77C7
330
7770
100
AcDbEntity
  8
0
100
AcDbEllipse
 10
54.21976328020938
 20
49.67496799610055
 30
0.0
 11
-1.249999999999999
 21
2.165063509461097
 31
0.0
210
0.0
220
0.0
230
0.9999999999999998
 40
0.5773502691896259
 41
0.0
 42
6.283185307179586
  0
ELLIPSE
  5
77C8
330
7770
100
AcDbEntity
  8
0
100
AcDbEllipse
 10
71.19032602868651
 20
-15.64475847811752
 30
0.0
 11
1.250000000000128
 21
-2.165063509461021
 31
0.0
210
0.0
220
0.0
230
0.9999999999999998
 40
0.577350269189626
 41
3.742856870268587
 42
5.681921090500116
  0
ELLIPSE
  5
77C9
330
7770
100
AcDbEntity
  8
0
100
AcDbEllipse
 10
71.19032602868651
 20
0.6851731404369988
 30
0.0
 11
1.250000000000128
 21
-2.165063509461021
 31
0.0
210
0.0
220
0.0
230
0.9999999999999998
 40
0.577350269189626
 41
3.742856870268585
 42
5.681921090500116
  0
ELLIPSE
  5
77CA
330
7770
100
AcDbEntity
  8
0
100
AcDbEllipse
 10
71.19032602868651
 20
17.01510475899152
 30
0.0
 11
1.250000000000128
 21
-2.165063509461021
 31
0.0
210
0.0
220
0.0
230
0.9999999999999998
 40
0.5773502691896258
 41
3.742856870268578
 42
5.681921090500116
  0
ELLIPSE
  5
77CB
330
7770
100
AcDbEntity
  8
0
100
AcDbEllipse
 10
69.77611246631342
 20
-16.46125505904525
 30
0.0
 11
-1.249999999999999
 21
2.165063509461097
 31
0.0
210
0.0
220
0.0
230
0.9999999999999998
 40
0.5773502691896259
 41
0.0
 42
6.283185307179586
  0
ELLIPSE
  5
77CC
330
7770
100
AcDbEntity
  8
0
100
AcDbEllipse
 10
69.77611246631342
 20
-0.1313234404907337
 30
0.0
 11
-1.249999999999999
 21
2.165063509461097
 31
0.0
210
0.0
220
0.0
230
0.9999999999999998
 40
0.5773502691896259
 41
0.0
 42
6.283185307179586
  0
ELLIPSE
  5
77CD
330
7770
100
AcDbEntity
  8
0
100
AcDbEllipse
 10
69.77611246631342
 20
16.1986081780638
 30
0.0
 11
-1.249999999999999
 21
2.165063509461097
 31
0.0
210
0.0
220
0.0
230
0.9999999999999998
 40
0.5773502691896259
 41
0.0
 42
6.283185307179586
  0
LINE
  5
77CE
330
7770
100
AcDbEntity
  8
0
100
AcDbLine
 10
-15.45866642826307
 20
28.44870143918031
 30
0.0
 11
-14.75145458427243
 21
27.36668272564975
 31
0.0
  0
LINE
  5
77CF
330
7770
100
AcDbEntity
  8
0
100
AcDbLine
 10
-20.02644874437812
 20
-2.172564892810071
 30
0.0
 11
-48.31071999183999
 21
-45.44688368197954
 31
0.0
  0
LINE
  5
77D0
330
7770
100
AcDbEntity
  8
0
100
AcDbLine
 10
-21.44066230675121
 20
-1.356068311882352
 30
0.0
 11
-20.02644874437812
 21
-2.172564892810071
 31
0.0
  0
LINE
  5
77D1
330
7770
100
AcDbEntity
  8
0
100
AcDbLine
 10
-49.72493355421308
 20
-44.63038710105181
 30
0.0
 11
-21.44066230675121
 21
-1.356068311882347
 31
0.0
  0
LINE
  5
77D2
330
7770
100
AcDbEntity
  8
0
100
AcDbLine
 10
-48.31071999183999
 20
-45.44688368197954
 30
0.0
 11
-49.72493355421308
 21
-44.63038710105181
 31
0.0
  0
LINE
  5
77D3
330
7770
100
AcDbEntity
  8
0
100
AcDbLine
 10
-20.0264487443781
 20
60.69767183862483
 30
0.0
 11
-20.02644874437812
 21
-2.172564892810076
 31
0.0
  0
LINE
  5
77D4
330
7770
100
AcDbEntity
  8
0
100
AcDbLine
 10
-21.44066230675119
 20
61.51416841955255
 30
0.0
 11
-20.0264487443781
 21
60.69767183862483
 31
0.0
  0
LINE
  5
77D5
330
7770
100
AcDbEntity
  8
0
100
AcDbLine
 10
-21.44066230675121
 20
-1.356068311882352
 30
0.0
 11
-21.44066230675119
 21
61.51416841955255
 31
0.0
  0
ELLIPSE
  5
77D6
330
7770
100
AcDbEntity
  8
0
100
AcDbEllipse
 10
-4.470099558274074
 20
71.31212739068529
 30
0.0
 11
-3.250000000000007
 21
5.629165124598848
 31
0.0
210
0.0
220
0.0
230
1.0
 40
0.5773502691896258
 41
4.71238898038469
 42
7.853981633974484
  0
ELLIPSE
  5
77D7
330
7770
100
AcDbEntity
  8
0
100
AcDbEllipse
 10
-3.055885995900973
 20
72.12862397161302
 30
0.0
 11
-3.249999999999999
 21
5.629165124598853
 31
0.0
210
0.0
220
0.0
230
1.0
 40
0.5773502691896258
 41
0.219325486300596
 42
1.570796326794899
  0
ELLIPSE
  5
77D8
330
7770
100
AcDbEntity
  8
0
100
AcDbEllipse
 10
-12.24827415132609
 20
79.88534149042641
 30
0.0
 11
1.249999999999999
 21
-2.165063509461097
 31
0.0
210
0.0
220
0.0
230
0.9999999999999998
 40
0.5773502691896258
 41
0.0
 42
6.283185307179586
  0
ELLIPSE
  5
77D9
330
7770
100
AcDbEntity
  8
0
100
AcDbEllipse
 10
-10.83406058895299
 20
80.70183807135414
 30
0.0
 11
1.250000000000128
 21
-2.165063509461021
 31
0.0
210
0.0
220
0.0
230
0.9999999999999998
 40
0.5773502691896258
 41
3.742856870268578
 42
5.68192109050011
  0
LINE
  5
77DA
330
7770
100
AcDbEntity
  8
0
100
AcDbLine
 10
8.25782250308379
 20
78.66059661903481
 30
0.0
 11
8.257822503083801
 21
80.29358978089028
 31
0.0
  0
ELLIPSE
  5
77DB
330
7770
100
AcDbEntity
  8
0
100
AcDbEllipse
 10
6.843608940710699
 20
79.47709319996255
 30
0.0
 11
1.999999999999996
 21
0.0000000000000003
 31
0.0
210
0.0
220
0.0
230
1.0
 40
0.5773502691896259
 41
5.497787143782135
 42
7.068583470577029
  0
LINE
  5
77DC
330
7770
100
AcDbEntity
  8
0
100
AcDbLine
 10
9.672036065456888
 20
77.84410003810712
 30
0.0
 11
9.672036065456882
 21
-9.878251375315443
 31
0.0
  0
ELLIPSE
  5
77DD
330
7770
100
AcDbEntity
  8
0
100
AcDbEllipse
 10
6.843608940710699
 20
79.47709319996255
 30
0.0
 11
3.999999999999998
 21
0.0000000000000001
 31
0.0
210
0.0
220
0.0
230
1.0
 40
0.5773502691896258
 41
5.497787143782139
 42
7.068583470577036
  0
LINE
  5
77DE
330
7770
100
AcDbEntity
  8
0
100
AcDbLine
 10
8.257822503083801
 20
80.29358978089028
 30
0.0
 11
9.672036065456893
 21
81.110086361818
 31
0.0
  0
LINE
  5
77DF
330
7770
100
AcDbEntity
  8
0
100
AcDbLine
 10
8.257822503083795
 20
78.66059661903483
 30
0.0
 11
9.672036065456888
 21
77.84410003810712
 31
0.0
  0
LINE
  5
77E0
330
7770
100
AcDbEntity
  8
0
100
AcDbLine
 10
10.84360894071069
 20
-8.24525821345999
 30
0.0
 11
10.8436089407107
 21
79.47709319996255
 31
0.0
  0
LINE
  5
77E1
330
7770
100
AcDbEntity
  8
0
100
AcDbLine
 10
-18.25868179141173
 20
95.60290067328514
 30
0.0
 11
8.257822503083801
 21
80.29358978089028
 31
0.0
  0
LINE
  5
77E2
330
7770
100
AcDbEntity
  8
0
100
AcDbLine
 10
-18.25868179141182
 20
63.3512857266399
 30
0.0
 11
-18.25868179141173
 21
95.60290067328514
 31
0.0
  0
LINE
  5
77E3
330
7770
100
AcDbEntity
  8
0
100
AcDbLine
 10
-48.31071999183999
 20
-56.06133923403996
 30
0.0
 11
-48.31071999183999
 21
-45.44688368197954
 31
0.0
  0
LINE
  5
77E4
330
7770
100
AcDbEntity
  8
0
100
AcDbLine
 10
-20.0264487443781
 20
60.69767183862483
 30
0.0
 11
9.672036065456888
 21
77.84410003810712
 31
0.0
  0
LINE
  5
77E5
330
7770
100
AcDbEntity
  8
0
100
AcDbLine
 10
-49.72493355421308
 20
-44.63038710105181
 30
0.0
 11
-49.72493355421308
 21
-55.24484265311224
 31
0.0
  0
LINE
  5
77E6
330
7770
100
AcDbEntity
  8
0
100
AcDbLine
 10
8.257822503083795
 20
78.66059661903483
 30
0.0
 11
-21.44066230675119
 21
61.51416841955255
 31
0.0
  0
LINE
  5
77E7
330
7770
100
AcDbEntity
  8
0
100
AcDbLine
 10
9.672036065456893
 20
81.110086361818
 30
0.0
 11
-16.84446822903864
 21
96.41939725421288
 31
0.0
  0
LINE
  5
77E8
330
7770
100
AcDbEntity
  8
0
100
AcDbLine
 10
-16.84446822903864
 20
96.41939725421288
 30
0.0
 11
-18.25868179141173
 21
95.60290067328514
 31
0.0
  0
ELLIPSE
  5
77E9
330
7770
100
AcDbEntity
  8
0
100
AcDbEllipse
 10
20.63219117384835
 20
-34.22005569422331
 30
0.0
 11
1.24999999999987
 21
2.16506350946117
 31
0.0
210
0.0
220
0.0
230
1.0
 40
0.5773502691896259
 41
3.74285687026858
 42
5.681921090500115
  0
ELLIPSE
  5
77EA
330
7770
100
AcDbEntity
  8
0
100
AcDbEllipse
 10
22.04640473622145
 20
-35.03655227515103
 30
0.0
 11
-1.249999999999999
 21
-2.165063509461097
 31
0.0
210
0.0
220
0.0
230
0.9999999999999998
 40
0.5773502691896258
 41
0.0
 42
6.283185307179586
  0
ELLIPSE
  5
77EB
330
7770
100
AcDbEntity
  8
0
100
AcDbEllipse
 10
20.63219117384836
 20
-17.89012407566879
 30
0.0
 11
1.24999999999987
 21
2.16506350946117
 31
0.0
210
0.0
220
0.0
230
1.0
 40
0.5773502691896259
 41
3.742856870268582
 42
5.681921090500117
  0
ELLIPSE
  5
77EC
330
7770
100
AcDbEntity
  8
0
100
AcDbEllipse
 10
22.04640473622145
 20
-18.70662065659651
 30
0.0
 11
-1.249999999999999
 21
-2.165063509461097
 31
0.0
210
0.0
220
0.0
230
0.9999999999999998
 40
0.5773502691896258
 41
0.0
 42
6.283185307179586
  0
ELLIPSE
  5
77ED
330
7770
100
AcDbEntity
  8
0
100
AcDbEllipse
 10
20.63219117384836
 20
-1.560192457114264
 30
0.0
 11
1.24999999999987
 21
2.16506350946117
 31
0.0
210
0.0
220
0.0
230
1.0
 40
0.5773502691896259
 41
3.742856870268582
 42
5.681921090500117
  0
ELLIPSE
  5
77EE
330
7770
100
AcDbEntity
  8
0
100
AcDbEllipse
 10
22.04640473622145
 20
-2.376689038041988
 30
0.0
 11
-1.249999999999999
 21
-2.165063509461097
 31
0.0
210
0.0
220
0.0
230
0.9999999999999998
 40
0.5773502691896258
 41
0.0
 42
6.283185307179586
  0
ELLIPSE
  5
77EF
330
7770
100
AcDbEntity
  8
0
100
AcDbEllipse
 10
20.63219117384836
 20
14.76973916144025
 30
0.0
 11
1.24999999999987
 21
2.16506350946117
 31
0.0
210
0.0
220
0.0
230
1.0
 40
0.5773502691896259
 41
3.742856870268582
 42
5.681921090500117
  0
ELLIPSE
  5
77F0
330
7770
100
AcDbEntity
  8
0
100
AcDbEllipse
 10
22.04640473622145
 20
13.95324258051253
 30
0.0
 11
-1.249999999999999
 21
-2.165063509461097
 31
0.0
210
0.0
220
0.0
230
0.9999999999999998
 40
0.5773502691896258
 41
0.0
 42
6.283185307179586
  0
ELLIPSE
  5
77F1
330
7770
100
AcDbEntity
  8
0
100
AcDbEllipse
 10
-16.13736144785208
 20
-4.826178780825194
 30
0.0
 11
1.24999999999987
 21
2.165063509461171
 31
0.0
210
0.0
220
0.0
230
1.0
 40
0.5773502691896255
 41
3.742856870268582
 42
5.681921090500115
  0
ELLIPSE
  5
77F2
330
7770
100
AcDbEntity
  8
0
100
AcDbEllipse
 10
-14.72314788547899
 20
-5.642675361752917
 30
0.0
 11
1.249999999999999
 21
2.165063509461097
 31
0.0
210
0.0
220
0.0
230
1.0
 40
0.5773502691896257
 41
0.0
 42
6.283185307179586
  0
ELLIPSE
  5
77F3
330
7770
100
AcDbEntity
  8
0
100
AcDbEllipse
 10
-16.13736144785208
 20
11.50375283772932
 30
0.0
 11
1.24999999999987
 21
2.165063509461171
 31
0.0
210
0.0
220
0.0
230
1.0
 40
0.5773502691896255
 41
3.742856870268582
 42
5.681921090500116
  0
ELLIPSE
  5
77F4
330
7770
100
AcDbEntity
  8
0
100
AcDbEllipse
 10
-14.72314788547899
 20
10.6872562568016
 30
0.0
 11
1.249999999999999
 21
2.165063509461097
 31
0.0
210
0.0
220
0.0
230
1.0
 40
0.5773502691896257
 41
0.0
 42
6.283185307179586
  0
ELLIPSE
  5
77F5
330
7770
100
AcDbEntity
  8
0
100
AcDbEllipse
 10
-16.13736144785208
 20
27.83368445628385
 30
0.0
 11
1.24999999999987
 21
2.165063509461171
 31
0.0
210
0.0
220
0.0
230
1.0
 40
0.5773502691896255
 41
3.74285687026858
 42
5.68192109050011
  0
ELLIPSE
  5
77F6
330
7770
100
AcDbEntity
  8
0
100
AcDbEllipse
 10
-14.72314788547899
 20
27.01718787535613
 30
0.0
 11
1.249999999999999
 21
2.165063509461097
 31
0.0
210
0.0
220
0.0
230
1.0
 40
0.5773502691896257
 41
0.0
 42
6.283185307179586
  0
ELLIPSE
  5
77F7
330
7770
100
AcDbEntity
  8
0
100
AcDbEllipse
 10
-16.13736144785207
 20
44.16361607483835
 30
0.0
 11
1.24999999999987
 21
2.165063509461171
 31
0.0
210
0.0
220
0.0
230
1.0
 40
0.5773502691896255
 41
3.74285687026858
 42
5.681921090500117
  0
ELLIPSE
  5
77F8
330
7770
100
AcDbEntity
  8
0
100
AcDbEllipse
 10
-14.72314788547898
 20
43.34711949391063
 30
0.0
 11
1.249999999999999
 21
2.165063509461097
 31
0.0
210
0.0
220
0.0
230
1.0
 40
0.5773502691896257
 41
0.0
 42
6.283185307179586
  0
ELLIPSE
  5
77F9
330
7770
100
AcDbEntity
  8
0
100
AcDbEllipse
 10
-16.13736144785207
 20
60.49354769339288
 30
0.0
 11
1.24999999999987
 21
2.165063509461171
 31
0.0
210
0.0
220
0.0
230
1.0
 40
0.5773502691896255
 41
3.74285687026858
 42
5.681921090500117
  0
ELLIPSE
  5
77FA
330
7770
100
AcDbEntity
  8
0
100
AcDbEllipse
 10
-14.72314788547898
 20
59.67705111246516
 30
0.0
 11
1.249999999999999
 21
2.165063509461097
 31
0.0
210
0.0
220
0.0
230
1.0
 40
0.5773502691896257
 41
0.0
 42
6.283185307179586
  0
ENDBLK
  5
7772
330
7770
100
AcDbEntity
  8
0
100
AcDbBlockEnd
  0
ENDSEC
  0
SECTION
  2
ENTITIES
  0
INSERT
  5
77FB
330
1F
100
AcDbEntity
  8
0
100
AcDbBlockReference
  2
SAE300_50_2-Front
 10
0.0
 20
0.0
 30
0.0
  0
INSERT
  5
77FC
330
1F
100
AcDbEntity
  8
0
100
AcDbBlockReference
  2
SAE300_50_2-Left
 10
104.6
 20
0.0
 30
0.0
  0
INSERT
  5
77FD
330
1F
100
AcDbEntity
  8
0
100
AcDbBlockReference
  2
SAE300_50_2-Right
 10
-104.6
 20
0.0
 30
0.0
  0
INSERT
  5
77FE
330
1F
100
AcDbEntity
  8
0
100
AcDbBlockReference
  2
SAE300_50_2-Top
 10
0.0
 20
-40.1
 30
0.0
  0
INSERT
  5
77FF
330
1F
100
AcDbEntity
  8
0
100
AcDbBlockReference
  2
SAE300_50_2-Bottom
 10
0.0
 20
163.1
 30
0.0
  0
INSERT
  5
7800
330
1F
100
AcDbEntity
  8
0
100
AcDbBlockReference
  2
SAE300_50_2-ISO
 10
154.3249335542132
 20
-136.5193972542129
 30
0.0
  0
MTEXT
  5
7801
330
1F
100
AcDbEntity
  8
0
100
AcDbMText
 10
0.0
 20
-164.2
 30
0.0
 40
12.7
 41
0.0
 71
     5
 72
     5
  1
SAE300/50/2
 73
     1
 44
1.0
1001
ACAD
1000
MTEXTBEGIN
1070
    73
1070
     1
1070
    44
1040
1.0
1070
    74
1070
     0
1000
MTEXTEND
  0
ENDSEC
  0
SECTION
  2
OBJECTS
  0
DICTIONARY
  5
C
330
0
100
AcDbDictionary
281
     1
  3
ACAD_CIP_PREVIOUS_PRODUCT_INFO
350
216
  3
ACAD_COLOR
350
6B
  3
ACAD_DETAILVIEWSTYLE
350
21B
  3
ACAD_GROUP
350
D
  3
ACAD_LAYOUT
350
1A
  3
ACAD_MATERIAL
350
6A
  3
ACAD_MLEADERSTYLE
350
12D
  3
ACAD_MLINESTYLE
350
17
  3
ACAD_PLOTSETTINGS
350
19
  3
ACAD_PLOTSTYLENAME
350
E
  3
ACAD_SCALELIST
350
10C
  3
ACAD_SECTIONVIEWSTYLE
350
219
  3
ACAD_TABLESTYLE
350
7E
  3
ACAD_VISUALSTYLE
350
EF
  3
ACDB_RECOMPOSE_DATA
350
7902
  3
AcDbVariableDictionary
350
5E
  3
DWGPROPS
350
7903
  0
DICTIONARY
  5
7852
330
8
100
AcDbDictionary
280
     1
281
     1
  0
DICTIONARY
  5
1FF
330
2
100
AcDbDictionary
280
     1
281
     1
  3
ACAD_LAYERSTATES
360
200
  0
DICTIONARY
  5
13C
330
10
100
AcDbDictionary
280
     1
281
     1
  0
DICTIONARY
  5
1CE
330
1F
100
AcDbDictionary
280
     1
281
     1
  3
ACAD_LAYOUTSELFREF
360
785A
  0
DICTIONARY
  5
7805
330
D2
100
AcDbDictionary
280
     1
281
     1
  3
ACAD_LAYOUTSELFREF
360
7863
  0
DICTIONARY
  5
7807
330
D6
100
AcDbDictionary
280
     1
281
     1
  3
ACAD_LAYOUTSELFREF
360
7866
  0
XRECORD
  5
216
102
{ACAD_REACTORS
330
C
102
}
330
C
100
AcDbXrecord
280
     1
300
ACD
300
2021
300
87393ACD_2021_0F
  0
DICTIONARY
  5
6B
102
{ACAD_REACTORS
330
C
102
}
330
C
100
AcDbDictionary
281
     1
  0
DICTIONARY
  5
21B
102
{ACAD_REACTORS
330
C
102
}
330
C
100
AcDbDictionary
281
     1
  3
Metric50
350
21C
  0
DICTIONARY
  5
D
102
{ACAD_REACTORS
330
C
102
}
330
C
100
AcDbDictionary
281
     1
  0
DICTIONARY
  5
1A
102
{ACAD_REACTORS
330
C
102
}
330
C
100
AcDbDictionary
281
     1
  3
Layout1
350
D3
  3
Layout2
350
D7
  3
Model
350
22
  0
DICTIONARY
  5
6A
102
{ACAD_REACTORS
330
C
102
}
330
C
100
AcDbDictionary
281
     1
  3
ByBlock
350
ED
  3
ByLayer
350
EC
  3
Global
350
EE
  0
DICTIONARY
  5
12D
102
{ACAD_REACTORS
330
C
102
}
330
C
100
AcDbDictionary
281
     1
  3
Standard
350
12E
  0
DICTIONARY
  5
17
102
{ACAD_REACTORS
330
C
102
}
330
C
100
AcDbDictionary
281
     1
  3
Standard
350
18
  0
DICTIONARY
  5
19
102
{ACAD_REACTORS
330
C
102
}
330
C
100
AcDbDictionary
281
     1
  0
ACDBDICTIONARYWDFLT
  5
E
102
{ACAD_REACTORS
330
C
102
}
330
C
100
AcDbDictionary
281
     1
  3
Normal
350
F
100
AcDbDictionaryWithDefault
340
F
  0
DICTIONARY
  5
10C
102
{ACAD_REACTORS
330
C
102
}
330
C
100
AcDbDictionary
281
     1
  3
A0
350
10D
  3
A1
350
1BE
  3
A2
350
1BF
  3
A3
350
1C0
  3
A4
350
1C1
  3
A5
350
1C2
  3
A6
350
1C3
  3
A7
350
1C4
  3
A8
350
1C5
  3
A9
350
1C6
  3
B0
350
1C7
  3
B1
350
1C8
  3
B2
350
1C9
  3
B3
350
1CA
  3
B4
350
1CB
  3
B5
350
1CC
  3
B6
350
1CD
  0
DICTIONARY
  5
219
102
{ACAD_REACTORS
330
C
102
}
330
C
100
AcDbDictionary
281
     1
  3
Metric50
350
21A
  0
DICTIONARY
  5
7E
102
{ACAD_REACTORS
330
C
102
}
330
C
100
AcDbDictionary
281
     1
  3
Standard
350
7F
  0
DICTIONARY
  5
EF
102
{ACAD_REACTORS
330
C
102
}
330
C
100
AcDbDictionary
281
     1
  3
2dWireframe
350
F5
  3
Basic
350
F4
  3
Brighten
350
FB
  3
ColorChange
350
FF
  3
Conceptual
350
F8
  3
Dim
350
FA
  3
EdgeColorOff
350
1E6
  3
Facepattern
350
FE
  3
Flat
350
F0
  3
FlatWithEdges
350
F1
  3
Gouraud
350
F2
  3
GouraudWithEdges
350
F3
  3
Hidden
350
F7
  3
JitterOff
350
1E4
  3
Linepattern
350
FD
  3
OverhangOff
350
1E5
  3
Realistic
350
F9
  3
Shaded
350
1F3
  3
Shaded with edges
350
1F2
  3
Shades of Gray
350
1EF
  3
Sketchy
350
1F0
  3
Thicken
350
FC
  3
Wireframe
350
F6
  3
X-Ray
350
1F1
  0
XRECORD
  5
7902
102
{ACAD_REACTORS
330
C
102
}
330
C
100
AcDbXrecord
280
     1
 90
        1
330
7F
  0
DICTIONARY
  5
5E
102
{ACAD_REACTORS
330
C
102
}
330
C
100
AcDbDictionary
281
     1
  3
CANNOSCALE
350
146
  3
CENTEREXE
350
259
  3
CENTERLTYPEFILE
350
25A
  3
CMLEADERSTYLE
350
145
  3
CTABLESTYLE
350
84
  3
CVIEWDETAILSTYLE
350
227
  3
CVIEWSECTIONSTYLE
350
228
  3
DIMASSOC
350
5F
  3
HIDETEXT
350
63
  3
INDEXCTL
350
78AF
  3
LAYEREVAL
350
1AE
  3
LAYERNOTIFY
350
1AF
  3
LIGHTINGUNITS
350
78AD
  3
MSLTSCALE
350
78AC
  3
PSOLHEIGHT
350
78FF
  3
PSOLWIDTH
350
78FE
  3
SORTENTS
350
78AE
  3
XCLIPFRAME
350
7900
  0
XRECORD
  5
7903
102
{ACAD_REACTORS
330
C
102
}
330
C
100
AcDbXrecord
280
     1
  1
DWGPROPS COOKIE
  2

  3

  4

  6

  7

  8
truole
  9

300
=
301
=
302
=
303
=
304
=
305
=
306
=
307
=
308
=
309
=
 40
0.0076157407407407
 41
2460398.356956019
 42
2460398.373888889
  1

 90
        0
  0
DICTIONARY
  5
200
102
{ACAD_REACTORS
330
1FF
102
}
330
1FF
100
AcDbDictionary
281
     1
  0
XRECORD
  5
785A
102
{ACAD_REACTORS
330
1CE
102
}
330
1CE
100
AcDbXrecord
280
     1
340
1F
  0
XRECORD
  5
7863
102
{ACAD_REACTORS
330
7805
102
}
330
7805
100
AcDbXrecord
280
     1
340
D2
  0
XRECORD
  5
7866
102
{ACAD_REACTORS
330
7807
102
}
330
7807
100
AcDbXrecord
280
     1
340
D6
  0
ACDBDETAILVIEWSTYLE
  5
21C
102
{ACAD_XDICTIONARY
360
7942
102
}
102
{ACAD_REACTORS
330
21B
102
}
330
21B
100
AcDbModelDocViewStyle
 70
     0
  3
Metric50
290
     0
100
AcDbDetailViewStyle
 70
     0
 71
     0
 90
        3
 71
     1
340
11
 40
5.0
340
0
 40
5.0
300

 40
0.0
280
     1
 71
     2
340
16
 90
       25
 71
     3
340
11
 40
5.0
 90
        0
 40
15.0
 90
        1
300
%<\AcVar ViewDetailId>% (%<\AcVar ViewScale \f "%sn">%)
 71
     4
340
16
 90
       25
340
16
 90
       25
280
     0
  0
LAYOUT
  5
D3
102
{ACAD_XDICTIONARY
360
7907
102
}
102
{ACAD_REACTORS
330
1A
102
}
330
1A
100
AcDbPlotSettings
  1

  2
C:\Documents and Settings\basas\Application Data\Autodesk\AutoCAD 2005\R16.1\enu\plotters\Default Windows System Printer.pc3
  4

  6

 40
0.0
 41
0.0
 42
0.0
 43
0.0
 44
0.0
 45
0.0
 46
0.0
 47
0.0
 48
0.0
 49
0.0
140
0.0
141
0.0
142
1.0
143
1.0
 70
   688
 72
     0
 73
     0
 74
     5
  7

 75
    16
147
1.0
148
0.0
149
0.0
100
AcDbLayout
  1
Layout1
 70
     1
 71
     1
 10
0.0
 20
0.0
 11
12.0
 21
9.0
 12
0.0
 22
0.0
 32
0.0
 14
0.0
 24
0.0
 34
0.0
 15
0.0
 25
0.0
 35
0.0
146
0.0
 13
0.0
 23
0.0
 33
0.0
 16
1.0
 26
0.0
 36
0.0
 17
0.0
 27
1.0
 37
0.0
 76
     0
330
D2
  0
LAYOUT
  5
D7
102
{ACAD_XDICTIONARY
360
7909
102
}
102
{ACAD_REACTORS
330
1A
102
}
330
1A
100
AcDbPlotSettings
  1

  2
C:\Documents and Settings\basas\Application Data\Autodesk\AutoCAD 2005\R16.1\enu\plotters\Default Windows System Printer.pc3
  4

  6

 40
0.0
 41
0.0
 42
0.0
 43
0.0
 44
0.0
 45
0.0
 46
0.0
 47
0.0
 48
0.0
 49
0.0
140
0.0
141
0.0
142
1.0
143
1.0
 70
   688
 72
     0
 73
     0
 74
     5
  7

 75
    16
147
1.0
148
0.0
149
0.0
100
AcDbLayout
  1
Layout2
 70
     1
 71
     2
 10
0.0
 20
0.0
 11
12.0
 21
9.0
 12
0.0
 22
0.0
 32
0.0
 14
0.0
 24
0.0
 34
0.0
 15
0.0
 25
0.0
 35
0.0
146
0.0
 13
0.0
 23
0.0
 33
0.0
 16
1.0
 26
0.0
 36
0.0
 17
0.0
 27
1.0
 37
0.0
 76
     0
330
D6
  0
LAYOUT
  5
22
102
{ACAD_XDICTIONARY
360
7904
102
}
102
{ACAD_REACTORS
330
1A
102
}
330
1A
100
AcDbPlotSettings
  1

  2
none_device
  4
ISO_A4_(210.00_x_297.00_MM)
  6

 40
7.5
 41
20.0
 42
7.5
 43
20.0
 44
210.0
 45
297.0
 46
11.54999923706054
 47
-13.65000009536743
 48
0.0
 49
0.0
140
0.0
141
0.0
142
1.0
143
8.704084754739808
 70
 11952
 72
     1
 73
     0
 74
     0
  7

 75
     0
147
0.1148885871608098
148
0.0
149
0.0
100
AcDbLayout
  1
Model
 70
     1
 71
     0
 10
0.0
 20
0.0
 11
12.0
 21
9.0
 12
0.0
 22
0.0
 32
0.0
 14
0.0
 24
0.0
 34
0.0
 15
0.0
 25
0.0
 35
0.0
146
0.0
 13
0.0
 23
0.0
 33
0.0
 16
1.0
 26
0.0
 36
0.0
 17
0.0
 27
1.0
 37
0.0
 76
     0
330
1F
331
EA
1001
ACAD_PSEXT
1000
None
1000
None
1000
Not applicable
1000
The layout will not be plotted unless a new plotter configuration name is selected.
1070
     0
  0
MATERIAL
  5
ED
102
{ACAD_XDICTIONARY
360
1F9
102
}
102
{ACAD_REACTORS
330
6A
102
}
330
6A
100
AcDbMaterial
  1
ByBlock
  0
MATERIAL
  5
EC
102
{ACAD_XDICTIONARY
360
1F7
102
}
102
{ACAD_REACTORS
330
6A
102
}
330
6A
100
AcDbMaterial
  1
ByLayer
  0
MATERIAL
  5
EE
102
{ACAD_XDICTIONARY
360
173
102
}
102
{ACAD_REACTORS
330
6A
102
}
330
6A
100
AcDbMaterial
  1
Global
 43
0.0007999999797903
 43
0.0
 43
0.0
 43
0.0
 43
0.0
 43
0.0007999999797903
 43
0.0
 43
0.0
 43
0.0
 43
0.0
 43
1.0
 43
0.0
 43
0.0
 43
0.0
 43
0.0
 43
1.0
 49
0.0007999999797903
 49
0.0
 49
0.0
 49
0.0
 49
0.0
 49
0.0007999999797903
 49
0.0
 49
0.0
 49
0.0
 49
0.0
 49
1.0
 49
0.0
 49
0.0
 49
0.0
 49
0.0
 49
1.0
142
0.0007999999797903
142
0.0
142
0.0
142
0.0
142
0.0
142
0.0007999999797903
142
0.0
142
0.0
142
0.0
142
0.0
142
1.0
142
0.0
142
0.0
142
0.0
142
0.0
142
1.0
144
0.0007999999797903
144
0.0
144
0.0
144
0.0
144
0.0
144
0.0007999999797903
144
0.0
144
0.0
144
0.0
144
0.0
144
1.0
144
0.0
144
0.0
144
0.0
144
0.0
144
1.0
1001
ACAD
1070
    -1
1070
     3
1070
     0
1000

1071
        0
1070
     0
  0
MLEADERSTYLE
  5
12E
102
{ACAD_XDICTIONARY
360
792E
102
}
102
{ACAD_REACTORS
330
12D
102
}
330
12D
100
AcDbMLeaderStyle
170
     2
171
     1
172
     0
 90
        2
 40
0.0
 41
0.0
173
     1
 91
-1056964608
340
14
 92
       -2
290
     1
 42
2.0
291
     1
 43
8.0
  3
Standard
 44
4.0
300

342
11
174
     1
178
     1
175
     1
176
     0
 93
-1056964608
 45
4.0
292
     0
297
     0
 46
4.0
 94
-1056964608
 47
1.0
 49
1.0
140
1.0
293
     1
141
0.0
294
     1
177
     0
142
1.0
295
     0
296
     0
143
3.75
1001
ACAD_MLEADERVER
1070
     2
  0
MLINESTYLE
  5
18
102
{ACAD_REACTORS
330
17
102
}
330
17
100
AcDbMlineStyle
  2
STANDARD
 70
     0
  3

 62
   256
 51
90.0
 52
90.0
 71
     2
 49
0.5
 62
   256
  6
BYLAYER
 49
-0.5
 62
   256
  6
BYLAYER
  0
ACDBPLACEHOLDER
  5
F
102
{ACAD_REACTORS
330
E
102
}
330
E
  0
SCALE
  5
10D
102
{ACAD_REACTORS
330
10C
102
}
330
10C
100
AcDbScale
 70
     0
300
1:1
140
1.0
141
1.0
290
     1
  0
SCALE
  5
1BE
102
{ACAD_REACTORS
330
10C
102
}
330
10C
100
AcDbScale
 70
     0
300
1:2
140
1.0
141
2.0
290
     0
  0
SCALE
  5
1BF
102
{ACAD_REACTORS
330
10C
102
}
330
10C
100
AcDbScale
 70
     0
300
1:4
140
1.0
141
4.0
290
     0
  0
SCALE
  5
1C0
102
{ACAD_REACTORS
330
10C
102
}
330
10C
100
AcDbScale
 70
     0
300
1:5
140
1.0
141
5.0
290
     0
  0
SCALE
  5
1C1
102
{ACAD_REACTORS
330
10C
102
}
330
10C
100
AcDbScale
 70
     0
300
1:8
140
1.0
141
8.0
290
     0
  0
SCALE
  5
1C2
102
{ACAD_REACTORS
330
10C
102
}
330
10C
100
AcDbScale
 70
     0
300
1:10
140
1.0
141
10.0
290
     0
  0
SCALE
  5
1C3
102
{ACAD_REACTORS
330
10C
102
}
330
10C
100
AcDbScale
 70
     0
300
1:16
140
1.0
141
16.0
290
     0
  0
SCALE
  5
1C4
102
{ACAD_REACTORS
330
10C
102
}
330
10C
100
AcDbScale
 70
     0
300
1:20
140
1.0
141
20.0
290
     0
  0
SCALE
  5
1C5
102
{ACAD_REACTORS
330
10C
102
}
330
10C
100
AcDbScale
 70
     0
300
1:30
140
1.0
141
30.0
290
     0
  0
SCALE
  5
1C6
102
{ACAD_REACTORS
330
10C
102
}
330
10C
100
AcDbScale
 70
     0
300
1:40
140
1.0
141
40.0
290
     0
  0
SCALE
  5
1C7
102
{ACAD_REACTORS
330
10C
102
}
330
10C
100
AcDbScale
 70
     0
300
1:50
140
1.0
141
50.0
290
     0
  0
SCALE
  5
1C8
102
{ACAD_REACTORS
330
10C
102
}
330
10C
100
AcDbScale
 70
     0
300
1:100
140
1.0
141
100.0
290
     0
  0
SCALE
  5
1C9
102
{ACAD_REACTORS
330
10C
102
}
330
10C
100
AcDbScale
 70
     0
300
2:1
140
2.0
141
1.0
290
     0
  0
SCALE
  5
1CA
102
{ACAD_REACTORS
330
10C
102
}
330
10C
100
AcDbScale
 70
     0
300
4:1
140
4.0
141
1.0
290
     0
  0
SCALE
  5
1CB
102
{ACAD_REACTORS
330
10C
102
}
330
10C
100
AcDbScale
 70
     0
300
8:1
140
8.0
141
1.0
290
     0
  0
SCALE
  5
1CC
102
{ACAD_REACTORS
330
10C
102
}
330
10C
100
AcDbScale
 70
     0
300
10:1
140
10.0
141
1.0
290
     0
  0
SCALE
  5
1CD
102
{ACAD_REACTORS
330
10C
102
}
330
10C
100
AcDbScale
 70
     0
300
100:1
140
100.0
141
1.0
290
     0
  0
ACDBSECTIONVIEWSTYLE
  5
21A
102
{ACAD_XDICTIONARY
360
7940
102
}
102
{ACAD_REACTORS
330
219
102
}
330
219
100
AcDbModelDocViewStyle
 70
     0
  3
Metric50
290
     0
100
AcDbSectionViewStyle
 70
     0
 71
     0
 90
      102
 71
     1
340
11
 40
5.0
340
0
340
0
 40
5.0
300
I, O, Q, S, X, Z
 40
10.0
 90
        0
 40
2.5
 90
        0
 71
     2
340
16
 90
       25
340
16
 90
       50
 40
5.0
 40
2.5
 40
5.0
 71
     3
340
11
 40
5.0
 90
        0
 40
15.0
 90
        1
300
%<\AcVar ViewSectionStartId>%-%<\AcVar ViewSectionEndId>% (%<\AcVar ViewScale \f "%sn">%)
 71
     4
300
ANSI31
 40
1.0
 90
        0
290
     0
290
     0
 90
        6
 40
0.0
 40
1.570796326794896
 40
0.2617993877991494
 40
1.308996938995747
 40
-0.2617993877991494
 40
1.832595714594046
  0
TABLESTYLE
  5
7F
102
{ACAD_XDICTIONARY
360
162
102
}
102
{ACAD_REACTORS
330
7E
102
}
330
7E
100
AcDbTableStyle
  3
Standard
 70
     0
 71
     0
 40
1.5
 41
1.5
280
     0
281
     0
  7
Standard
140
4.5
170
     2
 62
     0
 63
     7
283
     0
274
    -2
284
     1
 64
     0
275
    -2
285
     1
 65
     0
276
    -2
286
     1
 66
     0
277
    -2
287
     1
 67
     0
278
    -2
288
     1
 68
     0
279
    -2
289
     1
 69
     0
  7
Standard
140
6.0
170
     5
 62
     0
 63
     7
283
     0
274
    -2
284
     1
 64
     0
275
    -2
285
     1
 65
     0
276
    -2
286
     1
 66
     0
277
    -2
287
     1
 67
     0
278
    -2
288
     1
 68
     0
279
    -2
289
     1
 69
     0
  7
Standard
140
4.5
170
     5
 62
     0
 63
     7
283
     0
274
    -2
284
     1
 64
     0
275
    -2
285
     1
 65
     0
276
    -2
286
     1
 66
     0
277
    -2
287
     1
 67
     0
278
    -2
288
     1
 68
     0
279
    -2
289
     1
 69
     0
  0
VISUALSTYLE
  5
F5
102
{ACAD_XDICTIONARY
360
7918
102
}
102
{ACAD_REACTORS
330
EF
102
}
330
EF
100
AcDbVisualStyle
  2
2dWireframe
 70
     4
 71
     0
 72
     2
 73
     1
 90
        0
 40
-0.6
 41
-30.0
 62
     5
 63
     7
 74
     1
 91
        4
 64
     7
 65
   257
 75
     1
175
     1
 42
1.0
 92
        0
 66
   257
 43
1.0
 76
     1
 77
     6
 78
     2
 67
     7
 79
     5
170
     0
171
     0
290
     0
174
     0
 93
        1
 44
0.0
173
     0
291
     0
 45
0.0
1001
ACAD
1000
AcDbSavedByObjectVersion
1070
     0
  0
VISUALSTYLE
  5
F4
102
{ACAD_XDICTIONARY
360
7916
102
}
102
{ACAD_REACTORS
330
EF
102
}
330
EF
100
AcDbVisualStyle
  2
Basic
 70
     7
 71
     1
 72
     0
 73
     1
 90
        0
 40
-0.6
 41
-30.0
 62
     5
 63
     7
 74
     0
 91
        4
 64
     7
 65
   257
 75
     1
175
     1
 42
1.0
 92
        8
 66
     7
 43
1.0
 76
     1
 77
     6
 78
     2
 67
     7
 79
     5
170
     0
171
     0
290
     0
174
     0
 93
        1
 44
0.0
173
     0
291
     1
 45
0.0
1001
ACAD
1000
AcDbSavedByObjectVersion
1070
     0
  0
VISUALSTYLE
  5
FB
102
{ACAD_XDICTIONARY
360
7924
102
}
102
{ACAD_REACTORS
330
EF
102
}
330
EF
100
AcDbVisualStyle
  2
Brighten
 70
    12
 71
     2
 72
     2
 73
     1
 90
        0
 40
-0.6
 41
-30.0
 62
     5
 63
     7
 74
     1
 91
        4
 64
     7
 65
   257
 75
     1
175
     1
 42
1.0
 92
        8
 66
     7
 43
1.0
 76
     1
 77
     6
 78
     2
 67
     7
 79
     5
170
     0
171
     0
290
     0
174
     0
 93
        1
 44
50.0
173
     0
291
     1
 45
0.0
1001
ACAD
1000
AcDbSavedByObjectVersion
1070
     0
  0
VISUALSTYLE
  5
FF
102
{ACAD_XDICTIONARY
360
792C
102
}
102
{ACAD_REACTORS
330
EF
102
}
330
EF
100
AcDbVisualStyle
  2
ColorChange
 70
    16
 71
     2
 72
     2
 73
     3
 90
        0
 40
-0.6
 41
-30.0
 62
     5
 63
     8
 74
     1
 91
        4
 64
     7
 65
   257
 75
     1
175
     1
 42
1.0
 92
        8
 66
     8
 43
1.0
 76
     1
 77
     6
 78
     2
 67
     7
 79
     5
170
     0
171
     0
290
     0
174
     0
 93
        1
 44
0.0
173
     0
291
     1
 45
0.0
1001
ACAD
1000
AcDbSavedByObjectVersion
1070
     0
  0
VISUALSTYLE
  5
F8
102
{ACAD_XDICTIONARY
360
791E
102
}
102
{ACAD_REACTORS
330
EF
102
}
330
EF
100
AcDbVisualStyle
  2
Conceptual
 70
     9
 71
     3
 72
     2
 73
     1
 90
        0
 40
-0.6
 41
-30.0
 62
     5
 63
     7
 74
     2
 91
        2
 64
     7
 65
   257
 75
     1
175
     1
 42
40.0
 92
        8
 66
     7
 43
1.0
 76
     1
 77
     6
 78
     2
 67
     7
 79
     3
170
     0
171
     0
290
     0
174
     0
 93
        1
 44
0.0
173
     0
291
     0
 45
0.0
1001
ACAD
1000
AcDbSavedByObjectVersion
1070
     0
  0
VISUALSTYLE
  5
FA
102
{ACAD_XDICTIONARY
360
7922
102
}
102
{ACAD_REACTORS
330
EF
102
}
330
EF
100
AcDbVisualStyle
  2
Dim
 70
    11
 71
     2
 72
     2
 73
     1
 90
        0
 40
-0.6
 41
-30.0
 62
     5
 63
     7
 74
     1
 91
        4
 64
     7
 65
   257
 75
     1
175
     1
 42
1.0
 92
        8
 66
     7
 43
1.0
 76
     1
 77
     6
 78
     2
 67
     7
 79
     5
170
     0
171
     0
290
     0
174
     0
 93
        1
 44
-50.0
173
     0
291
     1
 45
0.0
1001
ACAD
1000
AcDbSavedByObjectVersion
1070
     0
  0
VISUALSTYLE
  5
1E6
102
{ACAD_XDICTIONARY
360
7934
102
}
102
{ACAD_REACTORS
330
EF
102
}
330
EF
100
AcDbVisualStyle
  2
EdgeColorOff
 70
    22
 71
     2
 72
     2
 73
     0
 90
        0
 40
-0.6
 41
-30.0
 62
     5
 63
     7
 74
     1
 91
        4
 64
     7
 65
   257
 75
     1
175
     1
 42
1.0
 92
        8
 66
     7
 43
1.0
 76
     1
 77
     6
 78
     2
 67
     7
 79
     5
170
     0
171
     0
290
     0
174
     0
 93
        1
 44
0.0
173
     0
291
     1
 45
0.0
1001
ACAD
1000
AcDbSavedByObjectVersion
1070
     0
  0
VISUALSTYLE
  5
FE
102
{ACAD_XDICTIONARY
360
792A
102
}
102
{ACAD_REACTORS
330
EF
102
}
330
EF
100
AcDbVisualStyle
  2
Facepattern
 70
    15
 71
     2
 72
     2
 73
     1
 90
        0
 40
-0.6
 41
-30.0
 62
     5
 63
     7
 74
     1
 91
        4
 64
     7
 65
   257
 75
     1
175
     1
 42
1.0
 92
        8
 66
     7
 43
1.0
 76
     1
 77
     6
 78
     2
 67
     7
 79
     5
170
     0
171
     0
290
     0
174
     0
 93
        1
 44
0.0
173
     0
291
     1
 45
0.0
1001
ACAD
1000
AcDbSavedByObjectVersion
1070
     0
  0
VISUALSTYLE
  5
F0
102
{ACAD_XDICTIONARY
360
790E
102
}
102
{ACAD_REACTORS
330
EF
102
}
330
EF
100
AcDbVisualStyle
  2
Flat
 70
     0
 71
     2
 72
     1
 73
     1
 90
        2
 40
-0.6
 41
30.0
 62
     5
 63
     7
 74
     0
 91
        0
 64
     7
 65
   257
 75
     1
175
     1
 42
1.0
 92
        8
 66
     7
 43
1.0
 76
     1
 77
     6
 78
     2
 67
     7
 79
     5
170
     0
171
     0
290
     0
174
     0
 93
       13
 44
0.0
173
     0
291
     1
 45
0.0
1001
ACAD
1000
AcDbSavedByObjectVersion
1070
     0
  0
VISUALSTYLE
  5
F1
102
{ACAD_XDICTIONARY
360
7910
102
}
102
{ACAD_REACTORS
330
EF
102
}
330
EF
100
AcDbVisualStyle
  2
FlatWithEdges
 70
     1
 71
     2
 72
     1
 73
     1
 90
        2
 40
-0.6
 41
30.0
 62
     5
 63
     7
 74
     1
 91
        0
 64
     7
 65
   257
 75
     1
175
     1
 42
1.0
 92
        0
 66
   257
 43
1.0
 76
     1
 77
     6
 78
     2
 67
     7
 79
     5
170
     0
171
     0
290
     0
174
     0
 93
       13
 44
0.0
173
     0
291
     1
 45
0.0
1001
ACAD
1000
AcDbSavedByObjectVersion
1070
     0
  0
VISUALSTYLE
  5
F2
102
{ACAD_XDICTIONARY
360
7912
102
}
102
{ACAD_REACTORS
330
EF
102
}
330
EF
100
AcDbVisualStyle
  2
Gouraud
 70
     2
 71
     2
 72
     2
 73
     1
 90
        2
 40
-0.6
 41
30.0
 62
     5
 63
     7
 74
     0
 91
        0
 64
     7
 65
   257
 75
     1
175
     1
 42
1.0
 92
        0
 66
     7
 43
1.0
 76
     1
 77
     6
 78
     2
 67
     7
 79
     5
170
     0
171
     0
290
     0
174
     0
 93
       13
 44
0.0
173
     0
291
     1
 45
0.0
1001
ACAD
1000
AcDbSavedByObjectVersion
1070
     0
  0
VISUALSTYLE
  5
F3
102
{ACAD_XDICTIONARY
360
7914
102
}
102
{ACAD_REACTORS
330
EF
102
}
330
EF
100
AcDbVisualStyle
  2
GouraudWithEdges
 70
     3
 71
     2
 72
     2
 73
     1
 90
        2
 40
-0.6
 41
30.0
 62
     5
 63
     7
 74
     1
 91
        0
 64
     7
 65
   257
 75
     1
175
     1
 42
1.0
 92
        0
 66
   257
 43
1.0
 76
     1
 77
     6
 78
     2
 67
     7
 79
     5
170
     0
171
     0
290
     0
174
     0
 93
       13
 44
0.0
173
     0
291
     1
 45
0.0
1001
ACAD
1000
AcDbSavedByObjectVersion
1070
     0
  0
VISUALSTYLE
  5
F7
102
{ACAD_XDICTIONARY
360
791C
102
}
102
{ACAD_REACTORS
330
EF
102
}
330
EF
100
AcDbVisualStyle
  2
Hidden
 70
     6
 71
     1
 72
     2
 73
     2
 90
        0
 40
-0.6
 41
-30.0
 62
     5
 63
     7
 74
     2
 91
        2
 64
     7
 65
   257
 75
     2
175
     1
 42
40.0
 92
        0
 66
   257
 43
1.0
 76
     1
 77
     6
 78
     2
 67
     7
 79
     3
170
     0
171
     0
290
     0
174
     0
 93
        1
 44
0.0
173
     0
291
     0
 45
0.0
1001
ACAD
1000
AcDbSavedByObjectVersion
1070
     0
  0
VISUALSTYLE
  5
1E4
102
{ACAD_XDICTIONARY
360
7930
102
}
102
{ACAD_REACTORS
330
EF
102
}
330
EF
100
AcDbVisualStyle
  2
JitterOff
 70
    20
 71
     2
 72
     2
 73
     0
 90
        0
 40
-0.6
 41
-30.0
 62
     5
 63
     7
 74
     1
 91
        4
 64
     7
 65
   257
 75
     1
175
     1
 42
1.0
 92
       10
 66
     7
 43
1.0
 76
     1
 77
     6
 78
     2
 67
     7
 79
     5
170
     0
171
     0
290
     0
174
     0
 93
        1
 44
0.0
173
     0
291
     1
 45
0.0
1001
ACAD
1000
AcDbSavedByObjectVersion
1070
     0
  0
VISUALSTYLE
  5
FD
102
{ACAD_XDICTIONARY
360
7928
102
}
102
{ACAD_REACTORS
330
EF
102
}
330
EF
100
AcDbVisualStyle
  2
Linepattern
 70
    14
 71
     2
 72
     2
 73
     1
 90
        0
 40
-0.6
 41
-30.0
 62
     5
 63
     7
 74
     1
 91
        4
 64
     7
 65
   257
 75
     7
175
     7
 42
1.0
 92
        8
 66
     7
 43
1.0
 76
     1
 77
     6
 78
     2
 67
     7
 79
     5
170
     0
171
     0
290
     0
174
     0
 93
        1
 44
0.0
173
     0
291
     1
 45
0.0
1001
ACAD
1000
AcDbSavedByObjectVersion
1070
     0
  0
VISUALSTYLE
  5
1E5
102
{ACAD_XDICTIONARY
360
7932
102
}
102
{ACAD_REACTORS
330
EF
102
}
330
EF
100
AcDbVisualStyle
  2
OverhangOff
 70
    21
 71
     2
 72
     2
 73
     0
 90
        0
 40
-0.6
 41
-30.0
 62
     5
 63
     7
 74
     1
 91
        4
 64
     7
 65
   257
 75
     1
175
     1
 42
1.0
 92
        9
 66
     7
 43
1.0
 76
     1
 77
     6
 78
     2
 67
     7
 79
     5
170
     0
171
     0
290
     0
174
     0
 93
        1
 44
0.0
173
     0
291
     1
 45
0.0
1001
ACAD
1000
AcDbSavedByObjectVersion
1070
     0
  0
VISUALSTYLE
  5
F9
102
{ACAD_XDICTIONARY
360
7920
102
}
102
{ACAD_REACTORS
330
EF
102
}
330
EF
100
AcDbVisualStyle
  2
Realistic
 70
     8
 71
     2
 72
     2
 73
     0
 90
        2
 40
-0.6
 41
30.0
 62
     5
 63
     7
 74
     0
 91
        0
 64
     7
 65
   257
 75
     1
175
     1
 42
1.0
 92
        8
 66
   257
 43
1.0
 76
     1
 77
     6
 78
     2
 67
     7
 79
     3
170
     0
171
     0
290
     0
174
     0
 93
       13
 44
0.0
173
     0
291
     0
 45
0.0
1001
ACAD
1000
AcDbSavedByObjectVersion
1070
     0
  0
VISUALSTYLE
  5
1F3
102
{ACAD_XDICTIONARY
360
793E
102
}
102
{ACAD_REACTORS
330
EF
102
}
330
EF
100
AcDbVisualStyle
  2
Shaded
 70
    27
 71
     2
 72
     2
 73
     1
 90
        2
 40
-0.6
 41
30.0
 62
     5
 63
     7
 74
     0
 91
        4
 64
     7
 65
   257
 75
     1
175
     1
 42
1.0
 92
        8
 66
   257
 43
1.0
 76
     1
 77
     6
 78
     2
 67
     8
 79
     3
170
     0
171
     0
290
     0
174
     0
 93
        5
 44
0.0
173
     0
291
     0
 45
0.0
1001
ACAD
1000
AcDbSavedByObjectVersion
1070
     0
  0
VISUALSTYLE
  5
1F2
102
{ACAD_XDICTIONARY
360
793C
102
}
102
{ACAD_REACTORS
330
EF
102
}
330
EF
100
AcDbVisualStyle
  2
Shaded with edges
 70
    26
 71
     2
 72
     2
 73
     1
 90
        2
 40
-0.6
 41
30.0
 62
     5
 63
     7
 74
     1
 91
        2
 64
     7
 65
   257
 75
     2
175
     1
 42
1.0
 92
        8
 66
   257
 43
1.0
 76
     1
 77
     6
 78
     2
 67
     7
 79
     3
170
     0
171
     0
290
     0
174
     0
 93
        5
 44
0.0
173
     0
291
     0
 45
0.0
1001
ACAD
1000
AcDbSavedByObjectVersion
1070
     0
  0
VISUALSTYLE
  5
1EF
102
{ACAD_XDICTIONARY
360
7936
102
}
102
{ACAD_REACTORS
330
EF
102
}
330
EF
100
AcDbVisualStyle
  2
Shades of Gray
 70
    23
 71
     2
 72
     2
 73
     3
 90
        0
 40
-0.6
 41
-30.0
 62
     5
 63
     7
 74
     2
 91
        2
 64
     7
 65
     7
 75
     1
175
     1
 42
40.0
 92
        8
 66
     7
 43
1.0
 76
     1
 77
     6
 78
     2
 67
     7
 79
     3
170
     0
171
     0
290
     0
174
     0
 93
        1
 44
0.0
173
     0
291
     0
 45
0.0
1001
ACAD
1000
AcDbSavedByObjectVersion
1070
     0
  0
VISUALSTYLE
  5
1F0
102
{ACAD_XDICTIONARY
360
7938
102
}
102
{ACAD_REACTORS
330
EF
102
}
330
EF
100
AcDbVisualStyle
  2
Sketchy
 70
    24
 71
     1
 72
     2
 73
     2
 90
        0
 40
-0.6
 41
-30.0
 62
     5
 63
     7
 74
     2
 91
        2
 64
     7
 65
     7
 75
     1
175
     1
 42
40.0
 92
       11
 66
     7
 43
1.0
 76
     1
 77
     6
 78
     2
 67
     7
 79
     6
170
     0
171
     0
290
     0
174
     0
 93
        1
 44
0.0
173
     0
291
     0
 45
0.0
1001
ACAD
1000
AcDbSavedByObjectVersion
1070
     0
  0
VISUALSTYLE
  5
FC
102
{ACAD_XDICTIONARY
360
7926
102
}
102
{ACAD_REACTORS
330
EF
102
}
330
EF
100
AcDbVisualStyle
  2
Thicken
 70
    13
 71
     2
 72
     2
 73
     1
 90
        0
 40
-0.6
 41
-30.0
 62
     5
 63
     7
 74
     1
 91
        4
 64
     7
 65
   257
 75
     1
175
     1
 42
1.0
 92
       12
 66
     7
 43
1.0
 76
     1
 77
     6
 78
     2
 67
     7
 79
     5
170
     0
171
     0
290
     0
174
     0
 93
        1
 44
0.0
173
     0
291
     1
 45
0.0
1001
ACAD
1000
AcDbSavedByObjectVersion
1070
     0
  0
VISUALSTYLE
  5
F6
102
{ACAD_XDICTIONARY
360
791A
102
}
102
{ACAD_REACTORS
330
EF
102
}
330
EF
100
AcDbVisualStyle
  2
Wireframe
 70
     5
 71
     0
 72
     2
 73
     0
 90
        0
 40
-0.6
 41
-30.0
 62
     5
 63
     7
 74
     1
 91
        4
 64
     7
 65
   257
 75
     1
175
     1
 42
1.0
 92
        0
 66
   257
 43
1.0
 76
     1
 77
     6
 78
     2
 67
     7
 79
     3
170
     0
171
     0
290
     0
174
     0
 93
        1
 44
0.0
173
     0
291
     0
 45
0.0
1001
ACAD
1000
AcDbSavedByObjectVersion
1070
     0
  0
VISUALSTYLE
  5
1F1
102
{ACAD_XDICTIONARY
360
793A
102
}
102
{ACAD_REACTORS
330
EF
102
}
330
EF
100
AcDbVisualStyle
  2
X-Ray
 70
    25
 71
     2
 72
     2
 73
     1
 90
        1
 40
0.5
 41
-30.0
 62
     5
 63
     7
 74
     1
 91
        0
 64
     7
 65
   257
 75
     1
175
     1
 42
1.0
 92
        8
 66
     7
 43
1.0
 76
     1
 77
     6
 78
     2
 67
     7
 79
     3
170
     0
171
     0
290
     0
174
     0
 93
       13
 44
0.0
173
     0
291
     0
 45
0.0
1001
ACAD
1000
AcDbSavedByObjectVersion
1070
     0
  0
DICTIONARYVAR
  5
146
102
{ACAD_REACTORS
330
5E
102
}
330
5E
100
DictionaryVariables
280
     0
  1
1:1
  0
DICTIONARYVAR
  5
259
102
{ACAD_REACTORS
330
5E
102
}
330
5E
100
DictionaryVariables
280
     0
  1
3.500000
  0
DICTIONARYVAR
  5
25A
102
{ACAD_REACTORS
330
5E
102
}
330
5E
100
DictionaryVariables
280
     0
  1
acadiso.lin
  0
DICTIONARYVAR
  5
145
102
{ACAD_REACTORS
330
5E
102
}
330
5E
100
DictionaryVariables
280
     0
  1
STANDARD
  0
DICTIONARYVAR
  5
84
102
{ACAD_REACTORS
330
5E
102
}
330
5E
100
DictionaryVariables
280
     0
  1
STANDARD
  0
DICTIONARYVAR
  5
227
102
{ACAD_REACTORS
330
5E
102
}
330
5E
100
DictionaryVariables
280
     0
  1
Metric50
  0
DICTIONARYVAR
  5
228
102
{ACAD_REACTORS
330
5E
102
}
330
5E
100
DictionaryVariables
280
     0
  1
Metric50
  0
DICTIONARYVAR
  5
5F
102
{ACAD_REACTORS
330
5E
102
}
330
5E
100
DictionaryVariables
280
     0
  1
2
  0
DICTIONARYVAR
  5
63
102
{ACAD_REACTORS
330
5E
102
}
330
5E
100
DictionaryVariables
280
     0
  1
1
  0
DICTIONARYVAR
  5
78AF
102
{ACAD_REACTORS
330
5E
102
}
330
5E
100
DictionaryVariables
280
     0
  1
0
  0
DICTIONARYVAR
  5
1AE
102
{ACAD_REACTORS
330
5E
102
}
330
5E
100
DictionaryVariables
280
     0
  1
0
  0
DICTIONARYVAR
  5
1AF
102
{ACAD_REACTORS
330
5E
102
}
330
5E
100
DictionaryVariables
280
     0
  1
0
  0
DICTIONARYVAR
  5
78AD
102
{ACAD_REACTORS
330
5E
102
}
330
5E
100
DictionaryVariables
280
     0
  1
2
  0
DICTIONARYVAR
  5
78AC
102
{ACAD_REACTORS
330
5E
102
}
330
5E
100
DictionaryVariables
280
     0
  1
1
  0
DICTIONARYVAR
  5
78FF
102
{ACAD_REACTORS
330
5E
102
}
330
5E
100
DictionaryVariables
280
     0
  1
80.000000
  0
DICTIONARYVAR
  5
78FE
102
{ACAD_REACTORS
330
5E
102
}
330
5E
100
DictionaryVariables
280
     0
  1
5.000000
  0
DICTIONARYVAR
  5
78AE
102
{ACAD_REACTORS
330
5E
102
}
330
5E
100
DictionaryVariables
280
     0
  1
127
  0
DICTIONARYVAR
  5
7900
102
{ACAD_REACTORS
330
5E
102
}
330
5E
100
DictionaryVariables
280
     0
  1
2
  0
DICTIONARY
  5
7942
330
21C
100
AcDbDictionary
280
     1
281
     1
  3
ACAD_XREC_ROUNDTRIP
360
7943
  0
DICTIONARY
  5
7907
330
D3
100
AcDbDictionary
280
     1
281
     1
  3
ACAD_XREC_ROUNDTRIP
360
7908
  0
DICTIONARY
  5
7909
330
D7
100
AcDbDictionary
280
     1
281
     1
  3
ACAD_XREC_ROUNDTRIP
360
790A
  0
DICTIONARY
  5
7904
330
22
100
AcDbDictionary
280
     1
281
     1
  3
ACAD_XREC_ROUNDTRIP
360
7905
  0
DICTIONARY
  5
1F9
330
ED
100
AcDbDictionary
280
     1
281
     1
  3
ACAD_XREC_ROUNDTRIP
360
790C
  3
FBXASSET
360
1FA
  0
DICTIONARY
  5
1F7
330
EC
100
AcDbDictionary
280
     1
281
     1
  3
ACAD_XREC_ROUNDTRIP
360
790B
  3
FBXASSET
360
1F8
  0
DICTIONARY
  5
173
330
EE
100
AcDbDictionary
280
     1
281
     1
  3
ACAD_XREC_ROUNDTRIP
360
790D
  3
BUMPTILE
360
175
  3
DIFFUSETILE
360
174
  3
FBXASSET
360
1FB
  3
OPACITYTILE
360
176
  3
REFLECTIONTILE
360
177
  0
DICTIONARY
  5
792E
330
12E
100
AcDbDictionary
280
     1
281
     1
  3
ACAD_XREC_ROUNDTRIP
360
792F
  0
DICTIONARY
  5
7940
330
21A
100
AcDbDictionary
280
     1
281
     1
  3
ACAD_XREC_ROUNDTRIP
360
7941
  0
DICTIONARY
  5
162
330
7F
100
AcDbDictionary
280
     1
281
     1
  3
ACAD_ROUNDTRIP_2008_TABLESTYLE_CELLSTYLEMAP
360
7901
  3
ACAD_XREC_ROUNDTRIP
360
7906
  0
DICTIONARY
  5
7918
330
F5
100
AcDbDictionary
280
     1
281
     1
  3
ACAD_XREC_ROUNDTRIP
360
7919
  0
DICTIONARY
  5
7916
330
F4
100
AcDbDictionary
280
     1
281
     1
  3
ACAD_XREC_ROUNDTRIP
360
7917
  0
DICTIONARY
  5
7924
330
FB
100
AcDbDictionary
280
     1
281
     1
  3
ACAD_XREC_ROUNDTRIP
360
7925
  0
DICTIONARY
  5
792C
330
FF
100
AcDbDictionary
280
     1
281
     1
  3
ACAD_XREC_ROUNDTRIP
360
792D
  0
DICTIONARY
  5
791E
330
F8
100
AcDbDictionary
280
     1
281
     1
  3
ACAD_XREC_ROUNDTRIP
360
791F
  0
DICTIONARY
  5
7922
330
FA
100
AcDbDictionary
280
     1
281
     1
  3
ACAD_XREC_ROUNDTRIP
360
7923
  0
DICTIONARY
  5
7934
330
1E6
100
AcDbDictionary
280
     1
281
     1
  3
ACAD_XREC_ROUNDTRIP
360
7935
  0
DICTIONARY
  5
792A
330
FE
100
AcDbDictionary
280
     1
281
     1
  3
ACAD_XREC_ROUNDTRIP
360
792B
  0
DICTIONARY
  5
790E
330
F0
100
AcDbDictionary
280
     1
281
     1
  3
ACAD_XREC_ROUNDTRIP
360
790F
  0
DICTIONARY
  5
7910
330
F1
100
AcDbDictionary
280
     1
281
     1
  3
ACAD_XREC_ROUNDTRIP
360
7911
  0
DICTIONARY
  5
7912
330
F2
100
AcDbDictionary
280
     1
281
     1
  3
ACAD_XREC_ROUNDTRIP
360
7913
  0
DICTIONARY
  5
7914
330
F3
100
AcDbDictionary
280
     1
281
     1
  3
ACAD_XREC_ROUNDTRIP
360
7915
  0
DICTIONARY
  5
791C
330
F7
100
AcDbDictionary
280
     1
281
     1
  3
ACAD_XREC_ROUNDTRIP
360
791D
  0
DICTIONARY
  5
7930
330
1E4
100
AcDbDictionary
280
     1
281
     1
  3
ACAD_XREC_ROUNDTRIP
360
7931
  0
DICTIONARY
  5
7928
330
FD
100
AcDbDictionary
280
     1
281
     1
  3
ACAD_XREC_ROUNDTRIP
360
7929
  0
DICTIONARY
  5
7932
330
1E5
100
AcDbDictionary
280
     1
281
     1
  3
ACAD_XREC_ROUNDTRIP
360
7933
  0
DICTIONARY
  5
7920
330
F9
100
AcDbDictionary
280
     1
281
     1
  3
ACAD_XREC_ROUNDTRIP
360
7921
  0
DICTIONARY
  5
793E
330
1F3
100
AcDbDictionary
280
     1
281
     1
  3
ACAD_XREC_ROUNDTRIP
360
793F
  0
DICTIONARY
  5
793C
330
1F2
100
AcDbDictionary
280
     1
281
     1
  3
ACAD_XREC_ROUNDTRIP
360
793D
  0
DICTIONARY
  5
7936
330
1EF
100
AcDbDictionary
280
     1
281
     1
  3
ACAD_XREC_ROUNDTRIP
360
7937
  0
DICTIONARY
  5
7938
330
1F0
100
AcDbDictionary
280
     1
281
     1
  3
ACAD_XREC_ROUNDTRIP
360
7939
  0
DICTIONARY
  5
7926
330
FC
100
AcDbDictionary
280
     1
281
     1
  3
ACAD_XREC_ROUNDTRIP
360
7927
  0
DICTIONARY
  5
791A
330
F6
100
AcDbDictionary
280
     1
281
     1
  3
ACAD_XREC_ROUNDTRIP
360
791B
  0
DICTIONARY
  5
793A
330
1F1
100
AcDbDictionary
280
     1
281
     1
  3
ACAD_XREC_ROUNDTRIP
360
793B
  0
XRECORD
  5
7943
102
{ACAD_REACTORS
330
7942
102
}
330
7942
100
AcDbXrecord
280
     1
102
DISPLAYNAME
  1
Metric50
102
FLAGS
 90
        0
  0
XRECORD
  5
7908
102
{ACAD_REACTORS
330
7907
102
}
330
7907
100
AcDbXrecord
280
     1
102
SHADEPLOT
 70
     0
102
SHADEPLOTRESLEVEL
 70
     2
102
SHADEPLOTCUSTOMDPI
 70
   300
  0
XRECORD
  5
790A
102
{ACAD_REACTORS
330
7909
102
}
330
7909
100
AcDbXrecord
280
     1
102
SHADEPLOT
 70
     0
102
SHADEPLOTRESLEVEL
 70
     2
102
SHADEPLOTCUSTOMDPI
 70
   300
  0
XRECORD
  5
7905
102
{ACAD_REACTORS
330
7904
102
}
330
7904
100
AcDbXrecord
280
     1
102
SHADEPLOT
 70
     0
102
SHADEPLOTRESLEVEL
 70
     2
102
SHADEPLOTCUSTOMDPI
 70
   300
  0
XRECORD
  5
790C
102
{ACAD_REACTORS
330
1F9
102
}
330
1F9
100
AcDbXrecord
280
     1
102
MATERIAL
148
0.0
149
0.0
149
0.0
 93
        0
 94
       63
282
     0
 72
     1
 77
     1
171
     1
175
     1
179
     1
273
     0
  0
XRECORD
  5
1FA
102
{ACAD_REACTORS
330
1F9
102
}
330
1F9
100
AcDbXrecord
280
     1
 70
     1
 90
429727718
  1
D62C5603-E3A1-4AEA-B7FB-FE5D8D0755AF
310
504B03040A0000080000CC70623B3DEE336E79000000790000001B0000006175746F6465736B2D64657369676E2D7061636B6167652E786D6C3C3F786D6C2076657273696F6E3D22312E302220656E636F64696E673D227574662D3822203F3E3C666F726D6174733E3C666F726D61743E687474703A2F2F736368656D612E
310
6175746F6465736B2E636F6D2F64657369676E2D7061636B6167652F323030393C2F666F726D61743E3C2F666F726D6174733E504B0304140006080800CC70623BD486FD9CA0000000F4000000130000005B436F6E74656E745F54797065735D2E786D6C7D8EC10E82300C865F65E91D8A1E8C310C0EEA1BF002731658846E
310
D98AC1B77784ABF1D8FE5FBFBF75BBCE937A534CCEB38643598122B6FEE978D0B0485F9C41B54DDD7D022595594E1A469170414C76A4D9A4D207E29CF43ECE46F218070CC6BECC4078ACAA135ACF422C856C0E68EA1BF5669944DDD7BCDE7B1F8E415D77AECB980613C2E4AC91FC167A2B244592486606FC29C8FD7F045B9A
310
EF7053A7E60B504B0304140006080800CC70623B853B8169EB0000007C01000008000000636F72652E786D6C8D90416EC3201045AF62CDB6C206821CC7C244919D9CA01740401C94182C03558F5F9C3852BBEB6A467FFE9B197D7EFC9E1EC5975982F5AE035262288C535E5B377690E21535501C055FBC8FBF6C503839990E
310
5619041F179FE64D52DE45E362569DD7661365082642A11EB9E920A89B99642953CC8E702F67A9EE7234257977194EC9EAE275C4EABCCF5EAD5940D4AC6F0E35A568B8F43562CD7046CD199FD07E60174276A7BE677B5EADB0E0D14EEFFB6A31321A0D82627C4084204C3F096B71DD52F6819B16635EADF63F509AF53FA164
310
5DDCD1EDDD17164090FCC8732078B56691CB33A85CD7DCC40F504B0304140006080800CC70623B55019EA25F0000007C00000007000000636E782E786D6C4DCB3B0E80201045D1AD90E915ED2CF8AC45050C11660C8261F98AB1B07AC9C97D42D718D865D3E909258CFD00CCE24AC6E326A164D74DC0B4128928FF32603847
310
2BA13128B1252AC747C6BAB984FC68F0B87FE8960A5C09FE86CFB69FBA01504B0304140006080800CC70623BDBABAAF470010000D40300000C0000006662782F636F72652E786D6CC553D16E823014FD95A6AF4B694182CC941A83FA05FB810A9511A125A5257EFE2E82712ECEB8A7F100CD39F7F69E734AF9FADC366850B6
310
AF8DCE7018308C942E4C59EB2AC3DE1D498AD15A706B8CFB56869196ADCAF00863C12B6B7C374385D14E6907A836A59A41D9F7CA615434B0C8705F7CAA5606D23BA8E84F41278B93AC54100640439DE0BDB320004D43C63716C7C399D30917DCFBBA9CD9BA8469F5B156168B24CED3F7248AC8769F27244EB73B92EED8862C
310
B7F13E0C179B3C8F979C8ECD82BBBABDAA2BAC924E9558448CBD9330242CFA08E3154B5651FCC6D215639C8EE5774DBE2B5F6CF2B5768B68963BB5F5588420E442FC700B1139D4CB01F450C1E918227C2E09DF070D8140C84E1E9AAB8F1340832A9CB13130A5F1376A908D57309505ECF2A0DF179C4E9D30F5B239B87E3823
310
7A79C6F31DE1A8A5AEC08474B03C7837EAE4938639B44E5932B833D2C6B6B279CDC613877FA26EE21F4A2A4C63EC7F29A2F301D1F9F7A0E37D145F504B0304140006080800CC70623B9C113CC27E0000009D0000000B0000006662782F636E782E786D6C4DCCDF0A83201C86E15B91DFB94BFB330DD428C8FB886521330DA7
310
6397BF1A1DECE883878F57749FCDA1B7892F1BBC047A23808C7F84D9FA55424E0BE6803A256208E9EF06C84F9B91703228B1C690F78B66B34CD9A5439DF5CF0BFBF65E35BCA1B8D6A5C6F540381E886698B5741C695F9503EBA150A2F8958E3DC3EA0B504B0304140006080800CC70623B7DF2F77C2A010000120200003100
310
00006662782F41393633353835312D344632462D344230382D423046372D3739314545314133324237412F636F72652E786D6C8D51DB8EC22014FC15C2939B0D2DB4B45643319AE817EC0F6041255A68B86CFCFC856D4D76DF7CE190393373060EDB3DC707F856CE6B6B7A480A0C81328395DA5C7B18C3057510EC3873D686
310
3F34088C18550F330C39BB3A1BA7051AAC09CA84841A2BD5020AEF55806078A44B0FFD7053A328440C89E1EFC52486BBB8AA8214A99D789CF9E05200300FC927E4FB4D5B375D43103D5527440FB843077C5AA3F5861C8F645F5787F59E95B390B318B55CE45AA638FAA2957BD7248B390B7A7CC51F9C124149C82B8C378810
310
84AB2F42B7B8DD56F413775B8C5999E9FF4471926F8AA236A1AE96B8B3CC434E5839373893369E1FAF30EA395917409EB7F26AF8801C171837A4A6AC9C89E9F9C9B1A58BA30FD6A5EF5DDDCF894B9AD9B6A59C957943A9FCAE2FD5BC4DFE03504B0304140006080800CC70623BAD7543B64E01000033030000300000006662
310
782F41393633353835312D344632462D344230382D423046372D3739314545314133324237412F636E782E786D6CD593CD6EC32010845F0571AD6CE3D48AD20813A9873E410FBD12D82434182C7EAAE6EDBB2424CD25871E7B41D6EC30B3FA84F9E67BB2E40B4234DE8DB46F1925E094D7C6ED479AD3AE5951B2113C789FEE
310
6C943839C1488B4C05DF079FE72A69D8C96C13AAD6B8631503449F83828872B949AC57D26200B826A308D316B4064D6E46FCDA41C05550DC9E483A00797BFD207EFB092A45DE9514C1BBD22178396BD39D891265658C238DEA00936C654E5E433CB65A26D9F6EDB5EBC14EBF49A45CB856E66048291F6939A9A81BB5C89177
310
38143CA680F4AA299D66A042CEB3354A2684DC9D8D178FE0D9B8B41CAAD720F880EE7EF93C0C18769E099ECC04D5A102C8049A8A05632F4DDF376CF1DE0F6BB65C2F8627B65A33C6BB62177CEBBDAD973006829F89F22E814B54F4BC2BE347F8AA8F681390B50FA73F804400B5F542E796F19FF974E7F78DB802FE05E20750
310
4B0304140006080800CC70623BE75B7789680500003C100000340000006662782F41393633353835312D344632462D344230382D423046372D3739314545314133324237412F6F626A656374732E786D6CAD575B8F9B3818FD2B887D06C22499CB8AA1CA655245D5B455A356FB305264C061D8018C6C3393D95FBFC7600890
310
A4CD5EF210B0B1BFEBF98E3F7B1FF6596ABC522E1296DF9BAE3D320D9A872C4AF2F8DE2CE5CEBA358D0FBEC719939D65A691938CDE9B6ADAF4BD98B3B2D05311DD91329583D9D5FC0F438434A7A611A644887B5384CF34233629258BA878B12322891DEFF6B66BD70BFB62634E8AE781D082709A4B588AF91C528CDA28B73F
310
1C998EEF39EABBEFA97FBD6A7C7E9553F9D3D79FE442923C3C523610337627CB87ABE99D359D4CC6D6E4FACAB5E6ABF9D2726FC6A3C5F56271377BB88362213924694B38DD99FE47C48627A1E7D49F5A8BB5E1A74C0A599ED3B0F21F1E56366B89112D681E218F0915D0D6F17AD41FBA2A369DCF6335D62ABBD39779D5DDD1
310
11D4D8DE3CBB96B2E04FB8202E41051754A1AA8E8F76B4C6DFE810B580B1547F4B84911149794252234D024EF8BBE963A95AE27B3D310A9D5C215C7960FAEE415ED75694C6AFB17BCACA5D99A60A9AA65F217B0BFC53292ACB92BF283FAD0D3621576592CB5BED907C2FA8E9DF794E35E97BEA31BED21FEB401ABB94C44839
310
DCACBF0E1C5DA8DA5B2F4DFFD32AD86F543D9E565E7056502E157C00AD2671CD534549AB752FCA9CDA00677A313F04E51B22FF19E57B300579E3C97EB29F682D92935CEC18CF901B7B54FD8C51F362B56FC72FE0B3C1EAE335EDCCBF5AEC39ADB17DC238973F804BA5E6F6BFE7AF1FB32E523BE9F3BD571418E3631DCA4D48
310
5250CF639223210A9446CA30052EDF057BD35F8329C1ECD84552BF0DC8D18BE7BCE23BFE6BD960AB4A7DE79923A103BEBD80F911CBAA2C60DB19B01CF164A5583B772EE6D3FFA56666CBCDA74DC97724A48F9A58967497E489C4D979006FD7A05E227A1EBDD0F737C623387A9C844D3709995625106D157315F8B8392CD4E0
310
A0B9A720C4BE9829CEF37EA1E13111214D53925356365ADA634861B52519DD27A00AEB808EAF0628E6F435519D446F45CF2C9CF5214F0A15B2F6D06B79DA3EE3CBF7F56780D2F4E7EF73A0F5E5B02A38D07DC852C6B7C1FBB6664213E0C39E3EBA7FF4E1AD23EA2829407C85E586727488B751B2DB9502BC7B228A3FD68B6E
310
A65A22397E690AA8D158D7E404EC8CDA235CC3B7D1898680131CEC2CDF2638C65196279577750F15884AEE19F94199155B92B13297978469D4F8D358DF0AEF7631E28DC8F0D9F437D5D39A83B2231A1D52D543813A824EF8D44BCFF2FA6A31BD1E8DAD87F1CCB526B3879935BF59CDADD5C37479BB1CDD4CA7B3556B516589
310
EF352754B706114D9C885EC9131DE6EFEB43D99AFE2391C2F958179413D7CFEF6B1B6DB1E7600F00DE6E5C67454A339A4BA2E0FBA85ED26F045D454F463DBFCE484C2F90F2E5E3666003662ED8F755951A7D1BECD5B30B550B2785C8E7320B7292A4838DDA71BBC863ED7613CAF659337A3354231D4FF4A182A54904C2898C
310
98B28C4AD0CE056CCF332A80986E571EE9DBC305BB5FEB7E509220A58D25CF042D712A806AC0AD0C657FDEF80D2D9CEAA2EE4D1C76F60BFE74219A06527D6F82DF6412526107381E55E353090704D085B52408A8913C4ED159D79BDA71BB4BC506F4831350EB6F975CD22D69BF7AC49B91A2C0A9DDA3D5CA36AD20FC478E37
310
E61844E2352865EBCB61A275A65283CAAA9DD27703B4102F5AF51EF5F573B75CBB5AD38BC845F7A49F82A0966A49C2E3EA5EA0ECD326CD965F1DB402C6FA8B51A4658C5C5E2EC9E214602E55810345408596591009A82E7E7FFACA19EEA299B14A0081A705CB3296EBC14CDF658DCD336EA6D1136881AAEB87B81AB9EE53D5
310
F5EB8BC8362082DA24122F98680A4E7930C01A0079749CEA14382A0783E5EBA5A10F8C098456A03D6A4AEB6BB881E2513747552A5DB22C7EDAF83BD5528081A365F7FF06504B0304140006080000CC70623B000000000000000000000000350000006662782F41393633353835312D344632462D344230382D423046372D37
310
39314545314133324237412F76657274696365732E62696E504B0304140006080800CC70623BF270F1330600000004000000360000006662782F41393633353835312D344632462D344230382D423046372D3739314545314133324237412F747269616E676C65732E62696E636660600000504B0304140006080000CC7062
310
3B000000000000000000000000370000006662782F41393633353835312D344632462D344230382D423046372D3739314545314133324237412F617474726962757465732E62696E504B0304140006080800CC70623B08DA0BD19000000041010000360000006662782F41393633353835312D344632462D344230382D4230
310
46372D3739314545314133324237412F6469726563746F72792E786D6C858F410AC3201045AF22B36F53E9A60B35CBEEBAE80D244E44489C6234F4F835464A48035D0DF398FF9F8AF63D0E6CC63039F212F8F9020C7D47C6792B21C5FE7403D62A1188E2E60C98D7234A5830286103A55745067B9D86B8A3CF9C7F90C11DE6
310
07FB144396D7B6A82D282E9A152AD114D5EF2CB866EEE831B8EEA07A7BB5A8D7D61A2BAAEB7FD5F70921FF497D00504B0304140006080800CC70623BEDD1DC58FD000000A00100003B0000006662782F41393633353835312D344632462D344230382D423046372D3739314545314133324237412F7265736F75726365732F
310
636F72652E786D6C8D504B6E833010BD0A9A6D65B00922041947112427E8052C33A156828DFCA97AFC9A40A576D7CDCCE87D344F8F9FBFE667F689CE6B6B3A6039850C8DB2A336530731DC4903D95970676DF82583CCC8193B5861107C72362E3BA4AC096842428D1D7107A5F7182053CF7474E0D507CE32973124857FE48B
310
540F3961CEF244279DE03EB81420DB9EAC1384436FA353E879B1B182C7A8C75DA3C7F453DF353A1075D537A7BA6464B8F535A99AE14A9A2BBD90E350DD183B5CFABE3AF262350B1EF4FC9351399401471025A527C218A1E53BAB5A5AB765F5469B96525EACF23FA6B88CFF34456DC2A1DCE36E360F82A5202F42F062ED2BAD
310
579969AFDD8A6F504B010214000A0000080000CC70623B3DEE336E79000000790000001B00000000000000000000000000000000006175746F6465736B2D64657369676E2D7061636B6167652E786D6C504B01021400140006080800CC70623BD486FD9CA0000000F40000001300000000000000000000000000B20000005B
310
436F6E74656E745F54797065735D2E786D6C504B01021400140006080800CC70623B853B8169EB0000007C010000080000000000000000000000000083010000636F72652E786D6C504B01021400140006080800CC70623B55019EA25F0000007C000000070000000000000000000000000094020000636E782E786D6C504B
310
01021400140006080800CC70623BDBABAAF470010000D40300000C00000000000000000000000000180300006662782F636F72652E786D6C504B01021400140006080800CC70623B9C113CC27E0000009D0000000B00000000000000000000000000B20400006662782F636E782E786D6C504B01021400140006080800CC70
310
623B7DF2F77C2A010000120200003100000000000000000000000000590500006662782F41393633353835312D344632462D344230382D423046372D3739314545314133324237412F636F72652E786D6C504B01021400140006080800CC70623BAD7543B64E010000330300003000000000000000000000000000D2060000
310
6662782F41393633353835312D344632462D344230382D423046372D3739314545314133324237412F636E782E786D6C504B01021400140006080800CC70623BE75B7789680500003C10000034000000000000000000000000006E0800006662782F41393633353835312D344632462D344230382D423046372D3739314545
310
314133324237412F6F626A656374732E786D6C504B01021400140006080000CC70623B0000000000000000000000003500000000000000000000000000280E00006662782F41393633353835312D344632462D344230382D423046372D3739314545314133324237412F76657274696365732E62696E504B01021400140006
310
080800CC70623BF270F133060000000400000036000000000000000000000000007B0E00006662782F41393633353835312D344632462D344230382D423046372D3739314545314133324237412F747269616E676C65732E62696E504B01021400140006080000CC70623B0000000000000000000000003700000000000000
310
000000000000D50E00006662782F41393633353835312D344632462D344230382D423046372D3739314545314133324237412F617474726962757465732E62696E504B01021400140006080800CC70623B08DA0BD1900000004101000036000000000000000000000000002A0F00006662782F41393633353835312D344632
310
462D344230382D423046372D3739314545314133324237412F6469726563746F72792E786D6C504B01021400140006080800CC70623BEDD1DC58FD000000A00100003B000000000000000000000000000E1000006662782F41393633353835312D344632462D344230382D423046372D3739314545314133324237412F7265
310
736F75726365732F636F72652E786D6C504B0506000000000E000E0080040000641100000000
  0
XRECORD
  5
790B
102
{ACAD_REACTORS
330
1F7
102
}
330
1F7
100
AcDbXrecord
280
     1
102
MATERIAL
148
0.0
149
0.0
149
0.0
 93
        0
 94
       63
282
     0
 72
     1
 77
     1
171
     1
175
     1
179
     1
273
     0
  0
XRECORD
  5
1F8
102
{ACAD_REACTORS
330
1F7
102
}
330
1F7
100
AcDbXrecord
280
     1
 70
     1
 90
429727718
  1
30362254-06B7-45E0-A893-8CFA70E3D6BC
310
504B03040A0000080000CC70623B3DEE336E79000000790000001B0000006175746F6465736B2D64657369676E2D7061636B6167652E786D6C3C3F786D6C2076657273696F6E3D22312E302220656E636F64696E673D227574662D3822203F3E3C666F726D6174733E3C666F726D61743E687474703A2F2F736368656D612E
310
6175746F6465736B2E636F6D2F64657369676E2D7061636B6167652F323030393C2F666F726D61743E3C2F666F726D6174733E504B0304140006080800CC70623BD486FD9CA0000000F4000000130000005B436F6E74656E745F54797065735D2E786D6C7D8EC10E82300C865F65E91D8A1E8C310C0EEA1BF002731658846E
310
D98AC1B77784ABF1D8FE5FBFBF75BBCE937A534CCEB38643598122B6FEE978D0B0485F9C41B54DDD7D022595594E1A469170414C76A4D9A4D207E29CF43ECE46F218070CC6BECC4078ACAA135ACF422C856C0E68EA1BF5669944DDD7BCDE7B1F8E415D77AECB980613C2E4AC91FC167A2B244592486606FC29C8FD7F045B9A
310
EF7053A7E60B504B0304140006080800CC70623B1EC5D7A3EB0000007C01000008000000636F72652E786D6C8D90416EC3201045AF82665B6103C6756C6122AB4D4ED00B204C5C94182C03558F5F9C3852BBEB6A467FFE9B197D71FC9E6FE8CBACC17AD7032D0820E3B41FAD9B7A48F1820F808E52ACDEC75F36404ECDA687
310
4D0629A6D5A76597B477D1B89855E747B38B2A041301E95B6E7A08FAD3CCAA50296647B8168BD2573599823EBB0CA76447F43862C7BCCF5EAC59410E4DDD9C7973C2755553CCCFA4C603E3040F1565ED3B1FDE4E432BCA0D9622DAF9795FAF464533826484B498524CD807E51D79ED187F21878E10516EF63F505AC67F42C9
310
BA58B1FDDD071640D2FCC87D2045B96591CB3DA85CB7DCE40F504B0304140006080800CC70623B55019EA25F0000007C00000007000000636E782E786D6C4DCB3B0E80201045D1AD90E915ED2CF8AC45050C11660C8261F98AB1B07AC9C97D42D718D865D3E909258CFD00CCE24AC6E326A164D74DC0B4128928FF32603847
310
2BA13128B1252AC747C6BAB984FC68F0B87FE8960A5C09FE86CFB69FBA01504B0304140006080800CC70623B8C9102E971010000D40300000C0000006662782F636F72652E786D6CC5535B6E833010BC8AE5DF0A6C08340F1947A84D4ED00B38C6A128602363A31CBFCB234A53A551FA553EC09AD9F5CE8C31DB9E9B1AF5CA
310
7695D1198E428A91D2D214952E33ECDD315861B4E5CC1AE3BE9561A445A3323CC098B3D21ADFCE9034DA29ED00D5A6503328BA4E398C640D8B0C77F253352214DE4145770A5B214FA2546114020D759C75CE8200340D19DE981F0F6746269C33EFAB6266AB02A655C74A59CCF365BADC27CB5D902ED22848F6340DF238A141
310
BE88E2F57B92BFEDF23523433367AE6A2EEAA455C2A902F398D2751045018D3FA264435F3771F242571B4A1919CA6F9A7C5B3CD9E42BED16F12C776AEB308F40C848FC700B1139D4891EF410CEC810227CC6846F8386402064270EF5C5C709A05E49676C024C61FC95EA45ED154CA5211D1FF4FB8291A913A68E9B83EBBB33
310
E2A7673CDE118E5AE8124C0807CB8377834E366998436B950D7A7746DAD846D4CFD978E0F04FD455FC5D49D2D4C6FE9722321F10997F0F32DC47FE05504B0304140006080800CC70623BFFEA85907E0000009D0000000B0000006662782F636E782E786D6C4DCCD10A83201886E15B91FFDC95D95A811AB6F23E625948A6C3
310
E9D8E5AF46073BFAE0E1E365ED67B3E8ADC3CB78C7815C7240DA3DFC64DCC221C519D7805AC182F7F1EF06C88D9BE6703008B6049F9E274D7A1E938DBB5AE3D6131B2589BA0D3D965551E0B2EA732C9B9A624AAEB41E3A557677029960D9AFB4EF11165F504B0304140006080800CC70623B4FEEA4082C0100001202000031
310
0000006662782F39464131463745442D413632322D343644302D413938332D3331353338454246344243312F636F72652E786D6C8D515B6EC32010BC0AE2AB55850DD871ED0813254D72825EC00192A2C460F1A872FC42ED48ED5F7E00CDCECCCEB26C731F6FE05B39AFADE921293004CA082BB5B9F43086336A21D870E6AC
310
0D7F68109861543DCC30E4ECE26C9C164858139409093556AA051CBC570102714B8F1E7AF1A5C6A11862480C7F2DA6415C878B2A4891CA89C7990F2E050073937C42DE1DB7E4F87ED8A36D4329AA9B3D46DBAEAD504556557BD81DEBDD0761E52CE42C462D17B996298E3E6BE59E35C962CE821E1FF18553435012728A7187
310
0841987E927A8D9B35ADDF70BBC6989599FE4F1427F9A4286A132ABAC49D651EF234CD5CE04CDA78BA3DC2A8FB645D00B9DF8B57E215725C60BCA2A463E54C4CE327C7A65E1C7DB02E7DEFCBF594B864C5CA6CDBD49C957943E9FA5D5FBAF336F90F504B0304140006080800CC70623BAD7543B64E01000033030000300000
310
006662782F39464131463745442D413632322D343644302D413938332D3331353338454246344243312F636E782E786D6CD593CD6EC32010845F0571AD6CE3D48AD20813A9873E410FBD12D82434182C7EAAE6EDBB2424CD25871E7B41D6EC30B3FA84F9E67BB2E40B4234DE8DB46F1925E094D7C6ED479AD3AE5951B2113C
310
789FEE6C943839C1488B4C05DF079FE72A69D8C96C13AAD6B8631503449F83828872B949AC57D26200B826A308D316B4064D6E46FCDA41C05550DC9E483A00797BFD207EFB092A45DE9514C1BBD22178396BD39D891265658C238DEA00936C654E5E433CB65A26D9F6EDB5EBC14EBF49A45CB856E66048291F6939A9A81BB5
310
C8917738143CA680F4AA299D66A042CEB3354A2684DC9D8D178FE0D9B8B41CAAD720F880EE7EF93C0C18769E099ECC04D5A102C8049A8A05632F4DDF376CF1DE0F6BB65C2F8627B65A33C6BB62177CEBBDAD973006829F89F22E814B54F4BC2BE347F8AA8F681390B50FA73F804400B5F542E796F19FF974E7F78DB802FE05
310
E207504B0304140006080800CC70623B16AB87BA640500003C100000340000006662782F39464131463745442D413632322D343644302D413938332D3331353338454246344243312F6F626A656374732E786D6CAD575B6FA33818FD2B887DE6924B3BED8A326A92B68A663B534DD4D13E548A0C38942D60649B369D5FBFC7
310
600890A493BDE42160637FD7F31D7FF63E6FB3D478A55C242CBF3247B66B1A340F5994E4F19559CA8D75611A9F7D8F33263BCB4C232719BD32D5B4E97B316765A1A722BA21652A07B3B7B33F0D11D29C9A46981221AE4C113ED38CD8A4942CA2E2C58E882476BCD9DA23BB5ED8171B73523C0F841684D35CC252CCE79062D4
310
468DFA43D7747CCF51DF7D4FFDEB5593E3AB9CCA9FBEFE241792E4E19EB28198C968BAB8199F5D5A67D3E9C49A9E8F47D6EC76B6B0469F26EEFC7C3EBFBCBEB98462213924694B38DD98FE1D62C393D073EA4FADC5DAF04326852CCF6958F90F0F2B9BB5C48816348F90C7840A68EB78EDF68723159BCEE7891A6B95DDE9D3
310
BCEAEEE8086A6C6F9E5D4B59F0175C10A7A0820BAA5055C7473B5AE3CFDD452D602CD5DF12616444529E90D448938013FE6EFA58AA96F85E4F8C42275708571E98FE6827AF6B2B4AE3D7D83D64E5A64C53054DD3AF90BD06FEA9149565C94FCA0F6B834DC85599E4F2423B24DF0B6AFA979E534DFA9E7A4CC6FA631D486393
310
921829879BF5D781A373557BCB85E97FB90DB62B558F8795179C15944B051F40AB495CF35451D26A4727654E6D8033BD98EF82F21D91FF8AF2DD9982BCF1643BDD4EB516C9492E368C67C88DED563FC36D5EACF66DFF057C3658BDBFA69DF9578B3DA735B64F18C7F20770A9D45CFCF7FCF563D6456A277DBEF78A02637CA2
310
43B90A490AEAB94F72244481D24819A6C0E59B606BFA4B3025981DBB48EAB701D97BF19C577CC77F2D1B6C55A9EF3C732474C0B727303F625995056C3B02963D9EAC146BE78EC5FCEC7FA999EBC5EACBAAE41B12D27B4D2C0BBA49F244E2ECDC81B76B502F113D8F5EE8FB1BE3111CDD4FC2AA9B844CAB1288B68AB90A7CDC
310
1C166AB0D3DC5310625FCC14E779BFD0709F8890A629C9292B1B2DED31A4B0DA928CEE135085754027E3018A397D4D5427D15BD1330B677DC8934285AC3DF45A9EB68FF8F2B8FC0A509AFEECFD0FF2DE25CC6047F7214B195F07EFEB9A094D800F7BFAE8FED187B78EA8A3A400F115961BCAD1215E47C966530AF0EE8128FE
310
58CEBB996A8964FFA529A046635D9353B0336A8F700DDF46271A024E70B0B37C9DE01847591E54DED53D54202AB947E4076556AC49C6CA5C9E1226B7F1A7B1BE15DEED62C41B91E1B3E9AFAAA735036547343A925075041DF0A9979E893B391F8FCFA6967B3EFB644DCF6E5CEBFAE272625DCC6FAF3FB93793C5F90CE1EF57
310
407342756B10D1C489E8953CD1617E5CEECAD6F4EF8914CE5D5D504E5C3F1F9736DA62CFC11E00BCDDB8CC8A9466349744C1F75EBDA4DF09BA8A9E8C7A7E9991989E20E5DBDD6A6003664ED8F7A04A8DBE0DF6EAD9B9AA858342E47399053949D2C146EDB85DE4B176BB0965FBAC19BD19AA918E27FA50C1D22402E144464C
310
59462568E704B6E71915404CB72B8FF4EDE184DDAF753F284990D2C6926782963815403548A70C657FDEF80D2D9CEAA2AE4C1C76F60BFE74219A06527D6582DF6412526107381E55E353090704D085B52408D0933C4ED159D79BDA71BB4BC506F4831350EB6F979CD22D69BF7AC49B91A2C0A9DDA3D5CA36AD20FC478E37E6
310
1844E2352865EBCB6EA275A652E3836BE04EFB400BF1A2556F515F1FBB35B2AB35BD889C744FFA1004B5544B121E57F70215746DD2F5E2C1412B602CBF19455AC6C8E5E9922C4E01E65215385004546899059180EAFCF7A707CE7017CD8CDB0410789AB32C63B91E5CEBBBACB17AC6CD347A022D5075FD106377347AAABA7E
310
7D11590744509B44E205134DC1290F06580320F78E537D3D73540E06CB970B431F185308AD40BBD794D6D77003C5A36E8EAA54BA64597CD8F83BD552A080A365F7FF06504B0304140006080000CC70623B000000000000000000000000350000006662782F39464131463745442D413632322D343644302D413938332D3331
310
353338454246344243312F76657274696365732E62696E504B0304140006080800CC70623BF270F1330600000004000000360000006662782F39464131463745442D413632322D343644302D413938332D3331353338454246344243312F747269616E676C65732E62696E636660600000504B0304140006080000CC70623B
310
000000000000000000000000370000006662782F39464131463745442D413632322D343644302D413938332D3331353338454246344243312F617474726962757465732E62696E504B0304140006080800CC70623B08DA0BD19000000041010000360000006662782F39464131463745442D413632322D343644302D413938
310
332D3331353338454246344243312F6469726563746F72792E786D6C858F410AC3201045AF22B36F53E9A60B35CBEEBAE80D244E44489C6234F4F835464A48035D0DF398FF9F8AF63D0E6CC63039F212F8F9020C7D47C6792B21C5FE7403D62A1188E2E60C98D7234A5830286103A55745067B9D86B8A3CF9C7F90C11DE607
310
FB144396D7B6A82D282E9A152AD114D5EF2CB866EEE831B8EEA07A7BB5A8D7D61A2BAAEB7FD5F70921FF497D00504B0304140006080800CC70623B0D6EF93BFE000000A00100003B0000006662782F39464131463745442D413632322D343644302D413938332D3331353338454246344243312F7265736F75726365732F63
310
6F72652E786D6C8D50596E833010BD0A9ADFCA60B334011947A8694ED00B586642AC041B79A97AFC9A40A5F6AF3F33A3B7689E1E3F7DCD8FEC139DD7D6F4C0720A191A65476DA61E62B892236427C19DB5E1970C322367EC618541F0C9D9B8EC90B226A009093576C41D94DE63804C3DD2D18357379C652E63480A7FCF17A9
310
EE72C29CE5894E3AC17D702940B63D59270887DE46A7D0F36263058F518FBB468FE9A7BE6A7420864373B8D4873369AA8691FA421B3294352543C5CAF65C0F6FEF43CB8BD52C78D0F34F46E550061C419494B6843142CB0F5677F4B52BEB177AEC28E5C52AFF638ACBF84F53D42654E51E77B379102C05791282176B5F693D
310
CB4C7BED567C03504B010214000A0000080000CC70623B3DEE336E79000000790000001B00000000000000000000000000000000006175746F6465736B2D64657369676E2D7061636B6167652E786D6C504B01021400140006080800CC70623BD486FD9CA0000000F40000001300000000000000000000000000B20000005B
310
436F6E74656E745F54797065735D2E786D6C504B01021400140006080800CC70623B1EC5D7A3EB0000007C010000080000000000000000000000000083010000636F72652E786D6C504B01021400140006080800CC70623B55019EA25F0000007C000000070000000000000000000000000094020000636E782E786D6C504B
310
01021400140006080800CC70623B8C9102E971010000D40300000C00000000000000000000000000180300006662782F636F72652E786D6C504B01021400140006080800CC70623BFFEA85907E0000009D0000000B00000000000000000000000000B30400006662782F636E782E786D6C504B01021400140006080800CC70
310
623B4FEEA4082C0100001202000031000000000000000000000000005A0500006662782F39464131463745442D413632322D343644302D413938332D3331353338454246344243312F636F72652E786D6C504B01021400140006080800CC70623BAD7543B64E010000330300003000000000000000000000000000D5060000
310
6662782F39464131463745442D413632322D343644302D413938332D3331353338454246344243312F636E782E786D6C504B01021400140006080800CC70623B16AB87BA640500003C1000003400000000000000000000000000710800006662782F39464131463745442D413632322D343644302D413938332D3331353338
310
454246344243312F6F626A656374732E786D6C504B01021400140006080000CC70623B0000000000000000000000003500000000000000000000000000270E00006662782F39464131463745442D413632322D343644302D413938332D3331353338454246344243312F76657274696365732E62696E504B01021400140006
310
080800CC70623BF270F133060000000400000036000000000000000000000000007A0E00006662782F39464131463745442D413632322D343644302D413938332D3331353338454246344243312F747269616E676C65732E62696E504B01021400140006080000CC70623B0000000000000000000000003700000000000000
310
000000000000D40E00006662782F39464131463745442D413632322D343644302D413938332D3331353338454246344243312F617474726962757465732E62696E504B01021400140006080800CC70623B08DA0BD190000000410100003600000000000000000000000000290F00006662782F39464131463745442D413632
310
322D343644302D413938332D3331353338454246344243312F6469726563746F72792E786D6C504B01021400140006080800CC70623B0D6EF93BFE000000A00100003B000000000000000000000000000D1000006662782F39464131463745442D413632322D343644302D413938332D3331353338454246344243312F7265
310
736F75726365732F636F72652E786D6C504B0506000000000E000E0080040000641100000000
  0
XRECORD
  5
790D
102
{ACAD_REACTORS
330
173
102
}
330
173
100
AcDbXrecord
280
     1
102
MATERIAL
148
0.0
149
0.0
149
0.0
 93
        0
 94
       63
282
     0
 72
     1
 77
     1
171
     1
175
     1
179
     1
273
     0
  0
XRECORD
  5
175
102
{ACAD_REACTORS
330
173
102
}
330
173
100
AcDbXrecord
280
     1
270
     1
271
     1
  0
XRECORD
  5
174
102
{ACAD_REACTORS
330
173
102
}
330
173
100
AcDbXrecord
280
     1
270
     1
271
     1
  0
XRECORD
  5
1FB
102
{ACAD_REACTORS
330
173
102
}
330
173
100
AcDbXrecord
280
     1
 70
     0
 90
1673772943
  1
ECE7A1D2-D628-4531-984C-D00F80459256
310
504B03040A0000080000CC70623B3DEE336E79000000790000001B0000006175746F6465736B2D64657369676E2D7061636B6167652E786D6C3C3F786D6C2076657273696F6E3D22312E302220656E636F64696E673D227574662D3822203F3E3C666F726D6174733E3C666F726D61743E687474703A2F2F736368656D612E
310
6175746F6465736B2E636F6D2F64657369676E2D7061636B6167652F323030393C2F666F726D61743E3C2F666F726D6174733E504B0304140006080800CC70623BD486FD9CA0000000F4000000130000005B436F6E74656E745F54797065735D2E786D6C7D8EC10E82300C865F65E91D8A1E8C310C0EEA1BF002731658846E
310
D98AC1B77784ABF1D8FE5FBFBF75BBCE937A534CCEB38643598122B6FEE978D0B0485F9C41B54DDD7D022595594E1A469170414C76A4D9A4D207E29CF43ECE46F218070CC6BECC4078ACAA135ACF422C856C0E68EA1BF5669944DDD7BCDE7B1F8E415D77AECB980613C2E4AC91FC167A2B244592486606FC29C8FD7F045B9A
310
EF7053A7E60B504B0304140006080800CC70623BD9DDAED0EC0000007C01000008000000636F72652E786D6C8D90416EC3201045AF82665B61836D9CD8C2444DD39CA01740405C94182C03558F5F9C3852BBEB6A467FFE9B197D7EF89E6EE8CB2CC17A37002D0820E394D7D68D03A478C17B4007C117EFE32F1B20272733C0
310
2A83E0E3E2D3BC49CABB685CCCAAF3DA6CA20CC14440EA969B0182FA34932C648AD911AEC52CD5558EA6A0CF2EC329598D1E47ACCEFBECC59A050463A7EA5833865FEBDD0E37353BE3EE8DBDE3F6786A48D375FBF6CC78B9C282473B3DEFABC5C86834888A900E538A49F5419B9EB47DD5BC907D4F082F57FB1F28CDFA9F50
310
B22ED6D5F6EE030B20687EE43E10BC5CB3C8E51E54AE6B6EE207504B0304140006080800CC70623B55019EA25F0000007C00000007000000636E782E786D6C4DCB3B0E80201045D1AD90E915ED2CF8AC45050C11660C8261F98AB1B07AC9C97D42D718D865D3E909258CFD00CCE24AC6E326A164D74DC0B4128928FF326038
310
472BA13128B1252AC747C6BAB984FC68F0B87FE8960A5C09FE86CFB69FBA01504B0304140006080800CC70623BA24EB22D72010000D40300000C0000006662782F636F72652E786D6CC5535B6E833010BC8AE5DF0A6C5E49888CA3A6694ED00B38E05014B091B1518EDFE511A5A9D228FD2A1F60CDEC7A67C6986DCE4D8D7A
310
69BA4AAB0C073EC548AA5C17952A33ECECD15B61B4E1CC686DBF9561A44423333CC098B3D268D7CE50AE9595CA02AA74216750749DB418E5352C32DCE59FB211BE70162ABA93DF8AFC244AE9073ED050C759670D0840D390E18DF9F1706664C23973AE2A66B62A605A75ACA4C13C4976E1364A12EF355A2EBD384AF65EFA96
310
BC7B8BED2EA6719AAE16FB8491A199335B351775B991C2CA02F390D2D40B028F861F41BCA68B7518BFD0D59A524686F29B26D7164F36B94AD9289CE54E6D1DE6010819891F6E21228B3AD1831EC219194284CF98F06DD01008846CC5A1BEF83801D4CBDC6A1303536877A57A513B0953A94FC707FDBE6064EA84A9E3E6E0FA
310
EE8CF0E9198F7784A316AA0413C2C2F2E0ECA0934D1AE6D05A69BCDE9E91D2A611F573361E38FC1375157F5752AE6B6DFE4B11990F88CCBF0719EE23FF02504B0304140006080800CC70623B408A7D3B7C0000009D0000000B0000006662782F636E782E786D6C4DCCD10A83201886E15B91FFDC552A92A0064DBC8F581632
310
D3703A76F9ABD1C18E3E78F878E5F0D9027ABBFCF2292AE86E2D20171F69F6715550CB827B40839639A5F2770314A7CD293819B45C73AAFB45B35BA61ACAA1C1C7E7855C58C15BC331339661262CC762340413D68D77DA5B42298546CBE6573AF60CEB2F504B0304140006080800CC70623B449FB9BD290100001202000031
310
0000006662782F36394639363044362D344446342D343946362D394244322D3234314243333846323333332F636F72652E786D6C8D515B6EC32010BC0AE22B55850D98B871848994463E412FE002495162B07854397EA176A4F62F3F2C9A9D991D587EB84F37F0AD7D30CEF6905418026DA553C65E7A98E219ED203808EE9D
310
8B7F6810D871D23D2C3014FCE25D9A57483A1BB58D19B54EE9151C43D0110279CB971E06F9A5A7B11A53CC8C70ADE6515EC78BAE4895DB992778883E0700CB907242D17643D7E2538BD869608875438BBAE38922CAC8F1BDD90DB4691A5E2F42C153326A951B95E398B3D1FE599322163C9AE9115F7A3D46ADA0A018778810
310
84E907617BDCEE297BC5BB3DC6BC2EF47FA234AB2745C9D8D8D035EE220B50105E2F0DC1954B9FB747187D9F9D8FA0CCDB042D5FA0C015C65B42DF78BD10F3F3B363CB56C7109DCFDFBBB97E662ED92EB62D13BC2E1BCAE5777DB9966D8A1F504B0304140006080800CC70623BAD7543B64E01000033030000300000006662
310
782F36394639363044362D344446342D343946362D394244322D3234314243333846323333332F636E782E786D6CD593CD6EC32010845F0571AD6CE3D48AD20813A9873E410FBD12D82434182C7EAAE6EDBB2424CD25871E7B41D6EC30B3FA84F9E67BB2E40B4234DE8DB46F1925E094D7C6ED479AD3AE5951B2113C789FEE
310
6C943839C1488B4C05DF079FE72A69D8C96C13AAD6B8631503449F83828872B949AC57D26200B826A308D316B4064D6E46FCDA41C05550DC9E483A00797BFD207EFB092A45DE9514C1BBD22178396BD39D891265658C238DEA00936C654E5E433CB65A26D9F6EDB5EBC14EBF49A45CB856E66048291F6939A9A81BB5C89177
310
38143CA680F4AA299D66A042CEB3354A2684DC9D8D178FE0D9B8B41CAAD720F880EE7EF93C0C18769E099ECC04D5A102C8049A8A05632F4DDF376CF1DE0F6BB65C2F8627B65A33C6BB62177CEBBDAD973006829F89F22E814B54F4BC2BE347F8AA8F681390B50FA73F804400B5F542E796F19FF974E7F78DB802FE05E20750
310
4B0304140006080800CC70623B8D05915C650500003B100000340000006662782F36394639363044362D344446342D343946362D394244322D3234314243333846323333332F6F626A656374732E786D6CAD575B6FA33814FE2B887D06429276DA1565D4266D158D3A339A6846FB502932E050B66023DB74D2FDF5FB190C01
310
9276B2973C046C8ECFF53B17071F77456EBD502133CEAE6CDF9DD81665314F32965ED995DA3A17B6F5310C04E7AA47665B8C14F4CAD6DB7618A48257A5D94AE89654B91AEDDEDDFC61C998326A5B714EA4BCB265FC440BE2924AF184CA6737218AB8E976E7FA6E4338649B0A523E8D98964450A6A029F619B8588D52FE7039
310
B1BD30F0F4F730D0FF866AF6369557DB33949F31A9088B0F848DD8CCFCF9F2767A76E99CCDE733677E3EF59D9BBB9BA5E37F984D16E78BC5E5F5ED25044B25C0C96822E8D60EEFE11B91C581D77CEA34368A1F5329E68CD1B8B61F16D63A1B8E092D294B10C78C4A48EB593D192E7DED9BDEE7995E1B91FDEDD3ACEA9FE831
310
6A756F9F7D4D79F4274C90A7A04248AA51D5F8C718DAE06FB2F75AC4796EBE65D22A88A22223B995679120E2D50E41AA49C260C046A35368846B0BECD0DFF3EBEB8AD4F835768F69B9ADF25C43D30E6B646F807FAA64AD59F61715C7A54127C4AACA98BA3006A9D792DAE165E0D59B61A01FB3A9F9D838D2DAE62445C86166
310
F37564E842E7DE6A69879FEEA2DD5AE7E371E1A5E025154AC307D06A03D73EB5978C58FFA4C8E9033066E0F3BD53BEC1F39F91BE7B55103791EDE6BBB991A2046172CB4581D8B893FA674DDA17A77B3B7C413D1B511FD2743BFF8A38F03A658705E3ADF8015C3A3417FF3D7E439FF591DA0B5F18BC20C1B8981957AE6392A3
310
F43C640C01D1A0B4728E2DD4F26DB4B3C3152A252A3B4E913CEC1C72F012782FF88EFF8637AA552DBEF76408E8A8DE9E50F9E1CB3A2DA0DB1B6039A893B56063DC5B3E3FFB5F72E67AB9FEB4AEC496C4F4C1149625DD662C53E89D7BF0F6151A046260D1337DFDC94502430F83B0EE07A130A224BCAD7DAE1D9FB6CD422FF6
310
920702629C4BB9AE79C12F243C6432A6794E18E5552BA56B431AAB5D91317302B2B071E86C3A42B1A02F999E24061403B5D0EB639195DA655DD3EBEAB4FB862DDF579F014AD0E73C22F99E28DA57FB98E75C6CA2D74D53086D600F4786E0FE3144B771A8A7B900F03594DB8A633CBC49B2EDB69228BB479CF863B5E807AAAB
310
23872F6DFEB4129B949CA33823F58830E86D65621E10047D9DB34D862E8EAC3C2ABC2F7B2C40D67CDFE01F5545B92105AF983AC54D93D69E56FB8E797F88913F898A9FEC705D3F9D1B54EC8426FB500D40A03BD0119B06E1B95DDC7EB8F6975367793EBD70E66733DFB9BC982F9CE564727731999F5D4ECFCE3B8D6A4DC2A0
310
6D50FD148437D110834A64C6CDDF57FBACB5C307A2A477DFE4939736CFEF2B175371E0E10CF0DD1D5C15654E0BCA14D1E87DD02FF93782A162C0A3D95F1524A52770F972BF1EE9809D13CE7DD599467F8ECE9ADD85CE85A34CD45355448C64F9E8A031DC2D596ACC6E5DD93D9B82DE2EF5CAF81363A8E47996A0DE24564A79
310
4115AACE09C55E14540231FDA13C319787134EBF34E3A022514E5B4D9E0826E25C02D5805B15ABE1BEF51B26383D445DD9E875EE33FE4C22DA16427D65A3BCA92CA6D28DD01DF5DC53330704308475351050232CCD31583787BA75774AFB06E5070DD0C8EF484E19968C5D83BA5B90B244D31E54D55A372320FE4786B7EA58
310
44E135AA5467CB7EA333A61683CC6A8C3257034C10CF46F40EF9F5BE59BE5BD30C3C72D235E95D10345C1D45445A5F0BB47E46A5EBE5570F9380B5FA629579952296A773720405982B9DE04011506178964401AA8BDF1FBF0A8EAB6861DD6580C0E38217056766716DAEB2D6FA0917D3E4116581EADB879C4E7CFFB11EFACD
310
3D641311495D92C8676CB409A72D18610D803CE8A626049E8EC1887CB5B44CC39883690DDA8399B4B9855B481E7D71D4A9D22F96E5BB73BF5793020C02137BF837504B0304140006080000CC70623B000000000000000000000000350000006662782F36394639363044362D344446342D343946362D394244322D32343142
310
43333846323333332F76657274696365732E62696E504B0304140006080800CC70623BF270F1330600000004000000360000006662782F36394639363044362D344446342D343946362D394244322D3234314243333846323333332F747269616E676C65732E62696E636660600000504B0304140006080000CC70623B0000
310
00000000000000000000370000006662782F36394639363044362D344446342D343946362D394244322D3234314243333846323333332F617474726962757465732E62696E504B0304140006080800CC70623B08DA0BD19000000041010000360000006662782F36394639363044362D344446342D343946362D394244322D
310
3234314243333846323333332F6469726563746F72792E786D6C858F410AC3201045AF22B36F53E9A60B35CBEEBAE80D244E44489C6234F4F835464A48035D0DF398FF9F8AF63D0E6CC63039F212F8F9020C7D47C6792B21C5FE7403D62A1188E2E60C98D7234A5830286103A55745067B9D86B8A3CF9C7F90C11DE607FB14
310
4396D7B6A82D282E9A152AD114D5EF2CB866EEE831B8EEA07A7BB5A8D7D61A2BAAEB7FD5F70921FF497D00504B0304140006080800CC70623BCA768048FE000000A00100003B0000006662782F36394639363044362D344446342D343946362D394244322D3234314243333846323333332F7265736F75726365732F636F72
310
652E786D6C8D50596E833010BD0A9ADFCA60D600328E9AA639412F609909B1126CE4A5EAF16B0295DABFFECC8CDEA2797AECF8353F924FB44E193D409E5248504B332A3D0D10FC95B4901C39B3C6F85F3248B49871801506CE266BC2B243D2688FDA47549B11775038871E12F988C7004EDE7016A9083E2ADC3D5D84BC8B09
310
D33C8D74D471E6BC8D0192EDC93A815B742658898E651BCB59086ADC356A8C3FD555A1055ED7E7E254D615792D0F075295F585746FF53B694EE78A565DD736979A65AB9933AFE69F8CD2A2F038022F28ED489E135A7CE4554F9BBEA85E68DB53CAB255FEC71496F19FA6A0B42F8B3DEE6673C0F318E4497096AD7DC5F52C33
310
EEB55BFE0D504B010214000A0000080000CC70623B3DEE336E79000000790000001B00000000000000000000000000000000006175746F6465736B2D64657369676E2D7061636B6167652E786D6C504B01021400140006080800CC70623BD486FD9CA0000000F40000001300000000000000000000000000B20000005B436F
310
6E74656E745F54797065735D2E786D6C504B01021400140006080800CC70623BD9DDAED0EC0000007C010000080000000000000000000000000083010000636F72652E786D6C504B01021400140006080800CC70623B55019EA25F0000007C000000070000000000000000000000000095020000636E782E786D6C504B0102
310
1400140006080800CC70623BA24EB22D72010000D40300000C00000000000000000000000000190300006662782F636F72652E786D6C504B01021400140006080800CC70623B408A7D3B7C0000009D0000000B00000000000000000000000000B50400006662782F636E782E786D6C504B01021400140006080800CC70623B
310
449FB9BD290100001202000031000000000000000000000000005A0500006662782F36394639363044362D344446342D343946362D394244322D3234314243333846323333332F636F72652E786D6C504B01021400140006080800CC70623BAD7543B64E010000330300003000000000000000000000000000D20600006662
310
782F36394639363044362D344446342D343946362D394244322D3234314243333846323333332F636E782E786D6C504B01021400140006080800CC70623B8D05915C650500003B10000034000000000000000000000000006E0800006662782F36394639363044362D344446342D343946362D394244322D32343142433338
310
46323333332F6F626A656374732E786D6C504B01021400140006080000CC70623B0000000000000000000000003500000000000000000000000000250E00006662782F36394639363044362D344446342D343946362D394244322D3234314243333846323333332F76657274696365732E62696E504B010214001400060808
310
00CC70623BF270F13306000000040000003600000000000000000000000000780E00006662782F36394639363044362D344446342D343946362D394244322D3234314243333846323333332F747269616E676C65732E62696E504B01021400140006080000CC70623B00000000000000000000000037000000000000000000
310
00000000D20E00006662782F36394639363044362D344446342D343946362D394244322D3234314243333846323333332F617474726962757465732E62696E504B01021400140006080800CC70623B08DA0BD190000000410100003600000000000000000000000000270F00006662782F36394639363044362D344446342D
310
343946362D394244322D3234314243333846323333332F6469726563746F72792E786D6C504B01021400140006080800CC70623BCA768048FE000000A00100003B000000000000000000000000000B1000006662782F36394639363044362D344446342D343946362D394244322D3234314243333846323333332F7265736F
310
75726365732F636F72652E786D6C504B0506000000000E000E0080040000621100000000
  0
XRECORD
  5
176
102
{ACAD_REACTORS
330
173
102
}
330
173
100
AcDbXrecord
280
     1
270
     1
271
     1
  0
XRECORD
  5
177
102
{ACAD_REACTORS
330
173
102
}
330
173
100
AcDbXrecord
280
     1
270
     1
271
     1
  0
XRECORD
  5
792F
102
{ACAD_REACTORS
330
792E
102
}
330
792E
100
AcDbXrecord
280
     1
102
ACAD_ROUNDTRIP_2012_MLEADER_STYLE
298
     1
  0
XRECORD
  5
7941
102
{ACAD_REACTORS
330
7940
102
}
330
7940
100
AcDbXrecord
280
     1
102
DISPLAYNAME
  1
Metric50
102
FLAGS
 90
        0
  0
CELLSTYLEMAP
  5
7901
102
{ACAD_REACTORS
330
162
102
}
330
162
100
AcDbCellStyleMap
 90
        3
300
CELLSTYLE
  1
TABLEFORMAT_BEGIN
 90
        5
170
     1
 91
        0
 92
    32768
 62
   257
 93
        1
300
CONTENTFORMAT
  1
CONTENTFORMAT_BEGIN
 90
        0
 91
        0
 92
      512
 93
        0
300

 40
0.0
140
1.0
 94
        5
 62
     0
340
11
144
6.0
309
CONTENTFORMAT_END
171
     1
301
MARGIN
  1
CELLMARGIN_BEGIN
 40
1.5
 40
1.5
 40
1.5
 40
1.5
 40
4.5
 40
4.5
309
CELLMARGIN_END
 94
        6
 95
        1
302
GRIDFORMAT
  1
GRIDFORMAT_BEGIN
 90
        0
 91
        1
 62
     0
 92
       -2
340
14
 93
        0
 40
1.125
309
GRIDFORMAT_END
 95
        2
302
GRIDFORMAT
  1
GRIDFORMAT_BEGIN
 90
        0
 91
        1
 62
     0
 92
       -2
340
14
 93
        0
 40
1.125
309
GRIDFORMAT_END
 95
        4
302
GRIDFORMAT
  1
GRIDFORMAT_BEGIN
 90
        0
 91
        1
 62
     0
 92
       -2
340
14
 93
        0
 40
1.125
309
GRIDFORMAT_END
 95
        8
302
GRIDFORMAT
  1
GRIDFORMAT_BEGIN
 90
        0
 91
        1
 62
     0
 92
       -2
340
14
 93
        0
 40
1.125
309
GRIDFORMAT_END
 95
       16
302
GRIDFORMAT
  1
GRIDFORMAT_BEGIN
 90
        0
 91
        1
 62
     0
 92
       -2
340
14
 93
        0
 40
1.125
309
GRIDFORMAT_END
 95
       32
302
GRIDFORMAT
  1
GRIDFORMAT_BEGIN
 90
        0
 91
        1
 62
     0
 92
       -2
340
14
 93
        0
 40
1.125
309
GRIDFORMAT_END
309
TABLEFORMAT_END
  1
CELLSTYLE_BEGIN
 90
        1
 91
        1
300
_TITLE
309
CELLSTYLE_END
300
CELLSTYLE
  1
TABLEFORMAT_BEGIN
 90
        5
170
     1
 91
        0
 92
        0
 62
   257
 93
        1
300
CONTENTFORMAT
  1
CONTENTFORMAT_BEGIN
 90
        0
 91
        0
 92
      512
 93
        0
300

 40
0.0
140
1.0
 94
        5
 62
     0
340
11
144
4.5
309
CONTENTFORMAT_END
171
     1
301
MARGIN
  1
CELLMARGIN_BEGIN
 40
1.5
 40
1.5
 40
1.5
 40
1.5
 40
4.5
 40
4.5
309
CELLMARGIN_END
 94
        6
 95
        1
302
GRIDFORMAT
  1
GRIDFORMAT_BEGIN
 90
        0
 91
        1
 62
     0
 92
       -2
340
14
 93
        0
 40
1.125
309
GRIDFORMAT_END
 95
        2
302
GRIDFORMAT
  1
GRIDFORMAT_BEGIN
 90
        0
 91
        1
 62
     0
 92
       -2
340
14
 93
        0
 40
1.125
309
GRIDFORMAT_END
 95
        4
302
GRIDFORMAT
  1
GRIDFORMAT_BEGIN
 90
        0
 91
        1
 62
     0
 92
       -2
340
14
 93
        0
 40
1.125
309
GRIDFORMAT_END
 95
        8
302
GRIDFORMAT
  1
GRIDFORMAT_BEGIN
 90
        0
 91
        1
 62
     0
 92
       -2
340
14
 93
        0
 40
1.125
309
GRIDFORMAT_END
 95
       16
302
GRIDFORMAT
  1
GRIDFORMAT_BEGIN
 90
        0
 91
        1
 62
     0
 92
       -2
340
14
 93
        0
 40
1.125
309
GRIDFORMAT_END
 95
       32
302
GRIDFORMAT
  1
GRIDFORMAT_BEGIN
 90
        0
 91
        1
 62
     0
 92
       -2
340
14
 93
        0
 40
1.125
309
GRIDFORMAT_END
309
TABLEFORMAT_END
  1
CELLSTYLE_BEGIN
 90
        2
 91
        1
300
_HEADER
309
CELLSTYLE_END
300
CELLSTYLE
  1
TABLEFORMAT_BEGIN
 90
        5
170
     1
 91
        0
 92
        0
 62
   257
 93
        1
300
CONTENTFORMAT
  1
CONTENTFORMAT_BEGIN
 90
        0
 91
        0
 92
      512
 93
        0
300

 40
0.0
140
1.0
 94
        2
 62
     0
340
11
144
4.5
309
CONTENTFORMAT_END
171
     1
301
MARGIN
  1
CELLMARGIN_BEGIN
 40
1.5
 40
1.5
 40
1.5
 40
1.5
 40
4.5
 40
4.5
309
CELLMARGIN_END
 94
        6
 95
        1
302
GRIDFORMAT
  1
GRIDFORMAT_BEGIN
 90
        0
 91
        1
 62
     0
 92
       -2
340
14
 93
        0
 40
1.125
309
GRIDFORMAT_END
 95
        2
302
GRIDFORMAT
  1
GRIDFORMAT_BEGIN
 90
        0
 91
        1
 62
     0
 92
       -2
340
14
 93
        0
 40
1.125
309
GRIDFORMAT_END
 95
        4
302
GRIDFORMAT
  1
GRIDFORMAT_BEGIN
 90
        0
 91
        1
 62
     0
 92
       -2
340
14
 93
        0
 40
1.125
309
GRIDFORMAT_END
 95
        8
302
GRIDFORMAT
  1
GRIDFORMAT_BEGIN
 90
        0
 91
        1
 62
     0
 92
       -2
340
14
 93
        0
 40
1.125
309
GRIDFORMAT_END
 95
       16
302
GRIDFORMAT
  1
GRIDFORMAT_BEGIN
 90
        0
 91
        1
 62
     0
 92
       -2
340
14
 93
        0
 40
1.125
309
GRIDFORMAT_END
 95
       32
302
GRIDFORMAT
  1
GRIDFORMAT_BEGIN
 90
        0
 91
        1
 62
     0
 92
       -2
340
14
 93
        0
 40
1.125
309
GRIDFORMAT_END
309
TABLEFORMAT_END
  1
CELLSTYLE_BEGIN
 90
        3
 91
        2
300
_DATA
309
CELLSTYLE_END
  0
XRECORD
  5
7906
102
{ACAD_REACTORS
330
162
102
}
330
162
100
AcDbXrecord
280
     1
102
ACAD_ROUNDTRIP_PRE2007_TABLESTYLE
 90
      512
 91
        0
  1

 92
      512
 93
        0
  2

 94
      512
 95
        0
  3

  0
XRECORD
  5
7919
102
{ACAD_REACTORS
330
7918
102
}
330
7918
100
AcDbXrecord
280
     1
102
RTVSPost2010Prop28
280
     1
102
RTVSPost2010PropOp28
 70
     1
102
RTVSPost2010Prop29
280
     1
102
RTVSPost2010PropOp29
 70
     1
102
RTVSPost2010Prop30
280
     0
102
RTVSPost2010PropOp30
 70
     1
102
RTVSPost2010Prop31
280
     0
102
RTVSPost2010PropOp31
 70
     1
102
RTVSPost2010Prop32
280
     0
102
RTVSPost2010PropOp32
 70
     1
102
RTVSPost2010Prop33
280
     0
102
RTVSPost2010PropOp33
 70
     1
102
RTVSPost2010Prop34
280
     0
102
RTVSPost2010PropOp34
 70
     1
102
RTVSPost2010Prop35
280
     0
102
RTVSPost2010PropOp35
 70
     1
102
RTVSPost2010Prop36
280
     0
102
RTVSPost2010PropOp36
 70
     1
102
RTVSPost2010Prop37
 90
       50
102
RTVSPost2010PropOp37
 70
     1
102
RTVSPost2010Prop38
140
0.0
102
RTVSPost2010PropOp38
 70
     1
102
RTVSPost2010Prop39
140
1.0
102
RTVSPost2010PropOp39
 70
     1
102
RTVSPost2010Prop40
 90
        0
102
RTVSPost2010PropOp40
 70
     1
102
RTVSPost2010Prop41ColorIndex
 90
       18
102
RTVSPost2010Prop41ColorRGB
 90
        0
102
RTVSPost2010PropOp41
 70
     1
102
RTVSPost2010Prop42
 90
       50
102
RTVSPost2010PropOp42
 70
     1
102
RTVSPost2010Prop43
 90
        3
102
RTVSPost2010PropOp43
 70
     1
102
RTVSPost2010Prop44ColorIndex
 90
        5
102
RTVSPost2010Prop44ColorRGB
 90
      255
102
RTVSPost2010PropOp44
 70
     1
102
RTVSPost2010Prop45
280
     0
102
RTVSPost2010PropOp45
 70
     1
102
RTVSPost2010Prop46
 90
       50
102
RTVSPost2010PropOp46
 70
     1
102
RTVSPost2010Prop47
 90
       50
102
RTVSPost2010PropOp47
 70
     1
102
RTVSPost2010Prop48
 90
       50
102
RTVSPost2010PropOp48
 70
     1
102
RTVSPost2010Prop49
280
     0
102
RTVSPost2010PropOp49
 70
     1
102
RTVSPost2010Prop50
 90
       50
102
RTVSPost2010PropOp50
 70
     1
102
RTVSPost2010Prop51ColorIndex
 90
      256
102
RTVSPost2010Prop51ColorRGB
 90
-16777216
102
RTVSPost2010PropOp51
 70
     0
102
RTVSPost2010Prop52
140
1.0
102
RTVSPost2010PropOp52
 70
     0
102
RTVSPost2010Prop53
 90
        2
102
RTVSPost2010PropOp53
 70
     1
102
RTVSPost2010Prop54
  1
strokes_ogs.tif
102
RTVSPost2010PropOp54
 70
     1
102
RTVSPost2010Prop55
280
     0
102
RTVSPost2010PropOp55
 70
     1
102
RTVSPost2010Prop56
140
1.0
102
RTVSPost2010PropOp56
 70
     1
102
RTVSPost2010Prop57
140
1.0
102
RTVSPost2010PropOp57
 70
     1
102
RTVSPropertyOp0
 70
     1
102
RTVSPropertyOp1
 70
     1
102
RTVSPropertyOp2
 70
     1
102
RTVSPropertyOp3
 70
     1
102
RTVSPropertyOp4
 70
     1
102
RTVSPropertyOp5
 70
     1
102
RTVSPropertyOp6
 70
     1
102
RTVSPropertyOp7
 70
     1
102
RTVSPropertyOp8
 70
     1
102
RTVSPropertyOp9
 70
     1
102
RTVSPropertyOp10
 70
     1
102
RTVSPropertyOp11
 70
     1
102
RTVSPropertyOp12
 70
     1
102
RTVSPropertyOp13
 70
     1
102
RTVSPropertyOp14
 70
     1
102
RTVSPropertyOp15
 70
     1
102
RTVSPropertyOp16
 70
     1
102
RTVSPropertyOp17
 70
     1
102
RTVSPropertyOp18
 70
     1
102
RTVSPropertyOp19
 70
     1
102
RTVSPropertyOp20
 70
     1
102
RTVSPropertyOp21
 70
     1
102
RTVSPropertyOp22
 70
     1
102
RTVSPropertyOp23
 70
     1
102
RTVSPropertyOp24
 70
     1
102
RTVSPropertyOp25
 70
     1
102
RTVSPropertyOp26
 70
     1
102
RTVSPropertyOp27
 70
     1
102
RTVSPropertyOp28
 70
     1
102
RTVSPropertyOp29
 70
     1
102
RTVSPropertyOp30
 70
     1
102
RTVSPropertyOp31
 70
     1
102
RTVSPropertyOp32
 70
     1
102
RTVSPropertyOp33
 70
     1
102
RTVSPropertyOp34
 70
     1
102
RTVSPropertyOp35
 70
     1
102
RTVSPropertyOp36
 70
     1
102
RTVSPropertyOp37
 70
     1
102
RTVSPropertyOp38
 70
     1
102
RTVSPropertyOp39
 70
     1
102
RTVSPropertyOp40
 70
     1
102
RTVSPropertyOp41
 70
     1
102
RTVSPropertyOp42
 70
     1
102
RTVSPropertyOp43
 70
     1
102
RTVSPropertyOp44
 70
     1
102
RTVSPropertyOp45
 70
     1
102
RTVSPropertyOp46
 70
     1
102
RTVSPropertyOp47
 70
     1
102
RTVSPropertyOp48
 70
     1
102
RTVSPropertyOp49
 70
     1
102
RTVSPropertyOp50
 70
     1
102
RTVSPropertyOp51
 70
     0
102
RTVSPropertyOp52
 70
     0
102
RTVSPropertyOp53
 70
     1
102
RTVSPropertyOp54
 70
     1
102
RTVSPropertyOp55
 70
     1
102
RTVSPropertyOp56
 70
     1
102
RTVSPropertyOp57
 70
     1
102
RTVSPropertyOp58
 70
     1
102
RTVSPropertyOp59
 70
     1
102
RTVSPropertyOp60
 70
     1
102
RTVSPropertyOp61
 70
     1
102
RTVSPropertyOp62
 70
     1
  0
XRECORD
  5
7917
102
{ACAD_REACTORS
330
7916
102
}
330
7916
100
AcDbXrecord
280
     1
102
RTVSPost2010Prop28
280
     0
102
RTVSPost2010PropOp28
 70
     1
102
RTVSPost2010Prop29
280
     1
102
RTVSPost2010PropOp29
 70
     1
102
RTVSPost2010Prop30
280
     1
102
RTVSPost2010PropOp30
 70
     1
102
RTVSPost2010Prop31
280
     0
102
RTVSPost2010PropOp31
 70
     1
102
RTVSPost2010Prop32
280
     0
102
RTVSPost2010PropOp32
 70
     1
102
RTVSPost2010Prop33
280
     0
102
RTVSPost2010PropOp33
 70
     1
102
RTVSPost2010Prop34
280
     0
102
RTVSPost2010PropOp34
 70
     1
102
RTVSPost2010Prop35
280
     0
102
RTVSPost2010PropOp35
 70
     1
102
RTVSPost2010Prop36
280
     0
102
RTVSPost2010PropOp36
 70
     1
102
RTVSPost2010Prop37
 90
       50
102
RTVSPost2010PropOp37
 70
     1
102
RTVSPost2010Prop38
140
0.0
102
RTVSPost2010PropOp38
 70
     1
102
RTVSPost2010Prop39
140
1.0
102
RTVSPost2010PropOp39
 70
     1
102
RTVSPost2010Prop40
 90
        0
102
RTVSPost2010PropOp40
 70
     1
102
RTVSPost2010Prop41ColorIndex
 90
       18
102
RTVSPost2010Prop41ColorRGB
 90
        0
102
RTVSPost2010PropOp41
 70
     1
102
RTVSPost2010Prop42
 90
       50
102
RTVSPost2010PropOp42
 70
     1
102
RTVSPost2010Prop43
 90
        3
102
RTVSPost2010PropOp43
 70
     1
102
RTVSPost2010Prop44ColorIndex
 90
        5
102
RTVSPost2010Prop44ColorRGB
 90
      255
102
RTVSPost2010PropOp44
 70
     1
102
RTVSPost2010Prop45
280
     0
102
RTVSPost2010PropOp45
 70
     1
102
RTVSPost2010Prop46
 90
       50
102
RTVSPost2010PropOp46
 70
     1
102
RTVSPost2010Prop47
 90
       50
102
RTVSPost2010PropOp47
 70
     1
102
RTVSPost2010Prop48
 90
       50
102
RTVSPost2010PropOp48
 70
     1
102
RTVSPost2010Prop49
280
     0
102
RTVSPost2010PropOp49
 70
     1
102
RTVSPost2010Prop50
 90
       50
102
RTVSPost2010PropOp50
 70
     1
102
RTVSPost2010Prop51ColorIndex
 90
      256
102
RTVSPost2010Prop51ColorRGB
 90
-16777216
102
RTVSPost2010PropOp51
 70
     0
102
RTVSPost2010Prop52
140
1.0
102
RTVSPost2010PropOp52
 70
     0
102
RTVSPost2010Prop53
 90
        2
102
RTVSPost2010PropOp53
 70
     1
102
RTVSPost2010Prop54
  1
strokes_ogs.tif
102
RTVSPost2010PropOp54
 70
     1
102
RTVSPost2010Prop55
280
     0
102
RTVSPost2010PropOp55
 70
     1
102
RTVSPost2010Prop56
140
1.0
102
RTVSPost2010PropOp56
 70
     1
102
RTVSPost2010Prop57
140
1.0
102
RTVSPost2010PropOp57
 70
     1
102
RTVSPropertyOp0
 70
     1
102
RTVSPropertyOp1
 70
     1
102
RTVSPropertyOp2
 70
     1
102
RTVSPropertyOp3
 70
     1
102
RTVSPropertyOp4
 70
     1
102
RTVSPropertyOp5
 70
     1
102
RTVSPropertyOp6
 70
     1
102
RTVSPropertyOp7
 70
     1
102
RTVSPropertyOp8
 70
     1
102
RTVSPropertyOp9
 70
     1
102
RTVSPropertyOp10
 70
     1
102
RTVSPropertyOp11
 70
     1
102
RTVSPropertyOp12
 70
     1
102
RTVSPropertyOp13
 70
     1
102
RTVSPropertyOp14
 70
     1
102
RTVSPropertyOp15
 70
     1
102
RTVSPropertyOp16
 70
     1
102
RTVSPropertyOp17
 70
     1
102
RTVSPropertyOp18
 70
     1
102
RTVSPropertyOp19
 70
     1
102
RTVSPropertyOp20
 70
     1
102
RTVSPropertyOp21
 70
     1
102
RTVSPropertyOp22
 70
     1
102
RTVSPropertyOp23
 70
     1
102
RTVSPropertyOp24
 70
     1
102
RTVSPropertyOp25
 70
     1
102
RTVSPropertyOp26
 70
     1
102
RTVSPropertyOp27
 70
     1
102
RTVSPropertyOp28
 70
     1
102
RTVSPropertyOp29
 70
     1
102
RTVSPropertyOp30
 70
     1
102
RTVSPropertyOp31
 70
     1
102
RTVSPropertyOp32
 70
     1
102
RTVSPropertyOp33
 70
     1
102
RTVSPropertyOp34
 70
     1
102
RTVSPropertyOp35
 70
     1
102
RTVSPropertyOp36
 70
     1
102
RTVSPropertyOp37
 70
     1
102
RTVSPropertyOp38
 70
     1
102
RTVSPropertyOp39
 70
     1
102
RTVSPropertyOp40
 70
     1
102
RTVSPropertyOp41
 70
     1
102
RTVSPropertyOp42
 70
     1
102
RTVSPropertyOp43
 70
     1
102
RTVSPropertyOp44
 70
     1
102
RTVSPropertyOp45
 70
     1
102
RTVSPropertyOp46
 70
     1
102
RTVSPropertyOp47
 70
     1
102
RTVSPropertyOp48
 70
     1
102
RTVSPropertyOp49
 70
     1
102
RTVSPropertyOp50
 70
     1
102
RTVSPropertyOp51
 70
     0
102
RTVSPropertyOp52
 70
     0
102
RTVSPropertyOp53
 70
     1
102
RTVSPropertyOp54
 70
     1
102
RTVSPropertyOp55
 70
     1
102
RTVSPropertyOp56
 70
     1
102
RTVSPropertyOp57
 70
     1
102
RTVSPropertyOp58
 70
     1
102
RTVSPropertyOp59
 70
     1
102
RTVSPropertyOp60
 70
     1
102
RTVSPropertyOp61
 70
     1
102
RTVSPropertyOp62
 70
     1
  0
XRECORD
  5
7925
102
{ACAD_REACTORS
330
7924
102
}
330
7924
100
AcDbXrecord
280
     1
102
RTVSPost2010Prop28
280
     0
102
RTVSPost2010PropOp28
 70
     1
102
RTVSPost2010Prop29
280
     1
102
RTVSPost2010PropOp29
 70
     1
102
RTVSPost2010Prop30
280
     1
102
RTVSPost2010PropOp30
 70
     1
102
RTVSPost2010Prop31
280
     0
102
RTVSPost2010PropOp31
 70
     1
102
RTVSPost2010Prop32
280
     0
102
RTVSPost2010PropOp32
 70
     1
102
RTVSPost2010Prop33
280
     0
102
RTVSPost2010PropOp33
 70
     1
102
RTVSPost2010Prop34
280
     0
102
RTVSPost2010PropOp34
 70
     1
102
RTVSPost2010Prop35
280
     0
102
RTVSPost2010PropOp35
 70
     1
102
RTVSPost2010Prop36
280
     0
102
RTVSPost2010PropOp36
 70
     1
102
RTVSPost2010Prop37
 90
       50
102
RTVSPost2010PropOp37
 70
     1
102
RTVSPost2010Prop38
140
0.0
102
RTVSPost2010PropOp38
 70
     1
102
RTVSPost2010Prop39
140
1.0
102
RTVSPost2010PropOp39
 70
     1
102
RTVSPost2010Prop40
 90
        0
102
RTVSPost2010PropOp40
 70
     1
102
RTVSPost2010Prop41ColorIndex
 90
       18
102
RTVSPost2010Prop41ColorRGB
 90
        0
102
RTVSPost2010PropOp41
 70
     1
102
RTVSPost2010Prop42
 90
       50
102
RTVSPost2010PropOp42
 70
     1
102
RTVSPost2010Prop43
 90
        3
102
RTVSPost2010PropOp43
 70
     1
102
RTVSPost2010Prop44ColorIndex
 90
        5
102
RTVSPost2010Prop44ColorRGB
 90
      255
102
RTVSPost2010PropOp44
 70
     1
102
RTVSPost2010Prop45
280
     0
102
RTVSPost2010PropOp45
 70
     1
102
RTVSPost2010Prop46
 90
       50
102
RTVSPost2010PropOp46
 70
     1
102
RTVSPost2010Prop47
 90
       50
102
RTVSPost2010PropOp47
 70
     1
102
RTVSPost2010Prop48
 90
       50
102
RTVSPost2010PropOp48
 70
     1
102
RTVSPost2010Prop49
280
     0
102
RTVSPost2010PropOp49
 70
     1
102
RTVSPost2010Prop50
 90
       50
102
RTVSPost2010PropOp50
 70
     1
102
RTVSPost2010Prop51ColorIndex
 90
      256
102
RTVSPost2010Prop51ColorRGB
 90
-16777216
102
RTVSPost2010PropOp51
 70
     0
102
RTVSPost2010Prop52
140
1.0
102
RTVSPost2010PropOp52
 70
     0
102
RTVSPost2010Prop53
 90
        2
102
RTVSPost2010PropOp53
 70
     1
102
RTVSPost2010Prop54
  1
strokes_ogs.tif
102
RTVSPost2010PropOp54
 70
     1
102
RTVSPost2010Prop55
280
     0
102
RTVSPost2010PropOp55
 70
     1
102
RTVSPost2010Prop56
140
1.0
102
RTVSPost2010PropOp56
 70
     1
102
RTVSPost2010Prop57
140
1.0
102
RTVSPost2010PropOp57
 70
     1
102
RTVSPropertyOp0
 70
     1
102
RTVSPropertyOp1
 70
     1
102
RTVSPropertyOp2
 70
     1
102
RTVSPropertyOp3
 70
     1
102
RTVSPropertyOp4
 70
     1
102
RTVSPropertyOp5
 70
     1
102
RTVSPropertyOp6
 70
     1
102
RTVSPropertyOp7
 70
     1
102
RTVSPropertyOp8
 70
     1
102
RTVSPropertyOp9
 70
     1
102
RTVSPropertyOp10
 70
     1
102
RTVSPropertyOp11
 70
     1
102
RTVSPropertyOp12
 70
     1
102
RTVSPropertyOp13
 70
     1
102
RTVSPropertyOp14
 70
     1
102
RTVSPropertyOp15
 70
     1
102
RTVSPropertyOp16
 70
     1
102
RTVSPropertyOp17
 70
     1
102
RTVSPropertyOp18
 70
     1
102
RTVSPropertyOp19
 70
     1
102
RTVSPropertyOp20
 70
     1
102
RTVSPropertyOp21
 70
     1
102
RTVSPropertyOp22
 70
     1
102
RTVSPropertyOp23
 70
     1
102
RTVSPropertyOp24
 70
     1
102
RTVSPropertyOp25
 70
     1
102
RTVSPropertyOp26
 70
     1
102
RTVSPropertyOp27
 70
     1
102
RTVSPropertyOp28
 70
     1
102
RTVSPropertyOp29
 70
     1
102
RTVSPropertyOp30
 70
     1
102
RTVSPropertyOp31
 70
     1
102
RTVSPropertyOp32
 70
     1
102
RTVSPropertyOp33
 70
     1
102
RTVSPropertyOp34
 70
     1
102
RTVSPropertyOp35
 70
     1
102
RTVSPropertyOp36
 70
     1
102
RTVSPropertyOp37
 70
     1
102
RTVSPropertyOp38
 70
     1
102
RTVSPropertyOp39
 70
     1
102
RTVSPropertyOp40
 70
     1
102
RTVSPropertyOp41
 70
     1
102
RTVSPropertyOp42
 70
     1
102
RTVSPropertyOp43
 70
     1
102
RTVSPropertyOp44
 70
     1
102
RTVSPropertyOp45
 70
     1
102
RTVSPropertyOp46
 70
     1
102
RTVSPropertyOp47
 70
     1
102
RTVSPropertyOp48
 70
     1
102
RTVSPropertyOp49
 70
     1
102
RTVSPropertyOp50
 70
     1
102
RTVSPropertyOp51
 70
     0
102
RTVSPropertyOp52
 70
     0
102
RTVSPropertyOp53
 70
     1
102
RTVSPropertyOp54
 70
     1
102
RTVSPropertyOp55
 70
     1
102
RTVSPropertyOp56
 70
     1
102
RTVSPropertyOp57
 70
     1
102
RTVSPropertyOp58
 70
     1
102
RTVSPropertyOp59
 70
     1
102
RTVSPropertyOp60
 70
     1
102
RTVSPropertyOp61
 70
     1
102
RTVSPropertyOp62
 70
     1
  0
XRECORD
  5
792D
102
{ACAD_REACTORS
330
792C
102
}
330
792C
100
AcDbXrecord
280
     1
102
RTVSPost2010Prop28
280
     0
102
RTVSPost2010PropOp28
 70
     1
102
RTVSPost2010Prop29
280
     1
102
RTVSPost2010PropOp29
 70
     1
102
RTVSPost2010Prop30
280
     1
102
RTVSPost2010PropOp30
 70
     1
102
RTVSPost2010Prop31
280
     0
102
RTVSPost2010PropOp31
 70
     1
102
RTVSPost2010Prop32
280
     0
102
RTVSPost2010PropOp32
 70
     1
102
RTVSPost2010Prop33
280
     0
102
RTVSPost2010PropOp33
 70
     1
102
RTVSPost2010Prop34
280
     0
102
RTVSPost2010PropOp34
 70
     1
102
RTVSPost2010Prop35
280
     0
102
RTVSPost2010PropOp35
 70
     1
102
RTVSPost2010Prop36
280
     0
102
RTVSPost2010PropOp36
 70
     1
102
RTVSPost2010Prop37
 90
       50
102
RTVSPost2010PropOp37
 70
     1
102
RTVSPost2010Prop38
140
0.0
102
RTVSPost2010PropOp38
 70
     1
102
RTVSPost2010Prop39
140
1.0
102
RTVSPost2010PropOp39
 70
     1
102
RTVSPost2010Prop40
 90
        0
102
RTVSPost2010PropOp40
 70
     1
102
RTVSPost2010Prop41ColorIndex
 90
       18
102
RTVSPost2010Prop41ColorRGB
 90
        0
102
RTVSPost2010PropOp41
 70
     1
102
RTVSPost2010Prop42
 90
       50
102
RTVSPost2010PropOp42
 70
     1
102
RTVSPost2010Prop43
 90
        3
102
RTVSPost2010PropOp43
 70
     1
102
RTVSPost2010Prop44ColorIndex
 90
        5
102
RTVSPost2010Prop44ColorRGB
 90
      255
102
RTVSPost2010PropOp44
 70
     1
102
RTVSPost2010Prop45
280
     0
102
RTVSPost2010PropOp45
 70
     1
102
RTVSPost2010Prop46
 90
       50
102
RTVSPost2010PropOp46
 70
     1
102
RTVSPost2010Prop47
 90
       50
102
RTVSPost2010PropOp47
 70
     1
102
RTVSPost2010Prop48
 90
       50
102
RTVSPost2010PropOp48
 70
     1
102
RTVSPost2010Prop49
280
     0
102
RTVSPost2010PropOp49
 70
     1
102
RTVSPost2010Prop50
 90
       50
102
RTVSPost2010PropOp50
 70
     1
102
RTVSPost2010Prop51ColorIndex
 90
      256
102
RTVSPost2010Prop51ColorRGB
 90
-16777216
102
RTVSPost2010PropOp51
 70
     0
102
RTVSPost2010Prop52
140
1.0
102
RTVSPost2010PropOp52
 70
     0
102
RTVSPost2010Prop53
 90
        2
102
RTVSPost2010PropOp53
 70
     1
102
RTVSPost2010Prop54
  1
strokes_ogs.tif
102
RTVSPost2010PropOp54
 70
     1
102
RTVSPost2010Prop55
280
     0
102
RTVSPost2010PropOp55
 70
     1
102
RTVSPost2010Prop56
140
1.0
102
RTVSPost2010PropOp56
 70
     1
102
RTVSPost2010Prop57
140
1.0
102
RTVSPost2010PropOp57
 70
     1
102
RTVSPropertyOp0
 70
     1
102
RTVSPropertyOp1
 70
     1
102
RTVSPropertyOp2
 70
     1
102
RTVSPropertyOp3
 70
     1
102
RTVSPropertyOp4
 70
     1
102
RTVSPropertyOp5
 70
     1
102
RTVSPropertyOp6
 70
     1
102
RTVSPropertyOp7
 70
     1
102
RTVSPropertyOp8
 70
     1
102
RTVSPropertyOp9
 70
     1
102
RTVSPropertyOp10
 70
     1
102
RTVSPropertyOp11
 70
     1
102
RTVSPropertyOp12
 70
     1
102
RTVSPropertyOp13
 70
     1
102
RTVSPropertyOp14
 70
     1
102
RTVSPropertyOp15
 70
     1
102
RTVSPropertyOp16
 70
     1
102
RTVSPropertyOp17
 70
     1
102
RTVSPropertyOp18
 70
     1
102
RTVSPropertyOp19
 70
     1
102
RTVSPropertyOp20
 70
     1
102
RTVSPropertyOp21
 70
     1
102
RTVSPropertyOp22
 70
     1
102
RTVSPropertyOp23
 70
     1
102
RTVSPropertyOp24
 70
     1
102
RTVSPropertyOp25
 70
     1
102
RTVSPropertyOp26
 70
     1
102
RTVSPropertyOp27
 70
     1
102
RTVSPropertyOp28
 70
     1
102
RTVSPropertyOp29
 70
     1
102
RTVSPropertyOp30
 70
     1
102
RTVSPropertyOp31
 70
     1
102
RTVSPropertyOp32
 70
     1
102
RTVSPropertyOp33
 70
     1
102
RTVSPropertyOp34
 70
     1
102
RTVSPropertyOp35
 70
     1
102
RTVSPropertyOp36
 70
     1
102
RTVSPropertyOp37
 70
     1
102
RTVSPropertyOp38
 70
     1
102
RTVSPropertyOp39
 70
     1
102
RTVSPropertyOp40
 70
     1
102
RTVSPropertyOp41
 70
     1
102
RTVSPropertyOp42
 70
     1
102
RTVSPropertyOp43
 70
     1
102
RTVSPropertyOp44
 70
     1
102
RTVSPropertyOp45
 70
     1
102
RTVSPropertyOp46
 70
     1
102
RTVSPropertyOp47
 70
     1
102
RTVSPropertyOp48
 70
     1
102
RTVSPropertyOp49
 70
     1
102
RTVSPropertyOp50
 70
     1
102
RTVSPropertyOp51
 70
     0
102
RTVSPropertyOp52
 70
     0
102
RTVSPropertyOp53
 70
     1
102
RTVSPropertyOp54
 70
     1
102
RTVSPropertyOp55
 70
     1
102
RTVSPropertyOp56
 70
     1
102
RTVSPropertyOp57
 70
     1
102
RTVSPropertyOp58
 70
     1
102
RTVSPropertyOp59
 70
     1
102
RTVSPropertyOp60
 70
     1
102
RTVSPropertyOp61
 70
     1
102
RTVSPropertyOp62
 70
     1
  0
XRECORD
  5
791F
102
{ACAD_REACTORS
330
791E
102
}
330
791E
100
AcDbXrecord
280
     1
102
RTVSPost2010Prop28
280
     0
102
RTVSPost2010PropOp28
 70
     1
102
RTVSPost2010Prop29
280
     1
102
RTVSPost2010PropOp29
 70
     1
102
RTVSPost2010Prop30
280
     1
102
RTVSPost2010PropOp30
 70
     1
102
RTVSPost2010Prop31
280
     0
102
RTVSPost2010PropOp31
 70
     1
102
RTVSPost2010Prop32
280
     0
102
RTVSPost2010PropOp32
 70
     1
102
RTVSPost2010Prop33
280
     0
102
RTVSPost2010PropOp33
 70
     1
102
RTVSPost2010Prop34
280
     0
102
RTVSPost2010PropOp34
 70
     1
102
RTVSPost2010Prop35
280
     0
102
RTVSPost2010PropOp35
 70
     1
102
RTVSPost2010Prop36
280
     0
102
RTVSPost2010PropOp36
 70
     1
102
RTVSPost2010Prop37
 90
       50
102
RTVSPost2010PropOp37
 70
     1
102
RTVSPost2010Prop38
140
0.0
102
RTVSPost2010PropOp38
 70
     1
102
RTVSPost2010Prop39
140
1.0
102
RTVSPost2010PropOp39
 70
     1
102
RTVSPost2010Prop40
 90
        0
102
RTVSPost2010PropOp40
 70
     1
102
RTVSPost2010Prop41ColorIndex
 90
       18
102
RTVSPost2010Prop41ColorRGB
 90
        0
102
RTVSPost2010PropOp41
 70
     1
102
RTVSPost2010Prop42
 90
       50
102
RTVSPost2010PropOp42
 70
     1
102
RTVSPost2010Prop43
 90
        3
102
RTVSPost2010PropOp43
 70
     1
102
RTVSPost2010Prop44ColorIndex
 90
        5
102
RTVSPost2010Prop44ColorRGB
 90
      255
102
RTVSPost2010PropOp44
 70
     1
102
RTVSPost2010Prop45
280
     0
102
RTVSPost2010PropOp45
 70
     1
102
RTVSPost2010Prop46
 90
       50
102
RTVSPost2010PropOp46
 70
     1
102
RTVSPost2010Prop47
 90
       50
102
RTVSPost2010PropOp47
 70
     1
102
RTVSPost2010Prop48
 90
       50
102
RTVSPost2010PropOp48
 70
     1
102
RTVSPost2010Prop49
280
     0
102
RTVSPost2010PropOp49
 70
     1
102
RTVSPost2010Prop50
 90
       50
102
RTVSPost2010PropOp50
 70
     1
102
RTVSPost2010Prop51ColorIndex
 90
      256
102
RTVSPost2010Prop51ColorRGB
 90
-16777216
102
RTVSPost2010PropOp51
 70
     0
102
RTVSPost2010Prop52
140
1.0
102
RTVSPost2010PropOp52
 70
     0
102
RTVSPost2010Prop53
 90
        2
102
RTVSPost2010PropOp53
 70
     1
102
RTVSPost2010Prop54
  1
strokes_ogs.tif
102
RTVSPost2010PropOp54
 70
     1
102
RTVSPost2010Prop55
280
     0
102
RTVSPost2010PropOp55
 70
     1
102
RTVSPost2010Prop56
140
1.0
102
RTVSPost2010PropOp56
 70
     1
102
RTVSPost2010Prop57
140
1.0
102
RTVSPost2010PropOp57
 70
     1
102
RTVSPropertyOp0
 70
     1
102
RTVSPropertyOp1
 70
     1
102
RTVSPropertyOp2
 70
     1
102
RTVSPropertyOp3
 70
     1
102
RTVSPropertyOp4
 70
     1
102
RTVSPropertyOp5
 70
     1
102
RTVSPropertyOp6
 70
     1
102
RTVSPropertyOp7
 70
     1
102
RTVSPropertyOp8
 70
     1
102
RTVSPropertyOp9
 70
     1
102
RTVSPropertyOp10
 70
     1
102
RTVSPropertyOp11
 70
     1
102
RTVSPropertyOp12
 70
     1
102
RTVSPropertyOp13
 70
     1
102
RTVSPropertyOp14
 70
     1
102
RTVSPropertyOp15
 70
     1
102
RTVSPropertyOp16
 70
     1
102
RTVSPropertyOp17
 70
     1
102
RTVSPropertyOp18
 70
     1
102
RTVSPropertyOp19
 70
     1
102
RTVSPropertyOp20
 70
     1
102
RTVSPropertyOp21
 70
     1
102
RTVSPropertyOp22
 70
     1
102
RTVSPropertyOp23
 70
     1
102
RTVSPropertyOp24
 70
     1
102
RTVSPropertyOp25
 70
     1
102
RTVSPropertyOp26
 70
     1
102
RTVSPropertyOp27
 70
     1
102
RTVSPropertyOp28
 70
     1
102
RTVSPropertyOp29
 70
     1
102
RTVSPropertyOp30
 70
     1
102
RTVSPropertyOp31
 70
     1
102
RTVSPropertyOp32
 70
     1
102
RTVSPropertyOp33
 70
     1
102
RTVSPropertyOp34
 70
     1
102
RTVSPropertyOp35
 70
     1
102
RTVSPropertyOp36
 70
     1
102
RTVSPropertyOp37
 70
     1
102
RTVSPropertyOp38
 70
     1
102
RTVSPropertyOp39
 70
     1
102
RTVSPropertyOp40
 70
     1
102
RTVSPropertyOp41
 70
     1
102
RTVSPropertyOp42
 70
     1
102
RTVSPropertyOp43
 70
     1
102
RTVSPropertyOp44
 70
     1
102
RTVSPropertyOp45
 70
     1
102
RTVSPropertyOp46
 70
     1
102
RTVSPropertyOp47
 70
     1
102
RTVSPropertyOp48
 70
     1
102
RTVSPropertyOp49
 70
     1
102
RTVSPropertyOp50
 70
     1
102
RTVSPropertyOp51
 70
     0
102
RTVSPropertyOp52
 70
     0
102
RTVSPropertyOp53
 70
     1
102
RTVSPropertyOp54
 70
     1
102
RTVSPropertyOp55
 70
     1
102
RTVSPropertyOp56
 70
     1
102
RTVSPropertyOp57
 70
     1
102
RTVSPropertyOp58
 70
     1
102
RTVSPropertyOp59
 70
     1
102
RTVSPropertyOp60
 70
     1
102
RTVSPropertyOp61
 70
     1
102
RTVSPropertyOp62
 70
     1
  0
XRECORD
  5
7923
102
{ACAD_REACTORS
330
7922
102
}
330
7922
100
AcDbXrecord
280
     1
102
RTVSPost2010Prop28
280
     0
102
RTVSPost2010PropOp28
 70
     1
102
RTVSPost2010Prop29
280
     1
102
RTVSPost2010PropOp29
 70
     1
102
RTVSPost2010Prop30
280
     1
102
RTVSPost2010PropOp30
 70
     1
102
RTVSPost2010Prop31
280
     0
102
RTVSPost2010PropOp31
 70
     1
102
RTVSPost2010Prop32
280
     0
102
RTVSPost2010PropOp32
 70
     1
102
RTVSPost2010Prop33
280
     0
102
RTVSPost2010PropOp33
 70
     1
102
RTVSPost2010Prop34
280
     0
102
RTVSPost2010PropOp34
 70
     1
102
RTVSPost2010Prop35
280
     0
102
RTVSPost2010PropOp35
 70
     1
102
RTVSPost2010Prop36
280
     0
102
RTVSPost2010PropOp36
 70
     1
102
RTVSPost2010Prop37
 90
       50
102
RTVSPost2010PropOp37
 70
     1
102
RTVSPost2010Prop38
140
0.0
102
RTVSPost2010PropOp38
 70
     1
102
RTVSPost2010Prop39
140
1.0
102
RTVSPost2010PropOp39
 70
     1
102
RTVSPost2010Prop40
 90
        0
102
RTVSPost2010PropOp40
 70
     1
102
RTVSPost2010Prop41ColorIndex
 90
       18
102
RTVSPost2010Prop41ColorRGB
 90
        0
102
RTVSPost2010PropOp41
 70
     1
102
RTVSPost2010Prop42
 90
       50
102
RTVSPost2010PropOp42
 70
     1
102
RTVSPost2010Prop43
 90
        3
102
RTVSPost2010PropOp43
 70
     1
102
RTVSPost2010Prop44ColorIndex
 90
        5
102
RTVSPost2010Prop44ColorRGB
 90
      255
102
RTVSPost2010PropOp44
 70
     1
102
RTVSPost2010Prop45
280
     0
102
RTVSPost2010PropOp45
 70
     1
102
RTVSPost2010Prop46
 90
       50
102
RTVSPost2010PropOp46
 70
     1
102
RTVSPost2010Prop47
 90
       50
102
RTVSPost2010PropOp47
 70
     1
102
RTVSPost2010Prop48
 90
       50
102
RTVSPost2010PropOp48
 70
     1
102
RTVSPost2010Prop49
280
     0
102
RTVSPost2010PropOp49
 70
     1
102
RTVSPost2010Prop50
 90
       50
102
RTVSPost2010PropOp50
 70
     1
102
RTVSPost2010Prop51ColorIndex
 90
      256
102
RTVSPost2010Prop51ColorRGB
 90
-16777216
102
RTVSPost2010PropOp51
 70
     0
102
RTVSPost2010Prop52
140
1.0
102
RTVSPost2010PropOp52
 70
     0
102
RTVSPost2010Prop53
 90
        2
102
RTVSPost2010PropOp53
 70
     1
102
RTVSPost2010Prop54
  1
strokes_ogs.tif
102
RTVSPost2010PropOp54
 70
     1
102
RTVSPost2010Prop55
280
     0
102
RTVSPost2010PropOp55
 70
     1
102
RTVSPost2010Prop56
140
1.0
102
RTVSPost2010PropOp56
 70
     1
102
RTVSPost2010Prop57
140
1.0
102
RTVSPost2010PropOp57
 70
     1
102
RTVSPropertyOp0
 70
     1
102
RTVSPropertyOp1
 70
     1
102
RTVSPropertyOp2
 70
     1
102
RTVSPropertyOp3
 70
     1
102
RTVSPropertyOp4
 70
     1
102
RTVSPropertyOp5
 70
     1
102
RTVSPropertyOp6
 70
     1
102
RTVSPropertyOp7
 70
     1
102
RTVSPropertyOp8
 70
     1
102
RTVSPropertyOp9
 70
     1
102
RTVSPropertyOp10
 70
     1
102
RTVSPropertyOp11
 70
     1
102
RTVSPropertyOp12
 70
     1
102
RTVSPropertyOp13
 70
     1
102
RTVSPropertyOp14
 70
     1
102
RTVSPropertyOp15
 70
     1
102
RTVSPropertyOp16
 70
     1
102
RTVSPropertyOp17
 70
     1
102
RTVSPropertyOp18
 70
     1
102
RTVSPropertyOp19
 70
     1
102
RTVSPropertyOp20
 70
     1
102
RTVSPropertyOp21
 70
     1
102
RTVSPropertyOp22
 70
     1
102
RTVSPropertyOp23
 70
     1
102
RTVSPropertyOp24
 70
     1
102
RTVSPropertyOp25
 70
     1
102
RTVSPropertyOp26
 70
     1
102
RTVSPropertyOp27
 70
     1
102
RTVSPropertyOp28
 70
     1
102
RTVSPropertyOp29
 70
     1
102
RTVSPropertyOp30
 70
     1
102
RTVSPropertyOp31
 70
     1
102
RTVSPropertyOp32
 70
     1
102
RTVSPropertyOp33
 70
     1
102
RTVSPropertyOp34
 70
     1
102
RTVSPropertyOp35
 70
     1
102
RTVSPropertyOp36
 70
     1
102
RTVSPropertyOp37
 70
     1
102
RTVSPropertyOp38
 70
     1
102
RTVSPropertyOp39
 70
     1
102
RTVSPropertyOp40
 70
     1
102
RTVSPropertyOp41
 70
     1
102
RTVSPropertyOp42
 70
     1
102
RTVSPropertyOp43
 70
     1
102
RTVSPropertyOp44
 70
     1
102
RTVSPropertyOp45
 70
     1
102
RTVSPropertyOp46
 70
     1
102
RTVSPropertyOp47
 70
     1
102
RTVSPropertyOp48
 70
     1
102
RTVSPropertyOp49
 70
     1
102
RTVSPropertyOp50
 70
     1
102
RTVSPropertyOp51
 70
     0
102
RTVSPropertyOp52
 70
     0
102
RTVSPropertyOp53
 70
     1
102
RTVSPropertyOp54
 70
     1
102
RTVSPropertyOp55
 70
     1
102
RTVSPropertyOp56
 70
     1
102
RTVSPropertyOp57
 70
     1
102
RTVSPropertyOp58
 70
     1
102
RTVSPropertyOp59
 70
     1
102
RTVSPropertyOp60
 70
     1
102
RTVSPropertyOp61
 70
     1
102
RTVSPropertyOp62
 70
     1
  0
XRECORD
  5
7935
102
{ACAD_REACTORS
330
7934
102
}
330
7934
100
AcDbXrecord
280
     1
102
RTVSPost2010Prop28
280
     0
102
RTVSPost2010PropOp28
 70
     1
102
RTVSPost2010Prop29
280
     1
102
RTVSPost2010PropOp29
 70
     1
102
RTVSPost2010Prop30
280
     1
102
RTVSPost2010PropOp30
 70
     1
102
RTVSPost2010Prop31
280
     0
102
RTVSPost2010PropOp31
 70
     1
102
RTVSPost2010Prop32
280
     0
102
RTVSPost2010PropOp32
 70
     1
102
RTVSPost2010Prop33
280
     0
102
RTVSPost2010PropOp33
 70
     1
102
RTVSPost2010Prop34
280
     0
102
RTVSPost2010PropOp34
 70
     1
102
RTVSPost2010Prop35
280
     0
102
RTVSPost2010PropOp35
 70
     1
102
RTVSPost2010Prop36
280
     0
102
RTVSPost2010PropOp36
 70
     1
102
RTVSPost2010Prop37
 90
       50
102
RTVSPost2010PropOp37
 70
     1
102
RTVSPost2010Prop38
140
0.0
102
RTVSPost2010PropOp38
 70
     1
102
RTVSPost2010Prop39
140
1.0
102
RTVSPost2010PropOp39
 70
     1
102
RTVSPost2010Prop40
 90
        0
102
RTVSPost2010PropOp40
 70
     1
102
RTVSPost2010Prop41ColorIndex
 90
       18
102
RTVSPost2010Prop41ColorRGB
 90
        0
102
RTVSPost2010PropOp41
 70
     1
102
RTVSPost2010Prop42
 90
       50
102
RTVSPost2010PropOp42
 70
     1
102
RTVSPost2010Prop43
 90
        3
102
RTVSPost2010PropOp43
 70
     1
102
RTVSPost2010Prop44ColorIndex
 90
        5
102
RTVSPost2010Prop44ColorRGB
 90
      255
102
RTVSPost2010PropOp44
 70
     1
102
RTVSPost2010Prop45
280
     0
102
RTVSPost2010PropOp45
 70
     1
102
RTVSPost2010Prop46
 90
       50
102
RTVSPost2010PropOp46
 70
     1
102
RTVSPost2010Prop47
 90
       50
102
RTVSPost2010PropOp47
 70
     1
102
RTVSPost2010Prop48
 90
       50
102
RTVSPost2010PropOp48
 70
     1
102
RTVSPost2010Prop49
280
     0
102
RTVSPost2010PropOp49
 70
     1
102
RTVSPost2010Prop50
 90
       50
102
RTVSPost2010PropOp50
 70
     1
102
RTVSPost2010Prop51ColorIndex
 90
      256
102
RTVSPost2010Prop51ColorRGB
 90
-16777216
102
RTVSPost2010PropOp51
 70
     0
102
RTVSPost2010Prop52
140
1.0
102
RTVSPost2010PropOp52
 70
     0
102
RTVSPost2010Prop53
 90
        2
102
RTVSPost2010PropOp53
 70
     1
102
RTVSPost2010Prop54
  1
strokes_ogs.tif
102
RTVSPost2010PropOp54
 70
     1
102
RTVSPost2010Prop55
280
     0
102
RTVSPost2010PropOp55
 70
     1
102
RTVSPost2010Prop56
140
1.0
102
RTVSPost2010PropOp56
 70
     1
102
RTVSPost2010Prop57
140
1.0
102
RTVSPost2010PropOp57
 70
     1
102
RTVSPropertyOp0
 70
     0
102
RTVSPropertyOp1
 70
     0
102
RTVSPropertyOp2
 70
     0
102
RTVSPropertyOp3
 70
     0
102
RTVSPropertyOp4
 70
     0
102
RTVSPropertyOp5
 70
     0
102
RTVSPropertyOp6
 70
     0
102
RTVSPropertyOp7
 70
     0
102
RTVSPropertyOp8
 70
     0
102
RTVSPropertyOp9
 70
     0
102
RTVSPropertyOp10
 70
     0
102
RTVSPropertyOp11
 70
     0
102
RTVSPropertyOp12
 70
     0
102
RTVSPropertyOp13
 70
     0
102
RTVSPropertyOp14
 70
     2
102
RTVSPropertyOp15
 70
     0
102
RTVSPropertyOp16
 70
     0
102
RTVSPropertyOp17
 70
     0
102
RTVSPropertyOp18
 70
     0
102
RTVSPropertyOp19
 70
     0
102
RTVSPropertyOp20
 70
     0
102
RTVSPropertyOp21
 70
     0
102
RTVSPropertyOp22
 70
     0
102
RTVSPropertyOp23
 70
     0
102
RTVSPropertyOp24
 70
     0
102
RTVSPropertyOp25
 70
     0
102
RTVSPropertyOp26
 70
     0
102
RTVSPropertyOp27
 70
     0
102
RTVSPropertyOp28
 70
     1
102
RTVSPropertyOp29
 70
     1
102
RTVSPropertyOp30
 70
     1
102
RTVSPropertyOp31
 70
     1
102
RTVSPropertyOp32
 70
     1
102
RTVSPropertyOp33
 70
     1
102
RTVSPropertyOp34
 70
     1
102
RTVSPropertyOp35
 70
     1
102
RTVSPropertyOp36
 70
     1
102
RTVSPropertyOp37
 70
     1
102
RTVSPropertyOp38
 70
     1
102
RTVSPropertyOp39
 70
     1
102
RTVSPropertyOp40
 70
     1
102
RTVSPropertyOp41
 70
     1
102
RTVSPropertyOp42
 70
     1
102
RTVSPropertyOp43
 70
     1
102
RTVSPropertyOp44
 70
     1
102
RTVSPropertyOp45
 70
     1
102
RTVSPropertyOp46
 70
     1
102
RTVSPropertyOp47
 70
     1
102
RTVSPropertyOp48
 70
     1
102
RTVSPropertyOp49
 70
     1
102
RTVSPropertyOp50
 70
     1
102
RTVSPropertyOp51
 70
     0
102
RTVSPropertyOp52
 70
     0
102
RTVSPropertyOp53
 70
     1
102
RTVSPropertyOp54
 70
     1
102
RTVSPropertyOp55
 70
     1
102
RTVSPropertyOp56
 70
     1
102
RTVSPropertyOp57
 70
     1
102
RTVSPropertyOp58
 70
     1
102
RTVSPropertyOp59
 70
     1
102
RTVSPropertyOp60
 70
     1
102
RTVSPropertyOp61
 70
     1
102
RTVSPropertyOp62
 70
     1
  0
XRECORD
  5
792B
102
{ACAD_REACTORS
330
792A
102
}
330
792A
100
AcDbXrecord
280
     1
102
RTVSPost2010Prop28
280
     0
102
RTVSPost2010PropOp28
 70
     1
102
RTVSPost2010Prop29
280
     1
102
RTVSPost2010PropOp29
 70
     1
102
RTVSPost2010Prop30
280
     1
102
RTVSPost2010PropOp30
 70
     1
102
RTVSPost2010Prop31
280
     0
102
RTVSPost2010PropOp31
 70
     1
102
RTVSPost2010Prop32
280
     0
102
RTVSPost2010PropOp32
 70
     1
102
RTVSPost2010Prop33
280
     0
102
RTVSPost2010PropOp33
 70
     1
102
RTVSPost2010Prop34
280
     0
102
RTVSPost2010PropOp34
 70
     1
102
RTVSPost2010Prop35
280
     0
102
RTVSPost2010PropOp35
 70
     1
102
RTVSPost2010Prop36
280
     0
102
RTVSPost2010PropOp36
 70
     1
102
RTVSPost2010Prop37
 90
       50
102
RTVSPost2010PropOp37
 70
     1
102
RTVSPost2010Prop38
140
0.0
102
RTVSPost2010PropOp38
 70
     1
102
RTVSPost2010Prop39
140
1.0
102
RTVSPost2010PropOp39
 70
     1
102
RTVSPost2010Prop40
 90
        0
102
RTVSPost2010PropOp40
 70
     1
102
RTVSPost2010Prop41ColorIndex
 90
       18
102
RTVSPost2010Prop41ColorRGB
 90
        0
102
RTVSPost2010PropOp41
 70
     1
102
RTVSPost2010Prop42
 90
       50
102
RTVSPost2010PropOp42
 70
     1
102
RTVSPost2010Prop43
 90
        3
102
RTVSPost2010PropOp43
 70
     1
102
RTVSPost2010Prop44ColorIndex
 90
        5
102
RTVSPost2010Prop44ColorRGB
 90
      255
102
RTVSPost2010PropOp44
 70
     1
102
RTVSPost2010Prop45
280
     0
102
RTVSPost2010PropOp45
 70
     1
102
RTVSPost2010Prop46
 90
       50
102
RTVSPost2010PropOp46
 70
     1
102
RTVSPost2010Prop47
 90
       50
102
RTVSPost2010PropOp47
 70
     1
102
RTVSPost2010Prop48
 90
       50
102
RTVSPost2010PropOp48
 70
     1
102
RTVSPost2010Prop49
280
     0
102
RTVSPost2010PropOp49
 70
     1
102
RTVSPost2010Prop50
 90
       50
102
RTVSPost2010PropOp50
 70
     1
102
RTVSPost2010Prop51ColorIndex
 90
      256
102
RTVSPost2010Prop51ColorRGB
 90
-16777216
102
RTVSPost2010PropOp51
 70
     0
102
RTVSPost2010Prop52
140
1.0
102
RTVSPost2010PropOp52
 70
     0
102
RTVSPost2010Prop53
 90
        2
102
RTVSPost2010PropOp53
 70
     1
102
RTVSPost2010Prop54
  1
strokes_ogs.tif
102
RTVSPost2010PropOp54
 70
     1
102
RTVSPost2010Prop55
280
     0
102
RTVSPost2010PropOp55
 70
     1
102
RTVSPost2010Prop56
140
1.0
102
RTVSPost2010PropOp56
 70
     1
102
RTVSPost2010Prop57
140
1.0
102
RTVSPost2010PropOp57
 70
     1
102
RTVSPropertyOp0
 70
     1
102
RTVSPropertyOp1
 70
     1
102
RTVSPropertyOp2
 70
     1
102
RTVSPropertyOp3
 70
     1
102
RTVSPropertyOp4
 70
     1
102
RTVSPropertyOp5
 70
     1
102
RTVSPropertyOp6
 70
     1
102
RTVSPropertyOp7
 70
     1
102
RTVSPropertyOp8
 70
     1
102
RTVSPropertyOp9
 70
     1
102
RTVSPropertyOp10
 70
     1
102
RTVSPropertyOp11
 70
     1
102
RTVSPropertyOp12
 70
     1
102
RTVSPropertyOp13
 70
     1
102
RTVSPropertyOp14
 70
     1
102
RTVSPropertyOp15
 70
     1
102
RTVSPropertyOp16
 70
     1
102
RTVSPropertyOp17
 70
     1
102
RTVSPropertyOp18
 70
     1
102
RTVSPropertyOp19
 70
     1
102
RTVSPropertyOp20
 70
     1
102
RTVSPropertyOp21
 70
     1
102
RTVSPropertyOp22
 70
     1
102
RTVSPropertyOp23
 70
     1
102
RTVSPropertyOp24
 70
     1
102
RTVSPropertyOp25
 70
     1
102
RTVSPropertyOp26
 70
     1
102
RTVSPropertyOp27
 70
     1
102
RTVSPropertyOp28
 70
     1
102
RTVSPropertyOp29
 70
     1
102
RTVSPropertyOp30
 70
     1
102
RTVSPropertyOp31
 70
     1
102
RTVSPropertyOp32
 70
     1
102
RTVSPropertyOp33
 70
     1
102
RTVSPropertyOp34
 70
     1
102
RTVSPropertyOp35
 70
     1
102
RTVSPropertyOp36
 70
     1
102
RTVSPropertyOp37
 70
     1
102
RTVSPropertyOp38
 70
     1
102
RTVSPropertyOp39
 70
     1
102
RTVSPropertyOp40
 70
     1
102
RTVSPropertyOp41
 70
     1
102
RTVSPropertyOp42
 70
     1
102
RTVSPropertyOp43
 70
     1
102
RTVSPropertyOp44
 70
     1
102
RTVSPropertyOp45
 70
     1
102
RTVSPropertyOp46
 70
     1
102
RTVSPropertyOp47
 70
     1
102
RTVSPropertyOp48
 70
     1
102
RTVSPropertyOp49
 70
     1
102
RTVSPropertyOp50
 70
     1
102
RTVSPropertyOp51
 70
     0
102
RTVSPropertyOp52
 70
     0
102
RTVSPropertyOp53
 70
     1
102
RTVSPropertyOp54
 70
     1
102
RTVSPropertyOp55
 70
     1
102
RTVSPropertyOp56
 70
     1
102
RTVSPropertyOp57
 70
     1
102
RTVSPropertyOp58
 70
     1
102
RTVSPropertyOp59
 70
     1
102
RTVSPropertyOp60
 70
     1
102
RTVSPropertyOp61
 70
     1
102
RTVSPropertyOp62
 70
     1
  0
XRECORD
  5
790F
102
{ACAD_REACTORS
330
790E
102
}
330
790E
100
AcDbXrecord
280
     1
102
RTVSPost2010Prop28
280
     0
102
RTVSPost2010PropOp28
 70
     1
102
RTVSPost2010Prop29
280
     1
102
RTVSPost2010PropOp29
 70
     1
102
RTVSPost2010Prop30
280
     1
102
RTVSPost2010PropOp30
 70
     1
102
RTVSPost2010Prop31
280
     0
102
RTVSPost2010PropOp31
 70
     1
102
RTVSPost2010Prop32
280
     0
102
RTVSPost2010PropOp32
 70
     1
102
RTVSPost2010Prop33
280
     0
102
RTVSPost2010PropOp33
 70
     1
102
RTVSPost2010Prop34
280
     0
102
RTVSPost2010PropOp34
 70
     1
102
RTVSPost2010Prop35
280
     0
102
RTVSPost2010PropOp35
 70
     1
102
RTVSPost2010Prop36
280
     0
102
RTVSPost2010PropOp36
 70
     1
102
RTVSPost2010Prop37
 90
       50
102
RTVSPost2010PropOp37
 70
     1
102
RTVSPost2010Prop38
140
0.0
102
RTVSPost2010PropOp38
 70
     1
102
RTVSPost2010Prop39
140
1.0
102
RTVSPost2010PropOp39
 70
     1
102
RTVSPost2010Prop40
 90
        0
102
RTVSPost2010PropOp40
 70
     1
102
RTVSPost2010Prop41ColorIndex
 90
       18
102
RTVSPost2010Prop41ColorRGB
 90
        0
102
RTVSPost2010PropOp41
 70
     1
102
RTVSPost2010Prop42
 90
       50
102
RTVSPost2010PropOp42
 70
     1
102
RTVSPost2010Prop43
 90
        3
102
RTVSPost2010PropOp43
 70
     1
102
RTVSPost2010Prop44ColorIndex
 90
        5
102
RTVSPost2010Prop44ColorRGB
 90
      255
102
RTVSPost2010PropOp44
 70
     1
102
RTVSPost2010Prop45
280
     0
102
RTVSPost2010PropOp45
 70
     1
102
RTVSPost2010Prop46
 90
       50
102
RTVSPost2010PropOp46
 70
     1
102
RTVSPost2010Prop47
 90
       50
102
RTVSPost2010PropOp47
 70
     1
102
RTVSPost2010Prop48
 90
       50
102
RTVSPost2010PropOp48
 70
     1
102
RTVSPost2010Prop49
280
     0
102
RTVSPost2010PropOp49
 70
     1
102
RTVSPost2010Prop50
 90
       50
102
RTVSPost2010PropOp50
 70
     1
102
RTVSPost2010Prop51ColorIndex
 90
      256
102
RTVSPost2010Prop51ColorRGB
 90
-16777216
102
RTVSPost2010PropOp51
 70
     0
102
RTVSPost2010Prop52
140
1.0
102
RTVSPost2010PropOp52
 70
     0
102
RTVSPost2010Prop53
 90
        2
102
RTVSPost2010PropOp53
 70
     1
102
RTVSPost2010Prop54
  1
strokes_ogs.tif
102
RTVSPost2010PropOp54
 70
     1
102
RTVSPost2010Prop55
280
     0
102
RTVSPost2010PropOp55
 70
     1
102
RTVSPost2010Prop56
140
1.0
102
RTVSPost2010PropOp56
 70
     1
102
RTVSPost2010Prop57
140
1.0
102
RTVSPost2010PropOp57
 70
     1
102
RTVSPropertyOp0
 70
     1
102
RTVSPropertyOp1
 70
     1
102
RTVSPropertyOp2
 70
     1
102
RTVSPropertyOp3
 70
     1
102
RTVSPropertyOp4
 70
     1
102
RTVSPropertyOp5
 70
     1
102
RTVSPropertyOp6
 70
     1
102
RTVSPropertyOp7
 70
     1
102
RTVSPropertyOp8
 70
     1
102
RTVSPropertyOp9
 70
     1
102
RTVSPropertyOp10
 70
     1
102
RTVSPropertyOp11
 70
     1
102
RTVSPropertyOp12
 70
     1
102
RTVSPropertyOp13
 70
     1
102
RTVSPropertyOp14
 70
     1
102
RTVSPropertyOp15
 70
     1
102
RTVSPropertyOp16
 70
     1
102
RTVSPropertyOp17
 70
     1
102
RTVSPropertyOp18
 70
     1
102
RTVSPropertyOp19
 70
     1
102
RTVSPropertyOp20
 70
     1
102
RTVSPropertyOp21
 70
     1
102
RTVSPropertyOp22
 70
     1
102
RTVSPropertyOp23
 70
     1
102
RTVSPropertyOp24
 70
     1
102
RTVSPropertyOp25
 70
     1
102
RTVSPropertyOp26
 70
     1
102
RTVSPropertyOp27
 70
     1
102
RTVSPropertyOp28
 70
     1
102
RTVSPropertyOp29
 70
     1
102
RTVSPropertyOp30
 70
     1
102
RTVSPropertyOp31
 70
     1
102
RTVSPropertyOp32
 70
     1
102
RTVSPropertyOp33
 70
     1
102
RTVSPropertyOp34
 70
     1
102
RTVSPropertyOp35
 70
     1
102
RTVSPropertyOp36
 70
     1
102
RTVSPropertyOp37
 70
     1
102
RTVSPropertyOp38
 70
     1
102
RTVSPropertyOp39
 70
     1
102
RTVSPropertyOp40
 70
     1
102
RTVSPropertyOp41
 70
     1
102
RTVSPropertyOp42
 70
     1
102
RTVSPropertyOp43
 70
     1
102
RTVSPropertyOp44
 70
     1
102
RTVSPropertyOp45
 70
     1
102
RTVSPropertyOp46
 70
     1
102
RTVSPropertyOp47
 70
     1
102
RTVSPropertyOp48
 70
     1
102
RTVSPropertyOp49
 70
     1
102
RTVSPropertyOp50
 70
     1
102
RTVSPropertyOp51
 70
     0
102
RTVSPropertyOp52
 70
     0
102
RTVSPropertyOp53
 70
     1
102
RTVSPropertyOp54
 70
     1
102
RTVSPropertyOp55
 70
     1
102
RTVSPropertyOp56
 70
     1
102
RTVSPropertyOp57
 70
     1
102
RTVSPropertyOp58
 70
     1
102
RTVSPropertyOp59
 70
     1
102
RTVSPropertyOp60
 70
     1
102
RTVSPropertyOp61
 70
     1
102
RTVSPropertyOp62
 70
     1
  0
XRECORD
  5
7911
102
{ACAD_REACTORS
330
7910
102
}
330
7910
100
AcDbXrecord
280
     1
102
RTVSPost2010Prop28
280
     0
102
RTVSPost2010PropOp28
 70
     1
102
RTVSPost2010Prop29
280
     1
102
RTVSPost2010PropOp29
 70
     1
102
RTVSPost2010Prop30
280
     1
102
RTVSPost2010PropOp30
 70
     1
102
RTVSPost2010Prop31
280
     0
102
RTVSPost2010PropOp31
 70
     1
102
RTVSPost2010Prop32
280
     0
102
RTVSPost2010PropOp32
 70
     1
102
RTVSPost2010Prop33
280
     0
102
RTVSPost2010PropOp33
 70
     1
102
RTVSPost2010Prop34
280
     0
102
RTVSPost2010PropOp34
 70
     1
102
RTVSPost2010Prop35
280
     0
102
RTVSPost2010PropOp35
 70
     1
102
RTVSPost2010Prop36
280
     0
102
RTVSPost2010PropOp36
 70
     1
102
RTVSPost2010Prop37
 90
       50
102
RTVSPost2010PropOp37
 70
     1
102
RTVSPost2010Prop38
140
0.0
102
RTVSPost2010PropOp38
 70
     1
102
RTVSPost2010Prop39
140
1.0
102
RTVSPost2010PropOp39
 70
     1
102
RTVSPost2010Prop40
 90
        0
102
RTVSPost2010PropOp40
 70
     1
102
RTVSPost2010Prop41ColorIndex
 90
       18
102
RTVSPost2010Prop41ColorRGB
 90
        0
102
RTVSPost2010PropOp41
 70
     1
102
RTVSPost2010Prop42
 90
       50
102
RTVSPost2010PropOp42
 70
     1
102
RTVSPost2010Prop43
 90
        3
102
RTVSPost2010PropOp43
 70
     1
102
RTVSPost2010Prop44ColorIndex
 90
        5
102
RTVSPost2010Prop44ColorRGB
 90
      255
102
RTVSPost2010PropOp44
 70
     1
102
RTVSPost2010Prop45
280
     0
102
RTVSPost2010PropOp45
 70
     1
102
RTVSPost2010Prop46
 90
       50
102
RTVSPost2010PropOp46
 70
     1
102
RTVSPost2010Prop47
 90
       50
102
RTVSPost2010PropOp47
 70
     1
102
RTVSPost2010Prop48
 90
       50
102
RTVSPost2010PropOp48
 70
     1
102
RTVSPost2010Prop49
280
     0
102
RTVSPost2010PropOp49
 70
     1
102
RTVSPost2010Prop50
 90
       50
102
RTVSPost2010PropOp50
 70
     1
102
RTVSPost2010Prop51ColorIndex
 90
      256
102
RTVSPost2010Prop51ColorRGB
 90
-16777216
102
RTVSPost2010PropOp51
 70
     0
102
RTVSPost2010Prop52
140
1.0
102
RTVSPost2010PropOp52
 70
     0
102
RTVSPost2010Prop53
 90
        2
102
RTVSPost2010PropOp53
 70
     1
102
RTVSPost2010Prop54
  1
strokes_ogs.tif
102
RTVSPost2010PropOp54
 70
     1
102
RTVSPost2010Prop55
280
     0
102
RTVSPost2010PropOp55
 70
     1
102
RTVSPost2010Prop56
140
1.0
102
RTVSPost2010PropOp56
 70
     1
102
RTVSPost2010Prop57
140
1.0
102
RTVSPost2010PropOp57
 70
     1
102
RTVSPropertyOp0
 70
     1
102
RTVSPropertyOp1
 70
     1
102
RTVSPropertyOp2
 70
     1
102
RTVSPropertyOp3
 70
     1
102
RTVSPropertyOp4
 70
     1
102
RTVSPropertyOp5
 70
     1
102
RTVSPropertyOp6
 70
     1
102
RTVSPropertyOp7
 70
     1
102
RTVSPropertyOp8
 70
     1
102
RTVSPropertyOp9
 70
     1
102
RTVSPropertyOp10
 70
     1
102
RTVSPropertyOp11
 70
     1
102
RTVSPropertyOp12
 70
     1
102
RTVSPropertyOp13
 70
     1
102
RTVSPropertyOp14
 70
     1
102
RTVSPropertyOp15
 70
     1
102
RTVSPropertyOp16
 70
     1
102
RTVSPropertyOp17
 70
     1
102
RTVSPropertyOp18
 70
     1
102
RTVSPropertyOp19
 70
     1
102
RTVSPropertyOp20
 70
     1
102
RTVSPropertyOp21
 70
     1
102
RTVSPropertyOp22
 70
     1
102
RTVSPropertyOp23
 70
     1
102
RTVSPropertyOp24
 70
     1
102
RTVSPropertyOp25
 70
     1
102
RTVSPropertyOp26
 70
     1
102
RTVSPropertyOp27
 70
     1
102
RTVSPropertyOp28
 70
     1
102
RTVSPropertyOp29
 70
     1
102
RTVSPropertyOp30
 70
     1
102
RTVSPropertyOp31
 70
     1
102
RTVSPropertyOp32
 70
     1
102
RTVSPropertyOp33
 70
     1
102
RTVSPropertyOp34
 70
     1
102
RTVSPropertyOp35
 70
     1
102
RTVSPropertyOp36
 70
     1
102
RTVSPropertyOp37
 70
     1
102
RTVSPropertyOp38
 70
     1
102
RTVSPropertyOp39
 70
     1
102
RTVSPropertyOp40
 70
     1
102
RTVSPropertyOp41
 70
     1
102
RTVSPropertyOp42
 70
     1
102
RTVSPropertyOp43
 70
     1
102
RTVSPropertyOp44
 70
     1
102
RTVSPropertyOp45
 70
     1
102
RTVSPropertyOp46
 70
     1
102
RTVSPropertyOp47
 70
     1
102
RTVSPropertyOp48
 70
     1
102
RTVSPropertyOp49
 70
     1
102
RTVSPropertyOp50
 70
     1
102
RTVSPropertyOp51
 70
     0
102
RTVSPropertyOp52
 70
     0
102
RTVSPropertyOp53
 70
     1
102
RTVSPropertyOp54
 70
     1
102
RTVSPropertyOp55
 70
     1
102
RTVSPropertyOp56
 70
     1
102
RTVSPropertyOp57
 70
     1
102
RTVSPropertyOp58
 70
     1
102
RTVSPropertyOp59
 70
     1
102
RTVSPropertyOp60
 70
     1
102
RTVSPropertyOp61
 70
     1
102
RTVSPropertyOp62
 70
     1
  0
XRECORD
  5
7913
102
{ACAD_REACTORS
330
7912
102
}
330
7912
100
AcDbXrecord
280
     1
102
RTVSPost2010Prop28
280
     0
102
RTVSPost2010PropOp28
 70
     1
102
RTVSPost2010Prop29
280
     1
102
RTVSPost2010PropOp29
 70
     1
102
RTVSPost2010Prop30
280
     1
102
RTVSPost2010PropOp30
 70
     1
102
RTVSPost2010Prop31
280
     0
102
RTVSPost2010PropOp31
 70
     1
102
RTVSPost2010Prop32
280
     0
102
RTVSPost2010PropOp32
 70
     1
102
RTVSPost2010Prop33
280
     0
102
RTVSPost2010PropOp33
 70
     1
102
RTVSPost2010Prop34
280
     0
102
RTVSPost2010PropOp34
 70
     1
102
RTVSPost2010Prop35
280
     0
102
RTVSPost2010PropOp35
 70
     1
102
RTVSPost2010Prop36
280
     0
102
RTVSPost2010PropOp36
 70
     1
102
RTVSPost2010Prop37
 90
       50
102
RTVSPost2010PropOp37
 70
     1
102
RTVSPost2010Prop38
140
0.0
102
RTVSPost2010PropOp38
 70
     1
102
RTVSPost2010Prop39
140
1.0
102
RTVSPost2010PropOp39
 70
     1
102
RTVSPost2010Prop40
 90
        0
102
RTVSPost2010PropOp40
 70
     1
102
RTVSPost2010Prop41ColorIndex
 90
       18
102
RTVSPost2010Prop41ColorRGB
 90
        0
102
RTVSPost2010PropOp41
 70
     1
102
RTVSPost2010Prop42
 90
       50
102
RTVSPost2010PropOp42
 70
     1
102
RTVSPost2010Prop43
 90
        3
102
RTVSPost2010PropOp43
 70
     1
102
RTVSPost2010Prop44ColorIndex
 90
        5
102
RTVSPost2010Prop44ColorRGB
 90
      255
102
RTVSPost2010PropOp44
 70
     1
102
RTVSPost2010Prop45
280
     0
102
RTVSPost2010PropOp45
 70
     1
102
RTVSPost2010Prop46
 90
       50
102
RTVSPost2010PropOp46
 70
     1
102
RTVSPost2010Prop47
 90
       50
102
RTVSPost2010PropOp47
 70
     1
102
RTVSPost2010Prop48
 90
       50
102
RTVSPost2010PropOp48
 70
     1
102
RTVSPost2010Prop49
280
     0
102
RTVSPost2010PropOp49
 70
     1
102
RTVSPost2010Prop50
 90
       50
102
RTVSPost2010PropOp50
 70
     1
102
RTVSPost2010Prop51ColorIndex
 90
      256
102
RTVSPost2010Prop51ColorRGB
 90
-16777216
102
RTVSPost2010PropOp51
 70
     0
102
RTVSPost2010Prop52
140
1.0
102
RTVSPost2010PropOp52
 70
     0
102
RTVSPost2010Prop53
 90
        2
102
RTVSPost2010PropOp53
 70
     1
102
RTVSPost2010Prop54
  1
strokes_ogs.tif
102
RTVSPost2010PropOp54
 70
     1
102
RTVSPost2010Prop55
280
     0
102
RTVSPost2010PropOp55
 70
     1
102
RTVSPost2010Prop56
140
1.0
102
RTVSPost2010PropOp56
 70
     1
102
RTVSPost2010Prop57
140
1.0
102
RTVSPost2010PropOp57
 70
     1
102
RTVSPropertyOp0
 70
     1
102
RTVSPropertyOp1
 70
     1
102
RTVSPropertyOp2
 70
     1
102
RTVSPropertyOp3
 70
     1
102
RTVSPropertyOp4
 70
     1
102
RTVSPropertyOp5
 70
     1
102
RTVSPropertyOp6
 70
     1
102
RTVSPropertyOp7
 70
     1
102
RTVSPropertyOp8
 70
     1
102
RTVSPropertyOp9
 70
     1
102
RTVSPropertyOp10
 70
     1
102
RTVSPropertyOp11
 70
     1
102
RTVSPropertyOp12
 70
     1
102
RTVSPropertyOp13
 70
     1
102
RTVSPropertyOp14
 70
     1
102
RTVSPropertyOp15
 70
     1
102
RTVSPropertyOp16
 70
     1
102
RTVSPropertyOp17
 70
     1
102
RTVSPropertyOp18
 70
     1
102
RTVSPropertyOp19
 70
     1
102
RTVSPropertyOp20
 70
     1
102
RTVSPropertyOp21
 70
     1
102
RTVSPropertyOp22
 70
     1
102
RTVSPropertyOp23
 70
     1
102
RTVSPropertyOp24
 70
     1
102
RTVSPropertyOp25
 70
     1
102
RTVSPropertyOp26
 70
     1
102
RTVSPropertyOp27
 70
     1
102
RTVSPropertyOp28
 70
     1
102
RTVSPropertyOp29
 70
     1
102
RTVSPropertyOp30
 70
     1
102
RTVSPropertyOp31
 70
     1
102
RTVSPropertyOp32
 70
     1
102
RTVSPropertyOp33
 70
     1
102
RTVSPropertyOp34
 70
     1
102
RTVSPropertyOp35
 70
     1
102
RTVSPropertyOp36
 70
     1
102
RTVSPropertyOp37
 70
     1
102
RTVSPropertyOp38
 70
     1
102
RTVSPropertyOp39
 70
     1
102
RTVSPropertyOp40
 70
     1
102
RTVSPropertyOp41
 70
     1
102
RTVSPropertyOp42
 70
     1
102
RTVSPropertyOp43
 70
     1
102
RTVSPropertyOp44
 70
     1
102
RTVSPropertyOp45
 70
     1
102
RTVSPropertyOp46
 70
     1
102
RTVSPropertyOp47
 70
     1
102
RTVSPropertyOp48
 70
     1
102
RTVSPropertyOp49
 70
     1
102
RTVSPropertyOp50
 70
     1
102
RTVSPropertyOp51
 70
     0
102
RTVSPropertyOp52
 70
     0
102
RTVSPropertyOp53
 70
     1
102
RTVSPropertyOp54
 70
     1
102
RTVSPropertyOp55
 70
     1
102
RTVSPropertyOp56
 70
     1
102
RTVSPropertyOp57
 70
     1
102
RTVSPropertyOp58
 70
     1
102
RTVSPropertyOp59
 70
     1
102
RTVSPropertyOp60
 70
     1
102
RTVSPropertyOp61
 70
     1
102
RTVSPropertyOp62
 70
     1
  0
XRECORD
  5
7915
102
{ACAD_REACTORS
330
7914
102
}
330
7914
100
AcDbXrecord
280
     1
102
RTVSPost2010Prop28
280
     0
102
RTVSPost2010PropOp28
 70
     1
102
RTVSPost2010Prop29
280
     1
102
RTVSPost2010PropOp29
 70
     1
102
RTVSPost2010Prop30
280
     1
102
RTVSPost2010PropOp30
 70
     1
102
RTVSPost2010Prop31
280
     0
102
RTVSPost2010PropOp31
 70
     1
102
RTVSPost2010Prop32
280
     0
102
RTVSPost2010PropOp32
 70
     1
102
RTVSPost2010Prop33
280
     0
102
RTVSPost2010PropOp33
 70
     1
102
RTVSPost2010Prop34
280
     0
102
RTVSPost2010PropOp34
 70
     1
102
RTVSPost2010Prop35
280
     0
102
RTVSPost2010PropOp35
 70
     1
102
RTVSPost2010Prop36
280
     0
102
RTVSPost2010PropOp36
 70
     1
102
RTVSPost2010Prop37
 90
       50
102
RTVSPost2010PropOp37
 70
     1
102
RTVSPost2010Prop38
140
0.0
102
RTVSPost2010PropOp38
 70
     1
102
RTVSPost2010Prop39
140
1.0
102
RTVSPost2010PropOp39
 70
     1
102
RTVSPost2010Prop40
 90
        0
102
RTVSPost2010PropOp40
 70
     1
102
RTVSPost2010Prop41ColorIndex
 90
       18
102
RTVSPost2010Prop41ColorRGB
 90
        0
102
RTVSPost2010PropOp41
 70
     1
102
RTVSPost2010Prop42
 90
       50
102
RTVSPost2010PropOp42
 70
     1
102
RTVSPost2010Prop43
 90
        3
102
RTVSPost2010PropOp43
 70
     1
102
RTVSPost2010Prop44ColorIndex
 90
        5
102
RTVSPost2010Prop44ColorRGB
 90
      255
102
RTVSPost2010PropOp44
 70
     1
102
RTVSPost2010Prop45
280
     0
102
RTVSPost2010PropOp45
 70
     1
102
RTVSPost2010Prop46
 90
       50
102
RTVSPost2010PropOp46
 70
     1
102
RTVSPost2010Prop47
 90
       50
102
RTVSPost2010PropOp47
 70
     1
102
RTVSPost2010Prop48
 90
       50
102
RTVSPost2010PropOp48
 70
     1
102
RTVSPost2010Prop49
280
     0
102
RTVSPost2010PropOp49
 70
     1
102
RTVSPost2010Prop50
 90
       50
102
RTVSPost2010PropOp50
 70
     1
102
RTVSPost2010Prop51ColorIndex
 90
      256
102
RTVSPost2010Prop51ColorRGB
 90
-16777216
102
RTVSPost2010PropOp51
 70
     0
102
RTVSPost2010Prop52
140
1.0
102
RTVSPost2010PropOp52
 70
     0
102
RTVSPost2010Prop53
 90
        2
102
RTVSPost2010PropOp53
 70
     1
102
RTVSPost2010Prop54
  1
strokes_ogs.tif
102
RTVSPost2010PropOp54
 70
     1
102
RTVSPost2010Prop55
280
     0
102
RTVSPost2010PropOp55
 70
     1
102
RTVSPost2010Prop56
140
1.0
102
RTVSPost2010PropOp56
 70
     1
102
RTVSPost2010Prop57
140
1.0
102
RTVSPost2010PropOp57
 70
     1
102
RTVSPropertyOp0
 70
     1
102
RTVSPropertyOp1
 70
     1
102
RTVSPropertyOp2
 70
     1
102
RTVSPropertyOp3
 70
     1
102
RTVSPropertyOp4
 70
     1
102
RTVSPropertyOp5
 70
     1
102
RTVSPropertyOp6
 70
     1
102
RTVSPropertyOp7
 70
     1
102
RTVSPropertyOp8
 70
     1
102
RTVSPropertyOp9
 70
     1
102
RTVSPropertyOp10
 70
     1
102
RTVSPropertyOp11
 70
     1
102
RTVSPropertyOp12
 70
     1
102
RTVSPropertyOp13
 70
     1
102
RTVSPropertyOp14
 70
     1
102
RTVSPropertyOp15
 70
     1
102
RTVSPropertyOp16
 70
     1
102
RTVSPropertyOp17
 70
     1
102
RTVSPropertyOp18
 70
     1
102
RTVSPropertyOp19
 70
     1
102
RTVSPropertyOp20
 70
     1
102
RTVSPropertyOp21
 70
     1
102
RTVSPropertyOp22
 70
     1
102
RTVSPropertyOp23
 70
     1
102
RTVSPropertyOp24
 70
     1
102
RTVSPropertyOp25
 70
     1
102
RTVSPropertyOp26
 70
     1
102
RTVSPropertyOp27
 70
     1
102
RTVSPropertyOp28
 70
     1
102
RTVSPropertyOp29
 70
     1
102
RTVSPropertyOp30
 70
     1
102
RTVSPropertyOp31
 70
     1
102
RTVSPropertyOp32
 70
     1
102
RTVSPropertyOp33
 70
     1
102
RTVSPropertyOp34
 70
     1
102
RTVSPropertyOp35
 70
     1
102
RTVSPropertyOp36
 70
     1
102
RTVSPropertyOp37
 70
     1
102
RTVSPropertyOp38
 70
     1
102
RTVSPropertyOp39
 70
     1
102
RTVSPropertyOp40
 70
     1
102
RTVSPropertyOp41
 70
     1
102
RTVSPropertyOp42
 70
     1
102
RTVSPropertyOp43
 70
     1
102
RTVSPropertyOp44
 70
     1
102
RTVSPropertyOp45
 70
     1
102
RTVSPropertyOp46
 70
     1
102
RTVSPropertyOp47
 70
     1
102
RTVSPropertyOp48
 70
     1
102
RTVSPropertyOp49
 70
     1
102
RTVSPropertyOp50
 70
     1
102
RTVSPropertyOp51
 70
     0
102
RTVSPropertyOp52
 70
     0
102
RTVSPropertyOp53
 70
     1
102
RTVSPropertyOp54
 70
     1
102
RTVSPropertyOp55
 70
     1
102
RTVSPropertyOp56
 70
     1
102
RTVSPropertyOp57
 70
     1
102
RTVSPropertyOp58
 70
     1
102
RTVSPropertyOp59
 70
     1
102
RTVSPropertyOp60
 70
     1
102
RTVSPropertyOp61
 70
     1
102
RTVSPropertyOp62
 70
     1
  0
XRECORD
  5
791D
102
{ACAD_REACTORS
330
791C
102
}
330
791C
100
AcDbXrecord
280
     1
102
RTVSPost2010Prop28
280
     0
102
RTVSPost2010PropOp28
 70
     1
102
RTVSPost2010Prop29
280
     1
102
RTVSPost2010PropOp29
 70
     1
102
RTVSPost2010Prop30
280
     1
102
RTVSPost2010PropOp30
 70
     1
102
RTVSPost2010Prop31
280
     0
102
RTVSPost2010PropOp31
 70
     1
102
RTVSPost2010Prop32
280
     0
102
RTVSPost2010PropOp32
 70
     1
102
RTVSPost2010Prop33
280
     0
102
RTVSPost2010PropOp33
 70
     1
102
RTVSPost2010Prop34
280
     0
102
RTVSPost2010PropOp34
 70
     1
102
RTVSPost2010Prop35
280
     0
102
RTVSPost2010PropOp35
 70
     1
102
RTVSPost2010Prop36
280
     0
102
RTVSPost2010PropOp36
 70
     1
102
RTVSPost2010Prop37
 90
       50
102
RTVSPost2010PropOp37
 70
     1
102
RTVSPost2010Prop38
140
0.0
102
RTVSPost2010PropOp38
 70
     1
102
RTVSPost2010Prop39
140
1.0
102
RTVSPost2010PropOp39
 70
     1
102
RTVSPost2010Prop40
 90
        0
102
RTVSPost2010PropOp40
 70
     1
102
RTVSPost2010Prop41ColorIndex
 90
       18
102
RTVSPost2010Prop41ColorRGB
 90
        0
102
RTVSPost2010PropOp41
 70
     1
102
RTVSPost2010Prop42
 90
       50
102
RTVSPost2010PropOp42
 70
     1
102
RTVSPost2010Prop43
 90
        3
102
RTVSPost2010PropOp43
 70
     1
102
RTVSPost2010Prop44ColorIndex
 90
        5
102
RTVSPost2010Prop44ColorRGB
 90
      255
102
RTVSPost2010PropOp44
 70
     1
102
RTVSPost2010Prop45
280
     0
102
RTVSPost2010PropOp45
 70
     1
102
RTVSPost2010Prop46
 90
       50
102
RTVSPost2010PropOp46
 70
     1
102
RTVSPost2010Prop47
 90
       50
102
RTVSPost2010PropOp47
 70
     1
102
RTVSPost2010Prop48
 90
       50
102
RTVSPost2010PropOp48
 70
     1
102
RTVSPost2010Prop49
280
     0
102
RTVSPost2010PropOp49
 70
     1
102
RTVSPost2010Prop50
 90
       50
102
RTVSPost2010PropOp50
 70
     1
102
RTVSPost2010Prop51ColorIndex
 90
      256
102
RTVSPost2010Prop51ColorRGB
 90
-16777216
102
RTVSPost2010PropOp51
 70
     0
102
RTVSPost2010Prop52
140
1.0
102
RTVSPost2010PropOp52
 70
     0
102
RTVSPost2010Prop53
 90
        2
102
RTVSPost2010PropOp53
 70
     1
102
RTVSPost2010Prop54
  1
strokes_ogs.tif
102
RTVSPost2010PropOp54
 70
     1
102
RTVSPost2010Prop55
280
     0
102
RTVSPost2010PropOp55
 70
     1
102
RTVSPost2010Prop56
140
1.0
102
RTVSPost2010PropOp56
 70
     1
102
RTVSPost2010Prop57
140
1.0
102
RTVSPost2010PropOp57
 70
     1
102
RTVSPropertyOp0
 70
     1
102
RTVSPropertyOp1
 70
     1
102
RTVSPropertyOp2
 70
     1
102
RTVSPropertyOp3
 70
     1
102
RTVSPropertyOp4
 70
     1
102
RTVSPropertyOp5
 70
     1
102
RTVSPropertyOp6
 70
     1
102
RTVSPropertyOp7
 70
     1
102
RTVSPropertyOp8
 70
     1
102
RTVSPropertyOp9
 70
     1
102
RTVSPropertyOp10
 70
     1
102
RTVSPropertyOp11
 70
     1
102
RTVSPropertyOp12
 70
     1
102
RTVSPropertyOp13
 70
     1
102
RTVSPropertyOp14
 70
     1
102
RTVSPropertyOp15
 70
     1
102
RTVSPropertyOp16
 70
     1
102
RTVSPropertyOp17
 70
     1
102
RTVSPropertyOp18
 70
     1
102
RTVSPropertyOp19
 70
     1
102
RTVSPropertyOp20
 70
     1
102
RTVSPropertyOp21
 70
     1
102
RTVSPropertyOp22
 70
     1
102
RTVSPropertyOp23
 70
     1
102
RTVSPropertyOp24
 70
     1
102
RTVSPropertyOp25
 70
     1
102
RTVSPropertyOp26
 70
     1
102
RTVSPropertyOp27
 70
     1
102
RTVSPropertyOp28
 70
     1
102
RTVSPropertyOp29
 70
     1
102
RTVSPropertyOp30
 70
     1
102
RTVSPropertyOp31
 70
     1
102
RTVSPropertyOp32
 70
     1
102
RTVSPropertyOp33
 70
     1
102
RTVSPropertyOp34
 70
     1
102
RTVSPropertyOp35
 70
     1
102
RTVSPropertyOp36
 70
     1
102
RTVSPropertyOp37
 70
     1
102
RTVSPropertyOp38
 70
     1
102
RTVSPropertyOp39
 70
     1
102
RTVSPropertyOp40
 70
     1
102
RTVSPropertyOp41
 70
     1
102
RTVSPropertyOp42
 70
     1
102
RTVSPropertyOp43
 70
     1
102
RTVSPropertyOp44
 70
     1
102
RTVSPropertyOp45
 70
     1
102
RTVSPropertyOp46
 70
     1
102
RTVSPropertyOp47
 70
     1
102
RTVSPropertyOp48
 70
     1
102
RTVSPropertyOp49
 70
     1
102
RTVSPropertyOp50
 70
     1
102
RTVSPropertyOp51
 70
     0
102
RTVSPropertyOp52
 70
     0
102
RTVSPropertyOp53
 70
     1
102
RTVSPropertyOp54
 70
     1
102
RTVSPropertyOp55
 70
     1
102
RTVSPropertyOp56
 70
     1
102
RTVSPropertyOp57
 70
     1
102
RTVSPropertyOp58
 70
     1
102
RTVSPropertyOp59
 70
     1
102
RTVSPropertyOp60
 70
     1
102
RTVSPropertyOp61
 70
     1
102
RTVSPropertyOp62
 70
     1
  0
XRECORD
  5
7931
102
{ACAD_REACTORS
330
7930
102
}
330
7930
100
AcDbXrecord
280
     1
102
RTVSPost2010Prop28
280
     0
102
RTVSPost2010PropOp28
 70
     1
102
RTVSPost2010Prop29
280
     1
102
RTVSPost2010PropOp29
 70
     1
102
RTVSPost2010Prop30
280
     1
102
RTVSPost2010PropOp30
 70
     1
102
RTVSPost2010Prop31
280
     0
102
RTVSPost2010PropOp31
 70
     1
102
RTVSPost2010Prop32
280
     0
102
RTVSPost2010PropOp32
 70
     1
102
RTVSPost2010Prop33
280
     0
102
RTVSPost2010PropOp33
 70
     1
102
RTVSPost2010Prop34
280
     0
102
RTVSPost2010PropOp34
 70
     1
102
RTVSPost2010Prop35
280
     0
102
RTVSPost2010PropOp35
 70
     1
102
RTVSPost2010Prop36
280
     0
102
RTVSPost2010PropOp36
 70
     1
102
RTVSPost2010Prop37
 90
       50
102
RTVSPost2010PropOp37
 70
     1
102
RTVSPost2010Prop38
140
0.0
102
RTVSPost2010PropOp38
 70
     1
102
RTVSPost2010Prop39
140
1.0
102
RTVSPost2010PropOp39
 70
     1
102
RTVSPost2010Prop40
 90
        0
102
RTVSPost2010PropOp40
 70
     1
102
RTVSPost2010Prop41ColorIndex
 90
       18
102
RTVSPost2010Prop41ColorRGB
 90
        0
102
RTVSPost2010PropOp41
 70
     1
102
RTVSPost2010Prop42
 90
       50
102
RTVSPost2010PropOp42
 70
     1
102
RTVSPost2010Prop43
 90
        3
102
RTVSPost2010PropOp43
 70
     1
102
RTVSPost2010Prop44ColorIndex
 90
        5
102
RTVSPost2010Prop44ColorRGB
 90
      255
102
RTVSPost2010PropOp44
 70
     1
102
RTVSPost2010Prop45
280
     0
102
RTVSPost2010PropOp45
 70
     1
102
RTVSPost2010Prop46
 90
       50
102
RTVSPost2010PropOp46
 70
     1
102
RTVSPost2010Prop47
 90
       50
102
RTVSPost2010PropOp47
 70
     1
102
RTVSPost2010Prop48
 90
       50
102
RTVSPost2010PropOp48
 70
     1
102
RTVSPost2010Prop49
280
     0
102
RTVSPost2010PropOp49
 70
     1
102
RTVSPost2010Prop50
 90
       50
102
RTVSPost2010PropOp50
 70
     1
102
RTVSPost2010Prop51ColorIndex
 90
      256
102
RTVSPost2010Prop51ColorRGB
 90
-16777216
102
RTVSPost2010PropOp51
 70
     0
102
RTVSPost2010Prop52
140
1.0
102
RTVSPost2010PropOp52
 70
     0
102
RTVSPost2010Prop53
 90
        2
102
RTVSPost2010PropOp53
 70
     1
102
RTVSPost2010Prop54
  1
strokes_ogs.tif
102
RTVSPost2010PropOp54
 70
     1
102
RTVSPost2010Prop55
280
     0
102
RTVSPost2010PropOp55
 70
     1
102
RTVSPost2010Prop56
140
1.0
102
RTVSPost2010PropOp56
 70
     1
102
RTVSPost2010Prop57
140
1.0
102
RTVSPost2010PropOp57
 70
     1
102
RTVSPropertyOp0
 70
     0
102
RTVSPropertyOp1
 70
     0
102
RTVSPropertyOp2
 70
     0
102
RTVSPropertyOp3
 70
     0
102
RTVSPropertyOp4
 70
     0
102
RTVSPropertyOp5
 70
     0
102
RTVSPropertyOp6
 70
     0
102
RTVSPropertyOp7
 70
     0
102
RTVSPropertyOp8
 70
     0
102
RTVSPropertyOp9
 70
     0
102
RTVSPropertyOp10
 70
     0
102
RTVSPropertyOp11
 70
     0
102
RTVSPropertyOp12
 70
     0
102
RTVSPropertyOp13
 70
     0
102
RTVSPropertyOp14
 70
     2
102
RTVSPropertyOp15
 70
     0
102
RTVSPropertyOp16
 70
     0
102
RTVSPropertyOp17
 70
     0
102
RTVSPropertyOp18
 70
     0
102
RTVSPropertyOp19
 70
     0
102
RTVSPropertyOp20
 70
     0
102
RTVSPropertyOp21
 70
     0
102
RTVSPropertyOp22
 70
     0
102
RTVSPropertyOp23
 70
     0
102
RTVSPropertyOp24
 70
     0
102
RTVSPropertyOp25
 70
     0
102
RTVSPropertyOp26
 70
     0
102
RTVSPropertyOp27
 70
     0
102
RTVSPropertyOp28
 70
     1
102
RTVSPropertyOp29
 70
     1
102
RTVSPropertyOp30
 70
     1
102
RTVSPropertyOp31
 70
     1
102
RTVSPropertyOp32
 70
     1
102
RTVSPropertyOp33
 70
     1
102
RTVSPropertyOp34
 70
     1
102
RTVSPropertyOp35
 70
     1
102
RTVSPropertyOp36
 70
     1
102
RTVSPropertyOp37
 70
     1
102
RTVSPropertyOp38
 70
     1
102
RTVSPropertyOp39
 70
     1
102
RTVSPropertyOp40
 70
     1
102
RTVSPropertyOp41
 70
     1
102
RTVSPropertyOp42
 70
     1
102
RTVSPropertyOp43
 70
     1
102
RTVSPropertyOp44
 70
     1
102
RTVSPropertyOp45
 70
     1
102
RTVSPropertyOp46
 70
     1
102
RTVSPropertyOp47
 70
     1
102
RTVSPropertyOp48
 70
     1
102
RTVSPropertyOp49
 70
     1
102
RTVSPropertyOp50
 70
     1
102
RTVSPropertyOp51
 70
     0
102
RTVSPropertyOp52
 70
     0
102
RTVSPropertyOp53
 70
     1
102
RTVSPropertyOp54
 70
     1
102
RTVSPropertyOp55
 70
     1
102
RTVSPropertyOp56
 70
     1
102
RTVSPropertyOp57
 70
     1
102
RTVSPropertyOp58
 70
     1
102
RTVSPropertyOp59
 70
     1
102
RTVSPropertyOp60
 70
     1
102
RTVSPropertyOp61
 70
     1
102
RTVSPropertyOp62
 70
     1
  0
XRECORD
  5
7929
102
{ACAD_REACTORS
330
7928
102
}
330
7928
100
AcDbXrecord
280
     1
102
RTVSPost2010Prop28
280
     0
102
RTVSPost2010PropOp28
 70
     1
102
RTVSPost2010Prop29
280
     1
102
RTVSPost2010PropOp29
 70
     1
102
RTVSPost2010Prop30
280
     1
102
RTVSPost2010PropOp30
 70
     1
102
RTVSPost2010Prop31
280
     0
102
RTVSPost2010PropOp31
 70
     1
102
RTVSPost2010Prop32
280
     0
102
RTVSPost2010PropOp32
 70
     1
102
RTVSPost2010Prop33
280
     0
102
RTVSPost2010PropOp33
 70
     1
102
RTVSPost2010Prop34
280
     0
102
RTVSPost2010PropOp34
 70
     1
102
RTVSPost2010Prop35
280
     0
102
RTVSPost2010PropOp35
 70
     1
102
RTVSPost2010Prop36
280
     0
102
RTVSPost2010PropOp36
 70
     1
102
RTVSPost2010Prop37
 90
       50
102
RTVSPost2010PropOp37
 70
     1
102
RTVSPost2010Prop38
140
0.0
102
RTVSPost2010PropOp38
 70
     1
102
RTVSPost2010Prop39
140
1.0
102
RTVSPost2010PropOp39
 70
     1
102
RTVSPost2010Prop40
 90
        0
102
RTVSPost2010PropOp40
 70
     1
102
RTVSPost2010Prop41ColorIndex
 90
       18
102
RTVSPost2010Prop41ColorRGB
 90
        0
102
RTVSPost2010PropOp41
 70
     1
102
RTVSPost2010Prop42
 90
       50
102
RTVSPost2010PropOp42
 70
     1
102
RTVSPost2010Prop43
 90
        3
102
RTVSPost2010PropOp43
 70
     1
102
RTVSPost2010Prop44ColorIndex
 90
        5
102
RTVSPost2010Prop44ColorRGB
 90
      255
102
RTVSPost2010PropOp44
 70
     1
102
RTVSPost2010Prop45
280
     0
102
RTVSPost2010PropOp45
 70
     1
102
RTVSPost2010Prop46
 90
       50
102
RTVSPost2010PropOp46
 70
     1
102
RTVSPost2010Prop47
 90
       50
102
RTVSPost2010PropOp47
 70
     1
102
RTVSPost2010Prop48
 90
       50
102
RTVSPost2010PropOp48
 70
     1
102
RTVSPost2010Prop49
280
     0
102
RTVSPost2010PropOp49
 70
     1
102
RTVSPost2010Prop50
 90
       50
102
RTVSPost2010PropOp50
 70
     1
102
RTVSPost2010Prop51ColorIndex
 90
      256
102
RTVSPost2010Prop51ColorRGB
 90
-16777216
102
RTVSPost2010PropOp51
 70
     0
102
RTVSPost2010Prop52
140
1.0
102
RTVSPost2010PropOp52
 70
     0
102
RTVSPost2010Prop53
 90
        2
102
RTVSPost2010PropOp53
 70
     1
102
RTVSPost2010Prop54
  1
strokes_ogs.tif
102
RTVSPost2010PropOp54
 70
     1
102
RTVSPost2010Prop55
280
     0
102
RTVSPost2010PropOp55
 70
     1
102
RTVSPost2010Prop56
140
1.0
102
RTVSPost2010PropOp56
 70
     1
102
RTVSPost2010Prop57
140
1.0
102
RTVSPost2010PropOp57
 70
     1
102
RTVSPropertyOp0
 70
     1
102
RTVSPropertyOp1
 70
     1
102
RTVSPropertyOp2
 70
     1
102
RTVSPropertyOp3
 70
     1
102
RTVSPropertyOp4
 70
     1
102
RTVSPropertyOp5
 70
     1
102
RTVSPropertyOp6
 70
     1
102
RTVSPropertyOp7
 70
     1
102
RTVSPropertyOp8
 70
     1
102
RTVSPropertyOp9
 70
     1
102
RTVSPropertyOp10
 70
     1
102
RTVSPropertyOp11
 70
     1
102
RTVSPropertyOp12
 70
     1
102
RTVSPropertyOp13
 70
     1
102
RTVSPropertyOp14
 70
     1
102
RTVSPropertyOp15
 70
     1
102
RTVSPropertyOp16
 70
     1
102
RTVSPropertyOp17
 70
     1
102
RTVSPropertyOp18
 70
     1
102
RTVSPropertyOp19
 70
     1
102
RTVSPropertyOp20
 70
     1
102
RTVSPropertyOp21
 70
     1
102
RTVSPropertyOp22
 70
     1
102
RTVSPropertyOp23
 70
     1
102
RTVSPropertyOp24
 70
     1
102
RTVSPropertyOp25
 70
     1
102
RTVSPropertyOp26
 70
     1
102
RTVSPropertyOp27
 70
     1
102
RTVSPropertyOp28
 70
     1
102
RTVSPropertyOp29
 70
     1
102
RTVSPropertyOp30
 70
     1
102
RTVSPropertyOp31
 70
     1
102
RTVSPropertyOp32
 70
     1
102
RTVSPropertyOp33
 70
     1
102
RTVSPropertyOp34
 70
     1
102
RTVSPropertyOp35
 70
     1
102
RTVSPropertyOp36
 70
     1
102
RTVSPropertyOp37
 70
     1
102
RTVSPropertyOp38
 70
     1
102
RTVSPropertyOp39
 70
     1
102
RTVSPropertyOp40
 70
     1
102
RTVSPropertyOp41
 70
     1
102
RTVSPropertyOp42
 70
     1
102
RTVSPropertyOp43
 70
     1
102
RTVSPropertyOp44
 70
     1
102
RTVSPropertyOp45
 70
     1
102
RTVSPropertyOp46
 70
     1
102
RTVSPropertyOp47
 70
     1
102
RTVSPropertyOp48
 70
     1
102
RTVSPropertyOp49
 70
     1
102
RTVSPropertyOp50
 70
     1
102
RTVSPropertyOp51
 70
     0
102
RTVSPropertyOp52
 70
     0
102
RTVSPropertyOp53
 70
     1
102
RTVSPropertyOp54
 70
     1
102
RTVSPropertyOp55
 70
     1
102
RTVSPropertyOp56
 70
     1
102
RTVSPropertyOp57
 70
     1
102
RTVSPropertyOp58
 70
     1
102
RTVSPropertyOp59
 70
     1
102
RTVSPropertyOp60
 70
     1
102
RTVSPropertyOp61
 70
     1
102
RTVSPropertyOp62
 70
     1
  0
XRECORD
  5
7933
102
{ACAD_REACTORS
330
7932
102
}
330
7932
100
AcDbXrecord
280
     1
102
RTVSPost2010Prop28
280
     0
102
RTVSPost2010PropOp28
 70
     1
102
RTVSPost2010Prop29
280
     1
102
RTVSPost2010PropOp29
 70
     1
102
RTVSPost2010Prop30
280
     1
102
RTVSPost2010PropOp30
 70
     1
102
RTVSPost2010Prop31
280
     0
102
RTVSPost2010PropOp31
 70
     1
102
RTVSPost2010Prop32
280
     0
102
RTVSPost2010PropOp32
 70
     1
102
RTVSPost2010Prop33
280
     0
102
RTVSPost2010PropOp33
 70
     1
102
RTVSPost2010Prop34
280
     0
102
RTVSPost2010PropOp34
 70
     1
102
RTVSPost2010Prop35
280
     0
102
RTVSPost2010PropOp35
 70
     1
102
RTVSPost2010Prop36
280
     0
102
RTVSPost2010PropOp36
 70
     1
102
RTVSPost2010Prop37
 90
       50
102
RTVSPost2010PropOp37
 70
     1
102
RTVSPost2010Prop38
140
0.0
102
RTVSPost2010PropOp38
 70
     1
102
RTVSPost2010Prop39
140
1.0
102
RTVSPost2010PropOp39
 70
     1
102
RTVSPost2010Prop40
 90
        0
102
RTVSPost2010PropOp40
 70
     1
102
RTVSPost2010Prop41ColorIndex
 90
       18
102
RTVSPost2010Prop41ColorRGB
 90
        0
102
RTVSPost2010PropOp41
 70
     1
102
RTVSPost2010Prop42
 90
       50
102
RTVSPost2010PropOp42
 70
     1
102
RTVSPost2010Prop43
 90
        3
102
RTVSPost2010PropOp43
 70
     1
102
RTVSPost2010Prop44ColorIndex
 90
        5
102
RTVSPost2010Prop44ColorRGB
 90
      255
102
RTVSPost2010PropOp44
 70
     1
102
RTVSPost2010Prop45
280
     0
102
RTVSPost2010PropOp45
 70
     1
102
RTVSPost2010Prop46
 90
       50
102
RTVSPost2010PropOp46
 70
     1
102
RTVSPost2010Prop47
 90
       50
102
RTVSPost2010PropOp47
 70
     1
102
RTVSPost2010Prop48
 90
       50
102
RTVSPost2010PropOp48
 70
     1
102
RTVSPost2010Prop49
280
     0
102
RTVSPost2010PropOp49
 70
     1
102
RTVSPost2010Prop50
 90
       50
102
RTVSPost2010PropOp50
 70
     1
102
RTVSPost2010Prop51ColorIndex
 90
      256
102
RTVSPost2010Prop51ColorRGB
 90
-16777216
102
RTVSPost2010PropOp51
 70
     0
102
RTVSPost2010Prop52
140
1.0
102
RTVSPost2010PropOp52
 70
     0
102
RTVSPost2010Prop53
 90
        2
102
RTVSPost2010PropOp53
 70
     1
102
RTVSPost2010Prop54
  1
strokes_ogs.tif
102
RTVSPost2010PropOp54
 70
     1
102
RTVSPost2010Prop55
280
     0
102
RTVSPost2010PropOp55
 70
     1
102
RTVSPost2010Prop56
140
1.0
102
RTVSPost2010PropOp56
 70
     1
102
RTVSPost2010Prop57
140
1.0
102
RTVSPost2010PropOp57
 70
     1
102
RTVSPropertyOp0
 70
     0
102
RTVSPropertyOp1
 70
     0
102
RTVSPropertyOp2
 70
     0
102
RTVSPropertyOp3
 70
     0
102
RTVSPropertyOp4
 70
     0
102
RTVSPropertyOp5
 70
     0
102
RTVSPropertyOp6
 70
     0
102
RTVSPropertyOp7
 70
     0
102
RTVSPropertyOp8
 70
     0
102
RTVSPropertyOp9
 70
     0
102
RTVSPropertyOp10
 70
     0
102
RTVSPropertyOp11
 70
     0
102
RTVSPropertyOp12
 70
     0
102
RTVSPropertyOp13
 70
     0
102
RTVSPropertyOp14
 70
     2
102
RTVSPropertyOp15
 70
     0
102
RTVSPropertyOp16
 70
     0
102
RTVSPropertyOp17
 70
     0
102
RTVSPropertyOp18
 70
     0
102
RTVSPropertyOp19
 70
     0
102
RTVSPropertyOp20
 70
     0
102
RTVSPropertyOp21
 70
     0
102
RTVSPropertyOp22
 70
     0
102
RTVSPropertyOp23
 70
     0
102
RTVSPropertyOp24
 70
     0
102
RTVSPropertyOp25
 70
     0
102
RTVSPropertyOp26
 70
     0
102
RTVSPropertyOp27
 70
     0
102
RTVSPropertyOp28
 70
     1
102
RTVSPropertyOp29
 70
     1
102
RTVSPropertyOp30
 70
     1
102
RTVSPropertyOp31
 70
     1
102
RTVSPropertyOp32
 70
     1
102
RTVSPropertyOp33
 70
     1
102
RTVSPropertyOp34
 70
     1
102
RTVSPropertyOp35
 70
     1
102
RTVSPropertyOp36
 70
     1
102
RTVSPropertyOp37
 70
     1
102
RTVSPropertyOp38
 70
     1
102
RTVSPropertyOp39
 70
     1
102
RTVSPropertyOp40
 70
     1
102
RTVSPropertyOp41
 70
     1
102
RTVSPropertyOp42
 70
     1
102
RTVSPropertyOp43
 70
     1
102
RTVSPropertyOp44
 70
     1
102
RTVSPropertyOp45
 70
     1
102
RTVSPropertyOp46
 70
     1
102
RTVSPropertyOp47
 70
     1
102
RTVSPropertyOp48
 70
     1
102
RTVSPropertyOp49
 70
     1
102
RTVSPropertyOp50
 70
     1
102
RTVSPropertyOp51
 70
     0
102
RTVSPropertyOp52
 70
     0
102
RTVSPropertyOp53
 70
     1
102
RTVSPropertyOp54
 70
     1
102
RTVSPropertyOp55
 70
     1
102
RTVSPropertyOp56
 70
     1
102
RTVSPropertyOp57
 70
     1
102
RTVSPropertyOp58
 70
     1
102
RTVSPropertyOp59
 70
     1
102
RTVSPropertyOp60
 70
     1
102
RTVSPropertyOp61
 70
     1
102
RTVSPropertyOp62
 70
     1
  0
XRECORD
  5
7921
102
{ACAD_REACTORS
330
7920
102
}
330
7920
100
AcDbXrecord
280
     1
102
RTVSPost2010Prop28
280
     0
102
RTVSPost2010PropOp28
 70
     1
102
RTVSPost2010Prop29
280
     1
102
RTVSPost2010PropOp29
 70
     1
102
RTVSPost2010Prop30
280
     1
102
RTVSPost2010PropOp30
 70
     1
102
RTVSPost2010Prop31
280
     0
102
RTVSPost2010PropOp31
 70
     1
102
RTVSPost2010Prop32
280
     0
102
RTVSPost2010PropOp32
 70
     1
102
RTVSPost2010Prop33
280
     0
102
RTVSPost2010PropOp33
 70
     1
102
RTVSPost2010Prop34
280
     0
102
RTVSPost2010PropOp34
 70
     1
102
RTVSPost2010Prop35
280
     0
102
RTVSPost2010PropOp35
 70
     1
102
RTVSPost2010Prop36
280
     0
102
RTVSPost2010PropOp36
 70
     1
102
RTVSPost2010Prop37
 90
       50
102
RTVSPost2010PropOp37
 70
     1
102
RTVSPost2010Prop38
140
0.0
102
RTVSPost2010PropOp38
 70
     1
102
RTVSPost2010Prop39
140
1.0
102
RTVSPost2010PropOp39
 70
     1
102
RTVSPost2010Prop40
 90
        0
102
RTVSPost2010PropOp40
 70
     1
102
RTVSPost2010Prop41ColorIndex
 90
       18
102
RTVSPost2010Prop41ColorRGB
 90
        0
102
RTVSPost2010PropOp41
 70
     1
102
RTVSPost2010Prop42
 90
       50
102
RTVSPost2010PropOp42
 70
     1
102
RTVSPost2010Prop43
 90
        3
102
RTVSPost2010PropOp43
 70
     1
102
RTVSPost2010Prop44ColorIndex
 90
        5
102
RTVSPost2010Prop44ColorRGB
 90
      255
102
RTVSPost2010PropOp44
 70
     1
102
RTVSPost2010Prop45
280
     0
102
RTVSPost2010PropOp45
 70
     1
102
RTVSPost2010Prop46
 90
       50
102
RTVSPost2010PropOp46
 70
     1
102
RTVSPost2010Prop47
 90
       50
102
RTVSPost2010PropOp47
 70
     1
102
RTVSPost2010Prop48
 90
       50
102
RTVSPost2010PropOp48
 70
     1
102
RTVSPost2010Prop49
280
     0
102
RTVSPost2010PropOp49
 70
     1
102
RTVSPost2010Prop50
 90
       50
102
RTVSPost2010PropOp50
 70
     1
102
RTVSPost2010Prop51ColorIndex
 90
      256
102
RTVSPost2010Prop51ColorRGB
 90
-16777216
102
RTVSPost2010PropOp51
 70
     0
102
RTVSPost2010Prop52
140
1.0
102
RTVSPost2010PropOp52
 70
     0
102
RTVSPost2010Prop53
 90
        2
102
RTVSPost2010PropOp53
 70
     1
102
RTVSPost2010Prop54
  1
strokes_ogs.tif
102
RTVSPost2010PropOp54
 70
     1
102
RTVSPost2010Prop55
280
     0
102
RTVSPost2010PropOp55
 70
     1
102
RTVSPost2010Prop56
140
1.0
102
RTVSPost2010PropOp56
 70
     1
102
RTVSPost2010Prop57
140
1.0
102
RTVSPost2010PropOp57
 70
     1
102
RTVSPropertyOp0
 70
     1
102
RTVSPropertyOp1
 70
     1
102
RTVSPropertyOp2
 70
     1
102
RTVSPropertyOp3
 70
     1
102
RTVSPropertyOp4
 70
     1
102
RTVSPropertyOp5
 70
     1
102
RTVSPropertyOp6
 70
     1
102
RTVSPropertyOp7
 70
     1
102
RTVSPropertyOp8
 70
     1
102
RTVSPropertyOp9
 70
     1
102
RTVSPropertyOp10
 70
     1
102
RTVSPropertyOp11
 70
     1
102
RTVSPropertyOp12
 70
     1
102
RTVSPropertyOp13
 70
     1
102
RTVSPropertyOp14
 70
     1
102
RTVSPropertyOp15
 70
     1
102
RTVSPropertyOp16
 70
     1
102
RTVSPropertyOp17
 70
     1
102
RTVSPropertyOp18
 70
     1
102
RTVSPropertyOp19
 70
     1
102
RTVSPropertyOp20
 70
     1
102
RTVSPropertyOp21
 70
     1
102
RTVSPropertyOp22
 70
     1
102
RTVSPropertyOp23
 70
     1
102
RTVSPropertyOp24
 70
     1
102
RTVSPropertyOp25
 70
     1
102
RTVSPropertyOp26
 70
     1
102
RTVSPropertyOp27
 70
     1
102
RTVSPropertyOp28
 70
     1
102
RTVSPropertyOp29
 70
     1
102
RTVSPropertyOp30
 70
     1
102
RTVSPropertyOp31
 70
     1
102
RTVSPropertyOp32
 70
     1
102
RTVSPropertyOp33
 70
     1
102
RTVSPropertyOp34
 70
     1
102
RTVSPropertyOp35
 70
     1
102
RTVSPropertyOp36
 70
     1
102
RTVSPropertyOp37
 70
     1
102
RTVSPropertyOp38
 70
     1
102
RTVSPropertyOp39
 70
     1
102
RTVSPropertyOp40
 70
     1
102
RTVSPropertyOp41
 70
     1
102
RTVSPropertyOp42
 70
     1
102
RTVSPropertyOp43
 70
     1
102
RTVSPropertyOp44
 70
     1
102
RTVSPropertyOp45
 70
     1
102
RTVSPropertyOp46
 70
     1
102
RTVSPropertyOp47
 70
     1
102
RTVSPropertyOp48
 70
     1
102
RTVSPropertyOp49
 70
     1
102
RTVSPropertyOp50
 70
     1
102
RTVSPropertyOp51
 70
     0
102
RTVSPropertyOp52
 70
     0
102
RTVSPropertyOp53
 70
     1
102
RTVSPropertyOp54
 70
     1
102
RTVSPropertyOp55
 70
     1
102
RTVSPropertyOp56
 70
     1
102
RTVSPropertyOp57
 70
     1
102
RTVSPropertyOp58
 70
     1
102
RTVSPropertyOp59
 70
     1
102
RTVSPropertyOp60
 70
     1
102
RTVSPropertyOp61
 70
     1
102
RTVSPropertyOp62
 70
     1
  0
XRECORD
  5
793F
102
{ACAD_REACTORS
330
793E
102
}
330
793E
100
AcDbXrecord
280
     1
102
RTVSPost2010Prop28
280
     0
102
RTVSPost2010PropOp28
 70
     1
102
RTVSPost2010Prop29
280
     1
102
RTVSPost2010PropOp29
 70
     1
102
RTVSPost2010Prop30
280
     1
102
RTVSPost2010PropOp30
 70
     1
102
RTVSPost2010Prop31
280
     0
102
RTVSPost2010PropOp31
 70
     1
102
RTVSPost2010Prop32
280
     0
102
RTVSPost2010PropOp32
 70
     1
102
RTVSPost2010Prop33
280
     0
102
RTVSPost2010PropOp33
 70
     1
102
RTVSPost2010Prop34
280
     0
102
RTVSPost2010PropOp34
 70
     1
102
RTVSPost2010Prop35
280
     0
102
RTVSPost2010PropOp35
 70
     1
102
RTVSPost2010Prop36
280
     0
102
RTVSPost2010PropOp36
 70
     1
102
RTVSPost2010Prop37
 90
       50
102
RTVSPost2010PropOp37
 70
     1
102
RTVSPost2010Prop38
140
0.0
102
RTVSPost2010PropOp38
 70
     1
102
RTVSPost2010Prop39
140
1.0
102
RTVSPost2010PropOp39
 70
     1
102
RTVSPost2010Prop40
 90
        0
102
RTVSPost2010PropOp40
 70
     1
102
RTVSPost2010Prop41ColorIndex
 90
       18
102
RTVSPost2010Prop41ColorRGB
 90
        0
102
RTVSPost2010PropOp41
 70
     1
102
RTVSPost2010Prop42
 90
       50
102
RTVSPost2010PropOp42
 70
     1
102
RTVSPost2010Prop43
 90
        3
102
RTVSPost2010PropOp43
 70
     1
102
RTVSPost2010Prop44ColorIndex
 90
        5
102
RTVSPost2010Prop44ColorRGB
 90
      255
102
RTVSPost2010PropOp44
 70
     1
102
RTVSPost2010Prop45
280
     0
102
RTVSPost2010PropOp45
 70
     1
102
RTVSPost2010Prop46
 90
       50
102
RTVSPost2010PropOp46
 70
     1
102
RTVSPost2010Prop47
 90
       50
102
RTVSPost2010PropOp47
 70
     1
102
RTVSPost2010Prop48
 90
       50
102
RTVSPost2010PropOp48
 70
     1
102
RTVSPost2010Prop49
280
     0
102
RTVSPost2010PropOp49
 70
     1
102
RTVSPost2010Prop50
 90
       50
102
RTVSPost2010PropOp50
 70
     1
102
RTVSPost2010Prop51ColorIndex
 90
      256
102
RTVSPost2010Prop51ColorRGB
 90
-16777216
102
RTVSPost2010PropOp51
 70
     0
102
RTVSPost2010Prop52
140
1.0
102
RTVSPost2010PropOp52
 70
     0
102
RTVSPost2010Prop53
 90
        2
102
RTVSPost2010PropOp53
 70
     1
102
RTVSPost2010Prop54
  1
strokes_ogs.tif
102
RTVSPost2010PropOp54
 70
     1
102
RTVSPost2010Prop55
280
     0
102
RTVSPost2010PropOp55
 70
     1
102
RTVSPost2010Prop56
140
1.0
102
RTVSPost2010PropOp56
 70
     1
102
RTVSPost2010Prop57
140
1.0
102
RTVSPost2010PropOp57
 70
     1
102
RTVSPropertyOp0
 70
     1
102
RTVSPropertyOp1
 70
     1
102
RTVSPropertyOp2
 70
     1
102
RTVSPropertyOp3
 70
     1
102
RTVSPropertyOp4
 70
     1
102
RTVSPropertyOp5
 70
     1
102
RTVSPropertyOp6
 70
     1
102
RTVSPropertyOp7
 70
     1
102
RTVSPropertyOp8
 70
     1
102
RTVSPropertyOp9
 70
     1
102
RTVSPropertyOp10
 70
     1
102
RTVSPropertyOp11
 70
     1
102
RTVSPropertyOp12
 70
     1
102
RTVSPropertyOp13
 70
     1
102
RTVSPropertyOp14
 70
     1
102
RTVSPropertyOp15
 70
     1
102
RTVSPropertyOp16
 70
     1
102
RTVSPropertyOp17
 70
     1
102
RTVSPropertyOp18
 70
     1
102
RTVSPropertyOp19
 70
     1
102
RTVSPropertyOp20
 70
     1
102
RTVSPropertyOp21
 70
     1
102
RTVSPropertyOp22
 70
     1
102
RTVSPropertyOp23
 70
     1
102
RTVSPropertyOp24
 70
     1
102
RTVSPropertyOp25
 70
     1
102
RTVSPropertyOp26
 70
     1
102
RTVSPropertyOp27
 70
     1
102
RTVSPropertyOp28
 70
     1
102
RTVSPropertyOp29
 70
     1
102
RTVSPropertyOp30
 70
     1
102
RTVSPropertyOp31
 70
     1
102
RTVSPropertyOp32
 70
     1
102
RTVSPropertyOp33
 70
     1
102
RTVSPropertyOp34
 70
     1
102
RTVSPropertyOp35
 70
     1
102
RTVSPropertyOp36
 70
     1
102
RTVSPropertyOp37
 70
     1
102
RTVSPropertyOp38
 70
     1
102
RTVSPropertyOp39
 70
     1
102
RTVSPropertyOp40
 70
     1
102
RTVSPropertyOp41
 70
     1
102
RTVSPropertyOp42
 70
     1
102
RTVSPropertyOp43
 70
     1
102
RTVSPropertyOp44
 70
     1
102
RTVSPropertyOp45
 70
     1
102
RTVSPropertyOp46
 70
     1
102
RTVSPropertyOp47
 70
     1
102
RTVSPropertyOp48
 70
     1
102
RTVSPropertyOp49
 70
     1
102
RTVSPropertyOp50
 70
     1
102
RTVSPropertyOp51
 70
     0
102
RTVSPropertyOp52
 70
     0
102
RTVSPropertyOp53
 70
     1
102
RTVSPropertyOp54
 70
     1
102
RTVSPropertyOp55
 70
     1
102
RTVSPropertyOp56
 70
     1
102
RTVSPropertyOp57
 70
     1
102
RTVSPropertyOp58
 70
     1
102
RTVSPropertyOp59
 70
     1
102
RTVSPropertyOp60
 70
     1
102
RTVSPropertyOp61
 70
     1
102
RTVSPropertyOp62
 70
     1
  0
XRECORD
  5
793D
102
{ACAD_REACTORS
330
793C
102
}
330
793C
100
AcDbXrecord
280
     1
102
RTVSPost2010Prop28
280
     0
102
RTVSPost2010PropOp28
 70
     1
102
RTVSPost2010Prop29
280
     1
102
RTVSPost2010PropOp29
 70
     1
102
RTVSPost2010Prop30
280
     1
102
RTVSPost2010PropOp30
 70
     1
102
RTVSPost2010Prop31
280
     0
102
RTVSPost2010PropOp31
 70
     1
102
RTVSPost2010Prop32
280
     0
102
RTVSPost2010PropOp32
 70
     1
102
RTVSPost2010Prop33
280
     0
102
RTVSPost2010PropOp33
 70
     1
102
RTVSPost2010Prop34
280
     0
102
RTVSPost2010PropOp34
 70
     1
102
RTVSPost2010Prop35
280
     0
102
RTVSPost2010PropOp35
 70
     1
102
RTVSPost2010Prop36
280
     0
102
RTVSPost2010PropOp36
 70
     1
102
RTVSPost2010Prop37
 90
       50
102
RTVSPost2010PropOp37
 70
     1
102
RTVSPost2010Prop38
140
0.0
102
RTVSPost2010PropOp38
 70
     1
102
RTVSPost2010Prop39
140
1.0
102
RTVSPost2010PropOp39
 70
     1
102
RTVSPost2010Prop40
 90
        0
102
RTVSPost2010PropOp40
 70
     1
102
RTVSPost2010Prop41ColorIndex
 90
       18
102
RTVSPost2010Prop41ColorRGB
 90
        0
102
RTVSPost2010PropOp41
 70
     1
102
RTVSPost2010Prop42
 90
       50
102
RTVSPost2010PropOp42
 70
     1
102
RTVSPost2010Prop43
 90
        3
102
RTVSPost2010PropOp43
 70
     1
102
RTVSPost2010Prop44ColorIndex
 90
        5
102
RTVSPost2010Prop44ColorRGB
 90
      255
102
RTVSPost2010PropOp44
 70
     1
102
RTVSPost2010Prop45
280
     0
102
RTVSPost2010PropOp45
 70
     1
102
RTVSPost2010Prop46
 90
       50
102
RTVSPost2010PropOp46
 70
     1
102
RTVSPost2010Prop47
 90
       50
102
RTVSPost2010PropOp47
 70
     1
102
RTVSPost2010Prop48
 90
       50
102
RTVSPost2010PropOp48
 70
     1
102
RTVSPost2010Prop49
280
     0
102
RTVSPost2010PropOp49
 70
     1
102
RTVSPost2010Prop50
 90
       50
102
RTVSPost2010PropOp50
 70
     1
102
RTVSPost2010Prop51ColorIndex
 90
      256
102
RTVSPost2010Prop51ColorRGB
 90
-16777216
102
RTVSPost2010PropOp51
 70
     0
102
RTVSPost2010Prop52
140
1.0
102
RTVSPost2010PropOp52
 70
     0
102
RTVSPost2010Prop53
 90
        2
102
RTVSPost2010PropOp53
 70
     1
102
RTVSPost2010Prop54
  1
strokes_ogs.tif
102
RTVSPost2010PropOp54
 70
     1
102
RTVSPost2010Prop55
280
     0
102
RTVSPost2010PropOp55
 70
     1
102
RTVSPost2010Prop56
140
1.0
102
RTVSPost2010PropOp56
 70
     1
102
RTVSPost2010Prop57
140
1.0
102
RTVSPost2010PropOp57
 70
     1
102
RTVSPropertyOp0
 70
     1
102
RTVSPropertyOp1
 70
     1
102
RTVSPropertyOp2
 70
     1
102
RTVSPropertyOp3
 70
     1
102
RTVSPropertyOp4
 70
     1
102
RTVSPropertyOp5
 70
     1
102
RTVSPropertyOp6
 70
     1
102
RTVSPropertyOp7
 70
     1
102
RTVSPropertyOp8
 70
     1
102
RTVSPropertyOp9
 70
     1
102
RTVSPropertyOp10
 70
     1
102
RTVSPropertyOp11
 70
     1
102
RTVSPropertyOp12
 70
     1
102
RTVSPropertyOp13
 70
     1
102
RTVSPropertyOp14
 70
     1
102
RTVSPropertyOp15
 70
     1
102
RTVSPropertyOp16
 70
     1
102
RTVSPropertyOp17
 70
     1
102
RTVSPropertyOp18
 70
     1
102
RTVSPropertyOp19
 70
     1
102
RTVSPropertyOp20
 70
     1
102
RTVSPropertyOp21
 70
     1
102
RTVSPropertyOp22
 70
     1
102
RTVSPropertyOp23
 70
     1
102
RTVSPropertyOp24
 70
     1
102
RTVSPropertyOp25
 70
     1
102
RTVSPropertyOp26
 70
     1
102
RTVSPropertyOp27
 70
     1
102
RTVSPropertyOp28
 70
     1
102
RTVSPropertyOp29
 70
     1
102
RTVSPropertyOp30
 70
     1
102
RTVSPropertyOp31
 70
     1
102
RTVSPropertyOp32
 70
     1
102
RTVSPropertyOp33
 70
     1
102
RTVSPropertyOp34
 70
     1
102
RTVSPropertyOp35
 70
     1
102
RTVSPropertyOp36
 70
     1
102
RTVSPropertyOp37
 70
     1
102
RTVSPropertyOp38
 70
     1
102
RTVSPropertyOp39
 70
     1
102
RTVSPropertyOp40
 70
     1
102
RTVSPropertyOp41
 70
     1
102
RTVSPropertyOp42
 70
     1
102
RTVSPropertyOp43
 70
     1
102
RTVSPropertyOp44
 70
     1
102
RTVSPropertyOp45
 70
     1
102
RTVSPropertyOp46
 70
     1
102
RTVSPropertyOp47
 70
     1
102
RTVSPropertyOp48
 70
     1
102
RTVSPropertyOp49
 70
     1
102
RTVSPropertyOp50
 70
     1
102
RTVSPropertyOp51
 70
     0
102
RTVSPropertyOp52
 70
     0
102
RTVSPropertyOp53
 70
     1
102
RTVSPropertyOp54
 70
     1
102
RTVSPropertyOp55
 70
     1
102
RTVSPropertyOp56
 70
     1
102
RTVSPropertyOp57
 70
     1
102
RTVSPropertyOp58
 70
     1
102
RTVSPropertyOp59
 70
     1
102
RTVSPropertyOp60
 70
     1
102
RTVSPropertyOp61
 70
     1
102
RTVSPropertyOp62
 70
     1
  0
XRECORD
  5
7937
102
{ACAD_REACTORS
330
7936
102
}
330
7936
100
AcDbXrecord
280
     1
102
RTVSPost2010Prop28
280
     0
102
RTVSPost2010PropOp28
 70
     1
102
RTVSPost2010Prop29
280
     1
102
RTVSPost2010PropOp29
 70
     1
102
RTVSPost2010Prop30
280
     1
102
RTVSPost2010PropOp30
 70
     1
102
RTVSPost2010Prop31
280
     0
102
RTVSPost2010PropOp31
 70
     1
102
RTVSPost2010Prop32
280
     0
102
RTVSPost2010PropOp32
 70
     1
102
RTVSPost2010Prop33
280
     0
102
RTVSPost2010PropOp33
 70
     1
102
RTVSPost2010Prop34
280
     0
102
RTVSPost2010PropOp34
 70
     1
102
RTVSPost2010Prop35
280
     0
102
RTVSPost2010PropOp35
 70
     1
102
RTVSPost2010Prop36
280
     0
102
RTVSPost2010PropOp36
 70
     1
102
RTVSPost2010Prop37
 90
       50
102
RTVSPost2010PropOp37
 70
     1
102
RTVSPost2010Prop38
140
0.0
102
RTVSPost2010PropOp38
 70
     1
102
RTVSPost2010Prop39
140
1.0
102
RTVSPost2010PropOp39
 70
     1
102
RTVSPost2010Prop40
 90
        0
102
RTVSPost2010PropOp40
 70
     1
102
RTVSPost2010Prop41ColorIndex
 90
       18
102
RTVSPost2010Prop41ColorRGB
 90
        0
102
RTVSPost2010PropOp41
 70
     1
102
RTVSPost2010Prop42
 90
       50
102
RTVSPost2010PropOp42
 70
     1
102
RTVSPost2010Prop43
 90
        3
102
RTVSPost2010PropOp43
 70
     1
102
RTVSPost2010Prop44ColorIndex
 90
        5
102
RTVSPost2010Prop44ColorRGB
 90
      255
102
RTVSPost2010PropOp44
 70
     1
102
RTVSPost2010Prop45
280
     0
102
RTVSPost2010PropOp45
 70
     1
102
RTVSPost2010Prop46
 90
       50
102
RTVSPost2010PropOp46
 70
     1
102
RTVSPost2010Prop47
 90
       50
102
RTVSPost2010PropOp47
 70
     1
102
RTVSPost2010Prop48
 90
       50
102
RTVSPost2010PropOp48
 70
     1
102
RTVSPost2010Prop49
280
     0
102
RTVSPost2010PropOp49
 70
     1
102
RTVSPost2010Prop50
 90
       50
102
RTVSPost2010PropOp50
 70
     1
102
RTVSPost2010Prop51ColorIndex
 90
      256
102
RTVSPost2010Prop51ColorRGB
 90
-16777216
102
RTVSPost2010PropOp51
 70
     0
102
RTVSPost2010Prop52
140
1.0
102
RTVSPost2010PropOp52
 70
     0
102
RTVSPost2010Prop53
 90
        2
102
RTVSPost2010PropOp53
 70
     1
102
RTVSPost2010Prop54
  1
strokes_ogs.tif
102
RTVSPost2010PropOp54
 70
     1
102
RTVSPost2010Prop55
280
     0
102
RTVSPost2010PropOp55
 70
     1
102
RTVSPost2010Prop56
140
1.0
102
RTVSPost2010PropOp56
 70
     1
102
RTVSPost2010Prop57
140
1.0
102
RTVSPost2010PropOp57
 70
     1
102
RTVSPropertyOp0
 70
     1
102
RTVSPropertyOp1
 70
     1
102
RTVSPropertyOp2
 70
     1
102
RTVSPropertyOp3
 70
     1
102
RTVSPropertyOp4
 70
     1
102
RTVSPropertyOp5
 70
     1
102
RTVSPropertyOp6
 70
     1
102
RTVSPropertyOp7
 70
     1
102
RTVSPropertyOp8
 70
     1
102
RTVSPropertyOp9
 70
     1
102
RTVSPropertyOp10
 70
     1
102
RTVSPropertyOp11
 70
     1
102
RTVSPropertyOp12
 70
     1
102
RTVSPropertyOp13
 70
     1
102
RTVSPropertyOp14
 70
     1
102
RTVSPropertyOp15
 70
     1
102
RTVSPropertyOp16
 70
     1
102
RTVSPropertyOp17
 70
     1
102
RTVSPropertyOp18
 70
     1
102
RTVSPropertyOp19
 70
     1
102
RTVSPropertyOp20
 70
     1
102
RTVSPropertyOp21
 70
     1
102
RTVSPropertyOp22
 70
     1
102
RTVSPropertyOp23
 70
     1
102
RTVSPropertyOp24
 70
     1
102
RTVSPropertyOp25
 70
     1
102
RTVSPropertyOp26
 70
     1
102
RTVSPropertyOp27
 70
     1
102
RTVSPropertyOp28
 70
     1
102
RTVSPropertyOp29
 70
     1
102
RTVSPropertyOp30
 70
     1
102
RTVSPropertyOp31
 70
     1
102
RTVSPropertyOp32
 70
     1
102
RTVSPropertyOp33
 70
     1
102
RTVSPropertyOp34
 70
     1
102
RTVSPropertyOp35
 70
     1
102
RTVSPropertyOp36
 70
     1
102
RTVSPropertyOp37
 70
     1
102
RTVSPropertyOp38
 70
     1
102
RTVSPropertyOp39
 70
     1
102
RTVSPropertyOp40
 70
     1
102
RTVSPropertyOp41
 70
     1
102
RTVSPropertyOp42
 70
     1
102
RTVSPropertyOp43
 70
     1
102
RTVSPropertyOp44
 70
     1
102
RTVSPropertyOp45
 70
     1
102
RTVSPropertyOp46
 70
     1
102
RTVSPropertyOp47
 70
     1
102
RTVSPropertyOp48
 70
     1
102
RTVSPropertyOp49
 70
     1
102
RTVSPropertyOp50
 70
     1
102
RTVSPropertyOp51
 70
     0
102
RTVSPropertyOp52
 70
     0
102
RTVSPropertyOp53
 70
     1
102
RTVSPropertyOp54
 70
     1
102
RTVSPropertyOp55
 70
     1
102
RTVSPropertyOp56
 70
     1
102
RTVSPropertyOp57
 70
     1
102
RTVSPropertyOp58
 70
     1
102
RTVSPropertyOp59
 70
     1
102
RTVSPropertyOp60
 70
     1
102
RTVSPropertyOp61
 70
     1
102
RTVSPropertyOp62
 70
     1
  0
XRECORD
  5
7939
102
{ACAD_REACTORS
330
7938
102
}
330
7938
100
AcDbXrecord
280
     1
102
RTVSPost2010Prop28
280
     0
102
RTVSPost2010PropOp28
 70
     1
102
RTVSPost2010Prop29
280
     1
102
RTVSPost2010PropOp29
 70
     1
102
RTVSPost2010Prop30
280
     1
102
RTVSPost2010PropOp30
 70
     1
102
RTVSPost2010Prop31
280
     0
102
RTVSPost2010PropOp31
 70
     1
102
RTVSPost2010Prop32
280
     0
102
RTVSPost2010PropOp32
 70
     1
102
RTVSPost2010Prop33
280
     0
102
RTVSPost2010PropOp33
 70
     1
102
RTVSPost2010Prop34
280
     0
102
RTVSPost2010PropOp34
 70
     1
102
RTVSPost2010Prop35
280
     0
102
RTVSPost2010PropOp35
 70
     1
102
RTVSPost2010Prop36
280
     0
102
RTVSPost2010PropOp36
 70
     1
102
RTVSPost2010Prop37
 90
       50
102
RTVSPost2010PropOp37
 70
     1
102
RTVSPost2010Prop38
140
0.0
102
RTVSPost2010PropOp38
 70
     1
102
RTVSPost2010Prop39
140
1.0
102
RTVSPost2010PropOp39
 70
     1
102
RTVSPost2010Prop40
 90
        0
102
RTVSPost2010PropOp40
 70
     1
102
RTVSPost2010Prop41ColorIndex
 90
       18
102
RTVSPost2010Prop41ColorRGB
 90
        0
102
RTVSPost2010PropOp41
 70
     1
102
RTVSPost2010Prop42
 90
       50
102
RTVSPost2010PropOp42
 70
     1
102
RTVSPost2010Prop43
 90
        3
102
RTVSPost2010PropOp43
 70
     1
102
RTVSPost2010Prop44ColorIndex
 90
        5
102
RTVSPost2010Prop44ColorRGB
 90
      255
102
RTVSPost2010PropOp44
 70
     1
102
RTVSPost2010Prop45
280
     0
102
RTVSPost2010PropOp45
 70
     1
102
RTVSPost2010Prop46
 90
       50
102
RTVSPost2010PropOp46
 70
     1
102
RTVSPost2010Prop47
 90
       50
102
RTVSPost2010PropOp47
 70
     1
102
RTVSPost2010Prop48
 90
       50
102
RTVSPost2010PropOp48
 70
     1
102
RTVSPost2010Prop49
280
     0
102
RTVSPost2010PropOp49
 70
     1
102
RTVSPost2010Prop50
 90
       50
102
RTVSPost2010PropOp50
 70
     1
102
RTVSPost2010Prop51ColorIndex
 90
      256
102
RTVSPost2010Prop51ColorRGB
 90
-16777216
102
RTVSPost2010PropOp51
 70
     0
102
RTVSPost2010Prop52
140
1.0
102
RTVSPost2010PropOp52
 70
     0
102
RTVSPost2010Prop53
 90
        2
102
RTVSPost2010PropOp53
 70
     1
102
RTVSPost2010Prop54
  1
strokes_ogs.tif
102
RTVSPost2010PropOp54
 70
     1
102
RTVSPost2010Prop55
280
     0
102
RTVSPost2010PropOp55
 70
     1
102
RTVSPost2010Prop56
140
1.0
102
RTVSPost2010PropOp56
 70
     1
102
RTVSPost2010Prop57
140
1.0
102
RTVSPost2010PropOp57
 70
     1
102
RTVSPropertyOp0
 70
     1
102
RTVSPropertyOp1
 70
     1
102
RTVSPropertyOp2
 70
     1
102
RTVSPropertyOp3
 70
     1
102
RTVSPropertyOp4
 70
     1
102
RTVSPropertyOp5
 70
     1
102
RTVSPropertyOp6
 70
     1
102
RTVSPropertyOp7
 70
     1
102
RTVSPropertyOp8
 70
     1
102
RTVSPropertyOp9
 70
     1
102
RTVSPropertyOp10
 70
     1
102
RTVSPropertyOp11
 70
     1
102
RTVSPropertyOp12
 70
     1
102
RTVSPropertyOp13
 70
     1
102
RTVSPropertyOp14
 70
     1
102
RTVSPropertyOp15
 70
     1
102
RTVSPropertyOp16
 70
     1
102
RTVSPropertyOp17
 70
     1
102
RTVSPropertyOp18
 70
     1
102
RTVSPropertyOp19
 70
     1
102
RTVSPropertyOp20
 70
     1
102
RTVSPropertyOp21
 70
     1
102
RTVSPropertyOp22
 70
     1
102
RTVSPropertyOp23
 70
     1
102
RTVSPropertyOp24
 70
     1
102
RTVSPropertyOp25
 70
     1
102
RTVSPropertyOp26
 70
     1
102
RTVSPropertyOp27
 70
     1
102
RTVSPropertyOp28
 70
     1
102
RTVSPropertyOp29
 70
     1
102
RTVSPropertyOp30
 70
     1
102
RTVSPropertyOp31
 70
     1
102
RTVSPropertyOp32
 70
     1
102
RTVSPropertyOp33
 70
     1
102
RTVSPropertyOp34
 70
     1
102
RTVSPropertyOp35
 70
     1
102
RTVSPropertyOp36
 70
     1
102
RTVSPropertyOp37
 70
     1
102
RTVSPropertyOp38
 70
     1
102
RTVSPropertyOp39
 70
     1
102
RTVSPropertyOp40
 70
     1
102
RTVSPropertyOp41
 70
     1
102
RTVSPropertyOp42
 70
     1
102
RTVSPropertyOp43
 70
     1
102
RTVSPropertyOp44
 70
     1
102
RTVSPropertyOp45
 70
     1
102
RTVSPropertyOp46
 70
     1
102
RTVSPropertyOp47
 70
     1
102
RTVSPropertyOp48
 70
     1
102
RTVSPropertyOp49
 70
     1
102
RTVSPropertyOp50
 70
     1
102
RTVSPropertyOp51
 70
     0
102
RTVSPropertyOp52
 70
     0
102
RTVSPropertyOp53
 70
     1
102
RTVSPropertyOp54
 70
     1
102
RTVSPropertyOp55
 70
     1
102
RTVSPropertyOp56
 70
     1
102
RTVSPropertyOp57
 70
     1
102
RTVSPropertyOp58
 70
     1
102
RTVSPropertyOp59
 70
     1
102
RTVSPropertyOp60
 70
     1
102
RTVSPropertyOp61
 70
     1
102
RTVSPropertyOp62
 70
     1
  0
XRECORD
  5
7927
102
{ACAD_REACTORS
330
7926
102
}
330
7926
100
AcDbXrecord
280
     1
102
RTVSPost2010Prop28
280
     0
102
RTVSPost2010PropOp28
 70
     1
102
RTVSPost2010Prop29
280
     1
102
RTVSPost2010PropOp29
 70
     1
102
RTVSPost2010Prop30
280
     1
102
RTVSPost2010PropOp30
 70
     1
102
RTVSPost2010Prop31
280
     0
102
RTVSPost2010PropOp31
 70
     1
102
RTVSPost2010Prop32
280
     0
102
RTVSPost2010PropOp32
 70
     1
102
RTVSPost2010Prop33
280
     0
102
RTVSPost2010PropOp33
 70
     1
102
RTVSPost2010Prop34
280
     0
102
RTVSPost2010PropOp34
 70
     1
102
RTVSPost2010Prop35
280
     0
102
RTVSPost2010PropOp35
 70
     1
102
RTVSPost2010Prop36
280
     0
102
RTVSPost2010PropOp36
 70
     1
102
RTVSPost2010Prop37
 90
       50
102
RTVSPost2010PropOp37
 70
     1
102
RTVSPost2010Prop38
140
0.0
102
RTVSPost2010PropOp38
 70
     1
102
RTVSPost2010Prop39
140
1.0
102
RTVSPost2010PropOp39
 70
     1
102
RTVSPost2010Prop40
 90
        0
102
RTVSPost2010PropOp40
 70
     1
102
RTVSPost2010Prop41ColorIndex
 90
       18
102
RTVSPost2010Prop41ColorRGB
 90
        0
102
RTVSPost2010PropOp41
 70
     1
102
RTVSPost2010Prop42
 90
       50
102
RTVSPost2010PropOp42
 70
     1
102
RTVSPost2010Prop43
 90
        3
102
RTVSPost2010PropOp43
 70
     1
102
RTVSPost2010Prop44ColorIndex
 90
        5
102
RTVSPost2010Prop44ColorRGB
 90
      255
102
RTVSPost2010PropOp44
 70
     1
102
RTVSPost2010Prop45
280
     0
102
RTVSPost2010PropOp45
 70
     1
102
RTVSPost2010Prop46
 90
       50
102
RTVSPost2010PropOp46
 70
     1
102
RTVSPost2010Prop47
 90
       50
102
RTVSPost2010PropOp47
 70
     1
102
RTVSPost2010Prop48
 90
       50
102
RTVSPost2010PropOp48
 70
     1
102
RTVSPost2010Prop49
280
     0
102
RTVSPost2010PropOp49
 70
     1
102
RTVSPost2010Prop50
 90
       50
102
RTVSPost2010PropOp50
 70
     1
102
RTVSPost2010Prop51ColorIndex
 90
      256
102
RTVSPost2010Prop51ColorRGB
 90
-16777216
102
RTVSPost2010PropOp51
 70
     0
102
RTVSPost2010Prop52
140
1.0
102
RTVSPost2010PropOp52
 70
     0
102
RTVSPost2010Prop53
 90
        2
102
RTVSPost2010PropOp53
 70
     1
102
RTVSPost2010Prop54
  1
strokes_ogs.tif
102
RTVSPost2010PropOp54
 70
     1
102
RTVSPost2010Prop55
280
     0
102
RTVSPost2010PropOp55
 70
     1
102
RTVSPost2010Prop56
140
1.0
102
RTVSPost2010PropOp56
 70
     1
102
RTVSPost2010Prop57
140
1.0
102
RTVSPost2010PropOp57
 70
     1
102
RTVSPropertyOp0
 70
     1
102
RTVSPropertyOp1
 70
     1
102
RTVSPropertyOp2
 70
     1
102
RTVSPropertyOp3
 70
     1
102
RTVSPropertyOp4
 70
     1
102
RTVSPropertyOp5
 70
     1
102
RTVSPropertyOp6
 70
     1
102
RTVSPropertyOp7
 70
     1
102
RTVSPropertyOp8
 70
     1
102
RTVSPropertyOp9
 70
     1
102
RTVSPropertyOp10
 70
     1
102
RTVSPropertyOp11
 70
     1
102
RTVSPropertyOp12
 70
     1
102
RTVSPropertyOp13
 70
     1
102
RTVSPropertyOp14
 70
     1
102
RTVSPropertyOp15
 70
     1
102
RTVSPropertyOp16
 70
     1
102
RTVSPropertyOp17
 70
     1
102
RTVSPropertyOp18
 70
     1
102
RTVSPropertyOp19
 70
     1
102
RTVSPropertyOp20
 70
     1
102
RTVSPropertyOp21
 70
     1
102
RTVSPropertyOp22
 70
     1
102
RTVSPropertyOp23
 70
     1
102
RTVSPropertyOp24
 70
     1
102
RTVSPropertyOp25
 70
     1
102
RTVSPropertyOp26
 70
     1
102
RTVSPropertyOp27
 70
     1
102
RTVSPropertyOp28
 70
     1
102
RTVSPropertyOp29
 70
     1
102
RTVSPropertyOp30
 70
     1
102
RTVSPropertyOp31
 70
     1
102
RTVSPropertyOp32
 70
     1
102
RTVSPropertyOp33
 70
     1
102
RTVSPropertyOp34
 70
     1
102
RTVSPropertyOp35
 70
     1
102
RTVSPropertyOp36
 70
     1
102
RTVSPropertyOp37
 70
     1
102
RTVSPropertyOp38
 70
     1
102
RTVSPropertyOp39
 70
     1
102
RTVSPropertyOp40
 70
     1
102
RTVSPropertyOp41
 70
     1
102
RTVSPropertyOp42
 70
     1
102
RTVSPropertyOp43
 70
     1
102
RTVSPropertyOp44
 70
     1
102
RTVSPropertyOp45
 70
     1
102
RTVSPropertyOp46
 70
     1
102
RTVSPropertyOp47
 70
     1
102
RTVSPropertyOp48
 70
     1
102
RTVSPropertyOp49
 70
     1
102
RTVSPropertyOp50
 70
     1
102
RTVSPropertyOp51
 70
     0
102
RTVSPropertyOp52
 70
     0
102
RTVSPropertyOp53
 70
     1
102
RTVSPropertyOp54
 70
     1
102
RTVSPropertyOp55
 70
     1
102
RTVSPropertyOp56
 70
     1
102
RTVSPropertyOp57
 70
     1
102
RTVSPropertyOp58
 70
     1
102
RTVSPropertyOp59
 70
     1
102
RTVSPropertyOp60
 70
     1
102
RTVSPropertyOp61
 70
     1
102
RTVSPropertyOp62
 70
     1
  0
XRECORD
  5
791B
102
{ACAD_REACTORS
330
791A
102
}
330
791A
100
AcDbXrecord
280
     1
102
RTVSPost2010Prop28
280
     0
102
RTVSPost2010PropOp28
 70
     1
102
RTVSPost2010Prop29
280
     1
102
RTVSPost2010PropOp29
 70
     1
102
RTVSPost2010Prop30
280
     1
102
RTVSPost2010PropOp30
 70
     1
102
RTVSPost2010Prop31
280
     0
102
RTVSPost2010PropOp31
 70
     1
102
RTVSPost2010Prop32
280
     0
102
RTVSPost2010PropOp32
 70
     1
102
RTVSPost2010Prop33
280
     0
102
RTVSPost2010PropOp33
 70
     1
102
RTVSPost2010Prop34
280
     0
102
RTVSPost2010PropOp34
 70
     1
102
RTVSPost2010Prop35
280
     0
102
RTVSPost2010PropOp35
 70
     1
102
RTVSPost2010Prop36
280
     0
102
RTVSPost2010PropOp36
 70
     1
102
RTVSPost2010Prop37
 90
       50
102
RTVSPost2010PropOp37
 70
     1
102
RTVSPost2010Prop38
140
0.0
102
RTVSPost2010PropOp38
 70
     1
102
RTVSPost2010Prop39
140
1.0
102
RTVSPost2010PropOp39
 70
     1
102
RTVSPost2010Prop40
 90
        0
102
RTVSPost2010PropOp40
 70
     1
102
RTVSPost2010Prop41ColorIndex
 90
       18
102
RTVSPost2010Prop41ColorRGB
 90
        0
102
RTVSPost2010PropOp41
 70
     1
102
RTVSPost2010Prop42
 90
       50
102
RTVSPost2010PropOp42
 70
     1
102
RTVSPost2010Prop43
 90
        3
102
RTVSPost2010PropOp43
 70
     1
102
RTVSPost2010Prop44ColorIndex
 90
        5
102
RTVSPost2010Prop44ColorRGB
 90
      255
102
RTVSPost2010PropOp44
 70
     1
102
RTVSPost2010Prop45
280
     0
102
RTVSPost2010PropOp45
 70
     1
102
RTVSPost2010Prop46
 90
       50
102
RTVSPost2010PropOp46
 70
     1
102
RTVSPost2010Prop47
 90
       50
102
RTVSPost2010PropOp47
 70
     1
102
RTVSPost2010Prop48
 90
       50
102
RTVSPost2010PropOp48
 70
     1
102
RTVSPost2010Prop49
280
     0
102
RTVSPost2010PropOp49
 70
     1
102
RTVSPost2010Prop50
 90
       50
102
RTVSPost2010PropOp50
 70
     1
102
RTVSPost2010Prop51ColorIndex
 90
      256
102
RTVSPost2010Prop51ColorRGB
 90
-16777216
102
RTVSPost2010PropOp51
 70
     0
102
RTVSPost2010Prop52
140
1.0
102
RTVSPost2010PropOp52
 70
     0
102
RTVSPost2010Prop53
 90
        2
102
RTVSPost2010PropOp53
 70
     1
102
RTVSPost2010Prop54
  1
strokes_ogs.tif
102
RTVSPost2010PropOp54
 70
     1
102
RTVSPost2010Prop55
280
     0
102
RTVSPost2010PropOp55
 70
     1
102
RTVSPost2010Prop56
140
1.0
102
RTVSPost2010PropOp56
 70
     1
102
RTVSPost2010Prop57
140
1.0
102
RTVSPost2010PropOp57
 70
     1
102
RTVSPropertyOp0
 70
     1
102
RTVSPropertyOp1
 70
     1
102
RTVSPropertyOp2
 70
     1
102
RTVSPropertyOp3
 70
     1
102
RTVSPropertyOp4
 70
     1
102
RTVSPropertyOp5
 70
     1
102
RTVSPropertyOp6
 70
     1
102
RTVSPropertyOp7
 70
     1
102
RTVSPropertyOp8
 70
     1
102
RTVSPropertyOp9
 70
     1
102
RTVSPropertyOp10
 70
     1
102
RTVSPropertyOp11
 70
     1
102
RTVSPropertyOp12
 70
     1
102
RTVSPropertyOp13
 70
     1
102
RTVSPropertyOp14
 70
     1
102
RTVSPropertyOp15
 70
     1
102
RTVSPropertyOp16
 70
     1
102
RTVSPropertyOp17
 70
     1
102
RTVSPropertyOp18
 70
     1
102
RTVSPropertyOp19
 70
     1
102
RTVSPropertyOp20
 70
     1
102
RTVSPropertyOp21
 70
     1
102
RTVSPropertyOp22
 70
     1
102
RTVSPropertyOp23
 70
     1
102
RTVSPropertyOp24
 70
     1
102
RTVSPropertyOp25
 70
     1
102
RTVSPropertyOp26
 70
     1
102
RTVSPropertyOp27
 70
     1
102
RTVSPropertyOp28
 70
     1
102
RTVSPropertyOp29
 70
     1
102
RTVSPropertyOp30
 70
     1
102
RTVSPropertyOp31
 70
     1
102
RTVSPropertyOp32
 70
     1
102
RTVSPropertyOp33
 70
     1
102
RTVSPropertyOp34
 70
     1
102
RTVSPropertyOp35
 70
     1
102
RTVSPropertyOp36
 70
     1
102
RTVSPropertyOp37
 70
     1
102
RTVSPropertyOp38
 70
     1
102
RTVSPropertyOp39
 70
     1
102
RTVSPropertyOp40
 70
     1
102
RTVSPropertyOp41
 70
     1
102
RTVSPropertyOp42
 70
     1
102
RTVSPropertyOp43
 70
     1
102
RTVSPropertyOp44
 70
     1
102
RTVSPropertyOp45
 70
     1
102
RTVSPropertyOp46
 70
     1
102
RTVSPropertyOp47
 70
     1
102
RTVSPropertyOp48
 70
     1
102
RTVSPropertyOp49
 70
     1
102
RTVSPropertyOp50
 70
     1
102
RTVSPropertyOp51
 70
     0
102
RTVSPropertyOp52
 70
     0
102
RTVSPropertyOp53
 70
     1
102
RTVSPropertyOp54
 70
     1
102
RTVSPropertyOp55
 70
     1
102
RTVSPropertyOp56
 70
     1
102
RTVSPropertyOp57
 70
     1
102
RTVSPropertyOp58
 70
     1
102
RTVSPropertyOp59
 70
     1
102
RTVSPropertyOp60
 70
     1
102
RTVSPropertyOp61
 70
     1
102
RTVSPropertyOp62
 70
     1
  0
XRECORD
  5
793B
102
{ACAD_REACTORS
330
793A
102
}
330
793A
100
AcDbXrecord
280
     1
102
RTVSPost2010Prop28
280
     0
102
RTVSPost2010PropOp28
 70
     1
102
RTVSPost2010Prop29
280
     1
102
RTVSPost2010PropOp29
 70
     1
102
RTVSPost2010Prop30
280
     1
102
RTVSPost2010PropOp30
 70
     1
102
RTVSPost2010Prop31
280
     0
102
RTVSPost2010PropOp31
 70
     1
102
RTVSPost2010Prop32
280
     0
102
RTVSPost2010PropOp32
 70
     1
102
RTVSPost2010Prop33
280
     0
102
RTVSPost2010PropOp33
 70
     1
102
RTVSPost2010Prop34
280
     0
102
RTVSPost2010PropOp34
 70
     1
102
RTVSPost2010Prop35
280
     0
102
RTVSPost2010PropOp35
 70
     1
102
RTVSPost2010Prop36
280
     0
102
RTVSPost2010PropOp36
 70
     1
102
RTVSPost2010Prop37
 90
       50
102
RTVSPost2010PropOp37
 70
     1
102
RTVSPost2010Prop38
140
0.0
102
RTVSPost2010PropOp38
 70
     1
102
RTVSPost2010Prop39
140
1.0
102
RTVSPost2010PropOp39
 70
     1
102
RTVSPost2010Prop40
 90
        0
102
RTVSPost2010PropOp40
 70
     1
102
RTVSPost2010Prop41ColorIndex
 90
       18
102
RTVSPost2010Prop41ColorRGB
 90
        0
102
RTVSPost2010PropOp41
 70
     1
102
RTVSPost2010Prop42
 90
       50
102
RTVSPost2010PropOp42
 70
     1
102
RTVSPost2010Prop43
 90
        3
102
RTVSPost2010PropOp43
 70
     1
102
RTVSPost2010Prop44ColorIndex
 90
        5
102
RTVSPost2010Prop44ColorRGB
 90
      255
102
RTVSPost2010PropOp44
 70
     1
102
RTVSPost2010Prop45
280
     0
102
RTVSPost2010PropOp45
 70
     1
102
RTVSPost2010Prop46
 90
       50
102
RTVSPost2010PropOp46
 70
     1
102
RTVSPost2010Prop47
 90
       50
102
RTVSPost2010PropOp47
 70
     1
102
RTVSPost2010Prop48
 90
       50
102
RTVSPost2010PropOp48
 70
     1
102
RTVSPost2010Prop49
280
     0
102
RTVSPost2010PropOp49
 70
     1
102
RTVSPost2010Prop50
 90
       50
102
RTVSPost2010PropOp50
 70
     1
102
RTVSPost2010Prop51ColorIndex
 90
      256
102
RTVSPost2010Prop51ColorRGB
 90
-16777216
102
RTVSPost2010PropOp51
 70
     0
102
RTVSPost2010Prop52
140
1.0
102
RTVSPost2010PropOp52
 70
     0
102
RTVSPost2010Prop53
 90
        2
102
RTVSPost2010PropOp53
 70
     1
102
RTVSPost2010Prop54
  1
strokes_ogs.tif
102
RTVSPost2010PropOp54
 70
     1
102
RTVSPost2010Prop55
280
     0
102
RTVSPost2010PropOp55
 70
     1
102
RTVSPost2010Prop56
140
1.0
102
RTVSPost2010PropOp56
 70
     1
102
RTVSPost2010Prop57
140
1.0
102
RTVSPost2010PropOp57
 70
     1
102
RTVSPropertyOp0
 70
     1
102
RTVSPropertyOp1
 70
     1
102
RTVSPropertyOp2
 70
     1
102
RTVSPropertyOp3
 70
     1
102
RTVSPropertyOp4
 70
     1
102
RTVSPropertyOp5
 70
     1
102
RTVSPropertyOp6
 70
     1
102
RTVSPropertyOp7
 70
     1
102
RTVSPropertyOp8
 70
     1
102
RTVSPropertyOp9
 70
     1
102
RTVSPropertyOp10
 70
     1
102
RTVSPropertyOp11
 70
     1
102
RTVSPropertyOp12
 70
     1
102
RTVSPropertyOp13
 70
     1
102
RTVSPropertyOp14
 70
     1
102
RTVSPropertyOp15
 70
     1
102
RTVSPropertyOp16
 70
     1
102
RTVSPropertyOp17
 70
     1
102
RTVSPropertyOp18
 70
     1
102
RTVSPropertyOp19
 70
     1
102
RTVSPropertyOp20
 70
     1
102
RTVSPropertyOp21
 70
     1
102
RTVSPropertyOp22
 70
     1
102
RTVSPropertyOp23
 70
     1
102
RTVSPropertyOp24
 70
     1
102
RTVSPropertyOp25
 70
     1
102
RTVSPropertyOp26
 70
     1
102
RTVSPropertyOp27
 70
     1
102
RTVSPropertyOp28
 70
     1
102
RTVSPropertyOp29
 70
     1
102
RTVSPropertyOp30
 70
     1
102
RTVSPropertyOp31
 70
     1
102
RTVSPropertyOp32
 70
     1
102
RTVSPropertyOp33
 70
     1
102
RTVSPropertyOp34
 70
     1
102
RTVSPropertyOp35
 70
     1
102
RTVSPropertyOp36
 70
     1
102
RTVSPropertyOp37
 70
     1
102
RTVSPropertyOp38
 70
     1
102
RTVSPropertyOp39
 70
     1
102
RTVSPropertyOp40
 70
     1
102
RTVSPropertyOp41
 70
     1
102
RTVSPropertyOp42
 70
     1
102
RTVSPropertyOp43
 70
     1
102
RTVSPropertyOp44
 70
     1
102
RTVSPropertyOp45
 70
     1
102
RTVSPropertyOp46
 70
     1
102
RTVSPropertyOp47
 70
     1
102
RTVSPropertyOp48
 70
     1
102
RTVSPropertyOp49
 70
     1
102
RTVSPropertyOp50
 70
     1
102
RTVSPropertyOp51
 70
     0
102
RTVSPropertyOp52
 70
     0
102
RTVSPropertyOp53
 70
     1
102
RTVSPropertyOp54
 70
     1
102
RTVSPropertyOp55
 70
     1
102
RTVSPropertyOp56
 70
     1
102
RTVSPropertyOp57
 70
     1
102
RTVSPropertyOp58
 70
     1
102
RTVSPropertyOp59
 70
     1
102
RTVSPropertyOp60
 70
     1
102
RTVSPropertyOp61
 70
     1
102
RTVSPropertyOp62
 70
     1
  0
ENDSEC
  0
EOF
