  0
SECTION
  2
HEADER
  9
$ACADVER
  1
AC1015
  9
$ACADMAINTVER
 70
    18
  9
$DWGCODEPAGE
  3
ANSI_1252
  9
$INSBASE
 10
0.0
 20
0.0
 30
0.0
  9
$EXTMIN
 10
-195.5099479801836
 20
-213.7315974576999
 30
-0.0015258207003583
  9
$EXTMAX
 10
246.3372810491562
 20
240.0209204249793
 30
0.0000000349246037
  9
$LIMMIN
 10
0.0
 20
0.0
  9
$LIMMAX
 10
420.0
 20
297.0
  9
$ORTHOMODE
 70
     0
  9
$REGENMODE
 70
     1
  9
$FILLMODE
 70
     1
  9
$QTEXTMODE
 70
     0
  9
$MIRRTEXT
 70
     0
  9
$LTSCALE
 40
1.0
  9
$ATTMODE
 70
     1
  9
$TEXTSIZE
 40
2.5
  9
$TRACEWID
 40
1.0
  9
$TEXTSTYLE
  7
Standard
  9
$CLAYER
  8
0
  9
$CELTYPE
  6
ByLayer
  9
$CECOLOR
 62
   256
  9
$CELTSCALE
 40
1.0
  9
$DISPSILH
 70
     0
  9
$DIMSCALE
 40
1.0
  9
$DIMASZ
 40
2.5
  9
$DIMEXO
 40
0.625
  9
$DIMDLI
 40
3.75
  9
$DIMRND
 40
0.0
  9
$DIMDLE
 40
0.0
  9
$DIMEXE
 40
1.25
  9
$DIMTP
 40
0.0
  9
$DIMTM
 40
0.0
  9
$DIMTXT
 40
2.5
  9
$DIMCEN
 40
2.5
  9
$DIMTSZ
 40
0.0
  9
$DIMTOL
 70
     0
  9
$DIMLIM
 70
     0
  9
$DIMTIH
 70
     0
  9
$DIMTOH
 70
     0
  9
$DIMSE1
 70
     0
  9
$DIMSE2
 70
     0
  9
$DIMTAD
 70
     1
  9
$DIMZIN
 70
     8
  9
$DIMBLK
  1

  9
$DIMASO
 70
     1
  9
$DIMSHO
 70
     1
  9
$DIMPOST
  1

  9
$DIMAPOST
  1

  9
$DIMALT
 70
     0
  9
$DIMALTD
 70
     3
  9
$DIMALTF
 40
0.03937007874016
  9
$DIMLFAC
 40
1.0
  9
$DIMTOFL
 70
     1
  9
$DIMTVP
 40
0.0
  9
$DIMTIX
 70
     0
  9
$DIMSOXD
 70
     0
  9
$DIMSAH
 70
     0
  9
$DIMBLK1
  1

  9
$DIMBLK2
  1

  9
$DIMSTYLE
  2
ISO-25
  9
$DIMCLRD
 70
     0
  9
$DIMCLRE
 70
     0
  9
$DIMCLRT
 70
     0
  9
$DIMTFAC
 40
1.0
  9
$DIMGAP
 40
0.625
  9
$DIMJUST
 70
     0
  9
$DIMSD1
 70
     0
  9
$DIMSD2
 70
     0
  9
$DIMTOLJ
 70
     0
  9
$DIMTZIN
 70
     8
  9
$DIMALTZ
 70
     0
  9
$DIMALTTZ
 70
     0
  9
$DIMUPT
 70
     0
  9
$DIMDEC
 70
     2
  9
$DIMTDEC
 70
     2
  9
$DIMALTU
 70
     2
  9
$DIMALTTD
 70
     3
  9
$DIMTXSTY
  7
Standard
  9
$DIMAUNIT
 70
     0
  9
$DIMADEC
 70
     0
  9
$DIMALTRND
 40
0.0
  9
$DIMAZIN
 70
     0
  9
$DIMDSEP
 70
    44
  9
$DIMATFIT
 70
     3
  9
$DIMFRAC
 70
     0
  9
$DIMLDRBLK
  1

  9
$DIMLUNIT
 70
     2
  9
$DIMLWD
 70
    -2
  9
$DIMLWE
 70
    -2
  9
$DIMTMOVE
 70
     0
  9
$LUNITS
 70
     2
  9
$LUPREC
 70
     4
  9
$SKETCHINC
 40
1.0
  9
$FILLETRAD
 40
0.0
  9
$AUNITS
 70
     0
  9
$AUPREC
 70
     0
  9
$MENU
  1
.
  9
$ELEVATION
 40
0.0
  9
$PELEVATION
 40
0.0
  9
$THICKNESS
 40
0.0
  9
$LIMCHECK
 70
     0
  9
$CHAMFERA
 40
0.0
  9
$CHAMFERB
 40
0.0
  9
$CHAMFERC
 40
0.0
  9
$CHAMFERD
 40
0.0
  9
$SKPOLY
 70
     0
  9
$TDCREATE
 40
2460398.356956019
  9
$TDUCREATE
 40
2460398.065289352
  9
$TDUPDATE
 40
2460398.374039352
  9
$TDUUPDATE
 40
2460398.082372685
  9
$TDINDWG
 40
0.0076736111
  9
$TDUSRTIMER
 40
0.0076736111
  9
$USRTIMER
 70
     1
  9
$ANGBASE
 50
0.0
  9
$ANGDIR
 70
     0
  9
$PDMODE
 70
     0
  9
$PDSIZE
 40
0.0
  9
$PLINEWID
 40
0.0
  9
$SPLFRAME
 70
     0
  9
$SPLINETYPE
 70
     6
  9
$SPLINESEGS
 70
     8
  9
$HANDSEED
  5
7D95
  9
$SURFTAB1
 70
     6
  9
$SURFTAB2
 70
     6
  9
$SURFTYPE
 70
     6
  9
$SURFU
 70
     6
  9
$SURFV
 70
     6
  9
$UCSBASE
  2

  9
$UCSNAME
  2

  9
$UCSORG
 10
0.0
 20
0.0
 30
0.0
  9
$UCSXDIR
 10
1.0
 20
0.0
 30
0.0
  9
$UCSYDIR
 10
0.0
 20
1.0
 30
0.0
  9
$UCSORTHOREF
  2

  9
$UCSORTHOVIEW
 70
     0
  9
$UCSORGTOP
 10
0.0
 20
0.0
 30
0.0
  9
$UCSORGBOTTOM
 10
0.0
 20
0.0
 30
0.0
  9
$UCSORGLEFT
 10
0.0
 20
0.0
 30
0.0
  9
$UCSORGRIGHT
 10
0.0
 20
0.0
 30
0.0
  9
$UCSORGFRONT
 10
0.0
 20
0.0
 30
0.0
  9
$UCSORGBACK
 10
0.0
 20
0.0
 30
0.0
  9
$PUCSBASE
  2

  9
$PUCSNAME
  2

  9
$PUCSORG
 10
0.0
 20
0.0
 30
0.0
  9
$PUCSXDIR
 10
1.0
 20
0.0
 30
0.0
  9
$PUCSYDIR
 10
0.0
 20
1.0
 30
0.0
  9
$PUCSORTHOREF
  2

  9
$PUCSORTHOVIEW
 70
     0
  9
$PUCSORGTOP
 10
0.0
 20
0.0
 30
0.0
  9
$PUCSORGBOTTOM
 10
0.0
 20
0.0
 30
0.0
  9
$PUCSORGLEFT
 10
0.0
 20
0.0
 30
0.0
  9
$PUCSORGRIGHT
 10
0.0
 20
0.0
 30
0.0
  9
$PUCSORGFRONT
 10
0.0
 20
0.0
 30
0.0
  9
$PUCSORGBACK
 10
0.0
 20
0.0
 30
0.0
  9
$USERI1
 70
     0
  9
$USERI2
 70
     0
  9
$USERI3
 70
     0
  9
$USERI4
 70
     0
  9
$USERI5
 70
     0
  9
$USERR1
 40
0.0
  9
$USERR2
 40
0.0
  9
$USERR3
 40
0.0
  9
$USERR4
 40
0.0
  9
$USERR5
 40
0.0
  9
$WORLDVIEW
 70
     1
  9
$SHADEDGE
 70
     3
  9
$SHADEDIF
 70
    70
  9
$TILEMODE
 70
     1
  9
$MAXACTVP
 70
    48
  9
$PINSBASE
 10
0.0
 20
0.0
 30
0.0
  9
$PLIMCHECK
 70
     0
  9
$PEXTMIN
 10
0.0
 20
0.0
 30
0.0
  9
$PEXTMAX
 10
0.0
 20
0.0
 30
0.0
  9
$PLIMMIN
 10
0.0
 20
0.0
  9
$PLIMMAX
 10
12.0
 20
9.0
  9
$UNITMODE
 70
     0
  9
$VISRETAIN
 70
     1
  9
$PLINEGEN
 70
     0
  9
$PSLTSCALE
 70
     1
  9
$TREEDEPTH
 70
  3020
  9
$CMLSTYLE
  2
Standard
  9
$CMLJUST
 70
     0
  9
$CMLSCALE
 40
20.0
  9
$PROXYGRAPHICS
 70
     1
  9
$MEASUREMENT
 70
     1
  9
$CELWEIGHT
370
    -1
  9
$ENDCAPS
280
     0
  9
$JOINSTYLE
280
     0
  9
$LWDISPLAY
290
     0
  9
$INSUNITS
 70
     4
  9
$HYPERLINKBASE
  1

  9
$STYLESHEET
  1

  9
$XEDIT
290
     1
  9
$CEPSNTYPE
380
     0
  9
$PSTYLEMODE
290
     1
  9
$FINGERPRINTGUID
  2
{6C1266EE-7BC1-BF4A-B059-A6E7702B10CE}
  9
$VERSIONGUID
  2
{041B12C0-6C55-4445-B455-AC4D039F3A36}
  9
$EXTNAMES
290
     1
  9
$PSVPSCALE
 40
0.0
  9
$OLESTARTUP
290
     0
  0
ENDSEC
  0
SECTION
  2
CLASSES
  0
CLASS
  1
ACDBDICTIONARYWDFLT
  2
AcDbDictionaryWithDefault
  3
ObjectDBX Classes
 90
        0
280
     0
281
     0
  0
CLASS
  1
ACDBPLACEHOLDER
  2
AcDbPlaceHolder
  3
ObjectDBX Classes
 90
        0
280
     0
281
     0
  0
CLASS
  1
LAYOUT
  2
AcDbLayout
  3
ObjectDBX Classes
 90
        0
280
     0
281
     0
  0
CLASS
  1
DICTIONARYVAR
  2
AcDbDictionaryVar
  3
ObjectDBX Classes
 90
        0
280
     0
281
     0
  0
CLASS
  1
TABLESTYLE
  2
AcDbTableStyle
  3
ObjectDBX Classes
 90
     4095
280
     0
281
     0
  0
CLASS
  1
MATERIAL
  2
AcDbMaterial
  3
ObjectDBX Classes
 90
     1153
280
     0
281
     0
  0
CLASS
  1
VISUALSTYLE
  2
AcDbVisualStyle
  3
ObjectDBX Classes
 90
     4095
280
     0
281
     0
  0
CLASS
  1
SCALE
  2
AcDbScale
  3
ObjectDBX Classes
 90
     1153
280
     0
281
     0
  0
CLASS
  1
MLEADERSTYLE
  2
AcDbMLeaderStyle
  3
ACDB_MLEADERSTYLE_CLASS
 90
     4095
280
     0
281
     0
  0
CLASS
  1
CELLSTYLEMAP
  2
AcDbCellStyleMap
  3
ObjectDBX Classes
 90
     1152
280
     0
281
     0
  0
CLASS
  1
EXACXREFPANELOBJECT
  2
ExAcXREFPanelObject
  3
EXAC_ESW
 90
    33793
280
     0
281
     0
  0
CLASS
  1
NPOCOLLECTION
  2
AcDbImpNonPersistentObjectsCollection
  3
ObjectDBX Classes
 90
    33921
280
     0
281
     0
  0
CLASS
  1
LAYER_INDEX
  2
AcDbLayerIndex
  3
ObjectDBX Classes
 90
    32768
280
     0
281
     0
  0
CLASS
  1
SPATIAL_INDEX
  2
AcDbSpatialIndex
  3
ObjectDBX Classes
 90
    32768
280
     0
281
     0
  0
CLASS
  1
IDBUFFER
  2
AcDbIdBuffer
  3
ObjectDBX Classes
 90
    32768
280
     0
281
     0
  0
CLASS
  1
ACDBSECTIONVIEWSTYLE
  2
AcDbSectionViewStyle
  3
ObjectDBX Classes
 90
     1025
280
     0
281
     0
  0
CLASS
  1
ACDBDETAILVIEWSTYLE
  2
AcDbDetailViewStyle
  3
ObjectDBX Classes
 90
     1025
280
     0
281
     0
  0
CLASS
  1
XRECORD
  2
AcDbXrecord
  3
ObjectDBX Classes
 90
        0
280
     0
281
     0
  0
ENDSEC
  0
SECTION
  2
TABLES
  0
TABLE
  2
VPORT
  5
8
102
{ACAD_XDICTIONARY
360
7CA3
102
}
330
0
100
AcDbSymbolTable
 70
     1
  0
VPORT
  5
EA
330
8
100
AcDbSymbolTableRecord
100
AcDbViewportTableRecord
  2
*Active
 70
     0
 10
0.0
 20
0.0
 11
1.0
 21
1.0
 12
25.41366653448629
 22
13.14466148363968
 13
0.0
 23
0.0
 14
10.0
 24
10.0
 15
10.0
 25
10.0
 16
0.0
 26
0.0
 36
1.0
 17
0.0
 27
0.0
 37
0.0
 40
482.5246822104295
 41
0.9846153846153846
 42
50.0
 43
0.0
 44
0.0
 50
0.0
 51
0.0
 71
     0
 72
  1000
 73
     1
 74
     3
 75
     0
 76
     1
 77
     0
 78
     0
281
     0
 65
     1
110
0.0
120
0.0
130
0.0
111
1.0
121
0.0
131
0.0
112
0.0
122
1.0
132
0.0
 79
     0
146
0.0
1001
ACAD_NAV_VCDISPLAY
1070
     3
  0
ENDTAB
  0
TABLE
  2
LTYPE
  5
5
330
0
100
AcDbSymbolTable
 70
     1
  0
LTYPE
  5
14
330
5
100
AcDbSymbolTableRecord
100
AcDbLinetypeTableRecord
  2
ByBlock
 70
     0
  3

 72
    65
 73
     0
 40
0.0
  0
LTYPE
  5
15
330
5
100
AcDbSymbolTableRecord
100
AcDbLinetypeTableRecord
  2
ByLayer
 70
     0
  3

 72
    65
 73
     0
 40
0.0
  0
LTYPE
  5
16
330
5
100
AcDbSymbolTableRecord
100
AcDbLinetypeTableRecord
  2
Continuous
 70
     0
  3
Solid line
 72
    65
 73
     0
 40
0.0
  0
ENDTAB
  0
TABLE
  2
LAYER
  5
2
102
{ACAD_XDICTIONARY
360
1FF
102
}
330
0
100
AcDbSymbolTable
 70
     1
  0
LAYER
  5
10
102
{ACAD_XDICTIONARY
360
13C
102
}
330
2
100
AcDbSymbolTableRecord
100
AcDbLayerTableRecord
  2
0
 70
     0
 62
     7
  6
Continuous
370
    -3
390
F
  0
ENDTAB
  0
TABLE
  2
STYLE
  5
3
330
0
100
AcDbSymbolTable
 70
     1
  0
STYLE
  5
11
330
3
100
AcDbSymbolTableRecord
100
AcDbTextStyleTableRecord
  2
Standard
 70
     0
 40
0.0
 41
1.0
 50
0.0
 71
     0
 42
2.5
  3
arial.ttf
  4

1001
ACAD
1000
Arial
1071
       34
  0
ENDTAB
  0
TABLE
  2
VIEW
  5
6
330
0
100
AcDbSymbolTable
 70
     0
  0
ENDTAB
  0
TABLE
  2
UCS
  5
7
330
0
100
AcDbSymbolTable
 70
     0
  0
ENDTAB
  0
TABLE
  2
APPID
  5
9
330
0
100
AcDbSymbolTable
 70
     8
  0
APPID
  5
12
330
9
100
AcDbSymbolTableRecord
100
AcDbRegAppTableRecord
  2
ACAD
 70
     0
  0
APPID
  5
9E
330
9
100
AcDbSymbolTableRecord
100
AcDbRegAppTableRecord
  2
ACAD_PSEXT
 70
     0
  0
APPID
  5
133
330
9
100
AcDbSymbolTableRecord
100
AcDbRegAppTableRecord
  2
AcadAnnoPO
 70
     0
  0
APPID
  5
134
330
9
100
AcDbSymbolTableRecord
100
AcDbRegAppTableRecord
  2
AcadAnnotative
 70
     0
  0
APPID
  5
135
330
9
100
AcDbSymbolTableRecord
100
AcDbRegAppTableRecord
  2
ACAD_DSTYLE_DIMJAG
 70
     0
  0
APPID
  5
136
330
9
100
AcDbSymbolTableRecord
100
AcDbRegAppTableRecord
  2
ACAD_DSTYLE_DIMTALN
 70
     0
  0
APPID
  5
165
330
9
100
AcDbSymbolTableRecord
100
AcDbRegAppTableRecord
  2
ACAD_MLEADERVER
 70
     0
  0
APPID
  5
217
330
9
100
AcDbSymbolTableRecord
100
AcDbRegAppTableRecord
  2
ACAD_NAV_VCDISPLAY
 70
     0
  0
ENDTAB
  0
TABLE
  2
DIMSTYLE
  5
A
330
0
100
AcDbSymbolTable
 70
     1
100
AcDbDimStyleTable
 71
     0
  0
DIMSTYLE
105
27
330
A
100
AcDbSymbolTableRecord
100
AcDbDimStyleTableRecord
  2
ISO-25
 70
     0
 41
2.5
 42
0.625
 43
3.75
 44
1.25
 73
     0
 74
     0
 77
     1
 78
     8
140
2.5
141
2.5
143
0.03937007874016
147
0.625
171
     3
172
     1
271
     2
272
     2
274
     3
278
    44
283
     0
284
     8
340
11
  0
ENDTAB
  0
TABLE
  2
BLOCK_RECORD
  5
1
330
0
100
AcDbSymbolTable
 70
     7
  0
BLOCK_RECORD
  5
1F
102
{ACAD_XDICTIONARY
360
1CE
102
}
330
1
100
AcDbSymbolTableRecord
100
AcDbBlockTableRecord
  2
*Model_Space
340
22
  0
BLOCK_RECORD
  5
D2
102
{ACAD_XDICTIONARY
360
7C56
102
}
330
1
100
AcDbSymbolTableRecord
100
AcDbBlockTableRecord
  2
*Paper_Space
340
D3
  0
BLOCK_RECORD
  5
D6
102
{ACAD_XDICTIONARY
360
7C58
102
}
330
1
100
AcDbSymbolTableRecord
100
AcDbBlockTableRecord
  2
*Paper_Space0
340
D7
  0
BLOCK_RECORD
  5
7ADA
330
1
100
AcDbSymbolTableRecord
100
AcDbBlockTableRecord
  2
SAE300_64_2-Front
340
0
102
{BLKREFS
331
7C4C
102
}
  0
BLOCK_RECORD
  5
7B2F
330
1
100
AcDbSymbolTableRecord
100
AcDbBlockTableRecord
  2
SAE300_64_2-Left
340
0
102
{BLKREFS
331
7C4D
102
}
  0
BLOCK_RECORD
  5
7B4E
330
1
100
AcDbSymbolTableRecord
100
AcDbBlockTableRecord
  2
SAE300_64_2-Right
340
0
102
{BLKREFS
331
7C4E
102
}
  0
BLOCK_RECORD
  5
7B6D
330
1
100
AcDbSymbolTableRecord
100
AcDbBlockTableRecord
  2
SAE300_64_2-Top
340
0
102
{BLKREFS
331
7C4F
102
}
  0
BLOCK_RECORD
  5
7B9C
330
1
100
AcDbSymbolTableRecord
100
AcDbBlockTableRecord
  2
SAE300_64_2-Bottom
340
0
102
{BLKREFS
331
7C50
102
}
  0
BLOCK_RECORD
  5
7BC2
330
1
100
AcDbSymbolTableRecord
100
AcDbBlockTableRecord
  2
SAE300_64_2-ISO
340
0
102
{BLKREFS
331
7C51
102
}
  0
ENDTAB
  0
ENDSEC
  0
SECTION
  2
BLOCKS
  0
BLOCK
  5
20
330
1F
100
AcDbEntity
  8
0
100
AcDbBlockBegin
  2
*Model_Space
 70
     0
 10
0.0
 20
0.0
 30
0.0
  3
*Model_Space
  1

  0
ENDBLK
  5
21
330
1F
100
AcDbEntity
  8
0
100
AcDbBlockEnd
  0
BLOCK
  5
D4
330
D2
100
AcDbEntity
 67
     1
  8
0
100
AcDbBlockBegin
  2
*Paper_Space
 70
     0
 10
0.0
 20
0.0
 30
0.0
  3
*Paper_Space
  1

  0
ENDBLK
  5
D5
330
D2
100
AcDbEntity
 67
     1
  8
0
100
AcDbBlockEnd
  0
BLOCK
  5
D8
330
D6
100
AcDbEntity
 67
     1
  8
0
100
AcDbBlockBegin
  2
*Paper_Space0
 70
     0
 10
0.0
 20
0.0
 30
0.0
  3
*Paper_Space0
  1

  0
ENDBLK
  5
D9
330
D6
100
AcDbEntity
 67
     1
  8
0
100
AcDbBlockEnd
  0
BLOCK
  5
7ADB
330
7ADA
100
AcDbEntity
  8
0
100
AcDbBlockBegin
  2
SAE300_64_2-Front
 70
     0
 10
0.0
 20
0.0
 30
0.0
  3
SAE300_64_2-Front
  1

  0
SPLINE
  5
7ADD
330
7ADA
100
AcDbEntity
  8
0
100
AcDbSpline
210
0.0
220
0.0
230
1.0
 70
     8
 71
     3
 72
    14
 73
    10
 74
     0
 42
0.000000001
 43
0.0000000001
 40
0.0
 40
0.0
 40
0.0
 40
0.0
 40
0.3435165591370396
 40
0.3435165591370396
 40
0.3435165591370396
 40
0.7569936138332894
 40
0.7569936138332894
 40
0.7569936138332894
 40
0.9937968105059542
 40
0.9937968105059542
 40
0.9937968105059542
 40
0.9937968105059542
 10
36.60606060606063
 20
10.56250000000002
 30
0.0
 10
36.28490249291122
 20
10.30249193735012
 30
0.0
 10
35.87245901694539
 20
10.0752903732622
 30
0.0
 10
35.47646762711391
 20
9.84407810168123
 30
0.0
 10
34.99982873097478
 20
9.565777197343196
 30
0.0
 10
34.53730090292154
 20
9.271394502201506
 30
0.0
 10
34.2624310701827
 20
8.857928778846231
 30
0.0
 10
34.10500986791247
 20
8.621132071766483
 30
0.0
 10
34.00518611887335
 20
8.371326012524702
 30
0.0
 10
34.0001962409772
 20
8.02723640413194
 30
0.0
  0
LINE
  5
7ADE
330
7ADA
100
AcDbEntity
  8
0
100
AcDbLine
 10
36.0
 20
10.5625
 30
0.0
 11
36.55219694541924
 21
10.5625
 31
0.0
  0
LINE
  5
7ADF
330
7ADA
100
AcDbEntity
  8
0
100
AcDbLine
 10
35.91278597315312
 20
10.5625
 30
0.0
 11
36.0
 21
10.5625
 31
0.0
  0
LINE
  5
7AE0
330
7ADA
100
AcDbEntity
  8
0
100
AcDbLine
 10
34.0
 20
10.5625
 30
0.0
 11
35.91278597315312
 21
10.5625
 31
0.0
  0
SPLINE
  5
7AE1
330
7ADA
100
AcDbEntity
  8
0
100
AcDbSpline
210
0.0
220
0.0
230
1.0
 70
     8
 71
     3
 72
    14
 73
    10
 74
     0
 42
0.000000001
 43
0.0000000001
 40
0.0347000197806365
 40
0.0347000197806365
 40
0.0347000197806365
 40
0.0347000197806365
 40
0.0361189848965627
 40
0.0361189848965627
 40
0.0370137869423791
 40
0.0370137869423791
 40
0.0371885311862522
 40
0.0371885311862522
 40
0.0372322172215217
 40
0.0372322172215217
 40
0.0372322172215217
 40
0.0372322172215217
 10
34.00031581801557
 20
8.025136549693652
 30
0.0
 10
34.00028391826336
 20
8.020464615536274
 30
0.0
 10
34.00026000482331
 20
8.015788387719826
 30
0.0
 10
34.00023272884823
 20
8.008155168328503
 30
0.0
 10
34.00022503697588
 20
8.005201105302072
 30
0.0
 10
34.00021901181335
 20
8.001667532075169
 30
0.0
 10
34.00021812850376
 20
8.001090125679477
 30
0.0
 10
34.00021714880002
 20
8.00036826026292
 30
0.0
 10
34.00021695908096
 20
8.000223881843428
 30
0.0
 10
34.00021677555928
 20
8.000079498010499
 30
0.0
  0
SPLINE
  5
7AE2
330
7ADA
100
AcDbEntity
  8
0
100
AcDbSpline
210
0.0
220
0.0
230
1.0
 70
     8
 71
     3
 72
    30
 73
    26
 74
     0
 42
0.000000001
 43
0.0000000001
 40
0.0306560921144564
 40
0.0306560921144564
 40
0.0306560921144564
 40
0.0306560921144564
 40
0.0311833257945721
 40
0.0311833257945721
 40
0.0332614415885047
 40
0.0332614415885047
 40
0.0356389009306699
 40
0.0356389009306699
 40
0.0388847655196891
 40
0.0388847655196891
 40
0.0441663722170124
 40
0.0441663722170124
 40
0.0491457620997663
 40
0.0491457620997663
 40
0.0514274650865711
 40
0.0514274650865711
 40
0.0545120264389436
 40
0.0545120264389436
 40
0.0575233400784758
 40
0.0575233400784758
 40
0.0616498395290598
 40
0.0616498395290598
 40
0.0658199676900507
 40
0.0658199676900507
 40
0.0700424435198185
 40
0.0700424435198185
 40
0.0700424435198185
 40
0.0700424435198185
 10
34.01076237536248
 20
8.251935713302273
 30
0.0
 10
34.01076237534514
 20
8.251935713107913
 30
0.0
 10
34.01075599747663
 20
8.251864210473904
 30
0.0
 10
34.01069483906885
 20
8.251174917374495
 30
0.0
 10
34.01054952142651
 20
8.24953352576092
 30
0.0
 10
34.01010532945575
 20
8.244338840580166
 30
0.0
 10
34.00978617323588
 20
8.240523239948645
 30
0.0
 10
34.00895278190338
 20
8.230086884626198
 30
0.0
 10
34.00840527351051
 20
8.222882653776062
 30
0.0
 10
34.00698279069815
 20
8.202762954054383
 30
0.0
 10
34.00609732396336
 20
8.18881116920666
 30
0.0
 10
34.00454924655515
 20
8.160887840319904
 30
0.0
 10
34.00386432011408
 20
8.146694348709166
 30
0.0
 10
34.0030544064378
 20
8.127559347045957
 30
0.0
 10
34.00282747025125
 20
8.121787659027122
 30
0.0
 10
34.0024090555402
 20
8.1106213065962
 30
0.0
 10
34.00226405866143
 20
8.106403688612214
 30
0.0
 10
34.00195311621532
 20
8.096998479103172
 30
0.0
 10
34.00176726121134
 20
8.091079259944745
 30
0.0
 10
34.00132453269344
 20
8.075511544445836
 30
0.0
 10
34.00107828358293
 20
8.065690594005817
 30
0.0
 10
34.00064974364501
 20
8.045654199185769
 30
0.0
 10
34.00046643104027
 20
8.035348945769797
 30
0.0
 10
34.00017853019248
 20
8.015831333380244
 30
0.0
 10
34.00007451486059
 20
8.00649939700798
 30
0.0
 10
34.00001270427944
 20
7.999999939607906
 30
0.0
  0
SPLINE
  5
7AE3
330
7ADA
100
AcDbEntity
  8
0
100
AcDbSpline
210
0.0
220
0.0
230
1.0
 70
     8
 71
     3
 72
    10
 73
     6
 74
     0
 42
0.000000001
 43
0.0000000001
 40
0.0138726326622481
 40
0.0138726326622481
 40
0.0138726326622481
 40
0.0138726326622481
 40
0.0146928826634486
 40
0.0146928826634486
 40
0.0163981695502064
 40
0.0163981695502064
 40
0.0163981695502064
 40
0.0163981695502064
 10
34.00026568216699
 20
8.021617010154574
 30
0.0
 10
34.00023630194402
 20
8.019338752008735
 30
0.0
 10
34.00020819590452
 20
8.017025409074898
 30
0.0
 10
34.0001269715745
 20
8.009839297814524
 30
0.0
 10
34.00007948645412
 20
8.004924096344657
 30
0.0
 10
34.00003981901259
 20
7.999999785306497
 30
0.0
  0
SPLINE
  5
7AE4
330
7ADA
100
AcDbEntity
  8
0
100
AcDbSpline
210
0.0
220
0.0
230
1.0
 70
     8
 71
     3
 72
     8
 73
     4
 74
     0
 42
0.000000001
 43
0.0000000001
 40
0.0027244425314131
 40
0.0027244425314131
 40
0.0027244425314131
 40
0.0027244425314131
 40
0.0086712963913765
 40
0.0086712963913765
 40
0.0086712963913765
 40
0.0086712963913765
 10
34.00001376180649
 20
8.002013285994628
 30
0.0
 10
34.00001376180649
 20
8.002013285996037
 30
0.0
 10
34.00000357969067
 20
8.00037332398673
 30
0.0
 10
34.00000179638791
 20
7.999999991083921
 30
0.0
  0
SPLINE
  5
7AE5
330
7ADA
100
AcDbEntity
  8
0
100
AcDbSpline
210
0.0
220
0.0
230
1.0
 70
     8
 71
     3
 72
     8
 73
     4
 74
     0
 42
0.000000001
 43
0.0000000001
 40
0.0
 40
0.0
 40
0.0
 40
0.0
 40
0.0009484845512172
 40
0.0009484845512172
 40
0.0009484845512172
 40
0.0009484845512172
 10
31.99956040496371
 20
8.000000985037754
 30
0.0
 10
31.99956427154479
 20
8.002755392895309
 30
0.0
 10
31.99956807790151
 20
8.005474802003
 30
0.0
 10
31.99957175544653
 20
8.008148701392315
 30
0.0
  0
SPLINE
  5
7AE6
330
7ADA
100
AcDbEntity
  8
0
100
AcDbSpline
210
0.0
220
0.0
230
1.0
 70
     8
 71
     3
 72
    14
 73
    10
 74
     0
 42
0.000000001
 43
0.0000000001
 40
0.0
 40
0.0
 40
0.0
 40
0.0
 40
0.0050538733303312
 40
0.0050538733303312
 40
0.0076267643252548
 40
0.0076267643252548
 40
0.0099758051753282
 40
0.0099758051753282
 40
0.0117460250965873
 40
0.0117460250965873
 40
0.0117460250965873
 40
0.0117460250965873
 10
31.99970086423167
 20
7.999995372887978
 30
0.0
 10
31.99943696361734
 20
8.016680675409146
 30
0.0
 10
31.99916129986308
 20
8.033946866485257
 30
0.0
 10
31.99876192961291
 20
8.05896090317346
 30
0.0
 10
31.99862825754618
 20
8.067338676268455
 30
0.0
 10
31.99840269992823
 20
8.081490007582996
 30
0.0
 10
31.99830585206758
 20
8.087570287373264
 30
0.0
 10
31.99816732097274
 20
8.096240549690037
 30
0.0
 10
31.99811640302872
 20
8.09941639115806
 30
0.0
 10
31.99807359158979
 20
8.102072931339801
 30
0.0
  0
SPLINE
  5
7AE7
330
7ADA
100
AcDbEntity
  8
0
100
AcDbSpline
210
0.0
220
0.0
230
1.0
 70
     8
 71
     3
 72
    34
 73
    30
 74
     0
 42
0.000000001
 43
0.0000000001
 40
0.001968568608334
 40
0.001968568608334
 40
0.001968568608334
 40
0.001968568608334
 40
0.0074296222243503
 40
0.0074296222243503
 40
0.0161449101990881
 40
0.0161449101990881
 40
0.0215828018072308
 40
0.0215828018072308
 40
0.0244032812529308
 40
0.0244032812529308
 40
0.0264872652002357
 40
0.0264872652002357
 40
0.0292236717641317
 40
0.0292236717641317
 40
0.0316488028911753
 40
0.0316488028911753
 40
0.0348373577522414
 40
0.0348373577522414
 40
0.0399365653291562
 40
0.0399365653291562
 40
0.0496589687419858
 40
0.0496589687419858
 40
0.0742168829112398
 40
0.0742168829112398
 40
0.1474271309767375
 40
0.1474271309767375
 40
0.2288000848171267
 40
0.2288000848171267
 40
0.2664912178141336
 40
0.2664912178141336
 40
0.2664912178141336
 40
0.2664912178141336
 10
31.9999337168534
 20
8.003839279163219
 30
0.0
 10
31.99985869732487
 20
8.008141276206245
 30
0.0
 10
31.99974809306116
 20
8.014374444656308
 30
0.0
 10
31.9993914988623
 20
8.033886376019326
 30
0.0
 10
31.9990959730348
 20
8.049575117931322
 30
0.0
 10
31.99852099970162
 20
8.079256349402406
 30
0.0
 10
31.99828147537456
 20
8.091458607749247
 30
0.0
 10
31.99788179486617
 20
8.11186497822428
 30
0.0
 10
31.99773462902236
 20
8.119387549873902
 30
0.0
 10
31.99745965029055
 20
8.133583755968068
 30
0.0
 10
31.99733531775988
 20
8.140045986678636
 30
0.0
 10
31.99704172079397
 20
8.15551836014419
 30
0.0
 10
31.9968669381735
 20
8.164896450925551
 30
0.0
 10
31.99655660086563
 20
8.182035780942234
 30
0.0
 10
31.99641577946345
 20
8.190023506933965
 30
0.0
 10
31.99611288343798
 20
8.207733254102063
 30
0.0
 10
31.9959551178265
 20
8.217375210915605
 30
0.0
 10
31.995581733116
 20
8.241233433777912
 30
0.0
 10
31.99538454159078
 20
8.254937499271841
 30
0.0
 10
31.99487987468753
 20
8.292856780343173
 30
0.0
 10
31.99462930975948
 20
8.315645054018855
 30
0.0
 10
31.9939094613561
 20
8.393422546586014
 30
0.0
 10
31.99367748944214
 20
8.444927738277666
 30
0.0
 10
31.99335831964994
 20
8.659493830868354
 30
0.0
 10
31.99487169424787
 20
8.849187976236468
 30
0.0
 10
31.99832588680222
 20
9.284820919613641
 30
0.0
 10
31.99958703322824
 20
9.541278757890124
 30
0.0
 10
31.99998855423493
 20
9.928928673249865
 30
0.0
 10
31.99999959626548
 20
10.05400897452776
 30
0.0
 10
31.99999421460053
 20
10.17922262366922
 30
0.0
  0
SPLINE
  5
7AE8
330
7ADA
100
AcDbEntity
  8
0
100
AcDbSpline
210
0.0
220
0.0
230
1.0
 70
     8
 71
     3
 72
    12
 73
     8
 74
     0
 42
0.000000001
 43
0.0000000001
 40
0.0
 40
0.0
 40
0.0
 40
0.0
 40
0.0029763424560358
 40
0.0029763424560358
 40
0.0058215424676784
 40
0.0058215424676784
 40
0.0072780894903197
 40
0.0072780894903197
 40
0.0072780894903197
 40
0.0072780894903197
 10
31.9999404887826
 20
7.999999867572534
 30
0.0
 10
31.99992879778512
 20
8.006622995112964
 30
0.0
 10
31.99991806075731
 20
8.012063995738937
 30
0.0
 10
31.99990163952717
 20
8.019572632313087
 30
0.0
 10
31.99989565396879
 20
8.021879848587524
 30
0.0
 10
31.9998911366133
 20
8.023531051702226
 30
0.0
 10
31.99989036107353
 20
8.023785860321876
 30
0.0
 10
31.99989036107362
 20
8.023785860291949
 30
0.0
  0
SPLINE
  5
7AE9
330
7ADA
100
AcDbEntity
  8
0
100
AcDbSpline
210
0.0
220
0.0
230
1.0
 70
     8
 71
     3
 72
     8
 73
     4
 74
     0
 42
0.000000001
 43
0.0000000001
 40
0.0
 40
0.0
 40
0.0
 40
0.0
 40
0.0007125878769006
 40
0.0007125878769006
 40
0.0007125878769006
 40
0.0007125878769006
 10
36.60611379963717
 20
10.56243160914643
 30
0.0
 10
36.60533754620575
 20
10.56182818123306
 30
0.0
 10
36.60453737746092
 20
10.56120654620599
 30
0.0
 10
36.60373122945512
 20
10.56058013153349
 30
0.0
  0
SPLINE
  5
7AEA
330
7ADA
100
AcDbEntity
  8
0
100
AcDbSpline
210
0.0
220
0.0
230
1.0
 70
     8
 71
     3
 72
     8
 73
     4
 74
     0
 42
0.000000001
 43
0.0000000001
 40
0.0001369350459592
 40
0.0001369350459592
 40
0.0001369350459592
 40
0.0001369350459592
 40
0.0006755746302184
 40
0.0006755746302184
 40
0.0006755746302184
 40
0.0006755746302184
 10
36.60523147098636
 20
10.56174578009896
 30
0.0
 10
36.60407905170851
 20
10.56081837544702
 30
0.0
 10
36.60288984126794
 20
10.55986229492569
 30
0.0
 10
36.60167128151292
 20
10.55888354744593
 30
0.0
  0
LINE
  5
7AEB
330
7ADA
100
AcDbEntity
  8
0
100
AcDbLine
 10
29.99999999999999
 20
-2.0
 30
0.0
 11
-29.99999999999998
 21
-2.000000000000003
 31
0.0
  0
LINE
  5
7AEC
330
7ADA
100
AcDbEntity
  8
0
100
AcDbLine
 10
-29.99999999999998
 20
0.0
 30
0.0
 11
29.99999999999998
 21
0.0
 31
0.0
  0
LINE
  5
7AED
330
7ADA
100
AcDbEntity
  8
0
100
AcDbLine
 10
-35.91278597315312
 20
10.5625
 30
0.0
 11
-34.0
 21
10.5625
 31
0.0
  0
LINE
  5
7AEE
330
7ADA
100
AcDbEntity
  8
0
100
AcDbLine
 10
-36.0
 20
10.5625
 30
0.0
 11
-35.91278597315312
 21
10.5625
 31
0.0
  0
LINE
  5
7AEF
330
7ADA
100
AcDbEntity
  8
0
100
AcDbLine
 10
-36.55219694541924
 20
10.5625
 30
0.0
 11
-36.0
 21
10.5625
 31
0.0
  0
SPLINE
  5
7AF0
330
7ADA
100
AcDbEntity
  8
0
100
AcDbSpline
210
0.0
220
0.0
230
1.0
 70
     8
 71
     3
 72
    14
 73
    10
 74
     0
 42
0.000000001
 43
0.0000000001
 40
0.0
 40
0.0
 40
0.0
 40
0.0
 40
0.3435165591370396
 40
0.3435165591370396
 40
0.3435165591370396
 40
0.7569936138332894
 40
0.7569936138332894
 40
0.7569936138332894
 40
0.9937968105057708
 40
0.9937968105057708
 40
0.9937968105057708
 40
0.9937968105057708
 10
-36.60606060606063
 20
10.56250000000002
 30
0.0
 10
-36.28490249291122
 20
10.30249193735012
 30
0.0
 10
-35.87245901694539
 20
10.0752903732622
 30
0.0
 10
-35.47646762711391
 20
9.84407810168123
 30
0.0
 10
-34.99982873097478
 20
9.565777197343196
 30
0.0
 10
-34.53730090292154
 20
9.271394502201506
 30
0.0
 10
-34.2624310701827
 20
8.857928778846231
 30
0.0
 10
-34.10500986791259
 20
8.621132071766666
 30
0.0
 10
-34.0051861188735
 20
8.37132601252509
 30
0.0
 10
-34.00019624097722
 20
8.027236404132739
 30
0.0
  0
SPLINE
  5
7AF1
330
7ADA
100
AcDbEntity
  8
0
100
AcDbSpline
210
0.0
220
0.0
230
1.0
 70
     8
 71
     3
 72
    28
 73
    24
 74
     0
 42
0.000000001
 43
0.0000000001
 40
0.0
 40
0.0
 40
0.0
 40
0.0
 40
0.0636882153113479
 40
0.0636882153113479
 40
0.1459983288283127
 40
0.1459983288283127
 40
0.1851636016514335
 40
0.1851636016514335
 40
0.2229173286476606
 40
0.2229173286476606
 40
0.2337680468541951
 40
0.2337680468541951
 40
0.2362560974920633
 40
0.2362560974920633
 40
0.2394771332582049
 40
0.2394771332582049
 40
0.2427068296023384
 40
0.2427068296023384
 40
0.2491424324298208
 40
0.2491424324298208
 40
0.2562157517575944
 40
0.2562157517575944
 40
0.2645830363726223
 40
0.2645830363726223
 40
0.2645830363726223
 40
0.2645830363726223
 10
-31.99999421460053
 20
10.17922262365698
 30
0.0
 10
-32.00000330821509
 20
9.967644111356149
 30
0.0
 10
-31.99998165304347
 20
9.755335404879231
 30
0.0
 10
-31.99858084616469
 20
9.295227930498928
 30
0.0
 10
-31.99631433730817
 20
9.050651900953219
 30
0.0
 10
-31.9940633025992
 20
8.731792619231176
 30
0.0
 10
-31.99359805607618
 20
8.63538603094318
 30
0.0
 10
-31.99354279071168
 20
8.462241745531278
 30
0.0
 10
-31.99379925444788
 20
8.387093002470034
 30
0.0
 10
-31.99516400527401
 20
8.270009559440072
 30
0.0
 10
-31.99555092628795
 20
8.241783097890845
 30
0.0
 10
-31.99622503164294
 20
8.201110027213886
 30
0.0
 10
-31.99636063739107
 20
8.193191574938587
 30
0.0
 10
-31.99668937316881
 20
8.174578944370715
 30
0.0
 10
-31.99689391032852
 20
8.163426377913761
 30
0.0
 10
-31.99729113698588
 20
8.142308247164525
 30
0.0
 10
-31.99748803498777
 20
8.132095773775647
 30
0.0
 10
-31.99801531139352
 20
8.104965163379384
 30
0.0
 10
-31.99830832771484
 20
8.090137158543761
 30
0.0
 10
-31.99888241195735
 20
8.060658814039431
 30
0.0
 10
-31.99914795811319
 20
8.046787234844742
 30
0.0
 10
-31.99962112471834
 20
8.021477385404102
 30
0.0
 10
-31.99981891458571
 20
8.010418294096272
 30
0.0
 10
-31.99993393178037
 20
8.003822629727189
 30
0.0
  0
SPLINE
  5
7AF2
330
7ADA
100
AcDbEntity
  8
0
100
AcDbSpline
210
0.0
220
0.0
230
1.0
 70
     8
 71
     3
 72
     8
 73
     4
 74
     0
 42
0.000000001
 43
0.0000000001
 40
0.0207867187856053
 40
0.0207867187856053
 40
0.0207867187856053
 40
0.0207867187856053
 40
0.0217360470006977
 40
0.0217360470006977
 40
0.0217360470006977
 40
0.0217360470006977
 10
-31.99957173053939
 20
8.008148739546324
 30
0.0
 10
-31.99956805572011
 20
8.005476822013683
 30
0.0
 10
-31.99956427498408
 20
8.002757842902953
 30
0.0
 10
-31.99956040496373
 20
8.000000985037756
 30
0.0
  0
SPLINE
  5
7AF3
330
7ADA
100
AcDbEntity
  8
0
100
AcDbSpline
210
0.0
220
0.0
230
1.0
 70
     8
 71
     3
 72
    18
 73
    14
 74
     0
 42
0.000000001
 43
0.0000000001
 40
0.0359684599153364
 40
0.0359684599153364
 40
0.0359684599153364
 40
0.0359684599153364
 40
0.0373929838835149
 40
0.0373929838835149
 40
0.0388269935297128
 40
0.0388269935297128
 40
0.0410736038980344
 40
0.0410736038980344
 40
0.0431426664193785
 40
0.0431426664193785
 40
0.0457467521898765
 40
0.0457467521898765
 40
0.0477385609387026
 40
0.0477385609387026
 40
0.0477385609387026
 40
0.0477385609387026
 10
-31.99807360884984
 20
8.102071497615666
 30
0.0
 10
-31.99810813523909
 20
8.099929062260335
 30
0.0
 10
-31.99814774201847
 20
8.09746141453062
 30
0.0
 10
-31.99823833679376
 20
8.09179802769157
 30
0.0
 10
-31.99828987694982
 20
8.088568103949175
 30
0.0
 10
-31.99843588963711
 20
8.079409516146643
 30
0.0
 10
-31.99854061020612
 20
8.072835577197771
 30
0.0
 10
-31.9987534511231
 20
8.059491667524442
 30
0.0
 10
-31.99886231649152
 20
8.052673421920838
 30
0.0
 10
-31.99910891240256
 20
8.037228033836649
 30
0.0
 10
-31.99924874566068
 20
8.028466910299425
 30
0.0
 10
-31.99949199069018
 20
8.013178435635033
 30
0.0
 10
-31.99959685696476
 20
8.006571305715374
 30
0.0
 10
-31.99970086423168
 20
7.999995372887975
 30
0.0
  0
SPLINE
  5
7AF4
330
7ADA
100
AcDbEntity
  8
0
100
AcDbSpline
210
0.0
220
0.0
230
1.0
 70
     8
 71
     3
 72
    12
 73
     8
 74
     0
 42
0.000000001
 43
0.0000000001
 40
0.0136503298581078
 40
0.0136503298581078
 40
0.0136503298581078
 40
0.0136503298581078
 40
0.0164817609442096
 40
0.0164817609442096
 40
0.0184447936344799
 40
0.0184447936344799
 40
0.0209304227851722
 40
0.0209304227851722
 40
0.0209304227851722
 40
0.0209304227851722
 10
-31.99989036107362
 20
8.023785860289613
 30
0.0
 10
-31.9998903610735
 20
8.023785860326427
 30
0.0
 10
-31.99989338767382
 20
8.022798887308535
 30
0.0
 10
-31.99990289576352
 20
8.018934746836993
 30
0.0
 10
-31.99990804271209
 20
8.016714780765969
 30
0.0
 10
-31.99992165030599
 20
8.010241478587664
 30
0.0
 10
-31.9999307252945
 20
8.005531031787199
 30
0.0
 10
-31.99994048878259
 20
7.999999867572533
 30
0.0
  0
SPLINE
  5
7AF5
330
7ADA
100
AcDbEntity
  8
0
100
AcDbSpline
210
0.0
220
0.0
230
1.0
 70
     8
 71
     3
 72
    16
 73
    12
 74
     0
 42
0.000000001
 43
0.0000000001
 40
0.0
 40
0.0
 40
0.0
 40
0.0
 40
0.0000106447544053
 40
0.0000106447544053
 40
0.0000560654037265
 40
0.0000560654037265
 40
0.0007817802368131
 40
0.0007817802368131
 40
0.0022268199321042
 40
0.0022268199321042
 40
0.0025409328920928
 40
0.0025409328920928
 40
0.0025409328920928
 40
0.0025409328920928
 10
-34.0002166662859
 20
7.999992943742551
 30
0.0
 10
-34.00021671040043
 20
8.000028125545982
 30
0.0
 10
-34.00021675488265
 20
8.000063307027447
 30
0.0
 10
-34.00021699110656
 20
8.000248604484518
 30
0.0
 10
-34.00021718918071
 20
8.000398714931257
 30
0.0
 10
-34.00022066623234
 20
8.002947137069211
 30
0.0
 10
-34.00022565612262
 20
8.005343988424604
 30
0.0
 10
-34.00024604903094
 20
8.012509218826233
 30
0.0
 10
-34.00026687344571
 20
8.01727363119684
 30
0.0
 10
-34.00030208586605
 20
8.023067933702392
 30
0.0
 10
-34.00030875705453
 20
8.024102332186794
 30
0.0
 10
-34.00031581855211
 20
8.025136536201433
 30
0.0
  0
SPLINE
  5
7AF6
330
7ADA
100
AcDbEntity
  8
0
100
AcDbSpline
210
0.0
220
0.0
230
1.0
 70
     8
 71
     3
 72
     8
 73
     4
 74
     0
 42
0.000000001
 43
0.0000000001
 40
0.0
 40
0.0
 40
0.0
 40
0.0
 40
0.0025214054164217
 40
0.0025214054164217
 40
0.0025214054164217
 40
0.0025214054164217
 10
-34.00003981901258
 20
7.99999978530649
 30
0.0
 10
-34.0000984705525
 20
8.007280779853319
 30
0.0
 10
-34.00017590892774
 20
8.014613325690618
 30
0.0
 10
-34.0002661457516
 20
8.021610644238158
 30
0.0
  0
SPLINE
  5
7AF7
330
7ADA
100
AcDbEntity
  8
0
100
AcDbSpline
210
0.0
220
0.0
230
1.0
 70
     8
 71
     3
 72
    20
 73
    16
 74
     0
 42
0.000000001
 43
0.0000000001
 40
0.0
 40
0.0
 40
0.0
 40
0.0
 40
0.0032700681970219
 40
0.0032700681970219
 40
0.0073547932689189
 40
0.0073547932689189
 40
0.0134791414611961
 40
0.0134791414611961
 40
0.0266729972771724
 40
0.0266729972771724
 40
0.0346449741510823
 40
0.0346449741510823
 40
0.0379478318725867
 40
0.0379478318725867
 40
0.0391004726366397
 40
0.0391004726366397
 40
0.0391004726366397
 40
0.0391004726366397
 10
-34.00001270427944
 20
7.999999939607908
 30
0.0
 10
-34.00006057307108
 20
8.005033400971013
 30
0.0
 10
-34.0001333335733
 20
8.011785489745429
 30
0.0
 10
-34.00035309264446
 20
8.028205493185442
 30
0.0
 10
-34.00051469332206
 20
8.038224909627667
 30
0.0
 10
-34.00100171555526
 20
8.06300909024886
 30
0.0
 10
-34.00137876475891
 20
8.077960949714849
 30
0.0
 10
-34.0025792219657
 20
8.117920178135364
 30
0.0
 10
-34.00371626252846
 20
8.147515767041314
 30
0.0
 10
-34.00702594904572
 20
8.204206261757923
 30
0.0
 10
-34.00853703922918
 20
8.225090459786629
 30
0.0
 10
-34.0101237841302
 20
8.244630918710088
 30
0.0
 10
-34.01051125424796
 20
8.249087026250478
 30
0.0
 10
-34.01073177123232
 20
8.251593078908337
 30
0.0
 10
-34.01076237536295
 20
8.251935713307519
 30
0.0
 10
-34.01076237536258
 20
8.251935713303401
 30
0.0
  0
SPLINE
  5
7AF8
330
7ADA
100
AcDbEntity
  8
0
100
AcDbSpline
210
0.0
220
0.0
230
1.0
 70
     8
 71
     3
 72
     8
 73
     4
 74
     0
 42
0.000000001
 43
0.0000000001
 40
0.0
 40
0.0
 40
0.0
 40
0.0
 40
0.0059468538502774
 40
0.0059468538502774
 40
0.0059468538502774
 40
0.0059468538502774
 10
-34.00000179638792
 20
7.999999991083922
 30
0.0
 10
-34.00000357969068
 20
8.000373323985968
 30
0.0
 10
-34.00001376180648
 20
8.002013285993649
 30
0.0
 10
-34.00001376180646
 20
8.002013285991292
 30
0.0
  0
SPLINE
  5
7AF9
330
7ADA
100
AcDbEntity
  8
0
100
AcDbSpline
210
0.0
220
0.0
230
1.0
 70
     8
 71
     3
 72
     8
 73
     4
 74
     0
 42
0.000000001
 43
0.0000000001
 40
0.2821125554042124
 40
0.2821125554042124
 40
0.2821125554042124
 40
0.2821125554042124
 40
0.2826513748671543
 40
0.2826513748671543
 40
0.2826513748671543
 40
0.2826513748671543
 10
-36.60167278154276
 20
10.5588848952291
 30
0.0
 10
-36.60289162567452
 20
10.55986387112032
 30
0.0
 10
-36.6040790336812
 20
10.56081836784467
 30
0.0
 10
-36.60523157670421
 20
10.56174587208001
 30
0.0
  0
SPLINE
  5
7AFA
330
7ADA
100
AcDbEntity
  8
0
100
AcDbSpline
210
0.0
220
0.0
230
1.0
 70
     8
 71
     3
 72
     8
 73
     4
 74
     0
 42
0.000000001
 43
0.0000000001
 40
0.0169261140527006
 40
0.0169261140527006
 40
0.0169261140527006
 40
0.0169261140527006
 40
0.0176395326809963
 40
0.0176395326809963
 40
0.0176395326809963
 40
0.0176395326809963
 10
-36.60373759838778
 20
10.56058481232496
 30
0.0
 10
-36.60454286812435
 20
10.56121054454123
 30
0.0
 10
-36.60533664123159
 20
10.56182747774288
 30
0.0
 10
-36.60611379963717
 20
10.56243160914644
 30
0.0
  0
ARC
  5
7AFB
330
7ADA
100
AcDbEntity
  8
0
100
AcDbCircle
 10
-29.99999999999998
 20
2.0
 30
0.0
 40
4.000000000000003
100
AcDbArc
 50
180.0
 51
270.0
  0
ARC
  5
7AFC
330
7ADA
100
AcDbEntity
  8
0
100
AcDbCircle
 10
-29.99999999999998
 20
2.0
 30
0.0
 40
2.000000000000001
100
AcDbArc
 50
180.0
 51
270.0
  0
ARC
  5
7AFD
330
7ADA
100
AcDbEntity
  8
0
100
AcDbCircle
 10
29.99999999999998
 20
2.0
 30
0.0
 40
4.000000000000003
100
AcDbArc
 50
270.0
 51
0.0
  0
LINE
  5
7AFE
330
7ADA
100
AcDbEntity
  8
0
100
AcDbLine
 10
36.60606060606066
 20
10.5625
 30
0.0
 11
73.50000000000007
 21
40.99999999999998
 31
0.0
  0
LINE
  5
7AFF
330
7ADA
100
AcDbEntity
  8
0
100
AcDbLine
 10
31.99999999999998
 20
8.000000000000007
 30
0.0
 11
31.99999999999999
 21
40.99999999999998
 31
0.0
  0
LINE
  5
7B00
330
7ADA
100
AcDbEntity
  8
0
100
AcDbLine
 10
33.99999999999999
 20
8.000000000000007
 30
0.0
 11
31.99999999999998
 21
8.000000000000007
 31
0.0
  0
LINE
  5
7B01
330
7ADA
100
AcDbEntity
  8
0
100
AcDbLine
 10
33.99999999999999
 20
40.99999999999998
 30
0.0
 11
33.99999999999999
 21
8.000000000000007
 31
0.0
  0
LINE
  5
7B02
330
7ADA
100
AcDbEntity
  8
0
100
AcDbLine
 10
33.99999999999999
 20
40.99999999999998
 30
0.0
 11
31.99999999999999
 21
40.99999999999998
 31
0.0
  0
LINE
  5
7B03
330
7ADA
100
AcDbEntity
  8
0
100
AcDbLine
 10
31.99999999999999
 20
40.99999999999998
 30
0.0
 11
31.99999999999999
 21
118.0
 31
0.0
  0
LINE
  5
7B04
330
7ADA
100
AcDbEntity
  8
0
100
AcDbLine
 10
33.99999999999999
 20
118.0
 30
0.0
 11
33.99999999999999
 21
40.99999999999998
 31
0.0
  0
LINE
  5
7B05
330
7ADA
100
AcDbEntity
  8
0
100
AcDbLine
 10
31.99999999999999
 20
118.0
 30
0.0
 11
33.99999999999999
 21
118.0
 31
0.0
  0
LINE
  5
7B06
330
7ADA
100
AcDbEntity
  8
0
100
AcDbLine
 10
33.99999999999999
 20
8.000000000000007
 30
0.0
 11
33.99999999999999
 21
2.0
 31
0.0
  0
LINE
  5
7B07
330
7ADA
100
AcDbEntity
  8
0
100
AcDbLine
 10
31.99999999999999
 20
2.0
 30
0.0
 11
31.99999999999998
 21
8.000000000000007
 31
0.0
  0
ARC
  5
7B08
330
7ADA
100
AcDbEntity
  8
0
100
AcDbCircle
 10
29.99999999999998
 20
2.0
 30
0.0
 40
2.000000000000001
100
AcDbArc
 50
270.0
 51
0.0
  0
LINE
  5
7B09
330
7ADA
100
AcDbEntity
  8
0
100
AcDbLine
 10
36.0
 20
118.0
 30
0.0
 11
34.0
 21
118.0
 31
0.0
  0
LINE
  5
7B0A
330
7ADA
100
AcDbEntity
  8
0
100
AcDbLine
 10
73.50000000000007
 20
40.99999999999998
 30
0.0
 11
73.5
 21
118.0
 31
0.0
  0
LINE
  5
7B0B
330
7ADA
100
AcDbEntity
  8
0
100
AcDbLine
 10
73.5
 20
118.0
 30
0.0
 11
36.0
 21
118.0
 31
0.0
  0
CIRCLE
  5
7B0C
330
7ADA
100
AcDbEntity
  8
0
100
AcDbCircle
 10
53.99999999999999
 20
98.0
 30
0.0
 40
6.5
  0
CIRCLE
  5
7B0D
330
7ADA
100
AcDbEntity
  8
0
100
AcDbCircle
 10
65.0
 20
103.0
 30
0.0
 40
2.5
  0
LINE
  5
7B0E
330
7ADA
100
AcDbEntity
  8
0
100
AcDbLine
 10
-73.50000000000007
 20
40.99999999999998
 30
0.0
 11
-36.60606060606066
 21
10.5625
 31
0.0
  0
LINE
  5
7B0F
330
7ADA
100
AcDbEntity
  8
0
100
AcDbLine
 10
-31.99999999999999
 20
40.99999999999998
 30
0.0
 11
-31.99999999999998
 21
8.000000000000007
 31
0.0
  0
LINE
  5
7B10
330
7ADA
100
AcDbEntity
  8
0
100
AcDbLine
 10
-33.99999999999999
 20
40.99999999999998
 30
0.0
 11
-31.99999999999999
 21
40.99999999999998
 31
0.0
  0
LINE
  5
7B11
330
7ADA
100
AcDbEntity
  8
0
100
AcDbLine
 10
-33.99999999999999
 20
8.000000000000007
 30
0.0
 11
-33.99999999999999
 21
40.99999999999998
 31
0.0
  0
LINE
  5
7B12
330
7ADA
100
AcDbEntity
  8
0
100
AcDbLine
 10
-31.99999999999998
 20
8.000000000000007
 30
0.0
 11
-33.99999999999999
 21
8.000000000000007
 31
0.0
  0
LINE
  5
7B13
330
7ADA
100
AcDbEntity
  8
0
100
AcDbLine
 10
-31.99999999999999
 20
118.0
 30
0.0
 11
-31.99999999999999
 21
40.99999999999998
 31
0.0
  0
LINE
  5
7B14
330
7ADA
100
AcDbEntity
  8
0
100
AcDbLine
 10
-33.99999999999999
 20
118.0
 30
0.0
 11
-31.99999999999999
 21
118.0
 31
0.0
  0
LINE
  5
7B15
330
7ADA
100
AcDbEntity
  8
0
100
AcDbLine
 10
-33.99999999999999
 20
40.99999999999998
 30
0.0
 11
-33.99999999999999
 21
118.0
 31
0.0
  0
CIRCLE
  5
7B16
330
7ADA
100
AcDbEntity
  8
0
100
AcDbCircle
 10
-53.99999999999999
 20
48.0
 30
0.0
 40
6.5
  0
CIRCLE
  5
7B17
330
7ADA
100
AcDbEntity
  8
0
100
AcDbCircle
 10
53.99999999999999
 20
48.0
 30
0.0
 40
6.5
  0
CIRCLE
  5
7B18
330
7ADA
100
AcDbEntity
  8
0
100
AcDbCircle
 10
-53.99999999999999
 20
98.0
 30
0.0
 40
6.5
  0
CIRCLE
  5
7B19
330
7ADA
100
AcDbEntity
  8
0
100
AcDbCircle
 10
-42.99999999999998
 20
33.00000000000001
 30
0.0
 40
2.5
  0
CIRCLE
  5
7B1A
330
7ADA
100
AcDbEntity
  8
0
100
AcDbCircle
 10
-42.99999999999998
 20
53.0
 30
0.0
 40
2.5
  0
CIRCLE
  5
7B1B
330
7ADA
100
AcDbEntity
  8
0
100
AcDbCircle
 10
-42.99999999999998
 20
73.0
 30
0.0
 40
2.5
  0
CIRCLE
  5
7B1C
330
7ADA
100
AcDbEntity
  8
0
100
AcDbCircle
 10
-42.99999999999998
 20
93.0
 30
0.0
 40
2.5
  0
CIRCLE
  5
7B1D
330
7ADA
100
AcDbEntity
  8
0
100
AcDbCircle
 10
42.99999999999998
 20
33.00000000000001
 30
0.0
 40
2.5
  0
CIRCLE
  5
7B1E
330
7ADA
100
AcDbEntity
  8
0
100
AcDbCircle
 10
42.99999999999998
 20
53.0
 30
0.0
 40
2.5
  0
CIRCLE
  5
7B1F
330
7ADA
100
AcDbEntity
  8
0
100
AcDbCircle
 10
42.99999999999998
 20
73.0
 30
0.0
 40
2.5
  0
CIRCLE
  5
7B20
330
7ADA
100
AcDbEntity
  8
0
100
AcDbCircle
 10
42.99999999999998
 20
93.0
 30
0.0
 40
2.5
  0
CIRCLE
  5
7B21
330
7ADA
100
AcDbEntity
  8
0
100
AcDbCircle
 10
-42.99999999999998
 20
113.0
 30
0.0
 40
2.5
  0
CIRCLE
  5
7B22
330
7ADA
100
AcDbEntity
  8
0
100
AcDbCircle
 10
42.99999999999998
 20
113.0
 30
0.0
 40
2.5
  0
CIRCLE
  5
7B23
330
7ADA
100
AcDbEntity
  8
0
100
AcDbCircle
 10
-65.0
 20
43.0
 30
0.0
 40
2.5
  0
CIRCLE
  5
7B24
330
7ADA
100
AcDbEntity
  8
0
100
AcDbCircle
 10
-65.0
 20
63.0
 30
0.0
 40
2.5
  0
CIRCLE
  5
7B25
330
7ADA
100
AcDbEntity
  8
0
100
AcDbCircle
 10
-65.0
 20
83.0
 30
0.0
 40
2.5
  0
CIRCLE
  5
7B26
330
7ADA
100
AcDbEntity
  8
0
100
AcDbCircle
 10
65.0
 20
43.0
 30
0.0
 40
2.5
  0
CIRCLE
  5
7B27
330
7ADA
100
AcDbEntity
  8
0
100
AcDbCircle
 10
65.0
 20
63.0
 30
0.0
 40
2.5
  0
CIRCLE
  5
7B28
330
7ADA
100
AcDbEntity
  8
0
100
AcDbCircle
 10
65.0
 20
83.0
 30
0.0
 40
2.5
  0
CIRCLE
  5
7B29
330
7ADA
100
AcDbEntity
  8
0
100
AcDbCircle
 10
-65.0
 20
103.0
 30
0.0
 40
2.5
  0
LINE
  5
7B2A
330
7ADA
100
AcDbEntity
  8
0
100
AcDbLine
 10
-73.5
 20
118.0
 30
0.0
 11
-36.0
 21
118.0
 31
0.0
  0
LINE
  5
7B2B
330
7ADA
100
AcDbEntity
  8
0
100
AcDbLine
 10
-73.50000000000007
 20
40.99999999999998
 30
0.0
 11
-73.5
 21
118.0
 31
0.0
  0
LINE
  5
7B2C
330
7ADA
100
AcDbEntity
  8
0
100
AcDbLine
 10
-31.99999999999999
 20
2.0
 30
0.0
 11
-31.99999999999998
 21
8.000000000000007
 31
0.0
  0
LINE
  5
7B2D
330
7ADA
100
AcDbEntity
  8
0
100
AcDbLine
 10
-33.99999999999999
 20
8.000000000000007
 30
0.0
 11
-33.99999999999999
 21
2.0
 31
0.0
  0
LINE
  5
7B2E
330
7ADA
100
AcDbEntity
  8
0
100
AcDbLine
 10
-36.0
 20
118.0
 30
0.0
 11
-34.0
 21
118.0
 31
0.0
  0
ENDBLK
  5
7ADC
330
7ADA
100
AcDbEntity
  8
0
100
AcDbBlockEnd
  0
BLOCK
  5
7B30
330
7B2F
100
AcDbEntity
  8
0
100
AcDbBlockBegin
  2
SAE300_64_2-Left
 70
     0
 10
0.0
 20
0.0
 30
0.0
  3
SAE300_64_2-Left
  1

  0
LINE
  5
7B32
330
7B2F
100
AcDbEntity
  8
0
100
AcDbLine
 10
2.000000000000001
 20
-2.0
 30
0.0
 11
86.00000000000001
 21
-2.000000000000003
 31
0.0
  0
LINE
  5
7B33
330
7B2F
100
AcDbEntity
  8
0
100
AcDbLine
 10
2.000000000000006
 20
2.000000000000004
 30
0.0
 11
2.000000000000001
 21
-1.999999999999999
 31
0.0
  0
LINE
  5
7B34
330
7B2F
100
AcDbEntity
  8
0
100
AcDbLine
 10
86.00000000000001
 20
-2.000000000000003
 30
0.0
 11
86.00000000000001
 21
2.0
 31
0.0
  0
SPLINE
  5
7B35
330
7B2F
100
AcDbEntity
  8
0
100
AcDbSpline
210
0.0
220
0.0
230
1.0
 70
     8
 71
     3
 72
    14
 73
    10
 74
     0
 42
0.000000001
 43
0.0000000001
 40
-0.4813026532952223
 40
-0.4813026532952223
 40
-0.4813026532952223
 40
-0.4813026532952223
 40
-0.3760960081004403
 40
-0.3760960081004403
 40
-0.3760960081004403
 40
-0.07652849726743
 40
-0.07652849726743
 40
-0.07652849726743
 40
0.0
 40
0.0
 40
0.0
 40
0.0
 10
0.9454120927383163
 20
9.731760115227118
 30
0.0
 10
0.840829787994023
 20
9.768676186083107
 30
0.0
 10
0.737112935756069
 20
9.800540904832002
 30
0.0
 10
0.6388614064422973
 20
9.834236663210463
 30
0.0
 10
0.3590980320131417
 20
9.930182641189112
 30
0.0
 10
0.1217220476570103
 20
10.04001612967633
 30
0.0
 10
0.0342615816141647
 20
10.31443386955932
 30
0.0
 10
0.0119186445648293
 20
10.38453752398557
 30
0.0
 10
0.0000045452574084
 20
10.46769665104443
 30
0.0
 10
0.00000000011521
 20
10.56250000004006
 30
0.0
  0
LINE
  5
7B36
330
7B2F
100
AcDbEntity
  8
0
100
AcDbLine
 10
2.000000000000007
 20
10.5625
 30
0.0
 11
2.001902476473902
 21
10.5625
 31
0.0
  0
SPLINE
  5
7B37
330
7B2F
100
AcDbEntity
  8
0
100
AcDbSpline
210
0.0
220
0.0
230
1.0
 70
     8
 71
     3
 72
    14
 73
    10
 74
     0
 42
0.000000001
 43
0.0000000001
 40
0.0
 40
0.0
 40
0.0
 40
0.0
 40
0.3435165591370396
 40
0.3435165591370396
 40
0.3435165591370396
 40
0.7569936138332894
 40
0.7569936138332894
 40
0.7569936138332894
 40
1.0
 40
1.0
 40
1.0
 40
1.0
 10
2.000000000000011
 20
10.56250000000002
 30
0.0
 10
2.000036880260037
 20
10.30249193735012
 30
0.0
 10
1.996833903329515
 20
10.0752903732622
 30
0.0
 10
1.998675521249966
 20
9.84407810168123
 30
0.0
 10
2.000892202610354
 20
9.565777197343196
 30
0.0
 10
2.001068608701054
 20
9.271394502201506
 30
0.0
 10
2.001123034011847
 20
8.857928778846231
 30
0.0
 10
2.001155020546388
 20
8.614929052270879
 30
0.0
 10
2.000250549242019
 20
8.35822947221164
 30
0.0
 10
1.999999999992486
 20
8.000000001652878
 30
0.0
  0
LINE
  5
7B38
330
7B2F
100
AcDbEntity
  8
0
100
AcDbLine
 10
0.0
 20
10.5625
 30
0.0
 11
2.000000000000006
 21
10.5625
 31
0.0
  0
SPLINE
  5
7B39
330
7B2F
100
AcDbEntity
  8
0
100
AcDbSpline
210
0.0
220
0.0
230
1.0
 70
     8
 71
     3
 72
    18
 73
    14
 74
     0
 42
0.000000001
 43
0.0000000001
 40
0.0
 40
0.0
 40
0.0
 40
0.0
 40
0.0045852969218598
 40
0.0045852969218598
 40
0.0065400840544489
 40
0.0065400840544489
 40
0.0081563835287001
 40
0.0081563835287001
 40
0.0096016089304437
 40
0.0096016089304437
 40
0.0108226891108522
 40
0.0108226891108522
 40
0.0118646457912975
 40
0.0118646457912975
 40
0.0118646457912975
 40
0.0118646457912975
 10
1.999557272902084
 20
7.999998499395946
 30
0.0
 10
1.999513512458574
 20
8.014758380800104
 30
0.0
 10
1.999424163679267
 20
8.029190755744931
 30
0.0
 10
1.999253402731398
 20
8.046755702756861
 30
0.0
 10
1.999196850486768
 20
8.051669876505226
 30
0.0
 10
1.999091149901678
 20
8.059727332799507
 30
0.0
 10
1.999042050549811
 20
8.063059249249054
 30
0.0
 10
1.998954621959901
 20
8.068519133181972
 30
0.0
 10
1.998915397044708
 20
8.070757002778963
 30
0.0
 10
1.998855183908512
 20
8.074013635810718
 30
0.0
 10
1.998832157097531
 20
8.075177814663161
 30
0.0
 10
1.998803973819215
 20
8.076564602692512
 30
0.0
 10
1.998796572755351
 20
8.07690723965398
 30
0.0
 10
1.998796572807141
 20
8.076907237251459
 30
0.0
  0
SPLINE
  5
7B3A
330
7B2F
100
AcDbEntity
  8
0
100
AcDbSpline
210
0.0
220
0.0
230
1.0
 70
     8
 71
     3
 72
    12
 73
     8
 74
     0
 42
0.000000001
 43
0.0000000001
 40
0.0059633252758272
 40
0.0059633252758272
 40
0.0059633252758272
 40
0.0059633252758272
 40
0.0066536742788925
 40
0.0066536742788925
 40
0.0086398635144563
 40
0.0086398635144563
 40
0.0087253466674619
 40
0.0087253466674619
 40
0.0087253466674619
 40
0.0087253466674619
 10
1.99942047933921
 20
8.027655359939354
 30
0.0
 10
1.999406074172401
 20
8.028279873736778
 30
0.0
 10
1.99939302941844
 20
8.028836447282323
 30
0.0
 10
1.999348675823859
 20
8.030709567818458
 30
0.0
 10
1.999329089674796
 20
8.031494456201809
 30
0.0
 10
1.999327499326711
 20
8.03155858685576
 30
0.0
 10
1.99932746637594
 20
8.031559914269339
 30
0.0
 10
1.999327466390054
 20
8.031559913700759
 30
0.0
  0
SPLINE
  5
7B3B
330
7B2F
100
AcDbEntity
  8
0
100
AcDbSpline
210
0.0
220
0.0
230
1.0
 70
     8
 71
     3
 72
    32
 73
    28
 74
     0
 42
0.000000001
 43
0.0000000001
 40
0.0044269611897876
 40
0.0044269611897876
 40
0.0044269611897876
 40
0.0044269611897876
 40
0.0070666150210556
 40
0.0070666150210556
 40
0.009735924159472
 40
0.009735924159472
 40
0.0112195602962723
 40
0.0112195602962723
 40
0.0132974512235579
 40
0.0132974512235579
 40
0.0162697048017858
 40
0.0162697048017858
 40
0.0233581017400974
 40
0.0233581017400974
 40
0.0446188967129745
 40
0.0446188967129745
 40
0.0765645802028828
 40
0.0765645802028828
 40
0.1066779004815812
 40
0.1066779004815812
 40
0.1471724918249309
 40
0.1471724918249309
 40
0.1805118329405459
 40
0.1805118329405459
 40
0.2202828903783148
 40
0.2202828903783148
 40
0.244479975698886
 40
0.244479975698886
 40
0.244479975698886
 40
0.244479975698886
 10
1.999453047720094
 20
8.022795421660992
 30
0.0
 10
1.999343127804054
 20
8.026925276679191
 30
0.0
 10
1.999228376887534
 20
8.030997391436342
 30
0.0
 10
1.998950736162395
 20
8.040210899435788
 30
0.0
 10
1.998783229287966
 20
8.045517514781492
 30
0.0
 10
1.998427362277023
 20
8.055778529739914
 30
0.0
 10
1.998279948739232
 20
8.059864723321561
 30
0.0
 10
1.997885574300321
 20
8.070238152435097
 30
0.0
 10
1.99762018868357
 20
8.076799584526629
 30
0.0
 10
1.996919491644622
 20
8.092944241614297
 30
0.0
 10
1.996456080842047
 20
8.102725347226343
 30
0.0
 10
1.994744211009628
 20
8.135838145364125
 30
0.0
 10
1.993288976714999
 20
8.159383651407777
 30
0.0
 10
1.986467949211431
 20
8.253258159215974
 30
0.0
 10
1.979100551780885
 20
8.323357331108292
 30
0.0
 10
1.954117793835961
 20
8.497525775608922
 30
0.0
 10
1.933095165848594
 20
8.601916931324433
 30
0.0
 10
1.876943755533116
 20
8.800895089443189
 30
0.0
 10
1.842238043204535
 20
8.896543334623398
 30
0.0
 10
1.742828774440669
 20
9.107265107409901
 30
0.0
 10
1.669688387858493
 20
9.220046118331108
 30
0.0
 10
1.522666365903084
 20
9.38942910422908
 30
0.0
 10
1.450190934783329
 20
9.45467612380008
 30
0.0
 10
1.289829446024796
 20
9.5732652623602
 30
0.0
 10
1.200070171111236
 20
9.623718701992046
 30
0.0
 10
1.054254702985718
 20
9.690647999617254
 30
0.0
 10
0.9985808401182545
 20
9.712738220806683
 30
0.0
 10
0.9420912521099884
 20
9.732597129644794
 30
0.0
  0
LINE
  5
7B3C
330
7B2F
100
AcDbEntity
  8
0
100
AcDbLine
 10
2.000000000000006
 20
2.000000000000003
 30
0.0
 11
2.000000000000006
 21
8.000000000000007
 31
0.0
  0
LINE
  5
7B3D
330
7B2F
100
AcDbEntity
  8
0
100
AcDbLine
 10
1.999999999999992
 20
40.99999999999998
 30
0.0
 11
2.000000000000006
 21
10.5625
 31
0.0
  0
LINE
  5
7B3E
330
7B2F
100
AcDbEntity
  8
0
100
AcDbLine
 10
0.0
 20
40.99999999999998
 30
0.0
 11
1.999999999999992
 21
40.99999999999998
 31
0.0
  0
LINE
  5
7B3F
330
7B2F
100
AcDbEntity
  8
0
100
AcDbLine
 10
0.0
 20
10.5625
 30
0.0
 11
0.0
 21
40.99999999999998
 31
0.0
  0
LINE
  5
7B40
330
7B2F
100
AcDbEntity
  8
0
100
AcDbLine
 10
86.00000000000003
 20
8.000000000000007
 30
0.0
 11
46.00000000000003
 21
40.99999999999998
 31
0.0
  0
LINE
  5
7B41
330
7B2F
100
AcDbEntity
  8
0
100
AcDbLine
 10
46.00000000000003
 20
40.99999999999998
 30
0.0
 11
46.00000000000001
 21
118.0
 31
0.0
  0
LINE
  5
7B42
330
7B2F
100
AcDbEntity
  8
0
100
AcDbLine
 10
1.999999999999992
 20
40.99999999999998
 30
0.0
 11
2.000000000000019
 21
118.0
 31
0.0
  0
LINE
  5
7B43
330
7B2F
100
AcDbEntity
  8
0
100
AcDbLine
 10
86.00000000000003
 20
8.000000000000007
 30
0.0
 11
86.00000000000001
 21
2.0
 31
0.0
  0
LINE
  5
7B44
330
7B2F
100
AcDbEntity
  8
0
100
AcDbLine
 10
4.000000000000003
 20
118.0
 30
0.0
 11
46.00000000000001
 21
118.0
 31
0.0
  0
LINE
  5
7B45
330
7B2F
100
AcDbEntity
  8
0
100
AcDbLine
 10
0.0
 20
118.0
 30
0.0
 11
2.000000000000019
 21
118.0
 31
0.0
  0
LINE
  5
7B46
330
7B2F
100
AcDbEntity
  8
0
100
AcDbLine
 10
0.0
 20
40.99999999999998
 30
0.0
 11
0.0
 21
118.0
 31
0.0
  0
LINE
  5
7B47
330
7B2F
100
AcDbEntity
  8
0
100
AcDbLine
 10
2.000000000000006
 20
118.0
 30
0.0
 11
4.000000000000003
 21
118.0
 31
0.0
  0
CIRCLE
  5
7B48
330
7B2F
100
AcDbEntity
  8
0
100
AcDbCircle
 10
38.50000000000001
 20
32.99999999999997
 30
0.0
 40
2.5
  0
CIRCLE
  5
7B49
330
7B2F
100
AcDbEntity
  8
0
100
AcDbCircle
 10
38.50000000000001
 20
52.99999999999997
 30
0.0
 40
2.5
  0
CIRCLE
  5
7B4A
330
7B2F
100
AcDbEntity
  8
0
100
AcDbCircle
 10
38.50000000000001
 20
72.99999999999997
 30
0.0
 40
2.5
  0
CIRCLE
  5
7B4B
330
7B2F
100
AcDbEntity
  8
0
100
AcDbCircle
 10
38.50000000000001
 20
92.99999999999997
 30
0.0
 40
2.5
  0
CIRCLE
  5
7B4C
330
7B2F
100
AcDbEntity
  8
0
100
AcDbCircle
 10
38.50000000000001
 20
112.9999999999999
 30
0.0
 40
2.5
  0
SPLINE
  5
7B4D
330
7B2F
100
AcDbEntity
  8
0
100
AcDbSpline
210
0.0
220
0.0
230
1.0
 70
     8
 71
     3
 72
     8
 73
     4
 74
     0
 42
0.000000001
 43
0.0000000001
 40
0.0
 40
0.0
 40
0.0
 40
0.0
 40
0.0024158823056641
 40
0.0024158823056641
 40
0.0024158823056641
 40
0.0024158823056641
 10
1.999557272902084
 20
7.999998499395946
 30
0.0
 10
1.999534216580331
 20
8.007775124754276
 30
0.0
 10
1.999499214231602
 20
8.015464390779719
 30
0.0
 10
1.999453047720111
 20
8.022795421659768
 30
0.0
  0
ENDBLK
  5
7B31
330
7B2F
100
AcDbEntity
  8
0
100
AcDbBlockEnd
  0
BLOCK
  5
7B4F
330
7B4E
100
AcDbEntity
  8
0
100
AcDbBlockBegin
  2
SAE300_64_2-Right
 70
     0
 10
0.0
 20
0.0
 30
0.0
  3
SAE300_64_2-Right
  1

  0
SPLINE
  5
7B51
330
7B4E
100
AcDbEntity
  8
0
100
AcDbSpline
210
0.0
220
0.0
230
1.0
 70
     8
 71
     3
 72
    14
 73
    10
 74
     0
 42
0.000000001
 43
0.0000000001
 40
0.0
 40
0.0
 40
0.0
 40
0.0
 40
0.3435165591370396
 40
0.3435165591370396
 40
0.3435165591370396
 40
0.7569936138332894
 40
0.7569936138332894
 40
0.7569936138332894
 40
1.0
 40
1.0
 40
1.0
 40
1.0
 10
-2.000000000000011
 20
10.56250000000002
 30
0.0
 10
-2.000036880260037
 20
10.30249193735012
 30
0.0
 10
-1.996833903329515
 20
10.0752903732622
 30
0.0
 10
-1.998675521249966
 20
9.84407810168123
 30
0.0
 10
-2.000892202610354
 20
9.565777197343196
 30
0.0
 10
-2.001068608701054
 20
9.271394502201506
 30
0.0
 10
-2.001123034011847
 20
8.857928778846231
 30
0.0
 10
-2.001155020546388
 20
8.614929052270879
 30
0.0
 10
-2.000250549242019
 20
8.35822947221164
 30
0.0
 10
-1.999999999992486
 20
8.000000001652878
 30
0.0
  0
LINE
  5
7B52
330
7B4E
100
AcDbEntity
  8
0
100
AcDbLine
 10
-2.001902476473903
 20
10.5625
 30
0.0
 11
-2.000000000000007
 21
10.5625
 31
0.0
  0
SPLINE
  5
7B53
330
7B4E
100
AcDbEntity
  8
0
100
AcDbSpline
210
0.0
220
0.0
230
1.0
 70
     8
 71
     3
 72
    14
 73
    10
 74
     0
 42
0.000000001
 43
0.0000000001
 40
-0.4813026532952214
 40
-0.4813026532952214
 40
-0.4813026532952214
 40
-0.4813026532952214
 40
-0.3760960081004403
 40
-0.3760960081004403
 40
-0.3760960081004403
 40
-0.07652849726743
 40
-0.07652849726743
 40
-0.07652849726743
 40
0.0
 40
0.0
 40
0.0
 40
0.0
 10
-0.9454120927383137
 20
9.731760115227119
 30
0.0
 10
-0.8408297879940212
 20
9.768676186083109
 30
0.0
 10
-0.737112935756068
 20
9.800540904832002
 30
0.0
 10
-0.6388614064422973
 20
9.834236663210463
 30
0.0
 10
-0.3590980320131417
 20
9.930182641189112
 30
0.0
 10
-0.1217220476570103
 20
10.04001612967633
 30
0.0
 10
-0.0342615816141647
 20
10.31443386955932
 30
0.0
 10
-0.0119186445648293
 20
10.38453752398557
 30
0.0
 10
-0.0000045452574084
 20
10.46769665104443
 30
0.0
 10
-0.00000000011521
 20
10.56250000004006
 30
0.0
  0
LINE
  5
7B54
330
7B4E
100
AcDbEntity
  8
0
100
AcDbLine
 10
-2.000000000000006
 20
10.5625
 30
0.0
 11
0.0
 21
10.5625
 31
0.0
  0
SPLINE
  5
7B55
330
7B4E
100
AcDbEntity
  8
0
100
AcDbSpline
210
0.0
220
0.0
230
1.0
 70
     8
 71
     3
 72
    16
 73
    12
 74
     0
 42
0.000000001
 43
0.0000000001
 40
0.0119733517146831
 40
0.0119733517146831
 40
0.0119733517146831
 40
0.0119733517146831
 40
0.0132101282864614
 40
0.0132101282864614
 40
0.0147921455710148
 40
0.0147921455710148
 40
0.0179906735426724
 40
0.0179906735426724
 40
0.0208195516985573
 40
0.0208195516985573
 40
0.0238392197899029
 40
0.0238392197899029
 40
0.0238392197899029
 40
0.0238392197899029
 10
-1.998796572807086
 20
8.076907237254006
 30
0.0
 10
-1.998796572804549
 20
8.076907237371736
 30
0.0
 10
-1.998806931013788
 20
8.076428115511362
 30
0.0
 10
-1.998847483380587
 20
8.074406279134128
 30
0.0
 10
-1.998882572417716
 20
8.072590416553046
 30
0.0
 10
-1.999004828699601
 20
8.065630139846932
 30
0.0
 10
-1.999108828344277
 20
8.058879214052197
 30
0.0
 10
-1.999282360814075
 20
8.04425783079394
 30
0.0
 10
-1.999357578437101
 20
8.036406215531542
 30
0.0
 10
-1.999481031817794
 20
8.01923591442304
 30
0.0
 10
-1.999528454263471
 20
8.009718686260118
 30
0.0
 10
-1.999557272902085
 20
7.999998499395947
 30
0.0
  0
SPLINE
  5
7B56
330
7B4E
100
AcDbEntity
  8
0
100
AcDbSpline
210
0.0
220
0.0
230
1.0
 70
     8
 71
     3
 72
    12
 73
     8
 74
     0
 42
0.000000001
 43
0.0000000001
 40
0.0086744412316356
 40
0.0086744412316356
 40
0.0086744412316356
 40
0.0086744412316356
 40
0.0108228418474442
 40
0.0108228418474442
 40
0.0138868148040217
 40
0.0138868148040217
 40
0.017394767410361
 40
0.017394767410361
 40
0.017394767410361
 40
0.017394767410361
 10
-1.999327466389927
 20
8.031559913705878
 30
0.0
 10
-1.999327466386538
 20
8.031559913842459
 30
0.0
 10
-1.999348975124149
 20
8.030701111345091
 30
0.0
 10
-1.999438185388666
 20
8.026922866595004
 30
0.0
 10
-1.999521954743654
 20
8.023252879059107
 30
0.0
 10
-1.99971901179896
 20
8.013478748622373
 30
0.0
 10
-1.999835263853096
 20
8.007056344338149
 30
0.0
 10
-1.999939280471773
 20
7.999998685725628
 30
0.0
  0
SPLINE
  5
7B57
330
7B4E
100
AcDbEntity
  8
0
100
AcDbSpline
210
0.0
220
0.0
230
1.0
 70
     8
 71
     3
 72
    28
 73
    24
 74
     0
 42
0.000000001
 43
0.0000000001
 40
0.0
 40
0.0
 40
0.0
 40
0.0
 40
0.0650016965085449
 40
0.0650016965085449
 40
0.1023228294609164
 40
0.1023228294609164
 40
0.1414747326726692
 40
0.1414747326726692
 40
0.1748987385477092
 40
0.1748987385477092
 40
0.2169239990980968
 40
0.2169239990980968
 40
0.2285713936686832
 40
0.2285713936686832
 40
0.2316497790383969
 40
0.2316497790383969
 40
0.2332712167235985
 40
0.2332712167235985
 40
0.2348988842809138
 40
0.2348988842809138
 40
0.2381770016364752
 40
0.2381770016364752
 40
0.239809312055753
 40
0.239809312055753
 40
0.239809312055753
 40
0.239809312055753
 10
-0.9420912521099866
 20
9.732597129644798
 30
0.0
 10
-1.093841721513988
 20
9.679249267776986
 30
0.0
 10
-1.242353898724063
 20
9.609887993428781
 30
0.0
 10
-1.466451771005762
 20
9.441716173715983
 30
0.0
 10
-1.54740794319853
 20
9.365941461106842
 30
0.0
 10
-1.69544655465874
 20
9.182414138254092
 30
0.0
 10
-1.763061289549159
 20
9.0704074111618
 30
0.0
 10
-1.860492149634507
 20
8.850774613090322
 30
0.0
 10
-1.895809632778
 20
8.743215210281324
 30
0.0
 10
-1.955911122107747
 20
8.499569025521601
 30
0.0
 10
-1.976606287622597
 20
8.361743260361036
 30
0.0
 10
-1.991712579949749
 20
8.184278268136832
 30
0.0
 10
-1.994301896794109
 20
8.145447913603241
 30
0.0
 10
-1.99672781740809
 20
8.097091095910663
 30
0.0
 10
-1.997190140006243
 20
8.086970879990371
 30
0.0
 10
-1.997805613579082
 20
8.07220206192767
 30
0.0
 10
-1.998002494733322
 20
8.067208274015918
 30
0.0
 10
-1.998352537520371
 20
8.05789030565522
 30
0.0
 10
-1.998506821223875
 20
8.053537727500099
 30
0.0
 10
-1.998900005509591
 20
8.041979610573113
 30
0.0
 10
-1.999076487665951
 20
8.036165536795682
 30
0.0
 10
-1.999306259647478
 20
8.028196030521606
 30
0.0
 10
-1.999380800892759
 20
8.025504505434934
 30
0.0
 10
-1.999453071716006
 20
8.022785010065373
 30
0.0
  0
LINE
  5
7B58
330
7B4E
100
AcDbEntity
  8
0
100
AcDbLine
 10
-2.000000000000001
 20
-2.0
 30
0.0
 11
-86.00000000000001
 21
-2.0
 31
0.0
  0
LINE
  5
7B59
330
7B4E
100
AcDbEntity
  8
0
100
AcDbLine
 10
-2.000000000000006
 20
2.000000000000003
 30
0.0
 11
-2.000000000000006
 21
8.000000000000007
 31
0.0
  0
LINE
  5
7B5A
330
7B4E
100
AcDbEntity
  8
0
100
AcDbLine
 10
-2.000000000000006
 20
2.000000000000004
 30
0.0
 11
-2.000000000000001
 21
-1.999999999999999
 31
0.0
  0
LINE
  5
7B5B
330
7B4E
100
AcDbEntity
  8
0
100
AcDbLine
 10
-86.00000000000001
 20
-2.000000000000003
 30
0.0
 11
-86.00000000000001
 21
2.0
 31
0.0
  0
LINE
  5
7B5C
330
7B4E
100
AcDbEntity
  8
0
100
AcDbLine
 10
0.0
 20
40.99999999999998
 30
0.0
 11
0.0
 21
10.5625
 31
0.0
  0
LINE
  5
7B5D
330
7B4E
100
AcDbEntity
  8
0
100
AcDbLine
 10
-1.999999999999992
 20
40.99999999999998
 30
0.0
 11
0.0
 21
40.99999999999998
 31
0.0
  0
LINE
  5
7B5E
330
7B4E
100
AcDbEntity
  8
0
100
AcDbLine
 10
-2.000000000000006
 20
10.5625
 30
0.0
 11
-1.999999999999992
 21
40.99999999999998
 31
0.0
  0
LINE
  5
7B5F
330
7B4E
100
AcDbEntity
  8
0
100
AcDbLine
 10
0.0
 20
40.99999999999998
 30
0.0
 11
0.0
 21
118.0
 31
0.0
  0
CIRCLE
  5
7B60
330
7B4E
100
AcDbEntity
  8
0
100
AcDbCircle
 10
-38.50000000000002
 20
103.0
 30
0.0
 40
2.5
  0
LINE
  5
7B61
330
7B4E
100
AcDbEntity
  8
0
100
AcDbLine
 10
-46.00000000000003
 20
40.99999999999998
 30
0.0
 11
-86.00000000000003
 21
8.000000000000007
 31
0.0
  0
LINE
  5
7B62
330
7B4E
100
AcDbEntity
  8
0
100
AcDbLine
 10
-46.00000000000001
 20
118.0
 30
0.0
 11
-46.00000000000003
 21
40.99999999999998
 31
0.0
  0
LINE
  5
7B63
330
7B4E
100
AcDbEntity
  8
0
100
AcDbLine
 10
-86.00000000000003
 20
8.000000000000007
 30
0.0
 11
-86.00000000000001
 21
2.0
 31
0.0
  0
LINE
  5
7B64
330
7B4E
100
AcDbEntity
  8
0
100
AcDbLine
 10
-4.000000000000003
 20
118.0
 30
0.0
 11
-46.00000000000001
 21
118.0
 31
0.0
  0
LINE
  5
7B65
330
7B4E
100
AcDbEntity
  8
0
100
AcDbLine
 10
-2.000000000000006
 20
118.0
 30
0.0
 11
-4.000000000000003
 21
118.0
 31
0.0
  0
LINE
  5
7B66
330
7B4E
100
AcDbEntity
  8
0
100
AcDbLine
 10
0.0
 20
118.0
 30
0.0
 11
-2.000000000000019
 21
118.0
 31
0.0
  0
LINE
  5
7B67
330
7B4E
100
AcDbEntity
  8
0
100
AcDbLine
 10
-1.999999999999992
 20
40.99999999999998
 30
0.0
 11
-2.000000000000019
 21
118.0
 31
0.0
  0
CIRCLE
  5
7B68
330
7B4E
100
AcDbEntity
  8
0
100
AcDbCircle
 10
-38.50000000000002
 20
22.99999999999999
 30
0.0
 40
2.5
  0
CIRCLE
  5
7B69
330
7B4E
100
AcDbEntity
  8
0
100
AcDbCircle
 10
-38.50000000000002
 20
42.99999999999998
 30
0.0
 40
2.5
  0
CIRCLE
  5
7B6A
330
7B4E
100
AcDbEntity
  8
0
100
AcDbCircle
 10
-38.50000000000002
 20
62.99999999999998
 30
0.0
 40
2.5
  0
CIRCLE
  5
7B6B
330
7B4E
100
AcDbEntity
  8
0
100
AcDbCircle
 10
-38.50000000000002
 20
82.99999999999998
 30
0.0
 40
2.5
  0
SPLINE
  5
7B6C
330
7B4E
100
AcDbEntity
  8
0
100
AcDbSpline
210
0.0
220
0.0
230
1.0
 70
     8
 71
     3
 72
     8
 73
     4
 74
     0
 42
0.000000001
 43
0.0000000001
 40
0.015868242682029
 40
0.015868242682029
 40
0.015868242682029
 40
0.015868242682029
 40
0.017394767410361
 40
0.017394767410361
 40
0.017394767410361
 40
0.017394767410361
 10
-1.999798457838186
 20
8.008804492539415
 30
0.0
 10
-1.999846435520591
 20
8.006020828469109
 30
0.0
 10
-1.999894016479243
 20
8.003069904640236
 30
0.0
 10
-1.999939280471773
 20
7.999998685725628
 30
0.0
  0
ENDBLK
  5
7B50
330
7B4E
100
AcDbEntity
  8
0
100
AcDbBlockEnd
  0
BLOCK
  5
7B6E
330
7B6D
100
AcDbEntity
  8
0
100
AcDbBlockBegin
  2
SAE300_64_2-Top
 70
     0
 10
0.0
 20
0.0
 30
0.0
  3
SAE300_64_2-Top
  1

  0
LINE
  5
7B70
330
7B6D
100
AcDbEntity
  8
0
100
AcDbLine
 10
32.00000000000001
 20
-2.000000000000003
 30
0.0
 11
32.00000000000001
 21
-2.070206720566178
 31
0.0
  0
SPLINE
  5
7B71
330
7B6D
100
AcDbEntity
  8
0
100
AcDbSpline
210
0.0
220
0.0
230
1.0
 70
     8
 71
     3
 72
    11
 73
     7
 74
     0
 42
0.000000001
 43
0.0000000001
 40
-1.0
 40
-1.0
 40
-1.0
 40
-1.0
 40
-0.7994286890821031
 40
-0.7994286890821031
 40
-0.7994286890821031
 40
-0.6533573777220677
 40
-0.6533573777220677
 40
-0.6533573777220677
 40
-0.6533573777220677
 10
32.00000000000002
 20
-1.999999999999996
 30
0.0
 10
31.9999996127031
 20
-1.999093543230907
 30
0.0
 10
32.12633150599513
 20
-1.919863896641567
 30
0.0
 10
32.33607694560775
 20
-1.790687786220163
 30
0.0
 10
32.48882955651602
 20
-1.696611899896783
 30
0.0
 10
32.68837056419117
 20
-1.577391377859426
 30
0.0
 10
32.91982716790682
 20
-1.445337717162794
 30
0.0
  0
SPLINE
  5
7B72
330
7B6D
100
AcDbEntity
  8
0
100
AcDbSpline
210
0.0
220
0.0
230
1.0
 70
     8
 71
     3
 72
    10
 73
     6
 74
     0
 42
0.000000001
 43
0.0000000001
 40
0.0
 40
0.0
 40
0.0
 40
0.0
 40
0.0670802812295239
 40
0.0670802812295239
 40
0.1015708345173897
 40
0.1015708345173897
 40
0.1015708345173897
 40
0.1015708345173897
 10
36.58965563954042
 20
-2.000030532383778
 30
0.0
 10
36.39102479396521
 20
-2.000299600803307
 30
0.0
 10
36.18820817308788
 20
-2.001403298836827
 30
0.0
 10
35.87427557771906
 20
-2.013524988397403
 30
0.0
 10
35.76384558116884
 20
-2.019749680320115
 30
0.0
 10
35.65225355539271
 20
-2.030463909816008
 30
0.0
  0
SPLINE
  5
7B73
330
7B6D
100
AcDbEntity
  8
0
100
AcDbSpline
210
0.0
220
0.0
230
1.0
 70
     8
 71
     3
 72
    10
 73
     6
 74
     0
 42
0.000000001
 43
0.0000000001
 40
0.0589313022162509
 40
0.0589313022162509
 40
0.0589313022162509
 40
0.0589313022162509
 40
0.0599779860441576
 40
0.0599779860441576
 40
0.0663268531329917
 40
0.0663268531329917
 40
0.0663268531329917
 40
0.0663268531329917
 10
34.0002624252106
 20
-3.967601975751975
 30
0.0
 10
34.00024430159251
 20
-3.969339550218005
 30
0.0
 10
34.00022834572067
 20
-3.970951905517166
 30
0.0
 10
34.00012589227634
 20
-3.981754123492726
 30
0.0
 10
34.00006999202729
 20
-3.989563038537029
 30
0.0
 10
34.00002531920671
 20
-4.000000108971983
 30
0.0
  0
SPLINE
  5
7B74
330
7B6D
100
AcDbEntity
  8
0
100
AcDbSpline
210
0.0
220
0.0
230
1.0
 70
     8
 71
     3
 72
     8
 73
     4
 74
     0
 42
0.000000001
 43
0.0000000001
 40
0.0
 40
0.0
 40
0.0
 40
0.0
 40
0.0059800771614779
 40
0.0059800771614779
 40
0.0059800771614779
 40
0.0059800771614779
 10
31.999993825886
 20
-4.000000177395615
 30
0.0
 10
31.99999475257255
 20
-3.993750153320256
 30
0.0
 10
31.99999841835723
 20
-3.990576025284076
 30
0.0
 10
31.99999841835723
 20
-3.9905760252872
 30
0.0
  0
SPLINE
  5
7B75
330
7B6D
100
AcDbEntity
  8
0
100
AcDbSpline
210
0.0
220
0.0
230
1.0
 70
     8
 71
     3
 72
    32
 73
    28
 74
     0
 42
0.000000001
 43
0.0000000001
 40
0.0101706628673435
 40
0.0101706628673435
 40
0.0101706628673435
 40
0.0101706628673435
 40
0.0113032256080313
 40
0.0113032256080313
 40
0.0117452787140441
 40
0.0117452787140441
 40
0.0119672051489602
 40
0.0119672051489602
 40
0.0121912927172818
 40
0.0121912927172818
 40
0.012413482665676
 40
0.012413482665676
 40
0.0133139510843684
 40
0.0133139510843684
 40
0.0702390529613865
 40
0.0702390529613865
 40
0.1264936647033754
 40
0.1264936647033754
 40
0.175110819039621
 40
0.175110819039621
 40
0.1995340952406537
 40
0.1995340952406537
 40
0.2119026148713201
 40
0.2119026148713201
 40
0.2186275802165491
 40
0.2186275802165491
 40
0.2256406970393772
 40
0.2256406970393772
 40
0.2256406970393772
 40
0.2256406970393772
 10
31.9999669829628
 20
-3.998219693830893
 30
0.0
 10
31.99996230397069
 20
-3.997950186870919
 30
0.0
 10
31.99995706374213
 20
-3.997648670120933
 30
0.0
 10
31.99993617440743
 20
-3.996443988822005
 30
0.0
 10
31.99992863292776
 20
-3.996009047778159
 30
0.0
 10
31.99990996028714
 20
-3.994930247107093
 30
0.0
 10
31.99990224174918
 20
-3.994484088297361
 30
0.0
 10
31.99988342373873
 20
-3.993394997684532
 30
0.0
 10
31.99987196388378
 20
-3.99273112346982
 30
0.0
 10
31.99984791831191
 20
-3.9913359822958
 30
0.0
 10
31.99983512374353
 20
-3.990592623140615
 30
0.0
 10
31.99977100353511
 20
-3.986861524127256
 30
0.0
 10
31.9997195177393
 20
-3.983847085396932
 30
0.0
 10
31.99655715253013
 20
-3.79760282459797
 30
0.0
 10
31.99490034344694
 20
-3.631657748590125
 30
0.0
 10
31.99335565682184
 20
-3.291351728273141
 30
0.0
 10
31.99342840264457
 20
-3.120435119039756
 30
0.0
 10
31.99449008200986
 20
-2.794252497242375
 30
0.0
 10
31.99542033594648
 20
-2.640092921415397
 30
0.0
 10
31.99709329229649
 20
-2.415338338312001
 30
0.0
 10
31.99772098849295
 20
-2.339957726762711
 30
0.0
 10
31.99891865124368
 20
-2.227743375472673
 30
0.0
 10
31.99930010799335
 20
-2.190869517673422
 30
0.0
 10
31.99956422662854
 20
-2.141109397183919
 30
0.0
 10
31.99960423032626
 20
-2.124650865433175
 30
0.0
 10
31.99962106618669
 20
-2.094151719433377
 30
0.0
 10
31.99959685059986
 20
-2.07932003630535
 30
0.0
 10
31.99957591650154
 20
-2.070206720566177
 30
0.0
  0
SPLINE
  5
7B76
330
7B6D
100
AcDbEntity
  8
0
100
AcDbSpline
210
0.0
220
0.0
230
1.0
 70
     8
 71
     3
 72
    12
 73
     8
 74
     0
 42
0.000000001
 43
0.0000000001
 40
0.0
 40
0.0
 40
0.0
 40
0.0
 40
0.0073837082031146
 40
0.0073837082031146
 40
0.0094968776843533
 40
0.0094968776843533
 40
0.0106851798900814
 40
0.0106851798900814
 40
0.0106851798900814
 40
0.0106851798900814
 10
31.99996052260958
 20
-3.99998510345885
 30
0.0
 10
32.00000146855734
 20
-3.988676024704212
 30
0.0
 10
32.00005745707822
 20
-3.976740013373453
 30
0.0
 10
32.00011516119711
 20
-3.966761709184797
 30
0.0
 10
32.00012635319161
 20
-3.964941242468755
 30
0.0
 10
32.00013635879003
 20
-3.963322951739023
 30
0.0
 10
32.00013843235767
 20
-3.962989226463692
 30
0.0
 10
32.00013843227561
 20
-3.962989239788549
 30
0.0
  0
LINE
  5
7B77
330
7B6D
100
AcDbEntity
  8
0
100
AcDbLine
 10
-32.00000000000001
 20
-2.000000000000003
 30
0.0
 11
-32.00000000000001
 21
-2.070206720566121
 31
0.0
  0
SPLINE
  5
7B78
330
7B6D
100
AcDbEntity
  8
0
100
AcDbSpline
210
0.0
220
0.0
230
1.0
 70
     8
 71
     3
 72
    11
 73
     7
 74
     0
 42
0.000000001
 43
0.0000000001
 40
-1.0
 40
-1.0
 40
-1.0
 40
-1.0
 40
-0.7994286890821031
 40
-0.7994286890821031
 40
-0.7994286890821031
 40
-0.6533573777220677
 40
-0.6533573777220677
 40
-0.6533573777220677
 40
-0.6533573777220677
 10
-32.00000000000002
 20
-1.999999999999996
 30
0.0
 10
-31.9999996127031
 20
-1.999093543230907
 30
0.0
 10
-32.12633150599513
 20
-1.919863896641567
 30
0.0
 10
-32.33607694560775
 20
-1.790687786220163
 30
0.0
 10
-32.48882955651602
 20
-1.696611899896783
 30
0.0
 10
-32.68837056419117
 20
-1.577391377859426
 30
0.0
 10
-32.91982716790682
 20
-1.445337717162794
 30
0.0
  0
SPLINE
  5
7B79
330
7B6D
100
AcDbEntity
  8
0
100
AcDbSpline
210
0.0
220
0.0
230
1.0
 70
     8
 71
     3
 72
    40
 73
    36
 74
     0
 42
0.000000001
 43
0.0000000001
 40
0.0
 40
0.0
 40
0.0
 40
0.0
 40
0.0038186266432682
 40
0.0038186266432682
 40
0.0092110776820286
 40
0.0092110776820286
 40
0.0200768673454334
 40
0.0200768673454334
 40
0.0329596384929458
 40
0.0329596384929458
 40
0.0591156618521411
 40
0.0591156618521411
 40
0.1345512936866493
 40
0.1345512936866493
 40
0.1951167717020543
 40
0.1951167717020543
 40
0.2097062643051421
 40
0.2097062643051421
 40
0.2124429518801717
 40
0.2124429518801717
 40
0.2132160310433182
 40
0.2132160310433182
 40
0.2134341608017339
 40
0.2134341608017339
 40
0.2135778168589556
 40
0.2135778168589556
 40
0.2137747911794294
 40
0.2137747911794294
 40
0.2139657249889928
 40
0.2139657249889928
 40
0.2142194813789615
 40
0.2142194813789615
 40
0.2146736588360335
 40
0.2146736588360335
 40
0.2155035887387359
 40
0.2155035887387359
 40
0.2155035887387359
 40
0.2155035887387359
 10
-31.99957591650154
 20
-2.070206720566121
 30
0.0
 10
-31.9995873150719
 20
-2.075168900887537
 30
0.0
 10
-31.99959979183395
 20
-2.082042326077999
 30
0.0
 10
-31.99961779112477
 20
-2.10003181629915
 30
0.0
 10
-31.99961861325114
 20
-2.112003662938665
 30
0.0
 10
-31.99954447401495
 20
-2.150334542442188
 30
0.0
 10
-31.99937038823024
 20
-2.179691941588985
 30
0.0
 10
-31.99872413986744
 20
-2.248520977923943
 30
0.0
 10
-31.99825137189098
 20
-2.288793425604479
 30
0.0
 10
-31.99709519548348
 20
-2.409489027748158
 30
0.0
 10
-31.99652475675788
 20
-2.488728512734889
 30
0.0
 10
-31.99434480622344
 20
-2.804300090276602
 30
0.0
 10
-31.99335877129457
 20
-3.04300647703821
 30
0.0
 10
-31.99380468318182
 20
-3.455300091397805
 30
0.0
 10
-31.99481951191066
 20
-3.635255720283214
 30
0.0
 10
-31.99784342601447
 20
-3.865561961266027
 30
0.0
 10
-31.9985061459909
 20
-3.910389709357625
 30
0.0
 10
-31.99939141476744
 20
-3.964386351835328
 30
0.0
 10
-31.99953365200421
 20
-3.972909963804124
 30
0.0
 10
-31.99972637781054
 20
-3.984247924109361
 30
0.0
 10
-31.99977036386389
 20
-3.986822589799448
 30
0.0
 10
-31.9998270665811
 20
-3.99012408825162
 30
0.0
 10
-31.99983966484243
 20
-3.990856520012064
 30
0.0
 10
-31.99985963487872
 20
-3.992015926305465
 30
0.0
 10
-31.99986739631992
 20
-3.992466099369597
 30
0.0
 10
-31.9998844563858
 20
-3.993454821723739
 30
0.0
 10
-31.99989340629598
 20
-3.993972856547272
 30
0.0
 10
-31.99990803639611
 20
-3.994819065677867
 30
0.0
 10
-31.99991402807746
 20
-3.995165304549965
 30
0.0
 10
-31.99992573110864
 20
-3.995841299396078
 30
0.0
 10
-31.99993085896441
 20
-3.996137242844891
 30
0.0
 10
-31.9999427534752
 20
-3.996823514122062
 30
0.0
 10
-31.99994778332614
 20
-3.997113438456809
 30
0.0
 10
-31.99995931437943
 20
-3.997778028763834
 30
0.0
 10
-31.99996355056214
 20
-3.998021989743651
 30
0.0
 10
-31.99996698296321
 20
-3.998219693855242
 30
0.0
  0
SPLINE
  5
7B7A
330
7B6D
100
AcDbEntity
  8
0
100
AcDbSpline
210
0.0
220
0.0
230
1.0
 70
     8
 71
     3
 72
    14
 73
    10
 74
     0
 42
0.000000001
 43
0.0000000001
 40
0.0078284967046757
 40
0.0078284967046757
 40
0.0078284967046757
 40
0.0078284967046757
 40
0.0081754702648586
 40
0.0081754702648586
 40
0.0102323022420878
 40
0.0102323022420878
 40
0.0133243206088056
 40
0.0133243206088056
 40
0.0185174889366407
 40
0.0185174889366407
 40
0.0185174889366407
 40
0.0185174889366407
 10
-32.00013843227563
 20
-3.962989239791477
 30
0.0
 10
-32.00013843227562
 20
-3.962989239792045
 30
0.0
 10
-32.00013825702455
 20
-3.963017667640969
 30
0.0
 10
-32.00013591754606
 20
-3.963395596029717
 30
0.0
 10
-32.00012809275711
 20
-3.964642654759069
 30
0.0
 10
-32.0001016520786
 20
-3.969046452359623
 30
0.0
 10
-32.00007995556358
 20
-3.972835758854981
 30
0.0
 10
-32.00002328167424
 20
-3.983975794011829
 30
0.0
 10
-31.99998932103892
 20
-3.992031112322105
 30
0.0
 10
-31.99996052260957
 20
-3.999985103458847
 30
0.0
  0
SPLINE
  5
7B7B
330
7B6D
100
AcDbEntity
  8
0
100
AcDbSpline
210
0.0
220
0.0
230
1.0
 70
     8
 71
     3
 72
     8
 73
     4
 74
     0
 42
0.000000001
 43
0.0000000001
 40
0.0090983959755277
 40
0.0090983959755277
 40
0.0090983959755277
 40
0.0090983959755277
 40
0.015066462553712
 40
0.015066462553712
 40
0.015066462553712
 40
0.015066462553712
 10
-31.9999984183572
 20
-3.99057602529105
 30
0.0
 10
-31.9999984183572
 20
-3.990576025288389
 30
0.0
 10
-31.99999475071138
 20
-3.993762706075677
 30
0.0
 10
-31.99999382588602
 20
-4.000000177395616
 30
0.0
  0
SPLINE
  5
7B7C
330
7B6D
100
AcDbEntity
  8
0
100
AcDbSpline
210
0.0
220
0.0
230
1.0
 70
     8
 71
     3
 72
    10
 73
     6
 74
     0
 42
0.000000001
 43
0.0000000001
 40
0.0
 40
0.0
 40
0.0
 40
0.0
 40
0.0049906878093685
 40
0.0049906878093685
 40
0.0073950152567326
 40
0.0073950152567326
 40
0.0073950152567326
 40
0.0073950152567326
 10
-34.00002531920671
 20
-4.000000108971985
 30
0.0
 10
-34.00006043540901
 20
-3.991795785356924
 30
0.0
 10
-34.00010543803998
 20
-3.985044489048219
 30
0.0
 10
-34.00019029816841
 20
-3.974913319831271
 30
0.0
 10
-34.00022128444496
 20
-3.971546284411122
 30
0.0
 10
-34.00026242521128
 20
-3.96760197568798
 30
0.0
  0
SPLINE
  5
7B7D
330
7B6D
100
AcDbEntity
  8
0
100
AcDbSpline
210
0.0
220
0.0
230
1.0
 70
     8
 71
     3
 72
    12
 73
     8
 74
     0
 42
0.000000001
 43
0.0000000001
 40
0.1005553671458498
 40
0.1005553671458498
 40
0.1005553671458498
 40
0.1005553671458498
 40
0.122818072120006
 40
0.122818072120006
 40
0.1818698943667152
 40
0.1818698943667152
 40
0.2022985351448495
 40
0.2022985351448495
 40
0.2022985351448495
 40
0.2022985351448495
 10
-35.65225355624881
 20
-2.030463909733811
 30
0.0
 10
-35.72410898548682
 20
-2.023564890270915
 30
0.0
 10
-35.79508536747525
 20
-2.018580109675775
 30
0.0
 10
-36.05022319869011
 20
-2.004663073106026
 30
0.0
 10
-36.22845624325554
 20
-2.002098719924531
 30
0.0
 10
-36.46811170397754
 20
-2.000295798619641
 30
0.0
 10
-36.52916456649584
 20
-2.000112474528124
 30
0.0
 10
-36.58965563954053
 20
-2.000030532383777
 30
0.0
  0
LINE
  5
7B7E
330
7B6D
100
AcDbEntity
  8
0
100
AcDbLine
 10
-32.0
 20
-2.000000000000003
 30
0.0
 11
-30.0
 21
-2.000000000000001
 31
0.0
  0
LINE
  5
7B7F
330
7B6D
100
AcDbEntity
  8
0
100
AcDbLine
 10
-31.99999999999999
 20
-86.00000000000001
 30
0.0
 11
-29.99999999999998
 21
-86.00000000000001
 31
0.0
  0
LINE
  5
7B80
330
7B6D
100
AcDbEntity
  8
0
100
AcDbLine
 10
30.00000000000001
 20
-2.000000000000001
 30
0.0
 11
-30.00000000000001
 21
-2.000000000000001
 31
0.0
  0
LINE
  5
7B81
330
7B6D
100
AcDbEntity
  8
0
100
AcDbLine
 10
-29.99999999999998
 20
-86.00000000000001
 30
0.0
 11
29.99999999999998
 21
-86.00000000000001
 31
0.0
  0
CIRCLE
  5
7B82
330
7B6D
100
AcDbEntity
  8
0
100
AcDbCircle
 10
0.0
 20
-47.99999999999998
 30
0.0
 40
2.5
  0
CIRCLE
  5
7B83
330
7B6D
100
AcDbEntity
  8
0
100
AcDbCircle
 10
0.0
 20
-67.99999999999998
 30
0.0
 40
2.5
  0
LINE
  5
7B84
330
7B6D
100
AcDbEntity
  8
0
100
AcDbLine
 10
32.0
 20
-2.000000000000003
 30
0.0
 11
30.0
 21
-2.000000000000001
 31
0.0
  0
LINE
  5
7B85
330
7B6D
100
AcDbEntity
  8
0
100
AcDbLine
 10
36.0
 20
0.0
 30
0.0
 11
73.5
 21
0.0
 31
0.0
  0
ARC
  5
7B86
330
7B6D
100
AcDbEntity
  8
0
100
AcDbCircle
 10
36.0
 20
-4.000000000000004
 30
0.0
 40
3.999999999999999
100
AcDbArc
 50
90.00000000000012
 51
180.0
  0
LINE
  5
7B87
330
7B6D
100
AcDbEntity
  8
0
100
AcDbLine
 10
31.99999999999998
 20
-86.00000000000003
 30
0.0
 11
31.99999999999999
 21
-46.00000000000003
 31
0.0
  0
LINE
  5
7B88
330
7B6D
100
AcDbEntity
  8
0
100
AcDbLine
 10
33.99999999999999
 20
-86.00000000000003
 30
0.0
 11
31.99999999999998
 21
-86.00000000000003
 31
0.0
  0
LINE
  5
7B89
330
7B6D
100
AcDbEntity
  8
0
100
AcDbLine
 10
33.99999999999999
 20
-46.00000000000003
 30
0.0
 11
33.99999999999999
 21
-86.00000000000003
 31
0.0
  0
LINE
  5
7B8A
330
7B6D
100
AcDbEntity
  8
0
100
AcDbLine
 10
31.99999999999999
 20
-46.00000000000001
 30
0.0
 11
33.99999999999999
 21
-46.00000000000001
 31
0.0
  0
LINE
  5
7B8B
330
7B6D
100
AcDbEntity
  8
0
100
AcDbLine
 10
34.0
 20
-4.000000000000003
 30
0.0
 11
33.99999999999999
 21
-46.00000000000001
 31
0.0
  0
LINE
  5
7B8C
330
7B6D
100
AcDbEntity
  8
0
100
AcDbLine
 10
31.99999999999999
 20
-46.00000000000001
 30
0.0
 11
32.0
 21
-4.000000000000003
 31
0.0
  0
LINE
  5
7B8D
330
7B6D
100
AcDbEntity
  8
0
100
AcDbLine
 10
31.99999999999999
 20
-86.00000000000001
 30
0.0
 11
29.99999999999998
 21
-86.00000000000001
 31
0.0
  0
ARC
  5
7B8E
330
7B6D
100
AcDbEntity
  8
0
100
AcDbCircle
 10
36.0
 20
-4.000000000000004
 30
0.0
 40
1.999999999999997
100
AcDbArc
 50
90.00000000000026
 51
180.0
  0
LINE
  5
7B8F
330
7B6D
100
AcDbEntity
  8
0
100
AcDbLine
 10
73.5
 20
0.0
 30
0.0
 11
73.5
 21
-2.000000000000019
 31
0.0
  0
LINE
  5
7B90
330
7B6D
100
AcDbEntity
  8
0
100
AcDbLine
 10
73.5
 20
-2.000000000000019
 30
0.0
 11
36.0
 21
-2.000000000000006
 31
0.0
  0
LINE
  5
7B91
330
7B6D
100
AcDbEntity
  8
0
100
AcDbLine
 10
-73.5
 20
-2.000000000000019
 30
0.0
 11
-36.0
 21
-2.000000000000006
 31
0.0
  0
LINE
  5
7B92
330
7B6D
100
AcDbEntity
  8
0
100
AcDbLine
 10
-31.99999999999999
 20
-46.00000000000001
 30
0.0
 11
-32.0
 21
-4.000000000000003
 31
0.0
  0
LINE
  5
7B93
330
7B6D
100
AcDbEntity
  8
0
100
AcDbLine
 10
-34.0
 20
-4.000000000000003
 30
0.0
 11
-33.99999999999999
 21
-46.00000000000001
 31
0.0
  0
LINE
  5
7B94
330
7B6D
100
AcDbEntity
  8
0
100
AcDbLine
 10
-36.0
 20
0.0
 30
0.0
 11
-73.5
 21
0.0
 31
0.0
  0
LINE
  5
7B95
330
7B6D
100
AcDbEntity
  8
0
100
AcDbLine
 10
-73.5
 20
0.0
 30
0.0
 11
-73.5
 21
-2.000000000000019
 31
0.0
  0
ARC
  5
7B96
330
7B6D
100
AcDbEntity
  8
0
100
AcDbCircle
 10
-36.0
 20
-4.000000000000004
 30
0.0
 40
1.999999999999997
100
AcDbArc
 50
0.0
 51
89.99999999999975
  0
ARC
  5
7B97
330
7B6D
100
AcDbEntity
  8
0
100
AcDbCircle
 10
-36.0
 20
-4.000000000000004
 30
0.0
 40
3.999999999999999
100
AcDbArc
 50
0.0
 51
89.99999999999987
  0
LINE
  5
7B98
330
7B6D
100
AcDbEntity
  8
0
100
AcDbLine
 10
-31.99999999999999
 20
-46.00000000000003
 30
0.0
 11
-31.99999999999998
 21
-86.00000000000003
 31
0.0
  0
LINE
  5
7B99
330
7B6D
100
AcDbEntity
  8
0
100
AcDbLine
 10
-33.99999999999999
 20
-86.00000000000003
 30
0.0
 11
-33.99999999999999
 21
-46.00000000000003
 31
0.0
  0
LINE
  5
7B9A
330
7B6D
100
AcDbEntity
  8
0
100
AcDbLine
 10
-31.99999999999998
 20
-86.00000000000003
 30
0.0
 11
-33.99999999999999
 21
-86.00000000000003
 31
0.0
  0
LINE
  5
7B9B
330
7B6D
100
AcDbEntity
  8
0
100
AcDbLine
 10
-33.99999999999999
 20
-46.00000000000001
 30
0.0
 11
-31.99999999999999
 21
-46.00000000000001
 31
0.0
  0
ENDBLK
  5
7B6F
330
7B6D
100
AcDbEntity
  8
0
100
AcDbBlockEnd
  0
BLOCK
  5
7B9D
330
7B9C
100
AcDbEntity
  8
0
100
AcDbBlockBegin
  2
SAE300_64_2-Bottom
 70
     0
 10
0.0
 20
0.0
 30
0.0
  3
SAE300_64_2-Bottom
  1

  0
SPLINE
  5
7B9F
330
7B9C
100
AcDbEntity
  8
0
100
AcDbSpline
210
0.0
220
0.0
230
1.0
 70
     8
 71
     3
 72
    14
 73
    10
 74
     0
 42
0.000000001
 43
0.0000000001
 40
0.0
 40
0.0
 40
0.0
 40
0.0
 40
0.3435165591370396
 40
0.3435165591370396
 40
0.3435165591370396
 40
0.7569936138332894
 40
0.7569936138332894
 40
0.7569936138332894
 40
1.0
 40
1.0
 40
1.0
 40
1.0
 10
36.60606060606063
 20
2.000000000000011
 30
0.0
 10
36.28490249291122
 20
2.000036880260037
 30
0.0
 10
35.87245901694539
 20
1.996833903329515
 30
0.0
 10
35.47646762711391
 20
1.998675521249966
 30
0.0
 10
34.99982873097478
 20
2.000892202610354
 30
0.0
 10
34.53730090292154
 20
2.001068608701054
 30
0.0
 10
34.2624310701827
 20
2.001123034011847
 30
0.0
 10
34.10088613325946
 20
2.001155020546388
 30
0.0
 10
33.99999576702377
 20
2.000250549242019
 30
0.0
 10
33.99999999948815
 20
1.999999999992486
 30
0.0
  0
LINE
  5
7BA0
330
7B9C
100
AcDbEntity
  8
0
100
AcDbLine
 10
36.58965563954045
 20
2.000000000000005
 30
0.0
 11
36.60606060606066
 21
2.000000000000005
 31
0.0
  0
ARC
  5
7BA1
330
7B9C
100
AcDbEntity
  8
0
100
AcDbCircle
 10
36.0
 20
4.000000000000004
 30
0.0
 40
1.999999999999996
100
AcDbArc
 50
180.1766990560261
 51
259.9841486845438
  0
ARC
  5
7BA2
330
7B9C
100
AcDbEntity
  8
0
100
AcDbCircle
 10
36.0
 20
4.000000000000004
 30
0.0
 40
3.999999999999998
100
AcDbArc
 50
219.6927749101238
 51
270.0
  0
LINE
  5
7BA3
330
7B9C
100
AcDbEntity
  8
0
100
AcDbLine
 10
36.60606060606066
 20
0.0
 30
0.0
 11
36.0
 21
0.0
 31
0.0
  0
SPLINE
  5
7BA4
330
7B9C
100
AcDbEntity
  8
0
100
AcDbSpline
210
0.0
220
0.0
230
1.0
 70
     8
 71
     3
 72
    17
 73
    13
 74
     0
 42
0.000000001
 43
0.0000000001
 40
-1.0
 40
-1.0
 40
-1.0
 40
-1.0
 40
-0.7994286890821031
 40
-0.7994286890821031
 40
-0.7994286890821031
 40
-0.3760960081004403
 40
-0.3760960081004403
 40
-0.3760960081004403
 40
-0.07652849726743
 40
-0.07652849726743
 40
-0.07652849726743
 40
0.0
 40
0.0
 40
0.0
 40
0.0
 10
32.00000000000002
 20
1.999999999999996
 30
0.0
 10
31.9999996127031
 20
1.999093543230907
 30
0.0
 10
32.12633150599513
 20
1.919863896641567
 30
0.0
 10
32.33607694560775
 20
1.790687786220163
 30
0.0
 10
32.77877285694491
 20
1.518044261614287
 30
0.0
 10
33.61445008342361
 20
1.034207947888809
 30
0.0
 10
34.48107962101206
 20
0.6388614064422973
 30
0.0
 10
35.09434210948263
 20
0.3590980320131417
 30
0.0
 10
35.71765761685305
 20
0.1217220476570103
 30
0.0
 10
36.23393420694161
 20
0.0342615816141647
 30
0.0
 10
36.36582391522127
 20
0.0119186445648293
 30
0.0
 10
36.48832026105141
 20
0.0000045452574084
 30
0.0
 10
36.60606060611089
 20
0.00000000011521
 30
0.0
  0
LINE
  5
7BA5
330
7B9C
100
AcDbEntity
  8
0
100
AcDbLine
 10
36.60606060606066
 20
2.000000000000006
 30
0.0
 11
36.60606060606066
 21
0.0
 31
0.0
  0
SPLINE
  5
7BA6
330
7B9C
100
AcDbEntity
  8
0
100
AcDbSpline
210
0.0
220
0.0
230
1.0
 70
     8
 71
     3
 72
    28
 73
    24
 74
     0
 42
0.000000001
 43
0.0000000001
 40
0.0690030392264964
 40
0.0690030392264964
 40
0.0690030392264964
 40
0.0690030392264964
 40
0.0695016993505896
 40
0.0695016993505896
 40
0.0702442666607868
 40
0.0702442666607868
 40
0.0709872110689816
 40
0.0709872110689816
 40
0.0724926717120391
 40
0.0724926717120391
 40
0.07551529733712
 40
0.07551529733712
 40
0.0784801173657687
 40
0.0784801173657687
 40
0.0842710054649206
 40
0.0842710054649206
 40
0.096116882802105
 40
0.096116882802105
 40
0.1228180721204098
 40
0.1228180721204098
 40
0.1818698943664335
 40
0.1818698943664335
 40
0.2022985351448383
 40
0.2022985351448383
 40
0.2022985351448383
 40
0.2022985351448383
 10
35.36375322107698
 20
2.070833792690017
 30
0.0
 10
35.36375322595303
 20
2.070833791701873
 30
0.0
 10
35.36385553531423
 20
2.070813047817092
 30
0.0
 10
35.3643923630108
 20
2.070704876109796
 30
0.0
 10
35.36497258119521
 20
2.070588232106507
 30
0.0
 10
35.36665439549337
 20
2.070253123952391
 30
0.0
 10
35.36776627805535
 20
2.070032666754112
 30
0.0
 10
35.37178698091326
 20
2.069242849256338
 30
0.0
 10
35.37544124412852
 20
2.06853440921467
 30
0.0
 10
35.38747652149139
 20
2.066251300994371
 30
0.0
 10
35.39711947778906
 20
2.06448538483925
 30
0.0
 10
35.4161600357047
 20
2.061139421831791
 30
0.0
 10
35.42587050047566
 20
2.059495897701201
 30
0.0
 10
35.45456431219243
 20
2.054813551761996
 30
0.0
 10
35.47376757529046
 20
2.051902315087237
 30
0.0
 10
35.53184426630104
 20
2.043669409153841
 30
0.0
 10
35.57071529272575
 20
2.03893856996683
 30
0.0
 10
35.69581642452579
 20
2.025572953720616
 30
0.0
 10
35.78115888585095
 20
2.019339759286019
 30
0.0
 10
36.05022319869172
 20
2.00466307310605
 30
0.0
 10
36.22845624325508
 20
2.002098719924555
 30
0.0
 10
36.46811170397584
 20
2.000295798619648
 30
0.0
 10
36.52916456649499
 20
2.000112474528125
 30
0.0
 10
36.58965563954045
 20
2.000030532383778
 30
0.0
  0
SPLINE
  5
7BA7
330
7B9C
100
AcDbEntity
  8
0
100
AcDbSpline
210
0.0
220
0.0
230
1.0
 70
     8
 71
     3
 72
    30
 73
    26
 74
     0
 42
0.000000001
 43
0.0000000001
 40
0.0
 40
0.0
 40
0.0
 40
0.0
 40
0.0049906878093685
 40
0.0049906878093685
 40
0.0087372355715094
 40
0.0087372355715094
 40
0.0097952253372891
 40
0.0097952253372891
 40
0.0104899688891088
 40
0.0104899688891088
 40
0.0114835377067625
 40
0.0114835377067625
 40
0.0123917508508262
 40
0.0123917508508262
 40
0.0135259377121406
 40
0.0135259377121406
 40
0.0151743814019604
 40
0.0151743814019604
 40
0.0177233275878006
 40
0.0177233275878006
 40
0.02147775299781
 40
0.02147775299781
 40
0.0261198062525037
 40
0.0261198062525037
 40
0.0306018019183586
 40
0.0306018019183586
 40
0.0306018019183586
 40
0.0306018019183586
 10
34.00002531920671
 20
4.000000108971985
 30
0.0
 10
34.00006043540901
 20
3.991795785356924
 30
0.0
 10
34.00010543803998
 20
3.985044489048219
 30
0.0
 10
34.00020570056913
 20
3.97307447830582
 30
0.0
 10
34.00025216705187
 20
3.96802020692248
 30
0.0
 10
34.00037082767178
 20
3.95801888703503
 30
0.0
 10
34.00040161077619
 20
3.955539561421656
 30
0.0
 10
34.00046347754498
 20
3.950898298497758
 30
0.0
 10
34.00049113795478
 20
3.948899177805918
 30
0.0
 10
34.00056545828923
 20
3.943776693555908
 30
0.0
 10
34.00061636413248
 20
3.940467859492649
 30
0.0
 10
34.00072033177837
 20
3.934149189105226
 30
0.0
 10
34.00077372346306
 20
3.931079682893543
 30
0.0
 10
34.00089659630173
 20
3.924378859939214
 30
0.0
 10
34.00096786688924
 20
3.9207341503626
 30
0.0
 10
34.0011446063926
 20
3.91218096642387
 30
0.0
 10
34.00125249030641
 20
3.907368438047349
 30
0.0
 10
34.00152755708779
 20
3.895853857317128
 30
0.0
 10
34.0016974932633
 20
3.889446306188409
 30
0.0
 10
34.00210476728278
 20
3.875140055035747
 30
0.0
 10
34.00233985503859
 20
3.867834575149923
 30
0.0
 10
34.00278976725537
 20
3.854669012861212
 30
0.0
 10
34.00298851217524
 20
3.849467628981124
 30
0.0
 10
34.00322997974777
 20
3.843272573673826
 30
0.0
 10
34.00328099785239
 20
3.842057251309423
 30
0.0
 10
34.00328099785183
 20
3.842057251323188
 30
0.0
  0
SPLINE
  5
7BA8
330
7B9C
100
AcDbEntity
  8
0
100
AcDbSpline
210
0.0
220
0.0
230
1.0
 70
     8
 71
     3
 72
     8
 73
     4
 74
     0
 42
0.000000001
 43
0.0000000001
 40
0.0
 40
0.0
 40
0.0
 40
0.0
 40
0.0004151367468685
 40
0.0004151367468685
 40
0.0004151367468685
 40
0.0004151367468685
 10
34.00002109558381
 20
4.000000267145738
 30
0.0
 10
34.00001411393828
 20
3.999222903661484
 30
0.0
 10
34.00000705632671
 20
3.998423695870672
 30
0.0
 10
33.9999999999999
 20
3.997610023746001
 30
0.0
  0
CIRCLE
  5
7BA9
330
7B9C
100
AcDbEntity
  8
0
100
AcDbCircle
 10
0.0
 20
67.99999999999998
 30
0.0
 40
2.5
  0
CIRCLE
  5
7BAA
330
7B9C
100
AcDbEntity
  8
0
100
AcDbCircle
 10
0.0
 20
47.99999999999998
 30
0.0
 40
2.5
  0
LINE
  5
7BAB
330
7B9C
100
AcDbEntity
  8
0
100
AcDbLine
 10
30.00000000000001
 20
2.000000000000001
 30
0.0
 11
-30.00000000000001
 21
2.000000000000001
 31
0.0
  0
LINE
  5
7BAC
330
7B9C
100
AcDbEntity
  8
0
100
AcDbLine
 10
29.99999999999999
 20
86.00000000000001
 30
0.0
 11
-29.99999999999998
 21
86.00000000000001
 31
0.0
  0
SPLINE
  5
7BAD
330
7B9C
100
AcDbEntity
  8
0
100
AcDbSpline
210
0.0
220
0.0
230
1.0
 70
     8
 71
     3
 72
    17
 73
    13
 74
     0
 42
0.000000001
 43
0.0000000001
 40
-1.0
 40
-1.0
 40
-1.0
 40
-1.0
 40
-0.7994286890821031
 40
-0.7994286890821031
 40
-0.7994286890821031
 40
-0.3760960081004403
 40
-0.3760960081004403
 40
-0.3760960081004403
 40
-0.07652849726743
 40
-0.07652849726743
 40
-0.07652849726743
 40
0.0
 40
0.0
 40
0.0
 40
0.0
 10
-32.00000000000002
 20
1.999999999999996
 30
0.0
 10
-31.9999996127031
 20
1.999093543230907
 30
0.0
 10
-32.12633150599513
 20
1.919863896641567
 30
0.0
 10
-32.33607694560775
 20
1.790687786220163
 30
0.0
 10
-32.77877285694491
 20
1.518044261614287
 30
0.0
 10
-33.61445008342361
 20
1.034207947888809
 30
0.0
 10
-34.48107962101206
 20
0.6388614064422973
 30
0.0
 10
-35.09434210948263
 20
0.3590980320131417
 30
0.0
 10
-35.71765761685305
 20
0.1217220476570103
 30
0.0
 10
-36.23393420694161
 20
0.0342615816141647
 30
0.0
 10
-36.36582391522127
 20
0.0119186445648293
 30
0.0
 10
-36.48832026105141
 20
0.0000045452574084
 30
0.0
 10
-36.60606060611089
 20
0.00000000011521
 30
0.0
  0
LINE
  5
7BAE
330
7B9C
100
AcDbEntity
  8
0
100
AcDbLine
 10
-36.0
 20
0.0
 30
0.0
 11
-36.60606060606066
 21
0.0
 31
0.0
  0
ARC
  5
7BAF
330
7B9C
100
AcDbEntity
  8
0
100
AcDbCircle
 10
-36.0
 20
4.000000000000004
 30
0.0
 40
3.999999999999999
100
AcDbArc
 50
270.0
 51
320.3072250898762
  0
ARC
  5
7BB0
330
7B9C
100
AcDbEntity
  8
0
100
AcDbCircle
 10
-36.0
 20
4.000000000000004
 30
0.0
 40
1.999999999999996
100
AcDbArc
 50
280.0158513154562
 51
359.8269252149218
  0
LINE
  5
7BB1
330
7B9C
100
AcDbEntity
  8
0
100
AcDbLine
 10
-36.60606060606066
 20
2.000000000000005
 30
0.0
 11
-36.58965563954041
 21
2.000000000000005
 31
0.0
  0
SPLINE
  5
7BB2
330
7B9C
100
AcDbEntity
  8
0
100
AcDbSpline
210
0.0
220
0.0
230
1.0
 70
     8
 71
     3
 72
    14
 73
    10
 74
     0
 42
0.000000001
 43
0.0000000001
 40
0.0
 40
0.0
 40
0.0
 40
0.0
 40
0.3435165591370396
 40
0.3435165591370396
 40
0.3435165591370396
 40
0.7569936138332894
 40
0.7569936138332894
 40
0.7569936138332894
 40
1.0
 40
1.0
 40
1.0
 40
1.0
 10
-36.60606060606063
 20
2.000000000000011
 30
0.0
 10
-36.28490249291122
 20
2.000036880260037
 30
0.0
 10
-35.87245901694539
 20
1.996833903329515
 30
0.0
 10
-35.47646762711391
 20
1.998675521249966
 30
0.0
 10
-34.99982873097478
 20
2.000892202610354
 30
0.0
 10
-34.53730090292154
 20
2.001068608701054
 30
0.0
 10
-34.2624310701827
 20
2.001123034011847
 30
0.0
 10
-34.10088613325946
 20
2.001155020546388
 30
0.0
 10
-33.99999576702377
 20
2.000250549242019
 30
0.0
 10
-33.99999999948815
 20
1.999999999992486
 30
0.0
  0
LINE
  5
7BB3
330
7B9C
100
AcDbEntity
  8
0
100
AcDbLine
 10
-36.60606060606066
 20
0.0
 30
0.0
 11
-36.60606060606066
 21
2.000000000000006
 31
0.0
  0
SPLINE
  5
7BB4
330
7B9C
100
AcDbEntity
  8
0
100
AcDbSpline
210
0.0
220
0.0
230
1.0
 70
     8
 71
     3
 72
    28
 73
    24
 74
     0
 42
0.000000001
 43
0.0000000001
 40
0.0357732034682966
 40
0.0357732034682966
 40
0.0357732034682966
 40
0.0357732034682966
 40
0.0390422753774587
 40
0.0390422753774587
 40
0.0452611505578534
 40
0.0452611505578534
 40
0.0483374927063873
 40
0.0483374927063873
 40
0.0514208782873739
 40
0.0514208782873739
 40
0.0529575421512392
 40
0.0529575421512392
 40
0.0545062598126976
 40
0.0545062598126976
 40
0.0552768639851581
 40
0.0552768639851581
 40
0.0560490424167106
 40
0.0560490424167106
 40
0.0568196217910958
 40
0.0568196217910958
 40
0.0599779860451919
 40
0.0599779860451919
 40
0.0663268531338282
 40
0.0663268531338282
 40
0.0663268531338282
 40
0.0663268531338282
 10
-34.00328099785186
 20
3.842057251322528
 30
0.0
 10
-34.00328099785021
 20
3.842057251362802
 30
0.0
 10
-34.00325370308791
 20
3.842715126925022
 30
0.0
 10
-34.00307566836035
 20
3.847192838317132
 30
0.0
 10
-34.00281926780614
 20
3.853659085344668
 30
0.0
 10
-34.00230490580456
 20
3.868952896047221
 30
0.0
 10
-34.00211373392565
 20
3.87495316989808
 30
0.0
 10
-34.00171824157109
 20
3.888620144193597
 30
0.0
 10
-34.00151123846402
 20
3.896381734045426
 30
0.0
 10
-34.00120926592113
 20
3.909288426583515
 30
0.0
 10
-34.00110914436227
 20
3.913838540214724
 30
0.0
 10
-34.00091412425364
 20
3.923413604639942
 30
0.0
 10
-34.00081699724599
 20
3.928569999009821
 30
0.0
 10
-34.00068438692208
 20
3.936297116401136
 30
0.0
 10
-34.00064189433378
 20
3.93889618515196
 30
0.0
 10
-34.0005637280683
 20
3.943909394311389
 30
0.0
 10
-34.00052749020168
 20
3.946359799384651
 30
0.0
 10
-34.00046356991396
 20
3.950879019493803
 30
0.0
 10
-34.00043532219316
 20
3.952983957654921
 30
0.0
 10
-34.0003093510686
 20
3.962745419793193
 30
0.0
 10
-34.00025759965117
 20
3.967867506197535
 30
0.0
 10
-34.0001258922763
 20
3.981754123497938
 30
0.0
 10
-34.00006999202729
 20
3.989563038537355
 30
0.0
 10
-34.00002531920671
 20
4.000000108971983
 30
0.0
  0
SPLINE
  5
7BB5
330
7B9C
100
AcDbEntity
  8
0
100
AcDbSpline
210
0.0
220
0.0
230
1.0
 70
     8
 71
     3
 72
    24
 73
    20
 74
     0
 42
0.000000001
 43
0.0000000001
 40
0.0
 40
0.0
 40
0.0
 40
0.0
 40
0.0670802812270543
 40
0.0670802812270543
 40
0.1176969779243154
 40
0.1176969779243154
 40
0.1238265939603765
 40
0.1238265939603765
 40
0.1276931189381756
 40
0.1276931189381756
 40
0.1296298506948632
 40
0.1296298506948632
 40
0.1305960599673443
 40
0.1305960599673443
 40
0.1315659183586665
 40
0.1315659183586665
 40
0.1325377413735327
 40
0.1325377413735327
 40
0.1331522731723574
 40
0.1331522731723574
 40
0.1331522731723574
 40
0.1331522731723574
 10
-36.58965563954041
 20
2.000030532383777
 30
0.0
 10
-36.39102479397248
 20
2.000299600803296
 30
0.0
 10
-36.18820817310257
 20
2.001403298836832
 30
0.0
 10
-35.8244332969553
 20
2.015449518258864
 30
0.0
 10
-35.66128401155157
 20
2.025423304534001
 30
0.0
 10
-35.47444819270893
 20
2.051793956791068
 30
0.0
 10
-35.45410477317269
 20
2.054876208565179
 30
0.0
 10
-35.42136847515727
 20
2.060239141289417
 30
0.0
 10
-35.40862673644989
 20
2.062429769511609
 30
0.0
 10
-35.39071091951551
 20
2.065664146231417
 30
0.0
 10
-35.38485545581546
 20
2.066749270985639
 30
0.0
 10
-35.37710719860017
 20
2.068218026986557
 30
0.0
 10
-35.37468076065562
 20
2.068683978253933
 30
0.0
 10
-35.37042428530927
 20
2.069509637769784
 30
0.0
 10
-35.36857207903086
 20
2.069873653991372
 30
0.0
 10
-35.36575243773543
 20
2.070431940714179
 30
0.0
 10
-35.36476588081907
 20
2.070629801753379
 30
0.0
 10
-35.36390965455754
 20
2.070802066827865
 30
0.0
 10
-35.36375321535219
 20
2.070833793850162
 30
0.0
 10
-35.36375322107685
 20
2.070833792690047
 30
0.0
  0
LINE
  5
7BB6
330
7B9C
100
AcDbEntity
  8
0
100
AcDbLine
 10
-34.0
 20
2.000000000000006
 30
0.0
 11
-30.0
 21
2.000000000000001
 31
0.0
  0
LINE
  5
7BB7
330
7B9C
100
AcDbEntity
  8
0
100
AcDbLine
 10
-29.99999999999998
 20
86.00000000000001
 30
0.0
 11
-33.99999999999999
 21
86.00000000000001
 31
0.0
  0
LINE
  5
7BB8
330
7B9C
100
AcDbEntity
  8
0
100
AcDbLine
 10
-33.99999999999999
 20
2.000000000000006
 30
0.0
 11
-33.99999999999999
 21
86.00000000000001
 31
0.0
  0
LINE
  5
7BB9
330
7B9C
100
AcDbEntity
  8
0
100
AcDbLine
 10
34.0
 20
2.000000000000006
 30
0.0
 11
30.0
 21
2.000000000000001
 31
0.0
  0
LINE
  5
7BBA
330
7B9C
100
AcDbEntity
  8
0
100
AcDbLine
 10
33.99999999999999
 20
2.000000000000006
 30
0.0
 11
33.99999999999999
 21
86.00000000000001
 31
0.0
  0
LINE
  5
7BBB
330
7B9C
100
AcDbEntity
  8
0
100
AcDbLine
 10
29.99999999999998
 20
86.00000000000001
 30
0.0
 11
33.99999999999999
 21
86.00000000000001
 31
0.0
  0
LINE
  5
7BBC
330
7B9C
100
AcDbEntity
  8
0
100
AcDbLine
 10
73.50000000000007
 20
0.0
 30
0.0
 11
36.60606060606065
 21
0.0
 31
0.0
  0
LINE
  5
7BBD
330
7B9C
100
AcDbEntity
  8
0
100
AcDbLine
 10
73.50000000000007
 20
1.999999999999992
 30
0.0
 11
73.50000000000007
 21
0.0
 31
0.0
  0
LINE
  5
7BBE
330
7B9C
100
AcDbEntity
  8
0
100
AcDbLine
 10
36.60606060606066
 20
2.000000000000006
 30
0.0
 11
73.50000000000007
 21
1.999999999999992
 31
0.0
  0
LINE
  5
7BBF
330
7B9C
100
AcDbEntity
  8
0
100
AcDbLine
 10
-73.50000000000007
 20
1.999999999999992
 30
0.0
 11
-36.60606060606066
 21
2.000000000000006
 31
0.0
  0
LINE
  5
7BC0
330
7B9C
100
AcDbEntity
  8
0
100
AcDbLine
 10
-73.50000000000007
 20
0.0
 30
0.0
 11
-73.50000000000007
 21
1.999999999999992
 31
0.0
  0
LINE
  5
7BC1
330
7B9C
100
AcDbEntity
  8
0
100
AcDbLine
 10
-36.60606060606065
 20
0.0
 30
0.0
 11
-73.50000000000007
 21
0.0
 31
0.0
  0
ENDBLK
  5
7B9E
330
7B9C
100
AcDbEntity
  8
0
100
AcDbBlockEnd
  0
BLOCK
  5
7BC3
330
7BC2
100
AcDbEntity
  8
0
100
AcDbBlockBegin
  2
SAE300_64_2-ISO
 70
     0
 10
0.0
 20
0.0
 30
0.0
  3
SAE300_64_2-ISO
  1

  0
LINE
  5
7BC5
330
7BC2
100
AcDbEntity
  8
0
100
AcDbLine
 10
52.80554971783864
 20
-38.09841445362859
 30
0.0
 11
51.39133615546555
 21
-38.91491103455633
 31
0.0
  0
SPLINE
  5
7BC6
330
7BC2
100
AcDbEntity
  8
0
100
AcDbSpline
210
0.0
220
0.0
230
1.0
 70
     8
 71
     3
 72
    14
 73
    10
 74
     0
 42
0.000000001
 43
0.0000000001
 40
0.0
 40
0.0
 40
0.0
 40
0.0
 40
0.3435165591370396
 40
0.3435165591370396
 40
0.3435165591370396
 40
0.7569936138332894
 40
0.7569936138332894
 40
0.7569936138332894
 40
1.0
 40
1.0
 40
1.0
 40
1.0
 10
54.64831284456723
 20
-37.07006175227075
 30
0.0
 10
54.42119368664425
 20
-37.15126025207931
 30
0.0
 10
54.13181695464022
 20
-37.16708259850622
 30
0.0
 10
53.85050653707899
 20
-37.19495565715121
 30
0.0
 10
53.51190451102008
 20
-37.22850533587081
 30
0.0
 10
53.18472320937317
 20
-37.28011362232855
 30
0.0
 10
52.9903224021936
 20
-37.50551405150331
 30
0.0
 10
52.87607026393333
 20
-37.63798511153449
 30
0.0
 10
52.80536955960439
 20
-37.80602187257468
 30
0.0
 10
52.80554971748203
 20
-38.098414452067
 30
0.0
  0
LINE
  5
7BC7
330
7BC2
100
AcDbEntity
  8
0
100
AcDbLine
 10
54.61022548486818
 20
-37.0480720048958
 30
0.0
 11
54.64831284456725
 21
-37.07006175227078
 31
0.0
  0
LINE
  5
7BC8
330
7BC2
100
AcDbEntity
  8
0
100
AcDbLine
 10
54.21976328021173
 20
-36.82263854592902
 30
0.0
 11
54.61022548486818
 21
-37.0480720048958
 31
0.0
  0
ELLIPSE
  5
7BC9
330
7BC2
100
AcDbEntity
  8
0
100
AcDbEllipse
 10
52.80554971783864
 20
-37.63913512685675
 30
0.0
 11
1.999999999999996
 21
0.0000000000000001
 31
0.0
210
0.0
220
0.0
230
1.0
 40
0.5773502691896257
 41
0.7853981633974492
 42
0.8290190089702917
  0
ELLIPSE
  5
7BCA
330
7BC2
100
AcDbEntity
  8
0
100
AcDbEllipse
 10
52.80554971783864
 20
-37.63913512685675
 30
0.0
 11
1.999999999999996
 21
-0.0000000000001194
 31
0.0
210
0.0
220
0.0
230
1.0
 40
0.5773502691896257
 41
0.8290190089705191
 42
2.356194490192603
  0
LINE
  5
7BCB
330
7BC2
100
AcDbEntity
  8
0
100
AcDbLine
 10
51.39133615546555
 20
-37.64575328890381
 30
0.0
 11
51.39133615546555
 21
-36.82263854592903
 31
0.0
  0
LINE
  5
7BCC
330
7BC2
100
AcDbEntity
  8
0
100
AcDbLine
 10
51.39133615546555
 20
-38.91491103455633
 30
0.0
 11
51.39133615546555
 21
-37.64575328890381
 31
0.0
  0
ELLIPSE
  5
7BCD
330
7BC2
100
AcDbEntity
  8
0
100
AcDbEllipse
 10
-17.90512840081609
 20
-59.32732555774947
 30
0.0
 11
-2.5
 21
-0.0000000000001496
 31
0.0
210
0.0
220
0.0
230
1.0
 40
0.5773502691896258
 41
3.74285687026858
 42
5.681921090500121
  0
ELLIPSE
  5
7BCE
330
7BC2
100
AcDbEntity
  8
0
100
AcDbEllipse
 10
-3.762992777085139
 20
-51.16235974847221
 30
0.0
 11
-2.5
 21
-0.0000000000001496
 31
0.0
210
0.0
220
0.0
230
1.0
 40
0.5773502691896258
 41
3.742856870268582
 42
5.681921090500121
  0
LINE
  5
7BCF
330
7BC2
100
AcDbEntity
  8
0
100
AcDbLine
 10
-9.419847026577548
 20
-78.92324350001489
 30
0.0
 11
-51.84625389777036
 21
-54.42834607218315
 31
0.0
  0
LINE
  5
7BD0
330
7BC2
100
AcDbEntity
  8
0
100
AcDbLine
 10
6.136502159526497
 20
-11.15402728301363
 30
0.0
 11
6.136502159526506
 21
-16.05300676858
 31
0.0
  0
LINE
  5
7BD1
330
7BC2
100
AcDbEntity
  8
0
100
AcDbLine
 10
20.27863778325742
 20
-25.85096573971271
 30
0.0
 11
7.550715721899594
 21
-18.50249651136317
 31
0.0
  0
LINE
  5
7BD2
330
7BC2
100
AcDbEntity
  8
0
100
AcDbLine
 10
-51.84625389777039
 20
-52.79535291032768
 30
0.0
 11
-9.419847026577548
 21
-77.29025033815943
 31
0.0
  0
ELLIPSE
  5
7BD3
330
7BC2
100
AcDbEntity
  8
0
100
AcDbEllipse
 10
-3.762992777085139
 20
-49.52936658661676
 30
0.0
 11
-2.5
 21
0.0000000000001499
 31
0.0
210
0.0
220
0.0
230
1.0
 40
0.5773502691896258
 41
0.0
 42
6.283185307179586
  0
ELLIPSE
  5
7BD4
330
7BC2
100
AcDbEntity
  8
0
100
AcDbEllipse
 10
-17.90512840081609
 20
-57.69433239589402
 30
0.0
 11
-2.5
 21
0.0000000000001499
 31
0.0
210
0.0
220
0.0
230
1.0
 40
0.5773502691896258
 41
0.0
 42
6.283185307179586
  0
LINE
  5
7BD5
330
7BC2
100
AcDbEntity
  8
0
100
AcDbLine
 10
6.136502159526497
 20
-11.15402728301363
 30
0.0
 11
6.05126025352209
 21
-11.20324172039151
 31
0.0
  0
SPLINE
  5
7BD6
330
7BC2
100
AcDbEntity
  8
0
100
AcDbSpline
210
0.0
220
0.0
230
1.0
 70
     8
 71
     3
 72
    11
 73
     7
 74
     0
 42
0.000000001
 43
0.0000000001
 40
-1.0
 40
-1.0
 40
-1.0
 40
-1.0
 40
-0.7994286890821031
 40
-0.7994286890821031
 40
-0.7994286890821031
 40
-0.6581426717866838
 40
-0.6581426717866838
 40
-0.6581426717866838
 40
-0.6581426717866838
 10
6.136502159526493
 20
-11.15402728301362
 30
0.0
 10
6.13714339511505
 20
-10.75941519642564
 30
0.0
 10
6.103837077062461
 20
-10.40066690798984
 30
0.0
 10
6.046865958035696
 20
-10.05933017750828
 30
0.0
 10
6.006734483243429
 20
-9.818886482018246
 30
0.0
 10
5.952284880388027
 20
-9.589052287917709
 30
0.0
 10
5.885156035821803
 20
-9.366260059342437
 30
0.0
  0
ELLIPSE
  5
7BD7
330
7BC2
100
AcDbEntity
  8
0
100
AcDbEllipse
 10
1.893861472407216
 20
-8.245258213458619
 30
0.0
 11
3.999999999999998
 21
-0.0000000000000001
 31
0.0
210
0.0
220
0.0
230
1.0
 40
0.5773502691896258
 41
6.05874694009775
 42
6.283185307179586
  0
ELLIPSE
  5
7BD8
330
7BC2
100
AcDbEntity
  8
0
100
AcDbEllipse
 10
1.893861472407216
 20
-8.245258213458619
 30
0.0
 11
3.999999999999998
 21
-0.0000000000000003
 31
0.0
210
0.0
220
0.0
230
1.0
 40
0.5773502691896258
 41
5.49778714378213
 42
6.058746940097751
  0
LINE
  5
7BD9
330
7BC2
100
AcDbEntity
  8
0
100
AcDbLine
 10
4.722288597153405
 20
-9.878251375314066
 30
0.0
 11
4.722288597153405
 21
-10.07421557565892
 31
0.0
  0
LINE
  5
7BDA
330
7BC2
100
AcDbEntity
  8
0
100
AcDbLine
 10
4.722288597153405
 20
-10.07421557565892
 30
0.0
 11
4.722288597153405
 21
-11.97052386394136
 31
0.0
  0
LINE
  5
7BDB
330
7BC2
100
AcDbEntity
  8
0
100
AcDbLine
 10
6.05126025352209
 20
-11.20324172039151
 30
0.0
 11
4.722288597153405
 21
-11.97052386394136
 31
0.0
  0
SPLINE
  5
7BDC
330
7BC2
100
AcDbEntity
  8
0
100
AcDbSpline
210
0.0
220
0.0
230
1.0
 70
     8
 71
     3
 72
    16
 73
    12
 74
     0
 42
0.000000001
 43
0.0000000001
 40
0.0
 40
0.0
 40
0.0
 40
0.0
 40
0.0351246761355767
 40
0.0351246761355767
 40
0.0553379724934484
 40
0.0553379724934484
 40
0.0803964738045222
 40
0.0803964738045222
 40
0.1060252763891122
 40
0.1060252763891122
 40
0.11642992557339
 40
0.11642992557339
 40
0.11642992557339
 40
0.11642992557339
 10
5.882488802772862
 20
-8.41928595588326
 30
0.0
 10
5.867294173221062
 20
-8.53537422867312
 30
0.0
 10
5.852364164385823
 20
-8.653602354297479
 30
0.0
 10
5.837511664578483
 20
-8.830968124749709
 30
0.0
 10
5.833935631458442
 20
-8.894481735215657
 30
0.0
 10
5.831691959149871
 20
-9.025575369954124
 30
0.0
 10
5.834425961683677
 20
-9.091427760147166
 30
0.0
 10
5.846290941631901
 20
-9.206868193795232
 30
0.0
 10
5.855347492388616
 20
-9.257494552598473
 30
0.0
 10
5.872182212865588
 20
-9.326305363804067
 30
0.0
 10
5.877573818719556
 20
-9.346035890074393
 30
0.0
 10
5.883688571361229
 20
-9.366357093804285
 30
0.0
  0
ELLIPSE
  5
7BDD
330
7BC2
100
AcDbEntity
  8
0
100
AcDbEllipse
 10
7.550715721899599
 20
-16.86950334950772
 30
0.0
 11
1.000000000000106
 21
-1.732050807568816
 31
0.0
210
0.0
220
0.0
230
1.0
 40
0.5773502691896267
 41
3.926990816986997
 42
5.497787143781893
  0
LINE
  5
7BDE
330
7BC2
100
AcDbEntity
  8
0
100
AcDbLine
 10
7.550715721899594
 20
-18.50249651136317
 30
0.0
 11
-51.84625389777039
 21
-52.79535291032768
 31
0.0
  0
ELLIPSE
  5
7BDF
330
7BC2
100
AcDbEntity
  8
0
100
AcDbEllipse
 10
-51.84625389777039
 20
-51.16235974847223
 30
0.0
 11
2.000000000000209
 21
-3.464101615137637
 31
0.0
210
0.0
220
0.0
230
1.0
 40
0.577350269189626
 41
3.926990816986997
 42
5.497787143781892
  0
LINE
  5
7BE0
330
7BC2
100
AcDbEntity
  8
0
100
AcDbLine
 10
-53.26046746014348
 20
-50.3458631675445
 30
0.0
 11
6.136502159526502
 21
-16.05300676858
 31
0.0
  0
LINE
  5
7BE1
330
7BC2
100
AcDbEntity
  8
0
100
AcDbLine
 10
-54.67468102251658
 20
-49.52936658661677
 30
0.0
 11
-53.26046746014348
 21
-50.3458631675445
 31
0.0
  0
LINE
  5
7BE2
330
7BC2
100
AcDbEntity
  8
0
100
AcDbLine
 10
-51.84625389777039
 20
-54.42834607218315
 30
0.0
 11
-51.84625389777039
 21
-52.79535291032768
 31
0.0
  0
ELLIPSE
  5
7BE3
330
7BC2
100
AcDbEntity
  8
0
100
AcDbEllipse
 10
-51.84625389777039
 20
-51.16235974847223
 30
0.0
 11
1.000000000000104
 21
-1.732050807568818
 31
0.0
210
0.0
220
0.0
230
1.0
 40
0.577350269189626
 41
3.926990816986998
 42
5.497787143781895
  0
LINE
  5
7BE4
330
7BC2
100
AcDbEntity
  8
0
100
AcDbLine
 10
52.80554971783864
 20
-42.99739393919495
 30
0.0
 11
52.80554971783864
 21
-38.09841445362859
 31
0.0
  0
ELLIPSE
  5
7BE5
330
7BC2
100
AcDbEntity
  8
0
100
AcDbEllipse
 10
49.97712259309246
 20
-41.3644007773395
 30
0.0
 11
1.999999999999997
 21
-3.464101615137754
 31
0.0
210
0.0
220
0.0
230
1.0
 40
0.5773502691896251
 41
0.0
 42
0.7853981633974501
  0
LINE
  5
7BE6
330
7BC2
100
AcDbEntity
  8
0
100
AcDbLine
 10
-9.419847026577548
 20
-77.29025033815945
 30
0.0
 11
-8.005633464204455
 21
-76.47375375723171
 31
0.0
  0
LINE
  5
7BE7
330
7BC2
100
AcDbEntity
  8
0
100
AcDbLine
 10
52.80554971783864
 20
-42.99739393919495
 30
0.0
 11
-6.591419901831363
 21
-77.29025033815943
 31
0.0
  0
ELLIPSE
  5
7BE8
330
7BC2
100
AcDbEntity
  8
0
100
AcDbEllipse
 10
-9.419847026577553
 20
-75.65725717630399
 30
0.0
 11
2.000000000000002
 21
-3.464101615137756
 31
0.0
210
0.0
220
0.0
230
1.0
 40
0.5773502691896259
 41
5.497787143782137
 42
7.068583470577033
  0
LINE
  5
7BE9
330
7BC2
100
AcDbEntity
  8
0
100
AcDbLine
 10
80.73626757470732
 20
-27.27983475633627
 30
0.0
 11
82.15048113708043
 21
-26.46333817540854
 31
0.0
  0
LINE
  5
7BEA
330
7BC2
100
AcDbEntity
  8
0
100
AcDbLine
 10
54.64831284456725
 20
-37.07006175227078
 30
0.0
 11
80.73626757470732
 21
-27.27983475633627
 31
0.0
  0
ELLIPSE
  5
7BEB
330
7BC2
100
AcDbEntity
  8
0
100
AcDbEllipse
 10
68.36189890394267
 20
28.03780860151718
 30
0.0
 11
-3.25
 21
5.629165124598853
 31
0.0
210
0.0
220
0.0
230
1.0
 40
0.5773502691896258
 41
0.2193254863005919
 42
2.922267167289199
  0
ELLIPSE
  5
7BEC
330
7BC2
100
AcDbEntity
  8
0
100
AcDbEllipse
 10
76.14007349699472
 20
27.62956031105332
 30
0.0
 11
1.250000000000129
 21
-2.165063509461022
 31
0.0
210
0.0
220
0.0
230
1.0
 40
0.5773502691896257
 41
3.74285687026858
 42
5.68192109050012
  0
LINE
  5
7BED
330
7BC2
100
AcDbEntity
  8
0
100
AcDbLine
 10
55.63397684258482
 20
51.71620944842125
 30
0.0
 11
82.15048113708036
 21
36.40689855602639
 31
0.0
  0
LINE
  5
7BEE
330
7BC2
100
AcDbEntity
  8
0
100
AcDbLine
 10
82.15048113708043
 20
-26.46333817540854
 30
0.0
 11
82.15048113708036
 21
36.40689855602639
 31
0.0
  0
ELLIPSE
  5
7BEF
330
7BC2
100
AcDbEntity
  8
0
100
AcDbEllipse
 10
52.80554971783864
 20
50.0832162865658
 30
0.0
 11
3.999999999999998
 21
-0.0000000000002379
 31
0.0
210
0.0
220
0.0
230
1.0
 40
0.5773502691896258
 41
0.7853981633976881
 42
2.356194490192583
  0
ELLIPSE
  5
7BF0
330
7BC2
100
AcDbEntity
  8
0
100
AcDbEllipse
 10
25.58193864215655
 20
25.38419471350206
 30
0.0
 11
1.249999999999871
 21
2.16506350946117
 31
0.0
210
0.0
220
0.0
230
1.0
 40
0.5773502691896259
 41
3.742856870268578
 42
5.681921090500118
  0
ELLIPSE
  5
7BF1
330
7BC2
100
AcDbEntity
  8
0
100
AcDbEllipse
 10
26.99615220452965
 20
24.56769813257434
 30
0.0
 11
-1.25
 21
-2.165063509461095
 31
0.0
210
0.0
220
0.0
230
1.0
 40
0.5773502691896259
 41
0.0
 42
6.283185307179586
  0
LINE
  5
7BF2
330
7BC2
100
AcDbEntity
  8
0
100
AcDbLine
 10
-8.005633464204468
 20
-71.57477427166536
 30
0.0
 11
20.27863778325743
 21
-28.30045548249591
 31
0.0
  0
LINE
  5
7BF3
330
7BC2
100
AcDbEntity
  8
0
100
AcDbLine
 10
-6.591419901831367
 20
-72.39127085259309
 30
0.0
 11
-8.005633464204468
 21
-71.57477427166536
 31
0.0
  0
LINE
  5
7BF4
330
7BC2
100
AcDbEntity
  8
0
100
AcDbLine
 10
21.69285134563053
 20
-29.11695206342364
 30
0.0
 11
-6.591419901831367
 21
-72.39127085259309
 31
0.0
  0
LINE
  5
7BF5
330
7BC2
100
AcDbEntity
  8
0
100
AcDbLine
 10
21.69285134563053
 20
-29.11695206342364
 30
0.0
 11
20.27863778325743
 21
-28.30045548249592
 31
0.0
  0
LINE
  5
7BF6
330
7BC2
100
AcDbEntity
  8
0
100
AcDbLine
 10
20.27863778325743
 20
-28.30045548249592
 30
0.0
 11
20.27863778325745
 21
34.56978124893899
 31
0.0
  0
LINE
  5
7BF7
330
7BC2
100
AcDbEntity
  8
0
100
AcDbLine
 10
21.69285134563055
 20
33.75328466801126
 30
0.0
 11
21.69285134563053
 21
-29.11695206342365
 31
0.0
  0
LINE
  5
7BF8
330
7BC2
100
AcDbEntity
  8
0
100
AcDbLine
 10
20.27863778325745
 20
34.56978124893899
 30
0.0
 11
21.69285134563055
 21
33.75328466801126
 31
0.0
  0
LINE
  5
7BF9
330
7BC2
100
AcDbEntity
  8
0
100
AcDbLine
 10
-6.591419901831367
 20
-72.39127085259309
 30
0.0
 11
-6.591419901831359
 21
-77.29025033815943
 31
0.0
  0
LINE
  5
7BFA
330
7BC2
100
AcDbEntity
  8
0
100
AcDbLine
 10
51.39133615546555
 20
-36.82263854592903
 30
0.0
 11
51.39133615546555
 21
50.89971286749354
 31
0.0
  0
LINE
  5
7BFB
330
7BC2
100
AcDbEntity
  8
0
100
AcDbLine
 10
51.39133615546555
 20
50.89971286749353
 30
0.0
 11
21.69285134563055
 21
33.75328466801126
 31
0.0
  0
LINE
  5
7BFC
330
7BC2
100
AcDbEntity
  8
0
100
AcDbLine
 10
20.27863778325745
 20
34.56978124893899
 30
0.0
 11
49.97712259309246
 21
51.71620944842125
 31
0.0
  0
LINE
  5
7BFD
330
7BC2
100
AcDbEntity
  8
0
100
AcDbLine
 10
-8.005633464204455
 20
-76.47375375723171
 30
0.0
 11
-8.005633464204468
 21
-71.57477427166536
 31
0.0
  0
LINE
  5
7BFE
330
7BC2
100
AcDbEntity
  8
0
100
AcDbLine
 10
-9.419847026577548
 20
-77.29025033815945
 30
0.0
 11
-9.419847026577548
 21
-78.92324350001489
 31
0.0
  0
LINE
  5
7BFF
330
7BC2
100
AcDbEntity
  8
0
100
AcDbLine
 10
-8.005633464204455
 20
-76.47375375723171
 30
0.0
 11
-6.591419901831359
 21
-77.29025033815943
 31
0.0
  0
ELLIPSE
  5
7C00
330
7BC2
100
AcDbEntity
  8
0
100
AcDbEllipse
 10
-9.419847026577553
 20
-75.65725717630399
 30
0.0
 11
1.000000000000001
 21
-1.732050807568878
 31
0.0
210
0.0
220
0.0
230
1.0
 40
0.5773502691896259
 41
5.497787143782137
 42
7.068583470577033
  0
LINE
  5
7C01
330
7BC2
100
AcDbEntity
  8
0
100
AcDbLine
 10
54.21976328021173
 20
-36.82263854592902
 30
0.0
 11
54.21976328021173
 21
50.89971286749353
 31
0.0
  0
ELLIPSE
  5
7C02
330
7BC2
100
AcDbEntity
  8
0
100
AcDbEllipse
 10
52.80554971783864
 20
50.0832162865658
 30
0.0
 11
-1.999999999999997
 21
-0.0000000000001195
 31
0.0
210
0.0
220
0.0
230
1.0
 40
0.5773502691896258
 41
3.926990816987004
 42
5.497787143781901
  0
LINE
  5
7C03
330
7BC2
100
AcDbEntity
  8
0
100
AcDbLine
 10
82.15048113708036
 20
36.40689855602639
 30
0.0
 11
80.73626757470727
 21
35.59040197509866
 31
0.0
  0
LINE
  5
7C04
330
7BC2
100
AcDbEntity
  8
0
100
AcDbLine
 10
80.73626757470732
 20
-27.27983475633627
 30
0.0
 11
80.73626757470727
 21
35.59040197509866
 31
0.0
  0
LINE
  5
7C05
330
7BC2
100
AcDbEntity
  8
0
100
AcDbLine
 10
51.39133615546555
 20
50.89971286749353
 30
0.0
 11
49.97712259309246
 21
51.71620944842125
 31
0.0
  0
LINE
  5
7C06
330
7BC2
100
AcDbEntity
  8
0
100
AcDbLine
 10
54.21976328021173
 20
50.89971286749353
 30
0.0
 11
55.63397684258482
 21
51.71620944842125
 31
0.0
  0
LINE
  5
7C07
330
7BC2
100
AcDbEntity
  8
0
100
AcDbLine
 10
80.73626757470727
 20
35.59040197509866
 30
0.0
 11
54.21976328021173
 21
50.89971286749353
 31
0.0
  0
ELLIPSE
  5
7C08
330
7BC2
100
AcDbEntity
  8
0
100
AcDbEllipse
 10
66.9476853415696
 20
27.22131202058946
 30
0.0
 11
-3.25
 21
5.62916512459885
 31
0.0
210
0.0
220
0.0
230
0.9999999999999998
 40
0.5773502691896257
 41
0.0
 42
6.283185307179586
  0
ELLIPSE
  5
7C09
330
7BC2
100
AcDbEntity
  8
0
100
AcDbEllipse
 10
74.72585993462162
 20
26.81306373012561
 30
0.0
 11
-1.249999999999999
 21
2.165063509461096
 31
0.0
210
0.0
220
0.0
230
1.0
 40
0.5773502691896257
 41
0.0
 42
6.283185307179586
  0
LINE
  5
7C0A
330
7BC2
100
AcDbEntity
  8
0
100
AcDbLine
 10
-7.41984702657755
 20
-79.12135879144175
 30
0.0
 11
51.97712259309247
 21
-44.82850239247725
 31
0.0
  0
ELLIPSE
  5
7C0B
330
7BC2
100
AcDbEntity
  8
0
100
AcDbEllipse
 10
68.36189890394267
 20
-12.7870204448691
 30
0.0
 11
-3.25
 21
5.629165124598853
 31
0.0
210
0.0
220
0.0
230
1.0
 40
0.5773502691896255
 41
0.2193254863005922
 42
2.922267167289199
  0
ELLIPSE
  5
7C0C
330
7BC2
100
AcDbEntity
  8
0
100
AcDbEllipse
 10
66.94768534156958
 20
-13.60351702579682
 30
0.0
 11
-3.25
 21
5.62916512459885
 31
0.0
210
0.0
220
0.0
230
0.9999999999999998
 40
0.5773502691896257
 41
0.0
 42
6.283185307179586
  0
ELLIPSE
  5
7C0D
330
7BC2
100
AcDbEntity
  8
0
100
AcDbEllipse
 10
60.58372431089065
 20
-20.54373796368249
 30
0.0
 11
1.250000000000129
 21
-2.165063509461022
 31
0.0
210
0.0
220
0.0
230
1.0
 40
0.5773502691896257
 41
3.742856870268578
 42
5.68192109050012
  0
ELLIPSE
  5
7C0E
330
7BC2
100
AcDbEntity
  8
0
100
AcDbEllipse
 10
60.58372431089065
 20
-4.213806345127979
 30
0.0
 11
1.250000000000129
 21
-2.165063509461022
 31
0.0
210
0.0
220
0.0
230
1.0
 40
0.5773502691896257
 41
3.742856870268576
 42
5.681921090500121
  0
ELLIPSE
  5
7C0F
330
7BC2
100
AcDbEntity
  8
0
100
AcDbEllipse
 10
60.58372431089065
 20
12.11612527342653
 30
0.0
 11
1.250000000000129
 21
-2.165063509461022
 31
0.0
210
0.0
220
0.0
230
1.0
 40
0.5773502691896257
 41
3.742856870268578
 42
5.681921090500121
  0
ELLIPSE
  5
7C10
330
7BC2
100
AcDbEntity
  8
0
100
AcDbEllipse
 10
60.58372431089065
 20
28.44605689198105
 30
0.0
 11
1.250000000000129
 21
-2.165063509461022
 31
0.0
210
0.0
220
0.0
230
1.0
 40
0.5773502691896257
 41
3.74285687026858
 42
5.68192109050012
  0
ELLIPSE
  5
7C11
330
7BC2
100
AcDbEntity
  8
0
100
AcDbEllipse
 10
59.16951074851755
 20
-21.36023454461021
 30
0.0
 11
-1.249999999999999
 21
2.165063509461096
 31
0.0
210
0.0
220
0.0
230
1.0
 40
0.5773502691896257
 41
0.0
 42
6.283185307179586
  0
ELLIPSE
  5
7C12
330
7BC2
100
AcDbEntity
  8
0
100
AcDbEllipse
 10
59.16951074851755
 20
-5.030302926055698
 30
0.0
 11
-1.249999999999999
 21
2.165063509461096
 31
0.0
210
0.0
220
0.0
230
1.0
 40
0.5773502691896257
 41
0.0
 42
6.283185307179586
  0
ELLIPSE
  5
7C13
330
7BC2
100
AcDbEntity
  8
0
100
AcDbEllipse
 10
59.16951074851755
 20
11.29962869249881
 30
0.0
 11
-1.249999999999999
 21
2.165063509461096
 31
0.0
210
0.0
220
0.0
230
1.0
 40
0.5773502691896257
 41
0.0
 42
6.283185307179586
  0
ELLIPSE
  5
7C14
330
7BC2
100
AcDbEntity
  8
0
100
AcDbEllipse
 10
59.16951074851755
 20
27.62956031105333
 30
0.0
 11
-1.249999999999999
 21
2.165063509461096
 31
0.0
210
0.0
220
0.0
230
1.0
 40
0.5773502691896257
 41
0.0
 42
6.283185307179586
  0
ELLIPSE
  5
7C15
330
7BC2
100
AcDbEntity
  8
0
100
AcDbEllipse
 10
60.58372431089065
 20
44.77598851053557
 30
0.0
 11
1.250000000000129
 21
-2.165063509461022
 31
0.0
210
0.0
220
0.0
230
1.0
 40
0.5773502691896257
 41
3.74285687026858
 42
5.681921090500121
  0
ELLIPSE
  5
7C16
330
7BC2
100
AcDbEntity
  8
0
100
AcDbEllipse
 10
-1.641672433525509
 20
79.06884490950005
 30
0.0
 11
1.25
 21
-2.165063509461095
 31
0.0
210
0.0
220
0.0
230
1.0
 40
0.5773502691896262
 41
0.0
 42
6.283185307179586
  0
ELLIPSE
  5
7C17
330
7BC2
100
AcDbEntity
  8
0
100
AcDbEllipse
 10
-0.2274588711524217
 20
79.88534149042779
 30
0.0
 11
1.25000000000013
 21
-2.165063509461021
 31
0.0
210
0.0
220
0.0
230
1.0
 40
0.5773502691896261
 41
3.742856870268578
 42
5.681921090500117
  0
ELLIPSE
  5
7C18
330
7BC2
100
AcDbEntity
  8
0
100
AcDbEllipse
 10
59.16951074851755
 20
43.95949192960785
 30
0.0
 11
-1.249999999999999
 21
2.165063509461096
 31
0.0
210
0.0
220
0.0
230
1.0
 40
0.5773502691896257
 41
0.0
 42
6.283185307179586
  0
ELLIPSE
  5
7C19
330
7BC2
100
AcDbEntity
  8
0
100
AcDbEllipse
 10
76.14007349699472
 20
-21.36023454461022
 30
0.0
 11
1.250000000000129
 21
-2.165063509461022
 31
0.0
210
0.0
220
0.0
230
1.0
 40
0.5773502691896257
 41
3.742856870268578
 42
5.68192109050012
  0
ELLIPSE
  5
7C1A
330
7BC2
100
AcDbEntity
  8
0
100
AcDbEllipse
 10
76.14007349699472
 20
-5.030302926055707
 30
0.0
 11
1.250000000000129
 21
-2.165063509461022
 31
0.0
210
0.0
220
0.0
230
1.0
 40
0.5773502691896257
 41
3.742856870268576
 42
5.681921090500121
  0
ELLIPSE
  5
7C1B
330
7BC2
100
AcDbEntity
  8
0
100
AcDbEllipse
 10
76.14007349699472
 20
11.29962869249881
 30
0.0
 11
1.250000000000129
 21
-2.165063509461022
 31
0.0
210
0.0
220
0.0
230
1.0
 40
0.5773502691896257
 41
3.742856870268578
 42
5.681921090500121
  0
ELLIPSE
  5
7C1C
330
7BC2
100
AcDbEntity
  8
0
100
AcDbEllipse
 10
74.72585993462162
 20
-22.17673112553795
 30
0.0
 11
-1.249999999999999
 21
2.165063509461096
 31
0.0
210
0.0
220
0.0
230
1.0
 40
0.5773502691896257
 41
0.0
 42
6.283185307179586
  0
ELLIPSE
  5
7C1D
330
7BC2
100
AcDbEntity
  8
0
100
AcDbEllipse
 10
74.72585993462162
 20
-5.846799506983431
 30
0.0
 11
-1.249999999999999
 21
2.165063509461096
 31
0.0
210
0.0
220
0.0
230
1.0
 40
0.5773502691896257
 41
0.0
 42
6.283185307179586
  0
ELLIPSE
  5
7C1E
330
7BC2
100
AcDbEntity
  8
0
100
AcDbEllipse
 10
74.72585993462162
 20
10.48313211157108
 30
0.0
 11
-1.249999999999999
 21
2.165063509461096
 31
0.0
210
0.0
220
0.0
230
1.0
 40
0.5773502691896257
 41
0.0
 42
6.283185307179586
  0
LINE
  5
7C1F
330
7BC2
100
AcDbEntity
  8
0
100
AcDbLine
 10
-20.4084138965665
 20
28.44870143918173
 30
0.0
 11
-19.70120205257584
 21
27.36668272565119
 31
0.0
  0
LINE
  5
7C20
330
7BC2
100
AcDbEntity
  8
0
100
AcDbLine
 10
-24.9761962126816
 20
-2.17256489280869
 30
0.0
 11
-53.26046746014348
 21
-45.44688368197816
 31
0.0
  0
LINE
  5
7C21
330
7BC2
100
AcDbEntity
  8
0
100
AcDbLine
 10
-26.39040977505469
 20
-1.356068311880962
 30
0.0
 11
-24.9761962126816
 21
-2.17256489280869
 31
0.0
  0
LINE
  5
7C22
330
7BC2
100
AcDbEntity
  8
0
100
AcDbLine
 10
-54.67468102251658
 20
-44.63038710105042
 30
0.0
 11
-26.39040977505469
 21
-1.356068311880962
 31
0.0
  0
LINE
  5
7C23
330
7BC2
100
AcDbEntity
  8
0
100
AcDbLine
 10
-53.26046746014348
 20
-45.44688368197816
 30
0.0
 11
-54.67468102251658
 21
-44.63038710105042
 31
0.0
  0
LINE
  5
7C24
330
7BC2
100
AcDbEntity
  8
0
100
AcDbLine
 10
-24.97619621268158
 20
60.69767183862622
 30
0.0
 11
-24.9761962126816
 21
-2.17256489280869
 31
0.0
  0
LINE
  5
7C25
330
7BC2
100
AcDbEntity
  8
0
100
AcDbLine
 10
-26.39040977505468
 20
61.51416841955394
 30
0.0
 11
-24.97619621268158
 21
60.69767183862622
 31
0.0
  0
LINE
  5
7C26
330
7BC2
100
AcDbEntity
  8
0
100
AcDbLine
 10
-26.39040977505469
 20
-1.356068311880962
 30
0.0
 11
-26.39040977505468
 21
61.51416841955394
 31
0.0
  0
ELLIPSE
  5
7C27
330
7BC2
100
AcDbEntity
  8
0
100
AcDbEllipse
 10
-9.419847026577539
 20
71.31212739068665
 30
0.0
 11
-3.250000000000005
 21
5.629165124598849
 31
0.0
210
0.0
220
0.0
230
0.9999999999999998
 40
0.5773502691896259
 41
4.71238898038469
 42
7.853981633974484
  0
ELLIPSE
  5
7C28
330
7BC2
100
AcDbEntity
  8
0
100
AcDbEllipse
 10
-8.00563346420445
 20
72.12862397161439
 30
0.0
 11
-3.250000000000003
 21
5.629165124598849
 31
0.0
210
0.0
220
0.0
230
1.0
 40
0.5773502691896259
 41
0.2193254863005916
 42
1.570796326794897
  0
ELLIPSE
  5
7C29
330
7BC2
100
AcDbEntity
  8
0
100
AcDbEllipse
 10
-17.19802161962957
 20
79.88534149042779
 30
0.0
 11
1.25
 21
-2.165063509461095
 31
0.0
210
0.0
220
0.0
230
1.0
 40
0.5773502691896262
 41
0.0
 42
6.283185307179586
  0
ELLIPSE
  5
7C2A
330
7BC2
100
AcDbEntity
  8
0
100
AcDbEllipse
 10
-15.78380805725648
 20
80.70183807135551
 30
0.0
 11
1.25000000000013
 21
-2.165063509461021
 31
0.0
210
0.0
220
0.0
230
1.0
 40
0.5773502691896261
 41
3.742856870268578
 42
5.681921090500116
  0
LINE
  5
7C2B
330
7BC2
100
AcDbEntity
  8
0
100
AcDbLine
 10
3.308075034780313
 20
78.66059661903618
 30
0.0
 11
3.308075034780322
 21
80.29358978089165
 31
0.0
  0
ELLIPSE
  5
7C2C
330
7BC2
100
AcDbEntity
  8
0
100
AcDbEllipse
 10
1.893861472407221
 20
79.47709319996393
 30
0.0
 11
1.999999999999997
 21
-0.0000000000000001
 31
0.0
210
0.0
220
0.0
230
1.0
 40
0.5773502691896258
 41
5.497787143782135
 42
7.068583470577028
  0
LINE
  5
7C2D
330
7BC2
100
AcDbEntity
  8
0
100
AcDbLine
 10
4.72228859715341
 20
77.84410003810847
 30
0.0
 11
4.722288597153405
 21
-9.878251375314057
 31
0.0
  0
ELLIPSE
  5
7C2E
330
7BC2
100
AcDbEntity
  8
0
100
AcDbEllipse
 10
1.893861472407221
 20
79.47709319996393
 30
0.0
 11
3.999999999999999
 21
-0.0000000000000001
 31
0.0
210
0.0
220
0.0
230
1.0
 40
0.5773502691896258
 41
5.497787143782139
 42
7.068583470577035
  0
LINE
  5
7C2F
330
7BC2
100
AcDbEntity
  8
0
100
AcDbLine
 10
3.308075034780322
 20
80.29358978089165
 30
0.0
 11
4.722288597153418
 21
81.11008636181939
 31
0.0
  0
LINE
  5
7C30
330
7BC2
100
AcDbEntity
  8
0
100
AcDbLine
 10
3.308075034780313
 20
78.66059661903621
 30
0.0
 11
4.72228859715341
 21
77.84410003810847
 31
0.0
  0
LINE
  5
7C31
330
7BC2
100
AcDbEntity
  8
0
100
AcDbLine
 10
5.89386147240722
 20
-8.245258213458615
 30
0.0
 11
5.893861472407224
 21
79.47709319996393
 31
0.0
  0
LINE
  5
7C32
330
7BC2
100
AcDbEntity
  8
0
100
AcDbLine
 10
-23.20842925971523
 20
95.60290067328651
 30
0.0
 11
3.308075034780322
 21
80.29358978089165
 31
0.0
  0
LINE
  5
7C33
330
7BC2
100
AcDbEntity
  8
0
100
AcDbLine
 10
-23.20842925971526
 20
63.35128572664133
 30
0.0
 11
-23.20842925971523
 21
95.60290067328651
 31
0.0
  0
LINE
  5
7C34
330
7BC2
100
AcDbEntity
  8
0
100
AcDbLine
 10
-53.26046746014348
 20
-50.3458631675445
 30
0.0
 11
-53.26046746014348
 21
-45.44688368197816
 31
0.0
  0
LINE
  5
7C35
330
7BC2
100
AcDbEntity
  8
0
100
AcDbLine
 10
-24.97619621268158
 20
60.69767183862622
 30
0.0
 11
4.72228859715341
 21
77.84410003810847
 31
0.0
  0
LINE
  5
7C36
330
7BC2
100
AcDbEntity
  8
0
100
AcDbLine
 10
-54.67468102251658
 20
-44.63038710105042
 30
0.0
 11
-54.67468102251658
 21
-49.52936658661677
 31
0.0
  0
LINE
  5
7C37
330
7BC2
100
AcDbEntity
  8
0
100
AcDbLine
 10
3.308075034780313
 20
78.66059661903621
 30
0.0
 11
-26.39040977505468
 21
61.51416841955394
 31
0.0
  0
LINE
  5
7C38
330
7BC2
100
AcDbEntity
  8
0
100
AcDbLine
 10
4.722288597153418
 20
81.11008636181939
 30
0.0
 11
-21.79421569734213
 21
96.41939725421424
 31
0.0
  0
LINE
  5
7C39
330
7BC2
100
AcDbEntity
  8
0
100
AcDbLine
 10
-21.79421569734213
 20
96.41939725421424
 30
0.0
 11
-23.20842925971523
 21
95.60290067328651
 31
0.0
  0
ELLIPSE
  5
7C3A
330
7BC2
100
AcDbEntity
  8
0
100
AcDbEllipse
 10
25.58193864215655
 20
-39.935531760716
 30
0.0
 11
1.249999999999871
 21
2.16506350946117
 31
0.0
210
0.0
220
0.0
230
1.0
 40
0.5773502691896259
 41
3.742856870268578
 42
5.681921090500114
  0
ELLIPSE
  5
7C3B
330
7BC2
100
AcDbEntity
  8
0
100
AcDbEllipse
 10
26.99615220452964
 20
-40.75202834164373
 30
0.0
 11
-1.25
 21
-2.165063509461095
 31
0.0
210
0.0
220
0.0
230
1.0
 40
0.5773502691896259
 41
0.0
 42
6.283185307179586
  0
ELLIPSE
  5
7C3C
330
7BC2
100
AcDbEntity
  8
0
100
AcDbEllipse
 10
25.58193864215655
 20
-23.60560014216148
 30
0.0
 11
1.249999999999871
 21
2.16506350946117
 31
0.0
210
0.0
220
0.0
230
1.0
 40
0.5773502691896259
 41
3.742856870268578
 42
5.681921090500118
  0
ELLIPSE
  5
7C3D
330
7BC2
100
AcDbEntity
  8
0
100
AcDbEllipse
 10
26.99615220452964
 20
-24.42209672308921
 30
0.0
 11
-1.25
 21
-2.165063509461095
 31
0.0
210
0.0
220
0.0
230
1.0
 40
0.5773502691896259
 41
0.0
 42
6.283185307179586
  0
ELLIPSE
  5
7C3E
330
7BC2
100
AcDbEntity
  8
0
100
AcDbEllipse
 10
25.58193864215655
 20
-7.27566852360697
 30
0.0
 11
1.249999999999871
 21
2.16506350946117
 31
0.0
210
0.0
220
0.0
230
1.0
 40
0.5773502691896259
 41
3.742856870268578
 42
5.681921090500118
  0
ELLIPSE
  5
7C3F
330
7BC2
100
AcDbEntity
  8
0
100
AcDbEllipse
 10
26.99615220452964
 20
-8.092165104534698
 30
0.0
 11
-1.25
 21
-2.165063509461095
 31
0.0
210
0.0
220
0.0
230
1.0
 40
0.5773502691896259
 41
0.0
 42
6.283185307179586
  0
ELLIPSE
  5
7C40
330
7BC2
100
AcDbEntity
  8
0
100
AcDbEllipse
 10
25.58193864215655
 20
9.054263094947545
 30
0.0
 11
1.249999999999871
 21
2.16506350946117
 31
0.0
210
0.0
220
0.0
230
1.0
 40
0.5773502691896259
 41
3.742856870268578
 42
5.681921090500118
  0
ELLIPSE
  5
7C41
330
7BC2
100
AcDbEntity
  8
0
100
AcDbEllipse
 10
26.99615220452965
 20
8.237766514019817
 30
0.0
 11
-1.25
 21
-2.165063509461095
 31
0.0
210
0.0
220
0.0
230
1.0
 40
0.5773502691896259
 41
0.0
 42
6.283185307179586
  0
ELLIPSE
  5
7C42
330
7BC2
100
AcDbEntity
  8
0
100
AcDbEllipse
 10
-21.08710891615557
 20
-4.826178780823799
 30
0.0
 11
1.24999999999987
 21
2.16506350946117
 31
0.0
210
0.0
220
0.0
230
1.0
 40
0.5773502691896257
 41
3.742856870268578
 42
5.681921090500114
  0
ELLIPSE
  5
7C43
330
7BC2
100
AcDbEntity
  8
0
100
AcDbEllipse
 10
-19.67289535378246
 20
-5.642675361751527
 30
0.0
 11
1.25
 21
2.165063509461095
 31
0.0
210
0.0
220
0.0
230
1.0
 40
0.5773502691896257
 41
0.0
 42
6.283185307179586
  0
ELLIPSE
  5
7C44
330
7BC2
100
AcDbEntity
  8
0
100
AcDbEllipse
 10
-21.08710891615557
 20
11.50375283773071
 30
0.0
 11
1.24999999999987
 21
2.16506350946117
 31
0.0
210
0.0
220
0.0
230
1.0
 40
0.5773502691896257
 41
3.742856870268578
 42
5.681921090500111
  0
ELLIPSE
  5
7C45
330
7BC2
100
AcDbEntity
  8
0
100
AcDbEllipse
 10
-19.67289535378246
 20
10.68725625680299
 30
0.0
 11
1.25
 21
2.165063509461095
 31
0.0
210
0.0
220
0.0
230
1.0
 40
0.5773502691896257
 41
0.0
 42
6.283185307179586
  0
ELLIPSE
  5
7C46
330
7BC2
100
AcDbEntity
  8
0
100
AcDbEllipse
 10
-21.08710891615557
 20
27.83368445628524
 30
0.0
 11
1.24999999999987
 21
2.16506350946117
 31
0.0
210
0.0
220
0.0
230
1.0
 40
0.5773502691896257
 41
3.742856870268578
 42
5.681921090500111
  0
ELLIPSE
  5
7C47
330
7BC2
100
AcDbEntity
  8
0
100
AcDbEllipse
 10
-19.67289535378246
 20
27.0171878753575
 30
0.0
 11
1.25
 21
2.165063509461095
 31
0.0
210
0.0
220
0.0
230
1.0
 40
0.5773502691896257
 41
0.0
 42
6.283185307179586
  0
ELLIPSE
  5
7C48
330
7BC2
100
AcDbEntity
  8
0
100
AcDbEllipse
 10
-21.08710891615557
 20
44.16361607483974
 30
0.0
 11
1.24999999999987
 21
2.16506350946117
 31
0.0
210
0.0
220
0.0
230
1.0
 40
0.5773502691896257
 41
3.742856870268578
 42
5.681921090500118
  0
ELLIPSE
  5
7C49
330
7BC2
100
AcDbEntity
  8
0
100
AcDbEllipse
 10
-19.67289535378246
 20
43.34711949391202
 30
0.0
 11
1.25
 21
2.165063509461095
 31
0.0
210
0.0
220
0.0
230
1.0
 40
0.5773502691896257
 41
0.0
 42
6.283185307179586
  0
ELLIPSE
  5
7C4A
330
7BC2
100
AcDbEntity
  8
0
100
AcDbEllipse
 10
-21.08710891615557
 20
60.49354769339426
 30
0.0
 11
1.24999999999987
 21
2.16506350946117
 31
0.0
210
0.0
220
0.0
230
1.0
 40
0.5773502691896257
 41
3.742856870268578
 42
5.681921090500118
  0
ELLIPSE
  5
7C4B
330
7BC2
100
AcDbEntity
  8
0
100
AcDbEllipse
 10
-19.67289535378246
 20
59.67705111246653
 30
0.0
 11
1.25
 21
2.165063509461095
 31
0.0
210
0.0
220
0.0
230
1.0
 40
0.5773502691896257
 41
0.0
 42
6.283185307179586
  0
ENDBLK
  5
7BC4
330
7BC2
100
AcDbEntity
  8
0
100
AcDbBlockEnd
  0
ENDSEC
  0
SECTION
  2
ENTITIES
  0
INSERT
  5
7C4C
330
1F
100
AcDbEntity
  8
0
100
AcDbBlockReference
  2
SAE300_64_2-Front
 10
0.0
 20
0.0
 30
0.0
  0
INSERT
  5
7C4D
330
1F
100
AcDbEntity
  8
0
100
AcDbBlockReference
  2
SAE300_64_2-Left
 10
109.5
 20
0.0
 30
0.0
  0
INSERT
  5
7C4E
330
1F
100
AcDbEntity
  8
0
100
AcDbBlockReference
  2
SAE300_64_2-Right
 10
-109.5
 20
0.0
 30
0.0
  0
INSERT
  5
7C4F
330
1F
100
AcDbEntity
  8
0
100
AcDbBlockReference
  2
SAE300_64_2-Top
 10
0.0
 20
-38.0
 30
0.0
  0
INSERT
  5
7C50
330
1F
100
AcDbEntity
  8
0
100
AcDbBlockReference
  2
SAE300_64_2-Bottom
 10
0.0
 20
154.0
 30
0.0
  0
INSERT
  5
7C51
330
1F
100
AcDbEntity
  8
0
100
AcDbBlockReference
  2
SAE300_64_2-ISO
 10
164.1746810225167
 20
-134.4193972542142
 30
0.0
  0
MTEXT
  5
7C52
330
1F
100
AcDbEntity
  8
0
100
AcDbMText
 10
0.0
 20
-160.0
 30
0.0
 40
12.0
 41
0.0
 71
     5
 72
     5
  1
SAE300/64/2
 73
     1
 44
1.0
1001
ACAD
1000
MTEXTBEGIN
1070
    73
1070
     1
1070
    44
1040
1.0
1070
    74
1070
     0
1000
MTEXTEND
  0
ENDSEC
  0
SECTION
  2
OBJECTS
  0
DICTIONARY
  5
C
330
0
100
AcDbDictionary
281
     1
  3
ACAD_CIP_PREVIOUS_PRODUCT_INFO
350
216
  3
ACAD_COLOR
350
6B
  3
ACAD_DETAILVIEWSTYLE
350
21B
  3
ACAD_GROUP
350
D
  3
ACAD_LAYOUT
350
1A
  3
ACAD_MATERIAL
350
6A
  3
ACAD_MLEADERSTYLE
350
12D
  3
ACAD_MLINESTYLE
350
17
  3
ACAD_PLOTSETTINGS
350
19
  3
ACAD_PLOTSTYLENAME
350
E
  3
ACAD_SCALELIST
350
10C
  3
ACAD_SECTIONVIEWSTYLE
350
219
  3
ACAD_TABLESTYLE
350
7E
  3
ACAD_VISUALSTYLE
350
EF
  3
ACDB_RECOMPOSE_DATA
350
7D53
  3
AcDbVariableDictionary
350
5E
  3
DWGPROPS
350
7D54
  0
DICTIONARY
  5
7CA3
330
8
100
AcDbDictionary
280
     1
281
     1
  0
DICTIONARY
  5
1FF
330
2
100
AcDbDictionary
280
     1
281
     1
  3
ACAD_LAYERSTATES
360
200
  0
DICTIONARY
  5
13C
330
10
100
AcDbDictionary
280
     1
281
     1
  0
DICTIONARY
  5
1CE
330
1F
100
AcDbDictionary
280
     1
281
     1
  3
ACAD_LAYOUTSELFREF
360
7CAB
  0
DICTIONARY
  5
7C56
330
D2
100
AcDbDictionary
280
     1
281
     1
  3
ACAD_LAYOUTSELFREF
360
7CB4
  0
DICTIONARY
  5
7C58
330
D6
100
AcDbDictionary
280
     1
281
     1
  3
ACAD_LAYOUTSELFREF
360
7CB7
  0
XRECORD
  5
216
102
{ACAD_REACTORS
330
C
102
}
330
C
100
AcDbXrecord
280
     1
300
ACD
300
2021
300
87393ACD_2021_0F
  0
DICTIONARY
  5
6B
102
{ACAD_REACTORS
330
C
102
}
330
C
100
AcDbDictionary
281
     1
  0
DICTIONARY
  5
21B
102
{ACAD_REACTORS
330
C
102
}
330
C
100
AcDbDictionary
281
     1
  3
Metric50
350
21C
  0
DICTIONARY
  5
D
102
{ACAD_REACTORS
330
C
102
}
330
C
100
AcDbDictionary
281
     1
  0
DICTIONARY
  5
1A
102
{ACAD_REACTORS
330
C
102
}
330
C
100
AcDbDictionary
281
     1
  3
Layout1
350
D3
  3
Layout2
350
D7
  3
Model
350
22
  0
DICTIONARY
  5
6A
102
{ACAD_REACTORS
330
C
102
}
330
C
100
AcDbDictionary
281
     1
  3
ByBlock
350
ED
  3
ByLayer
350
EC
  3
Global
350
EE
  0
DICTIONARY
  5
12D
102
{ACAD_REACTORS
330
C
102
}
330
C
100
AcDbDictionary
281
     1
  3
Standard
350
12E
  0
DICTIONARY
  5
17
102
{ACAD_REACTORS
330
C
102
}
330
C
100
AcDbDictionary
281
     1
  3
Standard
350
18
  0
DICTIONARY
  5
19
102
{ACAD_REACTORS
330
C
102
}
330
C
100
AcDbDictionary
281
     1
  0
ACDBDICTIONARYWDFLT
  5
E
102
{ACAD_REACTORS
330
C
102
}
330
C
100
AcDbDictionary
281
     1
  3
Normal
350
F
100
AcDbDictionaryWithDefault
340
F
  0
DICTIONARY
  5
10C
102
{ACAD_REACTORS
330
C
102
}
330
C
100
AcDbDictionary
281
     1
  3
A0
350
10D
  3
A1
350
1BE
  3
A2
350
1BF
  3
A3
350
1C0
  3
A4
350
1C1
  3
A5
350
1C2
  3
A6
350
1C3
  3
A7
350
1C4
  3
A8
350
1C5
  3
A9
350
1C6
  3
B0
350
1C7
  3
B1
350
1C8
  3
B2
350
1C9
  3
B3
350
1CA
  3
B4
350
1CB
  3
B5
350
1CC
  3
B6
350
1CD
  0
DICTIONARY
  5
219
102
{ACAD_REACTORS
330
C
102
}
330
C
100
AcDbDictionary
281
     1
  3
Metric50
350
21A
  0
DICTIONARY
  5
7E
102
{ACAD_REACTORS
330
C
102
}
330
C
100
AcDbDictionary
281
     1
  3
Standard
350
7F
  0
DICTIONARY
  5
EF
102
{ACAD_REACTORS
330
C
102
}
330
C
100
AcDbDictionary
281
     1
  3
2dWireframe
350
F5
  3
Basic
350
F4
  3
Brighten
350
FB
  3
ColorChange
350
FF
  3
Conceptual
350
F8
  3
Dim
350
FA
  3
EdgeColorOff
350
1E6
  3
Facepattern
350
FE
  3
Flat
350
F0
  3
FlatWithEdges
350
F1
  3
Gouraud
350
F2
  3
GouraudWithEdges
350
F3
  3
Hidden
350
F7
  3
JitterOff
350
1E4
  3
Linepattern
350
FD
  3
OverhangOff
350
1E5
  3
Realistic
350
F9
  3
Shaded
350
1F3
  3
Shaded with edges
350
1F2
  3
Shades of Gray
350
1EF
  3
Sketchy
350
1F0
  3
Thicken
350
FC
  3
Wireframe
350
F6
  3
X-Ray
350
1F1
  0
XRECORD
  5
7D53
102
{ACAD_REACTORS
330
C
102
}
330
C
100
AcDbXrecord
280
     1
 90
        1
330
7F
  0
DICTIONARY
  5
5E
102
{ACAD_REACTORS
330
C
102
}
330
C
100
AcDbDictionary
281
     1
  3
CANNOSCALE
350
146
  3
CENTEREXE
350
259
  3
CENTERLTYPEFILE
350
25A
  3
CMLEADERSTYLE
350
145
  3
CTABLESTYLE
350
84
  3
CVIEWDETAILSTYLE
350
227
  3
CVIEWSECTIONSTYLE
350
228
  3
DIMASSOC
350
5F
  3
HIDETEXT
350
63
  3
INDEXCTL
350
7D00
  3
LAYEREVAL
350
1AE
  3
LAYERNOTIFY
350
1AF
  3
LIGHTINGUNITS
350
7CFE
  3
MSLTSCALE
350
7CFD
  3
PSOLHEIGHT
350
7D50
  3
PSOLWIDTH
350
7D4F
  3
SORTENTS
350
7CFF
  3
XCLIPFRAME
350
7D51
  0
XRECORD
  5
7D54
102
{ACAD_REACTORS
330
C
102
}
330
C
100
AcDbXrecord
280
     1
  1
DWGPROPS COOKIE
  2

  3

  4

  6

  7

  8
truole
  9

300
=
301
=
302
=
303
=
304
=
305
=
306
=
307
=
308
=
309
=
 40
0.0076736111111111
 41
2460398.356956019
 42
2460398.374039352
  1

 90
        0
  0
DICTIONARY
  5
200
102
{ACAD_REACTORS
330
1FF
102
}
330
1FF
100
AcDbDictionary
281
     1
  0
XRECORD
  5
7CAB
102
{ACAD_REACTORS
330
1CE
102
}
330
1CE
100
AcDbXrecord
280
     1
340
1F
  0
XRECORD
  5
7CB4
102
{ACAD_REACTORS
330
7C56
102
}
330
7C56
100
AcDbXrecord
280
     1
340
D2
  0
XRECORD
  5
7CB7
102
{ACAD_REACTORS
330
7C58
102
}
330
7C58
100
AcDbXrecord
280
     1
340
D6
  0
ACDBDETAILVIEWSTYLE
  5
21C
102
{ACAD_XDICTIONARY
360
7D93
102
}
102
{ACAD_REACTORS
330
21B
102
}
330
21B
100
AcDbModelDocViewStyle
 70
     0
  3
Metric50
290
     0
100
AcDbDetailViewStyle
 70
     0
 71
     0
 90
        3
 71
     1
340
11
 40
5.0
340
0
 40
5.0
300

 40
0.0
280
     1
 71
     2
340
16
 90
       25
 71
     3
340
11
 40
5.0
 90
        0
 40
15.0
 90
        1
300
%<\AcVar ViewDetailId>% (%<\AcVar ViewScale \f "%sn">%)
 71
     4
340
16
 90
       25
340
16
 90
       25
280
     0
  0
LAYOUT
  5
D3
102
{ACAD_XDICTIONARY
360
7D58
102
}
102
{ACAD_REACTORS
330
1A
102
}
330
1A
100
AcDbPlotSettings
  1

  2
C:\Documents and Settings\basas\Application Data\Autodesk\AutoCAD 2005\R16.1\enu\plotters\Default Windows System Printer.pc3
  4

  6

 40
0.0
 41
0.0
 42
0.0
 43
0.0
 44
0.0
 45
0.0
 46
0.0
 47
0.0
 48
0.0
 49
0.0
140
0.0
141
0.0
142
1.0
143
1.0
 70
   688
 72
     0
 73
     0
 74
     5
  7

 75
    16
147
1.0
148
0.0
149
0.0
100
AcDbLayout
  1
Layout1
 70
     1
 71
     1
 10
0.0
 20
0.0
 11
12.0
 21
9.0
 12
0.0
 22
0.0
 32
0.0
 14
0.0
 24
0.0
 34
0.0
 15
0.0
 25
0.0
 35
0.0
146
0.0
 13
0.0
 23
0.0
 33
0.0
 16
1.0
 26
0.0
 36
0.0
 17
0.0
 27
1.0
 37
0.0
 76
     0
330
D2
  0
LAYOUT
  5
D7
102
{ACAD_XDICTIONARY
360
7D5A
102
}
102
{ACAD_REACTORS
330
1A
102
}
330
1A
100
AcDbPlotSettings
  1

  2
C:\Documents and Settings\basas\Application Data\Autodesk\AutoCAD 2005\R16.1\enu\plotters\Default Windows System Printer.pc3
  4

  6

 40
0.0
 41
0.0
 42
0.0
 43
0.0
 44
0.0
 45
0.0
 46
0.0
 47
0.0
 48
0.0
 49
0.0
140
0.0
141
0.0
142
1.0
143
1.0
 70
   688
 72
     0
 73
     0
 74
     5
  7

 75
    16
147
1.0
148
0.0
149
0.0
100
AcDbLayout
  1
Layout2
 70
     1
 71
     2
 10
0.0
 20
0.0
 11
12.0
 21
9.0
 12
0.0
 22
0.0
 32
0.0
 14
0.0
 24
0.0
 34
0.0
 15
0.0
 25
0.0
 35
0.0
146
0.0
 13
0.0
 23
0.0
 33
0.0
 16
1.0
 26
0.0
 36
0.0
 17
0.0
 27
1.0
 37
0.0
 76
     0
330
D6
  0
LAYOUT
  5
22
102
{ACAD_XDICTIONARY
360
7D55
102
}
102
{ACAD_REACTORS
330
1A
102
}
330
1A
100
AcDbPlotSettings
  1

  2
none_device
  4
ISO_A4_(210.00_x_297.00_MM)
  6

 40
7.5
 41
20.0
 42
7.5
 43
20.0
 44
210.0
 45
297.0
 46
11.54999923706054
 47
-13.65000009536743
 48
0.0
 49
0.0
140
0.0
141
0.0
142
1.0
143
8.704084754739808
 70
 11952
 72
     1
 73
     0
 74
     0
  7

 75
     0
147
0.1148885871608098
148
0.0
149
0.0
100
AcDbLayout
  1
Model
 70
     1
 71
     0
 10
0.0
 20
0.0
 11
12.0
 21
9.0
 12
0.0
 22
0.0
 32
0.0
 14
0.0
 24
0.0
 34
0.0
 15
0.0
 25
0.0
 35
0.0
146
0.0
 13
0.0
 23
0.0
 33
0.0
 16
1.0
 26
0.0
 36
0.0
 17
0.0
 27
1.0
 37
0.0
 76
     0
330
1F
331
EA
1001
ACAD_PSEXT
1000
None
1000
None
1000
Not applicable
1000
The layout will not be plotted unless a new plotter configuration name is selected.
1070
     0
  0
MATERIAL
  5
ED
102
{ACAD_XDICTIONARY
360
1F9
102
}
102
{ACAD_REACTORS
330
6A
102
}
330
6A
100
AcDbMaterial
  1
ByBlock
  0
MATERIAL
  5
EC
102
{ACAD_XDICTIONARY
360
1F7
102
}
102
{ACAD_REACTORS
330
6A
102
}
330
6A
100
AcDbMaterial
  1
ByLayer
  0
MATERIAL
  5
EE
102
{ACAD_XDICTIONARY
360
173
102
}
102
{ACAD_REACTORS
330
6A
102
}
330
6A
100
AcDbMaterial
  1
Global
 43
0.0007999999797903
 43
0.0
 43
0.0
 43
0.0
 43
0.0
 43
0.0007999999797903
 43
0.0
 43
0.0
 43
0.0
 43
0.0
 43
1.0
 43
0.0
 43
0.0
 43
0.0
 43
0.0
 43
1.0
 49
0.0007999999797903
 49
0.0
 49
0.0
 49
0.0
 49
0.0
 49
0.0007999999797903
 49
0.0
 49
0.0
 49
0.0
 49
0.0
 49
1.0
 49
0.0
 49
0.0
 49
0.0
 49
0.0
 49
1.0
142
0.0007999999797903
142
0.0
142
0.0
142
0.0
142
0.0
142
0.0007999999797903
142
0.0
142
0.0
142
0.0
142
0.0
142
1.0
142
0.0
142
0.0
142
0.0
142
0.0
142
1.0
144
0.0007999999797903
144
0.0
144
0.0
144
0.0
144
0.0
144
0.0007999999797903
144
0.0
144
0.0
144
0.0
144
0.0
144
1.0
144
0.0
144
0.0
144
0.0
144
0.0
144
1.0
1001
ACAD
1070
    -1
1070
     3
1070
     0
1000

1071
        0
1070
     0
  0
MLEADERSTYLE
  5
12E
102
{ACAD_XDICTIONARY
360
7D7F
102
}
102
{ACAD_REACTORS
330
12D
102
}
330
12D
100
AcDbMLeaderStyle
170
     2
171
     1
172
     0
 90
        2
 40
0.0
 41
0.0
173
     1
 91
-1056964608
340
14
 92
       -2
290
     1
 42
2.0
291
     1
 43
8.0
  3
Standard
 44
4.0
300

342
11
174
     1
178
     1
175
     1
176
     0
 93
-1056964608
 45
4.0
292
     0
297
     0
 46
4.0
 94
-1056964608
 47
1.0
 49
1.0
140
1.0
293
     1
141
0.0
294
     1
177
     0
142
1.0
295
     0
296
     0
143
3.75
1001
ACAD_MLEADERVER
1070
     2
  0
MLINESTYLE
  5
18
102
{ACAD_REACTORS
330
17
102
}
330
17
100
AcDbMlineStyle
  2
STANDARD
 70
     0
  3

 62
   256
 51
90.0
 52
90.0
 71
     2
 49
0.5
 62
   256
  6
BYLAYER
 49
-0.5
 62
   256
  6
BYLAYER
  0
ACDBPLACEHOLDER
  5
F
102
{ACAD_REACTORS
330
E
102
}
330
E
  0
SCALE
  5
10D
102
{ACAD_REACTORS
330
10C
102
}
330
10C
100
AcDbScale
 70
     0
300
1:1
140
1.0
141
1.0
290
     1
  0
SCALE
  5
1BE
102
{ACAD_REACTORS
330
10C
102
}
330
10C
100
AcDbScale
 70
     0
300
1:2
140
1.0
141
2.0
290
     0
  0
SCALE
  5
1BF
102
{ACAD_REACTORS
330
10C
102
}
330
10C
100
AcDbScale
 70
     0
300
1:4
140
1.0
141
4.0
290
     0
  0
SCALE
  5
1C0
102
{ACAD_REACTORS
330
10C
102
}
330
10C
100
AcDbScale
 70
     0
300
1:5
140
1.0
141
5.0
290
     0
  0
SCALE
  5
1C1
102
{ACAD_REACTORS
330
10C
102
}
330
10C
100
AcDbScale
 70
     0
300
1:8
140
1.0
141
8.0
290
     0
  0
SCALE
  5
1C2
102
{ACAD_REACTORS
330
10C
102
}
330
10C
100
AcDbScale
 70
     0
300
1:10
140
1.0
141
10.0
290
     0
  0
SCALE
  5
1C3
102
{ACAD_REACTORS
330
10C
102
}
330
10C
100
AcDbScale
 70
     0
300
1:16
140
1.0
141
16.0
290
     0
  0
SCALE
  5
1C4
102
{ACAD_REACTORS
330
10C
102
}
330
10C
100
AcDbScale
 70
     0
300
1:20
140
1.0
141
20.0
290
     0
  0
SCALE
  5
1C5
102
{ACAD_REACTORS
330
10C
102
}
330
10C
100
AcDbScale
 70
     0
300
1:30
140
1.0
141
30.0
290
     0
  0
SCALE
  5
1C6
102
{ACAD_REACTORS
330
10C
102
}
330
10C
100
AcDbScale
 70
     0
300
1:40
140
1.0
141
40.0
290
     0
  0
SCALE
  5
1C7
102
{ACAD_REACTORS
330
10C
102
}
330
10C
100
AcDbScale
 70
     0
300
1:50
140
1.0
141
50.0
290
     0
  0
SCALE
  5
1C8
102
{ACAD_REACTORS
330
10C
102
}
330
10C
100
AcDbScale
 70
     0
300
1:100
140
1.0
141
100.0
290
     0
  0
SCALE
  5
1C9
102
{ACAD_REACTORS
330
10C
102
}
330
10C
100
AcDbScale
 70
     0
300
2:1
140
2.0
141
1.0
290
     0
  0
SCALE
  5
1CA
102
{ACAD_REACTORS
330
10C
102
}
330
10C
100
AcDbScale
 70
     0
300
4:1
140
4.0
141
1.0
290
     0
  0
SCALE
  5
1CB
102
{ACAD_REACTORS
330
10C
102
}
330
10C
100
AcDbScale
 70
     0
300
8:1
140
8.0
141
1.0
290
     0
  0
SCALE
  5
1CC
102
{ACAD_REACTORS
330
10C
102
}
330
10C
100
AcDbScale
 70
     0
300
10:1
140
10.0
141
1.0
290
     0
  0
SCALE
  5
1CD
102
{ACAD_REACTORS
330
10C
102
}
330
10C
100
AcDbScale
 70
     0
300
100:1
140
100.0
141
1.0
290
     0
  0
ACDBSECTIONVIEWSTYLE
  5
21A
102
{ACAD_XDICTIONARY
360
7D91
102
}
102
{ACAD_REACTORS
330
219
102
}
330
219
100
AcDbModelDocViewStyle
 70
     0
  3
Metric50
290
     0
100
AcDbSectionViewStyle
 70
     0
 71
     0
 90
      102
 71
     1
340
11
 40
5.0
340
0
340
0
 40
5.0
300
I, O, Q, S, X, Z
 40
10.0
 90
        0
 40
2.5
 90
        0
 71
     2
340
16
 90
       25
340
16
 90
       50
 40
5.0
 40
2.5
 40
5.0
 71
     3
340
11
 40
5.0
 90
        0
 40
15.0
 90
        1
300
%<\AcVar ViewSectionStartId>%-%<\AcVar ViewSectionEndId>% (%<\AcVar ViewScale \f "%sn">%)
 71
     4
300
ANSI31
 40
1.0
 90
        0
290
     0
290
     0
 90
        6
 40
0.0
 40
1.570796326794896
 40
0.2617993877991494
 40
1.308996938995747
 40
-0.2617993877991494
 40
1.832595714594046
  0
TABLESTYLE
  5
7F
102
{ACAD_XDICTIONARY
360
162
102
}
102
{ACAD_REACTORS
330
7E
102
}
330
7E
100
AcDbTableStyle
  3
Standard
 70
     0
 71
     0
 40
1.5
 41
1.5
280
     0
281
     0
  7
Standard
140
4.5
170
     2
 62
     0
 63
     7
283
     0
274
    -2
284
     1
 64
     0
275
    -2
285
     1
 65
     0
276
    -2
286
     1
 66
     0
277
    -2
287
     1
 67
     0
278
    -2
288
     1
 68
     0
279
    -2
289
     1
 69
     0
  7
Standard
140
6.0
170
     5
 62
     0
 63
     7
283
     0
274
    -2
284
     1
 64
     0
275
    -2
285
     1
 65
     0
276
    -2
286
     1
 66
     0
277
    -2
287
     1
 67
     0
278
    -2
288
     1
 68
     0
279
    -2
289
     1
 69
     0
  7
Standard
140
4.5
170
     5
 62
     0
 63
     7
283
     0
274
    -2
284
     1
 64
     0
275
    -2
285
     1
 65
     0
276
    -2
286
     1
 66
     0
277
    -2
287
     1
 67
     0
278
    -2
288
     1
 68
     0
279
    -2
289
     1
 69
     0
  0
VISUALSTYLE
  5
F5
102
{ACAD_XDICTIONARY
360
7D69
102
}
102
{ACAD_REACTORS
330
EF
102
}
330
EF
100
AcDbVisualStyle
  2
2dWireframe
 70
     4
 71
     0
 72
     2
 73
     1
 90
        0
 40
-0.6
 41
-30.0
 62
     5
 63
     7
 74
     1
 91
        4
 64
     7
 65
   257
 75
     1
175
     1
 42
1.0
 92
        0
 66
   257
 43
1.0
 76
     1
 77
     6
 78
     2
 67
     7
 79
     5
170
     0
171
     0
290
     0
174
     0
 93
        1
 44
0.0
173
     0
291
     0
 45
0.0
1001
ACAD
1000
AcDbSavedByObjectVersion
1070
     0
  0
VISUALSTYLE
  5
F4
102
{ACAD_XDICTIONARY
360
7D67
102
}
102
{ACAD_REACTORS
330
EF
102
}
330
EF
100
AcDbVisualStyle
  2
Basic
 70
     7
 71
     1
 72
     0
 73
     1
 90
        0
 40
-0.6
 41
-30.0
 62
     5
 63
     7
 74
     0
 91
        4
 64
     7
 65
   257
 75
     1
175
     1
 42
1.0
 92
        8
 66
     7
 43
1.0
 76
     1
 77
     6
 78
     2
 67
     7
 79
     5
170
     0
171
     0
290
     0
174
     0
 93
        1
 44
0.0
173
     0
291
     1
 45
0.0
1001
ACAD
1000
AcDbSavedByObjectVersion
1070
     0
  0
VISUALSTYLE
  5
FB
102
{ACAD_XDICTIONARY
360
7D75
102
}
102
{ACAD_REACTORS
330
EF
102
}
330
EF
100
AcDbVisualStyle
  2
Brighten
 70
    12
 71
     2
 72
     2
 73
     1
 90
        0
 40
-0.6
 41
-30.0
 62
     5
 63
     7
 74
     1
 91
        4
 64
     7
 65
   257
 75
     1
175
     1
 42
1.0
 92
        8
 66
     7
 43
1.0
 76
     1
 77
     6
 78
     2
 67
     7
 79
     5
170
     0
171
     0
290
     0
174
     0
 93
        1
 44
50.0
173
     0
291
     1
 45
0.0
1001
ACAD
1000
AcDbSavedByObjectVersion
1070
     0
  0
VISUALSTYLE
  5
FF
102
{ACAD_XDICTIONARY
360
7D7D
102
}
102
{ACAD_REACTORS
330
EF
102
}
330
EF
100
AcDbVisualStyle
  2
ColorChange
 70
    16
 71
     2
 72
     2
 73
     3
 90
        0
 40
-0.6
 41
-30.0
 62
     5
 63
     8
 74
     1
 91
        4
 64
     7
 65
   257
 75
     1
175
     1
 42
1.0
 92
        8
 66
     8
 43
1.0
 76
     1
 77
     6
 78
     2
 67
     7
 79
     5
170
     0
171
     0
290
     0
174
     0
 93
        1
 44
0.0
173
     0
291
     1
 45
0.0
1001
ACAD
1000
AcDbSavedByObjectVersion
1070
     0
  0
VISUALSTYLE
  5
F8
102
{ACAD_XDICTIONARY
360
7D6F
102
}
102
{ACAD_REACTORS
330
EF
102
}
330
EF
100
AcDbVisualStyle
  2
Conceptual
 70
     9
 71
     3
 72
     2
 73
     1
 90
        0
 40
-0.6
 41
-30.0
 62
     5
 63
     7
 74
     2
 91
        2
 64
     7
 65
   257
 75
     1
175
     1
 42
40.0
 92
        8
 66
     7
 43
1.0
 76
     1
 77
     6
 78
     2
 67
     7
 79
     3
170
     0
171
     0
290
     0
174
     0
 93
        1
 44
0.0
173
     0
291
     0
 45
0.0
1001
ACAD
1000
AcDbSavedByObjectVersion
1070
     0
  0
VISUALSTYLE
  5
FA
102
{ACAD_XDICTIONARY
360
7D73
102
}
102
{ACAD_REACTORS
330
EF
102
}
330
EF
100
AcDbVisualStyle
  2
Dim
 70
    11
 71
     2
 72
     2
 73
     1
 90
        0
 40
-0.6
 41
-30.0
 62
     5
 63
     7
 74
     1
 91
        4
 64
     7
 65
   257
 75
     1
175
     1
 42
1.0
 92
        8
 66
     7
 43
1.0
 76
     1
 77
     6
 78
     2
 67
     7
 79
     5
170
     0
171
     0
290
     0
174
     0
 93
        1
 44
-50.0
173
     0
291
     1
 45
0.0
1001
ACAD
1000
AcDbSavedByObjectVersion
1070
     0
  0
VISUALSTYLE
  5
1E6
102
{ACAD_XDICTIONARY
360
7D85
102
}
102
{ACAD_REACTORS
330
EF
102
}
330
EF
100
AcDbVisualStyle
  2
EdgeColorOff
 70
    22
 71
     2
 72
     2
 73
     0
 90
        0
 40
-0.6
 41
-30.0
 62
     5
 63
     7
 74
     1
 91
        4
 64
     7
 65
   257
 75
     1
175
     1
 42
1.0
 92
        8
 66
     7
 43
1.0
 76
     1
 77
     6
 78
     2
 67
     7
 79
     5
170
     0
171
     0
290
     0
174
     0
 93
        1
 44
0.0
173
     0
291
     1
 45
0.0
1001
ACAD
1000
AcDbSavedByObjectVersion
1070
     0
  0
VISUALSTYLE
  5
FE
102
{ACAD_XDICTIONARY
360
7D7B
102
}
102
{ACAD_REACTORS
330
EF
102
}
330
EF
100
AcDbVisualStyle
  2
Facepattern
 70
    15
 71
     2
 72
     2
 73
     1
 90
        0
 40
-0.6
 41
-30.0
 62
     5
 63
     7
 74
     1
 91
        4
 64
     7
 65
   257
 75
     1
175
     1
 42
1.0
 92
        8
 66
     7
 43
1.0
 76
     1
 77
     6
 78
     2
 67
     7
 79
     5
170
     0
171
     0
290
     0
174
     0
 93
        1
 44
0.0
173
     0
291
     1
 45
0.0
1001
ACAD
1000
AcDbSavedByObjectVersion
1070
     0
  0
VISUALSTYLE
  5
F0
102
{ACAD_XDICTIONARY
360
7D5F
102
}
102
{ACAD_REACTORS
330
EF
102
}
330
EF
100
AcDbVisualStyle
  2
Flat
 70
     0
 71
     2
 72
     1
 73
     1
 90
        2
 40
-0.6
 41
30.0
 62
     5
 63
     7
 74
     0
 91
        0
 64
     7
 65
   257
 75
     1
175
     1
 42
1.0
 92
        8
 66
     7
 43
1.0
 76
     1
 77
     6
 78
     2
 67
     7
 79
     5
170
     0
171
     0
290
     0
174
     0
 93
       13
 44
0.0
173
     0
291
     1
 45
0.0
1001
ACAD
1000
AcDbSavedByObjectVersion
1070
     0
  0
VISUALSTYLE
  5
F1
102
{ACAD_XDICTIONARY
360
7D61
102
}
102
{ACAD_REACTORS
330
EF
102
}
330
EF
100
AcDbVisualStyle
  2
FlatWithEdges
 70
     1
 71
     2
 72
     1
 73
     1
 90
        2
 40
-0.6
 41
30.0
 62
     5
 63
     7
 74
     1
 91
        0
 64
     7
 65
   257
 75
     1
175
     1
 42
1.0
 92
        0
 66
   257
 43
1.0
 76
     1
 77
     6
 78
     2
 67
     7
 79
     5
170
     0
171
     0
290
     0
174
     0
 93
       13
 44
0.0
173
     0
291
     1
 45
0.0
1001
ACAD
1000
AcDbSavedByObjectVersion
1070
     0
  0
VISUALSTYLE
  5
F2
102
{ACAD_XDICTIONARY
360
7D63
102
}
102
{ACAD_REACTORS
330
EF
102
}
330
EF
100
AcDbVisualStyle
  2
Gouraud
 70
     2
 71
     2
 72
     2
 73
     1
 90
        2
 40
-0.6
 41
30.0
 62
     5
 63
     7
 74
     0
 91
        0
 64
     7
 65
   257
 75
     1
175
     1
 42
1.0
 92
        0
 66
     7
 43
1.0
 76
     1
 77
     6
 78
     2
 67
     7
 79
     5
170
     0
171
     0
290
     0
174
     0
 93
       13
 44
0.0
173
     0
291
     1
 45
0.0
1001
ACAD
1000
AcDbSavedByObjectVersion
1070
     0
  0
VISUALSTYLE
  5
F3
102
{ACAD_XDICTIONARY
360
7D65
102
}
102
{ACAD_REACTORS
330
EF
102
}
330
EF
100
AcDbVisualStyle
  2
GouraudWithEdges
 70
     3
 71
     2
 72
     2
 73
     1
 90
        2
 40
-0.6
 41
30.0
 62
     5
 63
     7
 74
     1
 91
        0
 64
     7
 65
   257
 75
     1
175
     1
 42
1.0
 92
        0
 66
   257
 43
1.0
 76
     1
 77
     6
 78
     2
 67
     7
 79
     5
170
     0
171
     0
290
     0
174
     0
 93
       13
 44
0.0
173
     0
291
     1
 45
0.0
1001
ACAD
1000
AcDbSavedByObjectVersion
1070
     0
  0
VISUALSTYLE
  5
F7
102
{ACAD_XDICTIONARY
360
7D6D
102
}
102
{ACAD_REACTORS
330
EF
102
}
330
EF
100
AcDbVisualStyle
  2
Hidden
 70
     6
 71
     1
 72
     2
 73
     2
 90
        0
 40
-0.6
 41
-30.0
 62
     5
 63
     7
 74
     2
 91
        2
 64
     7
 65
   257
 75
     2
175
     1
 42
40.0
 92
        0
 66
   257
 43
1.0
 76
     1
 77
     6
 78
     2
 67
     7
 79
     3
170
     0
171
     0
290
     0
174
     0
 93
        1
 44
0.0
173
     0
291
     0
 45
0.0
1001
ACAD
1000
AcDbSavedByObjectVersion
1070
     0
  0
VISUALSTYLE
  5
1E4
102
{ACAD_XDICTIONARY
360
7D81
102
}
102
{ACAD_REACTORS
330
EF
102
}
330
EF
100
AcDbVisualStyle
  2
JitterOff
 70
    20
 71
     2
 72
     2
 73
     0
 90
        0
 40
-0.6
 41
-30.0
 62
     5
 63
     7
 74
     1
 91
        4
 64
     7
 65
   257
 75
     1
175
     1
 42
1.0
 92
       10
 66
     7
 43
1.0
 76
     1
 77
     6
 78
     2
 67
     7
 79
     5
170
     0
171
     0
290
     0
174
     0
 93
        1
 44
0.0
173
     0
291
     1
 45
0.0
1001
ACAD
1000
AcDbSavedByObjectVersion
1070
     0
  0
VISUALSTYLE
  5
FD
102
{ACAD_XDICTIONARY
360
7D79
102
}
102
{ACAD_REACTORS
330
EF
102
}
330
EF
100
AcDbVisualStyle
  2
Linepattern
 70
    14
 71
     2
 72
     2
 73
     1
 90
        0
 40
-0.6
 41
-30.0
 62
     5
 63
     7
 74
     1
 91
        4
 64
     7
 65
   257
 75
     7
175
     7
 42
1.0
 92
        8
 66
     7
 43
1.0
 76
     1
 77
     6
 78
     2
 67
     7
 79
     5
170
     0
171
     0
290
     0
174
     0
 93
        1
 44
0.0
173
     0
291
     1
 45
0.0
1001
ACAD
1000
AcDbSavedByObjectVersion
1070
     0
  0
VISUALSTYLE
  5
1E5
102
{ACAD_XDICTIONARY
360
7D83
102
}
102
{ACAD_REACTORS
330
EF
102
}
330
EF
100
AcDbVisualStyle
  2
OverhangOff
 70
    21
 71
     2
 72
     2
 73
     0
 90
        0
 40
-0.6
 41
-30.0
 62
     5
 63
     7
 74
     1
 91
        4
 64
     7
 65
   257
 75
     1
175
     1
 42
1.0
 92
        9
 66
     7
 43
1.0
 76
     1
 77
     6
 78
     2
 67
     7
 79
     5
170
     0
171
     0
290
     0
174
     0
 93
        1
 44
0.0
173
     0
291
     1
 45
0.0
1001
ACAD
1000
AcDbSavedByObjectVersion
1070
     0
  0
VISUALSTYLE
  5
F9
102
{ACAD_XDICTIONARY
360
7D71
102
}
102
{ACAD_REACTORS
330
EF
102
}
330
EF
100
AcDbVisualStyle
  2
Realistic
 70
     8
 71
     2
 72
     2
 73
     0
 90
        2
 40
-0.6
 41
30.0
 62
     5
 63
     7
 74
     0
 91
        0
 64
     7
 65
   257
 75
     1
175
     1
 42
1.0
 92
        8
 66
   257
 43
1.0
 76
     1
 77
     6
 78
     2
 67
     7
 79
     3
170
     0
171
     0
290
     0
174
     0
 93
       13
 44
0.0
173
     0
291
     0
 45
0.0
1001
ACAD
1000
AcDbSavedByObjectVersion
1070
     0
  0
VISUALSTYLE
  5
1F3
102
{ACAD_XDICTIONARY
360
7D8F
102
}
102
{ACAD_REACTORS
330
EF
102
}
330
EF
100
AcDbVisualStyle
  2
Shaded
 70
    27
 71
     2
 72
     2
 73
     1
 90
        2
 40
-0.6
 41
30.0
 62
     5
 63
     7
 74
     0
 91
        4
 64
     7
 65
   257
 75
     1
175
     1
 42
1.0
 92
        8
 66
   257
 43
1.0
 76
     1
 77
     6
 78
     2
 67
     8
 79
     3
170
     0
171
     0
290
     0
174
     0
 93
        5
 44
0.0
173
     0
291
     0
 45
0.0
1001
ACAD
1000
AcDbSavedByObjectVersion
1070
     0
  0
VISUALSTYLE
  5
1F2
102
{ACAD_XDICTIONARY
360
7D8D
102
}
102
{ACAD_REACTORS
330
EF
102
}
330
EF
100
AcDbVisualStyle
  2
Shaded with edges
 70
    26
 71
     2
 72
     2
 73
     1
 90
        2
 40
-0.6
 41
30.0
 62
     5
 63
     7
 74
     1
 91
        2
 64
     7
 65
   257
 75
     2
175
     1
 42
1.0
 92
        8
 66
   257
 43
1.0
 76
     1
 77
     6
 78
     2
 67
     7
 79
     3
170
     0
171
     0
290
     0
174
     0
 93
        5
 44
0.0
173
     0
291
     0
 45
0.0
1001
ACAD
1000
AcDbSavedByObjectVersion
1070
     0
  0
VISUALSTYLE
  5
1EF
102
{ACAD_XDICTIONARY
360
7D87
102
}
102
{ACAD_REACTORS
330
EF
102
}
330
EF
100
AcDbVisualStyle
  2
Shades of Gray
 70
    23
 71
     2
 72
     2
 73
     3
 90
        0
 40
-0.6
 41
-30.0
 62
     5
 63
     7
 74
     2
 91
        2
 64
     7
 65
     7
 75
     1
175
     1
 42
40.0
 92
        8
 66
     7
 43
1.0
 76
     1
 77
     6
 78
     2
 67
     7
 79
     3
170
     0
171
     0
290
     0
174
     0
 93
        1
 44
0.0
173
     0
291
     0
 45
0.0
1001
ACAD
1000
AcDbSavedByObjectVersion
1070
     0
  0
VISUALSTYLE
  5
1F0
102
{ACAD_XDICTIONARY
360
7D89
102
}
102
{ACAD_REACTORS
330
EF
102
}
330
EF
100
AcDbVisualStyle
  2
Sketchy
 70
    24
 71
     1
 72
     2
 73
     2
 90
        0
 40
-0.6
 41
-30.0
 62
     5
 63
     7
 74
     2
 91
        2
 64
     7
 65
     7
 75
     1
175
     1
 42
40.0
 92
       11
 66
     7
 43
1.0
 76
     1
 77
     6
 78
     2
 67
     7
 79
     6
170
     0
171
     0
290
     0
174
     0
 93
        1
 44
0.0
173
     0
291
     0
 45
0.0
1001
ACAD
1000
AcDbSavedByObjectVersion
1070
     0
  0
VISUALSTYLE
  5
FC
102
{ACAD_XDICTIONARY
360
7D77
102
}
102
{ACAD_REACTORS
330
EF
102
}
330
EF
100
AcDbVisualStyle
  2
Thicken
 70
    13
 71
     2
 72
     2
 73
     1
 90
        0
 40
-0.6
 41
-30.0
 62
     5
 63
     7
 74
     1
 91
        4
 64
     7
 65
   257
 75
     1
175
     1
 42
1.0
 92
       12
 66
     7
 43
1.0
 76
     1
 77
     6
 78
     2
 67
     7
 79
     5
170
     0
171
     0
290
     0
174
     0
 93
        1
 44
0.0
173
     0
291
     1
 45
0.0
1001
ACAD
1000
AcDbSavedByObjectVersion
1070
     0
  0
VISUALSTYLE
  5
F6
102
{ACAD_XDICTIONARY
360
7D6B
102
}
102
{ACAD_REACTORS
330
EF
102
}
330
EF
100
AcDbVisualStyle
  2
Wireframe
 70
     5
 71
     0
 72
     2
 73
     0
 90
        0
 40
-0.6
 41
-30.0
 62
     5
 63
     7
 74
     1
 91
        4
 64
     7
 65
   257
 75
     1
175
     1
 42
1.0
 92
        0
 66
   257
 43
1.0
 76
     1
 77
     6
 78
     2
 67
     7
 79
     3
170
     0
171
     0
290
     0
174
     0
 93
        1
 44
0.0
173
     0
291
     0
 45
0.0
1001
ACAD
1000
AcDbSavedByObjectVersion
1070
     0
  0
VISUALSTYLE
  5
1F1
102
{ACAD_XDICTIONARY
360
7D8B
102
}
102
{ACAD_REACTORS
330
EF
102
}
330
EF
100
AcDbVisualStyle
  2
X-Ray
 70
    25
 71
     2
 72
     2
 73
     1
 90
        1
 40
0.5
 41
-30.0
 62
     5
 63
     7
 74
     1
 91
        0
 64
     7
 65
   257
 75
     1
175
     1
 42
1.0
 92
        8
 66
     7
 43
1.0
 76
     1
 77
     6
 78
     2
 67
     7
 79
     3
170
     0
171
     0
290
     0
174
     0
 93
       13
 44
0.0
173
     0
291
     0
 45
0.0
1001
ACAD
1000
AcDbSavedByObjectVersion
1070
     0
  0
DICTIONARYVAR
  5
146
102
{ACAD_REACTORS
330
5E
102
}
330
5E
100
DictionaryVariables
280
     0
  1
1:1
  0
DICTIONARYVAR
  5
259
102
{ACAD_REACTORS
330
5E
102
}
330
5E
100
DictionaryVariables
280
     0
  1
3.500000
  0
DICTIONARYVAR
  5
25A
102
{ACAD_REACTORS
330
5E
102
}
330
5E
100
DictionaryVariables
280
     0
  1
acadiso.lin
  0
DICTIONARYVAR
  5
145
102
{ACAD_REACTORS
330
5E
102
}
330
5E
100
DictionaryVariables
280
     0
  1
STANDARD
  0
DICTIONARYVAR
  5
84
102
{ACAD_REACTORS
330
5E
102
}
330
5E
100
DictionaryVariables
280
     0
  1
STANDARD
  0
DICTIONARYVAR
  5
227
102
{ACAD_REACTORS
330
5E
102
}
330
5E
100
DictionaryVariables
280
     0
  1
Metric50
  0
DICTIONARYVAR
  5
228
102
{ACAD_REACTORS
330
5E
102
}
330
5E
100
DictionaryVariables
280
     0
  1
Metric50
  0
DICTIONARYVAR
  5
5F
102
{ACAD_REACTORS
330
5E
102
}
330
5E
100
DictionaryVariables
280
     0
  1
2
  0
DICTIONARYVAR
  5
63
102
{ACAD_REACTORS
330
5E
102
}
330
5E
100
DictionaryVariables
280
     0
  1
1
  0
DICTIONARYVAR
  5
7D00
102
{ACAD_REACTORS
330
5E
102
}
330
5E
100
DictionaryVariables
280
     0
  1
0
  0
DICTIONARYVAR
  5
1AE
102
{ACAD_REACTORS
330
5E
102
}
330
5E
100
DictionaryVariables
280
     0
  1
0
  0
DICTIONARYVAR
  5
1AF
102
{ACAD_REACTORS
330
5E
102
}
330
5E
100
DictionaryVariables
280
     0
  1
0
  0
DICTIONARYVAR
  5
7CFE
102
{ACAD_REACTORS
330
5E
102
}
330
5E
100
DictionaryVariables
280
     0
  1
2
  0
DICTIONARYVAR
  5
7CFD
102
{ACAD_REACTORS
330
5E
102
}
330
5E
100
DictionaryVariables
280
     0
  1
1
  0
DICTIONARYVAR
  5
7D50
102
{ACAD_REACTORS
330
5E
102
}
330
5E
100
DictionaryVariables
280
     0
  1
80.000000
  0
DICTIONARYVAR
  5
7D4F
102
{ACAD_REACTORS
330
5E
102
}
330
5E
100
DictionaryVariables
280
     0
  1
5.000000
  0
DICTIONARYVAR
  5
7CFF
102
{ACAD_REACTORS
330
5E
102
}
330
5E
100
DictionaryVariables
280
     0
  1
127
  0
DICTIONARYVAR
  5
7D51
102
{ACAD_REACTORS
330
5E
102
}
330
5E
100
DictionaryVariables
280
     0
  1
2
  0
DICTIONARY
  5
7D93
330
21C
100
AcDbDictionary
280
     1
281
     1
  3
ACAD_XREC_ROUNDTRIP
360
7D94
  0
DICTIONARY
  5
7D58
330
D3
100
AcDbDictionary
280
     1
281
     1
  3
ACAD_XREC_ROUNDTRIP
360
7D59
  0
DICTIONARY
  5
7D5A
330
D7
100
AcDbDictionary
280
     1
281
     1
  3
ACAD_XREC_ROUNDTRIP
360
7D5B
  0
DICTIONARY
  5
7D55
330
22
100
AcDbDictionary
280
     1
281
     1
  3
ACAD_XREC_ROUNDTRIP
360
7D56
  0
DICTIONARY
  5
1F9
330
ED
100
AcDbDictionary
280
     1
281
     1
  3
ACAD_XREC_ROUNDTRIP
360
7D5D
  3
FBXASSET
360
1FA
  0
DICTIONARY
  5
1F7
330
EC
100
AcDbDictionary
280
     1
281
     1
  3
ACAD_XREC_ROUNDTRIP
360
7D5C
  3
FBXASSET
360
1F8
  0
DICTIONARY
  5
173
330
EE
100
AcDbDictionary
280
     1
281
     1
  3
ACAD_XREC_ROUNDTRIP
360
7D5E
  3
BUMPTILE
360
175
  3
DIFFUSETILE
360
174
  3
FBXASSET
360
1FB
  3
OPACITYTILE
360
176
  3
REFLECTIONTILE
360
177
  0
DICTIONARY
  5
7D7F
330
12E
100
AcDbDictionary
280
     1
281
     1
  3
ACAD_XREC_ROUNDTRIP
360
7D80
  0
DICTIONARY
  5
7D91
330
21A
100
AcDbDictionary
280
     1
281
     1
  3
ACAD_XREC_ROUNDTRIP
360
7D92
  0
DICTIONARY
  5
162
330
7F
100
AcDbDictionary
280
     1
281
     1
  3
ACAD_ROUNDTRIP_2008_TABLESTYLE_CELLSTYLEMAP
360
7D52
  3
ACAD_XREC_ROUNDTRIP
360
7D57
  0
DICTIONARY
  5
7D69
330
F5
100
AcDbDictionary
280
     1
281
     1
  3
ACAD_XREC_ROUNDTRIP
360
7D6A
  0
DICTIONARY
  5
7D67
330
F4
100
AcDbDictionary
280
     1
281
     1
  3
ACAD_XREC_ROUNDTRIP
360
7D68
  0
DICTIONARY
  5
7D75
330
FB
100
AcDbDictionary
280
     1
281
     1
  3
ACAD_XREC_ROUNDTRIP
360
7D76
  0
DICTIONARY
  5
7D7D
330
FF
100
AcDbDictionary
280
     1
281
     1
  3
ACAD_XREC_ROUNDTRIP
360
7D7E
  0
DICTIONARY
  5
7D6F
330
F8
100
AcDbDictionary
280
     1
281
     1
  3
ACAD_XREC_ROUNDTRIP
360
7D70
  0
DICTIONARY
  5
7D73
330
FA
100
AcDbDictionary
280
     1
281
     1
  3
ACAD_XREC_ROUNDTRIP
360
7D74
  0
DICTIONARY
  5
7D85
330
1E6
100
AcDbDictionary
280
     1
281
     1
  3
ACAD_XREC_ROUNDTRIP
360
7D86
  0
DICTIONARY
  5
7D7B
330
FE
100
AcDbDictionary
280
     1
281
     1
  3
ACAD_XREC_ROUNDTRIP
360
7D7C
  0
DICTIONARY
  5
7D5F
330
F0
100
AcDbDictionary
280
     1
281
     1
  3
ACAD_XREC_ROUNDTRIP
360
7D60
  0
DICTIONARY
  5
7D61
330
F1
100
AcDbDictionary
280
     1
281
     1
  3
ACAD_XREC_ROUNDTRIP
360
7D62
  0
DICTIONARY
  5
7D63
330
F2
100
AcDbDictionary
280
     1
281
     1
  3
ACAD_XREC_ROUNDTRIP
360
7D64
  0
DICTIONARY
  5
7D65
330
F3
100
AcDbDictionary
280
     1
281
     1
  3
ACAD_XREC_ROUNDTRIP
360
7D66
  0
DICTIONARY
  5
7D6D
330
F7
100
AcDbDictionary
280
     1
281
     1
  3
ACAD_XREC_ROUNDTRIP
360
7D6E
  0
DICTIONARY
  5
7D81
330
1E4
100
AcDbDictionary
280
     1
281
     1
  3
ACAD_XREC_ROUNDTRIP
360
7D82
  0
DICTIONARY
  5
7D79
330
FD
100
AcDbDictionary
280
     1
281
     1
  3
ACAD_XREC_ROUNDTRIP
360
7D7A
  0
DICTIONARY
  5
7D83
330
1E5
100
AcDbDictionary
280
     1
281
     1
  3
ACAD_XREC_ROUNDTRIP
360
7D84
  0
DICTIONARY
  5
7D71
330
F9
100
AcDbDictionary
280
     1
281
     1
  3
ACAD_XREC_ROUNDTRIP
360
7D72
  0
DICTIONARY
  5
7D8F
330
1F3
100
AcDbDictionary
280
     1
281
     1
  3
ACAD_XREC_ROUNDTRIP
360
7D90
  0
DICTIONARY
  5
7D8D
330
1F2
100
AcDbDictionary
280
     1
281
     1
  3
ACAD_XREC_ROUNDTRIP
360
7D8E
  0
DICTIONARY
  5
7D87
330
1EF
100
AcDbDictionary
280
     1
281
     1
  3
ACAD_XREC_ROUNDTRIP
360
7D88
  0
DICTIONARY
  5
7D89
330
1F0
100
AcDbDictionary
280
     1
281
     1
  3
ACAD_XREC_ROUNDTRIP
360
7D8A
  0
DICTIONARY
  5
7D77
330
FC
100
AcDbDictionary
280
     1
281
     1
  3
ACAD_XREC_ROUNDTRIP
360
7D78
  0
DICTIONARY
  5
7D6B
330
F6
100
AcDbDictionary
280
     1
281
     1
  3
ACAD_XREC_ROUNDTRIP
360
7D6C
  0
DICTIONARY
  5
7D8B
330
1F1
100
AcDbDictionary
280
     1
281
     1
  3
ACAD_XREC_ROUNDTRIP
360
7D8C
  0
XRECORD
  5
7D94
102
{ACAD_REACTORS
330
7D93
102
}
330
7D93
100
AcDbXrecord
280
     1
102
DISPLAYNAME
  1
Metric50
102
FLAGS
 90
        0
  0
XRECORD
  5
7D59
102
{ACAD_REACTORS
330
7D58
102
}
330
7D58
100
AcDbXrecord
280
     1
102
SHADEPLOT
 70
     0
102
SHADEPLOTRESLEVEL
 70
     2
102
SHADEPLOTCUSTOMDPI
 70
   300
  0
XRECORD
  5
7D5B
102
{ACAD_REACTORS
330
7D5A
102
}
330
7D5A
100
AcDbXrecord
280
     1
102
SHADEPLOT
 70
     0
102
SHADEPLOTRESLEVEL
 70
     2
102
SHADEPLOTCUSTOMDPI
 70
   300
  0
XRECORD
  5
7D56
102
{ACAD_REACTORS
330
7D55
102
}
330
7D55
100
AcDbXrecord
280
     1
102
SHADEPLOT
 70
     0
102
SHADEPLOTRESLEVEL
 70
     2
102
SHADEPLOTCUSTOMDPI
 70
   300
  0
XRECORD
  5
7D5D
102
{ACAD_REACTORS
330
1F9
102
}
330
1F9
100
AcDbXrecord
280
     1
102
MATERIAL
148
0.0
149
0.0
149
0.0
 93
        0
 94
       63
282
     0
 72
     1
 77
     1
171
     1
175
     1
179
     1
273
     0
  0
XRECORD
  5
1FA
102
{ACAD_REACTORS
330
1F9
102
}
330
1F9
100
AcDbXrecord
280
     1
 70
     1
 90
429727718
  1
D62C5603-E3A1-4AEA-B7FB-FE5D8D0755AF
310
504B03040A0000080000CC70623B3DEE336E79000000790000001B0000006175746F6465736B2D64657369676E2D7061636B6167652E786D6C3C3F786D6C2076657273696F6E3D22312E302220656E636F64696E673D227574662D3822203F3E3C666F726D6174733E3C666F726D61743E687474703A2F2F736368656D612E
310
6175746F6465736B2E636F6D2F64657369676E2D7061636B6167652F323030393C2F666F726D61743E3C2F666F726D6174733E504B0304140006080800CC70623BD486FD9CA0000000F4000000130000005B436F6E74656E745F54797065735D2E786D6C7D8EC10E82300C865F65E91D8A1E8C310C0EEA1BF002731658846E
310
D98AC1B77784ABF1D8FE5FBFBF75BBCE937A534CCEB38643598122B6FEE978D0B0485F9C41B54DDD7D022595594E1A469170414C76A4D9A4D207E29CF43ECE46F218070CC6BECC4078ACAA135ACF422C856C0E68EA1BF5669944DDD7BCDE7B1F8E415D77AECB980613C2E4AC91FC167A2B244592486606FC29C8FD7F045B9A
310
EF7053A7E60B504B0304140006080800CC70623B853B8169EB0000007C01000008000000636F72652E786D6C8D90416EC3201045AF62CDB6C206821CC7C244919D9CA01740401C94182C03558F5F9C3852BBEB6A467FFE9B197D7EFC9E1EC5975982F5AE035262288C535E5B377690E21535501C055FBC8FBF6C503839990E
310
5619041F179FE64D52DE45E362569DD7661365082642A11EB9E920A89B99642953CC8E702F67A9EE7234257977194EC9EAE275C4EABCCF5EAD5940D4AC6F0E35A568B8F43562CD7046CD199FD07E60174276A7BE677B5EADB0E0D14EEFFB6A31321A0D82627C4084204C3F096B71DD52F6819B16635EADF63F509AF53FA164
310
5DDCD1EDDD17164090FCC8732078B56691CB33A85CD7DCC40F504B0304140006080800CC70623B55019EA25F0000007C00000007000000636E782E786D6C4DCB3B0E80201045D1AD90E915ED2CF8AC45050C11660C8261F98AB1B07AC9C97D42D718D865D3E909258CFD00CCE24AC6E326A164D74DC0B4128928FF32603847
310
2BA13128B1252AC747C6BAB984FC68F0B87FE8960A5C09FE86CFB69FBA01504B0304140006080800CC70623BDBABAAF470010000D40300000C0000006662782F636F72652E786D6CC553D16E823014FD95A6AF4B694182CC941A83FA05FB810A9511A125A5257EFE2E82712ECEB8A7F100CD39F7F69E734AF9FADC366850B6
310
AF8DCE7018308C942E4C59EB2AC3DE1D498AD15A706B8CFB56869196ADCAF00863C12B6B7C374385D14E6907A836A59A41D9F7CA615434B0C8705F7CAA5606D23BA8E84F41278B93AC54100640439DE0BDB320004D43C63716C7C399D30917DCFBBA9CD9BA8469F5B156168B24CED3F7248AC8769F27244EB73B92EED8862C
310
B7F13E0C179B3C8F979C8ECD82BBBABDAA2BAC924E9558448CBD9330242CFA08E3154B5651FCC6D215639C8EE5774DBE2B5F6CF2B5768B68963BB5F5588420E442FC700B1139D4CB01F450C1E918227C2E09DF070D8140C84E1E9AAB8F1340832A9CB13130A5F1376A908D57309505ECF2A0DF179C4E9D30F5B239B87E3823
310
7A79C6F31DE1A8A5AEC08474B03C7837EAE4938639B44E5932B833D2C6B6B279CDC613877FA26EE21F4A2A4C63EC7F29A2F301D1F9F7A0E37D145F504B0304140006080800CC70623B9C113CC27E0000009D0000000B0000006662782F636E782E786D6C4DCCDF0A83201C86E15B91DFB94BFB330DD428C8FB886521330DA7
310
6397BF1A1DECE883878F57749FCDA1B7892F1BBC047A23808C7F84D9FA55424E0BE6803A256208E9EF06C84F9B91703228B1C690F78B66B34CD9A5439DF5CF0BFBF65E35BCA1B8D6A5C6F540381E886698B5741C695F9503EBA150A2F8958E3DC3EA0B504B0304140006080800CC70623B7DF2F77C2A010000120200003100
310
00006662782F41393633353835312D344632462D344230382D423046372D3739314545314133324237412F636F72652E786D6C8D51DB8EC22014FC15C2939B0D2DB4B45643319AE817EC0F6041255A68B86CFCFC856D4D76DF7CE190393373060EDB3DC707F856CE6B6B7A480A0C81328395DA5C7B18C3057510EC3873D686
310
3F34088C18550F330C39BB3A1BA7051AAC09CA84841A2BD5020AEF55806078A44B0FFD7053A328440C89E1EFC52486BBB8AA8214A99D789CF9E05200300FC927E4FB4D5B375D43103D5527440FB843077C5AA3F5861C8F645F5787F59E95B390B318B55CE45AA638FAA2957BD7248B390B7A7CC51F9C124149C82B8C378810
310
84AB2F42B7B8DD56F413775B8C5999E9FF4471926F8AA236A1AE96B8B3CC434E5839373893369E1FAF30EA395917409EB7F26AF8801C171837A4A6AC9C89E9F9C9B1A58BA30FD6A5EF5DDDCF894B9AD9B6A59C957943A9FCAE2FD5BC4DFE03504B0304140006080800CC70623BAD7543B64E01000033030000300000006662
310
782F41393633353835312D344632462D344230382D423046372D3739314545314133324237412F636E782E786D6CD593CD6EC32010845F0571AD6CE3D48AD20813A9873E410FBD12D82434182C7EAAE6EDBB2424CD25871E7B41D6EC30B3FA84F9E67BB2E40B4234DE8DB46F1925E094D7C6ED479AD3AE5951B2113C789FEE
310
6C943839C1488B4C05DF079FE72A69D8C96C13AAD6B8631503449F83828872B949AC57D26200B826A308D316B4064D6E46FCDA41C05550DC9E483A00797BFD207EFB092A45DE9514C1BBD22178396BD39D891265658C238DEA00936C654E5E433CB65A26D9F6EDB5EBC14EBF49A45CB856E66048291F6939A9A81BB5C89177
310
38143CA680F4AA299D66A042CEB3354A2684DC9D8D178FE0D9B8B41CAAD720F880EE7EF93C0C18769E099ECC04D5A102C8049A8A05632F4DDF376CF1DE0F6BB65C2F8627B65A33C6BB62177CEBBDAD973006829F89F22E814B54F4BC2BE347F8AA8F681390B50FA73F804400B5F542E796F19FF974E7F78DB802FE05E20750
310
4B0304140006080800CC70623BE75B7789680500003C100000340000006662782F41393633353835312D344632462D344230382D423046372D3739314545314133324237412F6F626A656374732E786D6CAD575B8F9B3818FD2B887D06C22499CB8AA1CA655245D5B455A356FB305264C061D8018C6C3393D95FBFC7600890
310
A4CD5EF210B0B1BFEBF98E3F7B1FF6596ABC522E1296DF9BAE3D320D9A872C4AF2F8DE2CE5CEBA358D0FBEC719939D65A691938CDE9B6ADAF4BD98B3B2D05311DD91329583D9D5FC0F438434A7A611A644887B5384CF34233629258BA878B12322891DEFF6B66BD70BFB62634E8AE781D082709A4B588AF91C528CDA28B73F
310
1C998EEF39EABBEFA97FBD6A7C7E9553F9D3D79FE442923C3C523610337627CB87ABE99D359D4CC6D6E4FACAB5E6ABF9D2726FC6A3C5F56271377BB88362213924694B38DD99FE47C48627A1E7D49F5A8BB5E1A74C0A599ED3B0F21F1E56366B89112D681E218F0915D0D6F17AD41FBA2A369DCF6335D62ABBD39779D5DDD1
310
11D4D8DE3CBB96B2E04FB8202E41051754A1AA8E8F76B4C6DFE810B580B1547F4B84911149794252234D024EF8BBE963A95AE27B3D310A9D5C215C7960FAEE415ED75694C6AFB17BCACA5D99A60A9AA65F217B0BFC53292ACB92BF283FAD0D3621576592CB5BED907C2FA8E9DF794E35E97BEA31BED21FEB401ABB94C44839
310
DCACBF0E1C5DA8DA5B2F4DFFD32AD86F543D9E565E7056502E157C00AD2671CD534549AB752FCA9CDA00677A313F04E51B22FF19E57B300579E3C97EB29F682D92935CEC18CF901B7B54FD8C51F362B56FC72FE0B3C1EAE335EDCCBF5AEC39ADB17DC238973F804BA5E6F6BFE7AF1FB32E523BE9F3BD571418E3631DCA4D48
310
5250CF639223210A9446CA30052EDF057BD35F8329C1ECD84552BF0DC8D18BE7BCE23BFE6BD960AB4A7DE79923A103BEBD80F911CBAA2C60DB19B01CF164A5583B772EE6D3FFA56666CBCDA74DC97724A48F9A58967497E489C4D979006FD7A05E227A1EBDD0F737C623387A9C844D3709995625106D157315F8B8392CD4E0
310
A0B9A720C4BE9829CEF37EA1E13111214D53925356365ADA634861B52519DD27A00AEB808EAF0628E6F435519D446F45CF2C9CF5214F0A15B2F6D06B79DA3EE3CBF7F56780D2F4E7EF73A0F5E5B02A38D07DC852C6B7C1FBB6664213E0C39E3EBA7FF4E1AD23EA2829407C85E586727488B751B2DB9502BC7B228A3FD68B6E
310
A65A22397E690AA8D158D7E404EC8CDA235CC3B7D1898680131CEC2CDF2638C65196279577750F15884AEE19F94199155B92B13297978469D4F8D358DF0AEF7631E28DC8F0D9F437D5D39A83B2231A1D52D543813A824EF8D44BCFF2FA6A31BD1E8DAD87F1CCB526B3879935BF59CDADD5C37479BB1CDD4CA7B3556B516589
310
EF352754B706114D9C885EC9131DE6EFEB43D99AFE2391C2F958179413D7CFEF6B1B6DB1E7600F00DE6E5C67454A339A4BA2E0FBA85ED26F045D454F463DBFCE484C2F90F2E5E3666003662ED8F755951A7D1BECD5B30B550B2785C8E7320B7292A4838DDA71BBC863ED7613CAF659337A3354231D4FF4A182A54904C2898C
310
98B28C4AD0CE056CCF332A80986E571EE9DBC305BB5FEB7E509220A58D25CF042D712A806AC0AD0C657FDEF80D2D9CEAA2EE4D1C76F60BFE74219A06527D6F82DF6412526107381E55E353090704D085B52408A8913C4ED159D79BDA71BB4BC506F4831350EB6F975CD22D69BF7AC49B91A2C0A9DDA3D5CA36AD20FC478E37
310
E61844E2352865EBCB61A275A65283CAAA9DD27703B4102F5AF51EF5F573B75CBB5AD38BC845F7A49F82A0966A49C2E3EA5EA0ECD326CD965F1DB402C6FA8B51A4658C5C5E2EC9E214602E55810345408596591009A82E7E7FFACA19EEA299B14A0081A705CB3296EBC14CDF658DCD336EA6D1136881AAEB87B81AB9EE53D5
310
F5EB8BC8362082DA24122F98680A4E7930C01A0079749CEA14382A0783E5EBA5A10F8C098456A03D6A4AEB6BB881E2513747552A5DB22C7EDAF83BD5528081A365F7FF06504B0304140006080000CC70623B000000000000000000000000350000006662782F41393633353835312D344632462D344230382D423046372D37
310
39314545314133324237412F76657274696365732E62696E504B0304140006080800CC70623BF270F1330600000004000000360000006662782F41393633353835312D344632462D344230382D423046372D3739314545314133324237412F747269616E676C65732E62696E636660600000504B0304140006080000CC7062
310
3B000000000000000000000000370000006662782F41393633353835312D344632462D344230382D423046372D3739314545314133324237412F617474726962757465732E62696E504B0304140006080800CC70623B08DA0BD19000000041010000360000006662782F41393633353835312D344632462D344230382D4230
310
46372D3739314545314133324237412F6469726563746F72792E786D6C858F410AC3201045AF22B36F53E9A60B35CBEEBAE80D244E44489C6234F4F835464A48035D0DF398FF9F8AF63D0E6CC63039F212F8F9020C7D47C6792B21C5FE7403D62A1188E2E60C98D7234A5830286103A55745067B9D86B8A3CF9C7F90C11DE6
310
07FB144396D7B6A82D282E9A152AD114D5EF2CB866EEE831B8EEA07A7BB5A8D7D61A2BAAEB7FD5F70921FF497D00504B0304140006080800CC70623BEDD1DC58FD000000A00100003B0000006662782F41393633353835312D344632462D344230382D423046372D3739314545314133324237412F7265736F75726365732F
310
636F72652E786D6C8D504B6E833010BD0A9A6D65B00922041947112427E8052C33A156828DFCA97AFC9A40A576D7CDCCE87D344F8F9FBFE667F689CE6B6B3A6039850C8DB2A336530731DC4903D95970676DF82583CCC8193B5861107C72362E3BA4AC096842428D1D7107A5F7182053CF7474E0D507CE32973124857FE48B
310
540F3961CEF244279DE03EB81420DB9EAC1384436FA353E879B1B182C7A8C75DA3C7F453DF353A1075D537A7BA6464B8F535A99AE14A9A2BBD90E350DD183B5CFABE3AF262350B1EF4FC9351399401471025A527C218A1E53BAB5A5AB765F5469B96525EACF23FA6B88CFF34456DC2A1DCE36E360F82A5202F42F062ED2BAD
310
579969AFDD8A6F504B010214000A0000080000CC70623B3DEE336E79000000790000001B00000000000000000000000000000000006175746F6465736B2D64657369676E2D7061636B6167652E786D6C504B01021400140006080800CC70623BD486FD9CA0000000F40000001300000000000000000000000000B20000005B
310
436F6E74656E745F54797065735D2E786D6C504B01021400140006080800CC70623B853B8169EB0000007C010000080000000000000000000000000083010000636F72652E786D6C504B01021400140006080800CC70623B55019EA25F0000007C000000070000000000000000000000000094020000636E782E786D6C504B
310
01021400140006080800CC70623BDBABAAF470010000D40300000C00000000000000000000000000180300006662782F636F72652E786D6C504B01021400140006080800CC70623B9C113CC27E0000009D0000000B00000000000000000000000000B20400006662782F636E782E786D6C504B01021400140006080800CC70
310
623B7DF2F77C2A010000120200003100000000000000000000000000590500006662782F41393633353835312D344632462D344230382D423046372D3739314545314133324237412F636F72652E786D6C504B01021400140006080800CC70623BAD7543B64E010000330300003000000000000000000000000000D2060000
310
6662782F41393633353835312D344632462D344230382D423046372D3739314545314133324237412F636E782E786D6C504B01021400140006080800CC70623BE75B7789680500003C10000034000000000000000000000000006E0800006662782F41393633353835312D344632462D344230382D423046372D3739314545
310
314133324237412F6F626A656374732E786D6C504B01021400140006080000CC70623B0000000000000000000000003500000000000000000000000000280E00006662782F41393633353835312D344632462D344230382D423046372D3739314545314133324237412F76657274696365732E62696E504B01021400140006
310
080800CC70623BF270F133060000000400000036000000000000000000000000007B0E00006662782F41393633353835312D344632462D344230382D423046372D3739314545314133324237412F747269616E676C65732E62696E504B01021400140006080000CC70623B0000000000000000000000003700000000000000
310
000000000000D50E00006662782F41393633353835312D344632462D344230382D423046372D3739314545314133324237412F617474726962757465732E62696E504B01021400140006080800CC70623B08DA0BD1900000004101000036000000000000000000000000002A0F00006662782F41393633353835312D344632
310
462D344230382D423046372D3739314545314133324237412F6469726563746F72792E786D6C504B01021400140006080800CC70623BEDD1DC58FD000000A00100003B000000000000000000000000000E1000006662782F41393633353835312D344632462D344230382D423046372D3739314545314133324237412F7265
310
736F75726365732F636F72652E786D6C504B0506000000000E000E0080040000641100000000
  0
XRECORD
  5
7D5C
102
{ACAD_REACTORS
330
1F7
102
}
330
1F7
100
AcDbXrecord
280
     1
102
MATERIAL
148
0.0
149
0.0
149
0.0
 93
        0
 94
       63
282
     0
 72
     1
 77
     1
171
     1
175
     1
179
     1
273
     0
  0
XRECORD
  5
1F8
102
{ACAD_REACTORS
330
1F7
102
}
330
1F7
100
AcDbXrecord
280
     1
 70
     1
 90
429727718
  1
30362254-06B7-45E0-A893-8CFA70E3D6BC
310
504B03040A0000080000CC70623B3DEE336E79000000790000001B0000006175746F6465736B2D64657369676E2D7061636B6167652E786D6C3C3F786D6C2076657273696F6E3D22312E302220656E636F64696E673D227574662D3822203F3E3C666F726D6174733E3C666F726D61743E687474703A2F2F736368656D612E
310
6175746F6465736B2E636F6D2F64657369676E2D7061636B6167652F323030393C2F666F726D61743E3C2F666F726D6174733E504B0304140006080800CC70623BD486FD9CA0000000F4000000130000005B436F6E74656E745F54797065735D2E786D6C7D8EC10E82300C865F65E91D8A1E8C310C0EEA1BF002731658846E
310
D98AC1B77784ABF1D8FE5FBFBF75BBCE937A534CCEB38643598122B6FEE978D0B0485F9C41B54DDD7D022595594E1A469170414C76A4D9A4D207E29CF43ECE46F218070CC6BECC4078ACAA135ACF422C856C0E68EA1BF5669944DDD7BCDE7B1F8E415D77AECB980613C2E4AC91FC167A2B244592486606FC29C8FD7F045B9A
310
EF7053A7E60B504B0304140006080800CC70623B1EC5D7A3EB0000007C01000008000000636F72652E786D6C8D90416EC3201045AF82665B6103C6756C6122AB4D4ED00B204C5C94182C03558F5F9C3852BBEB6A467FFE9B197D71FC9E6FE8CBACC17AD7032D0820E3B41FAD9B7A48F1820F808E52ACDEC75F36404ECDA687
310
4D0629A6D5A76597B477D1B89855E747B38B2A041301E95B6E7A08FAD3CCAA50296647B8168BD2573599823EBB0CA76447F43862C7BCCF5EAC59410E4DDD9C7973C2755553CCCFA4C603E3040F1565ED3B1FDE4E432BCA0D9622DAF9795FAF464533826484B498524CD807E51D79ED187F21878E10516EF63F505AC67F42C9
310
BA58B1FDDD071640D2FCC87D2045B96591CB3DA85CB7DCE40F504B0304140006080800CC70623B55019EA25F0000007C00000007000000636E782E786D6C4DCB3B0E80201045D1AD90E915ED2CF8AC45050C11660C8261F98AB1B07AC9C97D42D718D865D3E909258CFD00CCE24AC6E326A164D74DC0B4128928FF32603847
310
2BA13128B1252AC747C6BAB984FC68F0B87FE8960A5C09FE86CFB69FBA01504B0304140006080800CC70623B8C9102E971010000D40300000C0000006662782F636F72652E786D6CC5535B6E833010BC8AE5DF0A6C08340F1947A84D4ED00B38C6A128602363A31CBFCB234A53A551FA553EC09AD9F5CE8C31DB9E9B1AF5CA
310
7695D1198E428A91D2D214952E33ECDD315861B4E5CC1AE3BE9561A445A3323CC098B3D21ADFCE9034DA29ED00D5A6503328BA4E398C640D8B0C77F253352214DE4145770A5B214FA2546114020D759C75CE8200340D19DE981F0F6746269C33EFAB6266AB02A655C74A59CCF365BADC27CB5D902ED22848F6340DF238A141
310
BE88E2F57B92BFEDF23523433367AE6A2EEAA455C2A902F398D2751045018D3FA264435F3771F242571B4A1919CA6F9A7C5B3CD9E42BED16F12C776AEB308F40C848FC700B1139D4891EF410CEC810227CC6846F8386402064270EF5C5C709A05E49676C024C61FC95EA45ED154CA5211D1FF4FB8291A913A68E9B83EBBB33
310
E2A7673CDE118E5AE8124C0807CB8377834E366998436B950D7A7746DAD846D4CFD978E0F04FD455FC5D49D2D4C6FE9722321F10997F0F32DC47FE05504B0304140006080800CC70623BFFEA85907E0000009D0000000B0000006662782F636E782E786D6C4DCCD10A83201886E15B91FFDC95D95A811AB6F23E625948A6C3
310
E9D8E5AF46073BFAE0E1E365ED67B3E8ADC3CB78C7815C7240DA3DFC64DCC221C519D7805AC182F7F1EF06C88D9BE6703008B6049F9E274D7A1E938DBB5AE3D6131B2589BA0D3D965551E0B2EA732C9B9A624AAEB41E3A557677029960D9AFB4EF11165F504B0304140006080800CC70623B4FEEA4082C0100001202000031
310
0000006662782F39464131463745442D413632322D343644302D413938332D3331353338454246344243312F636F72652E786D6C8D515B6EC32010BC0AE2AB55850DD871ED0813254D72825EC00192A2C460F1A872FC42ED48ED5F7E00CDCECCCEB26C731F6FE05B39AFADE921293004CA082BB5B9F43086336A21D870E6AC
310
0D7F68109861543DCC30E4ECE26C9C164858139409093556AA051CBC570102714B8F1E7AF1A5C6A11862480C7F2DA6415C878B2A4891CA89C7990F2E050073937C42DE1DB7E4F87ED8A36D4329AA9B3D46DBAEAD504556557BD81DEBDD0761E52CE42C462D17B996298E3E6BE59E35C962CE821E1FF18553435012728A7187
310
0841987E927A8D9B35ADDF70BBC6989599FE4F1427F9A4286A132ABAC49D651EF234CD5CE04CDA78BA3DC2A8FB645D00B9DF8B57E215725C60BCA2A463E54C4CE327C7A65E1C7DB02E7DEFCBF594B864C5CA6CDBD49C957943E9FA5D5FBAF336F90F504B0304140006080800CC70623BAD7543B64E01000033030000300000
310
006662782F39464131463745442D413632322D343644302D413938332D3331353338454246344243312F636E782E786D6CD593CD6EC32010845F0571AD6CE3D48AD20813A9873E410FBD12D82434182C7EAAE6EDBB2424CD25871E7B41D6EC30B3FA84F9E67BB2E40B4234DE8DB46F1925E094D7C6ED479AD3AE5951B2113C
310
789FEE6C943839C1488B4C05DF079FE72A69D8C96C13AAD6B8631503449F83828872B949AC57D26200B826A308D316B4064D6E46FCDA41C05550DC9E483A00797BFD207EFB092A45DE9514C1BBD22178396BD39D891265658C238DEA00936C654E5E433CB65A26D9F6EDB5EBC14EBF49A45CB856E66048291F6939A9A81BB5
310
C8917738143CA680F4AA299D66A042CEB3354A2684DC9D8D178FE0D9B8B41CAAD720F880EE7EF93C0C18769E099ECC04D5A102C8049A8A05632F4DDF376CF1DE0F6BB65C2F8627B65A33C6BB62177CEBBDAD973006829F89F22E814B54F4BC2BE347F8AA8F681390B50FA73F804400B5F542E796F19FF974E7F78DB802FE05
310
E207504B0304140006080800CC70623B16AB87BA640500003C100000340000006662782F39464131463745442D413632322D343644302D413938332D3331353338454246344243312F6F626A656374732E786D6CAD575B6FA33818FD2B887DE6924B3BED8A326A92B68A663B534DD4D13E548A0C38942D60649B369D5FBFC7
310
600890A493BDE42160637FD7F31D7FF63E6FB3D478A55C242CBF3247B66B1A340F5994E4F19559CA8D75611A9F7D8F33263BCB4C232719BD32D5B4E97B316765A1A722BA21652A07B3B7B33F0D11D29C9A46981221AE4C113ED38CD8A4942CA2E2C58E882476BCD9DA23BB5ED8171B73523C0F841684D35CC252CCE79062D4
310
468DFA43D7747CCF51DF7D4FFDEB5593E3AB9CCA9FBEFE241792E4E19EB28198C968BAB8199F5D5A67D3E9C49A9E8F47D6EC76B6B0469F26EEFC7C3EBFBCBEB98462213924694B38DD98FE1D62C393D073EA4FADC5DAF04326852CCF6958F90F0F2B9BB5C48816348F90C7840A68EB78EDF68723159BCEE7891A6B95DDE9D3
310
BCEAEEE8086A6C6F9E5D4B59F0175C10A7A0820BAA5055C7473B5AE3CFDD452D602CD5DF12616444529E90D448938013FE6EFA58AA96F85E4F8C42275708571E98FE6827AF6B2B4AE3D7D83D64E5A64C53054DD3AF90BD06FEA9149565C94FCA0F6B834DC85599E4F2423B24DF0B6AFA979E534DFA9E7A4CC6FA631D486393
310
921829879BF5D781A373557BCB85E97FB90DB62B558F8795179C15944B051F40AB495CF35451D26A4727654E6D8033BD98EF82F21D91FF8AF2DD9982BCF1643BDD4EB516C9492E368C67C88DED563FC36D5EACF66DFF057C3658BDBFA69DF9578B3DA735B64F18C7F20770A9D45CFCF7FCF563D6456A277DBEF78A02637CA2
310
43B90A490AEAB94F72244481D24819A6C0E59B606BFA4B3025981DBB48EAB701D97BF19C577CC77F2D1B6C55A9EF3C732474C0B727303F625995056C3B02963D9EAC146BE78EC5FCEC7FA999EBC5EACBAAE41B12D27B4D2C0BBA49F244E2ECDC81B76B502F113D8F5EE8FB1BE3111CDD4FC2AA9B844CAB1288B68AB90A7CDC
310
1C166AB0D3DC5310625FCC14E779BFD0709F8890A629C9292B1B2DED31A4B0DA928CEE135085754027E3018A397D4D5427D15BD1330B677DC8934285AC3DF45A9EB68FF8F2B8FC0A509AFEECFD0FF2DE25CC6047F7214B195F07EFEB9A094D800F7BFAE8FED187B78EA8A3A400F115961BCAD1215E47C966530AF0EE8128FE
310
58CEBB996A8964FFA529A046635D9353B0336A8F700DDF46271A024E70B0B37C9DE01847591E54DED53D54202AB947E4076556AC49C6CA5C9E1226B7F1A7B1BE15DEED62C41B91E1B3E9AFAAA735036547343A925075041DF0A9979E893B391F8FCFA6967B3EFB644DCF6E5CEBFAE272625DCC6FAF3FB93793C5F90CE1EF57
310
407342756B10D1C489E8953CD1617E5CEECAD6F4EF8914CE5D5D504E5C3F1F9736DA62CFC11E00BCDDB8CC8A9466349744C1F75EBDA4DF09BA8A9E8C7A7E9991989E20E5DBDD6A6003664ED8F7A04A8DBE0DF6EAD9B9AA858342E47399053949D2C146EDB85DE4B176BB0965FBAC19BD19AA918E27FA50C1D22402E144464C
310
59462568E704B6E71915404CB72B8FF4EDE184DDAF753F284990D2C6926782963815403548A70C657FDEF80D2D9CEAA2AE4C1C76F60BFE74219A06527D6582DF6412526107381E55E353090704D085B52408D0933C4ED159D79BDA71BB4BC506F4831350EB6F979CD22D69BF7AC49B91A2C0A9DDA3D5CA36AD20FC478E37E6
310
1844E2352865EBCB6EA275A652E3836BE04EFB400BF1A2556F515F1FBB35B2AB35BD889C744FFA1004B5544B121E57F70215746DD2F5E2C1412B602CBF19455AC6C8E5E9922C4E01E65215385004546899059180EAFCF7A707CE7017CD8CDB0410789AB32C63B91E5CEBBBACB17AC6CD347A022D5075FD106377347AAABA7E
310
7D11590744509B44E205134DC1290F06580320F78E537D3D73540E06CB970B431F185308AD40BBD794D6D77003C5A36E8EAA54BA64597CD8F83BD552A080A365F7FF06504B0304140006080000CC70623B000000000000000000000000350000006662782F39464131463745442D413632322D343644302D413938332D3331
310
353338454246344243312F76657274696365732E62696E504B0304140006080800CC70623BF270F1330600000004000000360000006662782F39464131463745442D413632322D343644302D413938332D3331353338454246344243312F747269616E676C65732E62696E636660600000504B0304140006080000CC70623B
310
000000000000000000000000370000006662782F39464131463745442D413632322D343644302D413938332D3331353338454246344243312F617474726962757465732E62696E504B0304140006080800CC70623B08DA0BD19000000041010000360000006662782F39464131463745442D413632322D343644302D413938
310
332D3331353338454246344243312F6469726563746F72792E786D6C858F410AC3201045AF22B36F53E9A60B35CBEEBAE80D244E44489C6234F4F835464A48035D0DF398FF9F8AF63D0E6CC63039F212F8F9020C7D47C6792B21C5FE7403D62A1188E2E60C98D7234A5830286103A55745067B9D86B8A3CF9C7F90C11DE607
310
FB144396D7B6A82D282E9A152AD114D5EF2CB866EEE831B8EEA07A7BB5A8D7D61A2BAAEB7FD5F70921FF497D00504B0304140006080800CC70623B0D6EF93BFE000000A00100003B0000006662782F39464131463745442D413632322D343644302D413938332D3331353338454246344243312F7265736F75726365732F63
310
6F72652E786D6C8D50596E833010BD0A9ADFCA60B334011947A8694ED00B586642AC041B79A97AFC9A40A5F6AF3F33A3B7689E1E3F7DCD8FEC139DD7D6F4C0720A191A65476DA61E62B892236427C19DB5E1970C322367EC618541F0C9D9B8EC90B226A009093576C41D94DE63804C3DD2D18357379C652E63480A7FCF17A9
310
EE72C29CE5894E3AC17D702940B63D59270887DE46A7D0F36263058F518FBB468FE9A7BE6A7420864373B8D4873369AA8691FA421B3294352543C5CAF65C0F6FEF43CB8BD52C78D0F34F46E550061C419494B6843142CB0F5677F4B52BEB177AEC28E5C52AFF638ACBF84F53D42654E51E77B379102C05791282176B5F693D
310
CB4C7BED567C03504B010214000A0000080000CC70623B3DEE336E79000000790000001B00000000000000000000000000000000006175746F6465736B2D64657369676E2D7061636B6167652E786D6C504B01021400140006080800CC70623BD486FD9CA0000000F40000001300000000000000000000000000B20000005B
310
436F6E74656E745F54797065735D2E786D6C504B01021400140006080800CC70623B1EC5D7A3EB0000007C010000080000000000000000000000000083010000636F72652E786D6C504B01021400140006080800CC70623B55019EA25F0000007C000000070000000000000000000000000094020000636E782E786D6C504B
310
01021400140006080800CC70623B8C9102E971010000D40300000C00000000000000000000000000180300006662782F636F72652E786D6C504B01021400140006080800CC70623BFFEA85907E0000009D0000000B00000000000000000000000000B30400006662782F636E782E786D6C504B01021400140006080800CC70
310
623B4FEEA4082C0100001202000031000000000000000000000000005A0500006662782F39464131463745442D413632322D343644302D413938332D3331353338454246344243312F636F72652E786D6C504B01021400140006080800CC70623BAD7543B64E010000330300003000000000000000000000000000D5060000
310
6662782F39464131463745442D413632322D343644302D413938332D3331353338454246344243312F636E782E786D6C504B01021400140006080800CC70623B16AB87BA640500003C1000003400000000000000000000000000710800006662782F39464131463745442D413632322D343644302D413938332D3331353338
310
454246344243312F6F626A656374732E786D6C504B01021400140006080000CC70623B0000000000000000000000003500000000000000000000000000270E00006662782F39464131463745442D413632322D343644302D413938332D3331353338454246344243312F76657274696365732E62696E504B01021400140006
310
080800CC70623BF270F133060000000400000036000000000000000000000000007A0E00006662782F39464131463745442D413632322D343644302D413938332D3331353338454246344243312F747269616E676C65732E62696E504B01021400140006080000CC70623B0000000000000000000000003700000000000000
310
000000000000D40E00006662782F39464131463745442D413632322D343644302D413938332D3331353338454246344243312F617474726962757465732E62696E504B01021400140006080800CC70623B08DA0BD190000000410100003600000000000000000000000000290F00006662782F39464131463745442D413632
310
322D343644302D413938332D3331353338454246344243312F6469726563746F72792E786D6C504B01021400140006080800CC70623B0D6EF93BFE000000A00100003B000000000000000000000000000D1000006662782F39464131463745442D413632322D343644302D413938332D3331353338454246344243312F7265
310
736F75726365732F636F72652E786D6C504B0506000000000E000E0080040000641100000000
  0
XRECORD
  5
7D5E
102
{ACAD_REACTORS
330
173
102
}
330
173
100
AcDbXrecord
280
     1
102
MATERIAL
148
0.0
149
0.0
149
0.0
 93
        0
 94
       63
282
     0
 72
     1
 77
     1
171
     1
175
     1
179
     1
273
     0
  0
XRECORD
  5
175
102
{ACAD_REACTORS
330
173
102
}
330
173
100
AcDbXrecord
280
     1
270
     1
271
     1
  0
XRECORD
  5
174
102
{ACAD_REACTORS
330
173
102
}
330
173
100
AcDbXrecord
280
     1
270
     1
271
     1
  0
XRECORD
  5
1FB
102
{ACAD_REACTORS
330
173
102
}
330
173
100
AcDbXrecord
280
     1
 70
     0
 90
1673772943
  1
ECE7A1D2-D628-4531-984C-D00F80459256
310
504B03040A0000080000CC70623B3DEE336E79000000790000001B0000006175746F6465736B2D64657369676E2D7061636B6167652E786D6C3C3F786D6C2076657273696F6E3D22312E302220656E636F64696E673D227574662D3822203F3E3C666F726D6174733E3C666F726D61743E687474703A2F2F736368656D612E
310
6175746F6465736B2E636F6D2F64657369676E2D7061636B6167652F323030393C2F666F726D61743E3C2F666F726D6174733E504B0304140006080800CC70623BD486FD9CA0000000F4000000130000005B436F6E74656E745F54797065735D2E786D6C7D8EC10E82300C865F65E91D8A1E8C310C0EEA1BF002731658846E
310
D98AC1B77784ABF1D8FE5FBFBF75BBCE937A534CCEB38643598122B6FEE978D0B0485F9C41B54DDD7D022595594E1A469170414C76A4D9A4D207E29CF43ECE46F218070CC6BECC4078ACAA135ACF422C856C0E68EA1BF5669944DDD7BCDE7B1F8E415D77AECB980613C2E4AC91FC167A2B244592486606FC29C8FD7F045B9A
310
EF7053A7E60B504B0304140006080800CC70623BD9DDAED0EC0000007C01000008000000636F72652E786D6C8D90416EC3201045AF82665B61836D9CD8C2444DD39CA01740405C94182C03558F5F9C3852BBEB6A467FFE9B197D7EF89E6EE8CB2CC17A37002D0820E394D7D68D03A478C17B4007C117EFE32F1B20272733C0
310
2A83E0E3E2D3BC49CABB685CCCAAF3DA6CA20CC14440EA969B0182FA34932C648AD911AEC52CD5558EA6A0CF2EC329598D1E47ACCEFBECC59A050463A7EA5833865FEBDD0E37353BE3EE8DBDE3F6786A48D375FBF6CC78B9C282473B3DEFABC5C86834888A900E538A49F5419B9EB47DD5BC907D4F082F57FB1F28CDFA9F50
310
B22ED6D5F6EE030B20687EE43E10BC5CB3C8E51E54AE6B6EE207504B0304140006080800CC70623B55019EA25F0000007C00000007000000636E782E786D6C4DCB3B0E80201045D1AD90E915ED2CF8AC45050C11660C8261F98AB1B07AC9C97D42D718D865D3E909258CFD00CCE24AC6E326A164D74DC0B4128928FF326038
310
472BA13128B1252AC747C6BAB984FC68F0B87FE8960A5C09FE86CFB69FBA01504B0304140006080800CC70623BA24EB22D72010000D40300000C0000006662782F636F72652E786D6CC5535B6E833010BC8AE5DF0A6C5E49888CA3A6694ED00B38E05014B091B1518EDFE511A5A9D228FD2A1F60CDEC7A67C6986DCE4D8D7A
310
69BA4AAB0C073EC548AA5C17952A33ECECD15B61B4E1CC686DBF9561A44423333CC098B3D268D7CE50AE9595CA02AA74216750749DB418E5352C32DCE59FB211BE70162ABA93DF8AFC244AE9073ED050C759670D0840D390E18DF9F1706664C23973AE2A66B62A605A75ACA4C13C4976E1364A12EF355A2EBD384AF65EFA96
310
BC7B8BED2EA6719AAE16FB8491A199335B351775B991C2CA02F390D2D40B028F861F41BCA68B7518BFD0D59A524686F29B26D7164F36B94AD9289CE54E6D1DE6010819891F6E21228B3AD1831EC219194284CF98F06DD01008846CC5A1BEF83801D4CBDC6A1303536877A57A513B0953A94FC707FDBE6064EA84A9E3E6E0FA
310
EE8CF0E9198F7784A316AA0413C2C2F2E0ECA0934D1AE6D05A69BCDE9E91D2A611F573361E38FC1375157F5752AE6B6DFE4B11990F88CCBF0719EE23FF02504B0304140006080800CC70623B408A7D3B7C0000009D0000000B0000006662782F636E782E786D6C4DCCD10A83201886E15B91FFDC552A92A0064DBC8F581632
310
D3703A76F9ABD1C18E3E78F878E5F0D9027ABBFCF2292AE86E2D20171F69F6715550CB827B40839639A5F2770314A7CD293819B45C73AAFB45B35BA61ACAA1C1C7E7855C58C15BC331339661262CC762340413D68D77DA5B42298546CBE6573AF60CEB2F504B0304140006080800CC70623B449FB9BD290100001202000031
310
0000006662782F36394639363044362D344446342D343946362D394244322D3234314243333846323333332F636F72652E786D6C8D515B6EC32010BC0AE22B55850D98B871848994463E412FE002495162B07854397EA176A4F62F3F2C9A9D991D587EB84F37F0AD7D30CEF6905418026DA553C65E7A98E219ED203808EE9D
310
8B7F6810D871D23D2C3014FCE25D9A57483A1BB58D19B54EE9151C43D0110279CB971E06F9A5A7B11A53CC8C70ADE6515EC78BAE4895DB992778883E0700CB907242D17643D7E2538BD869608875438BBAE38922CAC8F1BDD90DB4691A5E2F42C153326A951B95E398B3D1FE599322163C9AE9115F7A3D46ADA0A018778810
310
84E907617BDCEE297BC5BB3DC6BC2EF47FA234AB2745C9D8D8D035EE220B50105E2F0DC1954B9FB747187D9F9D8FA0CCDB042D5FA0C015C65B42DF78BD10F3F3B363CB56C7109DCFDFBBB97E662ED92EB62D13BC2E1BCAE5777DB9966D8A1F504B0304140006080800CC70623BAD7543B64E01000033030000300000006662
310
782F36394639363044362D344446342D343946362D394244322D3234314243333846323333332F636E782E786D6CD593CD6EC32010845F0571AD6CE3D48AD20813A9873E410FBD12D82434182C7EAAE6EDBB2424CD25871E7B41D6EC30B3FA84F9E67BB2E40B4234DE8DB46F1925E094D7C6ED479AD3AE5951B2113C789FEE
310
6C943839C1488B4C05DF079FE72A69D8C96C13AAD6B8631503449F83828872B949AC57D26200B826A308D316B4064D6E46FCDA41C05550DC9E483A00797BFD207EFB092A45DE9514C1BBD22178396BD39D891265658C238DEA00936C654E5E433CB65A26D9F6EDB5EBC14EBF49A45CB856E66048291F6939A9A81BB5C89177
310
38143CA680F4AA299D66A042CEB3354A2684DC9D8D178FE0D9B8B41CAAD720F880EE7EF93C0C18769E099ECC04D5A102C8049A8A05632F4DDF376CF1DE0F6BB65C2F8627B65A33C6BB62177CEBBDAD973006829F89F22E814B54F4BC2BE347F8AA8F681390B50FA73F804400B5F542E796F19FF974E7F78DB802FE05E20750
310
4B0304140006080800CC70623B8D05915C650500003B100000340000006662782F36394639363044362D344446342D343946362D394244322D3234314243333846323333332F6F626A656374732E786D6CAD575B6FA33814FE2B887D06429276DA1565D4266D158D3A339A6846FB502932E050B66023DB74D2FDF5FB190C01
310
9276B2973C046C8ECFF53B17071F77456EBD502133CEAE6CDF9DD81665314F32965ED995DA3A17B6F5310C04E7AA47665B8C14F4CAD6DB7618A48257A5D94AE89654B91AEDDEDDFC61C998326A5B714EA4BCB265FC440BE2924AF184CA6737218AB8E976E7FA6E4338649B0A523E8D98964450A6A029F619B8588D52FE7039
310
B1BD30F0F4F730D0FF866AF6369557DB33949F31A9088B0F848DD8CCFCF9F2767A76E99CCDE733677E3EF59D9BBB9BA5E37F984D16E78BC5E5F5ED25044B25C0C96822E8D60EEFE11B91C581D77CEA34368A1F5329E68CD1B8B61F16D63A1B8E092D294B10C78C4A48EB593D192E7DED9BDEE7995E1B91FDEDD3ACEA9FE831
310
6A756F9F7D4D79F4274C90A7A04248AA51D5F8C718DAE06FB2F75AC4796EBE65D22A88A22223B995679120E2D50E41AA49C260C046A35368846B0BECD0DFF3EBEB8AD4F835768F69B9ADF25C43D30E6B646F807FAA64AD59F61715C7A54127C4AACA98BA3006A9D792DAE165E0D59B61A01FB3A9F9D838D2DAE62445C86166
310
F37564E842E7DE6A69879FEEA2DD5AE7E371E1A5E025154AC307D06A03D73EB5978C58FFA4C8E9033066E0F3BD53BEC1F39F91BE7B55103791EDE6BBB991A2046172CB4581D8B893FA674DDA17A77B3B7C413D1B511FD2743BFF8A38F03A658705E3ADF8015C3A3417FF3D7E439FF591DA0B5F18BC20C1B8981957AE6392A3
310
F43C640C01D1A0B4728E2DD4F26DB4B3C3152A252A3B4E913CEC1C72F012782FF88EFF8637AA552DBEF76408E8A8DE9E50F9E1CB3A2DA0DB1B6039A893B56063DC5B3E3FFB5F72E67AB9FEB4AEC496C4F4C1149625DD662C53E89D7BF0F6151A046260D1337DFDC94502430F83B0EE07A130A224BCAD7DAE1D9FB6CD422FF6
310
920702629C4BB9AE79C12F243C6432A6794E18E5552BA56B431AAB5D91317302B2B071E86C3A42B1A02F999E24061403B5D0EB639195DA655DD3EBEAB4FB862DDF579F014AD0E73C22F99E28DA57FB98E75C6CA2D74D53086D600F4786E0FE3144B771A8A7B900F03594DB8A633CBC49B2EDB69228BB479CF863B5E807AAAB
310
23872F6DFEB4129B949CA33823F58830E86D65621E10047D9DB34D862E8EAC3C2ABC2F7B2C40D67CDFE01F5545B92105AF983AC54D93D69E56FB8E797F88913F898A9FEC705D3F9D1B54EC8426FB500D40A03BD0119B06E1B95DDC7EB8F6975367793EBD70E66733DFB9BC982F9CE564727731999F5D4ECFCE3B8D6A4DC2A0
310
6D50FD148437D110834A64C6CDDF57FBACB5C307A2A477DFE4939736CFEF2B175371E0E10CF0DD1D5C15654E0BCA14D1E87DD02FF93782A162C0A3D95F1524A52770F972BF1EE9809D13CE7DD599467F8ECE9ADD85CE85A34CD45355448C64F9E8A031DC2D596ACC6E5DD93D9B82DE2EF5CAF81363A8E47996A0DE24564A79
310
4115AACE09C55E14540231FDA13C319787134EBF34E3A022514E5B4D9E0826E25C02D5805B15ABE1BEF51B26383D445DD9E875EE33FE4C22DA16427D65A3BCA92CA6D28DD01DF5DC53330704308475351050232CCD31583787BA75774AFB06E5070DD0C8EF484E19968C5D83BA5B90B244D31E54D55A372320FE4786B7EA58
310
44E135AA5467CB7EA333A61683CC6A8C3257034C10CF46F40EF9F5BE59BE5BD30C3C72D235E95D10345C1D45445A5F0BB47E46A5EBE5570F9380B5FA629579952296A773720405982B9DE04011506178964401AA8BDF1FBF0A8EAB6861DD6580C0E38217056766716DAEB2D6FA0917D3E4116581EADB879C4E7CFFB11EFACD
310
3D641311495D92C8676CB409A72D18610D803CE8A626049E8EC1887CB5B44CC39883690DDA8399B4B9855B481E7D71D4A9D22F96E5BB73BF5793020C02137BF837504B0304140006080000CC70623B000000000000000000000000350000006662782F36394639363044362D344446342D343946362D394244322D32343142
310
43333846323333332F76657274696365732E62696E504B0304140006080800CC70623BF270F1330600000004000000360000006662782F36394639363044362D344446342D343946362D394244322D3234314243333846323333332F747269616E676C65732E62696E636660600000504B0304140006080000CC70623B0000
310
00000000000000000000370000006662782F36394639363044362D344446342D343946362D394244322D3234314243333846323333332F617474726962757465732E62696E504B0304140006080800CC70623B08DA0BD19000000041010000360000006662782F36394639363044362D344446342D343946362D394244322D
310
3234314243333846323333332F6469726563746F72792E786D6C858F410AC3201045AF22B36F53E9A60B35CBEEBAE80D244E44489C6234F4F835464A48035D0DF398FF9F8AF63D0E6CC63039F212F8F9020C7D47C6792B21C5FE7403D62A1188E2E60C98D7234A5830286103A55745067B9D86B8A3CF9C7F90C11DE607FB14
310
4396D7B6A82D282E9A152AD114D5EF2CB866EEE831B8EEA07A7BB5A8D7D61A2BAAEB7FD5F70921FF497D00504B0304140006080800CC70623BCA768048FE000000A00100003B0000006662782F36394639363044362D344446342D343946362D394244322D3234314243333846323333332F7265736F75726365732F636F72
310
652E786D6C8D50596E833010BD0A9ADFCA60D600328E9AA639412F609909B1126CE4A5EAF16B0295DABFFECC8CDEA2797AECF8353F924FB44E193D409E5248504B332A3D0D10FC95B4901C39B3C6F85F3248B49871801506CE266BC2B243D2688FDA47549B11775038871E12F988C7004EDE7016A9083E2ADC3D5D84BC8B09
310
D33C8D74D471E6BC8D0192EDC93A815B742658898E651BCB59086ADC356A8C3FD555A1055ED7E7E254D615792D0F075295F585746FF53B694EE78A565DD736979A65AB9933AFE69F8CD2A2F038022F28ED489E135A7CE4554F9BBEA85E68DB53CAB255FEC71496F19FA6A0B42F8B3DEE6673C0F318E4497096AD7DC5F52C33
310
EEB55BFE0D504B010214000A0000080000CC70623B3DEE336E79000000790000001B00000000000000000000000000000000006175746F6465736B2D64657369676E2D7061636B6167652E786D6C504B01021400140006080800CC70623BD486FD9CA0000000F40000001300000000000000000000000000B20000005B436F
310
6E74656E745F54797065735D2E786D6C504B01021400140006080800CC70623BD9DDAED0EC0000007C010000080000000000000000000000000083010000636F72652E786D6C504B01021400140006080800CC70623B55019EA25F0000007C000000070000000000000000000000000095020000636E782E786D6C504B0102
310
1400140006080800CC70623BA24EB22D72010000D40300000C00000000000000000000000000190300006662782F636F72652E786D6C504B01021400140006080800CC70623B408A7D3B7C0000009D0000000B00000000000000000000000000B50400006662782F636E782E786D6C504B01021400140006080800CC70623B
310
449FB9BD290100001202000031000000000000000000000000005A0500006662782F36394639363044362D344446342D343946362D394244322D3234314243333846323333332F636F72652E786D6C504B01021400140006080800CC70623BAD7543B64E010000330300003000000000000000000000000000D20600006662
310
782F36394639363044362D344446342D343946362D394244322D3234314243333846323333332F636E782E786D6C504B01021400140006080800CC70623B8D05915C650500003B10000034000000000000000000000000006E0800006662782F36394639363044362D344446342D343946362D394244322D32343142433338
310
46323333332F6F626A656374732E786D6C504B01021400140006080000CC70623B0000000000000000000000003500000000000000000000000000250E00006662782F36394639363044362D344446342D343946362D394244322D3234314243333846323333332F76657274696365732E62696E504B010214001400060808
310
00CC70623BF270F13306000000040000003600000000000000000000000000780E00006662782F36394639363044362D344446342D343946362D394244322D3234314243333846323333332F747269616E676C65732E62696E504B01021400140006080000CC70623B00000000000000000000000037000000000000000000
310
00000000D20E00006662782F36394639363044362D344446342D343946362D394244322D3234314243333846323333332F617474726962757465732E62696E504B01021400140006080800CC70623B08DA0BD190000000410100003600000000000000000000000000270F00006662782F36394639363044362D344446342D
310
343946362D394244322D3234314243333846323333332F6469726563746F72792E786D6C504B01021400140006080800CC70623BCA768048FE000000A00100003B000000000000000000000000000B1000006662782F36394639363044362D344446342D343946362D394244322D3234314243333846323333332F7265736F
310
75726365732F636F72652E786D6C504B0506000000000E000E0080040000621100000000
  0
XRECORD
  5
176
102
{ACAD_REACTORS
330
173
102
}
330
173
100
AcDbXrecord
280
     1
270
     1
271
     1
  0
XRECORD
  5
177
102
{ACAD_REACTORS
330
173
102
}
330
173
100
AcDbXrecord
280
     1
270
     1
271
     1
  0
XRECORD
  5
7D80
102
{ACAD_REACTORS
330
7D7F
102
}
330
7D7F
100
AcDbXrecord
280
     1
102
ACAD_ROUNDTRIP_2012_MLEADER_STYLE
298
     1
  0
XRECORD
  5
7D92
102
{ACAD_REACTORS
330
7D91
102
}
330
7D91
100
AcDbXrecord
280
     1
102
DISPLAYNAME
  1
Metric50
102
FLAGS
 90
        0
  0
CELLSTYLEMAP
  5
7D52
102
{ACAD_REACTORS
330
162
102
}
330
162
100
AcDbCellStyleMap
 90
        3
300
CELLSTYLE
  1
TABLEFORMAT_BEGIN
 90
        5
170
     1
 91
        0
 92
    32768
 62
   257
 93
        1
300
CONTENTFORMAT
  1
CONTENTFORMAT_BEGIN
 90
        0
 91
        0
 92
      512
 93
        0
300

 40
0.0
140
1.0
 94
        5
 62
     0
340
11
144
6.0
309
CONTENTFORMAT_END
171
     1
301
MARGIN
  1
CELLMARGIN_BEGIN
 40
1.5
 40
1.5
 40
1.5
 40
1.5
 40
4.5
 40
4.5
309
CELLMARGIN_END
 94
        6
 95
        1
302
GRIDFORMAT
  1
GRIDFORMAT_BEGIN
 90
        0
 91
        1
 62
     0
 92
       -2
340
14
 93
        0
 40
1.125
309
GRIDFORMAT_END
 95
        2
302
GRIDFORMAT
  1
GRIDFORMAT_BEGIN
 90
        0
 91
        1
 62
     0
 92
       -2
340
14
 93
        0
 40
1.125
309
GRIDFORMAT_END
 95
        4
302
GRIDFORMAT
  1
GRIDFORMAT_BEGIN
 90
        0
 91
        1
 62
     0
 92
       -2
340
14
 93
        0
 40
1.125
309
GRIDFORMAT_END
 95
        8
302
GRIDFORMAT
  1
GRIDFORMAT_BEGIN
 90
        0
 91
        1
 62
     0
 92
       -2
340
14
 93
        0
 40
1.125
309
GRIDFORMAT_END
 95
       16
302
GRIDFORMAT
  1
GRIDFORMAT_BEGIN
 90
        0
 91
        1
 62
     0
 92
       -2
340
14
 93
        0
 40
1.125
309
GRIDFORMAT_END
 95
       32
302
GRIDFORMAT
  1
GRIDFORMAT_BEGIN
 90
        0
 91
        1
 62
     0
 92
       -2
340
14
 93
        0
 40
1.125
309
GRIDFORMAT_END
309
TABLEFORMAT_END
  1
CELLSTYLE_BEGIN
 90
        1
 91
        1
300
_TITLE
309
CELLSTYLE_END
300
CELLSTYLE
  1
TABLEFORMAT_BEGIN
 90
        5
170
     1
 91
        0
 92
        0
 62
   257
 93
        1
300
CONTENTFORMAT
  1
CONTENTFORMAT_BEGIN
 90
        0
 91
        0
 92
      512
 93
        0
300

 40
0.0
140
1.0
 94
        5
 62
     0
340
11
144
4.5
309
CONTENTFORMAT_END
171
     1
301
MARGIN
  1
CELLMARGIN_BEGIN
 40
1.5
 40
1.5
 40
1.5
 40
1.5
 40
4.5
 40
4.5
309
CELLMARGIN_END
 94
        6
 95
        1
302
GRIDFORMAT
  1
GRIDFORMAT_BEGIN
 90
        0
 91
        1
 62
     0
 92
       -2
340
14
 93
        0
 40
1.125
309
GRIDFORMAT_END
 95
        2
302
GRIDFORMAT
  1
GRIDFORMAT_BEGIN
 90
        0
 91
        1
 62
     0
 92
       -2
340
14
 93
        0
 40
1.125
309
GRIDFORMAT_END
 95
        4
302
GRIDFORMAT
  1
GRIDFORMAT_BEGIN
 90
        0
 91
        1
 62
     0
 92
       -2
340
14
 93
        0
 40
1.125
309
GRIDFORMAT_END
 95
        8
302
GRIDFORMAT
  1
GRIDFORMAT_BEGIN
 90
        0
 91
        1
 62
     0
 92
       -2
340
14
 93
        0
 40
1.125
309
GRIDFORMAT_END
 95
       16
302
GRIDFORMAT
  1
GRIDFORMAT_BEGIN
 90
        0
 91
        1
 62
     0
 92
       -2
340
14
 93
        0
 40
1.125
309
GRIDFORMAT_END
 95
       32
302
GRIDFORMAT
  1
GRIDFORMAT_BEGIN
 90
        0
 91
        1
 62
     0
 92
       -2
340
14
 93
        0
 40
1.125
309
GRIDFORMAT_END
309
TABLEFORMAT_END
  1
CELLSTYLE_BEGIN
 90
        2
 91
        1
300
_HEADER
309
CELLSTYLE_END
300
CELLSTYLE
  1
TABLEFORMAT_BEGIN
 90
        5
170
     1
 91
        0
 92
        0
 62
   257
 93
        1
300
CONTENTFORMAT
  1
CONTENTFORMAT_BEGIN
 90
        0
 91
        0
 92
      512
 93
        0
300

 40
0.0
140
1.0
 94
        2
 62
     0
340
11
144
4.5
309
CONTENTFORMAT_END
171
     1
301
MARGIN
  1
CELLMARGIN_BEGIN
 40
1.5
 40
1.5
 40
1.5
 40
1.5
 40
4.5
 40
4.5
309
CELLMARGIN_END
 94
        6
 95
        1
302
GRIDFORMAT
  1
GRIDFORMAT_BEGIN
 90
        0
 91
        1
 62
     0
 92
       -2
340
14
 93
        0
 40
1.125
309
GRIDFORMAT_END
 95
        2
302
GRIDFORMAT
  1
GRIDFORMAT_BEGIN
 90
        0
 91
        1
 62
     0
 92
       -2
340
14
 93
        0
 40
1.125
309
GRIDFORMAT_END
 95
        4
302
GRIDFORMAT
  1
GRIDFORMAT_BEGIN
 90
        0
 91
        1
 62
     0
 92
       -2
340
14
 93
        0
 40
1.125
309
GRIDFORMAT_END
 95
        8
302
GRIDFORMAT
  1
GRIDFORMAT_BEGIN
 90
        0
 91
        1
 62
     0
 92
       -2
340
14
 93
        0
 40
1.125
309
GRIDFORMAT_END
 95
       16
302
GRIDFORMAT
  1
GRIDFORMAT_BEGIN
 90
        0
 91
        1
 62
     0
 92
       -2
340
14
 93
        0
 40
1.125
309
GRIDFORMAT_END
 95
       32
302
GRIDFORMAT
  1
GRIDFORMAT_BEGIN
 90
        0
 91
        1
 62
     0
 92
       -2
340
14
 93
        0
 40
1.125
309
GRIDFORMAT_END
309
TABLEFORMAT_END
  1
CELLSTYLE_BEGIN
 90
        3
 91
        2
300
_DATA
309
CELLSTYLE_END
  0
XRECORD
  5
7D57
102
{ACAD_REACTORS
330
162
102
}
330
162
100
AcDbXrecord
280
     1
102
ACAD_ROUNDTRIP_PRE2007_TABLESTYLE
 90
      512
 91
        0
  1

 92
      512
 93
        0
  2

 94
      512
 95
        0
  3

  0
XRECORD
  5
7D6A
102
{ACAD_REACTORS
330
7D69
102
}
330
7D69
100
AcDbXrecord
280
     1
102
RTVSPost2010Prop28
280
     1
102
RTVSPost2010PropOp28
 70
     1
102
RTVSPost2010Prop29
280
     1
102
RTVSPost2010PropOp29
 70
     1
102
RTVSPost2010Prop30
280
     0
102
RTVSPost2010PropOp30
 70
     1
102
RTVSPost2010Prop31
280
     0
102
RTVSPost2010PropOp31
 70
     1
102
RTVSPost2010Prop32
280
     0
102
RTVSPost2010PropOp32
 70
     1
102
RTVSPost2010Prop33
280
     0
102
RTVSPost2010PropOp33
 70
     1
102
RTVSPost2010Prop34
280
     0
102
RTVSPost2010PropOp34
 70
     1
102
RTVSPost2010Prop35
280
     0
102
RTVSPost2010PropOp35
 70
     1
102
RTVSPost2010Prop36
280
     0
102
RTVSPost2010PropOp36
 70
     1
102
RTVSPost2010Prop37
 90
       50
102
RTVSPost2010PropOp37
 70
     1
102
RTVSPost2010Prop38
140
0.0
102
RTVSPost2010PropOp38
 70
     1
102
RTVSPost2010Prop39
140
1.0
102
RTVSPost2010PropOp39
 70
     1
102
RTVSPost2010Prop40
 90
        0
102
RTVSPost2010PropOp40
 70
     1
102
RTVSPost2010Prop41ColorIndex
 90
       18
102
RTVSPost2010Prop41ColorRGB
 90
        0
102
RTVSPost2010PropOp41
 70
     1
102
RTVSPost2010Prop42
 90
       50
102
RTVSPost2010PropOp42
 70
     1
102
RTVSPost2010Prop43
 90
        3
102
RTVSPost2010PropOp43
 70
     1
102
RTVSPost2010Prop44ColorIndex
 90
        5
102
RTVSPost2010Prop44ColorRGB
 90
      255
102
RTVSPost2010PropOp44
 70
     1
102
RTVSPost2010Prop45
280
     0
102
RTVSPost2010PropOp45
 70
     1
102
RTVSPost2010Prop46
 90
       50
102
RTVSPost2010PropOp46
 70
     1
102
RTVSPost2010Prop47
 90
       50
102
RTVSPost2010PropOp47
 70
     1
102
RTVSPost2010Prop48
 90
       50
102
RTVSPost2010PropOp48
 70
     1
102
RTVSPost2010Prop49
280
     0
102
RTVSPost2010PropOp49
 70
     1
102
RTVSPost2010Prop50
 90
       50
102
RTVSPost2010PropOp50
 70
     1
102
RTVSPost2010Prop51ColorIndex
 90
      256
102
RTVSPost2010Prop51ColorRGB
 90
-16777216
102
RTVSPost2010PropOp51
 70
     0
102
RTVSPost2010Prop52
140
1.0
102
RTVSPost2010PropOp52
 70
     0
102
RTVSPost2010Prop53
 90
        2
102
RTVSPost2010PropOp53
 70
     1
102
RTVSPost2010Prop54
  1
strokes_ogs.tif
102
RTVSPost2010PropOp54
 70
     1
102
RTVSPost2010Prop55
280
     0
102
RTVSPost2010PropOp55
 70
     1
102
RTVSPost2010Prop56
140
1.0
102
RTVSPost2010PropOp56
 70
     1
102
RTVSPost2010Prop57
140
1.0
102
RTVSPost2010PropOp57
 70
     1
102
RTVSPropertyOp0
 70
     1
102
RTVSPropertyOp1
 70
     1
102
RTVSPropertyOp2
 70
     1
102
RTVSPropertyOp3
 70
     1
102
RTVSPropertyOp4
 70
     1
102
RTVSPropertyOp5
 70
     1
102
RTVSPropertyOp6
 70
     1
102
RTVSPropertyOp7
 70
     1
102
RTVSPropertyOp8
 70
     1
102
RTVSPropertyOp9
 70
     1
102
RTVSPropertyOp10
 70
     1
102
RTVSPropertyOp11
 70
     1
102
RTVSPropertyOp12
 70
     1
102
RTVSPropertyOp13
 70
     1
102
RTVSPropertyOp14
 70
     1
102
RTVSPropertyOp15
 70
     1
102
RTVSPropertyOp16
 70
     1
102
RTVSPropertyOp17
 70
     1
102
RTVSPropertyOp18
 70
     1
102
RTVSPropertyOp19
 70
     1
102
RTVSPropertyOp20
 70
     1
102
RTVSPropertyOp21
 70
     1
102
RTVSPropertyOp22
 70
     1
102
RTVSPropertyOp23
 70
     1
102
RTVSPropertyOp24
 70
     1
102
RTVSPropertyOp25
 70
     1
102
RTVSPropertyOp26
 70
     1
102
RTVSPropertyOp27
 70
     1
102
RTVSPropertyOp28
 70
     1
102
RTVSPropertyOp29
 70
     1
102
RTVSPropertyOp30
 70
     1
102
RTVSPropertyOp31
 70
     1
102
RTVSPropertyOp32
 70
     1
102
RTVSPropertyOp33
 70
     1
102
RTVSPropertyOp34
 70
     1
102
RTVSPropertyOp35
 70
     1
102
RTVSPropertyOp36
 70
     1
102
RTVSPropertyOp37
 70
     1
102
RTVSPropertyOp38
 70
     1
102
RTVSPropertyOp39
 70
     1
102
RTVSPropertyOp40
 70
     1
102
RTVSPropertyOp41
 70
     1
102
RTVSPropertyOp42
 70
     1
102
RTVSPropertyOp43
 70
     1
102
RTVSPropertyOp44
 70
     1
102
RTVSPropertyOp45
 70
     1
102
RTVSPropertyOp46
 70
     1
102
RTVSPropertyOp47
 70
     1
102
RTVSPropertyOp48
 70
     1
102
RTVSPropertyOp49
 70
     1
102
RTVSPropertyOp50
 70
     1
102
RTVSPropertyOp51
 70
     0
102
RTVSPropertyOp52
 70
     0
102
RTVSPropertyOp53
 70
     1
102
RTVSPropertyOp54
 70
     1
102
RTVSPropertyOp55
 70
     1
102
RTVSPropertyOp56
 70
     1
102
RTVSPropertyOp57
 70
     1
102
RTVSPropertyOp58
 70
     1
102
RTVSPropertyOp59
 70
     1
102
RTVSPropertyOp60
 70
     1
102
RTVSPropertyOp61
 70
     1
102
RTVSPropertyOp62
 70
     1
  0
XRECORD
  5
7D68
102
{ACAD_REACTORS
330
7D67
102
}
330
7D67
100
AcDbXrecord
280
     1
102
RTVSPost2010Prop28
280
     0
102
RTVSPost2010PropOp28
 70
     1
102
RTVSPost2010Prop29
280
     1
102
RTVSPost2010PropOp29
 70
     1
102
RTVSPost2010Prop30
280
     1
102
RTVSPost2010PropOp30
 70
     1
102
RTVSPost2010Prop31
280
     0
102
RTVSPost2010PropOp31
 70
     1
102
RTVSPost2010Prop32
280
     0
102
RTVSPost2010PropOp32
 70
     1
102
RTVSPost2010Prop33
280
     0
102
RTVSPost2010PropOp33
 70
     1
102
RTVSPost2010Prop34
280
     0
102
RTVSPost2010PropOp34
 70
     1
102
RTVSPost2010Prop35
280
     0
102
RTVSPost2010PropOp35
 70
     1
102
RTVSPost2010Prop36
280
     0
102
RTVSPost2010PropOp36
 70
     1
102
RTVSPost2010Prop37
 90
       50
102
RTVSPost2010PropOp37
 70
     1
102
RTVSPost2010Prop38
140
0.0
102
RTVSPost2010PropOp38
 70
     1
102
RTVSPost2010Prop39
140
1.0
102
RTVSPost2010PropOp39
 70
     1
102
RTVSPost2010Prop40
 90
        0
102
RTVSPost2010PropOp40
 70
     1
102
RTVSPost2010Prop41ColorIndex
 90
       18
102
RTVSPost2010Prop41ColorRGB
 90
        0
102
RTVSPost2010PropOp41
 70
     1
102
RTVSPost2010Prop42
 90
       50
102
RTVSPost2010PropOp42
 70
     1
102
RTVSPost2010Prop43
 90
        3
102
RTVSPost2010PropOp43
 70
     1
102
RTVSPost2010Prop44ColorIndex
 90
        5
102
RTVSPost2010Prop44ColorRGB
 90
      255
102
RTVSPost2010PropOp44
 70
     1
102
RTVSPost2010Prop45
280
     0
102
RTVSPost2010PropOp45
 70
     1
102
RTVSPost2010Prop46
 90
       50
102
RTVSPost2010PropOp46
 70
     1
102
RTVSPost2010Prop47
 90
       50
102
RTVSPost2010PropOp47
 70
     1
102
RTVSPost2010Prop48
 90
       50
102
RTVSPost2010PropOp48
 70
     1
102
RTVSPost2010Prop49
280
     0
102
RTVSPost2010PropOp49
 70
     1
102
RTVSPost2010Prop50
 90
       50
102
RTVSPost2010PropOp50
 70
     1
102
RTVSPost2010Prop51ColorIndex
 90
      256
102
RTVSPost2010Prop51ColorRGB
 90
-16777216
102
RTVSPost2010PropOp51
 70
     0
102
RTVSPost2010Prop52
140
1.0
102
RTVSPost2010PropOp52
 70
     0
102
RTVSPost2010Prop53
 90
        2
102
RTVSPost2010PropOp53
 70
     1
102
RTVSPost2010Prop54
  1
strokes_ogs.tif
102
RTVSPost2010PropOp54
 70
     1
102
RTVSPost2010Prop55
280
     0
102
RTVSPost2010PropOp55
 70
     1
102
RTVSPost2010Prop56
140
1.0
102
RTVSPost2010PropOp56
 70
     1
102
RTVSPost2010Prop57
140
1.0
102
RTVSPost2010PropOp57
 70
     1
102
RTVSPropertyOp0
 70
     1
102
RTVSPropertyOp1
 70
     1
102
RTVSPropertyOp2
 70
     1
102
RTVSPropertyOp3
 70
     1
102
RTVSPropertyOp4
 70
     1
102
RTVSPropertyOp5
 70
     1
102
RTVSPropertyOp6
 70
     1
102
RTVSPropertyOp7
 70
     1
102
RTVSPropertyOp8
 70
     1
102
RTVSPropertyOp9
 70
     1
102
RTVSPropertyOp10
 70
     1
102
RTVSPropertyOp11
 70
     1
102
RTVSPropertyOp12
 70
     1
102
RTVSPropertyOp13
 70
     1
102
RTVSPropertyOp14
 70
     1
102
RTVSPropertyOp15
 70
     1
102
RTVSPropertyOp16
 70
     1
102
RTVSPropertyOp17
 70
     1
102
RTVSPropertyOp18
 70
     1
102
RTVSPropertyOp19
 70
     1
102
RTVSPropertyOp20
 70
     1
102
RTVSPropertyOp21
 70
     1
102
RTVSPropertyOp22
 70
     1
102
RTVSPropertyOp23
 70
     1
102
RTVSPropertyOp24
 70
     1
102
RTVSPropertyOp25
 70
     1
102
RTVSPropertyOp26
 70
     1
102
RTVSPropertyOp27
 70
     1
102
RTVSPropertyOp28
 70
     1
102
RTVSPropertyOp29
 70
     1
102
RTVSPropertyOp30
 70
     1
102
RTVSPropertyOp31
 70
     1
102
RTVSPropertyOp32
 70
     1
102
RTVSPropertyOp33
 70
     1
102
RTVSPropertyOp34
 70
     1
102
RTVSPropertyOp35
 70
     1
102
RTVSPropertyOp36
 70
     1
102
RTVSPropertyOp37
 70
     1
102
RTVSPropertyOp38
 70
     1
102
RTVSPropertyOp39
 70
     1
102
RTVSPropertyOp40
 70
     1
102
RTVSPropertyOp41
 70
     1
102
RTVSPropertyOp42
 70
     1
102
RTVSPropertyOp43
 70
     1
102
RTVSPropertyOp44
 70
     1
102
RTVSPropertyOp45
 70
     1
102
RTVSPropertyOp46
 70
     1
102
RTVSPropertyOp47
 70
     1
102
RTVSPropertyOp48
 70
     1
102
RTVSPropertyOp49
 70
     1
102
RTVSPropertyOp50
 70
     1
102
RTVSPropertyOp51
 70
     0
102
RTVSPropertyOp52
 70
     0
102
RTVSPropertyOp53
 70
     1
102
RTVSPropertyOp54
 70
     1
102
RTVSPropertyOp55
 70
     1
102
RTVSPropertyOp56
 70
     1
102
RTVSPropertyOp57
 70
     1
102
RTVSPropertyOp58
 70
     1
102
RTVSPropertyOp59
 70
     1
102
RTVSPropertyOp60
 70
     1
102
RTVSPropertyOp61
 70
     1
102
RTVSPropertyOp62
 70
     1
  0
XRECORD
  5
7D76
102
{ACAD_REACTORS
330
7D75
102
}
330
7D75
100
AcDbXrecord
280
     1
102
RTVSPost2010Prop28
280
     0
102
RTVSPost2010PropOp28
 70
     1
102
RTVSPost2010Prop29
280
     1
102
RTVSPost2010PropOp29
 70
     1
102
RTVSPost2010Prop30
280
     1
102
RTVSPost2010PropOp30
 70
     1
102
RTVSPost2010Prop31
280
     0
102
RTVSPost2010PropOp31
 70
     1
102
RTVSPost2010Prop32
280
     0
102
RTVSPost2010PropOp32
 70
     1
102
RTVSPost2010Prop33
280
     0
102
RTVSPost2010PropOp33
 70
     1
102
RTVSPost2010Prop34
280
     0
102
RTVSPost2010PropOp34
 70
     1
102
RTVSPost2010Prop35
280
     0
102
RTVSPost2010PropOp35
 70
     1
102
RTVSPost2010Prop36
280
     0
102
RTVSPost2010PropOp36
 70
     1
102
RTVSPost2010Prop37
 90
       50
102
RTVSPost2010PropOp37
 70
     1
102
RTVSPost2010Prop38
140
0.0
102
RTVSPost2010PropOp38
 70
     1
102
RTVSPost2010Prop39
140
1.0
102
RTVSPost2010PropOp39
 70
     1
102
RTVSPost2010Prop40
 90
        0
102
RTVSPost2010PropOp40
 70
     1
102
RTVSPost2010Prop41ColorIndex
 90
       18
102
RTVSPost2010Prop41ColorRGB
 90
        0
102
RTVSPost2010PropOp41
 70
     1
102
RTVSPost2010Prop42
 90
       50
102
RTVSPost2010PropOp42
 70
     1
102
RTVSPost2010Prop43
 90
        3
102
RTVSPost2010PropOp43
 70
     1
102
RTVSPost2010Prop44ColorIndex
 90
        5
102
RTVSPost2010Prop44ColorRGB
 90
      255
102
RTVSPost2010PropOp44
 70
     1
102
RTVSPost2010Prop45
280
     0
102
RTVSPost2010PropOp45
 70
     1
102
RTVSPost2010Prop46
 90
       50
102
RTVSPost2010PropOp46
 70
     1
102
RTVSPost2010Prop47
 90
       50
102
RTVSPost2010PropOp47
 70
     1
102
RTVSPost2010Prop48
 90
       50
102
RTVSPost2010PropOp48
 70
     1
102
RTVSPost2010Prop49
280
     0
102
RTVSPost2010PropOp49
 70
     1
102
RTVSPost2010Prop50
 90
       50
102
RTVSPost2010PropOp50
 70
     1
102
RTVSPost2010Prop51ColorIndex
 90
      256
102
RTVSPost2010Prop51ColorRGB
 90
-16777216
102
RTVSPost2010PropOp51
 70
     0
102
RTVSPost2010Prop52
140
1.0
102
RTVSPost2010PropOp52
 70
     0
102
RTVSPost2010Prop53
 90
        2
102
RTVSPost2010PropOp53
 70
     1
102
RTVSPost2010Prop54
  1
strokes_ogs.tif
102
RTVSPost2010PropOp54
 70
     1
102
RTVSPost2010Prop55
280
     0
102
RTVSPost2010PropOp55
 70
     1
102
RTVSPost2010Prop56
140
1.0
102
RTVSPost2010PropOp56
 70
     1
102
RTVSPost2010Prop57
140
1.0
102
RTVSPost2010PropOp57
 70
     1
102
RTVSPropertyOp0
 70
     1
102
RTVSPropertyOp1
 70
     1
102
RTVSPropertyOp2
 70
     1
102
RTVSPropertyOp3
 70
     1
102
RTVSPropertyOp4
 70
     1
102
RTVSPropertyOp5
 70
     1
102
RTVSPropertyOp6
 70
     1
102
RTVSPropertyOp7
 70
     1
102
RTVSPropertyOp8
 70
     1
102
RTVSPropertyOp9
 70
     1
102
RTVSPropertyOp10
 70
     1
102
RTVSPropertyOp11
 70
     1
102
RTVSPropertyOp12
 70
     1
102
RTVSPropertyOp13
 70
     1
102
RTVSPropertyOp14
 70
     1
102
RTVSPropertyOp15
 70
     1
102
RTVSPropertyOp16
 70
     1
102
RTVSPropertyOp17
 70
     1
102
RTVSPropertyOp18
 70
     1
102
RTVSPropertyOp19
 70
     1
102
RTVSPropertyOp20
 70
     1
102
RTVSPropertyOp21
 70
     1
102
RTVSPropertyOp22
 70
     1
102
RTVSPropertyOp23
 70
     1
102
RTVSPropertyOp24
 70
     1
102
RTVSPropertyOp25
 70
     1
102
RTVSPropertyOp26
 70
     1
102
RTVSPropertyOp27
 70
     1
102
RTVSPropertyOp28
 70
     1
102
RTVSPropertyOp29
 70
     1
102
RTVSPropertyOp30
 70
     1
102
RTVSPropertyOp31
 70
     1
102
RTVSPropertyOp32
 70
     1
102
RTVSPropertyOp33
 70
     1
102
RTVSPropertyOp34
 70
     1
102
RTVSPropertyOp35
 70
     1
102
RTVSPropertyOp36
 70
     1
102
RTVSPropertyOp37
 70
     1
102
RTVSPropertyOp38
 70
     1
102
RTVSPropertyOp39
 70
     1
102
RTVSPropertyOp40
 70
     1
102
RTVSPropertyOp41
 70
     1
102
RTVSPropertyOp42
 70
     1
102
RTVSPropertyOp43
 70
     1
102
RTVSPropertyOp44
 70
     1
102
RTVSPropertyOp45
 70
     1
102
RTVSPropertyOp46
 70
     1
102
RTVSPropertyOp47
 70
     1
102
RTVSPropertyOp48
 70
     1
102
RTVSPropertyOp49
 70
     1
102
RTVSPropertyOp50
 70
     1
102
RTVSPropertyOp51
 70
     0
102
RTVSPropertyOp52
 70
     0
102
RTVSPropertyOp53
 70
     1
102
RTVSPropertyOp54
 70
     1
102
RTVSPropertyOp55
 70
     1
102
RTVSPropertyOp56
 70
     1
102
RTVSPropertyOp57
 70
     1
102
RTVSPropertyOp58
 70
     1
102
RTVSPropertyOp59
 70
     1
102
RTVSPropertyOp60
 70
     1
102
RTVSPropertyOp61
 70
     1
102
RTVSPropertyOp62
 70
     1
  0
XRECORD
  5
7D7E
102
{ACAD_REACTORS
330
7D7D
102
}
330
7D7D
100
AcDbXrecord
280
     1
102
RTVSPost2010Prop28
280
     0
102
RTVSPost2010PropOp28
 70
     1
102
RTVSPost2010Prop29
280
     1
102
RTVSPost2010PropOp29
 70
     1
102
RTVSPost2010Prop30
280
     1
102
RTVSPost2010PropOp30
 70
     1
102
RTVSPost2010Prop31
280
     0
102
RTVSPost2010PropOp31
 70
     1
102
RTVSPost2010Prop32
280
     0
102
RTVSPost2010PropOp32
 70
     1
102
RTVSPost2010Prop33
280
     0
102
RTVSPost2010PropOp33
 70
     1
102
RTVSPost2010Prop34
280
     0
102
RTVSPost2010PropOp34
 70
     1
102
RTVSPost2010Prop35
280
     0
102
RTVSPost2010PropOp35
 70
     1
102
RTVSPost2010Prop36
280
     0
102
RTVSPost2010PropOp36
 70
     1
102
RTVSPost2010Prop37
 90
       50
102
RTVSPost2010PropOp37
 70
     1
102
RTVSPost2010Prop38
140
0.0
102
RTVSPost2010PropOp38
 70
     1
102
RTVSPost2010Prop39
140
1.0
102
RTVSPost2010PropOp39
 70
     1
102
RTVSPost2010Prop40
 90
        0
102
RTVSPost2010PropOp40
 70
     1
102
RTVSPost2010Prop41ColorIndex
 90
       18
102
RTVSPost2010Prop41ColorRGB
 90
        0
102
RTVSPost2010PropOp41
 70
     1
102
RTVSPost2010Prop42
 90
       50
102
RTVSPost2010PropOp42
 70
     1
102
RTVSPost2010Prop43
 90
        3
102
RTVSPost2010PropOp43
 70
     1
102
RTVSPost2010Prop44ColorIndex
 90
        5
102
RTVSPost2010Prop44ColorRGB
 90
      255
102
RTVSPost2010PropOp44
 70
     1
102
RTVSPost2010Prop45
280
     0
102
RTVSPost2010PropOp45
 70
     1
102
RTVSPost2010Prop46
 90
       50
102
RTVSPost2010PropOp46
 70
     1
102
RTVSPost2010Prop47
 90
       50
102
RTVSPost2010PropOp47
 70
     1
102
RTVSPost2010Prop48
 90
       50
102
RTVSPost2010PropOp48
 70
     1
102
RTVSPost2010Prop49
280
     0
102
RTVSPost2010PropOp49
 70
     1
102
RTVSPost2010Prop50
 90
       50
102
RTVSPost2010PropOp50
 70
     1
102
RTVSPost2010Prop51ColorIndex
 90
      256
102
RTVSPost2010Prop51ColorRGB
 90
-16777216
102
RTVSPost2010PropOp51
 70
     0
102
RTVSPost2010Prop52
140
1.0
102
RTVSPost2010PropOp52
 70
     0
102
RTVSPost2010Prop53
 90
        2
102
RTVSPost2010PropOp53
 70
     1
102
RTVSPost2010Prop54
  1
strokes_ogs.tif
102
RTVSPost2010PropOp54
 70
     1
102
RTVSPost2010Prop55
280
     0
102
RTVSPost2010PropOp55
 70
     1
102
RTVSPost2010Prop56
140
1.0
102
RTVSPost2010PropOp56
 70
     1
102
RTVSPost2010Prop57
140
1.0
102
RTVSPost2010PropOp57
 70
     1
102
RTVSPropertyOp0
 70
     1
102
RTVSPropertyOp1
 70
     1
102
RTVSPropertyOp2
 70
     1
102
RTVSPropertyOp3
 70
     1
102
RTVSPropertyOp4
 70
     1
102
RTVSPropertyOp5
 70
     1
102
RTVSPropertyOp6
 70
     1
102
RTVSPropertyOp7
 70
     1
102
RTVSPropertyOp8
 70
     1
102
RTVSPropertyOp9
 70
     1
102
RTVSPropertyOp10
 70
     1
102
RTVSPropertyOp11
 70
     1
102
RTVSPropertyOp12
 70
     1
102
RTVSPropertyOp13
 70
     1
102
RTVSPropertyOp14
 70
     1
102
RTVSPropertyOp15
 70
     1
102
RTVSPropertyOp16
 70
     1
102
RTVSPropertyOp17
 70
     1
102
RTVSPropertyOp18
 70
     1
102
RTVSPropertyOp19
 70
     1
102
RTVSPropertyOp20
 70
     1
102
RTVSPropertyOp21
 70
     1
102
RTVSPropertyOp22
 70
     1
102
RTVSPropertyOp23
 70
     1
102
RTVSPropertyOp24
 70
     1
102
RTVSPropertyOp25
 70
     1
102
RTVSPropertyOp26
 70
     1
102
RTVSPropertyOp27
 70
     1
102
RTVSPropertyOp28
 70
     1
102
RTVSPropertyOp29
 70
     1
102
RTVSPropertyOp30
 70
     1
102
RTVSPropertyOp31
 70
     1
102
RTVSPropertyOp32
 70
     1
102
RTVSPropertyOp33
 70
     1
102
RTVSPropertyOp34
 70
     1
102
RTVSPropertyOp35
 70
     1
102
RTVSPropertyOp36
 70
     1
102
RTVSPropertyOp37
 70
     1
102
RTVSPropertyOp38
 70
     1
102
RTVSPropertyOp39
 70
     1
102
RTVSPropertyOp40
 70
     1
102
RTVSPropertyOp41
 70
     1
102
RTVSPropertyOp42
 70
     1
102
RTVSPropertyOp43
 70
     1
102
RTVSPropertyOp44
 70
     1
102
RTVSPropertyOp45
 70
     1
102
RTVSPropertyOp46
 70
     1
102
RTVSPropertyOp47
 70
     1
102
RTVSPropertyOp48
 70
     1
102
RTVSPropertyOp49
 70
     1
102
RTVSPropertyOp50
 70
     1
102
RTVSPropertyOp51
 70
     0
102
RTVSPropertyOp52
 70
     0
102
RTVSPropertyOp53
 70
     1
102
RTVSPropertyOp54
 70
     1
102
RTVSPropertyOp55
 70
     1
102
RTVSPropertyOp56
 70
     1
102
RTVSPropertyOp57
 70
     1
102
RTVSPropertyOp58
 70
     1
102
RTVSPropertyOp59
 70
     1
102
RTVSPropertyOp60
 70
     1
102
RTVSPropertyOp61
 70
     1
102
RTVSPropertyOp62
 70
     1
  0
XRECORD
  5
7D70
102
{ACAD_REACTORS
330
7D6F
102
}
330
7D6F
100
AcDbXrecord
280
     1
102
RTVSPost2010Prop28
280
     0
102
RTVSPost2010PropOp28
 70
     1
102
RTVSPost2010Prop29
280
     1
102
RTVSPost2010PropOp29
 70
     1
102
RTVSPost2010Prop30
280
     1
102
RTVSPost2010PropOp30
 70
     1
102
RTVSPost2010Prop31
280
     0
102
RTVSPost2010PropOp31
 70
     1
102
RTVSPost2010Prop32
280
     0
102
RTVSPost2010PropOp32
 70
     1
102
RTVSPost2010Prop33
280
     0
102
RTVSPost2010PropOp33
 70
     1
102
RTVSPost2010Prop34
280
     0
102
RTVSPost2010PropOp34
 70
     1
102
RTVSPost2010Prop35
280
     0
102
RTVSPost2010PropOp35
 70
     1
102
RTVSPost2010Prop36
280
     0
102
RTVSPost2010PropOp36
 70
     1
102
RTVSPost2010Prop37
 90
       50
102
RTVSPost2010PropOp37
 70
     1
102
RTVSPost2010Prop38
140
0.0
102
RTVSPost2010PropOp38
 70
     1
102
RTVSPost2010Prop39
140
1.0
102
RTVSPost2010PropOp39
 70
     1
102
RTVSPost2010Prop40
 90
        0
102
RTVSPost2010PropOp40
 70
     1
102
RTVSPost2010Prop41ColorIndex
 90
       18
102
RTVSPost2010Prop41ColorRGB
 90
        0
102
RTVSPost2010PropOp41
 70
     1
102
RTVSPost2010Prop42
 90
       50
102
RTVSPost2010PropOp42
 70
     1
102
RTVSPost2010Prop43
 90
        3
102
RTVSPost2010PropOp43
 70
     1
102
RTVSPost2010Prop44ColorIndex
 90
        5
102
RTVSPost2010Prop44ColorRGB
 90
      255
102
RTVSPost2010PropOp44
 70
     1
102
RTVSPost2010Prop45
280
     0
102
RTVSPost2010PropOp45
 70
     1
102
RTVSPost2010Prop46
 90
       50
102
RTVSPost2010PropOp46
 70
     1
102
RTVSPost2010Prop47
 90
       50
102
RTVSPost2010PropOp47
 70
     1
102
RTVSPost2010Prop48
 90
       50
102
RTVSPost2010PropOp48
 70
     1
102
RTVSPost2010Prop49
280
     0
102
RTVSPost2010PropOp49
 70
     1
102
RTVSPost2010Prop50
 90
       50
102
RTVSPost2010PropOp50
 70
     1
102
RTVSPost2010Prop51ColorIndex
 90
      256
102
RTVSPost2010Prop51ColorRGB
 90
-16777216
102
RTVSPost2010PropOp51
 70
     0
102
RTVSPost2010Prop52
140
1.0
102
RTVSPost2010PropOp52
 70
     0
102
RTVSPost2010Prop53
 90
        2
102
RTVSPost2010PropOp53
 70
     1
102
RTVSPost2010Prop54
  1
strokes_ogs.tif
102
RTVSPost2010PropOp54
 70
     1
102
RTVSPost2010Prop55
280
     0
102
RTVSPost2010PropOp55
 70
     1
102
RTVSPost2010Prop56
140
1.0
102
RTVSPost2010PropOp56
 70
     1
102
RTVSPost2010Prop57
140
1.0
102
RTVSPost2010PropOp57
 70
     1
102
RTVSPropertyOp0
 70
     1
102
RTVSPropertyOp1
 70
     1
102
RTVSPropertyOp2
 70
     1
102
RTVSPropertyOp3
 70
     1
102
RTVSPropertyOp4
 70
     1
102
RTVSPropertyOp5
 70
     1
102
RTVSPropertyOp6
 70
     1
102
RTVSPropertyOp7
 70
     1
102
RTVSPropertyOp8
 70
     1
102
RTVSPropertyOp9
 70
     1
102
RTVSPropertyOp10
 70
     1
102
RTVSPropertyOp11
 70
     1
102
RTVSPropertyOp12
 70
     1
102
RTVSPropertyOp13
 70
     1
102
RTVSPropertyOp14
 70
     1
102
RTVSPropertyOp15
 70
     1
102
RTVSPropertyOp16
 70
     1
102
RTVSPropertyOp17
 70
     1
102
RTVSPropertyOp18
 70
     1
102
RTVSPropertyOp19
 70
     1
102
RTVSPropertyOp20
 70
     1
102
RTVSPropertyOp21
 70
     1
102
RTVSPropertyOp22
 70
     1
102
RTVSPropertyOp23
 70
     1
102
RTVSPropertyOp24
 70
     1
102
RTVSPropertyOp25
 70
     1
102
RTVSPropertyOp26
 70
     1
102
RTVSPropertyOp27
 70
     1
102
RTVSPropertyOp28
 70
     1
102
RTVSPropertyOp29
 70
     1
102
RTVSPropertyOp30
 70
     1
102
RTVSPropertyOp31
 70
     1
102
RTVSPropertyOp32
 70
     1
102
RTVSPropertyOp33
 70
     1
102
RTVSPropertyOp34
 70
     1
102
RTVSPropertyOp35
 70
     1
102
RTVSPropertyOp36
 70
     1
102
RTVSPropertyOp37
 70
     1
102
RTVSPropertyOp38
 70
     1
102
RTVSPropertyOp39
 70
     1
102
RTVSPropertyOp40
 70
     1
102
RTVSPropertyOp41
 70
     1
102
RTVSPropertyOp42
 70
     1
102
RTVSPropertyOp43
 70
     1
102
RTVSPropertyOp44
 70
     1
102
RTVSPropertyOp45
 70
     1
102
RTVSPropertyOp46
 70
     1
102
RTVSPropertyOp47
 70
     1
102
RTVSPropertyOp48
 70
     1
102
RTVSPropertyOp49
 70
     1
102
RTVSPropertyOp50
 70
     1
102
RTVSPropertyOp51
 70
     0
102
RTVSPropertyOp52
 70
     0
102
RTVSPropertyOp53
 70
     1
102
RTVSPropertyOp54
 70
     1
102
RTVSPropertyOp55
 70
     1
102
RTVSPropertyOp56
 70
     1
102
RTVSPropertyOp57
 70
     1
102
RTVSPropertyOp58
 70
     1
102
RTVSPropertyOp59
 70
     1
102
RTVSPropertyOp60
 70
     1
102
RTVSPropertyOp61
 70
     1
102
RTVSPropertyOp62
 70
     1
  0
XRECORD
  5
7D74
102
{ACAD_REACTORS
330
7D73
102
}
330
7D73
100
AcDbXrecord
280
     1
102
RTVSPost2010Prop28
280
     0
102
RTVSPost2010PropOp28
 70
     1
102
RTVSPost2010Prop29
280
     1
102
RTVSPost2010PropOp29
 70
     1
102
RTVSPost2010Prop30
280
     1
102
RTVSPost2010PropOp30
 70
     1
102
RTVSPost2010Prop31
280
     0
102
RTVSPost2010PropOp31
 70
     1
102
RTVSPost2010Prop32
280
     0
102
RTVSPost2010PropOp32
 70
     1
102
RTVSPost2010Prop33
280
     0
102
RTVSPost2010PropOp33
 70
     1
102
RTVSPost2010Prop34
280
     0
102
RTVSPost2010PropOp34
 70
     1
102
RTVSPost2010Prop35
280
     0
102
RTVSPost2010PropOp35
 70
     1
102
RTVSPost2010Prop36
280
     0
102
RTVSPost2010PropOp36
 70
     1
102
RTVSPost2010Prop37
 90
       50
102
RTVSPost2010PropOp37
 70
     1
102
RTVSPost2010Prop38
140
0.0
102
RTVSPost2010PropOp38
 70
     1
102
RTVSPost2010Prop39
140
1.0
102
RTVSPost2010PropOp39
 70
     1
102
RTVSPost2010Prop40
 90
        0
102
RTVSPost2010PropOp40
 70
     1
102
RTVSPost2010Prop41ColorIndex
 90
       18
102
RTVSPost2010Prop41ColorRGB
 90
        0
102
RTVSPost2010PropOp41
 70
     1
102
RTVSPost2010Prop42
 90
       50
102
RTVSPost2010PropOp42
 70
     1
102
RTVSPost2010Prop43
 90
        3
102
RTVSPost2010PropOp43
 70
     1
102
RTVSPost2010Prop44ColorIndex
 90
        5
102
RTVSPost2010Prop44ColorRGB
 90
      255
102
RTVSPost2010PropOp44
 70
     1
102
RTVSPost2010Prop45
280
     0
102
RTVSPost2010PropOp45
 70
     1
102
RTVSPost2010Prop46
 90
       50
102
RTVSPost2010PropOp46
 70
     1
102
RTVSPost2010Prop47
 90
       50
102
RTVSPost2010PropOp47
 70
     1
102
RTVSPost2010Prop48
 90
       50
102
RTVSPost2010PropOp48
 70
     1
102
RTVSPost2010Prop49
280
     0
102
RTVSPost2010PropOp49
 70
     1
102
RTVSPost2010Prop50
 90
       50
102
RTVSPost2010PropOp50
 70
     1
102
RTVSPost2010Prop51ColorIndex
 90
      256
102
RTVSPost2010Prop51ColorRGB
 90
-16777216
102
RTVSPost2010PropOp51
 70
     0
102
RTVSPost2010Prop52
140
1.0
102
RTVSPost2010PropOp52
 70
     0
102
RTVSPost2010Prop53
 90
        2
102
RTVSPost2010PropOp53
 70
     1
102
RTVSPost2010Prop54
  1
strokes_ogs.tif
102
RTVSPost2010PropOp54
 70
     1
102
RTVSPost2010Prop55
280
     0
102
RTVSPost2010PropOp55
 70
     1
102
RTVSPost2010Prop56
140
1.0
102
RTVSPost2010PropOp56
 70
     1
102
RTVSPost2010Prop57
140
1.0
102
RTVSPost2010PropOp57
 70
     1
102
RTVSPropertyOp0
 70
     1
102
RTVSPropertyOp1
 70
     1
102
RTVSPropertyOp2
 70
     1
102
RTVSPropertyOp3
 70
     1
102
RTVSPropertyOp4
 70
     1
102
RTVSPropertyOp5
 70
     1
102
RTVSPropertyOp6
 70
     1
102
RTVSPropertyOp7
 70
     1
102
RTVSPropertyOp8
 70
     1
102
RTVSPropertyOp9
 70
     1
102
RTVSPropertyOp10
 70
     1
102
RTVSPropertyOp11
 70
     1
102
RTVSPropertyOp12
 70
     1
102
RTVSPropertyOp13
 70
     1
102
RTVSPropertyOp14
 70
     1
102
RTVSPropertyOp15
 70
     1
102
RTVSPropertyOp16
 70
     1
102
RTVSPropertyOp17
 70
     1
102
RTVSPropertyOp18
 70
     1
102
RTVSPropertyOp19
 70
     1
102
RTVSPropertyOp20
 70
     1
102
RTVSPropertyOp21
 70
     1
102
RTVSPropertyOp22
 70
     1
102
RTVSPropertyOp23
 70
     1
102
RTVSPropertyOp24
 70
     1
102
RTVSPropertyOp25
 70
     1
102
RTVSPropertyOp26
 70
     1
102
RTVSPropertyOp27
 70
     1
102
RTVSPropertyOp28
 70
     1
102
RTVSPropertyOp29
 70
     1
102
RTVSPropertyOp30
 70
     1
102
RTVSPropertyOp31
 70
     1
102
RTVSPropertyOp32
 70
     1
102
RTVSPropertyOp33
 70
     1
102
RTVSPropertyOp34
 70
     1
102
RTVSPropertyOp35
 70
     1
102
RTVSPropertyOp36
 70
     1
102
RTVSPropertyOp37
 70
     1
102
RTVSPropertyOp38
 70
     1
102
RTVSPropertyOp39
 70
     1
102
RTVSPropertyOp40
 70
     1
102
RTVSPropertyOp41
 70
     1
102
RTVSPropertyOp42
 70
     1
102
RTVSPropertyOp43
 70
     1
102
RTVSPropertyOp44
 70
     1
102
RTVSPropertyOp45
 70
     1
102
RTVSPropertyOp46
 70
     1
102
RTVSPropertyOp47
 70
     1
102
RTVSPropertyOp48
 70
     1
102
RTVSPropertyOp49
 70
     1
102
RTVSPropertyOp50
 70
     1
102
RTVSPropertyOp51
 70
     0
102
RTVSPropertyOp52
 70
     0
102
RTVSPropertyOp53
 70
     1
102
RTVSPropertyOp54
 70
     1
102
RTVSPropertyOp55
 70
     1
102
RTVSPropertyOp56
 70
     1
102
RTVSPropertyOp57
 70
     1
102
RTVSPropertyOp58
 70
     1
102
RTVSPropertyOp59
 70
     1
102
RTVSPropertyOp60
 70
     1
102
RTVSPropertyOp61
 70
     1
102
RTVSPropertyOp62
 70
     1
  0
XRECORD
  5
7D86
102
{ACAD_REACTORS
330
7D85
102
}
330
7D85
100
AcDbXrecord
280
     1
102
RTVSPost2010Prop28
280
     0
102
RTVSPost2010PropOp28
 70
     1
102
RTVSPost2010Prop29
280
     1
102
RTVSPost2010PropOp29
 70
     1
102
RTVSPost2010Prop30
280
     1
102
RTVSPost2010PropOp30
 70
     1
102
RTVSPost2010Prop31
280
     0
102
RTVSPost2010PropOp31
 70
     1
102
RTVSPost2010Prop32
280
     0
102
RTVSPost2010PropOp32
 70
     1
102
RTVSPost2010Prop33
280
     0
102
RTVSPost2010PropOp33
 70
     1
102
RTVSPost2010Prop34
280
     0
102
RTVSPost2010PropOp34
 70
     1
102
RTVSPost2010Prop35
280
     0
102
RTVSPost2010PropOp35
 70
     1
102
RTVSPost2010Prop36
280
     0
102
RTVSPost2010PropOp36
 70
     1
102
RTVSPost2010Prop37
 90
       50
102
RTVSPost2010PropOp37
 70
     1
102
RTVSPost2010Prop38
140
0.0
102
RTVSPost2010PropOp38
 70
     1
102
RTVSPost2010Prop39
140
1.0
102
RTVSPost2010PropOp39
 70
     1
102
RTVSPost2010Prop40
 90
        0
102
RTVSPost2010PropOp40
 70
     1
102
RTVSPost2010Prop41ColorIndex
 90
       18
102
RTVSPost2010Prop41ColorRGB
 90
        0
102
RTVSPost2010PropOp41
 70
     1
102
RTVSPost2010Prop42
 90
       50
102
RTVSPost2010PropOp42
 70
     1
102
RTVSPost2010Prop43
 90
        3
102
RTVSPost2010PropOp43
 70
     1
102
RTVSPost2010Prop44ColorIndex
 90
        5
102
RTVSPost2010Prop44ColorRGB
 90
      255
102
RTVSPost2010PropOp44
 70
     1
102
RTVSPost2010Prop45
280
     0
102
RTVSPost2010PropOp45
 70
     1
102
RTVSPost2010Prop46
 90
       50
102
RTVSPost2010PropOp46
 70
     1
102
RTVSPost2010Prop47
 90
       50
102
RTVSPost2010PropOp47
 70
     1
102
RTVSPost2010Prop48
 90
       50
102
RTVSPost2010PropOp48
 70
     1
102
RTVSPost2010Prop49
280
     0
102
RTVSPost2010PropOp49
 70
     1
102
RTVSPost2010Prop50
 90
       50
102
RTVSPost2010PropOp50
 70
     1
102
RTVSPost2010Prop51ColorIndex
 90
      256
102
RTVSPost2010Prop51ColorRGB
 90
-16777216
102
RTVSPost2010PropOp51
 70
     0
102
RTVSPost2010Prop52
140
1.0
102
RTVSPost2010PropOp52
 70
     0
102
RTVSPost2010Prop53
 90
        2
102
RTVSPost2010PropOp53
 70
     1
102
RTVSPost2010Prop54
  1
strokes_ogs.tif
102
RTVSPost2010PropOp54
 70
     1
102
RTVSPost2010Prop55
280
     0
102
RTVSPost2010PropOp55
 70
     1
102
RTVSPost2010Prop56
140
1.0
102
RTVSPost2010PropOp56
 70
     1
102
RTVSPost2010Prop57
140
1.0
102
RTVSPost2010PropOp57
 70
     1
102
RTVSPropertyOp0
 70
     0
102
RTVSPropertyOp1
 70
     0
102
RTVSPropertyOp2
 70
     0
102
RTVSPropertyOp3
 70
     0
102
RTVSPropertyOp4
 70
     0
102
RTVSPropertyOp5
 70
     0
102
RTVSPropertyOp6
 70
     0
102
RTVSPropertyOp7
 70
     0
102
RTVSPropertyOp8
 70
     0
102
RTVSPropertyOp9
 70
     0
102
RTVSPropertyOp10
 70
     0
102
RTVSPropertyOp11
 70
     0
102
RTVSPropertyOp12
 70
     0
102
RTVSPropertyOp13
 70
     0
102
RTVSPropertyOp14
 70
     2
102
RTVSPropertyOp15
 70
     0
102
RTVSPropertyOp16
 70
     0
102
RTVSPropertyOp17
 70
     0
102
RTVSPropertyOp18
 70
     0
102
RTVSPropertyOp19
 70
     0
102
RTVSPropertyOp20
 70
     0
102
RTVSPropertyOp21
 70
     0
102
RTVSPropertyOp22
 70
     0
102
RTVSPropertyOp23
 70
     0
102
RTVSPropertyOp24
 70
     0
102
RTVSPropertyOp25
 70
     0
102
RTVSPropertyOp26
 70
     0
102
RTVSPropertyOp27
 70
     0
102
RTVSPropertyOp28
 70
     1
102
RTVSPropertyOp29
 70
     1
102
RTVSPropertyOp30
 70
     1
102
RTVSPropertyOp31
 70
     1
102
RTVSPropertyOp32
 70
     1
102
RTVSPropertyOp33
 70
     1
102
RTVSPropertyOp34
 70
     1
102
RTVSPropertyOp35
 70
     1
102
RTVSPropertyOp36
 70
     1
102
RTVSPropertyOp37
 70
     1
102
RTVSPropertyOp38
 70
     1
102
RTVSPropertyOp39
 70
     1
102
RTVSPropertyOp40
 70
     1
102
RTVSPropertyOp41
 70
     1
102
RTVSPropertyOp42
 70
     1
102
RTVSPropertyOp43
 70
     1
102
RTVSPropertyOp44
 70
     1
102
RTVSPropertyOp45
 70
     1
102
RTVSPropertyOp46
 70
     1
102
RTVSPropertyOp47
 70
     1
102
RTVSPropertyOp48
 70
     1
102
RTVSPropertyOp49
 70
     1
102
RTVSPropertyOp50
 70
     1
102
RTVSPropertyOp51
 70
     0
102
RTVSPropertyOp52
 70
     0
102
RTVSPropertyOp53
 70
     1
102
RTVSPropertyOp54
 70
     1
102
RTVSPropertyOp55
 70
     1
102
RTVSPropertyOp56
 70
     1
102
RTVSPropertyOp57
 70
     1
102
RTVSPropertyOp58
 70
     1
102
RTVSPropertyOp59
 70
     1
102
RTVSPropertyOp60
 70
     1
102
RTVSPropertyOp61
 70
     1
102
RTVSPropertyOp62
 70
     1
  0
XRECORD
  5
7D7C
102
{ACAD_REACTORS
330
7D7B
102
}
330
7D7B
100
AcDbXrecord
280
     1
102
RTVSPost2010Prop28
280
     0
102
RTVSPost2010PropOp28
 70
     1
102
RTVSPost2010Prop29
280
     1
102
RTVSPost2010PropOp29
 70
     1
102
RTVSPost2010Prop30
280
     1
102
RTVSPost2010PropOp30
 70
     1
102
RTVSPost2010Prop31
280
     0
102
RTVSPost2010PropOp31
 70
     1
102
RTVSPost2010Prop32
280
     0
102
RTVSPost2010PropOp32
 70
     1
102
RTVSPost2010Prop33
280
     0
102
RTVSPost2010PropOp33
 70
     1
102
RTVSPost2010Prop34
280
     0
102
RTVSPost2010PropOp34
 70
     1
102
RTVSPost2010Prop35
280
     0
102
RTVSPost2010PropOp35
 70
     1
102
RTVSPost2010Prop36
280
     0
102
RTVSPost2010PropOp36
 70
     1
102
RTVSPost2010Prop37
 90
       50
102
RTVSPost2010PropOp37
 70
     1
102
RTVSPost2010Prop38
140
0.0
102
RTVSPost2010PropOp38
 70
     1
102
RTVSPost2010Prop39
140
1.0
102
RTVSPost2010PropOp39
 70
     1
102
RTVSPost2010Prop40
 90
        0
102
RTVSPost2010PropOp40
 70
     1
102
RTVSPost2010Prop41ColorIndex
 90
       18
102
RTVSPost2010Prop41ColorRGB
 90
        0
102
RTVSPost2010PropOp41
 70
     1
102
RTVSPost2010Prop42
 90
       50
102
RTVSPost2010PropOp42
 70
     1
102
RTVSPost2010Prop43
 90
        3
102
RTVSPost2010PropOp43
 70
     1
102
RTVSPost2010Prop44ColorIndex
 90
        5
102
RTVSPost2010Prop44ColorRGB
 90
      255
102
RTVSPost2010PropOp44
 70
     1
102
RTVSPost2010Prop45
280
     0
102
RTVSPost2010PropOp45
 70
     1
102
RTVSPost2010Prop46
 90
       50
102
RTVSPost2010PropOp46
 70
     1
102
RTVSPost2010Prop47
 90
       50
102
RTVSPost2010PropOp47
 70
     1
102
RTVSPost2010Prop48
 90
       50
102
RTVSPost2010PropOp48
 70
     1
102
RTVSPost2010Prop49
280
     0
102
RTVSPost2010PropOp49
 70
     1
102
RTVSPost2010Prop50
 90
       50
102
RTVSPost2010PropOp50
 70
     1
102
RTVSPost2010Prop51ColorIndex
 90
      256
102
RTVSPost2010Prop51ColorRGB
 90
-16777216
102
RTVSPost2010PropOp51
 70
     0
102
RTVSPost2010Prop52
140
1.0
102
RTVSPost2010PropOp52
 70
     0
102
RTVSPost2010Prop53
 90
        2
102
RTVSPost2010PropOp53
 70
     1
102
RTVSPost2010Prop54
  1
strokes_ogs.tif
102
RTVSPost2010PropOp54
 70
     1
102
RTVSPost2010Prop55
280
     0
102
RTVSPost2010PropOp55
 70
     1
102
RTVSPost2010Prop56
140
1.0
102
RTVSPost2010PropOp56
 70
     1
102
RTVSPost2010Prop57
140
1.0
102
RTVSPost2010PropOp57
 70
     1
102
RTVSPropertyOp0
 70
     1
102
RTVSPropertyOp1
 70
     1
102
RTVSPropertyOp2
 70
     1
102
RTVSPropertyOp3
 70
     1
102
RTVSPropertyOp4
 70
     1
102
RTVSPropertyOp5
 70
     1
102
RTVSPropertyOp6
 70
     1
102
RTVSPropertyOp7
 70
     1
102
RTVSPropertyOp8
 70
     1
102
RTVSPropertyOp9
 70
     1
102
RTVSPropertyOp10
 70
     1
102
RTVSPropertyOp11
 70
     1
102
RTVSPropertyOp12
 70
     1
102
RTVSPropertyOp13
 70
     1
102
RTVSPropertyOp14
 70
     1
102
RTVSPropertyOp15
 70
     1
102
RTVSPropertyOp16
 70
     1
102
RTVSPropertyOp17
 70
     1
102
RTVSPropertyOp18
 70
     1
102
RTVSPropertyOp19
 70
     1
102
RTVSPropertyOp20
 70
     1
102
RTVSPropertyOp21
 70
     1
102
RTVSPropertyOp22
 70
     1
102
RTVSPropertyOp23
 70
     1
102
RTVSPropertyOp24
 70
     1
102
RTVSPropertyOp25
 70
     1
102
RTVSPropertyOp26
 70
     1
102
RTVSPropertyOp27
 70
     1
102
RTVSPropertyOp28
 70
     1
102
RTVSPropertyOp29
 70
     1
102
RTVSPropertyOp30
 70
     1
102
RTVSPropertyOp31
 70
     1
102
RTVSPropertyOp32
 70
     1
102
RTVSPropertyOp33
 70
     1
102
RTVSPropertyOp34
 70
     1
102
RTVSPropertyOp35
 70
     1
102
RTVSPropertyOp36
 70
     1
102
RTVSPropertyOp37
 70
     1
102
RTVSPropertyOp38
 70
     1
102
RTVSPropertyOp39
 70
     1
102
RTVSPropertyOp40
 70
     1
102
RTVSPropertyOp41
 70
     1
102
RTVSPropertyOp42
 70
     1
102
RTVSPropertyOp43
 70
     1
102
RTVSPropertyOp44
 70
     1
102
RTVSPropertyOp45
 70
     1
102
RTVSPropertyOp46
 70
     1
102
RTVSPropertyOp47
 70
     1
102
RTVSPropertyOp48
 70
     1
102
RTVSPropertyOp49
 70
     1
102
RTVSPropertyOp50
 70
     1
102
RTVSPropertyOp51
 70
     0
102
RTVSPropertyOp52
 70
     0
102
RTVSPropertyOp53
 70
     1
102
RTVSPropertyOp54
 70
     1
102
RTVSPropertyOp55
 70
     1
102
RTVSPropertyOp56
 70
     1
102
RTVSPropertyOp57
 70
     1
102
RTVSPropertyOp58
 70
     1
102
RTVSPropertyOp59
 70
     1
102
RTVSPropertyOp60
 70
     1
102
RTVSPropertyOp61
 70
     1
102
RTVSPropertyOp62
 70
     1
  0
XRECORD
  5
7D60
102
{ACAD_REACTORS
330
7D5F
102
}
330
7D5F
100
AcDbXrecord
280
     1
102
RTVSPost2010Prop28
280
     0
102
RTVSPost2010PropOp28
 70
     1
102
RTVSPost2010Prop29
280
     1
102
RTVSPost2010PropOp29
 70
     1
102
RTVSPost2010Prop30
280
     1
102
RTVSPost2010PropOp30
 70
     1
102
RTVSPost2010Prop31
280
     0
102
RTVSPost2010PropOp31
 70
     1
102
RTVSPost2010Prop32
280
     0
102
RTVSPost2010PropOp32
 70
     1
102
RTVSPost2010Prop33
280
     0
102
RTVSPost2010PropOp33
 70
     1
102
RTVSPost2010Prop34
280
     0
102
RTVSPost2010PropOp34
 70
     1
102
RTVSPost2010Prop35
280
     0
102
RTVSPost2010PropOp35
 70
     1
102
RTVSPost2010Prop36
280
     0
102
RTVSPost2010PropOp36
 70
     1
102
RTVSPost2010Prop37
 90
       50
102
RTVSPost2010PropOp37
 70
     1
102
RTVSPost2010Prop38
140
0.0
102
RTVSPost2010PropOp38
 70
     1
102
RTVSPost2010Prop39
140
1.0
102
RTVSPost2010PropOp39
 70
     1
102
RTVSPost2010Prop40
 90
        0
102
RTVSPost2010PropOp40
 70
     1
102
RTVSPost2010Prop41ColorIndex
 90
       18
102
RTVSPost2010Prop41ColorRGB
 90
        0
102
RTVSPost2010PropOp41
 70
     1
102
RTVSPost2010Prop42
 90
       50
102
RTVSPost2010PropOp42
 70
     1
102
RTVSPost2010Prop43
 90
        3
102
RTVSPost2010PropOp43
 70
     1
102
RTVSPost2010Prop44ColorIndex
 90
        5
102
RTVSPost2010Prop44ColorRGB
 90
      255
102
RTVSPost2010PropOp44
 70
     1
102
RTVSPost2010Prop45
280
     0
102
RTVSPost2010PropOp45
 70
     1
102
RTVSPost2010Prop46
 90
       50
102
RTVSPost2010PropOp46
 70
     1
102
RTVSPost2010Prop47
 90
       50
102
RTVSPost2010PropOp47
 70
     1
102
RTVSPost2010Prop48
 90
       50
102
RTVSPost2010PropOp48
 70
     1
102
RTVSPost2010Prop49
280
     0
102
RTVSPost2010PropOp49
 70
     1
102
RTVSPost2010Prop50
 90
       50
102
RTVSPost2010PropOp50
 70
     1
102
RTVSPost2010Prop51ColorIndex
 90
      256
102
RTVSPost2010Prop51ColorRGB
 90
-16777216
102
RTVSPost2010PropOp51
 70
     0
102
RTVSPost2010Prop52
140
1.0
102
RTVSPost2010PropOp52
 70
     0
102
RTVSPost2010Prop53
 90
        2
102
RTVSPost2010PropOp53
 70
     1
102
RTVSPost2010Prop54
  1
strokes_ogs.tif
102
RTVSPost2010PropOp54
 70
     1
102
RTVSPost2010Prop55
280
     0
102
RTVSPost2010PropOp55
 70
     1
102
RTVSPost2010Prop56
140
1.0
102
RTVSPost2010PropOp56
 70
     1
102
RTVSPost2010Prop57
140
1.0
102
RTVSPost2010PropOp57
 70
     1
102
RTVSPropertyOp0
 70
     1
102
RTVSPropertyOp1
 70
     1
102
RTVSPropertyOp2
 70
     1
102
RTVSPropertyOp3
 70
     1
102
RTVSPropertyOp4
 70
     1
102
RTVSPropertyOp5
 70
     1
102
RTVSPropertyOp6
 70
     1
102
RTVSPropertyOp7
 70
     1
102
RTVSPropertyOp8
 70
     1
102
RTVSPropertyOp9
 70
     1
102
RTVSPropertyOp10
 70
     1
102
RTVSPropertyOp11
 70
     1
102
RTVSPropertyOp12
 70
     1
102
RTVSPropertyOp13
 70
     1
102
RTVSPropertyOp14
 70
     1
102
RTVSPropertyOp15
 70
     1
102
RTVSPropertyOp16
 70
     1
102
RTVSPropertyOp17
 70
     1
102
RTVSPropertyOp18
 70
     1
102
RTVSPropertyOp19
 70
     1
102
RTVSPropertyOp20
 70
     1
102
RTVSPropertyOp21
 70
     1
102
RTVSPropertyOp22
 70
     1
102
RTVSPropertyOp23
 70
     1
102
RTVSPropertyOp24
 70
     1
102
RTVSPropertyOp25
 70
     1
102
RTVSPropertyOp26
 70
     1
102
RTVSPropertyOp27
 70
     1
102
RTVSPropertyOp28
 70
     1
102
RTVSPropertyOp29
 70
     1
102
RTVSPropertyOp30
 70
     1
102
RTVSPropertyOp31
 70
     1
102
RTVSPropertyOp32
 70
     1
102
RTVSPropertyOp33
 70
     1
102
RTVSPropertyOp34
 70
     1
102
RTVSPropertyOp35
 70
     1
102
RTVSPropertyOp36
 70
     1
102
RTVSPropertyOp37
 70
     1
102
RTVSPropertyOp38
 70
     1
102
RTVSPropertyOp39
 70
     1
102
RTVSPropertyOp40
 70
     1
102
RTVSPropertyOp41
 70
     1
102
RTVSPropertyOp42
 70
     1
102
RTVSPropertyOp43
 70
     1
102
RTVSPropertyOp44
 70
     1
102
RTVSPropertyOp45
 70
     1
102
RTVSPropertyOp46
 70
     1
102
RTVSPropertyOp47
 70
     1
102
RTVSPropertyOp48
 70
     1
102
RTVSPropertyOp49
 70
     1
102
RTVSPropertyOp50
 70
     1
102
RTVSPropertyOp51
 70
     0
102
RTVSPropertyOp52
 70
     0
102
RTVSPropertyOp53
 70
     1
102
RTVSPropertyOp54
 70
     1
102
RTVSPropertyOp55
 70
     1
102
RTVSPropertyOp56
 70
     1
102
RTVSPropertyOp57
 70
     1
102
RTVSPropertyOp58
 70
     1
102
RTVSPropertyOp59
 70
     1
102
RTVSPropertyOp60
 70
     1
102
RTVSPropertyOp61
 70
     1
102
RTVSPropertyOp62
 70
     1
  0
XRECORD
  5
7D62
102
{ACAD_REACTORS
330
7D61
102
}
330
7D61
100
AcDbXrecord
280
     1
102
RTVSPost2010Prop28
280
     0
102
RTVSPost2010PropOp28
 70
     1
102
RTVSPost2010Prop29
280
     1
102
RTVSPost2010PropOp29
 70
     1
102
RTVSPost2010Prop30
280
     1
102
RTVSPost2010PropOp30
 70
     1
102
RTVSPost2010Prop31
280
     0
102
RTVSPost2010PropOp31
 70
     1
102
RTVSPost2010Prop32
280
     0
102
RTVSPost2010PropOp32
 70
     1
102
RTVSPost2010Prop33
280
     0
102
RTVSPost2010PropOp33
 70
     1
102
RTVSPost2010Prop34
280
     0
102
RTVSPost2010PropOp34
 70
     1
102
RTVSPost2010Prop35
280
     0
102
RTVSPost2010PropOp35
 70
     1
102
RTVSPost2010Prop36
280
     0
102
RTVSPost2010PropOp36
 70
     1
102
RTVSPost2010Prop37
 90
       50
102
RTVSPost2010PropOp37
 70
     1
102
RTVSPost2010Prop38
140
0.0
102
RTVSPost2010PropOp38
 70
     1
102
RTVSPost2010Prop39
140
1.0
102
RTVSPost2010PropOp39
 70
     1
102
RTVSPost2010Prop40
 90
        0
102
RTVSPost2010PropOp40
 70
     1
102
RTVSPost2010Prop41ColorIndex
 90
       18
102
RTVSPost2010Prop41ColorRGB
 90
        0
102
RTVSPost2010PropOp41
 70
     1
102
RTVSPost2010Prop42
 90
       50
102
RTVSPost2010PropOp42
 70
     1
102
RTVSPost2010Prop43
 90
        3
102
RTVSPost2010PropOp43
 70
     1
102
RTVSPost2010Prop44ColorIndex
 90
        5
102
RTVSPost2010Prop44ColorRGB
 90
      255
102
RTVSPost2010PropOp44
 70
     1
102
RTVSPost2010Prop45
280
     0
102
RTVSPost2010PropOp45
 70
     1
102
RTVSPost2010Prop46
 90
       50
102
RTVSPost2010PropOp46
 70
     1
102
RTVSPost2010Prop47
 90
       50
102
RTVSPost2010PropOp47
 70
     1
102
RTVSPost2010Prop48
 90
       50
102
RTVSPost2010PropOp48
 70
     1
102
RTVSPost2010Prop49
280
     0
102
RTVSPost2010PropOp49
 70
     1
102
RTVSPost2010Prop50
 90
       50
102
RTVSPost2010PropOp50
 70
     1
102
RTVSPost2010Prop51ColorIndex
 90
      256
102
RTVSPost2010Prop51ColorRGB
 90
-16777216
102
RTVSPost2010PropOp51
 70
     0
102
RTVSPost2010Prop52
140
1.0
102
RTVSPost2010PropOp52
 70
     0
102
RTVSPost2010Prop53
 90
        2
102
RTVSPost2010PropOp53
 70
     1
102
RTVSPost2010Prop54
  1
strokes_ogs.tif
102
RTVSPost2010PropOp54
 70
     1
102
RTVSPost2010Prop55
280
     0
102
RTVSPost2010PropOp55
 70
     1
102
RTVSPost2010Prop56
140
1.0
102
RTVSPost2010PropOp56
 70
     1
102
RTVSPost2010Prop57
140
1.0
102
RTVSPost2010PropOp57
 70
     1
102
RTVSPropertyOp0
 70
     1
102
RTVSPropertyOp1
 70
     1
102
RTVSPropertyOp2
 70
     1
102
RTVSPropertyOp3
 70
     1
102
RTVSPropertyOp4
 70
     1
102
RTVSPropertyOp5
 70
     1
102
RTVSPropertyOp6
 70
     1
102
RTVSPropertyOp7
 70
     1
102
RTVSPropertyOp8
 70
     1
102
RTVSPropertyOp9
 70
     1
102
RTVSPropertyOp10
 70
     1
102
RTVSPropertyOp11
 70
     1
102
RTVSPropertyOp12
 70
     1
102
RTVSPropertyOp13
 70
     1
102
RTVSPropertyOp14
 70
     1
102
RTVSPropertyOp15
 70
     1
102
RTVSPropertyOp16
 70
     1
102
RTVSPropertyOp17
 70
     1
102
RTVSPropertyOp18
 70
     1
102
RTVSPropertyOp19
 70
     1
102
RTVSPropertyOp20
 70
     1
102
RTVSPropertyOp21
 70
     1
102
RTVSPropertyOp22
 70
     1
102
RTVSPropertyOp23
 70
     1
102
RTVSPropertyOp24
 70
     1
102
RTVSPropertyOp25
 70
     1
102
RTVSPropertyOp26
 70
     1
102
RTVSPropertyOp27
 70
     1
102
RTVSPropertyOp28
 70
     1
102
RTVSPropertyOp29
 70
     1
102
RTVSPropertyOp30
 70
     1
102
RTVSPropertyOp31
 70
     1
102
RTVSPropertyOp32
 70
     1
102
RTVSPropertyOp33
 70
     1
102
RTVSPropertyOp34
 70
     1
102
RTVSPropertyOp35
 70
     1
102
RTVSPropertyOp36
 70
     1
102
RTVSPropertyOp37
 70
     1
102
RTVSPropertyOp38
 70
     1
102
RTVSPropertyOp39
 70
     1
102
RTVSPropertyOp40
 70
     1
102
RTVSPropertyOp41
 70
     1
102
RTVSPropertyOp42
 70
     1
102
RTVSPropertyOp43
 70
     1
102
RTVSPropertyOp44
 70
     1
102
RTVSPropertyOp45
 70
     1
102
RTVSPropertyOp46
 70
     1
102
RTVSPropertyOp47
 70
     1
102
RTVSPropertyOp48
 70
     1
102
RTVSPropertyOp49
 70
     1
102
RTVSPropertyOp50
 70
     1
102
RTVSPropertyOp51
 70
     0
102
RTVSPropertyOp52
 70
     0
102
RTVSPropertyOp53
 70
     1
102
RTVSPropertyOp54
 70
     1
102
RTVSPropertyOp55
 70
     1
102
RTVSPropertyOp56
 70
     1
102
RTVSPropertyOp57
 70
     1
102
RTVSPropertyOp58
 70
     1
102
RTVSPropertyOp59
 70
     1
102
RTVSPropertyOp60
 70
     1
102
RTVSPropertyOp61
 70
     1
102
RTVSPropertyOp62
 70
     1
  0
XRECORD
  5
7D64
102
{ACAD_REACTORS
330
7D63
102
}
330
7D63
100
AcDbXrecord
280
     1
102
RTVSPost2010Prop28
280
     0
102
RTVSPost2010PropOp28
 70
     1
102
RTVSPost2010Prop29
280
     1
102
RTVSPost2010PropOp29
 70
     1
102
RTVSPost2010Prop30
280
     1
102
RTVSPost2010PropOp30
 70
     1
102
RTVSPost2010Prop31
280
     0
102
RTVSPost2010PropOp31
 70
     1
102
RTVSPost2010Prop32
280
     0
102
RTVSPost2010PropOp32
 70
     1
102
RTVSPost2010Prop33
280
     0
102
RTVSPost2010PropOp33
 70
     1
102
RTVSPost2010Prop34
280
     0
102
RTVSPost2010PropOp34
 70
     1
102
RTVSPost2010Prop35
280
     0
102
RTVSPost2010PropOp35
 70
     1
102
RTVSPost2010Prop36
280
     0
102
RTVSPost2010PropOp36
 70
     1
102
RTVSPost2010Prop37
 90
       50
102
RTVSPost2010PropOp37
 70
     1
102
RTVSPost2010Prop38
140
0.0
102
RTVSPost2010PropOp38
 70
     1
102
RTVSPost2010Prop39
140
1.0
102
RTVSPost2010PropOp39
 70
     1
102
RTVSPost2010Prop40
 90
        0
102
RTVSPost2010PropOp40
 70
     1
102
RTVSPost2010Prop41ColorIndex
 90
       18
102
RTVSPost2010Prop41ColorRGB
 90
        0
102
RTVSPost2010PropOp41
 70
     1
102
RTVSPost2010Prop42
 90
       50
102
RTVSPost2010PropOp42
 70
     1
102
RTVSPost2010Prop43
 90
        3
102
RTVSPost2010PropOp43
 70
     1
102
RTVSPost2010Prop44ColorIndex
 90
        5
102
RTVSPost2010Prop44ColorRGB
 90
      255
102
RTVSPost2010PropOp44
 70
     1
102
RTVSPost2010Prop45
280
     0
102
RTVSPost2010PropOp45
 70
     1
102
RTVSPost2010Prop46
 90
       50
102
RTVSPost2010PropOp46
 70
     1
102
RTVSPost2010Prop47
 90
       50
102
RTVSPost2010PropOp47
 70
     1
102
RTVSPost2010Prop48
 90
       50
102
RTVSPost2010PropOp48
 70
     1
102
RTVSPost2010Prop49
280
     0
102
RTVSPost2010PropOp49
 70
     1
102
RTVSPost2010Prop50
 90
       50
102
RTVSPost2010PropOp50
 70
     1
102
RTVSPost2010Prop51ColorIndex
 90
      256
102
RTVSPost2010Prop51ColorRGB
 90
-16777216
102
RTVSPost2010PropOp51
 70
     0
102
RTVSPost2010Prop52
140
1.0
102
RTVSPost2010PropOp52
 70
     0
102
RTVSPost2010Prop53
 90
        2
102
RTVSPost2010PropOp53
 70
     1
102
RTVSPost2010Prop54
  1
strokes_ogs.tif
102
RTVSPost2010PropOp54
 70
     1
102
RTVSPost2010Prop55
280
     0
102
RTVSPost2010PropOp55
 70
     1
102
RTVSPost2010Prop56
140
1.0
102
RTVSPost2010PropOp56
 70
     1
102
RTVSPost2010Prop57
140
1.0
102
RTVSPost2010PropOp57
 70
     1
102
RTVSPropertyOp0
 70
     1
102
RTVSPropertyOp1
 70
     1
102
RTVSPropertyOp2
 70
     1
102
RTVSPropertyOp3
 70
     1
102
RTVSPropertyOp4
 70
     1
102
RTVSPropertyOp5
 70
     1
102
RTVSPropertyOp6
 70
     1
102
RTVSPropertyOp7
 70
     1
102
RTVSPropertyOp8
 70
     1
102
RTVSPropertyOp9
 70
     1
102
RTVSPropertyOp10
 70
     1
102
RTVSPropertyOp11
 70
     1
102
RTVSPropertyOp12
 70
     1
102
RTVSPropertyOp13
 70
     1
102
RTVSPropertyOp14
 70
     1
102
RTVSPropertyOp15
 70
     1
102
RTVSPropertyOp16
 70
     1
102
RTVSPropertyOp17
 70
     1
102
RTVSPropertyOp18
 70
     1
102
RTVSPropertyOp19
 70
     1
102
RTVSPropertyOp20
 70
     1
102
RTVSPropertyOp21
 70
     1
102
RTVSPropertyOp22
 70
     1
102
RTVSPropertyOp23
 70
     1
102
RTVSPropertyOp24
 70
     1
102
RTVSPropertyOp25
 70
     1
102
RTVSPropertyOp26
 70
     1
102
RTVSPropertyOp27
 70
     1
102
RTVSPropertyOp28
 70
     1
102
RTVSPropertyOp29
 70
     1
102
RTVSPropertyOp30
 70
     1
102
RTVSPropertyOp31
 70
     1
102
RTVSPropertyOp32
 70
     1
102
RTVSPropertyOp33
 70
     1
102
RTVSPropertyOp34
 70
     1
102
RTVSPropertyOp35
 70
     1
102
RTVSPropertyOp36
 70
     1
102
RTVSPropertyOp37
 70
     1
102
RTVSPropertyOp38
 70
     1
102
RTVSPropertyOp39
 70
     1
102
RTVSPropertyOp40
 70
     1
102
RTVSPropertyOp41
 70
     1
102
RTVSPropertyOp42
 70
     1
102
RTVSPropertyOp43
 70
     1
102
RTVSPropertyOp44
 70
     1
102
RTVSPropertyOp45
 70
     1
102
RTVSPropertyOp46
 70
     1
102
RTVSPropertyOp47
 70
     1
102
RTVSPropertyOp48
 70
     1
102
RTVSPropertyOp49
 70
     1
102
RTVSPropertyOp50
 70
     1
102
RTVSPropertyOp51
 70
     0
102
RTVSPropertyOp52
 70
     0
102
RTVSPropertyOp53
 70
     1
102
RTVSPropertyOp54
 70
     1
102
RTVSPropertyOp55
 70
     1
102
RTVSPropertyOp56
 70
     1
102
RTVSPropertyOp57
 70
     1
102
RTVSPropertyOp58
 70
     1
102
RTVSPropertyOp59
 70
     1
102
RTVSPropertyOp60
 70
     1
102
RTVSPropertyOp61
 70
     1
102
RTVSPropertyOp62
 70
     1
  0
XRECORD
  5
7D66
102
{ACAD_REACTORS
330
7D65
102
}
330
7D65
100
AcDbXrecord
280
     1
102
RTVSPost2010Prop28
280
     0
102
RTVSPost2010PropOp28
 70
     1
102
RTVSPost2010Prop29
280
     1
102
RTVSPost2010PropOp29
 70
     1
102
RTVSPost2010Prop30
280
     1
102
RTVSPost2010PropOp30
 70
     1
102
RTVSPost2010Prop31
280
     0
102
RTVSPost2010PropOp31
 70
     1
102
RTVSPost2010Prop32
280
     0
102
RTVSPost2010PropOp32
 70
     1
102
RTVSPost2010Prop33
280
     0
102
RTVSPost2010PropOp33
 70
     1
102
RTVSPost2010Prop34
280
     0
102
RTVSPost2010PropOp34
 70
     1
102
RTVSPost2010Prop35
280
     0
102
RTVSPost2010PropOp35
 70
     1
102
RTVSPost2010Prop36
280
     0
102
RTVSPost2010PropOp36
 70
     1
102
RTVSPost2010Prop37
 90
       50
102
RTVSPost2010PropOp37
 70
     1
102
RTVSPost2010Prop38
140
0.0
102
RTVSPost2010PropOp38
 70
     1
102
RTVSPost2010Prop39
140
1.0
102
RTVSPost2010PropOp39
 70
     1
102
RTVSPost2010Prop40
 90
        0
102
RTVSPost2010PropOp40
 70
     1
102
RTVSPost2010Prop41ColorIndex
 90
       18
102
RTVSPost2010Prop41ColorRGB
 90
        0
102
RTVSPost2010PropOp41
 70
     1
102
RTVSPost2010Prop42
 90
       50
102
RTVSPost2010PropOp42
 70
     1
102
RTVSPost2010Prop43
 90
        3
102
RTVSPost2010PropOp43
 70
     1
102
RTVSPost2010Prop44ColorIndex
 90
        5
102
RTVSPost2010Prop44ColorRGB
 90
      255
102
RTVSPost2010PropOp44
 70
     1
102
RTVSPost2010Prop45
280
     0
102
RTVSPost2010PropOp45
 70
     1
102
RTVSPost2010Prop46
 90
       50
102
RTVSPost2010PropOp46
 70
     1
102
RTVSPost2010Prop47
 90
       50
102
RTVSPost2010PropOp47
 70
     1
102
RTVSPost2010Prop48
 90
       50
102
RTVSPost2010PropOp48
 70
     1
102
RTVSPost2010Prop49
280
     0
102
RTVSPost2010PropOp49
 70
     1
102
RTVSPost2010Prop50
 90
       50
102
RTVSPost2010PropOp50
 70
     1
102
RTVSPost2010Prop51ColorIndex
 90
      256
102
RTVSPost2010Prop51ColorRGB
 90
-16777216
102
RTVSPost2010PropOp51
 70
     0
102
RTVSPost2010Prop52
140
1.0
102
RTVSPost2010PropOp52
 70
     0
102
RTVSPost2010Prop53
 90
        2
102
RTVSPost2010PropOp53
 70
     1
102
RTVSPost2010Prop54
  1
strokes_ogs.tif
102
RTVSPost2010PropOp54
 70
     1
102
RTVSPost2010Prop55
280
     0
102
RTVSPost2010PropOp55
 70
     1
102
RTVSPost2010Prop56
140
1.0
102
RTVSPost2010PropOp56
 70
     1
102
RTVSPost2010Prop57
140
1.0
102
RTVSPost2010PropOp57
 70
     1
102
RTVSPropertyOp0
 70
     1
102
RTVSPropertyOp1
 70
     1
102
RTVSPropertyOp2
 70
     1
102
RTVSPropertyOp3
 70
     1
102
RTVSPropertyOp4
 70
     1
102
RTVSPropertyOp5
 70
     1
102
RTVSPropertyOp6
 70
     1
102
RTVSPropertyOp7
 70
     1
102
RTVSPropertyOp8
 70
     1
102
RTVSPropertyOp9
 70
     1
102
RTVSPropertyOp10
 70
     1
102
RTVSPropertyOp11
 70
     1
102
RTVSPropertyOp12
 70
     1
102
RTVSPropertyOp13
 70
     1
102
RTVSPropertyOp14
 70
     1
102
RTVSPropertyOp15
 70
     1
102
RTVSPropertyOp16
 70
     1
102
RTVSPropertyOp17
 70
     1
102
RTVSPropertyOp18
 70
     1
102
RTVSPropertyOp19
 70
     1
102
RTVSPropertyOp20
 70
     1
102
RTVSPropertyOp21
 70
     1
102
RTVSPropertyOp22
 70
     1
102
RTVSPropertyOp23
 70
     1
102
RTVSPropertyOp24
 70
     1
102
RTVSPropertyOp25
 70
     1
102
RTVSPropertyOp26
 70
     1
102
RTVSPropertyOp27
 70
     1
102
RTVSPropertyOp28
 70
     1
102
RTVSPropertyOp29
 70
     1
102
RTVSPropertyOp30
 70
     1
102
RTVSPropertyOp31
 70
     1
102
RTVSPropertyOp32
 70
     1
102
RTVSPropertyOp33
 70
     1
102
RTVSPropertyOp34
 70
     1
102
RTVSPropertyOp35
 70
     1
102
RTVSPropertyOp36
 70
     1
102
RTVSPropertyOp37
 70
     1
102
RTVSPropertyOp38
 70
     1
102
RTVSPropertyOp39
 70
     1
102
RTVSPropertyOp40
 70
     1
102
RTVSPropertyOp41
 70
     1
102
RTVSPropertyOp42
 70
     1
102
RTVSPropertyOp43
 70
     1
102
RTVSPropertyOp44
 70
     1
102
RTVSPropertyOp45
 70
     1
102
RTVSPropertyOp46
 70
     1
102
RTVSPropertyOp47
 70
     1
102
RTVSPropertyOp48
 70
     1
102
RTVSPropertyOp49
 70
     1
102
RTVSPropertyOp50
 70
     1
102
RTVSPropertyOp51
 70
     0
102
RTVSPropertyOp52
 70
     0
102
RTVSPropertyOp53
 70
     1
102
RTVSPropertyOp54
 70
     1
102
RTVSPropertyOp55
 70
     1
102
RTVSPropertyOp56
 70
     1
102
RTVSPropertyOp57
 70
     1
102
RTVSPropertyOp58
 70
     1
102
RTVSPropertyOp59
 70
     1
102
RTVSPropertyOp60
 70
     1
102
RTVSPropertyOp61
 70
     1
102
RTVSPropertyOp62
 70
     1
  0
XRECORD
  5
7D6E
102
{ACAD_REACTORS
330
7D6D
102
}
330
7D6D
100
AcDbXrecord
280
     1
102
RTVSPost2010Prop28
280
     0
102
RTVSPost2010PropOp28
 70
     1
102
RTVSPost2010Prop29
280
     1
102
RTVSPost2010PropOp29
 70
     1
102
RTVSPost2010Prop30
280
     1
102
RTVSPost2010PropOp30
 70
     1
102
RTVSPost2010Prop31
280
     0
102
RTVSPost2010PropOp31
 70
     1
102
RTVSPost2010Prop32
280
     0
102
RTVSPost2010PropOp32
 70
     1
102
RTVSPost2010Prop33
280
     0
102
RTVSPost2010PropOp33
 70
     1
102
RTVSPost2010Prop34
280
     0
102
RTVSPost2010PropOp34
 70
     1
102
RTVSPost2010Prop35
280
     0
102
RTVSPost2010PropOp35
 70
     1
102
RTVSPost2010Prop36
280
     0
102
RTVSPost2010PropOp36
 70
     1
102
RTVSPost2010Prop37
 90
       50
102
RTVSPost2010PropOp37
 70
     1
102
RTVSPost2010Prop38
140
0.0
102
RTVSPost2010PropOp38
 70
     1
102
RTVSPost2010Prop39
140
1.0
102
RTVSPost2010PropOp39
 70
     1
102
RTVSPost2010Prop40
 90
        0
102
RTVSPost2010PropOp40
 70
     1
102
RTVSPost2010Prop41ColorIndex
 90
       18
102
RTVSPost2010Prop41ColorRGB
 90
        0
102
RTVSPost2010PropOp41
 70
     1
102
RTVSPost2010Prop42
 90
       50
102
RTVSPost2010PropOp42
 70
     1
102
RTVSPost2010Prop43
 90
        3
102
RTVSPost2010PropOp43
 70
     1
102
RTVSPost2010Prop44ColorIndex
 90
        5
102
RTVSPost2010Prop44ColorRGB
 90
      255
102
RTVSPost2010PropOp44
 70
     1
102
RTVSPost2010Prop45
280
     0
102
RTVSPost2010PropOp45
 70
     1
102
RTVSPost2010Prop46
 90
       50
102
RTVSPost2010PropOp46
 70
     1
102
RTVSPost2010Prop47
 90
       50
102
RTVSPost2010PropOp47
 70
     1
102
RTVSPost2010Prop48
 90
       50
102
RTVSPost2010PropOp48
 70
     1
102
RTVSPost2010Prop49
280
     0
102
RTVSPost2010PropOp49
 70
     1
102
RTVSPost2010Prop50
 90
       50
102
RTVSPost2010PropOp50
 70
     1
102
RTVSPost2010Prop51ColorIndex
 90
      256
102
RTVSPost2010Prop51ColorRGB
 90
-16777216
102
RTVSPost2010PropOp51
 70
     0
102
RTVSPost2010Prop52
140
1.0
102
RTVSPost2010PropOp52
 70
     0
102
RTVSPost2010Prop53
 90
        2
102
RTVSPost2010PropOp53
 70
     1
102
RTVSPost2010Prop54
  1
strokes_ogs.tif
102
RTVSPost2010PropOp54
 70
     1
102
RTVSPost2010Prop55
280
     0
102
RTVSPost2010PropOp55
 70
     1
102
RTVSPost2010Prop56
140
1.0
102
RTVSPost2010PropOp56
 70
     1
102
RTVSPost2010Prop57
140
1.0
102
RTVSPost2010PropOp57
 70
     1
102
RTVSPropertyOp0
 70
     1
102
RTVSPropertyOp1
 70
     1
102
RTVSPropertyOp2
 70
     1
102
RTVSPropertyOp3
 70
     1
102
RTVSPropertyOp4
 70
     1
102
RTVSPropertyOp5
 70
     1
102
RTVSPropertyOp6
 70
     1
102
RTVSPropertyOp7
 70
     1
102
RTVSPropertyOp8
 70
     1
102
RTVSPropertyOp9
 70
     1
102
RTVSPropertyOp10
 70
     1
102
RTVSPropertyOp11
 70
     1
102
RTVSPropertyOp12
 70
     1
102
RTVSPropertyOp13
 70
     1
102
RTVSPropertyOp14
 70
     1
102
RTVSPropertyOp15
 70
     1
102
RTVSPropertyOp16
 70
     1
102
RTVSPropertyOp17
 70
     1
102
RTVSPropertyOp18
 70
     1
102
RTVSPropertyOp19
 70
     1
102
RTVSPropertyOp20
 70
     1
102
RTVSPropertyOp21
 70
     1
102
RTVSPropertyOp22
 70
     1
102
RTVSPropertyOp23
 70
     1
102
RTVSPropertyOp24
 70
     1
102
RTVSPropertyOp25
 70
     1
102
RTVSPropertyOp26
 70
     1
102
RTVSPropertyOp27
 70
     1
102
RTVSPropertyOp28
 70
     1
102
RTVSPropertyOp29
 70
     1
102
RTVSPropertyOp30
 70
     1
102
RTVSPropertyOp31
 70
     1
102
RTVSPropertyOp32
 70
     1
102
RTVSPropertyOp33
 70
     1
102
RTVSPropertyOp34
 70
     1
102
RTVSPropertyOp35
 70
     1
102
RTVSPropertyOp36
 70
     1
102
RTVSPropertyOp37
 70
     1
102
RTVSPropertyOp38
 70
     1
102
RTVSPropertyOp39
 70
     1
102
RTVSPropertyOp40
 70
     1
102
RTVSPropertyOp41
 70
     1
102
RTVSPropertyOp42
 70
     1
102
RTVSPropertyOp43
 70
     1
102
RTVSPropertyOp44
 70
     1
102
RTVSPropertyOp45
 70
     1
102
RTVSPropertyOp46
 70
     1
102
RTVSPropertyOp47
 70
     1
102
RTVSPropertyOp48
 70
     1
102
RTVSPropertyOp49
 70
     1
102
RTVSPropertyOp50
 70
     1
102
RTVSPropertyOp51
 70
     0
102
RTVSPropertyOp52
 70
     0
102
RTVSPropertyOp53
 70
     1
102
RTVSPropertyOp54
 70
     1
102
RTVSPropertyOp55
 70
     1
102
RTVSPropertyOp56
 70
     1
102
RTVSPropertyOp57
 70
     1
102
RTVSPropertyOp58
 70
     1
102
RTVSPropertyOp59
 70
     1
102
RTVSPropertyOp60
 70
     1
102
RTVSPropertyOp61
 70
     1
102
RTVSPropertyOp62
 70
     1
  0
XRECORD
  5
7D82
102
{ACAD_REACTORS
330
7D81
102
}
330
7D81
100
AcDbXrecord
280
     1
102
RTVSPost2010Prop28
280
     0
102
RTVSPost2010PropOp28
 70
     1
102
RTVSPost2010Prop29
280
     1
102
RTVSPost2010PropOp29
 70
     1
102
RTVSPost2010Prop30
280
     1
102
RTVSPost2010PropOp30
 70
     1
102
RTVSPost2010Prop31
280
     0
102
RTVSPost2010PropOp31
 70
     1
102
RTVSPost2010Prop32
280
     0
102
RTVSPost2010PropOp32
 70
     1
102
RTVSPost2010Prop33
280
     0
102
RTVSPost2010PropOp33
 70
     1
102
RTVSPost2010Prop34
280
     0
102
RTVSPost2010PropOp34
 70
     1
102
RTVSPost2010Prop35
280
     0
102
RTVSPost2010PropOp35
 70
     1
102
RTVSPost2010Prop36
280
     0
102
RTVSPost2010PropOp36
 70
     1
102
RTVSPost2010Prop37
 90
       50
102
RTVSPost2010PropOp37
 70
     1
102
RTVSPost2010Prop38
140
0.0
102
RTVSPost2010PropOp38
 70
     1
102
RTVSPost2010Prop39
140
1.0
102
RTVSPost2010PropOp39
 70
     1
102
RTVSPost2010Prop40
 90
        0
102
RTVSPost2010PropOp40
 70
     1
102
RTVSPost2010Prop41ColorIndex
 90
       18
102
RTVSPost2010Prop41ColorRGB
 90
        0
102
RTVSPost2010PropOp41
 70
     1
102
RTVSPost2010Prop42
 90
       50
102
RTVSPost2010PropOp42
 70
     1
102
RTVSPost2010Prop43
 90
        3
102
RTVSPost2010PropOp43
 70
     1
102
RTVSPost2010Prop44ColorIndex
 90
        5
102
RTVSPost2010Prop44ColorRGB
 90
      255
102
RTVSPost2010PropOp44
 70
     1
102
RTVSPost2010Prop45
280
     0
102
RTVSPost2010PropOp45
 70
     1
102
RTVSPost2010Prop46
 90
       50
102
RTVSPost2010PropOp46
 70
     1
102
RTVSPost2010Prop47
 90
       50
102
RTVSPost2010PropOp47
 70
     1
102
RTVSPost2010Prop48
 90
       50
102
RTVSPost2010PropOp48
 70
     1
102
RTVSPost2010Prop49
280
     0
102
RTVSPost2010PropOp49
 70
     1
102
RTVSPost2010Prop50
 90
       50
102
RTVSPost2010PropOp50
 70
     1
102
RTVSPost2010Prop51ColorIndex
 90
      256
102
RTVSPost2010Prop51ColorRGB
 90
-16777216
102
RTVSPost2010PropOp51
 70
     0
102
RTVSPost2010Prop52
140
1.0
102
RTVSPost2010PropOp52
 70
     0
102
RTVSPost2010Prop53
 90
        2
102
RTVSPost2010PropOp53
 70
     1
102
RTVSPost2010Prop54
  1
strokes_ogs.tif
102
RTVSPost2010PropOp54
 70
     1
102
RTVSPost2010Prop55
280
     0
102
RTVSPost2010PropOp55
 70
     1
102
RTVSPost2010Prop56
140
1.0
102
RTVSPost2010PropOp56
 70
     1
102
RTVSPost2010Prop57
140
1.0
102
RTVSPost2010PropOp57
 70
     1
102
RTVSPropertyOp0
 70
     0
102
RTVSPropertyOp1
 70
     0
102
RTVSPropertyOp2
 70
     0
102
RTVSPropertyOp3
 70
     0
102
RTVSPropertyOp4
 70
     0
102
RTVSPropertyOp5
 70
     0
102
RTVSPropertyOp6
 70
     0
102
RTVSPropertyOp7
 70
     0
102
RTVSPropertyOp8
 70
     0
102
RTVSPropertyOp9
 70
     0
102
RTVSPropertyOp10
 70
     0
102
RTVSPropertyOp11
 70
     0
102
RTVSPropertyOp12
 70
     0
102
RTVSPropertyOp13
 70
     0
102
RTVSPropertyOp14
 70
     2
102
RTVSPropertyOp15
 70
     0
102
RTVSPropertyOp16
 70
     0
102
RTVSPropertyOp17
 70
     0
102
RTVSPropertyOp18
 70
     0
102
RTVSPropertyOp19
 70
     0
102
RTVSPropertyOp20
 70
     0
102
RTVSPropertyOp21
 70
     0
102
RTVSPropertyOp22
 70
     0
102
RTVSPropertyOp23
 70
     0
102
RTVSPropertyOp24
 70
     0
102
RTVSPropertyOp25
 70
     0
102
RTVSPropertyOp26
 70
     0
102
RTVSPropertyOp27
 70
     0
102
RTVSPropertyOp28
 70
     1
102
RTVSPropertyOp29
 70
     1
102
RTVSPropertyOp30
 70
     1
102
RTVSPropertyOp31
 70
     1
102
RTVSPropertyOp32
 70
     1
102
RTVSPropertyOp33
 70
     1
102
RTVSPropertyOp34
 70
     1
102
RTVSPropertyOp35
 70
     1
102
RTVSPropertyOp36
 70
     1
102
RTVSPropertyOp37
 70
     1
102
RTVSPropertyOp38
 70
     1
102
RTVSPropertyOp39
 70
     1
102
RTVSPropertyOp40
 70
     1
102
RTVSPropertyOp41
 70
     1
102
RTVSPropertyOp42
 70
     1
102
RTVSPropertyOp43
 70
     1
102
RTVSPropertyOp44
 70
     1
102
RTVSPropertyOp45
 70
     1
102
RTVSPropertyOp46
 70
     1
102
RTVSPropertyOp47
 70
     1
102
RTVSPropertyOp48
 70
     1
102
RTVSPropertyOp49
 70
     1
102
RTVSPropertyOp50
 70
     1
102
RTVSPropertyOp51
 70
     0
102
RTVSPropertyOp52
 70
     0
102
RTVSPropertyOp53
 70
     1
102
RTVSPropertyOp54
 70
     1
102
RTVSPropertyOp55
 70
     1
102
RTVSPropertyOp56
 70
     1
102
RTVSPropertyOp57
 70
     1
102
RTVSPropertyOp58
 70
     1
102
RTVSPropertyOp59
 70
     1
102
RTVSPropertyOp60
 70
     1
102
RTVSPropertyOp61
 70
     1
102
RTVSPropertyOp62
 70
     1
  0
XRECORD
  5
7D7A
102
{ACAD_REACTORS
330
7D79
102
}
330
7D79
100
AcDbXrecord
280
     1
102
RTVSPost2010Prop28
280
     0
102
RTVSPost2010PropOp28
 70
     1
102
RTVSPost2010Prop29
280
     1
102
RTVSPost2010PropOp29
 70
     1
102
RTVSPost2010Prop30
280
     1
102
RTVSPost2010PropOp30
 70
     1
102
RTVSPost2010Prop31
280
     0
102
RTVSPost2010PropOp31
 70
     1
102
RTVSPost2010Prop32
280
     0
102
RTVSPost2010PropOp32
 70
     1
102
RTVSPost2010Prop33
280
     0
102
RTVSPost2010PropOp33
 70
     1
102
RTVSPost2010Prop34
280
     0
102
RTVSPost2010PropOp34
 70
     1
102
RTVSPost2010Prop35
280
     0
102
RTVSPost2010PropOp35
 70
     1
102
RTVSPost2010Prop36
280
     0
102
RTVSPost2010PropOp36
 70
     1
102
RTVSPost2010Prop37
 90
       50
102
RTVSPost2010PropOp37
 70
     1
102
RTVSPost2010Prop38
140
0.0
102
RTVSPost2010PropOp38
 70
     1
102
RTVSPost2010Prop39
140
1.0
102
RTVSPost2010PropOp39
 70
     1
102
RTVSPost2010Prop40
 90
        0
102
RTVSPost2010PropOp40
 70
     1
102
RTVSPost2010Prop41ColorIndex
 90
       18
102
RTVSPost2010Prop41ColorRGB
 90
        0
102
RTVSPost2010PropOp41
 70
     1
102
RTVSPost2010Prop42
 90
       50
102
RTVSPost2010PropOp42
 70
     1
102
RTVSPost2010Prop43
 90
        3
102
RTVSPost2010PropOp43
 70
     1
102
RTVSPost2010Prop44ColorIndex
 90
        5
102
RTVSPost2010Prop44ColorRGB
 90
      255
102
RTVSPost2010PropOp44
 70
     1
102
RTVSPost2010Prop45
280
     0
102
RTVSPost2010PropOp45
 70
     1
102
RTVSPost2010Prop46
 90
       50
102
RTVSPost2010PropOp46
 70
     1
102
RTVSPost2010Prop47
 90
       50
102
RTVSPost2010PropOp47
 70
     1
102
RTVSPost2010Prop48
 90
       50
102
RTVSPost2010PropOp48
 70
     1
102
RTVSPost2010Prop49
280
     0
102
RTVSPost2010PropOp49
 70
     1
102
RTVSPost2010Prop50
 90
       50
102
RTVSPost2010PropOp50
 70
     1
102
RTVSPost2010Prop51ColorIndex
 90
      256
102
RTVSPost2010Prop51ColorRGB
 90
-16777216
102
RTVSPost2010PropOp51
 70
     0
102
RTVSPost2010Prop52
140
1.0
102
RTVSPost2010PropOp52
 70
     0
102
RTVSPost2010Prop53
 90
        2
102
RTVSPost2010PropOp53
 70
     1
102
RTVSPost2010Prop54
  1
strokes_ogs.tif
102
RTVSPost2010PropOp54
 70
     1
102
RTVSPost2010Prop55
280
     0
102
RTVSPost2010PropOp55
 70
     1
102
RTVSPost2010Prop56
140
1.0
102
RTVSPost2010PropOp56
 70
     1
102
RTVSPost2010Prop57
140
1.0
102
RTVSPost2010PropOp57
 70
     1
102
RTVSPropertyOp0
 70
     1
102
RTVSPropertyOp1
 70
     1
102
RTVSPropertyOp2
 70
     1
102
RTVSPropertyOp3
 70
     1
102
RTVSPropertyOp4
 70
     1
102
RTVSPropertyOp5
 70
     1
102
RTVSPropertyOp6
 70
     1
102
RTVSPropertyOp7
 70
     1
102
RTVSPropertyOp8
 70
     1
102
RTVSPropertyOp9
 70
     1
102
RTVSPropertyOp10
 70
     1
102
RTVSPropertyOp11
 70
     1
102
RTVSPropertyOp12
 70
     1
102
RTVSPropertyOp13
 70
     1
102
RTVSPropertyOp14
 70
     1
102
RTVSPropertyOp15
 70
     1
102
RTVSPropertyOp16
 70
     1
102
RTVSPropertyOp17
 70
     1
102
RTVSPropertyOp18
 70
     1
102
RTVSPropertyOp19
 70
     1
102
RTVSPropertyOp20
 70
     1
102
RTVSPropertyOp21
 70
     1
102
RTVSPropertyOp22
 70
     1
102
RTVSPropertyOp23
 70
     1
102
RTVSPropertyOp24
 70
     1
102
RTVSPropertyOp25
 70
     1
102
RTVSPropertyOp26
 70
     1
102
RTVSPropertyOp27
 70
     1
102
RTVSPropertyOp28
 70
     1
102
RTVSPropertyOp29
 70
     1
102
RTVSPropertyOp30
 70
     1
102
RTVSPropertyOp31
 70
     1
102
RTVSPropertyOp32
 70
     1
102
RTVSPropertyOp33
 70
     1
102
RTVSPropertyOp34
 70
     1
102
RTVSPropertyOp35
 70
     1
102
RTVSPropertyOp36
 70
     1
102
RTVSPropertyOp37
 70
     1
102
RTVSPropertyOp38
 70
     1
102
RTVSPropertyOp39
 70
     1
102
RTVSPropertyOp40
 70
     1
102
RTVSPropertyOp41
 70
     1
102
RTVSPropertyOp42
 70
     1
102
RTVSPropertyOp43
 70
     1
102
RTVSPropertyOp44
 70
     1
102
RTVSPropertyOp45
 70
     1
102
RTVSPropertyOp46
 70
     1
102
RTVSPropertyOp47
 70
     1
102
RTVSPropertyOp48
 70
     1
102
RTVSPropertyOp49
 70
     1
102
RTVSPropertyOp50
 70
     1
102
RTVSPropertyOp51
 70
     0
102
RTVSPropertyOp52
 70
     0
102
RTVSPropertyOp53
 70
     1
102
RTVSPropertyOp54
 70
     1
102
RTVSPropertyOp55
 70
     1
102
RTVSPropertyOp56
 70
     1
102
RTVSPropertyOp57
 70
     1
102
RTVSPropertyOp58
 70
     1
102
RTVSPropertyOp59
 70
     1
102
RTVSPropertyOp60
 70
     1
102
RTVSPropertyOp61
 70
     1
102
RTVSPropertyOp62
 70
     1
  0
XRECORD
  5
7D84
102
{ACAD_REACTORS
330
7D83
102
}
330
7D83
100
AcDbXrecord
280
     1
102
RTVSPost2010Prop28
280
     0
102
RTVSPost2010PropOp28
 70
     1
102
RTVSPost2010Prop29
280
     1
102
RTVSPost2010PropOp29
 70
     1
102
RTVSPost2010Prop30
280
     1
102
RTVSPost2010PropOp30
 70
     1
102
RTVSPost2010Prop31
280
     0
102
RTVSPost2010PropOp31
 70
     1
102
RTVSPost2010Prop32
280
     0
102
RTVSPost2010PropOp32
 70
     1
102
RTVSPost2010Prop33
280
     0
102
RTVSPost2010PropOp33
 70
     1
102
RTVSPost2010Prop34
280
     0
102
RTVSPost2010PropOp34
 70
     1
102
RTVSPost2010Prop35
280
     0
102
RTVSPost2010PropOp35
 70
     1
102
RTVSPost2010Prop36
280
     0
102
RTVSPost2010PropOp36
 70
     1
102
RTVSPost2010Prop37
 90
       50
102
RTVSPost2010PropOp37
 70
     1
102
RTVSPost2010Prop38
140
0.0
102
RTVSPost2010PropOp38
 70
     1
102
RTVSPost2010Prop39
140
1.0
102
RTVSPost2010PropOp39
 70
     1
102
RTVSPost2010Prop40
 90
        0
102
RTVSPost2010PropOp40
 70
     1
102
RTVSPost2010Prop41ColorIndex
 90
       18
102
RTVSPost2010Prop41ColorRGB
 90
        0
102
RTVSPost2010PropOp41
 70
     1
102
RTVSPost2010Prop42
 90
       50
102
RTVSPost2010PropOp42
 70
     1
102
RTVSPost2010Prop43
 90
        3
102
RTVSPost2010PropOp43
 70
     1
102
RTVSPost2010Prop44ColorIndex
 90
        5
102
RTVSPost2010Prop44ColorRGB
 90
      255
102
RTVSPost2010PropOp44
 70
     1
102
RTVSPost2010Prop45
280
     0
102
RTVSPost2010PropOp45
 70
     1
102
RTVSPost2010Prop46
 90
       50
102
RTVSPost2010PropOp46
 70
     1
102
RTVSPost2010Prop47
 90
       50
102
RTVSPost2010PropOp47
 70
     1
102
RTVSPost2010Prop48
 90
       50
102
RTVSPost2010PropOp48
 70
     1
102
RTVSPost2010Prop49
280
     0
102
RTVSPost2010PropOp49
 70
     1
102
RTVSPost2010Prop50
 90
       50
102
RTVSPost2010PropOp50
 70
     1
102
RTVSPost2010Prop51ColorIndex
 90
      256
102
RTVSPost2010Prop51ColorRGB
 90
-16777216
102
RTVSPost2010PropOp51
 70
     0
102
RTVSPost2010Prop52
140
1.0
102
RTVSPost2010PropOp52
 70
     0
102
RTVSPost2010Prop53
 90
        2
102
RTVSPost2010PropOp53
 70
     1
102
RTVSPost2010Prop54
  1
strokes_ogs.tif
102
RTVSPost2010PropOp54
 70
     1
102
RTVSPost2010Prop55
280
     0
102
RTVSPost2010PropOp55
 70
     1
102
RTVSPost2010Prop56
140
1.0
102
RTVSPost2010PropOp56
 70
     1
102
RTVSPost2010Prop57
140
1.0
102
RTVSPost2010PropOp57
 70
     1
102
RTVSPropertyOp0
 70
     0
102
RTVSPropertyOp1
 70
     0
102
RTVSPropertyOp2
 70
     0
102
RTVSPropertyOp3
 70
     0
102
RTVSPropertyOp4
 70
     0
102
RTVSPropertyOp5
 70
     0
102
RTVSPropertyOp6
 70
     0
102
RTVSPropertyOp7
 70
     0
102
RTVSPropertyOp8
 70
     0
102
RTVSPropertyOp9
 70
     0
102
RTVSPropertyOp10
 70
     0
102
RTVSPropertyOp11
 70
     0
102
RTVSPropertyOp12
 70
     0
102
RTVSPropertyOp13
 70
     0
102
RTVSPropertyOp14
 70
     2
102
RTVSPropertyOp15
 70
     0
102
RTVSPropertyOp16
 70
     0
102
RTVSPropertyOp17
 70
     0
102
RTVSPropertyOp18
 70
     0
102
RTVSPropertyOp19
 70
     0
102
RTVSPropertyOp20
 70
     0
102
RTVSPropertyOp21
 70
     0
102
RTVSPropertyOp22
 70
     0
102
RTVSPropertyOp23
 70
     0
102
RTVSPropertyOp24
 70
     0
102
RTVSPropertyOp25
 70
     0
102
RTVSPropertyOp26
 70
     0
102
RTVSPropertyOp27
 70
     0
102
RTVSPropertyOp28
 70
     1
102
RTVSPropertyOp29
 70
     1
102
RTVSPropertyOp30
 70
     1
102
RTVSPropertyOp31
 70
     1
102
RTVSPropertyOp32
 70
     1
102
RTVSPropertyOp33
 70
     1
102
RTVSPropertyOp34
 70
     1
102
RTVSPropertyOp35
 70
     1
102
RTVSPropertyOp36
 70
     1
102
RTVSPropertyOp37
 70
     1
102
RTVSPropertyOp38
 70
     1
102
RTVSPropertyOp39
 70
     1
102
RTVSPropertyOp40
 70
     1
102
RTVSPropertyOp41
 70
     1
102
RTVSPropertyOp42
 70
     1
102
RTVSPropertyOp43
 70
     1
102
RTVSPropertyOp44
 70
     1
102
RTVSPropertyOp45
 70
     1
102
RTVSPropertyOp46
 70
     1
102
RTVSPropertyOp47
 70
     1
102
RTVSPropertyOp48
 70
     1
102
RTVSPropertyOp49
 70
     1
102
RTVSPropertyOp50
 70
     1
102
RTVSPropertyOp51
 70
     0
102
RTVSPropertyOp52
 70
     0
102
RTVSPropertyOp53
 70
     1
102
RTVSPropertyOp54
 70
     1
102
RTVSPropertyOp55
 70
     1
102
RTVSPropertyOp56
 70
     1
102
RTVSPropertyOp57
 70
     1
102
RTVSPropertyOp58
 70
     1
102
RTVSPropertyOp59
 70
     1
102
RTVSPropertyOp60
 70
     1
102
RTVSPropertyOp61
 70
     1
102
RTVSPropertyOp62
 70
     1
  0
XRECORD
  5
7D72
102
{ACAD_REACTORS
330
7D71
102
}
330
7D71
100
AcDbXrecord
280
     1
102
RTVSPost2010Prop28
280
     0
102
RTVSPost2010PropOp28
 70
     1
102
RTVSPost2010Prop29
280
     1
102
RTVSPost2010PropOp29
 70
     1
102
RTVSPost2010Prop30
280
     1
102
RTVSPost2010PropOp30
 70
     1
102
RTVSPost2010Prop31
280
     0
102
RTVSPost2010PropOp31
 70
     1
102
RTVSPost2010Prop32
280
     0
102
RTVSPost2010PropOp32
 70
     1
102
RTVSPost2010Prop33
280
     0
102
RTVSPost2010PropOp33
 70
     1
102
RTVSPost2010Prop34
280
     0
102
RTVSPost2010PropOp34
 70
     1
102
RTVSPost2010Prop35
280
     0
102
RTVSPost2010PropOp35
 70
     1
102
RTVSPost2010Prop36
280
     0
102
RTVSPost2010PropOp36
 70
     1
102
RTVSPost2010Prop37
 90
       50
102
RTVSPost2010PropOp37
 70
     1
102
RTVSPost2010Prop38
140
0.0
102
RTVSPost2010PropOp38
 70
     1
102
RTVSPost2010Prop39
140
1.0
102
RTVSPost2010PropOp39
 70
     1
102
RTVSPost2010Prop40
 90
        0
102
RTVSPost2010PropOp40
 70
     1
102
RTVSPost2010Prop41ColorIndex
 90
       18
102
RTVSPost2010Prop41ColorRGB
 90
        0
102
RTVSPost2010PropOp41
 70
     1
102
RTVSPost2010Prop42
 90
       50
102
RTVSPost2010PropOp42
 70
     1
102
RTVSPost2010Prop43
 90
        3
102
RTVSPost2010PropOp43
 70
     1
102
RTVSPost2010Prop44ColorIndex
 90
        5
102
RTVSPost2010Prop44ColorRGB
 90
      255
102
RTVSPost2010PropOp44
 70
     1
102
RTVSPost2010Prop45
280
     0
102
RTVSPost2010PropOp45
 70
     1
102
RTVSPost2010Prop46
 90
       50
102
RTVSPost2010PropOp46
 70
     1
102
RTVSPost2010Prop47
 90
       50
102
RTVSPost2010PropOp47
 70
     1
102
RTVSPost2010Prop48
 90
       50
102
RTVSPost2010PropOp48
 70
     1
102
RTVSPost2010Prop49
280
     0
102
RTVSPost2010PropOp49
 70
     1
102
RTVSPost2010Prop50
 90
       50
102
RTVSPost2010PropOp50
 70
     1
102
RTVSPost2010Prop51ColorIndex
 90
      256
102
RTVSPost2010Prop51ColorRGB
 90
-16777216
102
RTVSPost2010PropOp51
 70
     0
102
RTVSPost2010Prop52
140
1.0
102
RTVSPost2010PropOp52
 70
     0
102
RTVSPost2010Prop53
 90
        2
102
RTVSPost2010PropOp53
 70
     1
102
RTVSPost2010Prop54
  1
strokes_ogs.tif
102
RTVSPost2010PropOp54
 70
     1
102
RTVSPost2010Prop55
280
     0
102
RTVSPost2010PropOp55
 70
     1
102
RTVSPost2010Prop56
140
1.0
102
RTVSPost2010PropOp56
 70
     1
102
RTVSPost2010Prop57
140
1.0
102
RTVSPost2010PropOp57
 70
     1
102
RTVSPropertyOp0
 70
     1
102
RTVSPropertyOp1
 70
     1
102
RTVSPropertyOp2
 70
     1
102
RTVSPropertyOp3
 70
     1
102
RTVSPropertyOp4
 70
     1
102
RTVSPropertyOp5
 70
     1
102
RTVSPropertyOp6
 70
     1
102
RTVSPropertyOp7
 70
     1
102
RTVSPropertyOp8
 70
     1
102
RTVSPropertyOp9
 70
     1
102
RTVSPropertyOp10
 70
     1
102
RTVSPropertyOp11
 70
     1
102
RTVSPropertyOp12
 70
     1
102
RTVSPropertyOp13
 70
     1
102
RTVSPropertyOp14
 70
     1
102
RTVSPropertyOp15
 70
     1
102
RTVSPropertyOp16
 70
     1
102
RTVSPropertyOp17
 70
     1
102
RTVSPropertyOp18
 70
     1
102
RTVSPropertyOp19
 70
     1
102
RTVSPropertyOp20
 70
     1
102
RTVSPropertyOp21
 70
     1
102
RTVSPropertyOp22
 70
     1
102
RTVSPropertyOp23
 70
     1
102
RTVSPropertyOp24
 70
     1
102
RTVSPropertyOp25
 70
     1
102
RTVSPropertyOp26
 70
     1
102
RTVSPropertyOp27
 70
     1
102
RTVSPropertyOp28
 70
     1
102
RTVSPropertyOp29
 70
     1
102
RTVSPropertyOp30
 70
     1
102
RTVSPropertyOp31
 70
     1
102
RTVSPropertyOp32
 70
     1
102
RTVSPropertyOp33
 70
     1
102
RTVSPropertyOp34
 70
     1
102
RTVSPropertyOp35
 70
     1
102
RTVSPropertyOp36
 70
     1
102
RTVSPropertyOp37
 70
     1
102
RTVSPropertyOp38
 70
     1
102
RTVSPropertyOp39
 70
     1
102
RTVSPropertyOp40
 70
     1
102
RTVSPropertyOp41
 70
     1
102
RTVSPropertyOp42
 70
     1
102
RTVSPropertyOp43
 70
     1
102
RTVSPropertyOp44
 70
     1
102
RTVSPropertyOp45
 70
     1
102
RTVSPropertyOp46
 70
     1
102
RTVSPropertyOp47
 70
     1
102
RTVSPropertyOp48
 70
     1
102
RTVSPropertyOp49
 70
     1
102
RTVSPropertyOp50
 70
     1
102
RTVSPropertyOp51
 70
     0
102
RTVSPropertyOp52
 70
     0
102
RTVSPropertyOp53
 70
     1
102
RTVSPropertyOp54
 70
     1
102
RTVSPropertyOp55
 70
     1
102
RTVSPropertyOp56
 70
     1
102
RTVSPropertyOp57
 70
     1
102
RTVSPropertyOp58
 70
     1
102
RTVSPropertyOp59
 70
     1
102
RTVSPropertyOp60
 70
     1
102
RTVSPropertyOp61
 70
     1
102
RTVSPropertyOp62
 70
     1
  0
XRECORD
  5
7D90
102
{ACAD_REACTORS
330
7D8F
102
}
330
7D8F
100
AcDbXrecord
280
     1
102
RTVSPost2010Prop28
280
     0
102
RTVSPost2010PropOp28
 70
     1
102
RTVSPost2010Prop29
280
     1
102
RTVSPost2010PropOp29
 70
     1
102
RTVSPost2010Prop30
280
     1
102
RTVSPost2010PropOp30
 70
     1
102
RTVSPost2010Prop31
280
     0
102
RTVSPost2010PropOp31
 70
     1
102
RTVSPost2010Prop32
280
     0
102
RTVSPost2010PropOp32
 70
     1
102
RTVSPost2010Prop33
280
     0
102
RTVSPost2010PropOp33
 70
     1
102
RTVSPost2010Prop34
280
     0
102
RTVSPost2010PropOp34
 70
     1
102
RTVSPost2010Prop35
280
     0
102
RTVSPost2010PropOp35
 70
     1
102
RTVSPost2010Prop36
280
     0
102
RTVSPost2010PropOp36
 70
     1
102
RTVSPost2010Prop37
 90
       50
102
RTVSPost2010PropOp37
 70
     1
102
RTVSPost2010Prop38
140
0.0
102
RTVSPost2010PropOp38
 70
     1
102
RTVSPost2010Prop39
140
1.0
102
RTVSPost2010PropOp39
 70
     1
102
RTVSPost2010Prop40
 90
        0
102
RTVSPost2010PropOp40
 70
     1
102
RTVSPost2010Prop41ColorIndex
 90
       18
102
RTVSPost2010Prop41ColorRGB
 90
        0
102
RTVSPost2010PropOp41
 70
     1
102
RTVSPost2010Prop42
 90
       50
102
RTVSPost2010PropOp42
 70
     1
102
RTVSPost2010Prop43
 90
        3
102
RTVSPost2010PropOp43
 70
     1
102
RTVSPost2010Prop44ColorIndex
 90
        5
102
RTVSPost2010Prop44ColorRGB
 90
      255
102
RTVSPost2010PropOp44
 70
     1
102
RTVSPost2010Prop45
280
     0
102
RTVSPost2010PropOp45
 70
     1
102
RTVSPost2010Prop46
 90
       50
102
RTVSPost2010PropOp46
 70
     1
102
RTVSPost2010Prop47
 90
       50
102
RTVSPost2010PropOp47
 70
     1
102
RTVSPost2010Prop48
 90
       50
102
RTVSPost2010PropOp48
 70
     1
102
RTVSPost2010Prop49
280
     0
102
RTVSPost2010PropOp49
 70
     1
102
RTVSPost2010Prop50
 90
       50
102
RTVSPost2010PropOp50
 70
     1
102
RTVSPost2010Prop51ColorIndex
 90
      256
102
RTVSPost2010Prop51ColorRGB
 90
-16777216
102
RTVSPost2010PropOp51
 70
     0
102
RTVSPost2010Prop52
140
1.0
102
RTVSPost2010PropOp52
 70
     0
102
RTVSPost2010Prop53
 90
        2
102
RTVSPost2010PropOp53
 70
     1
102
RTVSPost2010Prop54
  1
strokes_ogs.tif
102
RTVSPost2010PropOp54
 70
     1
102
RTVSPost2010Prop55
280
     0
102
RTVSPost2010PropOp55
 70
     1
102
RTVSPost2010Prop56
140
1.0
102
RTVSPost2010PropOp56
 70
     1
102
RTVSPost2010Prop57
140
1.0
102
RTVSPost2010PropOp57
 70
     1
102
RTVSPropertyOp0
 70
     1
102
RTVSPropertyOp1
 70
     1
102
RTVSPropertyOp2
 70
     1
102
RTVSPropertyOp3
 70
     1
102
RTVSPropertyOp4
 70
     1
102
RTVSPropertyOp5
 70
     1
102
RTVSPropertyOp6
 70
     1
102
RTVSPropertyOp7
 70
     1
102
RTVSPropertyOp8
 70
     1
102
RTVSPropertyOp9
 70
     1
102
RTVSPropertyOp10
 70
     1
102
RTVSPropertyOp11
 70
     1
102
RTVSPropertyOp12
 70
     1
102
RTVSPropertyOp13
 70
     1
102
RTVSPropertyOp14
 70
     1
102
RTVSPropertyOp15
 70
     1
102
RTVSPropertyOp16
 70
     1
102
RTVSPropertyOp17
 70
     1
102
RTVSPropertyOp18
 70
     1
102
RTVSPropertyOp19
 70
     1
102
RTVSPropertyOp20
 70
     1
102
RTVSPropertyOp21
 70
     1
102
RTVSPropertyOp22
 70
     1
102
RTVSPropertyOp23
 70
     1
102
RTVSPropertyOp24
 70
     1
102
RTVSPropertyOp25
 70
     1
102
RTVSPropertyOp26
 70
     1
102
RTVSPropertyOp27
 70
     1
102
RTVSPropertyOp28
 70
     1
102
RTVSPropertyOp29
 70
     1
102
RTVSPropertyOp30
 70
     1
102
RTVSPropertyOp31
 70
     1
102
RTVSPropertyOp32
 70
     1
102
RTVSPropertyOp33
 70
     1
102
RTVSPropertyOp34
 70
     1
102
RTVSPropertyOp35
 70
     1
102
RTVSPropertyOp36
 70
     1
102
RTVSPropertyOp37
 70
     1
102
RTVSPropertyOp38
 70
     1
102
RTVSPropertyOp39
 70
     1
102
RTVSPropertyOp40
 70
     1
102
RTVSPropertyOp41
 70
     1
102
RTVSPropertyOp42
 70
     1
102
RTVSPropertyOp43
 70
     1
102
RTVSPropertyOp44
 70
     1
102
RTVSPropertyOp45
 70
     1
102
RTVSPropertyOp46
 70
     1
102
RTVSPropertyOp47
 70
     1
102
RTVSPropertyOp48
 70
     1
102
RTVSPropertyOp49
 70
     1
102
RTVSPropertyOp50
 70
     1
102
RTVSPropertyOp51
 70
     0
102
RTVSPropertyOp52
 70
     0
102
RTVSPropertyOp53
 70
     1
102
RTVSPropertyOp54
 70
     1
102
RTVSPropertyOp55
 70
     1
102
RTVSPropertyOp56
 70
     1
102
RTVSPropertyOp57
 70
     1
102
RTVSPropertyOp58
 70
     1
102
RTVSPropertyOp59
 70
     1
102
RTVSPropertyOp60
 70
     1
102
RTVSPropertyOp61
 70
     1
102
RTVSPropertyOp62
 70
     1
  0
XRECORD
  5
7D8E
102
{ACAD_REACTORS
330
7D8D
102
}
330
7D8D
100
AcDbXrecord
280
     1
102
RTVSPost2010Prop28
280
     0
102
RTVSPost2010PropOp28
 70
     1
102
RTVSPost2010Prop29
280
     1
102
RTVSPost2010PropOp29
 70
     1
102
RTVSPost2010Prop30
280
     1
102
RTVSPost2010PropOp30
 70
     1
102
RTVSPost2010Prop31
280
     0
102
RTVSPost2010PropOp31
 70
     1
102
RTVSPost2010Prop32
280
     0
102
RTVSPost2010PropOp32
 70
     1
102
RTVSPost2010Prop33
280
     0
102
RTVSPost2010PropOp33
 70
     1
102
RTVSPost2010Prop34
280
     0
102
RTVSPost2010PropOp34
 70
     1
102
RTVSPost2010Prop35
280
     0
102
RTVSPost2010PropOp35
 70
     1
102
RTVSPost2010Prop36
280
     0
102
RTVSPost2010PropOp36
 70
     1
102
RTVSPost2010Prop37
 90
       50
102
RTVSPost2010PropOp37
 70
     1
102
RTVSPost2010Prop38
140
0.0
102
RTVSPost2010PropOp38
 70
     1
102
RTVSPost2010Prop39
140
1.0
102
RTVSPost2010PropOp39
 70
     1
102
RTVSPost2010Prop40
 90
        0
102
RTVSPost2010PropOp40
 70
     1
102
RTVSPost2010Prop41ColorIndex
 90
       18
102
RTVSPost2010Prop41ColorRGB
 90
        0
102
RTVSPost2010PropOp41
 70
     1
102
RTVSPost2010Prop42
 90
       50
102
RTVSPost2010PropOp42
 70
     1
102
RTVSPost2010Prop43
 90
        3
102
RTVSPost2010PropOp43
 70
     1
102
RTVSPost2010Prop44ColorIndex
 90
        5
102
RTVSPost2010Prop44ColorRGB
 90
      255
102
RTVSPost2010PropOp44
 70
     1
102
RTVSPost2010Prop45
280
     0
102
RTVSPost2010PropOp45
 70
     1
102
RTVSPost2010Prop46
 90
       50
102
RTVSPost2010PropOp46
 70
     1
102
RTVSPost2010Prop47
 90
       50
102
RTVSPost2010PropOp47
 70
     1
102
RTVSPost2010Prop48
 90
       50
102
RTVSPost2010PropOp48
 70
     1
102
RTVSPost2010Prop49
280
     0
102
RTVSPost2010PropOp49
 70
     1
102
RTVSPost2010Prop50
 90
       50
102
RTVSPost2010PropOp50
 70
     1
102
RTVSPost2010Prop51ColorIndex
 90
      256
102
RTVSPost2010Prop51ColorRGB
 90
-16777216
102
RTVSPost2010PropOp51
 70
     0
102
RTVSPost2010Prop52
140
1.0
102
RTVSPost2010PropOp52
 70
     0
102
RTVSPost2010Prop53
 90
        2
102
RTVSPost2010PropOp53
 70
     1
102
RTVSPost2010Prop54
  1
strokes_ogs.tif
102
RTVSPost2010PropOp54
 70
     1
102
RTVSPost2010Prop55
280
     0
102
RTVSPost2010PropOp55
 70
     1
102
RTVSPost2010Prop56
140
1.0
102
RTVSPost2010PropOp56
 70
     1
102
RTVSPost2010Prop57
140
1.0
102
RTVSPost2010PropOp57
 70
     1
102
RTVSPropertyOp0
 70
     1
102
RTVSPropertyOp1
 70
     1
102
RTVSPropertyOp2
 70
     1
102
RTVSPropertyOp3
 70
     1
102
RTVSPropertyOp4
 70
     1
102
RTVSPropertyOp5
 70
     1
102
RTVSPropertyOp6
 70
     1
102
RTVSPropertyOp7
 70
     1
102
RTVSPropertyOp8
 70
     1
102
RTVSPropertyOp9
 70
     1
102
RTVSPropertyOp10
 70
     1
102
RTVSPropertyOp11
 70
     1
102
RTVSPropertyOp12
 70
     1
102
RTVSPropertyOp13
 70
     1
102
RTVSPropertyOp14
 70
     1
102
RTVSPropertyOp15
 70
     1
102
RTVSPropertyOp16
 70
     1
102
RTVSPropertyOp17
 70
     1
102
RTVSPropertyOp18
 70
     1
102
RTVSPropertyOp19
 70
     1
102
RTVSPropertyOp20
 70
     1
102
RTVSPropertyOp21
 70
     1
102
RTVSPropertyOp22
 70
     1
102
RTVSPropertyOp23
 70
     1
102
RTVSPropertyOp24
 70
     1
102
RTVSPropertyOp25
 70
     1
102
RTVSPropertyOp26
 70
     1
102
RTVSPropertyOp27
 70
     1
102
RTVSPropertyOp28
 70
     1
102
RTVSPropertyOp29
 70
     1
102
RTVSPropertyOp30
 70
     1
102
RTVSPropertyOp31
 70
     1
102
RTVSPropertyOp32
 70
     1
102
RTVSPropertyOp33
 70
     1
102
RTVSPropertyOp34
 70
     1
102
RTVSPropertyOp35
 70
     1
102
RTVSPropertyOp36
 70
     1
102
RTVSPropertyOp37
 70
     1
102
RTVSPropertyOp38
 70
     1
102
RTVSPropertyOp39
 70
     1
102
RTVSPropertyOp40
 70
     1
102
RTVSPropertyOp41
 70
     1
102
RTVSPropertyOp42
 70
     1
102
RTVSPropertyOp43
 70
     1
102
RTVSPropertyOp44
 70
     1
102
RTVSPropertyOp45
 70
     1
102
RTVSPropertyOp46
 70
     1
102
RTVSPropertyOp47
 70
     1
102
RTVSPropertyOp48
 70
     1
102
RTVSPropertyOp49
 70
     1
102
RTVSPropertyOp50
 70
     1
102
RTVSPropertyOp51
 70
     0
102
RTVSPropertyOp52
 70
     0
102
RTVSPropertyOp53
 70
     1
102
RTVSPropertyOp54
 70
     1
102
RTVSPropertyOp55
 70
     1
102
RTVSPropertyOp56
 70
     1
102
RTVSPropertyOp57
 70
     1
102
RTVSPropertyOp58
 70
     1
102
RTVSPropertyOp59
 70
     1
102
RTVSPropertyOp60
 70
     1
102
RTVSPropertyOp61
 70
     1
102
RTVSPropertyOp62
 70
     1
  0
XRECORD
  5
7D88
102
{ACAD_REACTORS
330
7D87
102
}
330
7D87
100
AcDbXrecord
280
     1
102
RTVSPost2010Prop28
280
     0
102
RTVSPost2010PropOp28
 70
     1
102
RTVSPost2010Prop29
280
     1
102
RTVSPost2010PropOp29
 70
     1
102
RTVSPost2010Prop30
280
     1
102
RTVSPost2010PropOp30
 70
     1
102
RTVSPost2010Prop31
280
     0
102
RTVSPost2010PropOp31
 70
     1
102
RTVSPost2010Prop32
280
     0
102
RTVSPost2010PropOp32
 70
     1
102
RTVSPost2010Prop33
280
     0
102
RTVSPost2010PropOp33
 70
     1
102
RTVSPost2010Prop34
280
     0
102
RTVSPost2010PropOp34
 70
     1
102
RTVSPost2010Prop35
280
     0
102
RTVSPost2010PropOp35
 70
     1
102
RTVSPost2010Prop36
280
     0
102
RTVSPost2010PropOp36
 70
     1
102
RTVSPost2010Prop37
 90
       50
102
RTVSPost2010PropOp37
 70
     1
102
RTVSPost2010Prop38
140
0.0
102
RTVSPost2010PropOp38
 70
     1
102
RTVSPost2010Prop39
140
1.0
102
RTVSPost2010PropOp39
 70
     1
102
RTVSPost2010Prop40
 90
        0
102
RTVSPost2010PropOp40
 70
     1
102
RTVSPost2010Prop41ColorIndex
 90
       18
102
RTVSPost2010Prop41ColorRGB
 90
        0
102
RTVSPost2010PropOp41
 70
     1
102
RTVSPost2010Prop42
 90
       50
102
RTVSPost2010PropOp42
 70
     1
102
RTVSPost2010Prop43
 90
        3
102
RTVSPost2010PropOp43
 70
     1
102
RTVSPost2010Prop44ColorIndex
 90
        5
102
RTVSPost2010Prop44ColorRGB
 90
      255
102
RTVSPost2010PropOp44
 70
     1
102
RTVSPost2010Prop45
280
     0
102
RTVSPost2010PropOp45
 70
     1
102
RTVSPost2010Prop46
 90
       50
102
RTVSPost2010PropOp46
 70
     1
102
RTVSPost2010Prop47
 90
       50
102
RTVSPost2010PropOp47
 70
     1
102
RTVSPost2010Prop48
 90
       50
102
RTVSPost2010PropOp48
 70
     1
102
RTVSPost2010Prop49
280
     0
102
RTVSPost2010PropOp49
 70
     1
102
RTVSPost2010Prop50
 90
       50
102
RTVSPost2010PropOp50
 70
     1
102
RTVSPost2010Prop51ColorIndex
 90
      256
102
RTVSPost2010Prop51ColorRGB
 90
-16777216
102
RTVSPost2010PropOp51
 70
     0
102
RTVSPost2010Prop52
140
1.0
102
RTVSPost2010PropOp52
 70
     0
102
RTVSPost2010Prop53
 90
        2
102
RTVSPost2010PropOp53
 70
     1
102
RTVSPost2010Prop54
  1
strokes_ogs.tif
102
RTVSPost2010PropOp54
 70
     1
102
RTVSPost2010Prop55
280
     0
102
RTVSPost2010PropOp55
 70
     1
102
RTVSPost2010Prop56
140
1.0
102
RTVSPost2010PropOp56
 70
     1
102
RTVSPost2010Prop57
140
1.0
102
RTVSPost2010PropOp57
 70
     1
102
RTVSPropertyOp0
 70
     1
102
RTVSPropertyOp1
 70
     1
102
RTVSPropertyOp2
 70
     1
102
RTVSPropertyOp3
 70
     1
102
RTVSPropertyOp4
 70
     1
102
RTVSPropertyOp5
 70
     1
102
RTVSPropertyOp6
 70
     1
102
RTVSPropertyOp7
 70
     1
102
RTVSPropertyOp8
 70
     1
102
RTVSPropertyOp9
 70
     1
102
RTVSPropertyOp10
 70
     1
102
RTVSPropertyOp11
 70
     1
102
RTVSPropertyOp12
 70
     1
102
RTVSPropertyOp13
 70
     1
102
RTVSPropertyOp14
 70
     1
102
RTVSPropertyOp15
 70
     1
102
RTVSPropertyOp16
 70
     1
102
RTVSPropertyOp17
 70
     1
102
RTVSPropertyOp18
 70
     1
102
RTVSPropertyOp19
 70
     1
102
RTVSPropertyOp20
 70
     1
102
RTVSPropertyOp21
 70
     1
102
RTVSPropertyOp22
 70
     1
102
RTVSPropertyOp23
 70
     1
102
RTVSPropertyOp24
 70
     1
102
RTVSPropertyOp25
 70
     1
102
RTVSPropertyOp26
 70
     1
102
RTVSPropertyOp27
 70
     1
102
RTVSPropertyOp28
 70
     1
102
RTVSPropertyOp29
 70
     1
102
RTVSPropertyOp30
 70
     1
102
RTVSPropertyOp31
 70
     1
102
RTVSPropertyOp32
 70
     1
102
RTVSPropertyOp33
 70
     1
102
RTVSPropertyOp34
 70
     1
102
RTVSPropertyOp35
 70
     1
102
RTVSPropertyOp36
 70
     1
102
RTVSPropertyOp37
 70
     1
102
RTVSPropertyOp38
 70
     1
102
RTVSPropertyOp39
 70
     1
102
RTVSPropertyOp40
 70
     1
102
RTVSPropertyOp41
 70
     1
102
RTVSPropertyOp42
 70
     1
102
RTVSPropertyOp43
 70
     1
102
RTVSPropertyOp44
 70
     1
102
RTVSPropertyOp45
 70
     1
102
RTVSPropertyOp46
 70
     1
102
RTVSPropertyOp47
 70
     1
102
RTVSPropertyOp48
 70
     1
102
RTVSPropertyOp49
 70
     1
102
RTVSPropertyOp50
 70
     1
102
RTVSPropertyOp51
 70
     0
102
RTVSPropertyOp52
 70
     0
102
RTVSPropertyOp53
 70
     1
102
RTVSPropertyOp54
 70
     1
102
RTVSPropertyOp55
 70
     1
102
RTVSPropertyOp56
 70
     1
102
RTVSPropertyOp57
 70
     1
102
RTVSPropertyOp58
 70
     1
102
RTVSPropertyOp59
 70
     1
102
RTVSPropertyOp60
 70
     1
102
RTVSPropertyOp61
 70
     1
102
RTVSPropertyOp62
 70
     1
  0
XRECORD
  5
7D8A
102
{ACAD_REACTORS
330
7D89
102
}
330
7D89
100
AcDbXrecord
280
     1
102
RTVSPost2010Prop28
280
     0
102
RTVSPost2010PropOp28
 70
     1
102
RTVSPost2010Prop29
280
     1
102
RTVSPost2010PropOp29
 70
     1
102
RTVSPost2010Prop30
280
     1
102
RTVSPost2010PropOp30
 70
     1
102
RTVSPost2010Prop31
280
     0
102
RTVSPost2010PropOp31
 70
     1
102
RTVSPost2010Prop32
280
     0
102
RTVSPost2010PropOp32
 70
     1
102
RTVSPost2010Prop33
280
     0
102
RTVSPost2010PropOp33
 70
     1
102
RTVSPost2010Prop34
280
     0
102
RTVSPost2010PropOp34
 70
     1
102
RTVSPost2010Prop35
280
     0
102
RTVSPost2010PropOp35
 70
     1
102
RTVSPost2010Prop36
280
     0
102
RTVSPost2010PropOp36
 70
     1
102
RTVSPost2010Prop37
 90
       50
102
RTVSPost2010PropOp37
 70
     1
102
RTVSPost2010Prop38
140
0.0
102
RTVSPost2010PropOp38
 70
     1
102
RTVSPost2010Prop39
140
1.0
102
RTVSPost2010PropOp39
 70
     1
102
RTVSPost2010Prop40
 90
        0
102
RTVSPost2010PropOp40
 70
     1
102
RTVSPost2010Prop41ColorIndex
 90
       18
102
RTVSPost2010Prop41ColorRGB
 90
        0
102
RTVSPost2010PropOp41
 70
     1
102
RTVSPost2010Prop42
 90
       50
102
RTVSPost2010PropOp42
 70
     1
102
RTVSPost2010Prop43
 90
        3
102
RTVSPost2010PropOp43
 70
     1
102
RTVSPost2010Prop44ColorIndex
 90
        5
102
RTVSPost2010Prop44ColorRGB
 90
      255
102
RTVSPost2010PropOp44
 70
     1
102
RTVSPost2010Prop45
280
     0
102
RTVSPost2010PropOp45
 70
     1
102
RTVSPost2010Prop46
 90
       50
102
RTVSPost2010PropOp46
 70
     1
102
RTVSPost2010Prop47
 90
       50
102
RTVSPost2010PropOp47
 70
     1
102
RTVSPost2010Prop48
 90
       50
102
RTVSPost2010PropOp48
 70
     1
102
RTVSPost2010Prop49
280
     0
102
RTVSPost2010PropOp49
 70
     1
102
RTVSPost2010Prop50
 90
       50
102
RTVSPost2010PropOp50
 70
     1
102
RTVSPost2010Prop51ColorIndex
 90
      256
102
RTVSPost2010Prop51ColorRGB
 90
-16777216
102
RTVSPost2010PropOp51
 70
     0
102
RTVSPost2010Prop52
140
1.0
102
RTVSPost2010PropOp52
 70
     0
102
RTVSPost2010Prop53
 90
        2
102
RTVSPost2010PropOp53
 70
     1
102
RTVSPost2010Prop54
  1
strokes_ogs.tif
102
RTVSPost2010PropOp54
 70
     1
102
RTVSPost2010Prop55
280
     0
102
RTVSPost2010PropOp55
 70
     1
102
RTVSPost2010Prop56
140
1.0
102
RTVSPost2010PropOp56
 70
     1
102
RTVSPost2010Prop57
140
1.0
102
RTVSPost2010PropOp57
 70
     1
102
RTVSPropertyOp0
 70
     1
102
RTVSPropertyOp1
 70
     1
102
RTVSPropertyOp2
 70
     1
102
RTVSPropertyOp3
 70
     1
102
RTVSPropertyOp4
 70
     1
102
RTVSPropertyOp5
 70
     1
102
RTVSPropertyOp6
 70
     1
102
RTVSPropertyOp7
 70
     1
102
RTVSPropertyOp8
 70
     1
102
RTVSPropertyOp9
 70
     1
102
RTVSPropertyOp10
 70
     1
102
RTVSPropertyOp11
 70
     1
102
RTVSPropertyOp12
 70
     1
102
RTVSPropertyOp13
 70
     1
102
RTVSPropertyOp14
 70
     1
102
RTVSPropertyOp15
 70
     1
102
RTVSPropertyOp16
 70
     1
102
RTVSPropertyOp17
 70
     1
102
RTVSPropertyOp18
 70
     1
102
RTVSPropertyOp19
 70
     1
102
RTVSPropertyOp20
 70
     1
102
RTVSPropertyOp21
 70
     1
102
RTVSPropertyOp22
 70
     1
102
RTVSPropertyOp23
 70
     1
102
RTVSPropertyOp24
 70
     1
102
RTVSPropertyOp25
 70
     1
102
RTVSPropertyOp26
 70
     1
102
RTVSPropertyOp27
 70
     1
102
RTVSPropertyOp28
 70
     1
102
RTVSPropertyOp29
 70
     1
102
RTVSPropertyOp30
 70
     1
102
RTVSPropertyOp31
 70
     1
102
RTVSPropertyOp32
 70
     1
102
RTVSPropertyOp33
 70
     1
102
RTVSPropertyOp34
 70
     1
102
RTVSPropertyOp35
 70
     1
102
RTVSPropertyOp36
 70
     1
102
RTVSPropertyOp37
 70
     1
102
RTVSPropertyOp38
 70
     1
102
RTVSPropertyOp39
 70
     1
102
RTVSPropertyOp40
 70
     1
102
RTVSPropertyOp41
 70
     1
102
RTVSPropertyOp42
 70
     1
102
RTVSPropertyOp43
 70
     1
102
RTVSPropertyOp44
 70
     1
102
RTVSPropertyOp45
 70
     1
102
RTVSPropertyOp46
 70
     1
102
RTVSPropertyOp47
 70
     1
102
RTVSPropertyOp48
 70
     1
102
RTVSPropertyOp49
 70
     1
102
RTVSPropertyOp50
 70
     1
102
RTVSPropertyOp51
 70
     0
102
RTVSPropertyOp52
 70
     0
102
RTVSPropertyOp53
 70
     1
102
RTVSPropertyOp54
 70
     1
102
RTVSPropertyOp55
 70
     1
102
RTVSPropertyOp56
 70
     1
102
RTVSPropertyOp57
 70
     1
102
RTVSPropertyOp58
 70
     1
102
RTVSPropertyOp59
 70
     1
102
RTVSPropertyOp60
 70
     1
102
RTVSPropertyOp61
 70
     1
102
RTVSPropertyOp62
 70
     1
  0
XRECORD
  5
7D78
102
{ACAD_REACTORS
330
7D77
102
}
330
7D77
100
AcDbXrecord
280
     1
102
RTVSPost2010Prop28
280
     0
102
RTVSPost2010PropOp28
 70
     1
102
RTVSPost2010Prop29
280
     1
102
RTVSPost2010PropOp29
 70
     1
102
RTVSPost2010Prop30
280
     1
102
RTVSPost2010PropOp30
 70
     1
102
RTVSPost2010Prop31
280
     0
102
RTVSPost2010PropOp31
 70
     1
102
RTVSPost2010Prop32
280
     0
102
RTVSPost2010PropOp32
 70
     1
102
RTVSPost2010Prop33
280
     0
102
RTVSPost2010PropOp33
 70
     1
102
RTVSPost2010Prop34
280
     0
102
RTVSPost2010PropOp34
 70
     1
102
RTVSPost2010Prop35
280
     0
102
RTVSPost2010PropOp35
 70
     1
102
RTVSPost2010Prop36
280
     0
102
RTVSPost2010PropOp36
 70
     1
102
RTVSPost2010Prop37
 90
       50
102
RTVSPost2010PropOp37
 70
     1
102
RTVSPost2010Prop38
140
0.0
102
RTVSPost2010PropOp38
 70
     1
102
RTVSPost2010Prop39
140
1.0
102
RTVSPost2010PropOp39
 70
     1
102
RTVSPost2010Prop40
 90
        0
102
RTVSPost2010PropOp40
 70
     1
102
RTVSPost2010Prop41ColorIndex
 90
       18
102
RTVSPost2010Prop41ColorRGB
 90
        0
102
RTVSPost2010PropOp41
 70
     1
102
RTVSPost2010Prop42
 90
       50
102
RTVSPost2010PropOp42
 70
     1
102
RTVSPost2010Prop43
 90
        3
102
RTVSPost2010PropOp43
 70
     1
102
RTVSPost2010Prop44ColorIndex
 90
        5
102
RTVSPost2010Prop44ColorRGB
 90
      255
102
RTVSPost2010PropOp44
 70
     1
102
RTVSPost2010Prop45
280
     0
102
RTVSPost2010PropOp45
 70
     1
102
RTVSPost2010Prop46
 90
       50
102
RTVSPost2010PropOp46
 70
     1
102
RTVSPost2010Prop47
 90
       50
102
RTVSPost2010PropOp47
 70
     1
102
RTVSPost2010Prop48
 90
       50
102
RTVSPost2010PropOp48
 70
     1
102
RTVSPost2010Prop49
280
     0
102
RTVSPost2010PropOp49
 70
     1
102
RTVSPost2010Prop50
 90
       50
102
RTVSPost2010PropOp50
 70
     1
102
RTVSPost2010Prop51ColorIndex
 90
      256
102
RTVSPost2010Prop51ColorRGB
 90
-16777216
102
RTVSPost2010PropOp51
 70
     0
102
RTVSPost2010Prop52
140
1.0
102
RTVSPost2010PropOp52
 70
     0
102
RTVSPost2010Prop53
 90
        2
102
RTVSPost2010PropOp53
 70
     1
102
RTVSPost2010Prop54
  1
strokes_ogs.tif
102
RTVSPost2010PropOp54
 70
     1
102
RTVSPost2010Prop55
280
     0
102
RTVSPost2010PropOp55
 70
     1
102
RTVSPost2010Prop56
140
1.0
102
RTVSPost2010PropOp56
 70
     1
102
RTVSPost2010Prop57
140
1.0
102
RTVSPost2010PropOp57
 70
     1
102
RTVSPropertyOp0
 70
     1
102
RTVSPropertyOp1
 70
     1
102
RTVSPropertyOp2
 70
     1
102
RTVSPropertyOp3
 70
     1
102
RTVSPropertyOp4
 70
     1
102
RTVSPropertyOp5
 70
     1
102
RTVSPropertyOp6
 70
     1
102
RTVSPropertyOp7
 70
     1
102
RTVSPropertyOp8
 70
     1
102
RTVSPropertyOp9
 70
     1
102
RTVSPropertyOp10
 70
     1
102
RTVSPropertyOp11
 70
     1
102
RTVSPropertyOp12
 70
     1
102
RTVSPropertyOp13
 70
     1
102
RTVSPropertyOp14
 70
     1
102
RTVSPropertyOp15
 70
     1
102
RTVSPropertyOp16
 70
     1
102
RTVSPropertyOp17
 70
     1
102
RTVSPropertyOp18
 70
     1
102
RTVSPropertyOp19
 70
     1
102
RTVSPropertyOp20
 70
     1
102
RTVSPropertyOp21
 70
     1
102
RTVSPropertyOp22
 70
     1
102
RTVSPropertyOp23
 70
     1
102
RTVSPropertyOp24
 70
     1
102
RTVSPropertyOp25
 70
     1
102
RTVSPropertyOp26
 70
     1
102
RTVSPropertyOp27
 70
     1
102
RTVSPropertyOp28
 70
     1
102
RTVSPropertyOp29
 70
     1
102
RTVSPropertyOp30
 70
     1
102
RTVSPropertyOp31
 70
     1
102
RTVSPropertyOp32
 70
     1
102
RTVSPropertyOp33
 70
     1
102
RTVSPropertyOp34
 70
     1
102
RTVSPropertyOp35
 70
     1
102
RTVSPropertyOp36
 70
     1
102
RTVSPropertyOp37
 70
     1
102
RTVSPropertyOp38
 70
     1
102
RTVSPropertyOp39
 70
     1
102
RTVSPropertyOp40
 70
     1
102
RTVSPropertyOp41
 70
     1
102
RTVSPropertyOp42
 70
     1
102
RTVSPropertyOp43
 70
     1
102
RTVSPropertyOp44
 70
     1
102
RTVSPropertyOp45
 70
     1
102
RTVSPropertyOp46
 70
     1
102
RTVSPropertyOp47
 70
     1
102
RTVSPropertyOp48
 70
     1
102
RTVSPropertyOp49
 70
     1
102
RTVSPropertyOp50
 70
     1
102
RTVSPropertyOp51
 70
     0
102
RTVSPropertyOp52
 70
     0
102
RTVSPropertyOp53
 70
     1
102
RTVSPropertyOp54
 70
     1
102
RTVSPropertyOp55
 70
     1
102
RTVSPropertyOp56
 70
     1
102
RTVSPropertyOp57
 70
     1
102
RTVSPropertyOp58
 70
     1
102
RTVSPropertyOp59
 70
     1
102
RTVSPropertyOp60
 70
     1
102
RTVSPropertyOp61
 70
     1
102
RTVSPropertyOp62
 70
     1
  0
XRECORD
  5
7D6C
102
{ACAD_REACTORS
330
7D6B
102
}
330
7D6B
100
AcDbXrecord
280
     1
102
RTVSPost2010Prop28
280
     0
102
RTVSPost2010PropOp28
 70
     1
102
RTVSPost2010Prop29
280
     1
102
RTVSPost2010PropOp29
 70
     1
102
RTVSPost2010Prop30
280
     1
102
RTVSPost2010PropOp30
 70
     1
102
RTVSPost2010Prop31
280
     0
102
RTVSPost2010PropOp31
 70
     1
102
RTVSPost2010Prop32
280
     0
102
RTVSPost2010PropOp32
 70
     1
102
RTVSPost2010Prop33
280
     0
102
RTVSPost2010PropOp33
 70
     1
102
RTVSPost2010Prop34
280
     0
102
RTVSPost2010PropOp34
 70
     1
102
RTVSPost2010Prop35
280
     0
102
RTVSPost2010PropOp35
 70
     1
102
RTVSPost2010Prop36
280
     0
102
RTVSPost2010PropOp36
 70
     1
102
RTVSPost2010Prop37
 90
       50
102
RTVSPost2010PropOp37
 70
     1
102
RTVSPost2010Prop38
140
0.0
102
RTVSPost2010PropOp38
 70
     1
102
RTVSPost2010Prop39
140
1.0
102
RTVSPost2010PropOp39
 70
     1
102
RTVSPost2010Prop40
 90
        0
102
RTVSPost2010PropOp40
 70
     1
102
RTVSPost2010Prop41ColorIndex
 90
       18
102
RTVSPost2010Prop41ColorRGB
 90
        0
102
RTVSPost2010PropOp41
 70
     1
102
RTVSPost2010Prop42
 90
       50
102
RTVSPost2010PropOp42
 70
     1
102
RTVSPost2010Prop43
 90
        3
102
RTVSPost2010PropOp43
 70
     1
102
RTVSPost2010Prop44ColorIndex
 90
        5
102
RTVSPost2010Prop44ColorRGB
 90
      255
102
RTVSPost2010PropOp44
 70
     1
102
RTVSPost2010Prop45
280
     0
102
RTVSPost2010PropOp45
 70
     1
102
RTVSPost2010Prop46
 90
       50
102
RTVSPost2010PropOp46
 70
     1
102
RTVSPost2010Prop47
 90
       50
102
RTVSPost2010PropOp47
 70
     1
102
RTVSPost2010Prop48
 90
       50
102
RTVSPost2010PropOp48
 70
     1
102
RTVSPost2010Prop49
280
     0
102
RTVSPost2010PropOp49
 70
     1
102
RTVSPost2010Prop50
 90
       50
102
RTVSPost2010PropOp50
 70
     1
102
RTVSPost2010Prop51ColorIndex
 90
      256
102
RTVSPost2010Prop51ColorRGB
 90
-16777216
102
RTVSPost2010PropOp51
 70
     0
102
RTVSPost2010Prop52
140
1.0
102
RTVSPost2010PropOp52
 70
     0
102
RTVSPost2010Prop53
 90
        2
102
RTVSPost2010PropOp53
 70
     1
102
RTVSPost2010Prop54
  1
strokes_ogs.tif
102
RTVSPost2010PropOp54
 70
     1
102
RTVSPost2010Prop55
280
     0
102
RTVSPost2010PropOp55
 70
     1
102
RTVSPost2010Prop56
140
1.0
102
RTVSPost2010PropOp56
 70
     1
102
RTVSPost2010Prop57
140
1.0
102
RTVSPost2010PropOp57
 70
     1
102
RTVSPropertyOp0
 70
     1
102
RTVSPropertyOp1
 70
     1
102
RTVSPropertyOp2
 70
     1
102
RTVSPropertyOp3
 70
     1
102
RTVSPropertyOp4
 70
     1
102
RTVSPropertyOp5
 70
     1
102
RTVSPropertyOp6
 70
     1
102
RTVSPropertyOp7
 70
     1
102
RTVSPropertyOp8
 70
     1
102
RTVSPropertyOp9
 70
     1
102
RTVSPropertyOp10
 70
     1
102
RTVSPropertyOp11
 70
     1
102
RTVSPropertyOp12
 70
     1
102
RTVSPropertyOp13
 70
     1
102
RTVSPropertyOp14
 70
     1
102
RTVSPropertyOp15
 70
     1
102
RTVSPropertyOp16
 70
     1
102
RTVSPropertyOp17
 70
     1
102
RTVSPropertyOp18
 70
     1
102
RTVSPropertyOp19
 70
     1
102
RTVSPropertyOp20
 70
     1
102
RTVSPropertyOp21
 70
     1
102
RTVSPropertyOp22
 70
     1
102
RTVSPropertyOp23
 70
     1
102
RTVSPropertyOp24
 70
     1
102
RTVSPropertyOp25
 70
     1
102
RTVSPropertyOp26
 70
     1
102
RTVSPropertyOp27
 70
     1
102
RTVSPropertyOp28
 70
     1
102
RTVSPropertyOp29
 70
     1
102
RTVSPropertyOp30
 70
     1
102
RTVSPropertyOp31
 70
     1
102
RTVSPropertyOp32
 70
     1
102
RTVSPropertyOp33
 70
     1
102
RTVSPropertyOp34
 70
     1
102
RTVSPropertyOp35
 70
     1
102
RTVSPropertyOp36
 70
     1
102
RTVSPropertyOp37
 70
     1
102
RTVSPropertyOp38
 70
     1
102
RTVSPropertyOp39
 70
     1
102
RTVSPropertyOp40
 70
     1
102
RTVSPropertyOp41
 70
     1
102
RTVSPropertyOp42
 70
     1
102
RTVSPropertyOp43
 70
     1
102
RTVSPropertyOp44
 70
     1
102
RTVSPropertyOp45
 70
     1
102
RTVSPropertyOp46
 70
     1
102
RTVSPropertyOp47
 70
     1
102
RTVSPropertyOp48
 70
     1
102
RTVSPropertyOp49
 70
     1
102
RTVSPropertyOp50
 70
     1
102
RTVSPropertyOp51
 70
     0
102
RTVSPropertyOp52
 70
     0
102
RTVSPropertyOp53
 70
     1
102
RTVSPropertyOp54
 70
     1
102
RTVSPropertyOp55
 70
     1
102
RTVSPropertyOp56
 70
     1
102
RTVSPropertyOp57
 70
     1
102
RTVSPropertyOp58
 70
     1
102
RTVSPropertyOp59
 70
     1
102
RTVSPropertyOp60
 70
     1
102
RTVSPropertyOp61
 70
     1
102
RTVSPropertyOp62
 70
     1
  0
XRECORD
  5
7D8C
102
{ACAD_REACTORS
330
7D8B
102
}
330
7D8B
100
AcDbXrecord
280
     1
102
RTVSPost2010Prop28
280
     0
102
RTVSPost2010PropOp28
 70
     1
102
RTVSPost2010Prop29
280
     1
102
RTVSPost2010PropOp29
 70
     1
102
RTVSPost2010Prop30
280
     1
102
RTVSPost2010PropOp30
 70
     1
102
RTVSPost2010Prop31
280
     0
102
RTVSPost2010PropOp31
 70
     1
102
RTVSPost2010Prop32
280
     0
102
RTVSPost2010PropOp32
 70
     1
102
RTVSPost2010Prop33
280
     0
102
RTVSPost2010PropOp33
 70
     1
102
RTVSPost2010Prop34
280
     0
102
RTVSPost2010PropOp34
 70
     1
102
RTVSPost2010Prop35
280
     0
102
RTVSPost2010PropOp35
 70
     1
102
RTVSPost2010Prop36
280
     0
102
RTVSPost2010PropOp36
 70
     1
102
RTVSPost2010Prop37
 90
       50
102
RTVSPost2010PropOp37
 70
     1
102
RTVSPost2010Prop38
140
0.0
102
RTVSPost2010PropOp38
 70
     1
102
RTVSPost2010Prop39
140
1.0
102
RTVSPost2010PropOp39
 70
     1
102
RTVSPost2010Prop40
 90
        0
102
RTVSPost2010PropOp40
 70
     1
102
RTVSPost2010Prop41ColorIndex
 90
       18
102
RTVSPost2010Prop41ColorRGB
 90
        0
102
RTVSPost2010PropOp41
 70
     1
102
RTVSPost2010Prop42
 90
       50
102
RTVSPost2010PropOp42
 70
     1
102
RTVSPost2010Prop43
 90
        3
102
RTVSPost2010PropOp43
 70
     1
102
RTVSPost2010Prop44ColorIndex
 90
        5
102
RTVSPost2010Prop44ColorRGB
 90
      255
102
RTVSPost2010PropOp44
 70
     1
102
RTVSPost2010Prop45
280
     0
102
RTVSPost2010PropOp45
 70
     1
102
RTVSPost2010Prop46
 90
       50
102
RTVSPost2010PropOp46
 70
     1
102
RTVSPost2010Prop47
 90
       50
102
RTVSPost2010PropOp47
 70
     1
102
RTVSPost2010Prop48
 90
       50
102
RTVSPost2010PropOp48
 70
     1
102
RTVSPost2010Prop49
280
     0
102
RTVSPost2010PropOp49
 70
     1
102
RTVSPost2010Prop50
 90
       50
102
RTVSPost2010PropOp50
 70
     1
102
RTVSPost2010Prop51ColorIndex
 90
      256
102
RTVSPost2010Prop51ColorRGB
 90
-16777216
102
RTVSPost2010PropOp51
 70
     0
102
RTVSPost2010Prop52
140
1.0
102
RTVSPost2010PropOp52
 70
     0
102
RTVSPost2010Prop53
 90
        2
102
RTVSPost2010PropOp53
 70
     1
102
RTVSPost2010Prop54
  1
strokes_ogs.tif
102
RTVSPost2010PropOp54
 70
     1
102
RTVSPost2010Prop55
280
     0
102
RTVSPost2010PropOp55
 70
     1
102
RTVSPost2010Prop56
140
1.0
102
RTVSPost2010PropOp56
 70
     1
102
RTVSPost2010Prop57
140
1.0
102
RTVSPost2010PropOp57
 70
     1
102
RTVSPropertyOp0
 70
     1
102
RTVSPropertyOp1
 70
     1
102
RTVSPropertyOp2
 70
     1
102
RTVSPropertyOp3
 70
     1
102
RTVSPropertyOp4
 70
     1
102
RTVSPropertyOp5
 70
     1
102
RTVSPropertyOp6
 70
     1
102
RTVSPropertyOp7
 70
     1
102
RTVSPropertyOp8
 70
     1
102
RTVSPropertyOp9
 70
     1
102
RTVSPropertyOp10
 70
     1
102
RTVSPropertyOp11
 70
     1
102
RTVSPropertyOp12
 70
     1
102
RTVSPropertyOp13
 70
     1
102
RTVSPropertyOp14
 70
     1
102
RTVSPropertyOp15
 70
     1
102
RTVSPropertyOp16
 70
     1
102
RTVSPropertyOp17
 70
     1
102
RTVSPropertyOp18
 70
     1
102
RTVSPropertyOp19
 70
     1
102
RTVSPropertyOp20
 70
     1
102
RTVSPropertyOp21
 70
     1
102
RTVSPropertyOp22
 70
     1
102
RTVSPropertyOp23
 70
     1
102
RTVSPropertyOp24
 70
     1
102
RTVSPropertyOp25
 70
     1
102
RTVSPropertyOp26
 70
     1
102
RTVSPropertyOp27
 70
     1
102
RTVSPropertyOp28
 70
     1
102
RTVSPropertyOp29
 70
     1
102
RTVSPropertyOp30
 70
     1
102
RTVSPropertyOp31
 70
     1
102
RTVSPropertyOp32
 70
     1
102
RTVSPropertyOp33
 70
     1
102
RTVSPropertyOp34
 70
     1
102
RTVSPropertyOp35
 70
     1
102
RTVSPropertyOp36
 70
     1
102
RTVSPropertyOp37
 70
     1
102
RTVSPropertyOp38
 70
     1
102
RTVSPropertyOp39
 70
     1
102
RTVSPropertyOp40
 70
     1
102
RTVSPropertyOp41
 70
     1
102
RTVSPropertyOp42
 70
     1
102
RTVSPropertyOp43
 70
     1
102
RTVSPropertyOp44
 70
     1
102
RTVSPropertyOp45
 70
     1
102
RTVSPropertyOp46
 70
     1
102
RTVSPropertyOp47
 70
     1
102
RTVSPropertyOp48
 70
     1
102
RTVSPropertyOp49
 70
     1
102
RTVSPropertyOp50
 70
     1
102
RTVSPropertyOp51
 70
     0
102
RTVSPropertyOp52
 70
     0
102
RTVSPropertyOp53
 70
     1
102
RTVSPropertyOp54
 70
     1
102
RTVSPropertyOp55
 70
     1
102
RTVSPropertyOp56
 70
     1
102
RTVSPropertyOp57
 70
     1
102
RTVSPropertyOp58
 70
     1
102
RTVSPropertyOp59
 70
     1
102
RTVSPropertyOp60
 70
     1
102
RTVSPropertyOp61
 70
     1
102
RTVSPropertyOp62
 70
     1
  0
ENDSEC
  0
EOF
