  0
SECTION
  2
HEADER
  9
$ACADVER
  1
AC1015
  9
$ACADMAINTVER
 70
    18
  9
$DWGCODEPAGE
  3
ANSI_1252
  9
$INSBASE
 10
0.0
 20
0.0
 30
0.0
  9
$EXTMIN
 10
-193.106688700042
 20
-239.6764980005991
 30
-0.0015258207003583
  9
$EXTMAX
 10
226.9830329797498
 20
281.6007391989706
 30
0.0000000349246037
  9
$LIMMIN
 10
0.0
 20
0.0
  9
$LIMMAX
 10
420.0
 20
297.0
  9
$ORTHOMODE
 70
     0
  9
$REGENMODE
 70
     1
  9
$FILLMODE
 70
     1
  9
$QTEXTMODE
 70
     0
  9
$MIRRTEXT
 70
     0
  9
$LTSCALE
 40
1.0
  9
$ATTMODE
 70
     1
  9
$TEXTSIZE
 40
2.5
  9
$TRACEWID
 40
1.0
  9
$TEXTSTYLE
  7
Standard
  9
$CLAYER
  8
0
  9
$CELTYPE
  6
ByLayer
  9
$CECOLOR
 62
   256
  9
$CELTSCALE
 40
1.0
  9
$DISPSILH
 70
     0
  9
$DIMSCALE
 40
1.0
  9
$DIMASZ
 40
2.5
  9
$DIMEXO
 40
0.625
  9
$DIMDLI
 40
3.75
  9
$DIMRND
 40
0.0
  9
$DIMDLE
 40
0.0
  9
$DIMEXE
 40
1.25
  9
$DIMTP
 40
0.0
  9
$DIMTM
 40
0.0
  9
$DIMTXT
 40
2.5
  9
$DIMCEN
 40
2.5
  9
$DIMTSZ
 40
0.0
  9
$DIMTOL
 70
     0
  9
$DIMLIM
 70
     0
  9
$DIMTIH
 70
     0
  9
$DIMTOH
 70
     0
  9
$DIMSE1
 70
     0
  9
$DIMSE2
 70
     0
  9
$DIMTAD
 70
     1
  9
$DIMZIN
 70
     8
  9
$DIMBLK
  1

  9
$DIMASO
 70
     1
  9
$DIMSHO
 70
     1
  9
$DIMPOST
  1

  9
$DIMAPOST
  1

  9
$DIMALT
 70
     0
  9
$DIMALTD
 70
     3
  9
$DIMALTF
 40
0.03937007874016
  9
$DIMLFAC
 40
1.0
  9
$DIMTOFL
 70
     1
  9
$DIMTVP
 40
0.0
  9
$DIMTIX
 70
     0
  9
$DIMSOXD
 70
     0
  9
$DIMSAH
 70
     0
  9
$DIMBLK1
  1

  9
$DIMBLK2
  1

  9
$DIMSTYLE
  2
ISO-25
  9
$DIMCLRD
 70
     0
  9
$DIMCLRE
 70
     0
  9
$DIMCLRT
 70
     0
  9
$DIMTFAC
 40
1.0
  9
$DIMGAP
 40
0.625
  9
$DIMJUST
 70
     0
  9
$DIMSD1
 70
     0
  9
$DIMSD2
 70
     0
  9
$DIMTOLJ
 70
     0
  9
$DIMTZIN
 70
     8
  9
$DIMALTZ
 70
     0
  9
$DIMALTTZ
 70
     0
  9
$DIMUPT
 70
     0
  9
$DIMDEC
 70
     2
  9
$DIMTDEC
 70
     2
  9
$DIMALTU
 70
     2
  9
$DIMALTTD
 70
     3
  9
$DIMTXSTY
  7
Standard
  9
$DIMAUNIT
 70
     0
  9
$DIMADEC
 70
     0
  9
$DIMALTRND
 40
0.0
  9
$DIMAZIN
 70
     0
  9
$DIMDSEP
 70
    44
  9
$DIMATFIT
 70
     3
  9
$DIMFRAC
 70
     0
  9
$DIMLDRBLK
  1

  9
$DIMLUNIT
 70
     2
  9
$DIMLWD
 70
    -2
  9
$DIMLWE
 70
    -2
  9
$DIMTMOVE
 70
     0
  9
$LUNITS
 70
     2
  9
$LUPREC
 70
     4
  9
$SKETCHINC
 40
1.0
  9
$FILLETRAD
 40
0.0
  9
$AUNITS
 70
     0
  9
$AUPREC
 70
     0
  9
$MENU
  1
.
  9
$ELEVATION
 40
0.0
  9
$PELEVATION
 40
0.0
  9
$THICKNESS
 40
0.0
  9
$LIMCHECK
 70
     0
  9
$CHAMFERA
 40
0.0
  9
$CHAMFERB
 40
0.0
  9
$CHAMFERC
 40
0.0
  9
$CHAMFERD
 40
0.0
  9
$SKPOLY
 70
     0
  9
$TDCREATE
 40
2460398.356956019
  9
$TDUCREATE
 40
2460398.065289352
  9
$TDUPDATE
 40
2460398.374259259
  9
$TDUUPDATE
 40
2460398.082592593
  9
$TDINDWG
 40
0.0077199074
  9
$TDUSRTIMER
 40
0.0077199074
  9
$USRTIMER
 70
     1
  9
$ANGBASE
 50
0.0
  9
$ANGDIR
 70
     0
  9
$PDMODE
 70
     0
  9
$PDSIZE
 40
0.0
  9
$PLINEWID
 40
0.0
  9
$SPLFRAME
 70
     0
  9
$SPLINETYPE
 70
     6
  9
$SPLINESEGS
 70
     8
  9
$HANDSEED
  5
8406
  9
$SURFTAB1
 70
     6
  9
$SURFTAB2
 70
     6
  9
$SURFTYPE
 70
     6
  9
$SURFU
 70
     6
  9
$SURFV
 70
     6
  9
$UCSBASE
  2

  9
$UCSNAME
  2

  9
$UCSORG
 10
0.0
 20
0.0
 30
0.0
  9
$UCSXDIR
 10
1.0
 20
0.0
 30
0.0
  9
$UCSYDIR
 10
0.0
 20
1.0
 30
0.0
  9
$UCSORTHOREF
  2

  9
$UCSORTHOVIEW
 70
     0
  9
$UCSORGTOP
 10
0.0
 20
0.0
 30
0.0
  9
$UCSORGBOTTOM
 10
0.0
 20
0.0
 30
0.0
  9
$UCSORGLEFT
 10
0.0
 20
0.0
 30
0.0
  9
$UCSORGRIGHT
 10
0.0
 20
0.0
 30
0.0
  9
$UCSORGFRONT
 10
0.0
 20
0.0
 30
0.0
  9
$UCSORGBACK
 10
0.0
 20
0.0
 30
0.0
  9
$PUCSBASE
  2

  9
$PUCSNAME
  2

  9
$PUCSORG
 10
0.0
 20
0.0
 30
0.0
  9
$PUCSXDIR
 10
1.0
 20
0.0
 30
0.0
  9
$PUCSYDIR
 10
0.0
 20
1.0
 30
0.0
  9
$PUCSORTHOREF
  2

  9
$PUCSORTHOVIEW
 70
     0
  9
$PUCSORGTOP
 10
0.0
 20
0.0
 30
0.0
  9
$PUCSORGBOTTOM
 10
0.0
 20
0.0
 30
0.0
  9
$PUCSORGLEFT
 10
0.0
 20
0.0
 30
0.0
  9
$PUCSORGRIGHT
 10
0.0
 20
0.0
 30
0.0
  9
$PUCSORGFRONT
 10
0.0
 20
0.0
 30
0.0
  9
$PUCSORGBACK
 10
0.0
 20
0.0
 30
0.0
  9
$USERI1
 70
     0
  9
$USERI2
 70
     0
  9
$USERI3
 70
     0
  9
$USERI4
 70
     0
  9
$USERI5
 70
     0
  9
$USERR1
 40
0.0
  9
$USERR2
 40
0.0
  9
$USERR3
 40
0.0
  9
$USERR4
 40
0.0
  9
$USERR5
 40
0.0
  9
$WORLDVIEW
 70
     1
  9
$SHADEDGE
 70
     3
  9
$SHADEDIF
 70
    70
  9
$TILEMODE
 70
     1
  9
$MAXACTVP
 70
    48
  9
$PINSBASE
 10
0.0
 20
0.0
 30
0.0
  9
$PLIMCHECK
 70
     0
  9
$PEXTMIN
 10
0.0
 20
0.0
 30
0.0
  9
$PEXTMAX
 10
0.0
 20
0.0
 30
0.0
  9
$PLIMMIN
 10
0.0
 20
0.0
  9
$PLIMMAX
 10
12.0
 20
9.0
  9
$UNITMODE
 70
     0
  9
$VISRETAIN
 70
     1
  9
$PLINEGEN
 70
     0
  9
$PSLTSCALE
 70
     1
  9
$TREEDEPTH
 70
  3020
  9
$CMLSTYLE
  2
Standard
  9
$CMLJUST
 70
     0
  9
$CMLSCALE
 40
20.0
  9
$PROXYGRAPHICS
 70
     1
  9
$MEASUREMENT
 70
     1
  9
$CELWEIGHT
370
    -1
  9
$ENDCAPS
280
     0
  9
$JOINSTYLE
280
     0
  9
$LWDISPLAY
290
     0
  9
$INSUNITS
 70
     4
  9
$HYPERLINKBASE
  1

  9
$STYLESHEET
  1

  9
$XEDIT
290
     1
  9
$CEPSNTYPE
380
     0
  9
$PSTYLEMODE
290
     1
  9
$FINGERPRINTGUID
  2
{6C1266EE-7BC1-BF4A-B059-A6E7702B10CE}
  9
$VERSIONGUID
  2
{6C42EE51-503F-8C40-84B6-A4E6AAD4E5E5}
  9
$EXTNAMES
290
     1
  9
$PSVPSCALE
 40
0.0
  9
$OLESTARTUP
290
     0
  0
ENDSEC
  0
SECTION
  2
CLASSES
  0
CLASS
  1
ACDBDICTIONARYWDFLT
  2
AcDbDictionaryWithDefault
  3
ObjectDBX Classes
 90
        0
280
     0
281
     0
  0
CLASS
  1
ACDBPLACEHOLDER
  2
AcDbPlaceHolder
  3
ObjectDBX Classes
 90
        0
280
     0
281
     0
  0
CLASS
  1
LAYOUT
  2
AcDbLayout
  3
ObjectDBX Classes
 90
        0
280
     0
281
     0
  0
CLASS
  1
DICTIONARYVAR
  2
AcDbDictionaryVar
  3
ObjectDBX Classes
 90
        0
280
     0
281
     0
  0
CLASS
  1
TABLESTYLE
  2
AcDbTableStyle
  3
ObjectDBX Classes
 90
     4095
280
     0
281
     0
  0
CLASS
  1
MATERIAL
  2
AcDbMaterial
  3
ObjectDBX Classes
 90
     1153
280
     0
281
     0
  0
CLASS
  1
VISUALSTYLE
  2
AcDbVisualStyle
  3
ObjectDBX Classes
 90
     4095
280
     0
281
     0
  0
CLASS
  1
SCALE
  2
AcDbScale
  3
ObjectDBX Classes
 90
     1153
280
     0
281
     0
  0
CLASS
  1
MLEADERSTYLE
  2
AcDbMLeaderStyle
  3
ACDB_MLEADERSTYLE_CLASS
 90
     4095
280
     0
281
     0
  0
CLASS
  1
CELLSTYLEMAP
  2
AcDbCellStyleMap
  3
ObjectDBX Classes
 90
     1152
280
     0
281
     0
  0
CLASS
  1
EXACXREFPANELOBJECT
  2
ExAcXREFPanelObject
  3
EXAC_ESW
 90
    33793
280
     0
281
     0
  0
CLASS
  1
NPOCOLLECTION
  2
AcDbImpNonPersistentObjectsCollection
  3
ObjectDBX Classes
 90
    33921
280
     0
281
     0
  0
CLASS
  1
LAYER_INDEX
  2
AcDbLayerIndex
  3
ObjectDBX Classes
 90
    32768
280
     0
281
     0
  0
CLASS
  1
SPATIAL_INDEX
  2
AcDbSpatialIndex
  3
ObjectDBX Classes
 90
    32768
280
     0
281
     0
  0
CLASS
  1
IDBUFFER
  2
AcDbIdBuffer
  3
ObjectDBX Classes
 90
    32768
280
     0
281
     0
  0
CLASS
  1
ACDBSECTIONVIEWSTYLE
  2
AcDbSectionViewStyle
  3
ObjectDBX Classes
 90
     1025
280
     0
281
     0
  0
CLASS
  1
ACDBDETAILVIEWSTYLE
  2
AcDbDetailViewStyle
  3
ObjectDBX Classes
 90
     1025
280
     0
281
     0
  0
CLASS
  1
XRECORD
  2
AcDbXrecord
  3
ObjectDBX Classes
 90
        0
280
     0
281
     0
  0
ENDSEC
  0
SECTION
  2
TABLES
  0
TABLE
  2
VPORT
  5
8
102
{ACAD_XDICTIONARY
360
8314
102
}
330
0
100
AcDbSymbolTable
 70
     1
  0
VPORT
  5
EA
330
8
100
AcDbSymbolTableRecord
100
AcDbViewportTableRecord
  2
*Active
 70
     0
 10
0.0
 20
0.0
 11
1.0
 21
1.0
 12
16.93817213985392
 22
20.96212059918577
 13
0.0
 23
0.0
 14
10.0
 24
10.0
 15
10.0
 25
10.0
 16
0.0
 26
0.0
 36
1.0
 17
0.0
 27
0.0
 37
0.0
 40
554.3311018899681
 41
0.9846153846153846
 42
50.0
 43
0.0
 44
0.0
 50
0.0
 51
0.0
 71
     0
 72
  1000
 73
     1
 74
     3
 75
     0
 76
     1
 77
     0
 78
     0
281
     0
 65
     1
110
0.0
120
0.0
130
0.0
111
1.0
121
0.0
131
0.0
112
0.0
122
1.0
132
0.0
 79
     0
146
0.0
1001
ACAD_NAV_VCDISPLAY
1070
     3
  0
ENDTAB
  0
TABLE
  2
LTYPE
  5
5
330
0
100
AcDbSymbolTable
 70
     1
  0
LTYPE
  5
14
330
5
100
AcDbSymbolTableRecord
100
AcDbLinetypeTableRecord
  2
ByBlock
 70
     0
  3

 72
    65
 73
     0
 40
0.0
  0
LTYPE
  5
15
330
5
100
AcDbSymbolTableRecord
100
AcDbLinetypeTableRecord
  2
ByLayer
 70
     0
  3

 72
    65
 73
     0
 40
0.0
  0
LTYPE
  5
16
330
5
100
AcDbSymbolTableRecord
100
AcDbLinetypeTableRecord
  2
Continuous
 70
     0
  3
Solid line
 72
    65
 73
     0
 40
0.0
  0
ENDTAB
  0
TABLE
  2
LAYER
  5
2
102
{ACAD_XDICTIONARY
360
1FF
102
}
330
0
100
AcDbSymbolTable
 70
     1
  0
LAYER
  5
10
102
{ACAD_XDICTIONARY
360
13C
102
}
330
2
100
AcDbSymbolTableRecord
100
AcDbLayerTableRecord
  2
0
 70
     0
 62
     7
  6
Continuous
370
    -3
390
F
  0
ENDTAB
  0
TABLE
  2
STYLE
  5
3
330
0
100
AcDbSymbolTable
 70
     1
  0
STYLE
  5
11
330
3
100
AcDbSymbolTableRecord
100
AcDbTextStyleTableRecord
  2
Standard
 70
     0
 40
0.0
 41
1.0
 50
0.0
 71
     0
 42
2.5
  3
arial.ttf
  4

1001
ACAD
1000
Arial
1071
       34
  0
ENDTAB
  0
TABLE
  2
VIEW
  5
6
330
0
100
AcDbSymbolTable
 70
     0
  0
ENDTAB
  0
TABLE
  2
UCS
  5
7
330
0
100
AcDbSymbolTable
 70
     0
  0
ENDTAB
  0
TABLE
  2
APPID
  5
9
330
0
100
AcDbSymbolTable
 70
     8
  0
APPID
  5
12
330
9
100
AcDbSymbolTableRecord
100
AcDbRegAppTableRecord
  2
ACAD
 70
     0
  0
APPID
  5
9E
330
9
100
AcDbSymbolTableRecord
100
AcDbRegAppTableRecord
  2
ACAD_PSEXT
 70
     0
  0
APPID
  5
133
330
9
100
AcDbSymbolTableRecord
100
AcDbRegAppTableRecord
  2
AcadAnnoPO
 70
     0
  0
APPID
  5
134
330
9
100
AcDbSymbolTableRecord
100
AcDbRegAppTableRecord
  2
AcadAnnotative
 70
     0
  0
APPID
  5
135
330
9
100
AcDbSymbolTableRecord
100
AcDbRegAppTableRecord
  2
ACAD_DSTYLE_DIMJAG
 70
     0
  0
APPID
  5
136
330
9
100
AcDbSymbolTableRecord
100
AcDbRegAppTableRecord
  2
ACAD_DSTYLE_DIMTALN
 70
     0
  0
APPID
  5
165
330
9
100
AcDbSymbolTableRecord
100
AcDbRegAppTableRecord
  2
ACAD_MLEADERVER
 70
     0
  0
APPID
  5
217
330
9
100
AcDbSymbolTableRecord
100
AcDbRegAppTableRecord
  2
ACAD_NAV_VCDISPLAY
 70
     0
  0
ENDTAB
  0
TABLE
  2
DIMSTYLE
  5
A
330
0
100
AcDbSymbolTable
 70
     1
100
AcDbDimStyleTable
 71
     0
  0
DIMSTYLE
105
27
330
A
100
AcDbSymbolTableRecord
100
AcDbDimStyleTableRecord
  2
ISO-25
 70
     0
 41
2.5
 42
0.625
 43
3.75
 44
1.25
 73
     0
 74
     0
 77
     1
 78
     8
140
2.5
141
2.5
143
0.03937007874016
147
0.625
171
     3
172
     1
271
     2
272
     2
274
     3
278
    44
283
     0
284
     8
340
11
  0
ENDTAB
  0
TABLE
  2
BLOCK_RECORD
  5
1
330
0
100
AcDbSymbolTable
 70
     7
  0
BLOCK_RECORD
  5
1F
102
{ACAD_XDICTIONARY
360
1CE
102
}
330
1
100
AcDbSymbolTableRecord
100
AcDbBlockTableRecord
  2
*Model_Space
340
22
  0
BLOCK_RECORD
  5
D2
102
{ACAD_XDICTIONARY
360
82C7
102
}
330
1
100
AcDbSymbolTableRecord
100
AcDbBlockTableRecord
  2
*Paper_Space
340
D3
  0
BLOCK_RECORD
  5
D6
102
{ACAD_XDICTIONARY
360
82C9
102
}
330
1
100
AcDbSymbolTableRecord
100
AcDbBlockTableRecord
  2
*Paper_Space0
340
D7
  0
BLOCK_RECORD
  5
8151
330
1
100
AcDbSymbolTableRecord
100
AcDbBlockTableRecord
  2
SAE340_40_2-Front
340
0
102
{BLKREFS
331
82BD
102
}
  0
BLOCK_RECORD
  5
81A3
330
1
100
AcDbSymbolTableRecord
100
AcDbBlockTableRecord
  2
SAE340_40_2-Left
340
0
102
{BLKREFS
331
82BE
102
}
  0
BLOCK_RECORD
  5
81C1
330
1
100
AcDbSymbolTableRecord
100
AcDbBlockTableRecord
  2
SAE340_40_2-Right
340
0
102
{BLKREFS
331
82BF
102
}
  0
BLOCK_RECORD
  5
81E0
330
1
100
AcDbSymbolTableRecord
100
AcDbBlockTableRecord
  2
SAE340_40_2-Top
340
0
102
{BLKREFS
331
82C0
102
}
  0
BLOCK_RECORD
  5
820F
330
1
100
AcDbSymbolTableRecord
100
AcDbBlockTableRecord
  2
SAE340_40_2-Bottom
340
0
102
{BLKREFS
331
82C1
102
}
  0
BLOCK_RECORD
  5
823A
330
1
100
AcDbSymbolTableRecord
100
AcDbBlockTableRecord
  2
SAE340_40_2-ISO
340
0
102
{BLKREFS
331
82C2
102
}
  0
ENDTAB
  0
ENDSEC
  0
SECTION
  2
BLOCKS
  0
BLOCK
  5
20
330
1F
100
AcDbEntity
  8
0
100
AcDbBlockBegin
  2
*Model_Space
 70
     0
 10
0.0
 20
0.0
 30
0.0
  3
*Model_Space
  1

  0
ENDBLK
  5
21
330
1F
100
AcDbEntity
  8
0
100
AcDbBlockEnd
  0
BLOCK
  5
D4
330
D2
100
AcDbEntity
 67
     1
  8
0
100
AcDbBlockBegin
  2
*Paper_Space
 70
     0
 10
0.0
 20
0.0
 30
0.0
  3
*Paper_Space
  1

  0
ENDBLK
  5
D5
330
D2
100
AcDbEntity
 67
     1
  8
0
100
AcDbBlockEnd
  0
BLOCK
  5
D8
330
D6
100
AcDbEntity
 67
     1
  8
0
100
AcDbBlockBegin
  2
*Paper_Space0
 70
     0
 10
0.0
 20
0.0
 30
0.0
  3
*Paper_Space0
  1

  0
ENDBLK
  5
D9
330
D6
100
AcDbEntity
 67
     1
  8
0
100
AcDbBlockEnd
  0
BLOCK
  5
8152
330
8151
100
AcDbEntity
  8
0
100
AcDbBlockBegin
  2
SAE340_40_2-Front
 70
     0
 10
0.0
 20
0.0
 30
0.0
  3
SAE340_40_2-Front
  1

  0
SPLINE
  5
8154
330
8151
100
AcDbEntity
  8
0
100
AcDbSpline
210
0.0
220
0.0
230
1.0
 70
     8
 71
     3
 72
    14
 73
    10
 74
     0
 42
0.000000001
 43
0.0000000001
 40
0.0
 40
0.0
 40
0.0
 40
0.0
 40
0.3435185598351
 40
0.3435185598351
 40
0.3435185598351
 40
0.7570138388812016
 40
0.7570138388812016
 40
0.7570138388812016
 40
0.9986518266434574
 40
0.9986518266434574
 40
0.9986518266434574
 40
0.9986518266434574
 10
24.60606060606063
 20
22.56249999999992
 30
0.0
 10
24.28490437776446
 20
22.30249346331844
 30
0.0
 10
23.87245674613768
 20
22.07528977168927
 30
0.0
 10
23.47646184524853
 20
21.8440744715912
 30
0.0
 10
22.99980049069874
 20
21.56575927639572
 30
0.0
 10
22.53725454061463
 20
21.27136286302857
 30
0.0
 10
22.26239142279919
 20
20.85786784786089
 30
0.0
 10
22.10176716887252
 20
20.61623001430366
 30
0.0
 10
22.0011170174421
 20
20.36103974390581
 30
0.0
 10
22.00000923866592
 20
20.00595276708318
 30
0.0
  0
LINE
  5
8155
330
8151
100
AcDbEntity
  8
0
100
AcDbLine
 10
22.0
 20
22.56249999999992
 30
0.0
 11
24.0
 21
22.56249999999992
 31
0.0
  0
SPLINE
  5
8156
330
8151
100
AcDbEntity
  8
0
100
AcDbSpline
210
0.0
220
0.0
230
1.0
 70
     8
 71
     3
 72
    20
 73
    16
 74
     0
 42
0.000000001
 43
0.0000000001
 40
0.0120731921707733
 40
0.0120731921707733
 40
0.0120731921707733
 40
0.0120731921707733
 40
0.01242896630254
 40
0.01242896630254
 40
0.013530450823132
 40
0.013530450823132
 40
0.0142264320352761
 40
0.0142264320352761
 40
0.0153097346220752
 40
0.0153097346220752
 40
0.0162528438706156
 40
0.0162528438706156
 40
0.0174018563041849
 40
0.0174018563041849
 40
0.0202450227751433
 40
0.0202450227751433
 40
0.0202450227751433
 40
0.0202450227751433
 10
22.00029164702537
 20
20.05864902334464
 30
0.0
 10
22.00029164702508
 20
20.0586490233192
 30
0.0
 10
22.00029123435231
 20
20.05861299962996
 30
0.0
 10
22.00028772898345
 20
20.05830161330102
 30
0.0
 10
22.00028065867341
 20
20.05767618264534
 30
0.0
 10
22.00026146651616
 20
20.05580933537455
 30
0.0
 10
22.00025210286886
 20
20.05487068835241
 30
0.0
 10
22.00022447614366
 20
20.05189884880985
 30
0.0
 10
22.00020363024979
 20
20.04947521985682
 30
0.0
 10
22.00016555221866
 20
20.04422715872948
 30
0.0
 10
22.00014801097051
 20
20.0414619054454
 30
0.0
 10
22.00011447314153
 20
20.03509459382831
 30
0.0
 10
22.00009957036614
 20
20.03145232386272
 30
0.0
 10
22.00006174290857
 20
20.01868040692273
 30
0.0
 10
22.00005914540226
 20
20.00931556212873
 30
0.0
 10
22.00007431648746
 20
19.9999991742721
 30
0.0
  0
SPLINE
  5
8157
330
8151
100
AcDbEntity
  8
0
100
AcDbSpline
210
0.0
220
0.0
230
1.0
 70
     8
 71
     3
 72
    20
 73
    16
 74
     0
 42
0.000000001
 43
0.0000000001
 40
0.0053330810400642
 40
0.0053330810400642
 40
0.0053330810400642
 40
0.0053330810400642
 40
0.0056477943649423
 40
0.0056477943649423
 40
0.0060465553912315
 40
0.0060465553912315
 40
0.006530906293019
 40
0.006530906293019
 40
0.0071941963112972
 40
0.0071941963112972
 40
0.0085675416551923
 40
0.0085675416551923
 40
0.0106391875061902
 40
0.0106391875061902
 40
0.0111028704862761
 40
0.0111028704862761
 40
0.0111028704862761
 40
0.0111028704862761
 10
22.00010883933658
 20
20.04546313423951
 30
0.0
 10
22.00010883931801
 20
20.04546313124905
 30
0.0
 10
22.00010796015179
 20
20.04532229434148
 30
0.0
 10
22.00010437321004
 20
20.04473465777245
 30
0.0
 10
22.00010121321517
 20
20.04421100283273
 30
0.0
 10
22.00009286763159
 20
20.04276712641438
 30
0.0
 10
22.00008734573061
 20
20.04177604475181
 30
0.0
 10
22.00007384221561
 20
20.03918097203226
 30
0.0
 10
22.00006571105153
 20
20.03748289809959
 30
0.0
 10
22.00004297942801
 20
20.03216360425333
 30
0.0
 10
22.00002983006571
 20
20.02823211105261
 30
0.0
 10
22.00000644270549
 20
20.01793158299491
 30
0.0
 10
22.00000107511997
 20
20.01126213496519
 30
0.0
 10
22.00000622988106
 20
20.00302646780939
 30
0.0
 10
22.00000763416
 20
20.00151388791184
 30
0.0
 10
22.00000948701016
 20
19.99999731133813
 30
0.0
  0
SPLINE
  5
8158
330
8151
100
AcDbEntity
  8
0
100
AcDbSpline
210
0.0
220
0.0
230
1.0
 70
     8
 71
     3
 72
     8
 73
     4
 74
     0
 42
0.000000001
 43
0.0000000001
 40
0.0
 40
0.0
 40
0.0
 40
0.0
 40
0.0009484845442175
 40
0.0009484845442175
 40
0.0009484845442175
 40
0.0009484845442175
 10
19.99956040496372
 20
20.00000098503775
 30
0.0
 10
19.99956427154477
 20
20.00275539287482
 30
0.0
 10
19.99956807790146
 20
20.00547480196252
 30
0.0
 10
19.99957175544645
 20
20.00814870133265
 30
0.0
  0
SPLINE
  5
8159
330
8151
100
AcDbEntity
  8
0
100
AcDbSpline
210
0.0
220
0.0
230
1.0
 70
     8
 71
     3
 72
    14
 73
    10
 74
     0
 42
0.000000001
 43
0.0000000001
 40
0.0
 40
0.0
 40
0.0
 40
0.0
 40
0.0050537939911797
 40
0.0050537939911797
 40
0.007626684700361
 40
0.007626684700361
 40
0.0099757364245264
 40
0.0099757364245264
 40
0.0117459788658261
 40
0.0117459788658261
 40
0.0117459788658261
 40
0.0117459788658261
 10
19.99970085685768
 20
19.99999583904442
 30
0.0
 10
19.99943696029695
 20
20.01668088255152
 30
0.0
 10
19.99916130110696
 20
20.03394678860792
 30
0.0
 10
19.99876193476042
 20
20.05896058067061
 30
0.0
 10
19.99862826252151
 20
20.06733836419279
 30
0.0
 10
19.99840270372591
 20
20.0814897691636
 30
0.0
 10
19.99830585500738
 20
20.08757010299671
 30
0.0
 10
19.99816732226774
 20
20.09624046885644
 30
0.0
 10
19.9981164035638
 20
20.09941635792722
 30
0.0
 10
19.99807359158618
 20
20.10207293153583
 30
0.0
  0
SPLINE
  5
815A
330
8151
100
AcDbEntity
  8
0
100
AcDbSpline
210
0.0
220
0.0
230
1.0
 70
     8
 71
     3
 72
    34
 73
    30
 74
     0
 42
0.000000001
 43
0.0000000001
 40
0.0019539046380804
 40
0.0019539046380804
 40
0.0019539046380804
 40
0.0019539046380804
 40
0.0074296366136075
 40
0.0074296366136075
 40
0.0161449402664438
 40
0.0161449402664438
 40
0.0215828361920758
 40
0.0215828361920758
 40
0.024403283305883
 40
0.024403283305883
 40
0.0264872482914764
 40
0.0264872482914764
 40
0.0292236481749858
 40
0.0292236481749858
 40
0.0316487798318808
 40
0.0316487798318808
 40
0.0348373360762991
 40
0.0348373360762991
 40
0.0399365469080588
 40
0.0399365469080588
 40
0.0496589587057823
 40
0.0496589587057823
 40
0.0742168773144326
 40
0.0742168773144326
 40
0.1473304584400724
 40
0.1473304584400724
 40
0.2287234996954777
 40
0.2287234996954777
 40
0.2661615419219921
 40
0.2661615419219921
 40
0.2661615419219921
 40
0.2661615419219921
 10
19.99993431788731
 20
20.00380484820321
 30
0.0
 10
19.99985928935124
 20
20.0081079156663
 30
0.0
 10
19.99974845963902
 20
20.01435438892601
 30
0.0
 10
19.99939149472254
 20
20.03388659857818
 30
0.0
 10
19.99909596754257
 20
20.04957540620273
 30
0.0
 10
19.99852099217998
 20
20.07925673470859
 30
0.0
 10
19.99828146753592
 20
20.09145900684586
 30
0.0
 10
19.99788178718829
 20
20.11186537079962
 30
0.0
 10
19.99773462265535
 20
20.11938787695468
 30
0.0
 10
19.99745964640411
 20
20.13358395779793
 30
0.0
 10
19.99733531492516
 20
20.1400461352496
 30
0.0
 10
19.99704171945576
 20
20.15551843171859
 30
0.0
 10
19.99686693729839
 20
20.16489649876204
 30
0.0
 10
19.99655660038491
 20
20.18203580790915
 30
0.0
 10
19.99641577897181
 20
20.19002353506251
 30
0.0
 10
19.99611288289303
 20
20.2077332867489
 30
0.0
 10
19.99595511724885
 20
20.21737524659975
 30
0.0
 10
19.9955817324246
 20
20.24123347988085
 30
0.0
 10
19.99538454084286
 20
20.25493755206172
 30
0.0
 10
19.99487987374732
 20
20.29285685743241
 30
0.0
 10
19.99462930875986
 20
20.31564514723819
 30
0.0
 10
19.99390946065497
 20
20.39342265957359
 30
0.0
 10
19.99367743725784
 20
20.44492720702521
 30
0.0
 10
19.99335887619305
 20
20.65930981241923
 30
0.0
 10
19.99486716970325
 20
20.84867839081263
 30
0.0
 10
19.99831996661632
 20
21.28400486649379
 30
0.0
 10
19.99958416927539
 20
21.5404653172193
 30
0.0
 10
19.99998738482478
 20
21.92729539453663
 30
0.0
 10
19.99998282778124
 20
22.051502190745
 30
0.0
 10
19.99998937019584
 20
22.17586288748323
 30
0.0
  0
SPLINE
  5
815B
330
8151
100
AcDbEntity
  8
0
100
AcDbSpline
210
0.0
220
0.0
230
1.0
 70
     8
 71
     3
 72
    12
 73
     8
 74
     0
 42
0.000000001
 43
0.0000000001
 40
0.0
 40
0.0
 40
0.0
 40
0.0
 40
0.0030444958768421
 40
0.0030444958768421
 40
0.0059484407692949
 40
0.0059484407692949
 40
0.0076998870942095
 40
0.0076998870942095
 40
0.0076998870942095
 40
0.0076998870942095
 10
19.99994094388028
 20
19.99999982320921
 30
0.0
 10
19.99992879114667
 20
20.00696349585652
 30
0.0
 10
19.99991750826067
 20
20.01275347419035
 30
0.0
 10
19.99989987695832
 20
20.02087153612411
 30
0.0
 10
19.99989321273553
 20
20.02345633793816
 30
0.0
 10
19.99988739353173
 20
20.02557939446113
 30
0.0
 10
19.99988626658523
 20
20.0259403613644
 30
0.0
 10
19.99988626658528
 20
20.02594036134713
 30
0.0
  0
SPLINE
  5
815C
330
8151
100
AcDbEntity
  8
0
100
AcDbSpline
210
0.0
220
0.0
230
1.0
 70
     8
 71
     3
 72
     8
 73
     4
 74
     0
 42
0.000000001
 43
0.0000000001
 40
0.0
 40
0.0
 40
0.0
 40
0.0
 40
0.0004175797822202
 40
0.0004175797822202
 40
0.0004175797822202
 40
0.0004175797822202
 10
24.60608748745352
 20
22.56246529873235
 30
0.0
 10
24.60571549269364
 20
22.56217719719296
 30
0.0
 10
24.60533668493115
 20
22.56188387513902
 30
0.0
 10
24.60495522081329
 20
22.56158845919273
 30
0.0
  0
SPLINE
  5
815D
330
8151
100
AcDbEntity
  8
0
100
AcDbSpline
210
0.0
220
0.0
230
1.0
 70
     8
 71
     3
 72
     8
 73
     4
 74
     0
 42
0.000000001
 43
0.0000000001
 40
0.0
 40
0.0
 40
0.0
 40
0.0
 40
0.0006732113993429
 40
0.0006732113993429
 40
0.0006732113993429
 40
0.0006732113993429
 10
24.60610302684222
 20
22.56244731317944
 30
0.0
 10
24.60468696697079
 20
22.56130722804164
 30
0.0
 10
24.60321000837355
 20
22.56011946381187
 30
0.0
 10
24.60168732652542
 20
22.55889643449945
 30
0.0
  0
LINE
  5
815E
330
8151
100
AcDbEntity
  8
0
100
AcDbLine
 10
17.99999999999997
 20
-2.0
 30
0.0
 11
-17.99999999999998
 21
-2.000000000000001
 31
0.0
  0
LINE
  5
815F
330
8151
100
AcDbEntity
  8
0
100
AcDbLine
 10
-17.99999999999998
 20
0.0
 30
0.0
 11
17.99999999999998
 21
0.0
 31
0.0
  0
LINE
  5
8160
330
8151
100
AcDbEntity
  8
0
100
AcDbLine
 10
-24.0
 20
22.56249999999992
 30
0.0
 11
-22.0
 21
22.56249999999992
 31
0.0
  0
SPLINE
  5
8161
330
8151
100
AcDbEntity
  8
0
100
AcDbSpline
210
0.0
220
0.0
230
1.0
 70
     8
 71
     3
 72
    14
 73
    10
 74
     0
 42
0.000000001
 43
0.0000000001
 40
0.0
 40
0.0
 40
0.0
 40
0.0
 40
0.3435185598351
 40
0.3435185598351
 40
0.3435185598351
 40
0.7570138388812016
 40
0.7570138388812016
 40
0.7570138388812016
 40
0.9986524656769525
 40
0.9986524656769525
 40
0.9986524656769525
 40
0.9986524656769525
 10
-24.60606060606063
 20
22.56249999999992
 30
0.0
 10
-24.28490437776446
 20
22.30249346331844
 30
0.0
 10
-23.87245674613768
 20
22.07528977168927
 30
0.0
 10
-23.47646184524853
 20
21.8440744715912
 30
0.0
 10
-22.99980049069874
 20
21.56575927639572
 30
0.0
 10
-22.53725454061463
 20
21.27136286302857
 30
0.0
 10
-22.26239142279919
 20
20.85786784786089
 30
0.0
 10
-22.10176674408717
 20
20.61622937527057
 30
0.0
 10
-22.00111648508568
 20
20.36103839415825
 30
0.0
 10
-22.00000922987914
 20
20.0059499499023
 30
0.0
  0
SPLINE
  5
8162
330
8151
100
AcDbEntity
  8
0
100
AcDbSpline
210
0.0
220
0.0
230
1.0
 70
     8
 71
     3
 72
    30
 73
    26
 74
     0
 42
0.000000001
 43
0.0000000001
 40
0.0
 40
0.0
 40
0.0
 40
0.0
 40
0.0655511607466705
 40
0.0655511607466705
 40
0.1469386338972999
 40
0.1469386338972999
 40
0.1863949974187071
 40
0.1863949974187071
 40
0.2243125088692422
 40
0.2243125088692422
 40
0.233866719511333
 40
0.233866719511333
 40
0.2360360270277954
 40
0.2360360270277954
 40
0.2376699894901752
 40
0.2376699894901752
 40
0.2393065884342846
 40
0.2393065884342846
 40
0.2426306821682612
 40
0.2426306821682612
 40
0.2492408765529908
 40
0.2492408765529908
 40
0.2568145606430426
 40
0.2568145606430426
 40
0.264289080198488
 40
0.264289080198488
 40
0.264289080198488
 40
0.264289080198488
 10
-19.99998937019584
 20
22.17586288748059
 30
0.0
 10
-19.99997791492613
 20
21.95811677850584
 30
0.0
 10
-19.99997390330653
 20
21.73951181301745
 30
0.0
 10
-19.99847371355696
 20
21.27823757612711
 30
0.0
 10
-19.99619487271439
 20
21.03736474050422
 30
0.0
 10
-19.99400366782287
 20
20.72145107106927
 30
0.0
 10
-19.99356387121863
 20
20.6249691252218
 30
0.0
 10
-19.99357316849382
 20
20.45187858264204
 30
0.0
 10
-19.99385054951756
 20
20.37710643267431
 30
0.0
 10
-19.99530470880545
 20
20.2598542426652
 30
0.0
 10
-19.9956711351592
 20
20.23420497691553
 30
0.0
 10
-19.99627824516909
 20
20.19800223607165
 30
0.0
 10
-19.99639811212594
 20
20.19105246593674
 30
0.0
 10
-19.99661821814422
 20
20.17862331715221
 30
0.0
 10
-19.99671672155238
 20
20.17316381437795
 30
0.0
 10
-19.99691657696453
 20
20.16226418038944
 30
0.0
 10
-19.99701889886397
 20
20.1567715240065
 30
0.0
 10
-19.99732381623788
 20
20.14059590520164
 30
0.0
 10
-19.99752467394558
 20
20.13019978781617
 30
0.0
 10
-19.99805970353054
 20
20.10270643818889
 30
0.0
 10
-19.998357408598
 20
20.08763732662265
 30
0.0
 10
-19.99895184952089
 20
20.05706542905748
 30
0.0
 10
-19.99922762981003
 20
20.04259119947628
 30
0.0
 10
-19.99966324087078
 20
20.0191303604189
 30
0.0
 10
-19.99983199957051
 20
20.00967023907494
 30
0.0
 10
-19.99993446108166
 20
20.00379382434108
 30
0.0
  0
SPLINE
  5
8163
330
8151
100
AcDbEntity
  8
0
100
AcDbSpline
210
0.0
220
0.0
230
1.0
 70
     8
 71
     3
 72
     8
 73
     4
 74
     0
 42
0.000000001
 43
0.0000000001
 40
0.0207870332238152
 40
0.0207870332238152
 40
0.0207870332238152
 40
0.0207870332238152
 40
0.021736361714668
 40
0.021736361714668
 40
0.021736361714668
 40
0.021736361714668
 10
-19.99957173053583
 20
20.00814873948785
 30
0.0
 10
-19.99956805571747
 20
20.00547682261953
 30
0.0
 10
-19.99956427498519
 20
20.0027578437036
 30
0.0
 10
-19.99956040496371
 20
20.00000098503775
 30
0.0
  0
SPLINE
  5
8164
330
8151
100
AcDbEntity
  8
0
100
AcDbSpline
210
0.0
220
0.0
230
1.0
 70
     8
 71
     3
 72
    18
 73
    14
 74
     0
 42
0.000000001
 43
0.0000000001
 40
0.0359684561687482
 40
0.0359684561687482
 40
0.0359684561687482
 40
0.0359684561687482
 40
0.0373929832737309
 40
0.0373929832737309
 40
0.0388269919478064
 40
0.0388269919478064
 40
0.0410736017144586
 40
0.0410736017144586
 40
0.0431426643409905
 40
0.0431426643409905
 40
0.0457467508399432
 40
0.0457467508399432
 40
0.0477385101827034
 40
0.0477385101827034
 40
0.0477385101827034
 40
0.0477385101827034
 10
-19.99807360884706
 20
20.10207149775327
 30
0.0
 10
-19.99810813531204
 20
20.09992905769872
 30
0.0
 10
-19.99814774219069
 20
20.09746140375775
 30
0.0
 10
-19.99823833708433
 20
20.09179800945208
 30
0.0
 10
-19.99828987722702
 20
20.08856808652771
 30
0.0
 10
-19.99843588989436
 20
20.07940949995408
 30
0.0
 10
-19.99854061045277
 20
20.07283556167885
 30
0.0
 10
-19.99875345136439
 20
20.05949165235505
 30
0.0
 10
-19.99886231674281
 20
20.05267340613152
 30
0.0
 10
-19.9991089127029
 20
20.03722801496458
 30
0.0
 10
-19.99924874599924
 20
20.02846688900817
 30
0.0
 10
-19.99949198844916
 20
20.01317857638572
 30
0.0
 10
-19.99959685213543
 20
20.00657160991035
 30
0.0
 10
-19.99970085685768
 20
19.99999583904442
 30
0.0
  0
SPLINE
  5
8165
330
8151
100
AcDbEntity
  8
0
100
AcDbSpline
210
0.0
220
0.0
230
1.0
 70
     8
 71
     3
 72
    12
 73
     8
 74
     0
 42
0.000000001
 43
0.0000000001
 40
0.0138145557890914
 40
0.0138145557890914
 40
0.0138145557890914
 40
0.0138145557890914
 40
0.0169919968576929
 40
0.0169919968576929
 40
0.01893845710492
 40
0.01893845710492
 40
0.0215156435851791
 40
0.0215156435851791
 40
0.0215156435851791
 40
0.0215156435851791
 10
-19.99988626658528
 20
20.02594036135059
 30
0.0
 10
-19.99988626662721
 20
20.02594034783602
 30
0.0
 10
-19.99989009834171
 20
20.02472196574577
 30
0.0
 10
-19.99990126040597
 20
20.0201654063526
 30
0.0
 10
-19.99990666432457
 20
20.01781765278403
 30
0.0
 10
-19.99992101848977
 20
20.01095157767049
 30
0.0
 10
-19.99993065650858
 20
20.0058946194993
 30
0.0
 10
-19.99994094388029
 20
19.9999998232092
 30
0.0
  0
SPLINE
  5
8166
330
8151
100
AcDbEntity
  8
0
100
AcDbSpline
210
0.0
220
0.0
230
1.0
 70
     8
 71
     3
 72
    16
 73
    12
 74
     0
 42
0.000000001
 43
0.0000000001
 40
0.0
 40
0.0
 40
0.0
 40
0.0
 40
0.0041155302663056
 40
0.0041155302663056
 40
0.005067054513564
 40
0.005067054513564
 40
0.0058961082056302
 40
0.0058961082056302
 40
0.0067239029444364
 40
0.0067239029444364
 40
0.0081602309621148
 40
0.0081602309621148
 40
0.0081602309621148
 40
0.0081602309621148
 10
-22.00007431648746
 20
19.99999917427211
 30
0.0
 10
-22.00005235609191
 20
20.01348479904584
 30
0.0
 10
-22.00007089900972
 20
20.02744093138969
 30
0.0
 10
-22.00015521286211
 20
20.04264729889751
 30
0.0
 10
-22.00017335750545
 20
20.04537593648075
 30
0.0
 10
-22.00020680984236
 20
20.04980988883089
 30
0.0
 10
-22.00022232777401
 20
20.05163102599695
 30
0.0
 10
-22.00024915680036
 20
20.05457794871583
 30
0.0
 10
-22.00026067843571
 20
20.05573423541851
 30
0.0
 10
-22.00028457422519
 20
20.05805422089069
 30
0.0
 10
-22.00029164702544
 20
20.05864902335229
 30
0.0
 10
-22.00029164702534
 20
20.05864902334363
 30
0.0
  0
SPLINE
  5
8167
330
8151
100
AcDbEntity
  8
0
100
AcDbSpline
210
0.0
220
0.0
230
1.0
 70
     8
 71
     3
 72
    18
 73
    14
 74
     0
 42
0.000000001
 43
0.0000000001
 40
0.0
 40
0.0
 40
0.0
 40
0.0
 40
0.0020459368624585
 40
0.0020459368624585
 40
0.0037107200171502
 40
0.0037107200171502
 40
0.004788994762146
 40
0.004788994762146
 40
0.0054061503914835
 40
0.0054061503914835
 40
0.005671644654084
 40
0.005671644654084
 40
0.0057661326325687
 40
0.0057661326325687
 40
0.0057661326325687
 40
0.0057661326325687
 10
-22.00000948701016
 20
19.99999731133813
 30
0.0
 10
-22.00000131156572
 20
20.00668899520434
 30
0.0
 10
-22.00000211538595
 20
20.01334987450557
 30
0.0
 10
-22.00001995704393
 20
20.02478359384626
 30
0.0
 10
-22.00003405150246
 20
20.02972498113347
 30
0.0
 10
-22.00006334484438
 20
20.0370691807246
 30
0.0
 10
-22.00007727568523
 20
20.03991982621786
 30
0.0
 10
-22.0000960443522
 20
20.04334298147835
 30
0.0
 10
-22.00010218026496
 20
20.04437261635159
 30
0.0
 10
-22.0001071611195
 20
20.04519221651655
 30
0.0
 10
-22.00010818427912
 20
20.04535743647124
 30
0.0
 10
-22.00010876161473
 20
20.04545062775386
 30
0.0
 10
-22.00010883935327
 20
20.04546313692481
 30
0.0
 10
-22.00010883933658
 20
20.0454631342385
 30
0.0
  0
SPLINE
  5
8168
330
8151
100
AcDbEntity
  8
0
100
AcDbSpline
210
0.0
220
0.0
230
1.0
 70
     8
 71
     3
 72
     8
 73
     4
 74
     0
 42
0.000000001
 43
0.0000000001
 40
0.0
 40
0.0
 40
0.0
 40
0.0
 40
0.0007418607960557
 40
0.0007418607960557
 40
0.0007418607960557
 40
0.0007418607960557
 10
-22.00001228471715
 20
20.00000000012475
 30
0.0
 10
-22.0000082358623
 20
20.0015434430131
 30
0.0
 10
-22.00000413094274
 20
20.00315737487789
 30
0.0
 10
-21.99999999999997
 20
20.00483820458913
 30
0.0
  0
SPLINE
  5
8169
330
8151
100
AcDbEntity
  8
0
100
AcDbSpline
210
0.0
220
0.0
230
1.0
 70
     8
 71
     3
 72
     8
 73
     4
 74
     0
 42
0.000000001
 43
0.0000000001
 40
0.2821157138927792
 40
0.2821157138927792
 40
0.2821157138927792
 40
0.2821157138927792
 40
0.2827891218691145
 40
0.2827891218691145
 40
0.2827891218691145
 40
0.2827891218691145
 10
-24.60168882156187
 20
22.55889777753891
 30
0.0
 10
-24.60321178746092
 20
22.56012103500314
 30
0.0
 10
-24.6046865534829
 20
22.56130689513806
 30
0.0
 10
-24.60610302684223
 20
22.56244731317945
 30
0.0
  0
SPLINE
  5
816A
330
8151
100
AcDbEntity
  8
0
100
AcDbSpline
210
0.0
220
0.0
230
1.0
 70
     8
 71
     3
 72
     8
 73
     4
 74
     0
 42
0.000000001
 43
0.0000000001
 40
0.0184886372102717
 40
0.0184886372102717
 40
0.0184886372102717
 40
0.0184886372102717
 40
0.0189064924625725
 40
0.0189064924625725
 40
0.0189064924625725
 40
0.0189064924625725
 10
-24.60495654410768
 20
22.56158945169392
 30
0.0
 10
-24.60533777059077
 20
22.56188468360953
 30
0.0
 10
-24.6057152472952
 20
22.56217700713742
 30
0.0
 10
-24.60608748745353
 20
22.56246529873236
 30
0.0
  0
ARC
  5
816B
330
8151
100
AcDbEntity
  8
0
100
AcDbCircle
 10
-17.99999999999998
 20
2.0
 30
0.0
 40
4.000000000000001
100
AcDbArc
 50
180.0
 51
270.0
  0
ARC
  5
816C
330
8151
100
AcDbEntity
  8
0
100
AcDbCircle
 10
-17.99999999999998
 20
2.0
 30
0.0
 40
1.999999999999999
100
AcDbArc
 50
180.0
 51
270.0
  0
ARC
  5
816D
330
8151
100
AcDbEntity
  8
0
100
AcDbCircle
 10
17.99999999999998
 20
2.0
 30
0.0
 40
4.000000000000001
100
AcDbArc
 50
270.0
 51
0.0
  0
LINE
  5
816E
330
8151
100
AcDbEntity
  8
0
100
AcDbLine
 10
24.60606060606061
 20
22.56249999999993
 30
0.0
 11
61.50000000000004
 21
52.99999999999997
 31
0.0
  0
LINE
  5
816F
330
8151
100
AcDbEntity
  8
0
100
AcDbLine
 10
19.99999999999998
 20
20.0
 30
0.0
 11
19.99999999999999
 21
52.99999999999997
 31
0.0
  0
LINE
  5
8170
330
8151
100
AcDbEntity
  8
0
100
AcDbLine
 10
21.99999999999998
 20
20.0
 30
0.0
 11
19.99999999999998
 21
20.0
 31
0.0
  0
LINE
  5
8171
330
8151
100
AcDbEntity
  8
0
100
AcDbLine
 10
21.99999999999999
 20
52.99999999999997
 30
0.0
 11
21.99999999999998
 21
20.0
 31
0.0
  0
LINE
  5
8172
330
8151
100
AcDbEntity
  8
0
100
AcDbLine
 10
21.99999999999999
 20
52.99999999999997
 30
0.0
 11
19.99999999999999
 21
52.99999999999997
 31
0.0
  0
LINE
  5
8173
330
8151
100
AcDbEntity
  8
0
100
AcDbLine
 10
19.99999999999999
 20
52.99999999999997
 30
0.0
 11
19.99999999999999
 21
150.0
 31
0.0
  0
LINE
  5
8174
330
8151
100
AcDbEntity
  8
0
100
AcDbLine
 10
21.99999999999999
 20
150.0
 30
0.0
 11
21.99999999999999
 21
52.99999999999997
 31
0.0
  0
LINE
  5
8175
330
8151
100
AcDbEntity
  8
0
100
AcDbLine
 10
19.99999999999999
 20
150.0
 30
0.0
 11
21.99999999999999
 21
150.0
 31
0.0
  0
LINE
  5
8176
330
8151
100
AcDbEntity
  8
0
100
AcDbLine
 10
21.99999999999998
 20
20.0
 30
0.0
 11
21.99999999999999
 21
1.999999999999999
 31
0.0
  0
LINE
  5
8177
330
8151
100
AcDbEntity
  8
0
100
AcDbLine
 10
19.99999999999998
 20
2.0
 30
0.0
 11
19.99999999999998
 21
20.0
 31
0.0
  0
ARC
  5
8178
330
8151
100
AcDbEntity
  8
0
100
AcDbCircle
 10
17.99999999999998
 20
2.0
 30
0.0
 40
1.999999999999999
100
AcDbArc
 50
270.0
 51
0.0
  0
LINE
  5
8179
330
8151
100
AcDbEntity
  8
0
100
AcDbLine
 10
23.99999999999999
 20
150.0
 30
0.0
 11
22.0
 21
150.0
 31
0.0
  0
LINE
  5
817A
330
8151
100
AcDbEntity
  8
0
100
AcDbLine
 10
61.50000000000004
 20
52.99999999999997
 30
0.0
 11
61.5
 21
150.0
 31
0.0
  0
LINE
  5
817B
330
8151
100
AcDbEntity
  8
0
100
AcDbLine
 10
61.5
 20
150.0
 30
0.0
 11
23.99999999999999
 21
150.0
 31
0.0
  0
CIRCLE
  5
817C
330
8151
100
AcDbEntity
  8
0
100
AcDbCircle
 10
42.0
 20
130.0
 30
0.0
 40
6.5
  0
CIRCLE
  5
817D
330
8151
100
AcDbEntity
  8
0
100
AcDbCircle
 10
53.0
 20
135.0
 30
0.0
 40
2.5
  0
LINE
  5
817E
330
8151
100
AcDbEntity
  8
0
100
AcDbLine
 10
-61.50000000000004
 20
52.99999999999997
 30
0.0
 11
-24.60606060606061
 21
22.56249999999993
 31
0.0
  0
LINE
  5
817F
330
8151
100
AcDbEntity
  8
0
100
AcDbLine
 10
-19.99999999999999
 20
52.99999999999997
 30
0.0
 11
-19.99999999999998
 21
20.0
 31
0.0
  0
LINE
  5
8180
330
8151
100
AcDbEntity
  8
0
100
AcDbLine
 10
-21.99999999999999
 20
52.99999999999997
 30
0.0
 11
-19.99999999999999
 21
52.99999999999997
 31
0.0
  0
LINE
  5
8181
330
8151
100
AcDbEntity
  8
0
100
AcDbLine
 10
-21.99999999999998
 20
20.0
 30
0.0
 11
-21.99999999999999
 21
52.99999999999997
 31
0.0
  0
LINE
  5
8182
330
8151
100
AcDbEntity
  8
0
100
AcDbLine
 10
-19.99999999999998
 20
20.0
 30
0.0
 11
-21.99999999999998
 21
20.0
 31
0.0
  0
LINE
  5
8183
330
8151
100
AcDbEntity
  8
0
100
AcDbLine
 10
-19.99999999999999
 20
150.0
 30
0.0
 11
-19.99999999999999
 21
52.99999999999997
 31
0.0
  0
LINE
  5
8184
330
8151
100
AcDbEntity
  8
0
100
AcDbLine
 10
-21.99999999999999
 20
150.0
 30
0.0
 11
-19.99999999999999
 21
150.0
 31
0.0
  0
LINE
  5
8185
330
8151
100
AcDbEntity
  8
0
100
AcDbLine
 10
-21.99999999999999
 20
52.99999999999997
 30
0.0
 11
-21.99999999999999
 21
150.0
 31
0.0
  0
CIRCLE
  5
8186
330
8151
100
AcDbEntity
  8
0
100
AcDbCircle
 10
-42.0
 20
60.0
 30
0.0
 40
6.5
  0
CIRCLE
  5
8187
330
8151
100
AcDbEntity
  8
0
100
AcDbCircle
 10
42.0
 20
60.0
 30
0.0
 40
6.5
  0
CIRCLE
  5
8188
330
8151
100
AcDbEntity
  8
0
100
AcDbCircle
 10
-42.0
 20
130.0
 30
0.0
 40
6.5
  0
CIRCLE
  5
8189
330
8151
100
AcDbEntity
  8
0
100
AcDbCircle
 10
-31.0
 20
45.0
 30
0.0
 40
2.5
  0
CIRCLE
  5
818A
330
8151
100
AcDbEntity
  8
0
100
AcDbCircle
 10
-31.0
 20
65.0
 30
0.0
 40
2.5
  0
CIRCLE
  5
818B
330
8151
100
AcDbEntity
  8
0
100
AcDbCircle
 10
-31.0
 20
85.0
 30
0.0
 40
2.5
  0
CIRCLE
  5
818C
330
8151
100
AcDbEntity
  8
0
100
AcDbCircle
 10
-31.0
 20
105.0
 30
0.0
 40
2.5
  0
CIRCLE
  5
818D
330
8151
100
AcDbEntity
  8
0
100
AcDbCircle
 10
-31.0
 20
125.0
 30
0.0
 40
2.5
  0
CIRCLE
  5
818E
330
8151
100
AcDbEntity
  8
0
100
AcDbCircle
 10
31.0
 20
45.0
 30
0.0
 40
2.5
  0
CIRCLE
  5
818F
330
8151
100
AcDbEntity
  8
0
100
AcDbCircle
 10
31.0
 20
65.0
 30
0.0
 40
2.5
  0
CIRCLE
  5
8190
330
8151
100
AcDbEntity
  8
0
100
AcDbCircle
 10
31.0
 20
85.0
 30
0.0
 40
2.5
  0
CIRCLE
  5
8191
330
8151
100
AcDbEntity
  8
0
100
AcDbCircle
 10
31.0
 20
105.0
 30
0.0
 40
2.5
  0
CIRCLE
  5
8192
330
8151
100
AcDbEntity
  8
0
100
AcDbCircle
 10
31.0
 20
125.0
 30
0.0
 40
2.5
  0
CIRCLE
  5
8193
330
8151
100
AcDbEntity
  8
0
100
AcDbCircle
 10
-31.0
 20
145.0
 30
0.0
 40
2.5
  0
CIRCLE
  5
8194
330
8151
100
AcDbEntity
  8
0
100
AcDbCircle
 10
31.0
 20
145.0
 30
0.0
 40
2.5
  0
CIRCLE
  5
8195
330
8151
100
AcDbEntity
  8
0
100
AcDbCircle
 10
-53.0
 20
55.0
 30
0.0
 40
2.5
  0
CIRCLE
  5
8196
330
8151
100
AcDbEntity
  8
0
100
AcDbCircle
 10
-53.0
 20
75.0
 30
0.0
 40
2.5
  0
CIRCLE
  5
8197
330
8151
100
AcDbEntity
  8
0
100
AcDbCircle
 10
-53.0
 20
95.0
 30
0.0
 40
2.5
  0
CIRCLE
  5
8198
330
8151
100
AcDbEntity
  8
0
100
AcDbCircle
 10
-53.0
 20
115.0
 30
0.0
 40
2.5
  0
CIRCLE
  5
8199
330
8151
100
AcDbEntity
  8
0
100
AcDbCircle
 10
53.0
 20
55.0
 30
0.0
 40
2.5
  0
CIRCLE
  5
819A
330
8151
100
AcDbEntity
  8
0
100
AcDbCircle
 10
53.0
 20
75.0
 30
0.0
 40
2.5
  0
CIRCLE
  5
819B
330
8151
100
AcDbEntity
  8
0
100
AcDbCircle
 10
53.0
 20
95.0
 30
0.0
 40
2.5
  0
CIRCLE
  5
819C
330
8151
100
AcDbEntity
  8
0
100
AcDbCircle
 10
53.0
 20
115.0
 30
0.0
 40
2.5
  0
CIRCLE
  5
819D
330
8151
100
AcDbEntity
  8
0
100
AcDbCircle
 10
-53.0
 20
135.0
 30
0.0
 40
2.5
  0
LINE
  5
819E
330
8151
100
AcDbEntity
  8
0
100
AcDbLine
 10
-61.5
 20
150.0
 30
0.0
 11
-23.99999999999999
 21
150.0
 31
0.0
  0
LINE
  5
819F
330
8151
100
AcDbEntity
  8
0
100
AcDbLine
 10
-61.50000000000004
 20
52.99999999999997
 30
0.0
 11
-61.5
 21
150.0
 31
0.0
  0
LINE
  5
81A0
330
8151
100
AcDbEntity
  8
0
100
AcDbLine
 10
-19.99999999999998
 20
2.0
 30
0.0
 11
-19.99999999999998
 21
20.0
 31
0.0
  0
LINE
  5
81A1
330
8151
100
AcDbEntity
  8
0
100
AcDbLine
 10
-21.99999999999998
 20
20.0
 30
0.0
 11
-21.99999999999999
 21
1.999999999999999
 31
0.0
  0
LINE
  5
81A2
330
8151
100
AcDbEntity
  8
0
100
AcDbLine
 10
-23.99999999999999
 20
150.0
 30
0.0
 11
-22.0
 21
150.0
 31
0.0
  0
ENDBLK
  5
8153
330
8151
100
AcDbEntity
  8
0
100
AcDbBlockEnd
  0
BLOCK
  5
81A4
330
81A3
100
AcDbEntity
  8
0
100
AcDbBlockBegin
  2
SAE340_40_2-Left
 70
     0
 10
0.0
 20
0.0
 30
0.0
  3
SAE340_40_2-Left
  1

  0
LINE
  5
81A6
330
81A3
100
AcDbEntity
  8
0
100
AcDbLine
 10
2.000000000000004
 20
-2.0
 30
0.0
 11
86.00000000000001
 21
-2.000000000000001
 31
0.0
  0
LINE
  5
81A7
330
81A3
100
AcDbEntity
  8
0
100
AcDbLine
 10
2.000000000000011
 20
2.000000000000004
 30
0.0
 11
2.000000000000004
 21
-1.999999999999999
 31
0.0
  0
LINE
  5
81A8
330
81A3
100
AcDbEntity
  8
0
100
AcDbLine
 10
86.00000000000001
 20
-2.000000000000001
 30
0.0
 11
86.00000000000001
 21
2.0
 31
0.0
  0
SPLINE
  5
81A9
330
81A3
100
AcDbEntity
  8
0
100
AcDbSpline
210
0.0
220
0.0
230
1.0
 70
     8
 71
     3
 72
    14
 73
    10
 74
     0
 42
0.000000001
 43
0.0000000001
 40
-0.481294782659702
 40
-0.481294782659702
 40
-0.481294782659702
 40
-0.481294782659702
 40
-0.3760548405765871
 40
-0.3760548405765871
 40
-0.3760548405765871
 40
-0.0764956636455704
 40
-0.0764956636455704
 40
-0.0764956636455704
 40
0.0
 40
0.0
 40
0.0
 40
0.0
 10
0.9453931030618331
 20
21.73176443993282
 30
0.0
 10
0.8407778630352829
 20
21.76869255411077
 30
0.0
 10
0.7370280984491857
 20
21.80056667971822
 30
0.0
 10
0.6387472629625419
 20
21.83427526821927
 30
0.0
 10
0.3589967651599087
 20
21.93022474165117
 30
0.0
 10
0.1216595940256014
 20
22.04007652481787
 30
0.0
 10
0.0342334975218076
 20
22.31452405591219
 30
0.0
 10
0.0119083017440817
 20
22.38460719020983
 30
0.0
 10
0.0000045433204813
 20
22.46773705178555
 30
0.0
 10
0.0000000001152107
 20
22.56250000004
 30
0.0
  0
SPLINE
  5
81AA
330
81A3
100
AcDbEntity
  8
0
100
AcDbSpline
210
0.0
220
0.0
230
1.0
 70
     8
 71
     3
 72
    14
 73
    10
 74
     0
 42
0.000000001
 43
0.0000000001
 40
0.0
 40
0.0
 40
0.0
 40
0.0
 40
0.3435185598351
 40
0.3435185598351
 40
0.3435185598351
 40
0.7570138388812016
 40
0.7570138388812016
 40
0.7570138388812016
 40
1.0
 40
1.0
 40
1.0
 40
1.0
 10
2.0
 20
22.56249999999992
 30
0.0
 10
2.000036880043579
 20
22.30249346331844
 30
0.0
 10
1.996834397684407
 20
22.07528977168927
 30
0.0
 10
1.998675842003746
 20
21.8440744715912
 30
0.0
 10
2.000892399190753
 20
21.56575927639572
 30
0.0
 10
2.001069140211149
 20
21.27136286302857
 30
0.0
 10
2.001123280650658
 20
20.85786784786089
 30
0.0
 10
2.001155095711734
 20
20.61488184180747
 30
0.0
 10
2.000250522858973
 20
20.35819175053794
 30
0.0
 10
1.999999999992541
 20
20.00000000165264
 30
0.0
  0
LINE
  5
81AB
330
81A3
100
AcDbEntity
  8
0
100
AcDbLine
 10
0.0
 20
22.56249999999992
 30
0.0
 11
2.0
 21
22.56249999999992
 31
0.0
  0
SPLINE
  5
81AC
330
81A3
100
AcDbEntity
  8
0
100
AcDbSpline
210
0.0
220
0.0
230
1.0
 70
     8
 71
     3
 72
    18
 73
    14
 74
     0
 42
0.000000001
 43
0.0000000001
 40
0.0
 40
0.0
 40
0.0
 40
0.0
 40
0.00487296713727
 40
0.00487296713727
 40
0.007035382119663
 40
0.007035382119663
 40
0.0087994749874718
 40
0.0087994749874718
 40
0.010213938869979
 40
0.010213938869979
 40
0.0113405492799439
 40
0.0113405492799439
 40
0.0120695907493432
 40
0.0120695907493432
 40
0.0120695907493432
 40
0.0120695907493432
 10
1.999551536423659
 20
19.99999857008372
 30
0.0
 10
1.999501455261119
 20
20.01555893162755
 30
0.0
 10
1.99939931123771
 20
20.03064387495308
 30
0.0
 10
1.99920374048792
 20
20.04934394062788
 30
0.0
 10
1.999136854850767
 20
20.05473692732245
 30
0.0
 10
1.999013998696431
 20
20.06343421114771
 30
0.0
 10
1.998957798438285
 20
20.06697466864014
 30
0.0
 10
1.998866163903316
 20
20.07230596051661
 30
0.0
 10
1.998828540631285
 20
20.07432314511707
 30
0.0
 10
1.998775561642673
 20
20.07703972280939
 30
0.0
 10
1.998757115883514
 20
20.07793180565764
 30
0.0
 10
1.998739470220913
 20
20.07876888588605
 30
0.0
 10
1.998735706105027
 20
20.0789405827378
 30
0.0
 10
1.998735706096191
 20
20.07894058314136
 30
0.0
  0
SPLINE
  5
81AD
330
81A3
100
AcDbEntity
  8
0
100
AcDbSpline
210
0.0
220
0.0
230
1.0
 70
     8
 71
     3
 72
    12
 73
     8
 74
     0
 42
0.000000001
 43
0.0000000001
 40
0.006323916858279
 40
0.006323916858279
 40
0.006323916858279
 40
0.006323916858279
 40
0.0066536744744875
 40
0.0066536744744875
 40
0.0086398637345859
 40
0.0086398637345859
 40
0.0087253469335147
 40
0.0087253469335147
 40
0.0087253469335147
 40
0.0087253469335147
 10
1.99939905435584
 20
20.0285775907924
 30
0.0
 10
1.999392884239449
 20
20.0288412781502
 30
0.0
 10
1.999387053970908
 20
20.02908879962197
 30
0.0
 10
1.999348675826249
 20
20.03070956771889
 30
0.0
 10
1.999329089675971
 20
20.03149445615215
 30
0.0
 10
1.99932749932698
 20
20.03155858684267
 30
0.0
 10
1.999327466376172
 20
20.03155991425769
 30
0.0
 10
1.999327466390286
 20
20.0315599136891
 30
0.0
  0
SPLINE
  5
81AE
330
81A3
100
AcDbEntity
  8
0
100
AcDbSpline
210
0.0
220
0.0
230
1.0
 70
     8
 71
     3
 72
    32
 73
    28
 74
     0
 42
0.000000001
 43
0.0000000001
 40
0.0045647129659113
 40
0.0045647129659113
 40
0.0045647129659113
 40
0.0045647129659113
 40
0.0070673478343219
 40
0.0070673478343219
 40
0.0097302523116563
 40
0.0097302523116563
 40
0.0113867362557592
 40
0.0113867362557592
 40
0.0131313856230049
 40
0.0131313856230049
 40
0.0155636926249087
 40
0.0155636926249087
 40
0.0212052865479858
 40
0.0212052865479858
 40
0.0381194971209068
 40
0.0381194971209068
 40
0.0891487782089318
 40
0.0891487782089318
 40
0.1164039096038363
 40
0.1164039096038363
 40
0.1533844622799164
 40
0.1533844622799164
 40
0.1869859083046021
 40
0.1869859083046021
 40
0.2293223962007879
 40
0.2293223962007879
 40
0.244695393280984
 40
0.244695393280984
 40
0.244695393280984
 40
0.244695393280984
 10
1.999436008012788
 20
20.02343351941286
 30
0.0
 10
1.999332404455781
 20
20.02730053128198
 30
0.0
 10
1.999227682542725
 20
20.03099629516182
 30
0.0
 10
1.998981968476473
 20
20.03919370908607
 30
0.0
 10
1.998837961935788
 20
20.04380822096642
 30
0.0
 10
1.998501723929641
 20
20.05367272467071
 30
0.0
 10
1.998344226485291
 20
20.05811386824281
 30
0.0
 10
1.997972214973761
 20
20.0679862704199
 30
0.0
 10
1.997753619572895
 20
20.07349135440247
 30
0.0
 10
1.99719039766402
 20
20.08684376378834
 30
0.0
 10
1.996826631615511
 20
20.09485280946432
 30
0.0
 10
1.995525627735037
 20
20.12144433114806
 30
0.0
 10
1.994458470458627
 20
20.14020064445599
 30
0.0
 10
1.989568500933573
 20
20.21499701331933
 30
0.0
 10
1.984487834884985
 20
20.27097240550918
 30
0.0
 10
1.957792708428473
 20
20.49421325906347
 30
0.0
 10
1.923086046614041
 20
20.66276590271849
 30
0.0
 10
1.836502518361027
 20
20.90877550168137
 30
0.0
 10
1.799737010347645
 20
20.9926557859066
 30
0.0
 10
1.698972351743356
 20
21.17634306256434
 30
0.0
 10
1.628286281102403
 20
21.27300412460476
 30
0.0
 10
1.483812342171011
 20
21.42613744085929
 30
0.0
 10
1.409906468518036
 20
21.48742802622257
 30
0.0
 10
1.242073816962276
 20
21.60220040499533
 30
0.0
 10
1.146003947868901
 20
21.65141674754512
 30
0.0
 10
1.013489405978403
 20
21.70647586335505
 30
0.0
 10
0.9779533314943465
 20
21.71998987692894
 30
0.0
 10
0.9420664873567385
 20
21.73260544764638
 30
0.0
  0
LINE
  5
81AF
330
81A3
100
AcDbEntity
  8
0
100
AcDbLine
 10
2.000000000000011
 20
2.000000000000003
 30
0.0
 11
2.000000000000011
 21
20.0
 31
0.0
  0
LINE
  5
81B0
330
81A3
100
AcDbEntity
  8
0
100
AcDbLine
 10
1.999999999999992
 20
52.99999999999997
 30
0.0
 11
2.0
 21
22.56249999999993
 31
0.0
  0
LINE
  5
81B1
330
81A3
100
AcDbEntity
  8
0
100
AcDbLine
 10
0.0
 20
52.99999999999997
 30
0.0
 11
1.999999999999992
 21
52.99999999999997
 31
0.0
  0
LINE
  5
81B2
330
81A3
100
AcDbEntity
  8
0
100
AcDbLine
 10
0.0
 20
22.56249999999992
 30
0.0
 11
0.0
 21
52.99999999999997
 31
0.0
  0
LINE
  5
81B3
330
81A3
100
AcDbEntity
  8
0
100
AcDbLine
 10
86.00000000000003
 20
20.0
 30
0.0
 11
46.00000000000003
 21
52.99999999999997
 31
0.0
  0
LINE
  5
81B4
330
81A3
100
AcDbEntity
  8
0
100
AcDbLine
 10
46.00000000000003
 20
52.99999999999997
 30
0.0
 11
46.00000000000001
 21
150.0
 31
0.0
  0
LINE
  5
81B5
330
81A3
100
AcDbEntity
  8
0
100
AcDbLine
 10
1.999999999999992
 20
52.99999999999997
 30
0.0
 11
2.000000000000006
 21
150.0
 31
0.0
  0
LINE
  5
81B6
330
81A3
100
AcDbEntity
  8
0
100
AcDbLine
 10
86.00000000000003
 20
20.0
 30
0.0
 11
86.00000000000001
 21
1.999999999999999
 31
0.0
  0
LINE
  5
81B7
330
81A3
100
AcDbEntity
  8
0
100
AcDbLine
 10
4.000000000000003
 20
150.0
 30
0.0
 11
46.00000000000001
 21
150.0
 31
0.0
  0
LINE
  5
81B8
330
81A3
100
AcDbEntity
  8
0
100
AcDbLine
 10
0.0
 20
150.0
 30
0.0
 11
2.000000000000006
 21
150.0
 31
0.0
  0
LINE
  5
81B9
330
81A3
100
AcDbEntity
  8
0
100
AcDbLine
 10
0.0
 20
52.99999999999997
 30
0.0
 11
0.0
 21
150.0
 31
0.0
  0
LINE
  5
81BA
330
81A3
100
AcDbEntity
  8
0
100
AcDbLine
 10
2.000000000000007
 20
150.0
 30
0.0
 11
4.000000000000003
 21
150.0
 31
0.0
  0
CIRCLE
  5
81BB
330
81A3
100
AcDbEntity
  8
0
100
AcDbCircle
 10
38.50000000000001
 20
45.0
 30
0.0
 40
2.5
  0
CIRCLE
  5
81BC
330
81A3
100
AcDbEntity
  8
0
100
AcDbCircle
 10
38.50000000000001
 20
65.0
 30
0.0
 40
2.5
  0
CIRCLE
  5
81BD
330
81A3
100
AcDbEntity
  8
0
100
AcDbCircle
 10
38.50000000000001
 20
85.0
 30
0.0
 40
2.5
  0
CIRCLE
  5
81BE
330
81A3
100
AcDbEntity
  8
0
100
AcDbCircle
 10
38.50000000000001
 20
105.0
 30
0.0
 40
2.5
  0
CIRCLE
  5
81BF
330
81A3
100
AcDbEntity
  8
0
100
AcDbCircle
 10
38.50000000000001
 20
125.0
 30
0.0
 40
2.5
  0
CIRCLE
  5
81C0
330
81A3
100
AcDbEntity
  8
0
100
AcDbCircle
 10
38.50000000000001
 20
145.0
 30
0.0
 40
2.5
  0
ENDBLK
  5
81A5
330
81A3
100
AcDbEntity
  8
0
100
AcDbBlockEnd
  0
BLOCK
  5
81C2
330
81C1
100
AcDbEntity
  8
0
100
AcDbBlockBegin
  2
SAE340_40_2-Right
 70
     0
 10
0.0
 20
0.0
 30
0.0
  3
SAE340_40_2-Right
  1

  0
SPLINE
  5
81C4
330
81C1
100
AcDbEntity
  8
0
100
AcDbSpline
210
0.0
220
0.0
230
1.0
 70
     8
 71
     3
 72
    14
 73
    10
 74
     0
 42
0.000000001
 43
0.0000000001
 40
0.0
 40
0.0
 40
0.0
 40
0.0
 40
0.3435185598351
 40
0.3435185598351
 40
0.3435185598351
 40
0.7570138388812016
 40
0.7570138388812016
 40
0.7570138388812016
 40
1.0
 40
1.0
 40
1.0
 40
1.0
 10
-2.0
 20
22.56249999999992
 30
0.0
 10
-2.000036880043579
 20
22.30249346331844
 30
0.0
 10
-1.996834397684407
 20
22.07528977168927
 30
0.0
 10
-1.998675842003746
 20
21.8440744715912
 30
0.0
 10
-2.000892399190753
 20
21.56575927639572
 30
0.0
 10
-2.001069140211149
 20
21.27136286302857
 30
0.0
 10
-2.001123280650658
 20
20.85786784786089
 30
0.0
 10
-2.001155095711734
 20
20.61488184180747
 30
0.0
 10
-2.000250522858973
 20
20.35819175053794
 30
0.0
 10
-1.999999999992541
 20
20.00000000165264
 30
0.0
  0
SPLINE
  5
81C5
330
81C1
100
AcDbEntity
  8
0
100
AcDbSpline
210
0.0
220
0.0
230
1.0
 70
     8
 71
     3
 72
    14
 73
    10
 74
     0
 42
0.000000001
 43
0.0000000001
 40
-0.4812947826596781
 40
-0.4812947826596781
 40
-0.4812947826596781
 40
-0.4812947826596781
 40
-0.3760548405765871
 40
-0.3760548405765871
 40
-0.3760548405765871
 40
-0.0764956636455704
 40
-0.0764956636455704
 40
-0.0764956636455704
 40
0.0
 40
0.0
 40
0.0
 40
0.0
 10
-0.9453931030617617
 20
21.73176443993285
 30
0.0
 10
-0.8407778630352357
 20
21.76869255411078
 30
0.0
 10
-0.7370280984491633
 20
21.80056667971823
 30
0.0
 10
-0.6387472629625419
 20
21.83427526821927
 30
0.0
 10
-0.3589967651599087
 20
21.93022474165117
 30
0.0
 10
-0.1216595940256014
 20
22.04007652481787
 30
0.0
 10
-0.0342334975218076
 20
22.31452405591219
 30
0.0
 10
-0.0119083017440817
 20
22.38460719020983
 30
0.0
 10
-0.0000045433204813
 20
22.46773705178555
 30
0.0
 10
-0.0000000001152107
 20
22.56250000004
 30
0.0
  0
LINE
  5
81C6
330
81C1
100
AcDbEntity
  8
0
100
AcDbLine
 10
-2.0
 20
22.56249999999992
 30
0.0
 11
0.0
 21
22.56249999999992
 31
0.0
  0
SPLINE
  5
81C7
330
81C1
100
AcDbEntity
  8
0
100
AcDbSpline
210
0.0
220
0.0
230
1.0
 70
     8
 71
     3
 72
    18
 73
    14
 74
     0
 42
0.000000001
 43
0.0000000001
 40
0.0122744830591383
 40
0.0122744830591383
 40
0.0122744830591383
 40
0.0122744830591383
 40
0.0127922476613372
 40
0.0127922476613372
 40
0.014103969819161
 40
0.014103969819161
 40
0.0167552321362195
 40
0.0167552321362195
 40
0.0193828999182024
 40
0.0193828999182024
 40
0.0227949751741801
 40
0.0227949751741801
 40
0.024349680852664
 40
0.024349680852664
 40
0.024349680852664
 40
0.024349680852664
 10
-1.998735706096129
 20
20.07894058314419
 30
0.0
 10
-1.998735706096864
 20
20.0789405831106
 30
0.0
 10
-1.998737581482868
 20
20.07885499786012
 30
0.0
 10
-1.998750171843484
 20
20.07826494218483
 30
0.0
 10
-1.998770288866986
 20
20.07730702859389
 30
0.0
 10
-1.998852036455845
 20
20.07312427132863
 30
0.0
 10
-1.998935149898881
 20
20.06852994824987
 30
0.0
 10
-1.999099882285315
 20
20.05760342143535
 30
0.0
 10
-1.99918372970668
 20
20.05116828769299
 30
0.0
 10
-1.999352847325848
 20
20.03519352401887
 30
0.0
 10
-1.999433043624604
 20
20.02512813668895
 30
0.0
 10
-1.999514685041651
 20
20.00985788603381
 30
0.0
 10
-1.999535558177635
 20
20.00496305717546
 30
0.0
 10
-1.999551536423659
 20
19.99999857008372
 30
0.0
  0
SPLINE
  5
81C8
330
81C1
100
AcDbEntity
  8
0
100
AcDbSpline
210
0.0
220
0.0
230
1.0
 70
     8
 71
     3
 72
    10
 73
     6
 74
     0
 42
0.000000001
 43
0.0000000001
 40
0.0086744412326957
 40
0.0086744412326957
 40
0.0086744412326957
 40
0.0086744412326957
 40
0.0108228418763617
 40
0.0108228418763617
 40
0.0110653810264768
 40
0.0110653810264768
 40
0.0110653810264768
 40
0.0110653810264768
 10
-1.999327466390163
 20
20.03155991369411
 30
0.0
 10
-1.999327466386773
 20
20.03155991383071
 30
0.0
 10
-1.999348975124938
 20
20.03070111131127
 30
0.0
 10
-1.999389896285076
 20
20.02896801300175
 30
0.0
 10
-1.999394241633896
 20
20.02878323014467
 30
0.0
 10
-1.999398770914012
 20
20.02858970286392
 30
0.0
  0
SPLINE
  5
81C9
330
81C1
100
AcDbEntity
  8
0
100
AcDbSpline
210
0.0
220
0.0
230
1.0
 70
     8
 71
     3
 72
    28
 73
    24
 74
     0
 42
0.000000001
 43
0.0000000001
 40
0.0
 40
0.0
 40
0.0
 40
0.0
 40
0.0650102908129389
 40
0.0650102908129389
 40
0.1023324561066907
 40
0.1023324561066907
 40
0.1414826668453173
 40
0.1414826668453173
 40
0.174906853775156
 40
0.174906853775156
 40
0.2169319592792959
 40
0.2169319592792959
 40
0.22855140994075
 40
0.22855140994075
 40
0.2315690563665106
 40
0.2315690563665106
 40
0.2331919919066055
 40
0.2331919919066055
 40
0.2348253005837516
 40
0.2348253005837516
 40
0.2381087445402723
 40
0.2381087445402723
 40
0.2399211410717239
 40
0.2399211410717239
 40
0.2399211410717239
 40
0.2399211410717239
 10
-0.9420664873566622
 20
21.73260544764641
 30
0.0
 10
-1.093827016652024
 20
21.67925593376607
 30
0.0
 10
-1.24236048391636
 20
21.60988808095262
 30
0.0
 10
-1.466477993041479
 20
21.44169360771135
 30
0.0
 10
-1.547435732545003
 20
21.36591310607808
 30
0.0
 10
-1.695468924303712
 20
21.18238000888799
 30
0.0
 10
-1.76307792365958
 20
21.07037577810256
 30
0.0
 10
-1.860502950922073
 20
20.85074525653143
 30
0.0
 10
-1.895818805714151
 20
20.74318475627674
 30
0.0
 10
-1.9559167269137
 20
20.4995378372598
 30
0.0
 10
-1.976610278800343
 20
20.3617427711292
 30
0.0
 10
-1.99171104284502
 20
20.18428158667499
 30
0.0
 10
-1.994294429522756
 20
20.14557044233033
 30
0.0
 10
-1.996717741705785
 20
20.09727766499738
 30
0.0
 10
-1.997175066403235
 20
20.08728935654678
 30
0.0
 10
-1.997792520308972
 20
20.07251513179871
 30
0.0
 10
-1.99799356594156
 20
20.0674263029952
 30
0.0
 10
-1.998348438880812
 20
20.05799511104128
 30
0.0
 10
-1.998503300314468
 20
20.05362629824872
 30
0.0
 10
-1.998886116817064
 20
20.0423958185209
 30
0.0
 10
-1.999047393445
 20
20.03710762384522
 30
0.0
 10
-1.99927621580346
 20
20.02926309729951
 30
0.0
 10
-1.99935699264747
 20
20.0263707644043
 30
0.0
 10
-1.999436030053933
 20
20.02341152892137
 30
0.0
  0
LINE
  5
81CA
330
81C1
100
AcDbEntity
  8
0
100
AcDbLine
 10
-2.000000000000004
 20
-2.0
 30
0.0
 11
-86.00000000000001
 21
-2.0
 31
0.0
  0
LINE
  5
81CB
330
81C1
100
AcDbEntity
  8
0
100
AcDbLine
 10
-2.000000000000011
 20
2.000000000000003
 30
0.0
 11
-2.000000000000011
 21
20.0
 31
0.0
  0
LINE
  5
81CC
330
81C1
100
AcDbEntity
  8
0
100
AcDbLine
 10
-2.000000000000011
 20
2.000000000000004
 30
0.0
 11
-2.000000000000004
 21
-1.999999999999999
 31
0.0
  0
LINE
  5
81CD
330
81C1
100
AcDbEntity
  8
0
100
AcDbLine
 10
-86.00000000000001
 20
-2.000000000000001
 30
0.0
 11
-86.00000000000001
 21
2.0
 31
0.0
  0
LINE
  5
81CE
330
81C1
100
AcDbEntity
  8
0
100
AcDbLine
 10
0.0
 20
52.99999999999997
 30
0.0
 11
0.0
 21
22.56249999999992
 31
0.0
  0
LINE
  5
81CF
330
81C1
100
AcDbEntity
  8
0
100
AcDbLine
 10
-1.999999999999992
 20
52.99999999999997
 30
0.0
 11
0.0
 21
52.99999999999997
 31
0.0
  0
LINE
  5
81D0
330
81C1
100
AcDbEntity
  8
0
100
AcDbLine
 10
-2.0
 20
22.56249999999993
 30
0.0
 11
-1.999999999999992
 21
52.99999999999997
 31
0.0
  0
LINE
  5
81D1
330
81C1
100
AcDbEntity
  8
0
100
AcDbLine
 10
0.0
 20
52.99999999999997
 30
0.0
 11
0.0
 21
150.0
 31
0.0
  0
CIRCLE
  5
81D2
330
81C1
100
AcDbEntity
  8
0
100
AcDbCircle
 10
-38.50000000000003
 20
134.9999999999999
 30
0.0
 40
2.5
  0
LINE
  5
81D3
330
81C1
100
AcDbEntity
  8
0
100
AcDbLine
 10
-46.00000000000003
 20
52.99999999999997
 30
0.0
 11
-86.00000000000003
 21
20.0
 31
0.0
  0
LINE
  5
81D4
330
81C1
100
AcDbEntity
  8
0
100
AcDbLine
 10
-46.00000000000001
 20
150.0
 30
0.0
 11
-46.00000000000003
 21
52.99999999999997
 31
0.0
  0
LINE
  5
81D5
330
81C1
100
AcDbEntity
  8
0
100
AcDbLine
 10
-86.00000000000003
 20
20.0
 30
0.0
 11
-86.00000000000001
 21
1.999999999999999
 31
0.0
  0
LINE
  5
81D6
330
81C1
100
AcDbEntity
  8
0
100
AcDbLine
 10
-4.000000000000003
 20
150.0
 30
0.0
 11
-46.00000000000001
 21
150.0
 31
0.0
  0
LINE
  5
81D7
330
81C1
100
AcDbEntity
  8
0
100
AcDbLine
 10
-2.000000000000007
 20
150.0
 30
0.0
 11
-4.000000000000003
 21
150.0
 31
0.0
  0
LINE
  5
81D8
330
81C1
100
AcDbEntity
  8
0
100
AcDbLine
 10
0.0
 20
150.0
 30
0.0
 11
-2.000000000000006
 21
150.0
 31
0.0
  0
LINE
  5
81D9
330
81C1
100
AcDbEntity
  8
0
100
AcDbLine
 10
-1.999999999999992
 20
52.99999999999997
 30
0.0
 11
-2.000000000000006
 21
150.0
 31
0.0
  0
CIRCLE
  5
81DA
330
81C1
100
AcDbEntity
  8
0
100
AcDbCircle
 10
-38.50000000000003
 20
34.99999999999999
 30
0.0
 40
2.5
  0
CIRCLE
  5
81DB
330
81C1
100
AcDbEntity
  8
0
100
AcDbCircle
 10
-38.50000000000003
 20
54.99999999999999
 30
0.0
 40
2.5
  0
CIRCLE
  5
81DC
330
81C1
100
AcDbEntity
  8
0
100
AcDbCircle
 10
-38.50000000000003
 20
74.99999999999999
 30
0.0
 40
2.5
  0
CIRCLE
  5
81DD
330
81C1
100
AcDbEntity
  8
0
100
AcDbCircle
 10
-38.50000000000003
 20
94.99999999999998
 30
0.0
 40
2.5
  0
CIRCLE
  5
81DE
330
81C1
100
AcDbEntity
  8
0
100
AcDbCircle
 10
-38.50000000000003
 20
115.0
 30
0.0
 40
2.5
  0
SPLINE
  5
81DF
330
81C1
100
AcDbEntity
  8
0
100
AcDbSpline
210
0.0
220
0.0
230
1.0
 70
     8
 71
     3
 72
    10
 73
     6
 74
     0
 42
0.000000001
 43
0.0000000001
 40
0.0218311984269792
 40
0.0218311984269792
 40
0.0218311984269792
 40
0.0218311984269792
 40
0.0227949751741801
 40
0.0227949751741801
 40
0.024349680852664
 40
0.024349680852664
 40
0.024349680852664
 40
0.024349680852664
 10
-1.999436030053934
 20
20.02341152892134
 30
0.0
 10
-1.999455521818721
 20
20.02053010480594
 30
0.0
 10
-1.999473287509375
 20
20.01760090075869
 30
0.0
 10
-1.999514685041651
 20
20.00985788603381
 30
0.0
 10
-1.999535558177635
 20
20.00496305717546
 30
0.0
 10
-1.999551536423659
 20
19.99999857008372
 30
0.0
  0
ENDBLK
  5
81C3
330
81C1
100
AcDbEntity
  8
0
100
AcDbBlockEnd
  0
BLOCK
  5
81E1
330
81E0
100
AcDbEntity
  8
0
100
AcDbBlockBegin
  2
SAE340_40_2-Top
 70
     0
 10
0.0
 20
0.0
 30
0.0
  3
SAE340_40_2-Top
  1

  0
LINE
  5
81E3
330
81E0
100
AcDbEntity
  8
0
100
AcDbLine
 10
20.0
 20
-2.000000000000007
 30
0.0
 11
20.0
 21
-2.070206720560922
 31
0.0
  0
SPLINE
  5
81E4
330
81E0
100
AcDbEntity
  8
0
100
AcDbSpline
210
0.0
220
0.0
230
1.0
 70
     8
 71
     3
 72
    11
 73
     7
 74
     0
 42
0.000000001
 43
0.0000000001
 40
-1.0
 40
-1.0
 40
-1.0
 40
-1.0
 40
-0.7994229170045873
 40
-0.7994229170045873
 40
-0.7994229170045873
 40
-0.6533567280361697
 40
-0.6533567280361697
 40
-0.6533567280361697
 40
-0.6533567280361697
 10
19.99999999999999
 20
-2.000000000000011
 30
0.0
 10
19.99999961269012
 20
-1.999093512538266
 30
0.0
 10
20.12633724887145
 20
-1.919864828372066
 30
0.0
 10
20.33609665271809
 20
-1.79067867257883
 30
0.0
 10
20.48884968044492
 20
-1.696601477106655
 30
0.0
 10
20.68838688635485
 20
-1.577384795878084
 30
0.0
 10
20.91983662718194
 20
-1.445336730391079
 30
0.0
  0
SPLINE
  5
81E5
330
81E0
100
AcDbEntity
  8
0
100
AcDbSpline
210
0.0
220
0.0
230
1.0
 70
     8
 71
     3
 72
    24
 73
    20
 74
     0
 42
0.000000001
 43
0.0000000001
 40
0.0
 40
0.0
 40
0.0
 40
0.0
 40
0.0062834381633362
 40
0.0062834381633362
 40
0.0147058050154941
 40
0.0147058050154941
 40
0.037375579479549
 40
0.037375579479549
 40
0.0501947863304063
 40
0.0501947863304063
 40
0.066726503536723
 40
0.066726503536723
 40
0.0742906734616348
 40
0.0742906734616348
 40
0.0802483922314664
 40
0.0802483922314664
 40
0.0850816717903171
 40
0.0850816717903171
 40
0.0856957592890568
 40
0.0856957592890568
 40
0.0856957592890568
 40
0.0856957592890568
 10
24.56214430295017
 20
-2.000020290751286
 30
0.0
 10
24.54700960595627
 20
-2.000021425462912
 30
0.0
 10
24.52948500193949
 20
-2.00002842579613
 30
0.0
 10
24.48709187800171
 20
-2.000060615576145
 30
0.0
 10
24.46142391778148
 20
-2.000092345612399
 30
0.0
 10
24.36626722124799
 20
-2.000257841537109
 30
0.0
 10
24.29520834435294
 20
-2.000490386305852
 30
0.0
 10
24.18816022243809
 20
-2.000912253182782
 30
0.0
 10
24.15315286476463
 20
-2.001031881989041
 30
0.0
 10
24.07005262735002
 20
-2.001571974320424
 30
0.0
 10
24.01830295956019
 20
-2.002077321670231
 30
0.0
 10
23.93976339578828
 20
-2.004016812799195
 30
0.0
 10
23.91447637081142
 20
-2.004811672121115
 30
0.0
 10
23.86944309091415
 20
-2.006675242103534
 30
0.0
 10
23.84947739854299
 20
-2.007658890935377
 30
0.0
 10
23.81421215938687
 20
-2.009735979588846
 30
0.0
 10
23.79857684685791
 20
-2.010784990560447
 30
0.0
 10
23.78191517640114
 20
-2.0120488734673
 30
0.0
 10
23.78004714311264
 20
-2.012192725394933
 30
0.0
 10
23.7781928551164
 20
-2.012337656824338
 30
0.0
  0
LINE
  5
81E6
330
81E0
100
AcDbEntity
  8
0
100
AcDbLine
 10
22.00002745113675
 20
-3.98952126947473
 30
0.0
 11
22.00002762966418
 21
-3.989575013435144
 31
0.0
  0
SPLINE
  5
81E7
330
81E0
100
AcDbEntity
  8
0
100
AcDbSpline
210
0.0
220
0.0
230
1.0
 70
     8
 71
     3
 72
    10
 73
     6
 74
     0
 42
0.000000001
 43
0.0000000001
 40
0.1085577603485344
 40
0.1085577603485344
 40
0.1085577603485344
 40
0.1085577603485344
 40
0.1101516695059244
 40
0.1101516695059244
 40
0.1184305558595092
 40
0.1184305558595092
 40
0.1184305558595092
 40
0.1184305558595092
 10
22.00193324000101
 20
-3.912084002659512
 30
0.0
 10
22.00180763343222
 20
-3.91656701657322
 30
0.0
 10
22.00168917240484
 20
-3.921129748352367
 30
0.0
 10
22.00100690419199
 20
-3.949637262832494
 30
0.0
 10
22.00066597228827
 20
-3.974616562367156
 30
0.0
 10
22.00049093536771
 20
-4.000003422698452
 30
0.0
  0
SPLINE
  5
81E8
330
81E0
100
AcDbEntity
  8
0
100
AcDbSpline
210
0.0
220
0.0
230
1.0
 70
     8
 71
     3
 72
    34
 73
    30
 74
     0
 42
0.000000001
 43
0.0000000001
 40
0.0060573451466113
 40
0.0060573451466113
 40
0.0060573451466113
 40
0.0060573451466113
 40
0.0062396275890433
 40
0.0062396275890433
 40
0.0085854494845325
 40
0.0085854494845325
 40
0.0092114547705883
 40
0.0092114547705883
 40
0.0098395007351862
 40
0.0098395007351862
 40
0.011107086354976
 40
0.011107086354976
 40
0.0161325677353193
 40
0.0161325677353193
 40
0.0230238340917158
 40
0.0230238340917158
 40
0.0436985329460442
 40
0.0436985329460442
 40
0.1057196562286302
 40
0.1057196562286302
 40
0.1638407653072209
 40
0.1638407653072209
 40
0.1927597281008808
 40
0.1927597281008808
 40
0.2073248958105478
 40
0.2073248958105478
 40
0.2152185670720714
 40
0.2152185670720714
 40
0.2235455906240149
 40
0.2235455906240149
 40
0.2235455906240149
 40
0.2235455906240149
 10
19.99996686903175
 20
-3.998253347920595
 30
0.0
 10
19.99996617742268
 20
-3.998213467824079
 30
0.0
 10
19.99996545956076
 20
-3.998172074679418
 30
0.0
 10
19.99995509313524
 20
-3.997574334056896
 30
0.0
 10
19.99994443507995
 20
-3.996962300549379
 30
0.0
 10
19.99989591809034
 20
-3.994156876097499
 30
0.0
 10
19.99988322465303
 20
-3.993422388108763
 30
0.0
 10
19.99985080953163
 20
-3.991542732979477
 30
0.0
 10
19.9998307633567
 20
-3.990378639357023
 30
0.0
 10
19.99976099029241
 20
-3.986314363494865
 30
0.0
 10
19.99970188666865
 20
-3.982854627302867
 30
0.0
 10
19.99940248716798
 20
-3.965183580928628
 30
0.0
 10
19.99914316791704
 20
-3.949428682115079
 30
0.0
 10
19.99856514048261
 20
-3.913032004350739
 30
0.0
 10
19.99824498297645
 20
-3.891874787832359
 30
0.0
 10
19.99703173014637
 20
-3.807359078252914
 30
0.0
 10
19.99627370689031
 20
-3.744134152008689
 30
0.0
 10
19.99386231242478
 20
-3.493678450905726
 30
0.0
 10
19.9934017451925
 20
-3.309149576174407
 30
0.0
 10
19.99381530991019
 20
-2.940431191876033
 30
0.0
 10
19.99468304373447
 20
-2.756409650765581
 30
0.0
 10
19.99654092977085
 20
-2.485878630902162
 30
0.0
 10
19.99716764880156
 20
-2.398113521080019
 30
0.0
 10
19.99851668877691
 20
-2.263742385682204
 30
0.0
 10
19.99906254001612
 20
-2.218423131011799
 30
0.0
 10
19.99950003660856
 20
-2.157095675298243
 30
0.0
 10
19.99957906237062
 20
-2.136930149741745
 30
0.0
 10
19.99963008120076
 20
-2.099525558767397
 30
0.0
 10
19.99960077260104
 20
-2.081027415084528
 30
0.0
 10
19.99957591650152
 20
-2.070206720560922
 30
0.0
  0
SPLINE
  5
81E9
330
81E0
100
AcDbEntity
  8
0
100
AcDbSpline
210
0.0
220
0.0
230
1.0
 70
     8
 71
     3
 72
    12
 73
     8
 74
     0
 42
0.000000001
 43
0.0000000001
 40
0.0
 40
0.0
 40
0.0
 40
0.0
 40
0.0073680638635916
 40
0.0073680638635916
 40
0.0094714794581643
 40
0.0094714794581643
 40
0.0106892344359777
 40
0.0106892344359777
 40
0.0106892344359777
 40
0.0106892344359777
 10
19.99996053853819
 20
-3.999985503002873
 30
0.0
 10
20.00000120689113
 20
-3.988738678356431
 30
0.0
 10
20.00005705426703
 20
-3.976817397465735
 30
0.0
 10
20.00011475911493
 20
-3.966829073020157
 30
0.0
 10
20.00012596496222
 20
-3.965004429878978
 30
0.0
 10
20.00013624741465
 20
-3.963340749395142
 30
0.0
 10
20.0001384322761
 20
-3.962989239719148
 30
0.0
 10
20.00013843227606
 20
-3.962989239726844
 30
0.0
  0
LINE
  5
81EA
330
81E0
100
AcDbEntity
  8
0
100
AcDbLine
 10
-20.0
 20
-2.000000000000007
 30
0.0
 11
-20.0
 21
-2.070206720560865
 31
0.0
  0
SPLINE
  5
81EB
330
81E0
100
AcDbEntity
  8
0
100
AcDbSpline
210
0.0
220
0.0
230
1.0
 70
     8
 71
     3
 72
    11
 73
     7
 74
     0
 42
0.000000001
 43
0.0000000001
 40
-1.0
 40
-1.0
 40
-1.0
 40
-1.0
 40
-0.7994229170045873
 40
-0.7994229170045873
 40
-0.7994229170045873
 40
-0.6533567280361697
 40
-0.6533567280361697
 40
-0.6533567280361697
 40
-0.6533567280361697
 10
-19.99999999999999
 20
-2.000000000000011
 30
0.0
 10
-19.99999961269012
 20
-1.999093512538266
 30
0.0
 10
-20.12633724887145
 20
-1.919864828372066
 30
0.0
 10
-20.33609665271809
 20
-1.79067867257883
 30
0.0
 10
-20.48884968044492
 20
-1.696601477106655
 30
0.0
 10
-20.68838688635485
 20
-1.577384795878084
 30
0.0
 10
-20.91983662718194
 20
-1.445336730391079
 30
0.0
  0
SPLINE
  5
81EC
330
81E0
100
AcDbEntity
  8
0
100
AcDbSpline
210
0.0
220
0.0
230
1.0
 70
     8
 71
     3
 72
    38
 73
    34
 74
     0
 42
0.000000001
 43
0.0000000001
 40
0.0
 40
0.0
 40
0.0
 40
0.0
 40
0.0038186266440261
 40
0.0038186266440261
 40
0.0092110776831755
 40
0.0092110776831755
 40
0.0200768673480347
 40
0.0200768673480347
 40
0.0329596384965383
 40
0.0329596384965383
 40
0.0591156618404447
 40
0.0591156618404447
 40
0.1345512911834962
 40
0.1345512911834962
 40
0.1766228224122841
 40
0.1766228224122841
 40
0.1976854839792823
 40
0.1976854839792823
 40
0.2080816257051902
 40
0.2080816257051902
 40
0.2107057415234707
 40
0.2107057415234707
 40
0.2126764189118297
 40
0.2126764189118297
 40
0.2137617413266093
 40
0.2137617413266093
 40
0.2143721284552075
 40
0.2143721284552075
 40
0.2152386981838823
 40
0.2152386981838823
 40
0.2164677304177941
 40
0.2164677304177941
 40
0.217512610632168
 40
0.217512610632168
 40
0.217512610632168
 40
0.217512610632168
 10
-19.99957591650152
 20
-2.070206720560865
 30
0.0
 10
-19.99958731507188
 20
-2.07516890088352
 30
0.0
 10
-19.99959979183394
 20
-2.08204232607544
 30
0.0
 10
-19.99961779112474
 20
-2.100031816300077
 30
0.0
 10
-19.99961861325109
 20
-2.11200366294103
 30
0.0
 10
-19.99954447401485
 20
-2.150334542450445
 30
0.0
 10
-19.99937038823007
 20
-2.179691941602023
 30
0.0
 10
-19.99872413986711
 20
-2.248520977946244
 30
0.0
 10
-19.99825137189055
 20
-2.288793425631411
 30
0.0
 10
-19.99709519548338
 20
-2.409489027732341
 30
0.0
 10
-19.99652475675811
 20
-2.488728512672007
 30
0.0
 10
-19.99434480627736
 20
-2.804300082420812
 30
0.0
 10
-19.99335882245659
 20
-3.043030613658381
 30
0.0
 10
-19.99374426273395
 20
-3.39922444207073
 30
0.0
 10
-19.9942665182554
 20
-3.524913321689155
 30
0.0
 10
-19.99596475147795
 20
-3.715749165822077
 30
0.0
 10
-19.99668842567533
 20
-3.77995634422581
 30
0.0
 10
-19.99801005216499
 20
-3.876351876026485
 30
0.0
 10
-19.99848642033188
 20
-3.908330479499491
 30
0.0
 10
-19.99912257936846
 20
-3.948034711629176
 30
0.0
 10
-19.99925286515746
 20
-3.956022939575371
 30
0.0
 10
-19.99948111884305
 20
-3.969786579020559
 30
0.0
 10
-19.99958025469038
 20
-3.975686900679638
 30
0.0
 10
-19.99972303457834
 20
-3.984093163431495
 30
0.0
 10
-19.99977197859978
 20
-3.986955058264475
 30
0.0
 10
-19.99983350014587
 20
-3.990537656285318
 30
0.0
 10
-19.99985267609764
 20
-3.991651049534803
 30
0.0
 10
-19.99989043467543
 20
-3.993840353960328
 30
0.0
 10
-19.99990591931492
 20
-3.994735446228726
 30
0.0
 10
-19.99993422887163
 20
-3.996371141679916
 30
0.0
 10
-19.9999439987678
 20
-3.996934480263985
 30
0.0
 10
-19.99995814470739
 20
-3.99775032406163
 30
0.0
 10
-19.99996290376868
 20
-3.99802469985939
 30
0.0
 10
-19.999966869032
 20
-3.998253347934705
 30
0.0
  0
SPLINE
  5
81ED
330
81E0
100
AcDbEntity
  8
0
100
AcDbSpline
210
0.0
220
0.0
230
1.0
 70
     8
 71
     3
 72
    14
 73
    10
 74
     0
 42
0.000000001
 43
0.0000000001
 40
0.0077867807866986
 40
0.0077867807866986
 40
0.0077867807866986
 40
0.0077867807866986
 40
0.0083979032996575
 40
0.0083979032996575
 40
0.0105249654702903
 40
0.0105249654702903
 40
0.0138644922916131
 40
0.0138644922916131
 40
0.0184801346919097
 40
0.0184801346919097
 40
0.0184801346919097
 40
0.0184801346919097
 10
-20.00013843227606
 20
-3.962989239726703
 30
0.0
 10
-20.00013843227602
 20
-3.962989239731861
 30
0.0
 10
-20.0001378850665
 20
-3.963077842453547
 30
0.0
 10
-20.00013331027615
 20
-3.963815700241946
 30
0.0
 10
-20.00012394049718
 20
-3.965314845033214
 30
0.0
 10
-20.00009364632298
 20
-3.970424767246422
 30
0.0
 10
-20.00006960355403
 20
-3.974738183047381
 30
0.0
 10
-20.00001543374205
 20
-3.985811780665693
 30
0.0
 10
-19.99998601477966
 20
-3.992940053659694
 30
0.0
 10
-19.9999605385382
 20
-3.999985503002874
 30
0.0
  0
LINE
  5
81EE
330
81E0
100
AcDbEntity
  8
0
100
AcDbLine
 10
-22.00002767570377
 20
-3.98959615521166
 30
0.0
 11
-22.00002743644385
 21
-3.98952407414148
 31
0.0
  0
SPLINE
  5
81EF
330
81E0
100
AcDbEntity
  8
0
100
AcDbSpline
210
0.0
220
0.0
230
1.0
 70
     8
 71
     3
 72
     8
 73
     4
 74
     0
 42
0.000000001
 43
0.0000000001
 40
0.0
 40
0.0
 40
0.0
 40
0.0
 40
0.0098328961452562
 40
0.0098328961452562
 40
0.0098328961452562
 40
0.0098328961452562
 10
-22.00049093536771
 20
-4.000003422698455
 30
0.0
 10
-22.0006988280465
 20
-3.969851256038599
 30
0.0
 10
-22.00115980972079
 20
-3.939688440121326
 30
0.0
 10
-22.00193324002632
 20
-3.912084001756288
 30
0.0
  0
SPLINE
  5
81F0
330
81E0
100
AcDbEntity
  8
0
100
AcDbSpline
210
0.0
220
0.0
230
1.0
 70
     8
 71
     3
 72
    22
 73
    18
 74
     0
 42
0.000000001
 43
0.0000000001
 40
0.0482163190840695
 40
0.0482163190840695
 40
0.0482163190840695
 40
0.0482163190840695
 40
0.0509981140322828
 40
0.0509981140322828
 40
0.0569754081470666
 40
0.0569754081470666
 40
0.0655197408785858
 40
0.0655197408785858
 40
0.0767721190427393
 40
0.0767721190427393
 40
0.0903671148180859
 40
0.0903671148180859
 40
0.1102392321761817
 40
0.1102392321761817
 40
0.1292954518327894
 40
0.1292954518327894
 40
0.1339206631400868
 40
0.1339206631400868
 40
0.1339206631400868
 40
0.1339206631400868
 10
-23.77819285511653
 20
-2.012337656824328
 30
0.0
 10
-23.78659164611801
 20
-2.011681206053147
 30
0.0
 10
-23.79531792540636
 20
-2.011044009134643
 30
0.0
 10
-23.82316704810605
 20
-2.009151312395431
 30
0.0
 10
-23.84302349512325
 20
-2.008007798632381
 30
0.0
 10
-23.89123820025019
 20
-2.005661044527229
 30
0.0
 10
-23.92006915209799
 20
-2.004616214355009
 30
0.0
 10
-23.98510336206348
 20
-2.002806532549245
 30
0.0
 10
-24.02144266014883
 20
-2.002204352180676
 30
0.0
 10
-24.09667311472309
 20
-2.001331199109381
 30
0.0
 10
-24.13416731162737
 20
-2.001142643718762
 30
0.0
 10
-24.22829247941081
 20
-2.00073971145944
 30
0.0
 10
-24.2921166687948
 20
-2.000484285734563
 30
0.0
 10
-24.41127173938124
 20
-2.000161538222484
 30
0.0
 10
-24.47219145958757
 20
-2.00006358733732
 30
0.0
 10
-24.53854612069323
 20
-2.000025166696218
 30
0.0
 10
-24.55100371879087
 20
-2.000021126007544
 30
0.0
 10
-24.56214430295022
 20
-2.000020290751287
 30
0.0
  0
LINE
  5
81F1
330
81E0
100
AcDbEntity
  8
0
100
AcDbLine
 10
-19.99999999999999
 20
-2.000000000000007
 30
0.0
 11
-17.99999999999999
 21
-2.000000000000004
 31
0.0
  0
LINE
  5
81F2
330
81E0
100
AcDbEntity
  8
0
100
AcDbLine
 10
-19.99999999999998
 20
-86.00000000000001
 30
0.0
 11
-17.99999999999998
 21
-86.00000000000001
 31
0.0
  0
LINE
  5
81F3
330
81E0
100
AcDbEntity
  8
0
100
AcDbLine
 10
18.0
 20
-2.000000000000004
 30
0.0
 11
-18.0
 21
-2.000000000000004
 31
0.0
  0
LINE
  5
81F4
330
81E0
100
AcDbEntity
  8
0
100
AcDbLine
 10
-17.99999999999998
 20
-86.00000000000001
 30
0.0
 11
17.99999999999998
 21
-86.00000000000001
 31
0.0
  0
CIRCLE
  5
81F5
330
81E0
100
AcDbEntity
  8
0
100
AcDbCircle
 10
0.0
 20
-47.99999999999998
 30
0.0
 40
2.5
  0
CIRCLE
  5
81F6
330
81E0
100
AcDbEntity
  8
0
100
AcDbCircle
 10
0.0
 20
-67.99999999999998
 30
0.0
 40
2.5
  0
LINE
  5
81F7
330
81E0
100
AcDbEntity
  8
0
100
AcDbLine
 10
19.99999999999999
 20
-2.000000000000007
 30
0.0
 11
17.99999999999999
 21
-2.000000000000004
 31
0.0
  0
LINE
  5
81F8
330
81E0
100
AcDbEntity
  8
0
100
AcDbLine
 10
23.99999999999999
 20
0.0
 30
0.0
 11
61.5
 21
0.0
 31
0.0
  0
ARC
  5
81F9
330
81E0
100
AcDbEntity
  8
0
100
AcDbCircle
 10
24.0
 20
-4.000000000000004
 30
0.0
 40
3.999999999999999
100
AcDbArc
 50
90.00000000000012
 51
180.0
  0
LINE
  5
81FA
330
81E0
100
AcDbEntity
  8
0
100
AcDbLine
 10
19.99999999999998
 20
-86.00000000000003
 30
0.0
 11
19.99999999999999
 21
-46.00000000000003
 31
0.0
  0
LINE
  5
81FB
330
81E0
100
AcDbEntity
  8
0
100
AcDbLine
 10
21.99999999999998
 20
-86.00000000000003
 30
0.0
 11
19.99999999999998
 21
-86.00000000000003
 31
0.0
  0
LINE
  5
81FC
330
81E0
100
AcDbEntity
  8
0
100
AcDbLine
 10
21.99999999999999
 20
-46.00000000000003
 30
0.0
 11
21.99999999999998
 21
-86.00000000000003
 31
0.0
  0
LINE
  5
81FD
330
81E0
100
AcDbEntity
  8
0
100
AcDbLine
 10
19.99999999999999
 20
-46.00000000000001
 30
0.0
 11
21.99999999999999
 21
-46.00000000000001
 31
0.0
  0
LINE
  5
81FE
330
81E0
100
AcDbEntity
  8
0
100
AcDbLine
 10
22.0
 20
-4.000000000000003
 30
0.0
 11
21.99999999999999
 21
-46.00000000000001
 31
0.0
  0
LINE
  5
81FF
330
81E0
100
AcDbEntity
  8
0
100
AcDbLine
 10
19.99999999999999
 20
-46.00000000000001
 30
0.0
 11
20.0
 21
-4.000000000000003
 31
0.0
  0
LINE
  5
8200
330
81E0
100
AcDbEntity
  8
0
100
AcDbLine
 10
19.99999999999998
 20
-86.00000000000001
 30
0.0
 11
17.99999999999998
 21
-86.00000000000001
 31
0.0
  0
ARC
  5
8201
330
81E0
100
AcDbEntity
  8
0
100
AcDbCircle
 10
24.0
 20
-4.000000000000004
 30
0.0
 40
1.999999999999997
100
AcDbArc
 50
90.00000000000026
 51
180.0
  0
LINE
  5
8202
330
81E0
100
AcDbEntity
  8
0
100
AcDbLine
 10
61.5
 20
0.0
 30
0.0
 11
61.5
 21
-2.000000000000006
 31
0.0
  0
LINE
  5
8203
330
81E0
100
AcDbEntity
  8
0
100
AcDbLine
 10
61.5
 20
-2.000000000000006
 30
0.0
 11
23.99999999999999
 21
-2.000000000000006
 31
0.0
  0
LINE
  5
8204
330
81E0
100
AcDbEntity
  8
0
100
AcDbLine
 10
-61.5
 20
-2.000000000000006
 30
0.0
 11
-23.99999999999999
 21
-2.000000000000006
 31
0.0
  0
LINE
  5
8205
330
81E0
100
AcDbEntity
  8
0
100
AcDbLine
 10
-19.99999999999999
 20
-46.00000000000001
 30
0.0
 11
-20.0
 21
-4.000000000000003
 31
0.0
  0
LINE
  5
8206
330
81E0
100
AcDbEntity
  8
0
100
AcDbLine
 10
-22.0
 20
-4.000000000000003
 30
0.0
 11
-21.99999999999999
 21
-46.00000000000001
 31
0.0
  0
LINE
  5
8207
330
81E0
100
AcDbEntity
  8
0
100
AcDbLine
 10
-23.99999999999999
 20
0.0
 30
0.0
 11
-61.5
 21
0.0
 31
0.0
  0
LINE
  5
8208
330
81E0
100
AcDbEntity
  8
0
100
AcDbLine
 10
-61.5
 20
0.0
 30
0.0
 11
-61.5
 21
-2.000000000000006
 31
0.0
  0
ARC
  5
8209
330
81E0
100
AcDbEntity
  8
0
100
AcDbCircle
 10
-24.0
 20
-4.000000000000004
 30
0.0
 40
1.999999999999997
100
AcDbArc
 50
0.0
 51
89.99999999999975
  0
ARC
  5
820A
330
81E0
100
AcDbEntity
  8
0
100
AcDbCircle
 10
-24.0
 20
-4.000000000000004
 30
0.0
 40
3.999999999999999
100
AcDbArc
 50
0.0
 51
89.99999999999987
  0
LINE
  5
820B
330
81E0
100
AcDbEntity
  8
0
100
AcDbLine
 10
-19.99999999999999
 20
-46.00000000000003
 30
0.0
 11
-19.99999999999998
 21
-86.00000000000003
 31
0.0
  0
LINE
  5
820C
330
81E0
100
AcDbEntity
  8
0
100
AcDbLine
 10
-21.99999999999998
 20
-86.00000000000003
 30
0.0
 11
-21.99999999999999
 21
-46.00000000000003
 31
0.0
  0
LINE
  5
820D
330
81E0
100
AcDbEntity
  8
0
100
AcDbLine
 10
-19.99999999999998
 20
-86.00000000000003
 30
0.0
 11
-21.99999999999998
 21
-86.00000000000003
 31
0.0
  0
LINE
  5
820E
330
81E0
100
AcDbEntity
  8
0
100
AcDbLine
 10
-21.99999999999999
 20
-46.00000000000001
 30
0.0
 11
-19.99999999999999
 21
-46.00000000000001
 31
0.0
  0
ENDBLK
  5
81E2
330
81E0
100
AcDbEntity
  8
0
100
AcDbBlockEnd
  0
BLOCK
  5
8210
330
820F
100
AcDbEntity
  8
0
100
AcDbBlockBegin
  2
SAE340_40_2-Bottom
 70
     0
 10
0.0
 20
0.0
 30
0.0
  3
SAE340_40_2-Bottom
  1

  0
SPLINE
  5
8212
330
820F
100
AcDbEntity
  8
0
100
AcDbSpline
210
0.0
220
0.0
230
1.0
 70
     8
 71
     3
 72
    14
 73
    10
 74
     0
 42
0.000000001
 43
0.0000000001
 40
0.0
 40
0.0
 40
0.0
 40
0.0
 40
0.3435185598351
 40
0.3435185598351
 40
0.3435185598351
 40
0.7570138388812016
 40
0.7570138388812016
 40
0.7570138388812016
 40
1.0
 40
1.0
 40
1.0
 40
1.0
 10
24.60606060606063
 20
2.0
 30
0.0
 10
24.28490437776446
 20
2.000036880043579
 30
0.0
 10
23.87245674613768
 20
1.996834397684407
 30
0.0
 10
23.47646184524853
 20
1.998675842003746
 30
0.0
 10
22.99980049069874
 20
2.000892399190753
 30
0.0
 10
22.53725454061463
 20
2.001069140211149
 30
0.0
 10
22.26239142279919
 20
2.001123280650658
 30
0.0
 10
22.10087099628987
 20
2.001155095711734
 30
0.0
 10
21.99999576746968
 20
2.000250522858973
 30
0.0
 10
21.99999999948838
 20
1.999999999992541
 30
0.0
  0
LINE
  5
8213
330
820F
100
AcDbEntity
  8
0
100
AcDbLine
 10
24.00008656731993
 20
2.0
 30
0.0
 11
24.00614404856876
 21
2.0
 31
0.0
  0
LINE
  5
8214
330
820F
100
AcDbEntity
  8
0
100
AcDbLine
 10
24.56214430295003
 20
2.0
 30
0.0
 11
24.60606060606061
 21
2.0
 31
0.0
  0
ARC
  5
8215
330
820F
100
AcDbEntity
  8
0
100
AcDbCircle
 10
24.0
 20
4.000000000000004
 30
0.0
 40
2.000000000000001
100
AcDbArc
 50
182.4455220557469
 51
263.5960493814518
  0
ARC
  5
8216
330
820F
100
AcDbEntity
  8
0
100
AcDbCircle
 10
24.0
 20
4.000000000000004
 30
0.0
 40
4.000000000000002
100
AcDbArc
 50
219.69282273024
 51
270.0
  0
LINE
  5
8217
330
820F
100
AcDbEntity
  8
0
100
AcDbLine
 10
24.60606060606062
 20
0.0
 30
0.0
 11
24.0
 21
0.0
 31
0.0
  0
SPLINE
  5
8218
330
820F
100
AcDbEntity
  8
0
100
AcDbSpline
210
0.0
220
0.0
230
1.0
 70
     8
 71
     3
 72
    17
 73
    13
 74
     0
 42
0.000000001
 43
0.0000000001
 40
-1.0
 40
-1.0
 40
-1.0
 40
-1.0
 40
-0.7994229170045873
 40
-0.7994229170045873
 40
-0.7994229170045873
 40
-0.3760548405765871
 40
-0.3760548405765871
 40
-0.3760548405765871
 40
-0.0764956636455704
 40
-0.0764956636455704
 40
-0.0764956636455704
 40
0.0
 40
0.0
 40
0.0
 40
0.0
 10
19.99999999999999
 20
2.000000000000011
 30
0.0
 10
19.99999961269012
 20
1.999093512538266
 30
0.0
 10
20.12633724887145
 20
1.919864828372066
 30
0.0
 10
20.33609665271809
 20
1.79067867257883
 30
0.0
 10
20.77884631281393
 20
1.517998995207308
 30
0.0
 10
21.61463513344825
 20
1.034119660990429
 30
0.0
 10
22.48133337943824
 20
0.6387472629625419
 30
0.0
 10
23.09457615250423
 20
0.3589967651599087
 30
0.0
 10
23.71786514798585
 20
0.1216595940256014
 30
0.0
 10
24.23410388676674
 20
0.0342334975218076
 30
0.0
 10
24.36593101130077
 20
0.0119083017440817
 30
0.0
 10
24.48837043646464
 20
0.0000045433204813
 30
0.0
 10
24.60606060611084
 20
0.0000000001152107
 30
0.0
  0
LINE
  5
8219
330
820F
100
AcDbEntity
  8
0
100
AcDbLine
 10
24.60606060606061
 20
2.0
 30
0.0
 11
24.60606060606061
 21
0.0
 31
0.0
  0
SPLINE
  5
821A
330
820F
100
AcDbEntity
  8
0
100
AcDbSpline
210
0.0
220
0.0
230
1.0
 70
     8
 71
     3
 72
    30
 73
    26
 74
     0
 42
0.000000001
 43
0.0000000001
 40
0.0371531975288588
 40
0.0371531975288588
 40
0.0371531975288588
 40
0.0371531975288588
 40
0.0389576292651683
 40
0.0389576292651683
 40
0.041421588584785
 40
0.041421588584785
 40
0.0438497378003537
 40
0.0438497378003537
 40
0.0468758300090676
 40
0.0468758300090676
 40
0.0509981140325297
 40
0.0509981140325297
 40
0.0569754081473974
 40
0.0569754081473974
 40
0.065519740879049
 40
0.065519740879049
 40
0.0767721190433175
 40
0.0767721190433175
 40
0.0903671148187574
 40
0.0903671148187574
 40
0.1102392321758515
 40
0.1102392321758515
 40
0.1292954518311448
 40
0.1292954518311448
 40
0.1339206631400883
 40
0.1339206631400883
 40
0.1339206631400883
 40
0.1339206631400883
 10
23.71468571207322
 20
2.018273760988558
 30
0.0
 10
23.71468571206788
 20
2.018273760989171
 30
0.0
 10
23.71540137638692
 20
2.018191408065407
 30
0.0
 10
23.71874704326339
 20
2.017819617045081
 30
0.0
 10
23.72207948279214
 20
2.017455168556177
 30
0.0
 10
23.73072359841373
 20
2.016557734562679
 30
0.0
 10
23.73604197487169
 20
2.016024329691011
 30
0.0
 10
23.74925582110426
 20
2.014769517294965
 30
0.0
 10
23.75757181516545
 20
2.014024113048354
 30
0.0
 10
23.77820419870956
 20
2.012306018678671
 30
0.0
 10
23.79105590175921
 20
2.011333667029654
 30
0.0
 10
23.82316704810873
 20
2.009151312395265
 30
0.0
 10
23.84302349512625
 20
2.008007798632215
 30
0.0
 10
23.89123820025396
 20
2.005661044527073
 30
0.0
 10
23.92006915210219
 20
2.004616214354868
 30
0.0
 10
23.98510336206835
 20
2.002806532549144
 30
0.0
 10
24.02144266015395
 20
2.002204352180598
 30
0.0
 10
24.09667311472841
 20
2.001331199109343
 30
0.0
 10
24.13416731163263
 20
2.001142643718735
 30
0.0
 10
24.22829247941383
 20
2.000739711459433
 30
0.0
 10
24.29211666879475
 20
2.000484285734564
 30
0.0
 10
24.41127173937417
 20
2.0001615382225
 30
0.0
 10
24.47219145957552
 20
2.000063587337339
 30
0.0
 10
24.53854612068425
 20
2.000025166696224
 30
0.0
 10
24.55100371878673
 20
2.000021126007544
 30
0.0
 10
24.56214430295003
 20
2.000020290751287
 30
0.0
  0
SPLINE
  5
821B
330
820F
100
AcDbEntity
  8
0
100
AcDbSpline
210
0.0
220
0.0
230
1.0
 70
     8
 71
     3
 72
     8
 73
     4
 74
     0
 42
0.000000001
 43
0.0000000001
 40
0.0
 40
0.0
 40
0.0
 40
0.0
 40
0.0034296984247346
 40
0.0034296984247346
 40
0.0034296984247346
 40
0.0034296984247346
 10
22.00006462084124
 20
3.999999817327922
 30
0.0
 10
22.00004298626329
 20
3.994303265677967
 30
0.0
 10
22.00002047258983
 20
3.987666439096213
 30
0.0
 10
21.99999999999998
 20
3.980806637197183
 30
0.0
  0
SPLINE
  5
821C
330
820F
100
AcDbEntity
  8
0
100
AcDbSpline
210
0.0
220
0.0
230
1.0
 70
     8
 71
     3
 72
     8
 73
     4
 74
     0
 42
0.000000001
 43
0.0000000001
 40
0.0
 40
0.0
 40
0.0
 40
0.0
 40
0.0103048277686971
 40
0.0103048277686971
 40
0.0103048277686971
 40
0.0103048277686971
 10
22.00049093536769
 20
4.000003422698455
 30
0.0
 10
22.00070880589309
 20
3.968404097363075
 30
0.0
 10
22.00121010742631
 20
3.936727420221928
 30
0.0
 10
22.00204599474937
 20
3.908145685310619
 30
0.0
  0
SPLINE
  5
821D
330
820F
100
AcDbEntity
  8
0
100
AcDbSpline
210
0.0
220
0.0
230
1.0
 70
     8
 71
     3
 72
    34
 73
    30
 74
     0
 42
0.000000001
 43
0.0000000001
 40
0.0436321684606291
 40
0.0436321684606291
 40
0.0436321684606291
 40
0.0436321684606291
 40
0.0436980606039578
 40
0.0436980606039578
 40
0.0440065227687261
 40
0.0440065227687261
 40
0.0441606099420974
 40
0.0441606099420974
 40
0.0443152287459196
 40
0.0443152287459196
 40
0.0444703653493362
 40
0.0444703653493362
 40
0.0446253124233743
 40
0.0446253124233743
 40
0.0449378130685231
 40
0.0449378130685231
 40
0.0462042978335135
 40
0.0462042978335135
 40
0.0474351636349996
 40
0.0474351636349996
 40
0.0507824780402468
 40
0.0507824780402468
 40
0.0563242316511683
 40
0.0563242316511683
 40
0.0632429825417039
 40
0.0632429825417039
 40
0.0673654187219879
 40
0.0673654187219879
 40
0.0708018402740437
 40
0.0708018402740437
 40
0.0708018402740437
 40
0.0708018402740437
 10
22.00049915074744
 20
3.969233897125076
 30
0.0
 10
22.00049915074743
 20
3.969233897125347
 30
0.0
 10
22.00049920958401
 20
3.969230806259265
 30
0.0
 10
22.00049992446225
 20
3.969193259466161
 30
0.0
 10
22.00050191653907
 20
3.969088413341317
 30
0.0
 10
22.00050905256942
 20
3.968715151013347
 30
0.0
 10
22.00051215724713
 20
3.968552949547803
 30
0.0
 10
22.00052029749697
 20
3.968129320588853
 30
0.0
 10
22.00052541232487
 20
3.967863774439378
 30
0.0
 10
22.00053786042031
 20
3.967221149188766
 30
0.0
 10
22.0005453271231
 20
3.966837279549011
 30
0.0
 10
22.00056192058586
 20
3.965990232212109
 30
0.0
 10
22.0005711682482
 20
3.965520944778758
 30
0.0
 10
22.00060023260666
 20
3.964057288865834
 30
0.0
 10
22.00062164498358
 20
3.962994080362621
 30
0.0
 10
22.00072929372326
 20
3.957732527239013
 30
0.0
 10
22.00081996634462
 20
3.953564022403204
 30
0.0
 10
22.0009979771728
 20
3.945799609687771
 30
0.0
 10
22.0010876629269
 20
3.942082841838321
 30
0.0
 10
22.00142826547502
 20
3.928595478110833
 30
0.0
 10
22.00169395352436
 20
3.919306503691956
 30
0.0
 10
22.00241872711764
 20
3.896280930342621
 30
0.0
 10
22.00289602576367
 20
3.883466213391661
 30
0.0
 10
22.00390972437672
 20
3.858874031607897
 30
0.0
 10
22.00444328138355
 20
3.847810014875898
 30
0.0
 10
22.00512191544086
 20
3.834606784294542
 30
0.0
 10
22.00534092734248
 20
3.830597370823953
 30
0.0
 10
22.00561879269205
 20
3.825619154982416
 30
0.0
 10
22.00569879692566
 20
3.82424055517392
 30
0.0
 10
22.0056987969241
 20
3.824240555200982
 30
0.0
  0
SPLINE
  5
821E
330
820F
100
AcDbEntity
  8
0
100
AcDbSpline
210
0.0
220
0.0
230
1.0
 70
     8
 71
     3
 72
    14
 73
    10
 74
     0
 42
0.000000001
 43
0.0000000001
 40
0.0819810398744525
 40
0.0819810398744525
 40
0.0819810398744525
 40
0.0819810398744525
 40
0.0829074777486497
 40
0.0829074777486497
 40
0.0849121102001783
 40
0.0849121102001783
 40
0.0909249306491063
 40
0.0909249306491063
 40
0.0933596364379898
 40
0.0933596364379898
 40
0.0933596364379898
 40
0.0933596364379898
 10
22.00373023006132
 20
3.862416143900475
 30
0.0
 10
22.00373023005388
 20
3.862416144066443
 30
0.0
 10
22.00374288823624
 20
3.86213351491225
 30
0.0
 10
22.00379637681562
 20
3.860948252381047
 30
0.0
 10
22.00385203573361
 20
3.859727855213583
 30
0.0
 10
22.0040720304476
 20
3.855003234307623
 30
0.0
 10
22.00424238654364
 20
3.851586618970518
 30
0.0
 10
22.00435987856759
 20
3.849307686268133
 30
0.0
 10
22.00438009976961
 20
3.84892680279723
 30
0.0
 10
22.00438009976871
 20
3.848926802814374
 30
0.0
  0
CIRCLE
  5
821F
330
820F
100
AcDbEntity
  8
0
100
AcDbCircle
 10
0.0
 20
67.99999999999998
 30
0.0
 40
2.5
  0
CIRCLE
  5
8220
330
820F
100
AcDbEntity
  8
0
100
AcDbCircle
 10
0.0
 20
47.99999999999998
 30
0.0
 40
2.5
  0
LINE
  5
8221
330
820F
100
AcDbEntity
  8
0
100
AcDbLine
 10
18.0
 20
2.000000000000004
 30
0.0
 11
-18.0
 21
2.000000000000004
 31
0.0
  0
LINE
  5
8222
330
820F
100
AcDbEntity
  8
0
100
AcDbLine
 10
17.99999999999997
 20
86.00000000000001
 30
0.0
 11
-17.99999999999998
 21
86.00000000000001
 31
0.0
  0
SPLINE
  5
8223
330
820F
100
AcDbEntity
  8
0
100
AcDbSpline
210
0.0
220
0.0
230
1.0
 70
     8
 71
     3
 72
    17
 73
    13
 74
     0
 42
0.000000001
 43
0.0000000001
 40
-1.0
 40
-1.0
 40
-1.0
 40
-1.0
 40
-0.7994229170045873
 40
-0.7994229170045873
 40
-0.7994229170045873
 40
-0.3760548405765871
 40
-0.3760548405765871
 40
-0.3760548405765871
 40
-0.0764956636455704
 40
-0.0764956636455704
 40
-0.0764956636455704
 40
0.0
 40
0.0
 40
0.0
 40
0.0
 10
-19.99999999999999
 20
2.000000000000011
 30
0.0
 10
-19.99999961269012
 20
1.999093512538266
 30
0.0
 10
-20.12633724887145
 20
1.919864828372066
 30
0.0
 10
-20.33609665271809
 20
1.79067867257883
 30
0.0
 10
-20.77884631281393
 20
1.517998995207308
 30
0.0
 10
-21.61463513344825
 20
1.034119660990429
 30
0.0
 10
-22.48133337943824
 20
0.6387472629625419
 30
0.0
 10
-23.09457615250423
 20
0.3589967651599087
 30
0.0
 10
-23.71786514798585
 20
0.1216595940256014
 30
0.0
 10
-24.23410388676674
 20
0.0342334975218076
 30
0.0
 10
-24.36593101130077
 20
0.0119083017440817
 30
0.0
 10
-24.48837043646464
 20
0.0000045433204813
 30
0.0
 10
-24.60606060611084
 20
0.0000000001152107
 30
0.0
  0
LINE
  5
8224
330
820F
100
AcDbEntity
  8
0
100
AcDbLine
 10
-24.0
 20
0.0
 30
0.0
 11
-24.60606060606062
 21
0.0
 31
0.0
  0
ARC
  5
8225
330
820F
100
AcDbEntity
  8
0
100
AcDbCircle
 10
-24.0
 20
4.000000000000004
 30
0.0
 40
4.000000000000002
100
AcDbArc
 50
270.0
 51
320.30717726976
  0
ARC
  5
8226
330
820F
100
AcDbEntity
  8
0
100
AcDbCircle
 10
-24.0
 20
4.000000000000004
 30
0.0
 40
2.000000000000001
100
AcDbArc
 50
276.4039506186175
 51
357.554477944276
  0
SPLINE
  5
8227
330
820F
100
AcDbEntity
  8
0
100
AcDbSpline
210
0.0
220
0.0
230
1.0
 70
     8
 71
     3
 72
    14
 73
    10
 74
     0
 42
0.000000001
 43
0.0000000001
 40
0.0
 40
0.0
 40
0.0
 40
0.0
 40
0.3435185598351
 40
0.3435185598351
 40
0.3435185598351
 40
0.7570138388812016
 40
0.7570138388812016
 40
0.7570138388812016
 40
1.0
 40
1.0
 40
1.0
 40
1.0
 10
-24.60606060606063
 20
2.0
 30
0.0
 10
-24.28490437776446
 20
2.000036880043579
 30
0.0
 10
-23.87245674613768
 20
1.996834397684407
 30
0.0
 10
-23.47646184524853
 20
1.998675842003746
 30
0.0
 10
-22.99980049069874
 20
2.000892399190753
 30
0.0
 10
-22.53725454061463
 20
2.001069140211149
 30
0.0
 10
-22.26239142279919
 20
2.001123280650658
 30
0.0
 10
-22.10087099628987
 20
2.001155095711734
 30
0.0
 10
-21.99999576746968
 20
2.000250522858973
 30
0.0
 10
-21.99999999948838
 20
1.999999999992541
 30
0.0
  0
LINE
  5
8228
330
820F
100
AcDbEntity
  8
0
100
AcDbLine
 10
-24.60606060606061
 20
0.0
 30
0.0
 11
-24.60606060606061
 21
2.0
 31
0.0
  0
SPLINE
  5
8229
330
820F
100
AcDbEntity
  8
0
100
AcDbSpline
210
0.0
220
0.0
230
1.0
 70
     8
 71
     3
 72
    10
 73
     6
 74
     0
 42
0.000000001
 43
0.0000000001
 40
0.0192480496824658
 40
0.0192480496824658
 40
0.0192480496824658
 40
0.0192480496824658
 40
0.0195090933581726
 40
0.0195090933581726
 40
0.0226780248124608
 40
0.0226780248124608
 40
0.0226780248124608
 40
0.0226780248124608
 10
-22.0
 20
3.980806637203175
 30
0.0
 10
-22.0000015588338
 20
3.981328959545702
 30
0.0
 10
-22.00000312963318
 20
3.98185037083692
 30
0.0
 10
-22.00002390979849
 20
3.988683507906302
 30
0.0
 10
-22.00004463118441
 20
3.994736386125634
 30
0.0
 10
-22.00006462084126
 20
3.999999817327923
 30
0.0
  0
SPLINE
  5
822A
330
820F
100
AcDbEntity
  8
0
100
AcDbSpline
210
0.0
220
0.0
230
1.0
 70
     8
 71
     3
 72
    14
 73
    10
 74
     0
 42
0.000000001
 43
0.0000000001
 40
0.025069951600159
 40
0.025069951600159
 40
0.025069951600159
 40
0.025069951600159
 40
0.0257267637355659
 40
0.0257267637355659
 40
0.0325076621956478
 40
0.0325076621956478
 40
0.0360900757336495
 40
0.0360900757336495
 40
0.0364460885138729
 40
0.0364460885138729
 40
0.0364460885138729
 40
0.0364460885138729
 10
-22.00438009976871
 20
3.848926802814693
 30
0.0
 10
-22.00438009976048
 20
3.848926802969542
 30
0.0
 10
-22.00437862502824
 20
3.848954590873148
 30
0.0
 10
-22.00434682602447
 20
3.849557786518503
 30
0.0
 10
-22.00417716122592
 20
3.85283329642375
 30
0.0
 10
-22.00389200292569
 20
3.85884764580803
 30
0.0
 10
-22.00376855181989
 20
3.861562317136557
 30
0.0
 10
-22.0037322078951
 20
3.862372003862887
 30
0.0
 10
-22.00373023009748
 20
3.862416143093732
 30
0.0
 10
-22.00373023006129
 20
3.862416143901157
 30
0.0
  0
SPLINE
  5
822B
330
820F
100
AcDbEntity
  8
0
100
AcDbSpline
210
0.0
220
0.0
230
1.0
 70
     8
 71
     3
 72
    36
 73
    32
 74
     0
 42
0.000000001
 43
0.0000000001
 40
0.0476072229249068
 40
0.0476072229249068
 40
0.0476072229249068
 40
0.0476072229249068
 40
0.0482016739308476
 40
0.0482016739308476
 40
0.0520301769975847
 40
0.0520301769975847
 40
0.0580612743417675
 40
0.0580612743417675
 40
0.0664780187027308
 40
0.0664780187027308
 40
0.0701800481553219
 40
0.0701800481553219
 40
0.0716761437591258
 40
0.0716761437591258
 40
0.0727359382136822
 40
0.0727359382136822
 40
0.0732982052395778
 40
0.0732982052395778
 40
0.0735333050153102
 40
0.0735333050153102
 40
0.073770809774794
 40
0.073770809774794
 40
0.0739324871456549
 40
0.0739324871456549
 40
0.0740946349961098
 40
0.0740946349961098
 40
0.0742563207761872
 40
0.0742563207761872
 40
0.0745815853191273
 40
0.0745815853191273
 40
0.0747632628477145
 40
0.0747632628477145
 40
0.0747632628477145
 40
0.0747632628477145
 10
-22.0056987969241
 20
3.824240555200806
 30
0.0
 10
-22.00569879692141
 20
3.824240555247516
 30
0.0
 10
-22.0056963824375
 20
3.824282379690751
 30
0.0
 10
-22.00566206683872
 20
3.82487860028902
 30
0.0
 10
-22.00554154539632
 20
3.826971345533286
 30
0.0
 10
-22.00510636549191
 20
3.834894946184921
 30
0.0
 10
-22.00471956743231
 20
3.84219326499878
 30
0.0
 10
-22.0036751562205
 20
3.864191380218952
 30
0.0
 10
-22.0029428426564
 20
3.881268431353213
 30
0.0
 10
-22.00193930299047
 20
3.911193162360835
 30
0.0
 10
-22.00163741761969
 20
3.921115538136687
 30
0.0
 10
-22.00124035742511
 20
3.935983648559004
 30
0.0
 10
-22.00112875218302
 20
3.940386172337192
 30
0.0
 10
-22.00094339986892
 20
3.948143282398718
 30
0.0
 10
-22.00086780545241
 20
3.951441257786589
 30
0.0
 10
-22.00075401541598
 20
3.956644136041332
 30
0.0
 10
-22.0007146203695
 20
3.95849055782204
 30
0.0
 10
-22.00065961201103
 20
3.961138609740766
 30
0.0
 10
-22.00064341816722
 20
3.961926952655607
 30
0.0
 10
-22.00061151866759
 20
3.963497469399148
 30
0.0
 10
-22.00059558012036
 20
3.964291587719872
 30
0.0
 10
-22.00057075945332
 20
3.965541528835119
 30
0.0
 10
-22.00056112304995
 20
3.966030720572292
 30
0.0
 10
-22.00054395535041
 20
3.96690755865408
 30
0.0
 10
-22.00053629358027
 20
3.967301795703199
 30
0.0
 10
-22.00052369565853
 20
3.967952708017972
 30
0.0
 10
-22.00051861017514
 20
3.968216990255019
 30
0.0
 10
-22.00050658720601
 20
3.968843210954042
 30
0.0
 10
-22.00050261294947
 20
3.969052165503175
 30
0.0
 10
-22.00049959272196
 20
3.969210666345448
 30
0.0
 10
-22.00049915073771
 20
3.969233897636047
 30
0.0
 10
-22.00049915074711
 20
3.969233897142692
 30
0.0
  0
SPLINE
  5
822C
330
820F
100
AcDbEntity
  8
0
100
AcDbSpline
210
0.0
220
0.0
230
1.0
 70
     8
 71
     3
 72
    20
 73
    16
 74
     0
 42
0.000000001
 43
0.0000000001
 40
0.1034042786109616
 40
0.1034042786109616
 40
0.1034042786109616
 40
0.1034042786109616
 40
0.1036986218572781
 40
0.1036986218572781
 40
0.1041717769668117
 40
0.1041717769668117
 40
0.1049673637370557
 40
0.1049673637370557
 40
0.1057327857654851
 40
0.1057327857654851
 40
0.1070743215457132
 40
0.1070743215457132
 40
0.1101516698450282
 40
0.1101516698450282
 40
0.1184305558590959
 40
0.1184305558590959
 40
0.1184305558590959
 40
0.1184305558590959
 10
-22.00299632666674
 20
3.880049798369724
 30
0.0
 10
-22.00299632664258
 20
3.880049798996056
 30
0.0
 10
-22.00299484493271
 20
3.880088164296707
 30
0.0
 10
-22.0029859551257
 20
3.880318857206539
 30
0.0
 10
-22.0029753098199
 20
3.880595063629286
 30
0.0
 10
-22.00293024094025
 20
3.881774142052488
 30
0.0
 10
-22.00288311079083
 20
3.88301466035089
 30
0.0
 10
-22.002772542113
 20
3.886002258865114
 30
0.0
 10
-22.0027099720449
 20
3.887724724322654
 30
0.0
 10
-22.0025331873261
 20
3.89273172010221
 30
0.0
 10
-22.00241469070069
 20
3.896240574984777
 30
0.0
 10
-22.00203718174079
 20
3.908073904205471
 30
0.0
 10
-22.00179168669365
 20
3.916846348168314
 30
0.0
 10
-22.00100690416276
 20
3.949637264905934
 30
0.0
 10
-22.00066597228109
 20
3.974616563408332
 30
0.0
 10
-22.00049093536771
 20
4.000003422698455
 30
0.0
  0
SPLINE
  5
822D
330
820F
100
AcDbEntity
  8
0
100
AcDbSpline
210
0.0
220
0.0
230
1.0
 70
     8
 71
     3
 72
    32
 73
    28
 74
     0
 42
0.000000001
 43
0.0000000001
 40
0.0
 40
0.0
 40
0.0
 40
0.0
 40
0.0062834381633132
 40
0.0062834381633132
 40
0.0147058050155325
 40
0.0147058050155325
 40
0.0373755794793668
 40
0.0373755794793668
 40
0.0501947863308727
 40
0.0501947863308727
 40
0.0667265035360387
 40
0.0667265035360387
 40
0.0742906734609884
 40
0.0742906734609884
 40
0.080248392230916
 40
0.080248392230916
 40
0.0850816717898919
 40
0.0850816717898919
 40
0.0887113810871225
 40
0.0887113810871225
 40
0.0911689437023172
 40
0.0911689437023172
 40
0.0929311549159145
 40
0.0929311549159145
 40
0.095760288174727
 40
0.095760288174727
 40
0.0967606331291714
 40
0.0967606331291714
 40
0.0967606331291714
 40
0.0967606331291714
 10
-24.56214430295015
 20
2.000020290751285
 30
0.0
 10
-24.5470096059563
 20
2.000021425462911
 30
0.0
 10
-24.52948500193957
 20
2.000028425796131
 30
0.0
 10
-24.48709187800172
 20
2.000060615576146
 30
0.0
 10
-24.46142391778128
 20
2.0000923456124
 30
0.0
 10
-24.36626722124828
 20
2.000257841537109
 30
0.0
 10
-24.295208344354
 20
2.000490386305848
 30
0.0
 10
-24.18816022243769
 20
2.000912253182784
 30
0.0
 10
-24.15315286476268
 20
2.001031881989044
 30
0.0
 10
-24.07005262734905
 20
2.001571974320442
 30
0.0
 10
-24.01830295956308
 20
2.002077321670227
 30
0.0
 10
-23.93976339579508
 20
2.004016812798994
 30
0.0
 10
-23.91447637081815
 20
2.004811672120879
 30
0.0
 10
-23.86944309092043
 20
2.00667524210324
 30
0.0
 10
-23.84947739854892
 20
2.007658890935064
 30
0.0
 10
-23.81421215939194
 20
2.00973597958852
 30
0.0
 10
-23.7985768468625
 20
2.010784990560124
 30
0.0
 10
-23.77269139983606
 20
2.012748549623253
 30
0.0
 10
-23.76194954821801
 20
2.013641638529992
 30
0.0
 10
-23.74571513708037
 20
2.01509892379442
 30
0.0
 10
-23.73958229700031
 20
2.015681741029941
 30
0.0
 10
-23.730458510482
 20
2.016586131855509
 30
0.0
 10
-23.72703716680648
 20
2.01693791579022
 30
0.0
 10
-23.71963202189241
 20
2.017717595600712
 30
0.0
 10
-23.7165552701075
 20
2.018062224889045
 30
0.0
 10
-23.71490106789111
 20
2.018249034672762
 30
0.0
 10
-23.71468570210849
 20
2.018273762131316
 30
0.0
 10
-23.71468571207259
 20
2.01827376098863
 30
0.0
  0
LINE
  5
822E
330
820F
100
AcDbEntity
  8
0
100
AcDbLine
 10
-21.99999999999999
 20
2.000000000000011
 30
0.0
 11
-17.99999999999999
 21
2.000000000000004
 31
0.0
  0
LINE
  5
822F
330
820F
100
AcDbEntity
  8
0
100
AcDbLine
 10
-17.99999999999998
 20
86.00000000000001
 30
0.0
 11
-21.99999999999999
 21
86.00000000000001
 31
0.0
  0
LINE
  5
8230
330
820F
100
AcDbEntity
  8
0
100
AcDbLine
 10
-21.99999999999999
 20
2.000000000000011
 30
0.0
 11
-21.99999999999999
 21
86.00000000000001
 31
0.0
  0
LINE
  5
8231
330
820F
100
AcDbEntity
  8
0
100
AcDbLine
 10
21.99999999999999
 20
2.000000000000011
 30
0.0
 11
17.99999999999999
 21
2.000000000000004
 31
0.0
  0
LINE
  5
8232
330
820F
100
AcDbEntity
  8
0
100
AcDbLine
 10
21.99999999999999
 20
2.000000000000011
 30
0.0
 11
21.99999999999999
 21
86.00000000000001
 31
0.0
  0
LINE
  5
8233
330
820F
100
AcDbEntity
  8
0
100
AcDbLine
 10
17.99999999999998
 20
86.00000000000001
 30
0.0
 11
21.99999999999999
 21
86.00000000000001
 31
0.0
  0
LINE
  5
8234
330
820F
100
AcDbEntity
  8
0
100
AcDbLine
 10
61.50000000000004
 20
0.0
 30
0.0
 11
24.60606060606062
 21
0.0
 31
0.0
  0
LINE
  5
8235
330
820F
100
AcDbEntity
  8
0
100
AcDbLine
 10
61.50000000000004
 20
1.999999999999992
 30
0.0
 11
61.50000000000004
 21
0.0
 31
0.0
  0
LINE
  5
8236
330
820F
100
AcDbEntity
  8
0
100
AcDbLine
 10
24.60606060606061
 20
2.0
 30
0.0
 11
61.50000000000004
 21
1.999999999999992
 31
0.0
  0
LINE
  5
8237
330
820F
100
AcDbEntity
  8
0
100
AcDbLine
 10
-61.50000000000004
 20
1.999999999999992
 30
0.0
 11
-24.60606060606061
 21
2.0
 31
0.0
  0
LINE
  5
8238
330
820F
100
AcDbEntity
  8
0
100
AcDbLine
 10
-61.50000000000004
 20
0.0
 30
0.0
 11
-61.50000000000004
 21
1.999999999999992
 31
0.0
  0
LINE
  5
8239
330
820F
100
AcDbEntity
  8
0
100
AcDbLine
 10
-24.60606060606062
 20
0.0
 30
0.0
 11
-61.50000000000004
 21
0.0
 31
0.0
  0
ENDBLK
  5
8211
330
820F
100
AcDbEntity
  8
0
100
AcDbBlockEnd
  0
BLOCK
  5
823B
330
823A
100
AcDbEntity
  8
0
100
AcDbBlockBegin
  2
SAE340_40_2-ISO
 70
     0
 10
0.0
 20
0.0
 30
0.0
  3
SAE340_40_2-ISO
  1

  0
LINE
  5
823D
330
823A
100
AcDbEntity
  8
0
100
AcDbLine
 10
44.32026781369929
 20
-36.46542159771157
 30
0.0
 11
42.90605425132619
 21
-37.28191817863929
 31
0.0
  0
SPLINE
  5
823E
330
823A
100
AcDbEntity
  8
0
100
AcDbSpline
210
0.0
220
0.0
230
1.0
 70
     8
 71
     3
 72
    14
 73
    10
 74
     0
 42
0.000000001
 43
0.0000000001
 40
0.0
 40
0.0
 40
0.0
 40
0.0
 40
0.3435185598351
 40
0.3435185598351
 40
0.3435185598351
 40
0.7570138388812016
 40
0.7570138388812016
 40
0.7570138388812016
 40
1.0
 40
1.0
 40
1.0
 40
1.0
 10
46.1630309404279
 20
-35.4370688963538
 30
0.0
 10
45.93591311545047
 20
-35.5182669196141
 30
0.0
 10
45.64653309523564
 20
-35.53408950853761
 30
0.0
 10
45.36522031773625
 20
-35.56196353570081
 30
0.0
 10
45.02660249898671
 20
-35.59551566355532
 30
0.0
 10
44.69940814629781
 20
-35.64712788934359
 30
0.0
 10
44.50501228872053
 20
-35.87255486024081
 30
0.0
 10
44.39077760319023
 20
-36.00502465384359
 30
0.0
 10
44.32008767443599
 20
-36.17305980568645
 30
0.0
 10
44.32026781334281
 20
-36.46542159615028
 30
0.0
  0
LINE
  5
823F
330
823A
100
AcDbEntity
  8
0
100
AcDbLine
 10
45.73448137607239
 20
-35.18964569001204
 30
0.0
 11
46.16303094042788
 21
-35.43706889635378
 31
0.0
  0
ELLIPSE
  5
8240
330
823A
100
AcDbEntity
  8
0
100
AcDbEllipse
 10
44.32026781369929
 20
-36.00614227093978
 30
0.0
 11
2.0
 21
-0.0000000000001192
 31
0.0
210
0.0
220
0.0
230
1.0
 40
0.5773502691896259
 41
0.7853981633976899
 42
2.356194490192603
  0
LINE
  5
8241
330
823A
100
AcDbEntity
  8
0
100
AcDbLine
 10
42.90605425132619
 20
-37.28191817863929
 30
0.0
 11
42.90605425132619
 21
-35.18964569001205
 31
0.0
  0
ELLIPSE
  5
8242
330
823A
100
AcDbEntity
  8
0
100
AcDbEllipse
 10
-17.90512893071686
 20
-72.3912711585315
 30
0.0
 11
-2.5
 21
-0.0000000000001495
 31
0.0
210
0.0
220
0.0
230
1.0
 40
0.5773502691896259
 41
4.111124763705442
 42
5.681921090500219
  0
LINE
  5
8243
330
823A
100
AcDbEntity
  8
0
100
AcDbLine
 10
-17.9051289307169
 20
-87.08820961523057
 30
0.0
 11
-43.36097305343258
 21
-72.39127115853152
 31
0.0
  0
LINE
  5
8244
330
823A
100
AcDbEntity
  8
0
100
AcDbLine
 10
18.75890996617426
 20
-38.03749638214518
 30
0.0
 11
17.90927724401302
 21
-37.54696070129307
 31
0.0
  0
LINE
  5
8245
330
823A
100
AcDbEntity
  8
0
100
AcDbLine
 10
-43.36097305343257
 20
-70.75827799667607
 30
0.0
 11
-17.9051289307169
 21
-85.45521645337514
 31
0.0
  0
ELLIPSE
  5
8246
330
823A
100
AcDbEntity
  8
0
100
AcDbEllipse
 10
-17.90512893071686
 20
-70.75827799667606
 30
0.0
 11
-2.5
 21
0.0000000000001492
 31
0.0
210
0.0
220
0.0
230
1.0
 40
0.5773502691896259
 41
4.015739147173701
 42
8.455245850653728
  0
LINE
  5
8247
330
823A
100
AcDbEntity
  8
0
100
AcDbLine
 10
44.32026781369928
 20
-51.16236005441063
 30
0.0
 11
44.32026781369929
 21
-36.46542159771157
 31
0.0
  0
ELLIPSE
  5
8248
330
823A
100
AcDbEntity
  8
0
100
AcDbEllipse
 10
41.49184068895309
 20
-49.52936689255517
 30
0.0
 11
1.999999999999999
 21
-3.464101615137753
 31
0.0
210
0.0
220
0.0
230
1.0
 40
0.5773502691896248
 41
0.0
 42
0.7853981633974412
  0
LINE
  5
8249
330
823A
100
AcDbEntity
  8
0
100
AcDbLine
 10
-17.9051289307169
 20
-85.45521645337514
 30
0.0
 11
-16.4909153683438
 21
-84.63871987244742
 31
0.0
  0
LINE
  5
824A
330
823A
100
AcDbEntity
  8
0
100
AcDbLine
 10
44.32026781369928
 20
-51.16236005441063
 30
0.0
 11
-15.0767018059707
 21
-85.45521645337514
 31
0.0
  0
ELLIPSE
  5
824B
330
823A
100
AcDbEntity
  8
0
100
AcDbEllipse
 10
-17.9051289307169
 20
-83.82222329151966
 30
0.0
 11
2.0
 21
-3.464101615137756
 31
0.0
210
0.0
220
0.0
230
1.0
 40
0.5773502691896259
 41
5.497787143782137
 42
7.068583470577033
  0
LINE
  5
824C
330
823A
100
AcDbEntity
  8
0
100
AcDbLine
 10
72.25098567056796
 20
-25.64684190041923
 30
0.0
 11
73.66519923294105
 21
-24.83034531949151
 31
0.0
  0
LINE
  5
824D
330
823A
100
AcDbEntity
  8
0
100
AcDbLine
 10
46.16303094042788
 20
-35.43706889635379
 30
0.0
 11
72.25098567056796
 21
-25.64684190041923
 31
0.0
  0
ELLIPSE
  5
824E
330
823A
100
AcDbEntity
  8
0
100
AcDbEllipse
 10
59.87661699980335
 20
46.00073307598876
 30
0.0
 11
-3.25
 21
5.629165124598853
 31
0.0
210
0.0
220
0.0
230
1.0
 40
0.5773502691896258
 41
0.2193254863005923
 42
2.9222671672892
  0
ELLIPSE
  5
824F
330
823A
100
AcDbEntity
  8
0
100
AcDbEllipse
 10
67.65479159285536
 20
45.5924847855249
 30
0.0
 11
1.250000000000128
 21
-2.165063509461022
 31
0.0
210
0.0
220
0.0
230
0.9999999999999998
 40
0.5773502691896257
 41
3.742856870268576
 42
5.681921090500122
  0
LINE
  5
8250
330
823A
100
AcDbEntity
  8
0
100
AcDbLine
 10
47.14869493844547
 20
69.67913392289282
 30
0.0
 11
73.66519923294102
 21
54.36982303049795
 31
0.0
  0
LINE
  5
8251
330
823A
100
AcDbEntity
  8
0
100
AcDbLine
 10
73.66519923294105
 20
-24.83034531949151
 30
0.0
 11
73.66519923294102
 21
54.36982303049795
 31
0.0
  0
ELLIPSE
  5
8252
330
823A
100
AcDbEntity
  8
0
100
AcDbEllipse
 10
44.32026781369929
 20
68.04614076103735
 30
0.0
 11
3.999999999999999
 21
-0.0000000000002383
 31
0.0
210
0.0
220
0.0
230
1.0
 40
0.5773502691896259
 41
0.7853981633976881
 42
2.356194490192585
  0
ELLIPSE
  5
8253
330
823A
100
AcDbEntity
  8
0
100
AcDbEllipse
 10
17.09665673801719
 20
43.34711918797362
 30
0.0
 11
1.24999999999987
 21
2.165063509461171
 31
0.0
210
0.0
220
0.0
230
1.0
 40
0.577350269189626
 41
3.74285687026858
 42
5.681921090500117
  0
ELLIPSE
  5
8254
330
823A
100
AcDbEntity
  8
0
100
AcDbEllipse
 10
18.51087030039028
 20
42.5306226070459
 30
0.0
 11
-1.25
 21
-2.165063509461096
 31
0.0
210
0.0
220
0.0
230
1.0
 40
0.5773502691896259
 41
0.0
 42
6.283185307179586
  0
LINE
  5
8255
330
823A
100
AcDbEntity
  8
0
100
AcDbLine
 10
-16.4909153683438
 20
-69.94178141574834
 30
0.0
 11
11.79335587911809
 21
-26.66746262657889
 31
0.0
  0
LINE
  5
8256
330
823A
100
AcDbEntity
  8
0
100
AcDbLine
 10
-15.07670180597071
 20
-70.75827799667607
 30
0.0
 11
-16.4909153683438
 21
-69.94178141574834
 31
0.0
  0
LINE
  5
8257
330
823A
100
AcDbEntity
  8
0
100
AcDbLine
 10
13.20756944149118
 20
-27.48395920750661
 30
0.0
 11
-15.07670180597071
 21
-70.75827799667607
 31
0.0
  0
LINE
  5
8258
330
823A
100
AcDbEntity
  8
0
100
AcDbLine
 10
13.20756944149118
 20
-27.48395920750661
 30
0.0
 11
11.79335587911809
 21
-26.66746262657889
 31
0.0
  0
LINE
  5
8259
330
823A
100
AcDbEntity
  8
0
100
AcDbLine
 10
11.79335587911809
 20
-26.66746262657889
 30
0.0
 11
11.7933558791181
 21
52.53270572341055
 31
0.0
  0
LINE
  5
825A
330
823A
100
AcDbEntity
  8
0
100
AcDbLine
 10
13.20756944149119
 20
51.71620914248283
 30
0.0
 11
13.20756944149118
 21
-27.48395920750661
 31
0.0
  0
LINE
  5
825B
330
823A
100
AcDbEntity
  8
0
100
AcDbLine
 10
11.7933558791181
 20
52.53270572341055
 30
0.0
 11
13.20756944149119
 21
51.71620914248283
 31
0.0
  0
LINE
  5
825C
330
823A
100
AcDbEntity
  8
0
100
AcDbLine
 10
-15.07670180597071
 20
-70.75827799667607
 30
0.0
 11
-15.0767018059707
 21
-85.45521645337514
 31
0.0
  0
LINE
  5
825D
330
823A
100
AcDbEntity
  8
0
100
AcDbLine
 10
42.90605425132619
 20
-35.18964569001205
 30
0.0
 11
42.90605425132619
 21
68.86263734196508
 31
0.0
  0
LINE
  5
825E
330
823A
100
AcDbEntity
  8
0
100
AcDbLine
 10
42.90605425132619
 20
68.8626373419651
 30
0.0
 11
13.20756944149119
 21
51.71620914248283
 31
0.0
  0
LINE
  5
825F
330
823A
100
AcDbEntity
  8
0
100
AcDbLine
 10
11.7933558791181
 20
52.53270572341055
 30
0.0
 11
41.4918406889531
 21
69.67913392289282
 31
0.0
  0
LINE
  5
8260
330
823A
100
AcDbEntity
  8
0
100
AcDbLine
 10
-16.4909153683438
 20
-84.63871987244742
 30
0.0
 11
-16.4909153683438
 21
-69.94178141574834
 31
0.0
  0
LINE
  5
8261
330
823A
100
AcDbEntity
  8
0
100
AcDbLine
 10
-17.9051289307169
 20
-85.45521645337514
 30
0.0
 11
-17.9051289307169
 21
-87.08820961523057
 31
0.0
  0
LINE
  5
8262
330
823A
100
AcDbEntity
  8
0
100
AcDbLine
 10
-16.4909153683438
 20
-84.63871987244742
 30
0.0
 11
-15.0767018059707
 21
-85.45521645337514
 31
0.0
  0
ELLIPSE
  5
8263
330
823A
100
AcDbEntity
  8
0
100
AcDbEllipse
 10
-17.9051289307169
 20
-83.82222329151966
 30
0.0
 11
0.9999999999999996
 21
-1.732050807568876
 31
0.0
210
0.0
220
0.0
230
1.0
 40
0.5773502691896258
 41
5.497787143782142
 42
7.068583470577038
  0
LINE
  5
8264
330
823A
100
AcDbEntity
  8
0
100
AcDbLine
 10
45.73448137607239
 20
-35.18964569001205
 30
0.0
 11
45.73448137607238
 21
68.86263734196508
 31
0.0
  0
ELLIPSE
  5
8265
330
823A
100
AcDbEntity
  8
0
100
AcDbEllipse
 10
44.32026781369929
 20
68.04614076103735
 30
0.0
 11
-1.999999999999996
 21
-0.0000000000001195
 31
0.0
210
0.0
220
0.0
230
1.0
 40
0.577350269189626
 41
3.926990816987004
 42
5.497787143781901
  0
LINE
  5
8266
330
823A
100
AcDbEntity
  8
0
100
AcDbLine
 10
73.66519923294102
 20
54.36982303049795
 30
0.0
 11
72.25098567056793
 21
53.55332644957023
 31
0.0
  0
LINE
  5
8267
330
823A
100
AcDbEntity
  8
0
100
AcDbLine
 10
72.25098567056796
 20
-25.64684190041923
 30
0.0
 11
72.25098567056793
 21
53.55332644957023
 31
0.0
  0
LINE
  5
8268
330
823A
100
AcDbEntity
  8
0
100
AcDbLine
 10
42.90605425132619
 20
68.8626373419651
 30
0.0
 11
41.4918406889531
 21
69.67913392289282
 31
0.0
  0
LINE
  5
8269
330
823A
100
AcDbEntity
  8
0
100
AcDbLine
 10
45.73448137607238
 20
68.8626373419651
 30
0.0
 11
47.14869493844547
 21
69.67913392289282
 31
0.0
  0
LINE
  5
826A
330
823A
100
AcDbEntity
  8
0
100
AcDbLine
 10
72.25098567056793
 20
53.55332644957023
 30
0.0
 11
45.73448137607238
 21
68.8626373419651
 31
0.0
  0
ELLIPSE
  5
826B
330
823A
100
AcDbEntity
  8
0
100
AcDbEllipse
 10
58.46240343743026
 20
45.18423649506104
 30
0.0
 11
-3.25
 21
5.629165124598853
 31
0.0
210
0.0
220
0.0
230
1.0
 40
0.5773502691896258
 41
0.0
 42
6.283185307179586
  0
ELLIPSE
  5
826C
330
823A
100
AcDbEntity
  8
0
100
AcDbEllipse
 10
66.24057803048228
 20
44.77598820459717
 30
0.0
 11
-1.249999999999999
 21
2.165063509461097
 31
0.0
210
0.0
220
0.0
230
1.0
 40
0.5773502691896257
 41
0.0
 42
6.283185307179586
  0
LINE
  5
826D
330
823A
100
AcDbEntity
  8
0
100
AcDbLine
 10
-15.9051289307169
 20
-87.28632490665743
 30
0.0
 11
43.4918406889531
 21
-52.99346850769294
 31
0.0
  0
LINE
  5
826E
330
823A
100
AcDbEntity
  8
0
100
AcDbLine
 10
-1.063131051546406
 20
-46.33760753074681
 30
0.0
 11
-43.36097305343257
 21
-70.75827799667607
 31
0.0
  0
ELLIPSE
  5
826F
330
823A
100
AcDbEntity
  8
0
100
AcDbEllipse
 10
-43.36097305343257
 20
-69.12528483482062
 30
0.0
 11
2.000000000000206
 21
-3.464101615137637
 31
0.0
210
0.0
220
0.0
230
1.0
 40
0.5773502691896259
 41
3.926990816986998
 42
5.497787143781897
  0
LINE
  5
8270
330
823A
100
AcDbEntity
  8
0
100
AcDbLine
 10
-44.77518661580567
 20
-68.3087882538929
 30
0.0
 11
2.365265463297454
 21
-41.09223555630203
 31
0.0
  0
LINE
  5
8271
330
823A
100
AcDbEntity
  8
0
100
AcDbLine
 10
-46.18940017817877
 20
-67.49229167296516
 30
0.0
 11
-44.77518661580567
 21
-68.3087882538929
 31
0.0
  0
LINE
  5
8272
330
823A
100
AcDbEntity
  8
0
100
AcDbLine
 10
-43.36097305343257
 20
-72.39127115853152
 30
0.0
 11
-43.36097305343257
 21
-70.75827799667607
 31
0.0
  0
ELLIPSE
  5
8273
330
823A
100
AcDbEntity
  8
0
100
AcDbEllipse
 10
-43.36097305343257
 20
-69.12528483482062
 30
0.0
 11
1.000000000000102
 21
-1.732050807568817
 31
0.0
210
0.0
220
0.0
230
1.0
 40
0.5773502691896258
 41
3.926990816987002
 42
5.497787143781897
  0
ELLIPSE
  5
8274
330
823A
100
AcDbEntity
  8
0
100
AcDbEllipse
 10
59.87661699980335
 20
-11.15402758895206
 30
0.0
 11
-3.25
 21
5.629165124598853
 31
0.0
210
0.0
220
0.0
230
1.0
 40
0.5773502691896258
 41
0.2193254863005922
 42
2.922267167289199
  0
ELLIPSE
  5
8275
330
823A
100
AcDbEntity
  8
0
100
AcDbEllipse
 10
58.46240343743026
 20
-11.97052416987978
 30
0.0
 11
-3.25
 21
5.629165124598853
 31
0.0
210
0.0
220
0.0
230
1.0
 40
0.5773502691896258
 41
0.0
 42
6.283185307179586
  0
ELLIPSE
  5
8276
330
823A
100
AcDbEntity
  8
0
100
AcDbEllipse
 10
52.09844240675131
 20
-18.91074510776545
 30
0.0
 11
1.250000000000128
 21
-2.165063509461022
 31
0.0
210
0.0
220
0.0
230
0.9999999999999998
 40
0.5773502691896257
 41
3.742856870268578
 42
5.681921090500122
  0
ELLIPSE
  5
8277
330
823A
100
AcDbEntity
  8
0
100
AcDbEllipse
 10
52.09844240675131
 20
-2.580813489210935
 30
0.0
 11
1.250000000000128
 21
-2.165063509461022
 31
0.0
210
0.0
220
0.0
230
0.9999999999999998
 40
0.5773502691896257
 41
3.742856870268578
 42
5.681921090500122
  0
ELLIPSE
  5
8278
330
823A
100
AcDbEntity
  8
0
100
AcDbEllipse
 10
52.09844240675131
 20
13.74911812934359
 30
0.0
 11
1.250000000000128
 21
-2.165063509461022
 31
0.0
210
0.0
220
0.0
230
0.9999999999999998
 40
0.5773502691896257
 41
3.742856870268578
 42
5.681921090500122
  0
ELLIPSE
  5
8279
330
823A
100
AcDbEntity
  8
0
100
AcDbEllipse
 10
52.09844240675131
 20
30.07904974789811
 30
0.0
 11
1.250000000000128
 21
-2.165063509461022
 31
0.0
210
0.0
220
0.0
230
0.9999999999999998
 40
0.5773502691896257
 41
3.742856870268576
 42
5.681921090500121
  0
ELLIPSE
  5
827A
330
823A
100
AcDbEntity
  8
0
100
AcDbEllipse
 10
52.09844240675131
 20
46.40898136645262
 30
0.0
 11
1.250000000000128
 21
-2.165063509461022
 31
0.0
210
0.0
220
0.0
230
0.9999999999999998
 40
0.5773502691896257
 41
3.742856870268576
 42
5.681921090500122
  0
ELLIPSE
  5
827B
330
823A
100
AcDbEntity
  8
0
100
AcDbEllipse
 10
50.68422884437823
 20
-19.72724168869317
 30
0.0
 11
-1.249999999999999
 21
2.165063509461097
 31
0.0
210
0.0
220
0.0
230
1.0
 40
0.5773502691896257
 41
0.0
 42
6.283185307179586
  0
ELLIPSE
  5
827C
330
823A
100
AcDbEntity
  8
0
100
AcDbEllipse
 10
50.68422884437823
 20
-3.397310070138654
 30
0.0
 11
-1.249999999999999
 21
2.165063509461097
 31
0.0
210
0.0
220
0.0
230
1.0
 40
0.5773502691896257
 41
0.0
 42
6.283185307179586
  0
ELLIPSE
  5
827D
330
823A
100
AcDbEntity
  8
0
100
AcDbEllipse
 10
50.68422884437823
 20
12.93262154841587
 30
0.0
 11
-1.249999999999999
 21
2.165063509461097
 31
0.0
210
0.0
220
0.0
230
1.0
 40
0.5773502691896257
 41
0.0
 42
6.283185307179586
  0
ELLIPSE
  5
827E
330
823A
100
AcDbEntity
  8
0
100
AcDbEllipse
 10
50.68422884437823
 20
29.26255316697039
 30
0.0
 11
-1.249999999999999
 21
2.165063509461097
 31
0.0
210
0.0
220
0.0
230
1.0
 40
0.5773502691896257
 41
0.0
 42
6.283185307179586
  0
ELLIPSE
  5
827F
330
823A
100
AcDbEntity
  8
0
100
AcDbEllipse
 10
50.68422884437823
 20
45.5924847855249
 30
0.0
 11
-1.249999999999999
 21
2.165063509461097
 31
0.0
210
0.0
220
0.0
230
1.0
 40
0.5773502691896257
 41
0.0
 42
6.283185307179586
  0
ELLIPSE
  5
8280
330
823A
100
AcDbEntity
  8
0
100
AcDbEllipse
 10
52.09844240675131
 20
62.73891298500714
 30
0.0
 11
1.250000000000128
 21
-2.165063509461022
 31
0.0
210
0.0
220
0.0
230
0.9999999999999998
 40
0.5773502691896257
 41
3.742856870268576
 42
5.681921090500122
  0
ELLIPSE
  5
8281
330
823A
100
AcDbEntity
  8
0
100
AcDbEllipse
 10
6.843608410812294
 20
87.23381041283893
 30
0.0
 11
1.25
 21
-2.165063509461096
 31
0.0
210
0.0
220
0.0
230
1.0
 40
0.5773502691896259
 41
0.0
 42
6.283185307179586
  0
ELLIPSE
  5
8282
330
823A
100
AcDbEntity
  8
0
100
AcDbEllipse
 10
8.257821973185382
 20
88.05030699376665
 30
0.0
 11
1.250000000000129
 21
-2.165063509461022
 31
0.0
210
0.0
220
0.0
230
1.0
 40
0.5773502691896259
 41
3.742856870268578
 42
5.681921090500118
  0
ELLIPSE
  5
8283
330
823A
100
AcDbEntity
  8
0
100
AcDbEllipse
 10
50.68422884437823
 20
61.92241640407942
 30
0.0
 11
-1.249999999999999
 21
2.165063509461097
 31
0.0
210
0.0
220
0.0
230
1.0
 40
0.5773502691896257
 41
0.0
 42
6.283185307179586
  0
ELLIPSE
  5
8284
330
823A
100
AcDbEntity
  8
0
100
AcDbEllipse
 10
67.65479159285536
 20
-19.72724168869318
 30
0.0
 11
1.250000000000128
 21
-2.165063509461022
 31
0.0
210
0.0
220
0.0
230
0.9999999999999998
 40
0.5773502691896257
 41
3.742856870268578
 42
5.681921090500122
  0
ELLIPSE
  5
8285
330
823A
100
AcDbEntity
  8
0
100
AcDbEllipse
 10
67.65479159285536
 20
-3.397310070138663
 30
0.0
 11
1.250000000000128
 21
-2.165063509461022
 31
0.0
210
0.0
220
0.0
230
0.9999999999999998
 40
0.5773502691896257
 41
3.742856870268578
 42
5.681921090500122
  0
ELLIPSE
  5
8286
330
823A
100
AcDbEntity
  8
0
100
AcDbEllipse
 10
67.65479159285536
 20
12.93262154841586
 30
0.0
 11
1.250000000000128
 21
-2.165063509461022
 31
0.0
210
0.0
220
0.0
230
0.9999999999999998
 40
0.5773502691896257
 41
3.742856870268578
 42
5.681921090500122
  0
ELLIPSE
  5
8287
330
823A
100
AcDbEntity
  8
0
100
AcDbEllipse
 10
67.65479159285536
 20
29.26255316697039
 30
0.0
 11
1.250000000000128
 21
-2.165063509461022
 31
0.0
210
0.0
220
0.0
230
0.9999999999999998
 40
0.5773502691896257
 41
3.742856870268576
 42
5.681921090500121
  0
ELLIPSE
  5
8288
330
823A
100
AcDbEntity
  8
0
100
AcDbEllipse
 10
66.24057803048228
 20
-20.5437382696209
 30
0.0
 11
-1.249999999999999
 21
2.165063509461097
 31
0.0
210
0.0
220
0.0
230
1.0
 40
0.5773502691896257
 41
0.0
 42
6.283185307179586
  0
ELLIPSE
  5
8289
330
823A
100
AcDbEntity
  8
0
100
AcDbEllipse
 10
66.24057803048228
 20
-4.213806651066387
 30
0.0
 11
-1.249999999999999
 21
2.165063509461097
 31
0.0
210
0.0
220
0.0
230
1.0
 40
0.5773502691896257
 41
0.0
 42
6.283185307179586
  0
ELLIPSE
  5
828A
330
823A
100
AcDbEntity
  8
0
100
AcDbEllipse
 10
66.24057803048228
 20
12.11612496748813
 30
0.0
 11
-1.249999999999999
 21
2.165063509461097
 31
0.0
210
0.0
220
0.0
230
1.0
 40
0.5773502691896257
 41
0.0
 42
6.283185307179586
  0
ELLIPSE
  5
828B
330
823A
100
AcDbEntity
  8
0
100
AcDbEllipse
 10
66.24057803048228
 20
28.44605658604266
 30
0.0
 11
-1.249999999999999
 21
2.165063509461097
 31
0.0
210
0.0
220
0.0
230
1.0
 40
0.5773502691896257
 41
0.0
 42
6.283185307179586
  0
LINE
  5
828C
330
823A
100
AcDbEntity
  8
0
100
AcDbLine
 10
-11.92313305222869
 20
20.28373532396607
 30
0.0
 11
-11.21592120823804
 21
19.20171661043552
 31
0.0
  0
LINE
  5
828D
330
823A
100
AcDbEntity
  8
0
100
AcDbLine
 10
-16.4909153683438
 20
-10.33753100802437
 30
0.0
 11
-44.77518661580568
 21
-53.61184979719382
 31
0.0
  0
LINE
  5
828E
330
823A
100
AcDbEntity
  8
0
100
AcDbLine
 10
-17.90512893071689
 20
-9.521034427096646
 30
0.0
 11
-16.4909153683438
 21
-10.33753100802437
 31
0.0
  0
LINE
  5
828F
330
823A
100
AcDbEntity
  8
0
100
AcDbLine
 10
-46.18940017817878
 20
-52.7953532162661
 30
0.0
 11
-17.90512893071689
 21
-9.521034427096646
 31
0.0
  0
LINE
  5
8290
330
823A
100
AcDbEntity
  8
0
100
AcDbLine
 10
-44.77518661580568
 20
-53.61184979719382
 30
0.0
 11
-46.18940017817878
 21
-52.7953532162661
 31
0.0
  0
LINE
  5
8291
330
823A
100
AcDbEntity
  8
0
100
AcDbLine
 10
-16.49091536834378
 20
68.86263734196507
 30
0.0
 11
-16.4909153683438
 21
-10.33753100802437
 31
0.0
  0
LINE
  5
8292
330
823A
100
AcDbEntity
  8
0
100
AcDbLine
 10
-17.90512893071687
 20
69.67913392289279
 30
0.0
 11
-16.49091536834378
 21
68.86263734196507
 31
0.0
  0
LINE
  5
8293
330
823A
100
AcDbEntity
  8
0
100
AcDbLine
 10
-17.90512893071689
 20
-9.521034427096646
 30
0.0
 11
-17.90512893071687
 21
69.67913392289279
 31
0.0
  0
ELLIPSE
  5
8294
330
823A
100
AcDbEntity
  8
0
100
AcDbEllipse
 10
-0.934566182239731
 20
79.47709289402553
 30
0.0
 11
-3.250000000000004
 21
5.629165124598849
 31
0.0
210
0.0
220
0.0
230
1.0
 40
0.5773502691896259
 41
4.712388980384691
 42
7.853981633974484
  0
ELLIPSE
  5
8295
330
823A
100
AcDbEntity
  8
0
100
AcDbEllipse
 10
0.4796473801333568
 20
80.29358947495325
 30
0.0
 11
-3.250000000000003
 21
5.629165124598854
 31
0.0
210
0.0
220
0.0
230
1.0
 40
0.5773502691896258
 41
0.2193254863005926
 42
1.570796326794896
  0
ELLIPSE
  5
8296
330
823A
100
AcDbEntity
  8
0
100
AcDbEllipse
 10
-8.712740775291756
 20
88.05030699376665
 30
0.0
 11
1.25
 21
-2.165063509461096
 31
0.0
210
0.0
220
0.0
230
1.0
 40
0.5773502691896259
 41
0.0
 42
6.283185307179586
  0
ELLIPSE
  5
8297
330
823A
100
AcDbEntity
  8
0
100
AcDbEllipse
 10
-7.298527212918668
 20
88.86680357469437
 30
0.0
 11
1.250000000000129
 21
-2.165063509461022
 31
0.0
210
0.0
220
0.0
230
1.0
 40
0.5773502691896259
 41
3.742856870268578
 42
5.681921090500118
  0
LINE
  5
8298
330
823A
100
AcDbEntity
  8
0
100
AcDbLine
 10
11.79335587911811
 20
86.82556212237507
 30
0.0
 11
11.79335587911812
 21
88.45855528423051
 31
0.0
  0
ELLIPSE
  5
8299
330
823A
100
AcDbEntity
  8
0
100
AcDbEllipse
 10
10.37914231674502
 20
87.64205870330279
 30
0.0
 11
1.999999999999997
 21
-0.0000000000000002
 31
0.0
210
0.0
220
0.0
230
1.0
 40
0.5773502691896259
 41
5.497787143782141
 42
7.068583470577028
  0
LINE
  5
829A
330
823A
100
AcDbEntity
  8
0
100
AcDbLine
 10
13.20756944149121
 20
86.00906554144733
 30
0.0
 11
13.20756944149121
 21
53.3492023043383
 31
0.0
  0
ELLIPSE
  5
829B
330
823A
100
AcDbEntity
  8
0
100
AcDbEllipse
 10
10.37914231674502
 20
87.64205870330279
 30
0.0
 11
3.999999999999998
 21
-0.0000000000000003
 31
0.0
210
0.0
220
0.0
230
1.0
 40
0.5773502691896259
 41
5.497787143782137
 42
7.068583470577029
  0
LINE
  5
829C
330
823A
100
AcDbEntity
  8
0
100
AcDbLine
 10
11.79335587911812
 20
88.45855528423051
 30
0.0
 11
13.20756944149122
 21
89.27505186515823
 31
0.0
  0
LINE
  5
829D
330
823A
100
AcDbEntity
  8
0
100
AcDbLine
 10
11.79335587911811
 20
86.82556212237505
 30
0.0
 11
13.20756944149121
 21
86.00906554144733
 31
0.0
  0
LINE
  5
829E
330
823A
100
AcDbEntity
  8
0
100
AcDbLine
 10
14.37914231674502
 20
54.02561021924137
 30
0.0
 11
14.37914231674502
 21
87.64205870330279
 31
0.0
  0
LINE
  5
829F
330
823A
100
AcDbEntity
  8
0
100
AcDbLine
 10
-14.72314841537742
 20
103.7678661766254
 30
0.0
 11
11.79335587911812
 21
88.45855528423051
 31
0.0
  0
LINE
  5
82A0
330
823A
100
AcDbEntity
  8
0
100
AcDbLine
 10
-14.72314841537743
 20
71.51625122998019
 30
0.0
 11
-14.72314841537742
 21
103.7678661766254
 31
0.0
  0
LINE
  5
82A1
330
823A
100
AcDbEntity
  8
0
100
AcDbLine
 10
-44.77518661580567
 20
-68.3087882538929
 30
0.0
 11
-44.77518661580568
 21
-53.61184979719382
 31
0.0
  0
LINE
  5
82A2
330
823A
100
AcDbEntity
  8
0
100
AcDbLine
 10
-16.49091536834378
 20
68.86263734196507
 30
0.0
 11
13.20756944149121
 21
86.00906554144733
 31
0.0
  0
LINE
  5
82A3
330
823A
100
AcDbEntity
  8
0
100
AcDbLine
 10
-46.18940017817878
 20
-52.7953532162661
 30
0.0
 11
-46.18940017817877
 21
-67.49229167296516
 31
0.0
  0
LINE
  5
82A4
330
823A
100
AcDbEntity
  8
0
100
AcDbLine
 10
11.79335587911811
 20
86.82556212237505
 30
0.0
 11
-17.90512893071687
 21
69.67913392289279
 31
0.0
  0
LINE
  5
82A5
330
823A
100
AcDbEntity
  8
0
100
AcDbLine
 10
13.20756944149122
 20
89.27505186515823
 30
0.0
 11
-13.30893485300433
 21
104.5843627575531
 31
0.0
  0
LINE
  5
82A6
330
823A
100
AcDbEntity
  8
0
100
AcDbLine
 10
-13.30893485300433
 20
104.5843627575531
 30
0.0
 11
-14.72314841537742
 21
103.7678661766254
 31
0.0
  0
ELLIPSE
  5
82A7
330
823A
100
AcDbEntity
  8
0
100
AcDbEllipse
 10
17.09665673801719
 20
-38.30253890479897
 30
0.0
 11
1.24999999999987
 21
2.165063509461171
 31
0.0
210
0.0
220
0.0
230
1.0
 40
0.577350269189626
 41
3.74285687026858
 42
5.681921090500114
  0
ELLIPSE
  5
82A8
330
823A
100
AcDbEntity
  8
0
100
AcDbEllipse
 10
18.51087030039028
 20
-39.1190354857267
 30
0.0
 11
-1.25
 21
-2.165063509461096
 31
0.0
210
0.0
220
0.0
230
1.0
 40
0.5773502691896259
 41
0.0
 42
6.283185307179586
  0
ELLIPSE
  5
82A9
330
823A
100
AcDbEntity
  8
0
100
AcDbEllipse
 10
17.09665673801719
 20
-21.97260728624446
 30
0.0
 11
1.24999999999987
 21
2.165063509461171
 31
0.0
210
0.0
220
0.0
230
1.0
 40
0.577350269189626
 41
3.74285687026858
 42
5.681921090500117
  0
ELLIPSE
  5
82AA
330
823A
100
AcDbEntity
  8
0
100
AcDbEllipse
 10
18.51087030039028
 20
-22.78910386717218
 30
0.0
 11
-1.25
 21
-2.165063509461096
 31
0.0
210
0.0
220
0.0
230
1.0
 40
0.5773502691896259
 41
0.0
 42
6.283185307179586
  0
ELLIPSE
  5
82AB
330
823A
100
AcDbEntity
  8
0
100
AcDbEllipse
 10
17.09665673801719
 20
-5.642675667689935
 30
0.0
 11
1.24999999999987
 21
2.165063509461171
 31
0.0
210
0.0
220
0.0
230
1.0
 40
0.577350269189626
 41
3.74285687026858
 42
5.681921090500118
  0
ELLIPSE
  5
82AC
330
823A
100
AcDbEntity
  8
0
100
AcDbEllipse
 10
18.51087030039028
 20
-6.459172248617659
 30
0.0
 11
-1.25
 21
-2.165063509461096
 31
0.0
210
0.0
220
0.0
230
1.0
 40
0.5773502691896259
 41
0.0
 42
6.283185307179586
  0
ELLIPSE
  5
82AD
330
823A
100
AcDbEntity
  8
0
100
AcDbEllipse
 10
17.09665673801719
 20
10.68725595086459
 30
0.0
 11
1.24999999999987
 21
2.165063509461171
 31
0.0
210
0.0
220
0.0
230
1.0
 40
0.577350269189626
 41
3.74285687026858
 42
5.681921090500117
  0
ELLIPSE
  5
82AE
330
823A
100
AcDbEntity
  8
0
100
AcDbEllipse
 10
18.51087030039028
 20
9.87075936993687
 30
0.0
 11
-1.25
 21
-2.165063509461096
 31
0.0
210
0.0
220
0.0
230
1.0
 40
0.5773502691896259
 41
0.0
 42
6.283185307179586
  0
ELLIPSE
  5
82AF
330
823A
100
AcDbEntity
  8
0
100
AcDbEllipse
 10
17.09665673801719
 20
27.01718756941911
 30
0.0
 11
1.24999999999987
 21
2.165063509461171
 31
0.0
210
0.0
220
0.0
230
1.0
 40
0.577350269189626
 41
3.74285687026858
 42
5.681921090500117
  0
ELLIPSE
  5
82B0
330
823A
100
AcDbEntity
  8
0
100
AcDbEllipse
 10
18.51087030039028
 20
26.20069098849139
 30
0.0
 11
-1.25
 21
-2.165063509461096
 31
0.0
210
0.0
220
0.0
230
1.0
 40
0.5773502691896259
 41
0.0
 42
6.283185307179586
  0
ELLIPSE
  5
82B1
330
823A
100
AcDbEntity
  8
0
100
AcDbEllipse
 10
-12.60182807181777
 20
-12.99114489603944
 30
0.0
 11
1.24999999999987
 21
2.165063509461172
 31
0.0
210
0.0
220
0.0
230
1.0
 40
0.5773502691896255
 41
3.74285687026858
 42
5.681921090500116
  0
ELLIPSE
  5
82B2
330
823A
100
AcDbEntity
  8
0
100
AcDbEllipse
 10
-11.18761450944466
 20
-13.80764147696717
 30
0.0
 11
1.249999999999999
 21
2.165063509461097
 31
0.0
210
0.0
220
0.0
230
0.9999999999999998
 40
0.5773502691896258
 41
0.0
 42
6.283185307179586
  0
ELLIPSE
  5
82B3
330
823A
100
AcDbEntity
  8
0
100
AcDbEllipse
 10
-12.60182807181777
 20
3.338786722515072
 30
0.0
 11
1.24999999999987
 21
2.165063509461172
 31
0.0
210
0.0
220
0.0
230
1.0
 40
0.5773502691896255
 41
3.74285687026858
 42
5.681921090500116
  0
ELLIPSE
  5
82B4
330
823A
100
AcDbEntity
  8
0
100
AcDbEllipse
 10
-11.18761450944466
 20
2.522290141587344
 30
0.0
 11
1.249999999999999
 21
2.165063509461097
 31
0.0
210
0.0
220
0.0
230
0.9999999999999998
 40
0.5773502691896258
 41
0.0
 42
6.283185307179586
  0
ELLIPSE
  5
82B5
330
823A
100
AcDbEntity
  8
0
100
AcDbEllipse
 10
-12.60182807181777
 20
19.6687183410696
 30
0.0
 11
1.24999999999987
 21
2.165063509461172
 31
0.0
210
0.0
220
0.0
230
1.0
 40
0.5773502691896255
 41
3.74285687026858
 42
5.68192109050012
  0
ELLIPSE
  5
82B6
330
823A
100
AcDbEntity
  8
0
100
AcDbEllipse
 10
-11.18761450944466
 20
18.85222176014187
 30
0.0
 11
1.249999999999999
 21
2.165063509461097
 31
0.0
210
0.0
220
0.0
230
0.9999999999999998
 40
0.5773502691896258
 41
0.0
 42
6.283185307179586
  0
ELLIPSE
  5
82B7
330
823A
100
AcDbEntity
  8
0
100
AcDbEllipse
 10
-12.60182807181777
 20
35.99864995962413
 30
0.0
 11
1.24999999999987
 21
2.165063509461172
 31
0.0
210
0.0
220
0.0
230
1.0
 40
0.5773502691896255
 41
3.74285687026858
 42
5.68192109050012
  0
ELLIPSE
  5
82B8
330
823A
100
AcDbEntity
  8
0
100
AcDbEllipse
 10
-11.18761450944466
 20
35.1821533786964
 30
0.0
 11
1.249999999999999
 21
2.165063509461097
 31
0.0
210
0.0
220
0.0
230
0.9999999999999998
 40
0.5773502691896258
 41
0.0
 42
6.283185307179586
  0
ELLIPSE
  5
82B9
330
823A
100
AcDbEntity
  8
0
100
AcDbEllipse
 10
-12.60182807181777
 20
52.32858157817862
 30
0.0
 11
1.24999999999987
 21
2.165063509461172
 31
0.0
210
0.0
220
0.0
230
1.0
 40
0.5773502691896255
 41
3.74285687026858
 42
5.681921090500117
  0
ELLIPSE
  5
82BA
330
823A
100
AcDbEntity
  8
0
100
AcDbEllipse
 10
-11.18761450944466
 20
51.5120849972509
 30
0.0
 11
1.249999999999999
 21
2.165063509461097
 31
0.0
210
0.0
220
0.0
230
0.9999999999999998
 40
0.5773502691896258
 41
0.0
 42
6.283185307179586
  0
ELLIPSE
  5
82BB
330
823A
100
AcDbEntity
  8
0
100
AcDbEllipse
 10
-12.60182807181777
 20
68.65851319673314
 30
0.0
 11
1.24999999999987
 21
2.165063509461172
 31
0.0
210
0.0
220
0.0
230
1.0
 40
0.5773502691896255
 41
3.74285687026858
 42
5.681921090500117
  0
ELLIPSE
  5
82BC
330
823A
100
AcDbEntity
  8
0
100
AcDbEllipse
 10
-11.18761450944466
 20
67.84201661580542
 30
0.0
 11
1.249999999999999
 21
2.165063509461097
 31
0.0
210
0.0
220
0.0
230
0.9999999999999998
 40
0.5773502691896258
 41
0.0
 42
6.283185307179586
  0
ENDBLK
  5
823C
330
823A
100
AcDbEntity
  8
0
100
AcDbBlockEnd
  0
ENDSEC
  0
SECTION
  2
ENTITIES
  0
INSERT
  5
82BD
330
1F
100
AcDbEntity
  8
0
100
AcDbBlockReference
  2
SAE340_40_2-Front
 10
0.0
 20
0.0
 30
0.0
  0
INSERT
  5
82BE
330
1F
100
AcDbEntity
  8
0
100
AcDbBlockReference
  2
SAE340_40_2-Left
 10
107.1
 20
0.0
 30
0.0
  0
INSERT
  5
82BF
330
1F
100
AcDbEntity
  8
0
100
AcDbBlockReference
  2
SAE340_40_2-Right
 10
-107.1
 20
0.0
 30
0.0
  0
INSERT
  5
82C0
330
1F
100
AcDbEntity
  8
0
100
AcDbBlockReference
  2
SAE340_40_2-Top
 10
0.0
 20
-47.6
 30
0.0
  0
INSERT
  5
82C1
330
1F
100
AcDbEntity
  8
0
100
AcDbBlockReference
  2
SAE340_40_2-Bottom
 10
0.0
 20
195.6
 30
0.0
  0
INSERT
  5
82C2
330
1F
100
AcDbEntity
  8
0
100
AcDbBlockReference
  2
SAE340_40_2-ISO
 10
153.2894001781789
 20
-152.1843627575531
 30
0.0
  0
MTEXT
  5
82C3
330
1F
100
AcDbEntity
  8
0
100
AcDbMText
 10
0.0
 20
-179.2
 30
0.0
 40
13.3875
 41
0.0
 71
     5
 72
     5
  1
SAE340/40/2
 73
     1
 44
1.0
1001
ACAD
1000
MTEXTBEGIN
1070
    73
1070
     1
1070
    44
1040
1.0
1070
    74
1070
     0
1000
MTEXTEND
  0
ENDSEC
  0
SECTION
  2
OBJECTS
  0
DICTIONARY
  5
C
330
0
100
AcDbDictionary
281
     1
  3
ACAD_CIP_PREVIOUS_PRODUCT_INFO
350
216
  3
ACAD_COLOR
350
6B
  3
ACAD_DETAILVIEWSTYLE
350
21B
  3
ACAD_GROUP
350
D
  3
ACAD_LAYOUT
350
1A
  3
ACAD_MATERIAL
350
6A
  3
ACAD_MLEADERSTYLE
350
12D
  3
ACAD_MLINESTYLE
350
17
  3
ACAD_PLOTSETTINGS
350
19
  3
ACAD_PLOTSTYLENAME
350
E
  3
ACAD_SCALELIST
350
10C
  3
ACAD_SECTIONVIEWSTYLE
350
219
  3
ACAD_TABLESTYLE
350
7E
  3
ACAD_VISUALSTYLE
350
EF
  3
ACDB_RECOMPOSE_DATA
350
83C4
  3
AcDbVariableDictionary
350
5E
  3
DWGPROPS
350
83C5
  0
DICTIONARY
  5
8314
330
8
100
AcDbDictionary
280
     1
281
     1
  0
DICTIONARY
  5
1FF
330
2
100
AcDbDictionary
280
     1
281
     1
  3
ACAD_LAYERSTATES
360
200
  0
DICTIONARY
  5
13C
330
10
100
AcDbDictionary
280
     1
281
     1
  0
DICTIONARY
  5
1CE
330
1F
100
AcDbDictionary
280
     1
281
     1
  3
ACAD_LAYOUTSELFREF
360
831C
  0
DICTIONARY
  5
82C7
330
D2
100
AcDbDictionary
280
     1
281
     1
  3
ACAD_LAYOUTSELFREF
360
8325
  0
DICTIONARY
  5
82C9
330
D6
100
AcDbDictionary
280
     1
281
     1
  3
ACAD_LAYOUTSELFREF
360
8328
  0
XRECORD
  5
216
102
{ACAD_REACTORS
330
C
102
}
330
C
100
AcDbXrecord
280
     1
300
ACD
300
2021
300
87393ACD_2021_0F
  0
DICTIONARY
  5
6B
102
{ACAD_REACTORS
330
C
102
}
330
C
100
AcDbDictionary
281
     1
  0
DICTIONARY
  5
21B
102
{ACAD_REACTORS
330
C
102
}
330
C
100
AcDbDictionary
281
     1
  3
Metric50
350
21C
  0
DICTIONARY
  5
D
102
{ACAD_REACTORS
330
C
102
}
330
C
100
AcDbDictionary
281
     1
  0
DICTIONARY
  5
1A
102
{ACAD_REACTORS
330
C
102
}
330
C
100
AcDbDictionary
281
     1
  3
Layout1
350
D3
  3
Layout2
350
D7
  3
Model
350
22
  0
DICTIONARY
  5
6A
102
{ACAD_REACTORS
330
C
102
}
330
C
100
AcDbDictionary
281
     1
  3
ByBlock
350
ED
  3
ByLayer
350
EC
  3
Global
350
EE
  0
DICTIONARY
  5
12D
102
{ACAD_REACTORS
330
C
102
}
330
C
100
AcDbDictionary
281
     1
  3
Standard
350
12E
  0
DICTIONARY
  5
17
102
{ACAD_REACTORS
330
C
102
}
330
C
100
AcDbDictionary
281
     1
  3
Standard
350
18
  0
DICTIONARY
  5
19
102
{ACAD_REACTORS
330
C
102
}
330
C
100
AcDbDictionary
281
     1
  0
ACDBDICTIONARYWDFLT
  5
E
102
{ACAD_REACTORS
330
C
102
}
330
C
100
AcDbDictionary
281
     1
  3
Normal
350
F
100
AcDbDictionaryWithDefault
340
F
  0
DICTIONARY
  5
10C
102
{ACAD_REACTORS
330
C
102
}
330
C
100
AcDbDictionary
281
     1
  3
A0
350
10D
  3
A1
350
1BE
  3
A2
350
1BF
  3
A3
350
1C0
  3
A4
350
1C1
  3
A5
350
1C2
  3
A6
350
1C3
  3
A7
350
1C4
  3
A8
350
1C5
  3
A9
350
1C6
  3
B0
350
1C7
  3
B1
350
1C8
  3
B2
350
1C9
  3
B3
350
1CA
  3
B4
350
1CB
  3
B5
350
1CC
  3
B6
350
1CD
  0
DICTIONARY
  5
219
102
{ACAD_REACTORS
330
C
102
}
330
C
100
AcDbDictionary
281
     1
  3
Metric50
350
21A
  0
DICTIONARY
  5
7E
102
{ACAD_REACTORS
330
C
102
}
330
C
100
AcDbDictionary
281
     1
  3
Standard
350
7F
  0
DICTIONARY
  5
EF
102
{ACAD_REACTORS
330
C
102
}
330
C
100
AcDbDictionary
281
     1
  3
2dWireframe
350
F5
  3
Basic
350
F4
  3
Brighten
350
FB
  3
ColorChange
350
FF
  3
Conceptual
350
F8
  3
Dim
350
FA
  3
EdgeColorOff
350
1E6
  3
Facepattern
350
FE
  3
Flat
350
F0
  3
FlatWithEdges
350
F1
  3
Gouraud
350
F2
  3
GouraudWithEdges
350
F3
  3
Hidden
350
F7
  3
JitterOff
350
1E4
  3
Linepattern
350
FD
  3
OverhangOff
350
1E5
  3
Realistic
350
F9
  3
Shaded
350
1F3
  3
Shaded with edges
350
1F2
  3
Shades of Gray
350
1EF
  3
Sketchy
350
1F0
  3
Thicken
350
FC
  3
Wireframe
350
F6
  3
X-Ray
350
1F1
  0
XRECORD
  5
83C4
102
{ACAD_REACTORS
330
C
102
}
330
C
100
AcDbXrecord
280
     1
 90
        1
330
7F
  0
DICTIONARY
  5
5E
102
{ACAD_REACTORS
330
C
102
}
330
C
100
AcDbDictionary
281
     1
  3
CANNOSCALE
350
146
  3
CENTEREXE
350
259
  3
CENTERLTYPEFILE
350
25A
  3
CMLEADERSTYLE
350
145
  3
CTABLESTYLE
350
84
  3
CVIEWDETAILSTYLE
350
227
  3
CVIEWSECTIONSTYLE
350
228
  3
DIMASSOC
350
5F
  3
HIDETEXT
350
63
  3
INDEXCTL
350
8371
  3
LAYEREVAL
350
1AE
  3
LAYERNOTIFY
350
1AF
  3
LIGHTINGUNITS
350
836F
  3
MSLTSCALE
350
836E
  3
PSOLHEIGHT
350
83C1
  3
PSOLWIDTH
350
83C0
  3
SORTENTS
350
8370
  3
XCLIPFRAME
350
83C2
  0
XRECORD
  5
83C5
102
{ACAD_REACTORS
330
C
102
}
330
C
100
AcDbXrecord
280
     1
  1
DWGPROPS COOKIE
  2

  3

  4

  6

  7

  8
truole
  9

300
=
301
=
302
=
303
=
304
=
305
=
306
=
307
=
308
=
309
=
 40
0.0077199074074074
 41
2460398.356956019
 42
2460398.374259259
  1

 90
        0
  0
DICTIONARY
  5
200
102
{ACAD_REACTORS
330
1FF
102
}
330
1FF
100
AcDbDictionary
281
     1
  0
XRECORD
  5
831C
102
{ACAD_REACTORS
330
1CE
102
}
330
1CE
100
AcDbXrecord
280
     1
340
1F
  0
XRECORD
  5
8325
102
{ACAD_REACTORS
330
82C7
102
}
330
82C7
100
AcDbXrecord
280
     1
340
D2
  0
XRECORD
  5
8328
102
{ACAD_REACTORS
330
82C9
102
}
330
82C9
100
AcDbXrecord
280
     1
340
D6
  0
ACDBDETAILVIEWSTYLE
  5
21C
102
{ACAD_XDICTIONARY
360
8404
102
}
102
{ACAD_REACTORS
330
21B
102
}
330
21B
100
AcDbModelDocViewStyle
 70
     0
  3
Metric50
290
     0
100
AcDbDetailViewStyle
 70
     0
 71
     0
 90
        3
 71
     1
340
11
 40
5.0
340
0
 40
5.0
300

 40
0.0
280
     1
 71
     2
340
16
 90
       25
 71
     3
340
11
 40
5.0
 90
        0
 40
15.0
 90
        1
300
%<\AcVar ViewDetailId>% (%<\AcVar ViewScale \f "%sn">%)
 71
     4
340
16
 90
       25
340
16
 90
       25
280
     0
  0
LAYOUT
  5
D3
102
{ACAD_XDICTIONARY
360
83C9
102
}
102
{ACAD_REACTORS
330
1A
102
}
330
1A
100
AcDbPlotSettings
  1

  2
C:\Documents and Settings\basas\Application Data\Autodesk\AutoCAD 2005\R16.1\enu\plotters\Default Windows System Printer.pc3
  4

  6

 40
0.0
 41
0.0
 42
0.0
 43
0.0
 44
0.0
 45
0.0
 46
0.0
 47
0.0
 48
0.0
 49
0.0
140
0.0
141
0.0
142
1.0
143
1.0
 70
   688
 72
     0
 73
     0
 74
     5
  7

 75
    16
147
1.0
148
0.0
149
0.0
100
AcDbLayout
  1
Layout1
 70
     1
 71
     1
 10
0.0
 20
0.0
 11
12.0
 21
9.0
 12
0.0
 22
0.0
 32
0.0
 14
0.0
 24
0.0
 34
0.0
 15
0.0
 25
0.0
 35
0.0
146
0.0
 13
0.0
 23
0.0
 33
0.0
 16
1.0
 26
0.0
 36
0.0
 17
0.0
 27
1.0
 37
0.0
 76
     0
330
D2
  0
LAYOUT
  5
D7
102
{ACAD_XDICTIONARY
360
83CB
102
}
102
{ACAD_REACTORS
330
1A
102
}
330
1A
100
AcDbPlotSettings
  1

  2
C:\Documents and Settings\basas\Application Data\Autodesk\AutoCAD 2005\R16.1\enu\plotters\Default Windows System Printer.pc3
  4

  6

 40
0.0
 41
0.0
 42
0.0
 43
0.0
 44
0.0
 45
0.0
 46
0.0
 47
0.0
 48
0.0
 49
0.0
140
0.0
141
0.0
142
1.0
143
1.0
 70
   688
 72
     0
 73
     0
 74
     5
  7

 75
    16
147
1.0
148
0.0
149
0.0
100
AcDbLayout
  1
Layout2
 70
     1
 71
     2
 10
0.0
 20
0.0
 11
12.0
 21
9.0
 12
0.0
 22
0.0
 32
0.0
 14
0.0
 24
0.0
 34
0.0
 15
0.0
 25
0.0
 35
0.0
146
0.0
 13
0.0
 23
0.0
 33
0.0
 16
1.0
 26
0.0
 36
0.0
 17
0.0
 27
1.0
 37
0.0
 76
     0
330
D6
  0
LAYOUT
  5
22
102
{ACAD_XDICTIONARY
360
83C6
102
}
102
{ACAD_REACTORS
330
1A
102
}
330
1A
100
AcDbPlotSettings
  1

  2
none_device
  4
ISO_A4_(210.00_x_297.00_MM)
  6

 40
7.5
 41
20.0
 42
7.5
 43
20.0
 44
210.0
 45
297.0
 46
11.54999923706054
 47
-13.65000009536743
 48
0.0
 49
0.0
140
0.0
141
0.0
142
1.0
143
8.704084754739808
 70
 11952
 72
     1
 73
     0
 74
     0
  7

 75
     0
147
0.1148885871608098
148
0.0
149
0.0
100
AcDbLayout
  1
Model
 70
     1
 71
     0
 10
0.0
 20
0.0
 11
12.0
 21
9.0
 12
0.0
 22
0.0
 32
0.0
 14
0.0
 24
0.0
 34
0.0
 15
0.0
 25
0.0
 35
0.0
146
0.0
 13
0.0
 23
0.0
 33
0.0
 16
1.0
 26
0.0
 36
0.0
 17
0.0
 27
1.0
 37
0.0
 76
     0
330
1F
331
EA
1001
ACAD_PSEXT
1000
None
1000
None
1000
Not applicable
1000
The layout will not be plotted unless a new plotter configuration name is selected.
1070
     0
  0
MATERIAL
  5
ED
102
{ACAD_XDICTIONARY
360
1F9
102
}
102
{ACAD_REACTORS
330
6A
102
}
330
6A
100
AcDbMaterial
  1
ByBlock
  0
MATERIAL
  5
EC
102
{ACAD_XDICTIONARY
360
1F7
102
}
102
{ACAD_REACTORS
330
6A
102
}
330
6A
100
AcDbMaterial
  1
ByLayer
  0
MATERIAL
  5
EE
102
{ACAD_XDICTIONARY
360
173
102
}
102
{ACAD_REACTORS
330
6A
102
}
330
6A
100
AcDbMaterial
  1
Global
 43
0.0007999999797903
 43
0.0
 43
0.0
 43
0.0
 43
0.0
 43
0.0007999999797903
 43
0.0
 43
0.0
 43
0.0
 43
0.0
 43
1.0
 43
0.0
 43
0.0
 43
0.0
 43
0.0
 43
1.0
 49
0.0007999999797903
 49
0.0
 49
0.0
 49
0.0
 49
0.0
 49
0.0007999999797903
 49
0.0
 49
0.0
 49
0.0
 49
0.0
 49
1.0
 49
0.0
 49
0.0
 49
0.0
 49
0.0
 49
1.0
142
0.0007999999797903
142
0.0
142
0.0
142
0.0
142
0.0
142
0.0007999999797903
142
0.0
142
0.0
142
0.0
142
0.0
142
1.0
142
0.0
142
0.0
142
0.0
142
0.0
142
1.0
144
0.0007999999797903
144
0.0
144
0.0
144
0.0
144
0.0
144
0.0007999999797903
144
0.0
144
0.0
144
0.0
144
0.0
144
1.0
144
0.0
144
0.0
144
0.0
144
0.0
144
1.0
1001
ACAD
1070
    -1
1070
     3
1070
     0
1000

1071
        0
1070
     0
  0
MLEADERSTYLE
  5
12E
102
{ACAD_XDICTIONARY
360
83F0
102
}
102
{ACAD_REACTORS
330
12D
102
}
330
12D
100
AcDbMLeaderStyle
170
     2
171
     1
172
     0
 90
        2
 40
0.0
 41
0.0
173
     1
 91
-1056964608
340
14
 92
       -2
290
     1
 42
2.0
291
     1
 43
8.0
  3
Standard
 44
4.0
300

342
11
174
     1
178
     1
175
     1
176
     0
 93
-1056964608
 45
4.0
292
     0
297
     0
 46
4.0
 94
-1056964608
 47
1.0
 49
1.0
140
1.0
293
     1
141
0.0
294
     1
177
     0
142
1.0
295
     0
296
     0
143
3.75
1001
ACAD_MLEADERVER
1070
     2
  0
MLINESTYLE
  5
18
102
{ACAD_REACTORS
330
17
102
}
330
17
100
AcDbMlineStyle
  2
STANDARD
 70
     0
  3

 62
   256
 51
90.0
 52
90.0
 71
     2
 49
0.5
 62
   256
  6
BYLAYER
 49
-0.5
 62
   256
  6
BYLAYER
  0
ACDBPLACEHOLDER
  5
F
102
{ACAD_REACTORS
330
E
102
}
330
E
  0
SCALE
  5
10D
102
{ACAD_REACTORS
330
10C
102
}
330
10C
100
AcDbScale
 70
     0
300
1:1
140
1.0
141
1.0
290
     1
  0
SCALE
  5
1BE
102
{ACAD_REACTORS
330
10C
102
}
330
10C
100
AcDbScale
 70
     0
300
1:2
140
1.0
141
2.0
290
     0
  0
SCALE
  5
1BF
102
{ACAD_REACTORS
330
10C
102
}
330
10C
100
AcDbScale
 70
     0
300
1:4
140
1.0
141
4.0
290
     0
  0
SCALE
  5
1C0
102
{ACAD_REACTORS
330
10C
102
}
330
10C
100
AcDbScale
 70
     0
300
1:5
140
1.0
141
5.0
290
     0
  0
SCALE
  5
1C1
102
{ACAD_REACTORS
330
10C
102
}
330
10C
100
AcDbScale
 70
     0
300
1:8
140
1.0
141
8.0
290
     0
  0
SCALE
  5
1C2
102
{ACAD_REACTORS
330
10C
102
}
330
10C
100
AcDbScale
 70
     0
300
1:10
140
1.0
141
10.0
290
     0
  0
SCALE
  5
1C3
102
{ACAD_REACTORS
330
10C
102
}
330
10C
100
AcDbScale
 70
     0
300
1:16
140
1.0
141
16.0
290
     0
  0
SCALE
  5
1C4
102
{ACAD_REACTORS
330
10C
102
}
330
10C
100
AcDbScale
 70
     0
300
1:20
140
1.0
141
20.0
290
     0
  0
SCALE
  5
1C5
102
{ACAD_REACTORS
330
10C
102
}
330
10C
100
AcDbScale
 70
     0
300
1:30
140
1.0
141
30.0
290
     0
  0
SCALE
  5
1C6
102
{ACAD_REACTORS
330
10C
102
}
330
10C
100
AcDbScale
 70
     0
300
1:40
140
1.0
141
40.0
290
     0
  0
SCALE
  5
1C7
102
{ACAD_REACTORS
330
10C
102
}
330
10C
100
AcDbScale
 70
     0
300
1:50
140
1.0
141
50.0
290
     0
  0
SCALE
  5
1C8
102
{ACAD_REACTORS
330
10C
102
}
330
10C
100
AcDbScale
 70
     0
300
1:100
140
1.0
141
100.0
290
     0
  0
SCALE
  5
1C9
102
{ACAD_REACTORS
330
10C
102
}
330
10C
100
AcDbScale
 70
     0
300
2:1
140
2.0
141
1.0
290
     0
  0
SCALE
  5
1CA
102
{ACAD_REACTORS
330
10C
102
}
330
10C
100
AcDbScale
 70
     0
300
4:1
140
4.0
141
1.0
290
     0
  0
SCALE
  5
1CB
102
{ACAD_REACTORS
330
10C
102
}
330
10C
100
AcDbScale
 70
     0
300
8:1
140
8.0
141
1.0
290
     0
  0
SCALE
  5
1CC
102
{ACAD_REACTORS
330
10C
102
}
330
10C
100
AcDbScale
 70
     0
300
10:1
140
10.0
141
1.0
290
     0
  0
SCALE
  5
1CD
102
{ACAD_REACTORS
330
10C
102
}
330
10C
100
AcDbScale
 70
     0
300
100:1
140
100.0
141
1.0
290
     0
  0
ACDBSECTIONVIEWSTYLE
  5
21A
102
{ACAD_XDICTIONARY
360
8402
102
}
102
{ACAD_REACTORS
330
219
102
}
330
219
100
AcDbModelDocViewStyle
 70
     0
  3
Metric50
290
     0
100
AcDbSectionViewStyle
 70
     0
 71
     0
 90
      102
 71
     1
340
11
 40
5.0
340
0
340
0
 40
5.0
300
I, O, Q, S, X, Z
 40
10.0
 90
        0
 40
2.5
 90
        0
 71
     2
340
16
 90
       25
340
16
 90
       50
 40
5.0
 40
2.5
 40
5.0
 71
     3
340
11
 40
5.0
 90
        0
 40
15.0
 90
        1
300
%<\AcVar ViewSectionStartId>%-%<\AcVar ViewSectionEndId>% (%<\AcVar ViewScale \f "%sn">%)
 71
     4
300
ANSI31
 40
1.0
 90
        0
290
     0
290
     0
 90
        6
 40
0.0
 40
1.570796326794896
 40
0.2617993877991494
 40
1.308996938995747
 40
-0.2617993877991494
 40
1.832595714594046
  0
TABLESTYLE
  5
7F
102
{ACAD_XDICTIONARY
360
162
102
}
102
{ACAD_REACTORS
330
7E
102
}
330
7E
100
AcDbTableStyle
  3
Standard
 70
     0
 71
     0
 40
1.5
 41
1.5
280
     0
281
     0
  7
Standard
140
4.5
170
     2
 62
     0
 63
     7
283
     0
274
    -2
284
     1
 64
     0
275
    -2
285
     1
 65
     0
276
    -2
286
     1
 66
     0
277
    -2
287
     1
 67
     0
278
    -2
288
     1
 68
     0
279
    -2
289
     1
 69
     0
  7
Standard
140
6.0
170
     5
 62
     0
 63
     7
283
     0
274
    -2
284
     1
 64
     0
275
    -2
285
     1
 65
     0
276
    -2
286
     1
 66
     0
277
    -2
287
     1
 67
     0
278
    -2
288
     1
 68
     0
279
    -2
289
     1
 69
     0
  7
Standard
140
4.5
170
     5
 62
     0
 63
     7
283
     0
274
    -2
284
     1
 64
     0
275
    -2
285
     1
 65
     0
276
    -2
286
     1
 66
     0
277
    -2
287
     1
 67
     0
278
    -2
288
     1
 68
     0
279
    -2
289
     1
 69
     0
  0
VISUALSTYLE
  5
F5
102
{ACAD_XDICTIONARY
360
83DA
102
}
102
{ACAD_REACTORS
330
EF
102
}
330
EF
100
AcDbVisualStyle
  2
2dWireframe
 70
     4
 71
     0
 72
     2
 73
     1
 90
        0
 40
-0.6
 41
-30.0
 62
     5
 63
     7
 74
     1
 91
        4
 64
     7
 65
   257
 75
     1
175
     1
 42
1.0
 92
        0
 66
   257
 43
1.0
 76
     1
 77
     6
 78
     2
 67
     7
 79
     5
170
     0
171
     0
290
     0
174
     0
 93
        1
 44
0.0
173
     0
291
     0
 45
0.0
1001
ACAD
1000
AcDbSavedByObjectVersion
1070
     0
  0
VISUALSTYLE
  5
F4
102
{ACAD_XDICTIONARY
360
83D8
102
}
102
{ACAD_REACTORS
330
EF
102
}
330
EF
100
AcDbVisualStyle
  2
Basic
 70
     7
 71
     1
 72
     0
 73
     1
 90
        0
 40
-0.6
 41
-30.0
 62
     5
 63
     7
 74
     0
 91
        4
 64
     7
 65
   257
 75
     1
175
     1
 42
1.0
 92
        8
 66
     7
 43
1.0
 76
     1
 77
     6
 78
     2
 67
     7
 79
     5
170
     0
171
     0
290
     0
174
     0
 93
        1
 44
0.0
173
     0
291
     1
 45
0.0
1001
ACAD
1000
AcDbSavedByObjectVersion
1070
     0
  0
VISUALSTYLE
  5
FB
102
{ACAD_XDICTIONARY
360
83E6
102
}
102
{ACAD_REACTORS
330
EF
102
}
330
EF
100
AcDbVisualStyle
  2
Brighten
 70
    12
 71
     2
 72
     2
 73
     1
 90
        0
 40
-0.6
 41
-30.0
 62
     5
 63
     7
 74
     1
 91
        4
 64
     7
 65
   257
 75
     1
175
     1
 42
1.0
 92
        8
 66
     7
 43
1.0
 76
     1
 77
     6
 78
     2
 67
     7
 79
     5
170
     0
171
     0
290
     0
174
     0
 93
        1
 44
50.0
173
     0
291
     1
 45
0.0
1001
ACAD
1000
AcDbSavedByObjectVersion
1070
     0
  0
VISUALSTYLE
  5
FF
102
{ACAD_XDICTIONARY
360
83EE
102
}
102
{ACAD_REACTORS
330
EF
102
}
330
EF
100
AcDbVisualStyle
  2
ColorChange
 70
    16
 71
     2
 72
     2
 73
     3
 90
        0
 40
-0.6
 41
-30.0
 62
     5
 63
     8
 74
     1
 91
        4
 64
     7
 65
   257
 75
     1
175
     1
 42
1.0
 92
        8
 66
     8
 43
1.0
 76
     1
 77
     6
 78
     2
 67
     7
 79
     5
170
     0
171
     0
290
     0
174
     0
 93
        1
 44
0.0
173
     0
291
     1
 45
0.0
1001
ACAD
1000
AcDbSavedByObjectVersion
1070
     0
  0
VISUALSTYLE
  5
F8
102
{ACAD_XDICTIONARY
360
83E0
102
}
102
{ACAD_REACTORS
330
EF
102
}
330
EF
100
AcDbVisualStyle
  2
Conceptual
 70
     9
 71
     3
 72
     2
 73
     1
 90
        0
 40
-0.6
 41
-30.0
 62
     5
 63
     7
 74
     2
 91
        2
 64
     7
 65
   257
 75
     1
175
     1
 42
40.0
 92
        8
 66
     7
 43
1.0
 76
     1
 77
     6
 78
     2
 67
     7
 79
     3
170
     0
171
     0
290
     0
174
     0
 93
        1
 44
0.0
173
     0
291
     0
 45
0.0
1001
ACAD
1000
AcDbSavedByObjectVersion
1070
     0
  0
VISUALSTYLE
  5
FA
102
{ACAD_XDICTIONARY
360
83E4
102
}
102
{ACAD_REACTORS
330
EF
102
}
330
EF
100
AcDbVisualStyle
  2
Dim
 70
    11
 71
     2
 72
     2
 73
     1
 90
        0
 40
-0.6
 41
-30.0
 62
     5
 63
     7
 74
     1
 91
        4
 64
     7
 65
   257
 75
     1
175
     1
 42
1.0
 92
        8
 66
     7
 43
1.0
 76
     1
 77
     6
 78
     2
 67
     7
 79
     5
170
     0
171
     0
290
     0
174
     0
 93
        1
 44
-50.0
173
     0
291
     1
 45
0.0
1001
ACAD
1000
AcDbSavedByObjectVersion
1070
     0
  0
VISUALSTYLE
  5
1E6
102
{ACAD_XDICTIONARY
360
83F6
102
}
102
{ACAD_REACTORS
330
EF
102
}
330
EF
100
AcDbVisualStyle
  2
EdgeColorOff
 70
    22
 71
     2
 72
     2
 73
     0
 90
        0
 40
-0.6
 41
-30.0
 62
     5
 63
     7
 74
     1
 91
        4
 64
     7
 65
   257
 75
     1
175
     1
 42
1.0
 92
        8
 66
     7
 43
1.0
 76
     1
 77
     6
 78
     2
 67
     7
 79
     5
170
     0
171
     0
290
     0
174
     0
 93
        1
 44
0.0
173
     0
291
     1
 45
0.0
1001
ACAD
1000
AcDbSavedByObjectVersion
1070
     0
  0
VISUALSTYLE
  5
FE
102
{ACAD_XDICTIONARY
360
83EC
102
}
102
{ACAD_REACTORS
330
EF
102
}
330
EF
100
AcDbVisualStyle
  2
Facepattern
 70
    15
 71
     2
 72
     2
 73
     1
 90
        0
 40
-0.6
 41
-30.0
 62
     5
 63
     7
 74
     1
 91
        4
 64
     7
 65
   257
 75
     1
175
     1
 42
1.0
 92
        8
 66
     7
 43
1.0
 76
     1
 77
     6
 78
     2
 67
     7
 79
     5
170
     0
171
     0
290
     0
174
     0
 93
        1
 44
0.0
173
     0
291
     1
 45
0.0
1001
ACAD
1000
AcDbSavedByObjectVersion
1070
     0
  0
VISUALSTYLE
  5
F0
102
{ACAD_XDICTIONARY
360
83D0
102
}
102
{ACAD_REACTORS
330
EF
102
}
330
EF
100
AcDbVisualStyle
  2
Flat
 70
     0
 71
     2
 72
     1
 73
     1
 90
        2
 40
-0.6
 41
30.0
 62
     5
 63
     7
 74
     0
 91
        0
 64
     7
 65
   257
 75
     1
175
     1
 42
1.0
 92
        8
 66
     7
 43
1.0
 76
     1
 77
     6
 78
     2
 67
     7
 79
     5
170
     0
171
     0
290
     0
174
     0
 93
       13
 44
0.0
173
     0
291
     1
 45
0.0
1001
ACAD
1000
AcDbSavedByObjectVersion
1070
     0
  0
VISUALSTYLE
  5
F1
102
{ACAD_XDICTIONARY
360
83D2
102
}
102
{ACAD_REACTORS
330
EF
102
}
330
EF
100
AcDbVisualStyle
  2
FlatWithEdges
 70
     1
 71
     2
 72
     1
 73
     1
 90
        2
 40
-0.6
 41
30.0
 62
     5
 63
     7
 74
     1
 91
        0
 64
     7
 65
   257
 75
     1
175
     1
 42
1.0
 92
        0
 66
   257
 43
1.0
 76
     1
 77
     6
 78
     2
 67
     7
 79
     5
170
     0
171
     0
290
     0
174
     0
 93
       13
 44
0.0
173
     0
291
     1
 45
0.0
1001
ACAD
1000
AcDbSavedByObjectVersion
1070
     0
  0
VISUALSTYLE
  5
F2
102
{ACAD_XDICTIONARY
360
83D4
102
}
102
{ACAD_REACTORS
330
EF
102
}
330
EF
100
AcDbVisualStyle
  2
Gouraud
 70
     2
 71
     2
 72
     2
 73
     1
 90
        2
 40
-0.6
 41
30.0
 62
     5
 63
     7
 74
     0
 91
        0
 64
     7
 65
   257
 75
     1
175
     1
 42
1.0
 92
        0
 66
     7
 43
1.0
 76
     1
 77
     6
 78
     2
 67
     7
 79
     5
170
     0
171
     0
290
     0
174
     0
 93
       13
 44
0.0
173
     0
291
     1
 45
0.0
1001
ACAD
1000
AcDbSavedByObjectVersion
1070
     0
  0
VISUALSTYLE
  5
F3
102
{ACAD_XDICTIONARY
360
83D6
102
}
102
{ACAD_REACTORS
330
EF
102
}
330
EF
100
AcDbVisualStyle
  2
GouraudWithEdges
 70
     3
 71
     2
 72
     2
 73
     1
 90
        2
 40
-0.6
 41
30.0
 62
     5
 63
     7
 74
     1
 91
        0
 64
     7
 65
   257
 75
     1
175
     1
 42
1.0
 92
        0
 66
   257
 43
1.0
 76
     1
 77
     6
 78
     2
 67
     7
 79
     5
170
     0
171
     0
290
     0
174
     0
 93
       13
 44
0.0
173
     0
291
     1
 45
0.0
1001
ACAD
1000
AcDbSavedByObjectVersion
1070
     0
  0
VISUALSTYLE
  5
F7
102
{ACAD_XDICTIONARY
360
83DE
102
}
102
{ACAD_REACTORS
330
EF
102
}
330
EF
100
AcDbVisualStyle
  2
Hidden
 70
     6
 71
     1
 72
     2
 73
     2
 90
        0
 40
-0.6
 41
-30.0
 62
     5
 63
     7
 74
     2
 91
        2
 64
     7
 65
   257
 75
     2
175
     1
 42
40.0
 92
        0
 66
   257
 43
1.0
 76
     1
 77
     6
 78
     2
 67
     7
 79
     3
170
     0
171
     0
290
     0
174
     0
 93
        1
 44
0.0
173
     0
291
     0
 45
0.0
1001
ACAD
1000
AcDbSavedByObjectVersion
1070
     0
  0
VISUALSTYLE
  5
1E4
102
{ACAD_XDICTIONARY
360
83F2
102
}
102
{ACAD_REACTORS
330
EF
102
}
330
EF
100
AcDbVisualStyle
  2
JitterOff
 70
    20
 71
     2
 72
     2
 73
     0
 90
        0
 40
-0.6
 41
-30.0
 62
     5
 63
     7
 74
     1
 91
        4
 64
     7
 65
   257
 75
     1
175
     1
 42
1.0
 92
       10
 66
     7
 43
1.0
 76
     1
 77
     6
 78
     2
 67
     7
 79
     5
170
     0
171
     0
290
     0
174
     0
 93
        1
 44
0.0
173
     0
291
     1
 45
0.0
1001
ACAD
1000
AcDbSavedByObjectVersion
1070
     0
  0
VISUALSTYLE
  5
FD
102
{ACAD_XDICTIONARY
360
83EA
102
}
102
{ACAD_REACTORS
330
EF
102
}
330
EF
100
AcDbVisualStyle
  2
Linepattern
 70
    14
 71
     2
 72
     2
 73
     1
 90
        0
 40
-0.6
 41
-30.0
 62
     5
 63
     7
 74
     1
 91
        4
 64
     7
 65
   257
 75
     7
175
     7
 42
1.0
 92
        8
 66
     7
 43
1.0
 76
     1
 77
     6
 78
     2
 67
     7
 79
     5
170
     0
171
     0
290
     0
174
     0
 93
        1
 44
0.0
173
     0
291
     1
 45
0.0
1001
ACAD
1000
AcDbSavedByObjectVersion
1070
     0
  0
VISUALSTYLE
  5
1E5
102
{ACAD_XDICTIONARY
360
83F4
102
}
102
{ACAD_REACTORS
330
EF
102
}
330
EF
100
AcDbVisualStyle
  2
OverhangOff
 70
    21
 71
     2
 72
     2
 73
     0
 90
        0
 40
-0.6
 41
-30.0
 62
     5
 63
     7
 74
     1
 91
        4
 64
     7
 65
   257
 75
     1
175
     1
 42
1.0
 92
        9
 66
     7
 43
1.0
 76
     1
 77
     6
 78
     2
 67
     7
 79
     5
170
     0
171
     0
290
     0
174
     0
 93
        1
 44
0.0
173
     0
291
     1
 45
0.0
1001
ACAD
1000
AcDbSavedByObjectVersion
1070
     0
  0
VISUALSTYLE
  5
F9
102
{ACAD_XDICTIONARY
360
83E2
102
}
102
{ACAD_REACTORS
330
EF
102
}
330
EF
100
AcDbVisualStyle
  2
Realistic
 70
     8
 71
     2
 72
     2
 73
     0
 90
        2
 40
-0.6
 41
30.0
 62
     5
 63
     7
 74
     0
 91
        0
 64
     7
 65
   257
 75
     1
175
     1
 42
1.0
 92
        8
 66
   257
 43
1.0
 76
     1
 77
     6
 78
     2
 67
     7
 79
     3
170
     0
171
     0
290
     0
174
     0
 93
       13
 44
0.0
173
     0
291
     0
 45
0.0
1001
ACAD
1000
AcDbSavedByObjectVersion
1070
     0
  0
VISUALSTYLE
  5
1F3
102
{ACAD_XDICTIONARY
360
8400
102
}
102
{ACAD_REACTORS
330
EF
102
}
330
EF
100
AcDbVisualStyle
  2
Shaded
 70
    27
 71
     2
 72
     2
 73
     1
 90
        2
 40
-0.6
 41
30.0
 62
     5
 63
     7
 74
     0
 91
        4
 64
     7
 65
   257
 75
     1
175
     1
 42
1.0
 92
        8
 66
   257
 43
1.0
 76
     1
 77
     6
 78
     2
 67
     8
 79
     3
170
     0
171
     0
290
     0
174
     0
 93
        5
 44
0.0
173
     0
291
     0
 45
0.0
1001
ACAD
1000
AcDbSavedByObjectVersion
1070
     0
  0
VISUALSTYLE
  5
1F2
102
{ACAD_XDICTIONARY
360
83FE
102
}
102
{ACAD_REACTORS
330
EF
102
}
330
EF
100
AcDbVisualStyle
  2
Shaded with edges
 70
    26
 71
     2
 72
     2
 73
     1
 90
        2
 40
-0.6
 41
30.0
 62
     5
 63
     7
 74
     1
 91
        2
 64
     7
 65
   257
 75
     2
175
     1
 42
1.0
 92
        8
 66
   257
 43
1.0
 76
     1
 77
     6
 78
     2
 67
     7
 79
     3
170
     0
171
     0
290
     0
174
     0
 93
        5
 44
0.0
173
     0
291
     0
 45
0.0
1001
ACAD
1000
AcDbSavedByObjectVersion
1070
     0
  0
VISUALSTYLE
  5
1EF
102
{ACAD_XDICTIONARY
360
83F8
102
}
102
{ACAD_REACTORS
330
EF
102
}
330
EF
100
AcDbVisualStyle
  2
Shades of Gray
 70
    23
 71
     2
 72
     2
 73
     3
 90
        0
 40
-0.6
 41
-30.0
 62
     5
 63
     7
 74
     2
 91
        2
 64
     7
 65
     7
 75
     1
175
     1
 42
40.0
 92
        8
 66
     7
 43
1.0
 76
     1
 77
     6
 78
     2
 67
     7
 79
     3
170
     0
171
     0
290
     0
174
     0
 93
        1
 44
0.0
173
     0
291
     0
 45
0.0
1001
ACAD
1000
AcDbSavedByObjectVersion
1070
     0
  0
VISUALSTYLE
  5
1F0
102
{ACAD_XDICTIONARY
360
83FA
102
}
102
{ACAD_REACTORS
330
EF
102
}
330
EF
100
AcDbVisualStyle
  2
Sketchy
 70
    24
 71
     1
 72
     2
 73
     2
 90
        0
 40
-0.6
 41
-30.0
 62
     5
 63
     7
 74
     2
 91
        2
 64
     7
 65
     7
 75
     1
175
     1
 42
40.0
 92
       11
 66
     7
 43
1.0
 76
     1
 77
     6
 78
     2
 67
     7
 79
     6
170
     0
171
     0
290
     0
174
     0
 93
        1
 44
0.0
173
     0
291
     0
 45
0.0
1001
ACAD
1000
AcDbSavedByObjectVersion
1070
     0
  0
VISUALSTYLE
  5
FC
102
{ACAD_XDICTIONARY
360
83E8
102
}
102
{ACAD_REACTORS
330
EF
102
}
330
EF
100
AcDbVisualStyle
  2
Thicken
 70
    13
 71
     2
 72
     2
 73
     1
 90
        0
 40
-0.6
 41
-30.0
 62
     5
 63
     7
 74
     1
 91
        4
 64
     7
 65
   257
 75
     1
175
     1
 42
1.0
 92
       12
 66
     7
 43
1.0
 76
     1
 77
     6
 78
     2
 67
     7
 79
     5
170
     0
171
     0
290
     0
174
     0
 93
        1
 44
0.0
173
     0
291
     1
 45
0.0
1001
ACAD
1000
AcDbSavedByObjectVersion
1070
     0
  0
VISUALSTYLE
  5
F6
102
{ACAD_XDICTIONARY
360
83DC
102
}
102
{ACAD_REACTORS
330
EF
102
}
330
EF
100
AcDbVisualStyle
  2
Wireframe
 70
     5
 71
     0
 72
     2
 73
     0
 90
        0
 40
-0.6
 41
-30.0
 62
     5
 63
     7
 74
     1
 91
        4
 64
     7
 65
   257
 75
     1
175
     1
 42
1.0
 92
        0
 66
   257
 43
1.0
 76
     1
 77
     6
 78
     2
 67
     7
 79
     3
170
     0
171
     0
290
     0
174
     0
 93
        1
 44
0.0
173
     0
291
     0
 45
0.0
1001
ACAD
1000
AcDbSavedByObjectVersion
1070
     0
  0
VISUALSTYLE
  5
1F1
102
{ACAD_XDICTIONARY
360
83FC
102
}
102
{ACAD_REACTORS
330
EF
102
}
330
EF
100
AcDbVisualStyle
  2
X-Ray
 70
    25
 71
     2
 72
     2
 73
     1
 90
        1
 40
0.5
 41
-30.0
 62
     5
 63
     7
 74
     1
 91
        0
 64
     7
 65
   257
 75
     1
175
     1
 42
1.0
 92
        8
 66
     7
 43
1.0
 76
     1
 77
     6
 78
     2
 67
     7
 79
     3
170
     0
171
     0
290
     0
174
     0
 93
       13
 44
0.0
173
     0
291
     0
 45
0.0
1001
ACAD
1000
AcDbSavedByObjectVersion
1070
     0
  0
DICTIONARYVAR
  5
146
102
{ACAD_REACTORS
330
5E
102
}
330
5E
100
DictionaryVariables
280
     0
  1
1:1
  0
DICTIONARYVAR
  5
259
102
{ACAD_REACTORS
330
5E
102
}
330
5E
100
DictionaryVariables
280
     0
  1
3.500000
  0
DICTIONARYVAR
  5
25A
102
{ACAD_REACTORS
330
5E
102
}
330
5E
100
DictionaryVariables
280
     0
  1
acadiso.lin
  0
DICTIONARYVAR
  5
145
102
{ACAD_REACTORS
330
5E
102
}
330
5E
100
DictionaryVariables
280
     0
  1
STANDARD
  0
DICTIONARYVAR
  5
84
102
{ACAD_REACTORS
330
5E
102
}
330
5E
100
DictionaryVariables
280
     0
  1
STANDARD
  0
DICTIONARYVAR
  5
227
102
{ACAD_REACTORS
330
5E
102
}
330
5E
100
DictionaryVariables
280
     0
  1
Metric50
  0
DICTIONARYVAR
  5
228
102
{ACAD_REACTORS
330
5E
102
}
330
5E
100
DictionaryVariables
280
     0
  1
Metric50
  0
DICTIONARYVAR
  5
5F
102
{ACAD_REACTORS
330
5E
102
}
330
5E
100
DictionaryVariables
280
     0
  1
2
  0
DICTIONARYVAR
  5
63
102
{ACAD_REACTORS
330
5E
102
}
330
5E
100
DictionaryVariables
280
     0
  1
1
  0
DICTIONARYVAR
  5
8371
102
{ACAD_REACTORS
330
5E
102
}
330
5E
100
DictionaryVariables
280
     0
  1
0
  0
DICTIONARYVAR
  5
1AE
102
{ACAD_REACTORS
330
5E
102
}
330
5E
100
DictionaryVariables
280
     0
  1
0
  0
DICTIONARYVAR
  5
1AF
102
{ACAD_REACTORS
330
5E
102
}
330
5E
100
DictionaryVariables
280
     0
  1
0
  0
DICTIONARYVAR
  5
836F
102
{ACAD_REACTORS
330
5E
102
}
330
5E
100
DictionaryVariables
280
     0
  1
2
  0
DICTIONARYVAR
  5
836E
102
{ACAD_REACTORS
330
5E
102
}
330
5E
100
DictionaryVariables
280
     0
  1
1
  0
DICTIONARYVAR
  5
83C1
102
{ACAD_REACTORS
330
5E
102
}
330
5E
100
DictionaryVariables
280
     0
  1
80.000000
  0
DICTIONARYVAR
  5
83C0
102
{ACAD_REACTORS
330
5E
102
}
330
5E
100
DictionaryVariables
280
     0
  1
5.000000
  0
DICTIONARYVAR
  5
8370
102
{ACAD_REACTORS
330
5E
102
}
330
5E
100
DictionaryVariables
280
     0
  1
127
  0
DICTIONARYVAR
  5
83C2
102
{ACAD_REACTORS
330
5E
102
}
330
5E
100
DictionaryVariables
280
     0
  1
2
  0
DICTIONARY
  5
8404
330
21C
100
AcDbDictionary
280
     1
281
     1
  3
ACAD_XREC_ROUNDTRIP
360
8405
  0
DICTIONARY
  5
83C9
330
D3
100
AcDbDictionary
280
     1
281
     1
  3
ACAD_XREC_ROUNDTRIP
360
83CA
  0
DICTIONARY
  5
83CB
330
D7
100
AcDbDictionary
280
     1
281
     1
  3
ACAD_XREC_ROUNDTRIP
360
83CC
  0
DICTIONARY
  5
83C6
330
22
100
AcDbDictionary
280
     1
281
     1
  3
ACAD_XREC_ROUNDTRIP
360
83C7
  0
DICTIONARY
  5
1F9
330
ED
100
AcDbDictionary
280
     1
281
     1
  3
ACAD_XREC_ROUNDTRIP
360
83CE
  3
FBXASSET
360
1FA
  0
DICTIONARY
  5
1F7
330
EC
100
AcDbDictionary
280
     1
281
     1
  3
ACAD_XREC_ROUNDTRIP
360
83CD
  3
FBXASSET
360
1F8
  0
DICTIONARY
  5
173
330
EE
100
AcDbDictionary
280
     1
281
     1
  3
ACAD_XREC_ROUNDTRIP
360
83CF
  3
BUMPTILE
360
175
  3
DIFFUSETILE
360
174
  3
FBXASSET
360
1FB
  3
OPACITYTILE
360
176
  3
REFLECTIONTILE
360
177
  0
DICTIONARY
  5
83F0
330
12E
100
AcDbDictionary
280
     1
281
     1
  3
ACAD_XREC_ROUNDTRIP
360
83F1
  0
DICTIONARY
  5
8402
330
21A
100
AcDbDictionary
280
     1
281
     1
  3
ACAD_XREC_ROUNDTRIP
360
8403
  0
DICTIONARY
  5
162
330
7F
100
AcDbDictionary
280
     1
281
     1
  3
ACAD_ROUNDTRIP_2008_TABLESTYLE_CELLSTYLEMAP
360
83C3
  3
ACAD_XREC_ROUNDTRIP
360
83C8
  0
DICTIONARY
  5
83DA
330
F5
100
AcDbDictionary
280
     1
281
     1
  3
ACAD_XREC_ROUNDTRIP
360
83DB
  0
DICTIONARY
  5
83D8
330
F4
100
AcDbDictionary
280
     1
281
     1
  3
ACAD_XREC_ROUNDTRIP
360
83D9
  0
DICTIONARY
  5
83E6
330
FB
100
AcDbDictionary
280
     1
281
     1
  3
ACAD_XREC_ROUNDTRIP
360
83E7
  0
DICTIONARY
  5
83EE
330
FF
100
AcDbDictionary
280
     1
281
     1
  3
ACAD_XREC_ROUNDTRIP
360
83EF
  0
DICTIONARY
  5
83E0
330
F8
100
AcDbDictionary
280
     1
281
     1
  3
ACAD_XREC_ROUNDTRIP
360
83E1
  0
DICTIONARY
  5
83E4
330
FA
100
AcDbDictionary
280
     1
281
     1
  3
ACAD_XREC_ROUNDTRIP
360
83E5
  0
DICTIONARY
  5
83F6
330
1E6
100
AcDbDictionary
280
     1
281
     1
  3
ACAD_XREC_ROUNDTRIP
360
83F7
  0
DICTIONARY
  5
83EC
330
FE
100
AcDbDictionary
280
     1
281
     1
  3
ACAD_XREC_ROUNDTRIP
360
83ED
  0
DICTIONARY
  5
83D0
330
F0
100
AcDbDictionary
280
     1
281
     1
  3
ACAD_XREC_ROUNDTRIP
360
83D1
  0
DICTIONARY
  5
83D2
330
F1
100
AcDbDictionary
280
     1
281
     1
  3
ACAD_XREC_ROUNDTRIP
360
83D3
  0
DICTIONARY
  5
83D4
330
F2
100
AcDbDictionary
280
     1
281
     1
  3
ACAD_XREC_ROUNDTRIP
360
83D5
  0
DICTIONARY
  5
83D6
330
F3
100
AcDbDictionary
280
     1
281
     1
  3
ACAD_XREC_ROUNDTRIP
360
83D7
  0
DICTIONARY
  5
83DE
330
F7
100
AcDbDictionary
280
     1
281
     1
  3
ACAD_XREC_ROUNDTRIP
360
83DF
  0
DICTIONARY
  5
83F2
330
1E4
100
AcDbDictionary
280
     1
281
     1
  3
ACAD_XREC_ROUNDTRIP
360
83F3
  0
DICTIONARY
  5
83EA
330
FD
100
AcDbDictionary
280
     1
281
     1
  3
ACAD_XREC_ROUNDTRIP
360
83EB
  0
DICTIONARY
  5
83F4
330
1E5
100
AcDbDictionary
280
     1
281
     1
  3
ACAD_XREC_ROUNDTRIP
360
83F5
  0
DICTIONARY
  5
83E2
330
F9
100
AcDbDictionary
280
     1
281
     1
  3
ACAD_XREC_ROUNDTRIP
360
83E3
  0
DICTIONARY
  5
8400
330
1F3
100
AcDbDictionary
280
     1
281
     1
  3
ACAD_XREC_ROUNDTRIP
360
8401
  0
DICTIONARY
  5
83FE
330
1F2
100
AcDbDictionary
280
     1
281
     1
  3
ACAD_XREC_ROUNDTRIP
360
83FF
  0
DICTIONARY
  5
83F8
330
1EF
100
AcDbDictionary
280
     1
281
     1
  3
ACAD_XREC_ROUNDTRIP
360
83F9
  0
DICTIONARY
  5
83FA
330
1F0
100
AcDbDictionary
280
     1
281
     1
  3
ACAD_XREC_ROUNDTRIP
360
83FB
  0
DICTIONARY
  5
83E8
330
FC
100
AcDbDictionary
280
     1
281
     1
  3
ACAD_XREC_ROUNDTRIP
360
83E9
  0
DICTIONARY
  5
83DC
330
F6
100
AcDbDictionary
280
     1
281
     1
  3
ACAD_XREC_ROUNDTRIP
360
83DD
  0
DICTIONARY
  5
83FC
330
1F1
100
AcDbDictionary
280
     1
281
     1
  3
ACAD_XREC_ROUNDTRIP
360
83FD
  0
XRECORD
  5
8405
102
{ACAD_REACTORS
330
8404
102
}
330
8404
100
AcDbXrecord
280
     1
102
DISPLAYNAME
  1
Metric50
102
FLAGS
 90
        0
  0
XRECORD
  5
83CA
102
{ACAD_REACTORS
330
83C9
102
}
330
83C9
100
AcDbXrecord
280
     1
102
SHADEPLOT
 70
     0
102
SHADEPLOTRESLEVEL
 70
     2
102
SHADEPLOTCUSTOMDPI
 70
   300
  0
XRECORD
  5
83CC
102
{ACAD_REACTORS
330
83CB
102
}
330
83CB
100
AcDbXrecord
280
     1
102
SHADEPLOT
 70
     0
102
SHADEPLOTRESLEVEL
 70
     2
102
SHADEPLOTCUSTOMDPI
 70
   300
  0
XRECORD
  5
83C7
102
{ACAD_REACTORS
330
83C6
102
}
330
83C6
100
AcDbXrecord
280
     1
102
SHADEPLOT
 70
     0
102
SHADEPLOTRESLEVEL
 70
     2
102
SHADEPLOTCUSTOMDPI
 70
   300
  0
XRECORD
  5
83CE
102
{ACAD_REACTORS
330
1F9
102
}
330
1F9
100
AcDbXrecord
280
     1
102
MATERIAL
148
0.0
149
0.0
149
0.0
 93
        0
 94
       63
282
     0
 72
     1
 77
     1
171
     1
175
     1
179
     1
273
     0
  0
XRECORD
  5
1FA
102
{ACAD_REACTORS
330
1F9
102
}
330
1F9
100
AcDbXrecord
280
     1
 70
     1
 90
429727718
  1
D62C5603-E3A1-4AEA-B7FB-FE5D8D0755AF
310
504B03040A0000080000CC70623B3DEE336E79000000790000001B0000006175746F6465736B2D64657369676E2D7061636B6167652E786D6C3C3F786D6C2076657273696F6E3D22312E302220656E636F64696E673D227574662D3822203F3E3C666F726D6174733E3C666F726D61743E687474703A2F2F736368656D612E
310
6175746F6465736B2E636F6D2F64657369676E2D7061636B6167652F323030393C2F666F726D61743E3C2F666F726D6174733E504B0304140006080800CC70623BD486FD9CA0000000F4000000130000005B436F6E74656E745F54797065735D2E786D6C7D8EC10E82300C865F65E91D8A1E8C310C0EEA1BF002731658846E
310
D98AC1B77784ABF1D8FE5FBFBF75BBCE937A534CCEB38643598122B6FEE978D0B0485F9C41B54DDD7D022595594E1A469170414C76A4D9A4D207E29CF43ECE46F218070CC6BECC4078ACAA135ACF422C856C0E68EA1BF5669944DDD7BCDE7B1F8E415D77AECB980613C2E4AC91FC167A2B244592486606FC29C8FD7F045B9A
310
EF7053A7E60B504B0304140006080800CC70623B853B8169EB0000007C01000008000000636F72652E786D6C8D90416EC3201045AF62CDB6C206821CC7C244919D9CA01740401C94182C03558F5F9C3852BBEB6A467FFE9B197D7EFC9E1EC5975982F5AE035262288C535E5B377690E21535501C055FBC8FBF6C503839990E
310
5619041F179FE64D52DE45E362569DD7661365082642A11EB9E920A89B99642953CC8E702F67A9EE7234257977194EC9EAE275C4EABCCF5EAD5940D4AC6F0E35A568B8F43562CD7046CD199FD07E60174276A7BE677B5EADB0E0D14EEFFB6A31321A0D82627C4084204C3F096B71DD52F6819B16635EADF63F509AF53FA164
310
5DDCD1EDDD17164090FCC8732078B56691CB33A85CD7DCC40F504B0304140006080800CC70623B55019EA25F0000007C00000007000000636E782E786D6C4DCB3B0E80201045D1AD90E915ED2CF8AC45050C11660C8261F98AB1B07AC9C97D42D718D865D3E909258CFD00CCE24AC6E326A164D74DC0B4128928FF32603847
310
2BA13128B1252AC747C6BAB984FC68F0B87FE8960A5C09FE86CFB69FBA01504B0304140006080800CC70623BDBABAAF470010000D40300000C0000006662782F636F72652E786D6CC553D16E823014FD95A6AF4B694182CC941A83FA05FB810A9511A125A5257EFE2E82712ECEB8A7F100CD39F7F69E734AF9FADC366850B6
310
AF8DCE7018308C942E4C59EB2AC3DE1D498AD15A706B8CFB56869196ADCAF00863C12B6B7C374385D14E6907A836A59A41D9F7CA615434B0C8705F7CAA5606D23BA8E84F41278B93AC54100640439DE0BDB320004D43C63716C7C399D30917DCFBBA9CD9BA8469F5B156168B24CED3F7248AC8769F27244EB73B92EED8862C
310
B7F13E0C179B3C8F979C8ECD82BBBABDAA2BAC924E9558448CBD9330242CFA08E3154B5651FCC6D215639C8EE5774DBE2B5F6CF2B5768B68963BB5F5588420E442FC700B1139D4CB01F450C1E918227C2E09DF070D8140C84E1E9AAB8F1340832A9CB13130A5F1376A908D57309505ECF2A0DF179C4E9D30F5B239B87E3823
310
7A79C6F31DE1A8A5AEC08474B03C7837EAE4938639B44E5932B833D2C6B6B279CDC613877FA26EE21F4A2A4C63EC7F29A2F301D1F9F7A0E37D145F504B0304140006080800CC70623B9C113CC27E0000009D0000000B0000006662782F636E782E786D6C4DCCDF0A83201C86E15B91DFB94BFB330DD428C8FB886521330DA7
310
6397BF1A1DECE883878F57749FCDA1B7892F1BBC047A23808C7F84D9FA55424E0BE6803A256208E9EF06C84F9B91703228B1C690F78B66B34CD9A5439DF5CF0BFBF65E35BCA1B8D6A5C6F540381E886698B5741C695F9503EBA150A2F8958E3DC3EA0B504B0304140006080800CC70623B7DF2F77C2A010000120200003100
310
00006662782F41393633353835312D344632462D344230382D423046372D3739314545314133324237412F636F72652E786D6C8D51DB8EC22014FC15C2939B0D2DB4B45643319AE817EC0F6041255A68B86CFCFC856D4D76DF7CE190393373060EDB3DC707F856CE6B6B7A480A0C81328395DA5C7B18C3057510EC3873D686
310
3F34088C18550F330C39BB3A1BA7051AAC09CA84841A2BD5020AEF55806078A44B0FFD7053A328440C89E1EFC52486BBB8AA8214A99D789CF9E05200300FC927E4FB4D5B375D43103D5527440FB843077C5AA3F5861C8F645F5787F59E95B390B318B55CE45AA638FAA2957BD7248B390B7A7CC51F9C124149C82B8C378810
310
84AB2F42B7B8DD56F413775B8C5999E9FF4471926F8AA236A1AE96B8B3CC434E5839373893369E1FAF30EA395917409EB7F26AF8801C171837A4A6AC9C89E9F9C9B1A58BA30FD6A5EF5DDDCF894B9AD9B6A59C957943A9FCAE2FD5BC4DFE03504B0304140006080800CC70623BAD7543B64E01000033030000300000006662
310
782F41393633353835312D344632462D344230382D423046372D3739314545314133324237412F636E782E786D6CD593CD6EC32010845F0571AD6CE3D48AD20813A9873E410FBD12D82434182C7EAAE6EDBB2424CD25871E7B41D6EC30B3FA84F9E67BB2E40B4234DE8DB46F1925E094D7C6ED479AD3AE5951B2113C789FEE
310
6C943839C1488B4C05DF079FE72A69D8C96C13AAD6B8631503449F83828872B949AC57D26200B826A308D316B4064D6E46FCDA41C05550DC9E483A00797BFD207EFB092A45DE9514C1BBD22178396BD39D891265658C238DEA00936C654E5E433CB65A26D9F6EDB5EBC14EBF49A45CB856E66048291F6939A9A81BB5C89177
310
38143CA680F4AA299D66A042CEB3354A2684DC9D8D178FE0D9B8B41CAAD720F880EE7EF93C0C18769E099ECC04D5A102C8049A8A05632F4DDF376CF1DE0F6BB65C2F8627B65A33C6BB62177CEBBDAD973006829F89F22E814B54F4BC2BE347F8AA8F681390B50FA73F804400B5F542E796F19FF974E7F78DB802FE05E20750
310
4B0304140006080800CC70623BE75B7789680500003C100000340000006662782F41393633353835312D344632462D344230382D423046372D3739314545314133324237412F6F626A656374732E786D6CAD575B8F9B3818FD2B887D06C22499CB8AA1CA655245D5B455A356FB305264C061D8018C6C3393D95FBFC7600890
310
A4CD5EF210B0B1BFEBF98E3F7B1FF6596ABC522E1296DF9BAE3D320D9A872C4AF2F8DE2CE5CEBA358D0FBEC719939D65A691938CDE9B6ADAF4BD98B3B2D05311DD91329583D9D5FC0F438434A7A611A644887B5384CF34233629258BA878B12322891DEFF6B66BD70BFB62634E8AE781D082709A4B588AF91C528CDA28B73F
310
1C998EEF39EABBEFA97FBD6A7C7E9553F9D3D79FE442923C3C523610337627CB87ABE99D359D4CC6D6E4FACAB5E6ABF9D2726FC6A3C5F56271377BB88362213924694B38DD99FE47C48627A1E7D49F5A8BB5E1A74C0A599ED3B0F21F1E56366B89112D681E218F0915D0D6F17AD41FBA2A369DCF6335D62ABBD39779D5DDD1
310
11D4D8DE3CBB96B2E04FB8202E41051754A1AA8E8F76B4C6DFE810B580B1547F4B84911149794252234D024EF8BBE963A95AE27B3D310A9D5C215C7960FAEE415ED75694C6AFB17BCACA5D99A60A9AA65F217B0BFC53292ACB92BF283FAD0D3621576592CB5BED907C2FA8E9DF794E35E97BEA31BED21FEB401ABB94C44839
310
DCACBF0E1C5DA8DA5B2F4DFFD32AD86F543D9E565E7056502E157C00AD2671CD534549AB752FCA9CDA00677A313F04E51B22FF19E57B300579E3C97EB29F682D92935CEC18CF901B7B54FD8C51F362B56FC72FE0B3C1EAE335EDCCBF5AEC39ADB17DC238973F804BA5E6F6BFE7AF1FB32E523BE9F3BD571418E3631DCA4D48
310
5250CF639223210A9446CA30052EDF057BD35F8329C1ECD84552BF0DC8D18BE7BCE23BFE6BD960AB4A7DE79923A103BEBD80F911CBAA2C60DB19B01CF164A5583B772EE6D3FFA56666CBCDA74DC97724A48F9A58967497E489C4D979006FD7A05E227A1EBDD0F737C623387A9C844D3709995625106D157315F8B8392CD4E0
310
A0B9A720C4BE9829CEF37EA1E13111214D53925356365ADA634861B52519DD27A00AEB808EAF0628E6F435519D446F45CF2C9CF5214F0A15B2F6D06B79DA3EE3CBF7F56780D2F4E7EF73A0F5E5B02A38D07DC852C6B7C1FBB6664213E0C39E3EBA7FF4E1AD23EA2829407C85E586727488B751B2DB9502BC7B228A3FD68B6E
310
A65A22397E690AA8D158D7E404EC8CDA235CC3B7D1898680131CEC2CDF2638C65196279577750F15884AEE19F94199155B92B13297978469D4F8D358DF0AEF7631E28DC8F0D9F437D5D39A83B2231A1D52D543813A824EF8D44BCFF2FA6A31BD1E8DAD87F1CCB526B3879935BF59CDADD5C37479BB1CDD4CA7B3556B516589
310
EF352754B706114D9C885EC9131DE6EFEB43D99AFE2391C2F958179413D7CFEF6B1B6DB1E7600F00DE6E5C67454A339A4BA2E0FBA85ED26F045D454F463DBFCE484C2F90F2E5E3666003662ED8F755951A7D1BECD5B30B550B2785C8E7320B7292A4838DDA71BBC863ED7613CAF659337A3354231D4FF4A182A54904C2898C
310
98B28C4AD0CE056CCF332A80986E571EE9DBC305BB5FEB7E509220A58D25CF042D712A806AC0AD0C657FDEF80D2D9CEAA2EE4D1C76F60BFE74219A06527D6F82DF6412526107381E55E353090704D085B52408A8913C4ED159D79BDA71BB4BC506F4831350EB6F975CD22D69BF7AC49B91A2C0A9DDA3D5CA36AD20FC478E37
310
E61844E2352865EBCB61A275A65283CAAA9DD27703B4102F5AF51EF5F573B75CBB5AD38BC845F7A49F82A0966A49C2E3EA5EA0ECD326CD965F1DB402C6FA8B51A4658C5C5E2EC9E214602E55810345408596591009A82E7E7FFACA19EEA299B14A0081A705CB3296EBC14CDF658DCD336EA6D1136881AAEB87B81AB9EE53D5
310
F5EB8BC8362082DA24122F98680A4E7930C01A0079749CEA14382A0783E5EBA5A10F8C098456A03D6A4AEB6BB881E2513747552A5DB22C7EDAF83BD5528081A365F7FF06504B0304140006080000CC70623B000000000000000000000000350000006662782F41393633353835312D344632462D344230382D423046372D37
310
39314545314133324237412F76657274696365732E62696E504B0304140006080800CC70623BF270F1330600000004000000360000006662782F41393633353835312D344632462D344230382D423046372D3739314545314133324237412F747269616E676C65732E62696E636660600000504B0304140006080000CC7062
310
3B000000000000000000000000370000006662782F41393633353835312D344632462D344230382D423046372D3739314545314133324237412F617474726962757465732E62696E504B0304140006080800CC70623B08DA0BD19000000041010000360000006662782F41393633353835312D344632462D344230382D4230
310
46372D3739314545314133324237412F6469726563746F72792E786D6C858F410AC3201045AF22B36F53E9A60B35CBEEBAE80D244E44489C6234F4F835464A48035D0DF398FF9F8AF63D0E6CC63039F212F8F9020C7D47C6792B21C5FE7403D62A1188E2E60C98D7234A5830286103A55745067B9D86B8A3CF9C7F90C11DE6
310
07FB144396D7B6A82D282E9A152AD114D5EF2CB866EEE831B8EEA07A7BB5A8D7D61A2BAAEB7FD5F70921FF497D00504B0304140006080800CC70623BEDD1DC58FD000000A00100003B0000006662782F41393633353835312D344632462D344230382D423046372D3739314545314133324237412F7265736F75726365732F
310
636F72652E786D6C8D504B6E833010BD0A9A6D65B00922041947112427E8052C33A156828DFCA97AFC9A40A576D7CDCCE87D344F8F9FBFE667F689CE6B6B3A6039850C8DB2A336530731DC4903D95970676DF82583CCC8193B5861107C72362E3BA4AC096842428D1D7107A5F7182053CF7474E0D507CE32973124857FE48B
310
540F3961CEF244279DE03EB81420DB9EAC1384436FA353E879B1B182C7A8C75DA3C7F453DF353A1075D537A7BA6464B8F535A99AE14A9A2BBD90E350DD183B5CFABE3AF262350B1EF4FC9351399401471025A527C218A1E53BAB5A5AB765F5469B96525EACF23FA6B88CFF34456DC2A1DCE36E360F82A5202F42F062ED2BAD
310
579969AFDD8A6F504B010214000A0000080000CC70623B3DEE336E79000000790000001B00000000000000000000000000000000006175746F6465736B2D64657369676E2D7061636B6167652E786D6C504B01021400140006080800CC70623BD486FD9CA0000000F40000001300000000000000000000000000B20000005B
310
436F6E74656E745F54797065735D2E786D6C504B01021400140006080800CC70623B853B8169EB0000007C010000080000000000000000000000000083010000636F72652E786D6C504B01021400140006080800CC70623B55019EA25F0000007C000000070000000000000000000000000094020000636E782E786D6C504B
310
01021400140006080800CC70623BDBABAAF470010000D40300000C00000000000000000000000000180300006662782F636F72652E786D6C504B01021400140006080800CC70623B9C113CC27E0000009D0000000B00000000000000000000000000B20400006662782F636E782E786D6C504B01021400140006080800CC70
310
623B7DF2F77C2A010000120200003100000000000000000000000000590500006662782F41393633353835312D344632462D344230382D423046372D3739314545314133324237412F636F72652E786D6C504B01021400140006080800CC70623BAD7543B64E010000330300003000000000000000000000000000D2060000
310
6662782F41393633353835312D344632462D344230382D423046372D3739314545314133324237412F636E782E786D6C504B01021400140006080800CC70623BE75B7789680500003C10000034000000000000000000000000006E0800006662782F41393633353835312D344632462D344230382D423046372D3739314545
310
314133324237412F6F626A656374732E786D6C504B01021400140006080000CC70623B0000000000000000000000003500000000000000000000000000280E00006662782F41393633353835312D344632462D344230382D423046372D3739314545314133324237412F76657274696365732E62696E504B01021400140006
310
080800CC70623BF270F133060000000400000036000000000000000000000000007B0E00006662782F41393633353835312D344632462D344230382D423046372D3739314545314133324237412F747269616E676C65732E62696E504B01021400140006080000CC70623B0000000000000000000000003700000000000000
310
000000000000D50E00006662782F41393633353835312D344632462D344230382D423046372D3739314545314133324237412F617474726962757465732E62696E504B01021400140006080800CC70623B08DA0BD1900000004101000036000000000000000000000000002A0F00006662782F41393633353835312D344632
310
462D344230382D423046372D3739314545314133324237412F6469726563746F72792E786D6C504B01021400140006080800CC70623BEDD1DC58FD000000A00100003B000000000000000000000000000E1000006662782F41393633353835312D344632462D344230382D423046372D3739314545314133324237412F7265
310
736F75726365732F636F72652E786D6C504B0506000000000E000E0080040000641100000000
  0
XRECORD
  5
83CD
102
{ACAD_REACTORS
330
1F7
102
}
330
1F7
100
AcDbXrecord
280
     1
102
MATERIAL
148
0.0
149
0.0
149
0.0
 93
        0
 94
       63
282
     0
 72
     1
 77
     1
171
     1
175
     1
179
     1
273
     0
  0
XRECORD
  5
1F8
102
{ACAD_REACTORS
330
1F7
102
}
330
1F7
100
AcDbXrecord
280
     1
 70
     1
 90
429727718
  1
30362254-06B7-45E0-A893-8CFA70E3D6BC
310
504B03040A0000080000CC70623B3DEE336E79000000790000001B0000006175746F6465736B2D64657369676E2D7061636B6167652E786D6C3C3F786D6C2076657273696F6E3D22312E302220656E636F64696E673D227574662D3822203F3E3C666F726D6174733E3C666F726D61743E687474703A2F2F736368656D612E
310
6175746F6465736B2E636F6D2F64657369676E2D7061636B6167652F323030393C2F666F726D61743E3C2F666F726D6174733E504B0304140006080800CC70623BD486FD9CA0000000F4000000130000005B436F6E74656E745F54797065735D2E786D6C7D8EC10E82300C865F65E91D8A1E8C310C0EEA1BF002731658846E
310
D98AC1B77784ABF1D8FE5FBFBF75BBCE937A534CCEB38643598122B6FEE978D0B0485F9C41B54DDD7D022595594E1A469170414C76A4D9A4D207E29CF43ECE46F218070CC6BECC4078ACAA135ACF422C856C0E68EA1BF5669944DDD7BCDE7B1F8E415D77AECB980613C2E4AC91FC167A2B244592486606FC29C8FD7F045B9A
310
EF7053A7E60B504B0304140006080800CC70623B1EC5D7A3EB0000007C01000008000000636F72652E786D6C8D90416EC3201045AF82665B6103C6756C6122AB4D4ED00B204C5C94182C03558F5F9C3852BBEB6A467FFE9B197D71FC9E6FE8CBACC17AD7032D0820E3B41FAD9B7A48F1820F808E52ACDEC75F36404ECDA687
310
4D0629A6D5A76597B477D1B89855E747B38B2A041301E95B6E7A08FAD3CCAA50296647B8168BD2573599823EBB0CA76447F43862C7BCCF5EAC59410E4DDD9C7973C2755553CCCFA4C603E3040F1565ED3B1FDE4E432BCA0D9622DAF9795FAF464533826484B498524CD807E51D79ED187F21878E10516EF63F505AC67F42C9
310
BA58B1FDDD071640D2FCC87D2045B96591CB3DA85CB7DCE40F504B0304140006080800CC70623B55019EA25F0000007C00000007000000636E782E786D6C4DCB3B0E80201045D1AD90E915ED2CF8AC45050C11660C8261F98AB1B07AC9C97D42D718D865D3E909258CFD00CCE24AC6E326A164D74DC0B4128928FF32603847
310
2BA13128B1252AC747C6BAB984FC68F0B87FE8960A5C09FE86CFB69FBA01504B0304140006080800CC70623B8C9102E971010000D40300000C0000006662782F636F72652E786D6CC5535B6E833010BC8AE5DF0A6C08340F1947A84D4ED00B38C6A128602363A31CBFCB234A53A551FA553EC09AD9F5CE8C31DB9E9B1AF5CA
310
7695D1198E428A91D2D214952E33ECDD315861B4E5CC1AE3BE9561A445A3323CC098B3D21ADFCE9034DA29ED00D5A6503328BA4E398C640D8B0C77F253352214DE4145770A5B214FA2546114020D759C75CE8200340D19DE981F0F6746269C33EFAB6266AB02A655C74A59CCF365BADC27CB5D902ED22848F6340DF238A141
310
BE88E2F57B92BFEDF23523433367AE6A2EEAA455C2A902F398D2751045018D3FA264435F3771F242571B4A1919CA6F9A7C5B3CD9E42BED16F12C776AEB308F40C848FC700B1139D4891EF410CEC810227CC6846F8386402064270EF5C5C709A05E49676C024C61FC95EA45ED154CA5211D1FF4FB8291A913A68E9B83EBBB33
310
E2A7673CDE118E5AE8124C0807CB8377834E366998436B950D7A7746DAD846D4CFD978E0F04FD455FC5D49D2D4C6FE9722321F10997F0F32DC47FE05504B0304140006080800CC70623BFFEA85907E0000009D0000000B0000006662782F636E782E786D6C4DCCD10A83201886E15B91FFDC95D95A811AB6F23E625948A6C3
310
E9D8E5AF46073BFAE0E1E365ED67B3E8ADC3CB78C7815C7240DA3DFC64DCC221C519D7805AC182F7F1EF06C88D9BE6703008B6049F9E274D7A1E938DBB5AE3D6131B2589BA0D3D965551E0B2EA732C9B9A624AAEB41E3A557677029960D9AFB4EF11165F504B0304140006080800CC70623B4FEEA4082C0100001202000031
310
0000006662782F39464131463745442D413632322D343644302D413938332D3331353338454246344243312F636F72652E786D6C8D515B6EC32010BC0AE2AB55850DD871ED0813254D72825EC00192A2C460F1A872FC42ED48ED5F7E00CDCECCCEB26C731F6FE05B39AFADE921293004CA082BB5B9F43086336A21D870E6AC
310
0D7F68109861543DCC30E4ECE26C9C164858139409093556AA051CBC570102714B8F1E7AF1A5C6A11862480C7F2DA6415C878B2A4891CA89C7990F2E050073937C42DE1DB7E4F87ED8A36D4329AA9B3D46DBAEAD504556557BD81DEBDD0761E52CE42C462D17B996298E3E6BE59E35C962CE821E1FF18553435012728A7187
310
0841987E927A8D9B35ADDF70BBC6989599FE4F1427F9A4286A132ABAC49D651EF234CD5CE04CDA78BA3DC2A8FB645D00B9DF8B57E215725C60BCA2A463E54C4CE327C7A65E1C7DB02E7DEFCBF594B864C5CA6CDBD49C957943E9FA5D5FBAF336F90F504B0304140006080800CC70623BAD7543B64E01000033030000300000
310
006662782F39464131463745442D413632322D343644302D413938332D3331353338454246344243312F636E782E786D6CD593CD6EC32010845F0571AD6CE3D48AD20813A9873E410FBD12D82434182C7EAAE6EDBB2424CD25871E7B41D6EC30B3FA84F9E67BB2E40B4234DE8DB46F1925E094D7C6ED479AD3AE5951B2113C
310
789FEE6C943839C1488B4C05DF079FE72A69D8C96C13AAD6B8631503449F83828872B949AC57D26200B826A308D316B4064D6E46FCDA41C05550DC9E483A00797BFD207EFB092A45DE9514C1BBD22178396BD39D891265658C238DEA00936C654E5E433CB65A26D9F6EDB5EBC14EBF49A45CB856E66048291F6939A9A81BB5
310
C8917738143CA680F4AA299D66A042CEB3354A2684DC9D8D178FE0D9B8B41CAAD720F880EE7EF93C0C18769E099ECC04D5A102C8049A8A05632F4DDF376CF1DE0F6BB65C2F8627B65A33C6BB62177CEBBDAD973006829F89F22E814B54F4BC2BE347F8AA8F681390B50FA73F804400B5F542E796F19FF974E7F78DB802FE05
310
E207504B0304140006080800CC70623B16AB87BA640500003C100000340000006662782F39464131463745442D413632322D343644302D413938332D3331353338454246344243312F6F626A656374732E786D6CAD575B6FA33818FD2B887DE6924B3BED8A326A92B68A663B534DD4D13E548A0C38942D60649B369D5FBFC7
310
600890A493BDE42160637FD7F31D7FF63E6FB3D478A55C242CBF3247B66B1A340F5994E4F19559CA8D75611A9F7D8F33263BCB4C232719BD32D5B4E97B316765A1A722BA21652A07B3B7B33F0D11D29C9A46981221AE4C113ED38CD8A4942CA2E2C58E882476BCD9DA23BB5ED8171B73523C0F841684D35CC252CCE79062D4
310
468DFA43D7747CCF51DF7D4FFDEB5593E3AB9CCA9FBEFE241792E4E19EB28198C968BAB8199F5D5A67D3E9C49A9E8F47D6EC76B6B0469F26EEFC7C3EBFBCBEB98462213924694B38DD98FE1D62C393D073EA4FADC5DAF04326852CCF6958F90F0F2B9BB5C48816348F90C7840A68EB78EDF68723159BCEE7891A6B95DDE9D3
310
BCEAEEE8086A6C6F9E5D4B59F0175C10A7A0820BAA5055C7473B5AE3CFDD452D602CD5DF12616444529E90D448938013FE6EFA58AA96F85E4F8C42275708571E98FE6827AF6B2B4AE3D7D83D64E5A64C53054DD3AF90BD06FEA9149565C94FCA0F6B834DC85599E4F2423B24DF0B6AFA979E534DFA9E7A4CC6FA631D486393
310
921829879BF5D781A373557BCB85E97FB90DB62B558F8795179C15944B051F40AB495CF35451D26A4727654E6D8033BD98EF82F21D91FF8AF2DD9982BCF1643BDD4EB516C9492E368C67C88DED563FC36D5EACF66DFF057C3658BDBFA69DF9578B3DA735B64F18C7F20770A9D45CFCF7FCF563D6456A277DBEF78A02637CA2
310
43B90A490AEAB94F72244481D24819A6C0E59B606BFA4B3025981DBB48EAB701D97BF19C577CC77F2D1B6C55A9EF3C732474C0B727303F625995056C3B02963D9EAC146BE78EC5FCEC7FA999EBC5EACBAAE41B12D27B4D2C0BBA49F244E2ECDC81B76B502F113D8F5EE8FB1BE3111CDD4FC2AA9B844CAB1288B68AB90A7CDC
310
1C166AB0D3DC5310625FCC14E779BFD0709F8890A629C9292B1B2DED31A4B0DA928CEE135085754027E3018A397D4D5427D15BD1330B677DC8934285AC3DF45A9EB68FF8F2B8FC0A509AFEECFD0FF2DE25CC6047F7214B195F07EFEB9A094D800F7BFAE8FED187B78EA8A3A400F115961BCAD1215E47C966530AF0EE8128FE
310
58CEBB996A8964FFA529A046635D9353B0336A8F700DDF46271A024E70B0B37C9DE01847591E54DED53D54202AB947E4076556AC49C6CA5C9E1226B7F1A7B1BE15DEED62C41B91E1B3E9AFAAA735036547343A925075041DF0A9979E893B391F8FCFA6967B3EFB644DCF6E5CEBFAE272625DCC6FAF3FB93793C5F90CE1EF57
310
407342756B10D1C489E8953CD1617E5CEECAD6F4EF8914CE5D5D504E5C3F1F9736DA62CFC11E00BCDDB8CC8A9466349744C1F75EBDA4DF09BA8A9E8C7A7E9991989E20E5DBDD6A6003664ED8F7A04A8DBE0DF6EAD9B9AA858342E47399053949D2C146EDB85DE4B176BB0965FBAC19BD19AA918E27FA50C1D22402E144464C
310
59462568E704B6E71915404CB72B8FF4EDE184DDAF753F284990D2C6926782963815403548A70C657FDEF80D2D9CEAA2AE4C1C76F60BFE74219A06527D6582DF6412526107381E55E353090704D085B52408D0933C4ED159D79BDA71BB4BC506F4831350EB6F979CD22D69BF7AC49B91A2C0A9DDA3D5CA36AD20FC478E37E6
310
1844E2352865EBCB6EA275A652E3836BE04EFB400BF1A2556F515F1FBB35B2AB35BD889C744FFA1004B5544B121E57F70215746DD2F5E2C1412B602CBF19455AC6C8E5E9922C4E01E65215385004546899059180EAFCF7A707CE7017CD8CDB0410789AB32C63B91E5CEBBBACB17AC6CD347A022D5075FD106377347AAABA7E
310
7D11590744509B44E205134DC1290F06580320F78E537D3D73540E06CB970B431F185308AD40BBD794D6D77003C5A36E8EAA54BA64597CD8F83BD552A080A365F7FF06504B0304140006080000CC70623B000000000000000000000000350000006662782F39464131463745442D413632322D343644302D413938332D3331
310
353338454246344243312F76657274696365732E62696E504B0304140006080800CC70623BF270F1330600000004000000360000006662782F39464131463745442D413632322D343644302D413938332D3331353338454246344243312F747269616E676C65732E62696E636660600000504B0304140006080000CC70623B
310
000000000000000000000000370000006662782F39464131463745442D413632322D343644302D413938332D3331353338454246344243312F617474726962757465732E62696E504B0304140006080800CC70623B08DA0BD19000000041010000360000006662782F39464131463745442D413632322D343644302D413938
310
332D3331353338454246344243312F6469726563746F72792E786D6C858F410AC3201045AF22B36F53E9A60B35CBEEBAE80D244E44489C6234F4F835464A48035D0DF398FF9F8AF63D0E6CC63039F212F8F9020C7D47C6792B21C5FE7403D62A1188E2E60C98D7234A5830286103A55745067B9D86B8A3CF9C7F90C11DE607
310
FB144396D7B6A82D282E9A152AD114D5EF2CB866EEE831B8EEA07A7BB5A8D7D61A2BAAEB7FD5F70921FF497D00504B0304140006080800CC70623B0D6EF93BFE000000A00100003B0000006662782F39464131463745442D413632322D343644302D413938332D3331353338454246344243312F7265736F75726365732F63
310
6F72652E786D6C8D50596E833010BD0A9ADFCA60B334011947A8694ED00B586642AC041B79A97AFC9A40A5F6AF3F33A3B7689E1E3F7DCD8FEC139DD7D6F4C0720A191A65476DA61E62B892236427C19DB5E1970C322367EC618541F0C9D9B8EC90B226A009093576C41D94DE63804C3DD2D18357379C652E63480A7FCF17A9
310
EE72C29CE5894E3AC17D702940B63D59270887DE46A7D0F36263058F518FBB468FE9A7BE6A7420864373B8D4873369AA8691FA421B3294352543C5CAF65C0F6FEF43CB8BD52C78D0F34F46E550061C419494B6843142CB0F5677F4B52BEB177AEC28E5C52AFF638ACBF84F53D42654E51E77B379102C05791282176B5F693D
310
CB4C7BED567C03504B010214000A0000080000CC70623B3DEE336E79000000790000001B00000000000000000000000000000000006175746F6465736B2D64657369676E2D7061636B6167652E786D6C504B01021400140006080800CC70623BD486FD9CA0000000F40000001300000000000000000000000000B20000005B
310
436F6E74656E745F54797065735D2E786D6C504B01021400140006080800CC70623B1EC5D7A3EB0000007C010000080000000000000000000000000083010000636F72652E786D6C504B01021400140006080800CC70623B55019EA25F0000007C000000070000000000000000000000000094020000636E782E786D6C504B
310
01021400140006080800CC70623B8C9102E971010000D40300000C00000000000000000000000000180300006662782F636F72652E786D6C504B01021400140006080800CC70623BFFEA85907E0000009D0000000B00000000000000000000000000B30400006662782F636E782E786D6C504B01021400140006080800CC70
310
623B4FEEA4082C0100001202000031000000000000000000000000005A0500006662782F39464131463745442D413632322D343644302D413938332D3331353338454246344243312F636F72652E786D6C504B01021400140006080800CC70623BAD7543B64E010000330300003000000000000000000000000000D5060000
310
6662782F39464131463745442D413632322D343644302D413938332D3331353338454246344243312F636E782E786D6C504B01021400140006080800CC70623B16AB87BA640500003C1000003400000000000000000000000000710800006662782F39464131463745442D413632322D343644302D413938332D3331353338
310
454246344243312F6F626A656374732E786D6C504B01021400140006080000CC70623B0000000000000000000000003500000000000000000000000000270E00006662782F39464131463745442D413632322D343644302D413938332D3331353338454246344243312F76657274696365732E62696E504B01021400140006
310
080800CC70623BF270F133060000000400000036000000000000000000000000007A0E00006662782F39464131463745442D413632322D343644302D413938332D3331353338454246344243312F747269616E676C65732E62696E504B01021400140006080000CC70623B0000000000000000000000003700000000000000
310
000000000000D40E00006662782F39464131463745442D413632322D343644302D413938332D3331353338454246344243312F617474726962757465732E62696E504B01021400140006080800CC70623B08DA0BD190000000410100003600000000000000000000000000290F00006662782F39464131463745442D413632
310
322D343644302D413938332D3331353338454246344243312F6469726563746F72792E786D6C504B01021400140006080800CC70623B0D6EF93BFE000000A00100003B000000000000000000000000000D1000006662782F39464131463745442D413632322D343644302D413938332D3331353338454246344243312F7265
310
736F75726365732F636F72652E786D6C504B0506000000000E000E0080040000641100000000
  0
XRECORD
  5
83CF
102
{ACAD_REACTORS
330
173
102
}
330
173
100
AcDbXrecord
280
     1
102
MATERIAL
148
0.0
149
0.0
149
0.0
 93
        0
 94
       63
282
     0
 72
     1
 77
     1
171
     1
175
     1
179
     1
273
     0
  0
XRECORD
  5
175
102
{ACAD_REACTORS
330
173
102
}
330
173
100
AcDbXrecord
280
     1
270
     1
271
     1
  0
XRECORD
  5
174
102
{ACAD_REACTORS
330
173
102
}
330
173
100
AcDbXrecord
280
     1
270
     1
271
     1
  0
XRECORD
  5
1FB
102
{ACAD_REACTORS
330
173
102
}
330
173
100
AcDbXrecord
280
     1
 70
     0
 90
1673772943
  1
ECE7A1D2-D628-4531-984C-D00F80459256
310
504B03040A0000080000CC70623B3DEE336E79000000790000001B0000006175746F6465736B2D64657369676E2D7061636B6167652E786D6C3C3F786D6C2076657273696F6E3D22312E302220656E636F64696E673D227574662D3822203F3E3C666F726D6174733E3C666F726D61743E687474703A2F2F736368656D612E
310
6175746F6465736B2E636F6D2F64657369676E2D7061636B6167652F323030393C2F666F726D61743E3C2F666F726D6174733E504B0304140006080800CC70623BD486FD9CA0000000F4000000130000005B436F6E74656E745F54797065735D2E786D6C7D8EC10E82300C865F65E91D8A1E8C310C0EEA1BF002731658846E
310
D98AC1B77784ABF1D8FE5FBFBF75BBCE937A534CCEB38643598122B6FEE978D0B0485F9C41B54DDD7D022595594E1A469170414C76A4D9A4D207E29CF43ECE46F218070CC6BECC4078ACAA135ACF422C856C0E68EA1BF5669944DDD7BCDE7B1F8E415D77AECB980613C2E4AC91FC167A2B244592486606FC29C8FD7F045B9A
310
EF7053A7E60B504B0304140006080800CC70623BD9DDAED0EC0000007C01000008000000636F72652E786D6C8D90416EC3201045AF82665B61836D9CD8C2444DD39CA01740405C94182C03558F5F9C3852BBEB6A467FFE9B197D7EF89E6EE8CB2CC17A37002D0820E394D7D68D03A478C17B4007C117EFE32F1B20272733C0
310
2A83E0E3E2D3BC49CABB685CCCAAF3DA6CA20CC14440EA969B0182FA34932C648AD911AEC52CD5558EA6A0CF2EC329598D1E47ACCEFBECC59A050463A7EA5833865FEBDD0E37353BE3EE8DBDE3F6786A48D375FBF6CC78B9C282473B3DEFABC5C86834888A900E538A49F5419B9EB47DD5BC907D4F082F57FB1F28CDFA9F50
310
B22ED6D5F6EE030B20687EE43E10BC5CB3C8E51E54AE6B6EE207504B0304140006080800CC70623B55019EA25F0000007C00000007000000636E782E786D6C4DCB3B0E80201045D1AD90E915ED2CF8AC45050C11660C8261F98AB1B07AC9C97D42D718D865D3E909258CFD00CCE24AC6E326A164D74DC0B4128928FF326038
310
472BA13128B1252AC747C6BAB984FC68F0B87FE8960A5C09FE86CFB69FBA01504B0304140006080800CC70623BA24EB22D72010000D40300000C0000006662782F636F72652E786D6CC5535B6E833010BC8AE5DF0A6C5E49888CA3A6694ED00B38E05014B091B1518EDFE511A5A9D228FD2A1F60CDEC7A67C6986DCE4D8D7A
310
69BA4AAB0C073EC548AA5C17952A33ECECD15B61B4E1CC686DBF9561A44423333CC098B3D268D7CE50AE9595CA02AA74216750749DB418E5352C32DCE59FB211BE70162ABA93DF8AFC244AE9073ED050C759670D0840D390E18DF9F1706664C23973AE2A66B62A605A75ACA4C13C4976E1364A12EF355A2EBD384AF65EFA96
310
BC7B8BED2EA6719AAE16FB8491A199335B351775B991C2CA02F390D2D40B028F861F41BCA68B7518BFD0D59A524686F29B26D7164F36B94AD9289CE54E6D1DE6010819891F6E21228B3AD1831EC219194284CF98F06DD01008846CC5A1BEF83801D4CBDC6A1303536877A57A513B0953A94FC707FDBE6064EA84A9E3E6E0FA
310
EE8CF0E9198F7784A316AA0413C2C2F2E0ECA0934D1AE6D05A69BCDE9E91D2A611F573361E38FC1375157F5752AE6B6DFE4B11990F88CCBF0719EE23FF02504B0304140006080800CC70623B408A7D3B7C0000009D0000000B0000006662782F636E782E786D6C4DCCD10A83201886E15B91FFDC552A92A0064DBC8F581632
310
D3703A76F9ABD1C18E3E78F878E5F0D9027ABBFCF2292AE86E2D20171F69F6715550CB827B40839639A5F2770314A7CD293819B45C73AAFB45B35BA61ACAA1C1C7E7855C58C15BC331339661262CC762340413D68D77DA5B42298546CBE6573AF60CEB2F504B0304140006080800CC70623B449FB9BD290100001202000031
310
0000006662782F36394639363044362D344446342D343946362D394244322D3234314243333846323333332F636F72652E786D6C8D515B6EC32010BC0AE22B55850D98B871848994463E412FE002495162B07854397EA176A4F62F3F2C9A9D991D587EB84F37F0AD7D30CEF6905418026DA553C65E7A98E219ED203808EE9D
310
8B7F6810D871D23D2C3014FCE25D9A57483A1BB58D19B54EE9151C43D0110279CB971E06F9A5A7B11A53CC8C70ADE6515EC78BAE4895DB992778883E0700CB907242D17643D7E2538BD869608875438BBAE38922CAC8F1BDD90DB4691A5E2F42C153326A951B95E398B3D1FE599322163C9AE9115F7A3D46ADA0A018778810
310
84E907617BDCEE297BC5BB3DC6BC2EF47FA234AB2745C9D8D8D035EE220B50105E2F0DC1954B9FB747187D9F9D8FA0CCDB042D5FA0C015C65B42DF78BD10F3F3B363CB56C7109DCFDFBBB97E662ED92EB62D13BC2E1BCAE5777DB9966D8A1F504B0304140006080800CC70623BAD7543B64E01000033030000300000006662
310
782F36394639363044362D344446342D343946362D394244322D3234314243333846323333332F636E782E786D6CD593CD6EC32010845F0571AD6CE3D48AD20813A9873E410FBD12D82434182C7EAAE6EDBB2424CD25871E7B41D6EC30B3FA84F9E67BB2E40B4234DE8DB46F1925E094D7C6ED479AD3AE5951B2113C789FEE
310
6C943839C1488B4C05DF079FE72A69D8C96C13AAD6B8631503449F83828872B949AC57D26200B826A308D316B4064D6E46FCDA41C05550DC9E483A00797BFD207EFB092A45DE9514C1BBD22178396BD39D891265658C238DEA00936C654E5E433CB65A26D9F6EDB5EBC14EBF49A45CB856E66048291F6939A9A81BB5C89177
310
38143CA680F4AA299D66A042CEB3354A2684DC9D8D178FE0D9B8B41CAAD720F880EE7EF93C0C18769E099ECC04D5A102C8049A8A05632F4DDF376CF1DE0F6BB65C2F8627B65A33C6BB62177CEBBDAD973006829F89F22E814B54F4BC2BE347F8AA8F681390B50FA73F804400B5F542E796F19FF974E7F78DB802FE05E20750
310
4B0304140006080800CC70623B8D05915C650500003B100000340000006662782F36394639363044362D344446342D343946362D394244322D3234314243333846323333332F6F626A656374732E786D6CAD575B6FA33814FE2B887D06429276DA1565D4266D158D3A339A6846FB502932E050B66023DB74D2FDF5FB190C01
310
9276B2973C046C8ECFF53B17071F77456EBD502133CEAE6CDF9DD81665314F32965ED995DA3A17B6F5310C04E7AA47665B8C14F4CAD6DB7618A48257A5D94AE89654B91AEDDEDDFC61C998326A5B714EA4BCB265FC440BE2924AF184CA6737218AB8E976E7FA6E4338649B0A523E8D98964450A6A029F619B8588D52FE7039
310
B1BD30F0F4F730D0FF866AF6369557DB33949F31A9088B0F848DD8CCFCF9F2767A76E99CCDE733677E3EF59D9BBB9BA5E37F984D16E78BC5E5F5ED25044B25C0C96822E8D60EEFE11B91C581D77CEA34368A1F5329E68CD1B8B61F16D63A1B8E092D294B10C78C4A48EB593D192E7DED9BDEE7995E1B91FDEDD3ACEA9FE831
310
6A756F9F7D4D79F4274C90A7A04248AA51D5F8C718DAE06FB2F75AC4796EBE65D22A88A22223B995679120E2D50E41AA49C260C046A35368846B0BECD0DFF3EBEB8AD4F835768F69B9ADF25C43D30E6B646F807FAA64AD59F61715C7A54127C4AACA98BA3006A9D792DAE165E0D59B61A01FB3A9F9D838D2DAE62445C86166
310
F37564E842E7DE6A69879FEEA2DD5AE7E371E1A5E025154AC307D06A03D73EB5978C58FFA4C8E9033066E0F3BD53BEC1F39F91BE7B55103791EDE6BBB991A2046172CB4581D8B893FA674DDA17A77B3B7C413D1B511FD2743BFF8A38F03A658705E3ADF8015C3A3417FF3D7E439FF591DA0B5F18BC20C1B8981957AE6392A3
310
F43C640C01D1A0B4728E2DD4F26DB4B3C3152A252A3B4E913CEC1C72F012782FF88EFF8637AA552DBEF76408E8A8DE9E50F9E1CB3A2DA0DB1B6039A893B56063DC5B3E3FFB5F72E67AB9FEB4AEC496C4F4C1149625DD662C53E89D7BF0F6151A046260D1337DFDC94502430F83B0EE07A130A224BCAD7DAE1D9FB6CD422FF6
310
920702629C4BB9AE79C12F243C6432A6794E18E5552BA56B431AAB5D91317302B2B071E86C3A42B1A02F999E24061403B5D0EB639195DA655DD3EBEAB4FB862DDF579F014AD0E73C22F99E28DA57FB98E75C6CA2D74D53086D600F4786E0FE3144B771A8A7B900F03594DB8A633CBC49B2EDB69228BB479CF863B5E807AAAB
310
23872F6DFEB4129B949CA33823F58830E86D65621E10047D9DB34D862E8EAC3C2ABC2F7B2C40D67CDFE01F5545B92105AF983AC54D93D69E56FB8E797F88913F898A9FEC705D3F9D1B54EC8426FB500D40A03BD0119B06E1B95DDC7EB8F6975367793EBD70E66733DFB9BC982F9CE564727731999F5D4ECFCE3B8D6A4DC2A0
310
6D50FD148437D110834A64C6CDDF57FBACB5C307A2A477DFE4939736CFEF2B175371E0E10CF0DD1D5C15654E0BCA14D1E87DD02FF93782A162C0A3D95F1524A52770F972BF1EE9809D13CE7DD599467F8ECE9ADD85CE85A34CD45355448C64F9E8A031DC2D596ACC6E5DD93D9B82DE2EF5CAF81363A8E47996A0DE24564A79
310
4115AACE09C55E14540231FDA13C319787134EBF34E3A022514E5B4D9E0826E25C02D5805B15ABE1BEF51B26383D445DD9E875EE33FE4C22DA16427D65A3BCA92CA6D28DD01DF5DC53330704308475351050232CCD31583787BA75774AFB06E5070DD0C8EF484E19968C5D83BA5B90B244D31E54D55A372320FE4786B7EA58
310
44E135AA5467CB7EA333A61683CC6A8C3257034C10CF46F40EF9F5BE59BE5BD30C3C72D235E95D10345C1D45445A5F0BB47E46A5EBE5570F9380B5FA629579952296A773720405982B9DE04011506178964401AA8BDF1FBF0A8EAB6861DD6580C0E38217056766716DAEB2D6FA0917D3E4116581EADB879C4E7CFFB11EFACD
310
3D641311495D92C8676CB409A72D18610D803CE8A626049E8EC1887CB5B44CC39883690DDA8399B4B9855B481E7D71D4A9D22F96E5BB73BF5793020C02137BF837504B0304140006080000CC70623B000000000000000000000000350000006662782F36394639363044362D344446342D343946362D394244322D32343142
310
43333846323333332F76657274696365732E62696E504B0304140006080800CC70623BF270F1330600000004000000360000006662782F36394639363044362D344446342D343946362D394244322D3234314243333846323333332F747269616E676C65732E62696E636660600000504B0304140006080000CC70623B0000
310
00000000000000000000370000006662782F36394639363044362D344446342D343946362D394244322D3234314243333846323333332F617474726962757465732E62696E504B0304140006080800CC70623B08DA0BD19000000041010000360000006662782F36394639363044362D344446342D343946362D394244322D
310
3234314243333846323333332F6469726563746F72792E786D6C858F410AC3201045AF22B36F53E9A60B35CBEEBAE80D244E44489C6234F4F835464A48035D0DF398FF9F8AF63D0E6CC63039F212F8F9020C7D47C6792B21C5FE7403D62A1188E2E60C98D7234A5830286103A55745067B9D86B8A3CF9C7F90C11DE607FB14
310
4396D7B6A82D282E9A152AD114D5EF2CB866EEE831B8EEA07A7BB5A8D7D61A2BAAEB7FD5F70921FF497D00504B0304140006080800CC70623BCA768048FE000000A00100003B0000006662782F36394639363044362D344446342D343946362D394244322D3234314243333846323333332F7265736F75726365732F636F72
310
652E786D6C8D50596E833010BD0A9ADFCA60D600328E9AA639412F609909B1126CE4A5EAF16B0295DABFFECC8CDEA2797AECF8353F924FB44E193D409E5248504B332A3D0D10FC95B4901C39B3C6F85F3248B49871801506CE266BC2B243D2688FDA47549B11775038871E12F988C7004EDE7016A9083E2ADC3D5D84BC8B09
310
D33C8D74D471E6BC8D0192EDC93A815B742658898E651BCB59086ADC356A8C3FD555A1055ED7E7E254D615792D0F075295F585746FF53B694EE78A565DD736979A65AB9933AFE69F8CD2A2F038022F28ED489E135A7CE4554F9BBEA85E68DB53CAB255FEC71496F19FA6A0B42F8B3DEE6673C0F318E4497096AD7DC5F52C33
310
EEB55BFE0D504B010214000A0000080000CC70623B3DEE336E79000000790000001B00000000000000000000000000000000006175746F6465736B2D64657369676E2D7061636B6167652E786D6C504B01021400140006080800CC70623BD486FD9CA0000000F40000001300000000000000000000000000B20000005B436F
310
6E74656E745F54797065735D2E786D6C504B01021400140006080800CC70623BD9DDAED0EC0000007C010000080000000000000000000000000083010000636F72652E786D6C504B01021400140006080800CC70623B55019EA25F0000007C000000070000000000000000000000000095020000636E782E786D6C504B0102
310
1400140006080800CC70623BA24EB22D72010000D40300000C00000000000000000000000000190300006662782F636F72652E786D6C504B01021400140006080800CC70623B408A7D3B7C0000009D0000000B00000000000000000000000000B50400006662782F636E782E786D6C504B01021400140006080800CC70623B
310
449FB9BD290100001202000031000000000000000000000000005A0500006662782F36394639363044362D344446342D343946362D394244322D3234314243333846323333332F636F72652E786D6C504B01021400140006080800CC70623BAD7543B64E010000330300003000000000000000000000000000D20600006662
310
782F36394639363044362D344446342D343946362D394244322D3234314243333846323333332F636E782E786D6C504B01021400140006080800CC70623B8D05915C650500003B10000034000000000000000000000000006E0800006662782F36394639363044362D344446342D343946362D394244322D32343142433338
310
46323333332F6F626A656374732E786D6C504B01021400140006080000CC70623B0000000000000000000000003500000000000000000000000000250E00006662782F36394639363044362D344446342D343946362D394244322D3234314243333846323333332F76657274696365732E62696E504B010214001400060808
310
00CC70623BF270F13306000000040000003600000000000000000000000000780E00006662782F36394639363044362D344446342D343946362D394244322D3234314243333846323333332F747269616E676C65732E62696E504B01021400140006080000CC70623B00000000000000000000000037000000000000000000
310
00000000D20E00006662782F36394639363044362D344446342D343946362D394244322D3234314243333846323333332F617474726962757465732E62696E504B01021400140006080800CC70623B08DA0BD190000000410100003600000000000000000000000000270F00006662782F36394639363044362D344446342D
310
343946362D394244322D3234314243333846323333332F6469726563746F72792E786D6C504B01021400140006080800CC70623BCA768048FE000000A00100003B000000000000000000000000000B1000006662782F36394639363044362D344446342D343946362D394244322D3234314243333846323333332F7265736F
310
75726365732F636F72652E786D6C504B0506000000000E000E0080040000621100000000
  0
XRECORD
  5
176
102
{ACAD_REACTORS
330
173
102
}
330
173
100
AcDbXrecord
280
     1
270
     1
271
     1
  0
XRECORD
  5
177
102
{ACAD_REACTORS
330
173
102
}
330
173
100
AcDbXrecord
280
     1
270
     1
271
     1
  0
XRECORD
  5
83F1
102
{ACAD_REACTORS
330
83F0
102
}
330
83F0
100
AcDbXrecord
280
     1
102
ACAD_ROUNDTRIP_2012_MLEADER_STYLE
298
     1
  0
XRECORD
  5
8403
102
{ACAD_REACTORS
330
8402
102
}
330
8402
100
AcDbXrecord
280
     1
102
DISPLAYNAME
  1
Metric50
102
FLAGS
 90
        0
  0
CELLSTYLEMAP
  5
83C3
102
{ACAD_REACTORS
330
162
102
}
330
162
100
AcDbCellStyleMap
 90
        3
300
CELLSTYLE
  1
TABLEFORMAT_BEGIN
 90
        5
170
     1
 91
        0
 92
    32768
 62
   257
 93
        1
300
CONTENTFORMAT
  1
CONTENTFORMAT_BEGIN
 90
        0
 91
        0
 92
      512
 93
        0
300

 40
0.0
140
1.0
 94
        5
 62
     0
340
11
144
6.0
309
CONTENTFORMAT_END
171
     1
301
MARGIN
  1
CELLMARGIN_BEGIN
 40
1.5
 40
1.5
 40
1.5
 40
1.5
 40
4.5
 40
4.5
309
CELLMARGIN_END
 94
        6
 95
        1
302
GRIDFORMAT
  1
GRIDFORMAT_BEGIN
 90
        0
 91
        1
 62
     0
 92
       -2
340
14
 93
        0
 40
1.125
309
GRIDFORMAT_END
 95
        2
302
GRIDFORMAT
  1
GRIDFORMAT_BEGIN
 90
        0
 91
        1
 62
     0
 92
       -2
340
14
 93
        0
 40
1.125
309
GRIDFORMAT_END
 95
        4
302
GRIDFORMAT
  1
GRIDFORMAT_BEGIN
 90
        0
 91
        1
 62
     0
 92
       -2
340
14
 93
        0
 40
1.125
309
GRIDFORMAT_END
 95
        8
302
GRIDFORMAT
  1
GRIDFORMAT_BEGIN
 90
        0
 91
        1
 62
     0
 92
       -2
340
14
 93
        0
 40
1.125
309
GRIDFORMAT_END
 95
       16
302
GRIDFORMAT
  1
GRIDFORMAT_BEGIN
 90
        0
 91
        1
 62
     0
 92
       -2
340
14
 93
        0
 40
1.125
309
GRIDFORMAT_END
 95
       32
302
GRIDFORMAT
  1
GRIDFORMAT_BEGIN
 90
        0
 91
        1
 62
     0
 92
       -2
340
14
 93
        0
 40
1.125
309
GRIDFORMAT_END
309
TABLEFORMAT_END
  1
CELLSTYLE_BEGIN
 90
        1
 91
        1
300
_TITLE
309
CELLSTYLE_END
300
CELLSTYLE
  1
TABLEFORMAT_BEGIN
 90
        5
170
     1
 91
        0
 92
        0
 62
   257
 93
        1
300
CONTENTFORMAT
  1
CONTENTFORMAT_BEGIN
 90
        0
 91
        0
 92
      512
 93
        0
300

 40
0.0
140
1.0
 94
        5
 62
     0
340
11
144
4.5
309
CONTENTFORMAT_END
171
     1
301
MARGIN
  1
CELLMARGIN_BEGIN
 40
1.5
 40
1.5
 40
1.5
 40
1.5
 40
4.5
 40
4.5
309
CELLMARGIN_END
 94
        6
 95
        1
302
GRIDFORMAT
  1
GRIDFORMAT_BEGIN
 90
        0
 91
        1
 62
     0
 92
       -2
340
14
 93
        0
 40
1.125
309
GRIDFORMAT_END
 95
        2
302
GRIDFORMAT
  1
GRIDFORMAT_BEGIN
 90
        0
 91
        1
 62
     0
 92
       -2
340
14
 93
        0
 40
1.125
309
GRIDFORMAT_END
 95
        4
302
GRIDFORMAT
  1
GRIDFORMAT_BEGIN
 90
        0
 91
        1
 62
     0
 92
       -2
340
14
 93
        0
 40
1.125
309
GRIDFORMAT_END
 95
        8
302
GRIDFORMAT
  1
GRIDFORMAT_BEGIN
 90
        0
 91
        1
 62
     0
 92
       -2
340
14
 93
        0
 40
1.125
309
GRIDFORMAT_END
 95
       16
302
GRIDFORMAT
  1
GRIDFORMAT_BEGIN
 90
        0
 91
        1
 62
     0
 92
       -2
340
14
 93
        0
 40
1.125
309
GRIDFORMAT_END
 95
       32
302
GRIDFORMAT
  1
GRIDFORMAT_BEGIN
 90
        0
 91
        1
 62
     0
 92
       -2
340
14
 93
        0
 40
1.125
309
GRIDFORMAT_END
309
TABLEFORMAT_END
  1
CELLSTYLE_BEGIN
 90
        2
 91
        1
300
_HEADER
309
CELLSTYLE_END
300
CELLSTYLE
  1
TABLEFORMAT_BEGIN
 90
        5
170
     1
 91
        0
 92
        0
 62
   257
 93
        1
300
CONTENTFORMAT
  1
CONTENTFORMAT_BEGIN
 90
        0
 91
        0
 92
      512
 93
        0
300

 40
0.0
140
1.0
 94
        2
 62
     0
340
11
144
4.5
309
CONTENTFORMAT_END
171
     1
301
MARGIN
  1
CELLMARGIN_BEGIN
 40
1.5
 40
1.5
 40
1.5
 40
1.5
 40
4.5
 40
4.5
309
CELLMARGIN_END
 94
        6
 95
        1
302
GRIDFORMAT
  1
GRIDFORMAT_BEGIN
 90
        0
 91
        1
 62
     0
 92
       -2
340
14
 93
        0
 40
1.125
309
GRIDFORMAT_END
 95
        2
302
GRIDFORMAT
  1
GRIDFORMAT_BEGIN
 90
        0
 91
        1
 62
     0
 92
       -2
340
14
 93
        0
 40
1.125
309
GRIDFORMAT_END
 95
        4
302
GRIDFORMAT
  1
GRIDFORMAT_BEGIN
 90
        0
 91
        1
 62
     0
 92
       -2
340
14
 93
        0
 40
1.125
309
GRIDFORMAT_END
 95
        8
302
GRIDFORMAT
  1
GRIDFORMAT_BEGIN
 90
        0
 91
        1
 62
     0
 92
       -2
340
14
 93
        0
 40
1.125
309
GRIDFORMAT_END
 95
       16
302
GRIDFORMAT
  1
GRIDFORMAT_BEGIN
 90
        0
 91
        1
 62
     0
 92
       -2
340
14
 93
        0
 40
1.125
309
GRIDFORMAT_END
 95
       32
302
GRIDFORMAT
  1
GRIDFORMAT_BEGIN
 90
        0
 91
        1
 62
     0
 92
       -2
340
14
 93
        0
 40
1.125
309
GRIDFORMAT_END
309
TABLEFORMAT_END
  1
CELLSTYLE_BEGIN
 90
        3
 91
        2
300
_DATA
309
CELLSTYLE_END
  0
XRECORD
  5
83C8
102
{ACAD_REACTORS
330
162
102
}
330
162
100
AcDbXrecord
280
     1
102
ACAD_ROUNDTRIP_PRE2007_TABLESTYLE
 90
      512
 91
        0
  1

 92
      512
 93
        0
  2

 94
      512
 95
        0
  3

  0
XRECORD
  5
83DB
102
{ACAD_REACTORS
330
83DA
102
}
330
83DA
100
AcDbXrecord
280
     1
102
RTVSPost2010Prop28
280
     1
102
RTVSPost2010PropOp28
 70
     1
102
RTVSPost2010Prop29
280
     1
102
RTVSPost2010PropOp29
 70
     1
102
RTVSPost2010Prop30
280
     0
102
RTVSPost2010PropOp30
 70
     1
102
RTVSPost2010Prop31
280
     0
102
RTVSPost2010PropOp31
 70
     1
102
RTVSPost2010Prop32
280
     0
102
RTVSPost2010PropOp32
 70
     1
102
RTVSPost2010Prop33
280
     0
102
RTVSPost2010PropOp33
 70
     1
102
RTVSPost2010Prop34
280
     0
102
RTVSPost2010PropOp34
 70
     1
102
RTVSPost2010Prop35
280
     0
102
RTVSPost2010PropOp35
 70
     1
102
RTVSPost2010Prop36
280
     0
102
RTVSPost2010PropOp36
 70
     1
102
RTVSPost2010Prop37
 90
       50
102
RTVSPost2010PropOp37
 70
     1
102
RTVSPost2010Prop38
140
0.0
102
RTVSPost2010PropOp38
 70
     1
102
RTVSPost2010Prop39
140
1.0
102
RTVSPost2010PropOp39
 70
     1
102
RTVSPost2010Prop40
 90
        0
102
RTVSPost2010PropOp40
 70
     1
102
RTVSPost2010Prop41ColorIndex
 90
       18
102
RTVSPost2010Prop41ColorRGB
 90
        0
102
RTVSPost2010PropOp41
 70
     1
102
RTVSPost2010Prop42
 90
       50
102
RTVSPost2010PropOp42
 70
     1
102
RTVSPost2010Prop43
 90
        3
102
RTVSPost2010PropOp43
 70
     1
102
RTVSPost2010Prop44ColorIndex
 90
        5
102
RTVSPost2010Prop44ColorRGB
 90
      255
102
RTVSPost2010PropOp44
 70
     1
102
RTVSPost2010Prop45
280
     0
102
RTVSPost2010PropOp45
 70
     1
102
RTVSPost2010Prop46
 90
       50
102
RTVSPost2010PropOp46
 70
     1
102
RTVSPost2010Prop47
 90
       50
102
RTVSPost2010PropOp47
 70
     1
102
RTVSPost2010Prop48
 90
       50
102
RTVSPost2010PropOp48
 70
     1
102
RTVSPost2010Prop49
280
     0
102
RTVSPost2010PropOp49
 70
     1
102
RTVSPost2010Prop50
 90
       50
102
RTVSPost2010PropOp50
 70
     1
102
RTVSPost2010Prop51ColorIndex
 90
      256
102
RTVSPost2010Prop51ColorRGB
 90
-16777216
102
RTVSPost2010PropOp51
 70
     0
102
RTVSPost2010Prop52
140
1.0
102
RTVSPost2010PropOp52
 70
     0
102
RTVSPost2010Prop53
 90
        2
102
RTVSPost2010PropOp53
 70
     1
102
RTVSPost2010Prop54
  1
strokes_ogs.tif
102
RTVSPost2010PropOp54
 70
     1
102
RTVSPost2010Prop55
280
     0
102
RTVSPost2010PropOp55
 70
     1
102
RTVSPost2010Prop56
140
1.0
102
RTVSPost2010PropOp56
 70
     1
102
RTVSPost2010Prop57
140
1.0
102
RTVSPost2010PropOp57
 70
     1
102
RTVSPropertyOp0
 70
     1
102
RTVSPropertyOp1
 70
     1
102
RTVSPropertyOp2
 70
     1
102
RTVSPropertyOp3
 70
     1
102
RTVSPropertyOp4
 70
     1
102
RTVSPropertyOp5
 70
     1
102
RTVSPropertyOp6
 70
     1
102
RTVSPropertyOp7
 70
     1
102
RTVSPropertyOp8
 70
     1
102
RTVSPropertyOp9
 70
     1
102
RTVSPropertyOp10
 70
     1
102
RTVSPropertyOp11
 70
     1
102
RTVSPropertyOp12
 70
     1
102
RTVSPropertyOp13
 70
     1
102
RTVSPropertyOp14
 70
     1
102
RTVSPropertyOp15
 70
     1
102
RTVSPropertyOp16
 70
     1
102
RTVSPropertyOp17
 70
     1
102
RTVSPropertyOp18
 70
     1
102
RTVSPropertyOp19
 70
     1
102
RTVSPropertyOp20
 70
     1
102
RTVSPropertyOp21
 70
     1
102
RTVSPropertyOp22
 70
     1
102
RTVSPropertyOp23
 70
     1
102
RTVSPropertyOp24
 70
     1
102
RTVSPropertyOp25
 70
     1
102
RTVSPropertyOp26
 70
     1
102
RTVSPropertyOp27
 70
     1
102
RTVSPropertyOp28
 70
     1
102
RTVSPropertyOp29
 70
     1
102
RTVSPropertyOp30
 70
     1
102
RTVSPropertyOp31
 70
     1
102
RTVSPropertyOp32
 70
     1
102
RTVSPropertyOp33
 70
     1
102
RTVSPropertyOp34
 70
     1
102
RTVSPropertyOp35
 70
     1
102
RTVSPropertyOp36
 70
     1
102
RTVSPropertyOp37
 70
     1
102
RTVSPropertyOp38
 70
     1
102
RTVSPropertyOp39
 70
     1
102
RTVSPropertyOp40
 70
     1
102
RTVSPropertyOp41
 70
     1
102
RTVSPropertyOp42
 70
     1
102
RTVSPropertyOp43
 70
     1
102
RTVSPropertyOp44
 70
     1
102
RTVSPropertyOp45
 70
     1
102
RTVSPropertyOp46
 70
     1
102
RTVSPropertyOp47
 70
     1
102
RTVSPropertyOp48
 70
     1
102
RTVSPropertyOp49
 70
     1
102
RTVSPropertyOp50
 70
     1
102
RTVSPropertyOp51
 70
     0
102
RTVSPropertyOp52
 70
     0
102
RTVSPropertyOp53
 70
     1
102
RTVSPropertyOp54
 70
     1
102
RTVSPropertyOp55
 70
     1
102
RTVSPropertyOp56
 70
     1
102
RTVSPropertyOp57
 70
     1
102
RTVSPropertyOp58
 70
     1
102
RTVSPropertyOp59
 70
     1
102
RTVSPropertyOp60
 70
     1
102
RTVSPropertyOp61
 70
     1
102
RTVSPropertyOp62
 70
     1
  0
XRECORD
  5
83D9
102
{ACAD_REACTORS
330
83D8
102
}
330
83D8
100
AcDbXrecord
280
     1
102
RTVSPost2010Prop28
280
     0
102
RTVSPost2010PropOp28
 70
     1
102
RTVSPost2010Prop29
280
     1
102
RTVSPost2010PropOp29
 70
     1
102
RTVSPost2010Prop30
280
     1
102
RTVSPost2010PropOp30
 70
     1
102
RTVSPost2010Prop31
280
     0
102
RTVSPost2010PropOp31
 70
     1
102
RTVSPost2010Prop32
280
     0
102
RTVSPost2010PropOp32
 70
     1
102
RTVSPost2010Prop33
280
     0
102
RTVSPost2010PropOp33
 70
     1
102
RTVSPost2010Prop34
280
     0
102
RTVSPost2010PropOp34
 70
     1
102
RTVSPost2010Prop35
280
     0
102
RTVSPost2010PropOp35
 70
     1
102
RTVSPost2010Prop36
280
     0
102
RTVSPost2010PropOp36
 70
     1
102
RTVSPost2010Prop37
 90
       50
102
RTVSPost2010PropOp37
 70
     1
102
RTVSPost2010Prop38
140
0.0
102
RTVSPost2010PropOp38
 70
     1
102
RTVSPost2010Prop39
140
1.0
102
RTVSPost2010PropOp39
 70
     1
102
RTVSPost2010Prop40
 90
        0
102
RTVSPost2010PropOp40
 70
     1
102
RTVSPost2010Prop41ColorIndex
 90
       18
102
RTVSPost2010Prop41ColorRGB
 90
        0
102
RTVSPost2010PropOp41
 70
     1
102
RTVSPost2010Prop42
 90
       50
102
RTVSPost2010PropOp42
 70
     1
102
RTVSPost2010Prop43
 90
        3
102
RTVSPost2010PropOp43
 70
     1
102
RTVSPost2010Prop44ColorIndex
 90
        5
102
RTVSPost2010Prop44ColorRGB
 90
      255
102
RTVSPost2010PropOp44
 70
     1
102
RTVSPost2010Prop45
280
     0
102
RTVSPost2010PropOp45
 70
     1
102
RTVSPost2010Prop46
 90
       50
102
RTVSPost2010PropOp46
 70
     1
102
RTVSPost2010Prop47
 90
       50
102
RTVSPost2010PropOp47
 70
     1
102
RTVSPost2010Prop48
 90
       50
102
RTVSPost2010PropOp48
 70
     1
102
RTVSPost2010Prop49
280
     0
102
RTVSPost2010PropOp49
 70
     1
102
RTVSPost2010Prop50
 90
       50
102
RTVSPost2010PropOp50
 70
     1
102
RTVSPost2010Prop51ColorIndex
 90
      256
102
RTVSPost2010Prop51ColorRGB
 90
-16777216
102
RTVSPost2010PropOp51
 70
     0
102
RTVSPost2010Prop52
140
1.0
102
RTVSPost2010PropOp52
 70
     0
102
RTVSPost2010Prop53
 90
        2
102
RTVSPost2010PropOp53
 70
     1
102
RTVSPost2010Prop54
  1
strokes_ogs.tif
102
RTVSPost2010PropOp54
 70
     1
102
RTVSPost2010Prop55
280
     0
102
RTVSPost2010PropOp55
 70
     1
102
RTVSPost2010Prop56
140
1.0
102
RTVSPost2010PropOp56
 70
     1
102
RTVSPost2010Prop57
140
1.0
102
RTVSPost2010PropOp57
 70
     1
102
RTVSPropertyOp0
 70
     1
102
RTVSPropertyOp1
 70
     1
102
RTVSPropertyOp2
 70
     1
102
RTVSPropertyOp3
 70
     1
102
RTVSPropertyOp4
 70
     1
102
RTVSPropertyOp5
 70
     1
102
RTVSPropertyOp6
 70
     1
102
RTVSPropertyOp7
 70
     1
102
RTVSPropertyOp8
 70
     1
102
RTVSPropertyOp9
 70
     1
102
RTVSPropertyOp10
 70
     1
102
RTVSPropertyOp11
 70
     1
102
RTVSPropertyOp12
 70
     1
102
RTVSPropertyOp13
 70
     1
102
RTVSPropertyOp14
 70
     1
102
RTVSPropertyOp15
 70
     1
102
RTVSPropertyOp16
 70
     1
102
RTVSPropertyOp17
 70
     1
102
RTVSPropertyOp18
 70
     1
102
RTVSPropertyOp19
 70
     1
102
RTVSPropertyOp20
 70
     1
102
RTVSPropertyOp21
 70
     1
102
RTVSPropertyOp22
 70
     1
102
RTVSPropertyOp23
 70
     1
102
RTVSPropertyOp24
 70
     1
102
RTVSPropertyOp25
 70
     1
102
RTVSPropertyOp26
 70
     1
102
RTVSPropertyOp27
 70
     1
102
RTVSPropertyOp28
 70
     1
102
RTVSPropertyOp29
 70
     1
102
RTVSPropertyOp30
 70
     1
102
RTVSPropertyOp31
 70
     1
102
RTVSPropertyOp32
 70
     1
102
RTVSPropertyOp33
 70
     1
102
RTVSPropertyOp34
 70
     1
102
RTVSPropertyOp35
 70
     1
102
RTVSPropertyOp36
 70
     1
102
RTVSPropertyOp37
 70
     1
102
RTVSPropertyOp38
 70
     1
102
RTVSPropertyOp39
 70
     1
102
RTVSPropertyOp40
 70
     1
102
RTVSPropertyOp41
 70
     1
102
RTVSPropertyOp42
 70
     1
102
RTVSPropertyOp43
 70
     1
102
RTVSPropertyOp44
 70
     1
102
RTVSPropertyOp45
 70
     1
102
RTVSPropertyOp46
 70
     1
102
RTVSPropertyOp47
 70
     1
102
RTVSPropertyOp48
 70
     1
102
RTVSPropertyOp49
 70
     1
102
RTVSPropertyOp50
 70
     1
102
RTVSPropertyOp51
 70
     0
102
RTVSPropertyOp52
 70
     0
102
RTVSPropertyOp53
 70
     1
102
RTVSPropertyOp54
 70
     1
102
RTVSPropertyOp55
 70
     1
102
RTVSPropertyOp56
 70
     1
102
RTVSPropertyOp57
 70
     1
102
RTVSPropertyOp58
 70
     1
102
RTVSPropertyOp59
 70
     1
102
RTVSPropertyOp60
 70
     1
102
RTVSPropertyOp61
 70
     1
102
RTVSPropertyOp62
 70
     1
  0
XRECORD
  5
83E7
102
{ACAD_REACTORS
330
83E6
102
}
330
83E6
100
AcDbXrecord
280
     1
102
RTVSPost2010Prop28
280
     0
102
RTVSPost2010PropOp28
 70
     1
102
RTVSPost2010Prop29
280
     1
102
RTVSPost2010PropOp29
 70
     1
102
RTVSPost2010Prop30
280
     1
102
RTVSPost2010PropOp30
 70
     1
102
RTVSPost2010Prop31
280
     0
102
RTVSPost2010PropOp31
 70
     1
102
RTVSPost2010Prop32
280
     0
102
RTVSPost2010PropOp32
 70
     1
102
RTVSPost2010Prop33
280
     0
102
RTVSPost2010PropOp33
 70
     1
102
RTVSPost2010Prop34
280
     0
102
RTVSPost2010PropOp34
 70
     1
102
RTVSPost2010Prop35
280
     0
102
RTVSPost2010PropOp35
 70
     1
102
RTVSPost2010Prop36
280
     0
102
RTVSPost2010PropOp36
 70
     1
102
RTVSPost2010Prop37
 90
       50
102
RTVSPost2010PropOp37
 70
     1
102
RTVSPost2010Prop38
140
0.0
102
RTVSPost2010PropOp38
 70
     1
102
RTVSPost2010Prop39
140
1.0
102
RTVSPost2010PropOp39
 70
     1
102
RTVSPost2010Prop40
 90
        0
102
RTVSPost2010PropOp40
 70
     1
102
RTVSPost2010Prop41ColorIndex
 90
       18
102
RTVSPost2010Prop41ColorRGB
 90
        0
102
RTVSPost2010PropOp41
 70
     1
102
RTVSPost2010Prop42
 90
       50
102
RTVSPost2010PropOp42
 70
     1
102
RTVSPost2010Prop43
 90
        3
102
RTVSPost2010PropOp43
 70
     1
102
RTVSPost2010Prop44ColorIndex
 90
        5
102
RTVSPost2010Prop44ColorRGB
 90
      255
102
RTVSPost2010PropOp44
 70
     1
102
RTVSPost2010Prop45
280
     0
102
RTVSPost2010PropOp45
 70
     1
102
RTVSPost2010Prop46
 90
       50
102
RTVSPost2010PropOp46
 70
     1
102
RTVSPost2010Prop47
 90
       50
102
RTVSPost2010PropOp47
 70
     1
102
RTVSPost2010Prop48
 90
       50
102
RTVSPost2010PropOp48
 70
     1
102
RTVSPost2010Prop49
280
     0
102
RTVSPost2010PropOp49
 70
     1
102
RTVSPost2010Prop50
 90
       50
102
RTVSPost2010PropOp50
 70
     1
102
RTVSPost2010Prop51ColorIndex
 90
      256
102
RTVSPost2010Prop51ColorRGB
 90
-16777216
102
RTVSPost2010PropOp51
 70
     0
102
RTVSPost2010Prop52
140
1.0
102
RTVSPost2010PropOp52
 70
     0
102
RTVSPost2010Prop53
 90
        2
102
RTVSPost2010PropOp53
 70
     1
102
RTVSPost2010Prop54
  1
strokes_ogs.tif
102
RTVSPost2010PropOp54
 70
     1
102
RTVSPost2010Prop55
280
     0
102
RTVSPost2010PropOp55
 70
     1
102
RTVSPost2010Prop56
140
1.0
102
RTVSPost2010PropOp56
 70
     1
102
RTVSPost2010Prop57
140
1.0
102
RTVSPost2010PropOp57
 70
     1
102
RTVSPropertyOp0
 70
     1
102
RTVSPropertyOp1
 70
     1
102
RTVSPropertyOp2
 70
     1
102
RTVSPropertyOp3
 70
     1
102
RTVSPropertyOp4
 70
     1
102
RTVSPropertyOp5
 70
     1
102
RTVSPropertyOp6
 70
     1
102
RTVSPropertyOp7
 70
     1
102
RTVSPropertyOp8
 70
     1
102
RTVSPropertyOp9
 70
     1
102
RTVSPropertyOp10
 70
     1
102
RTVSPropertyOp11
 70
     1
102
RTVSPropertyOp12
 70
     1
102
RTVSPropertyOp13
 70
     1
102
RTVSPropertyOp14
 70
     1
102
RTVSPropertyOp15
 70
     1
102
RTVSPropertyOp16
 70
     1
102
RTVSPropertyOp17
 70
     1
102
RTVSPropertyOp18
 70
     1
102
RTVSPropertyOp19
 70
     1
102
RTVSPropertyOp20
 70
     1
102
RTVSPropertyOp21
 70
     1
102
RTVSPropertyOp22
 70
     1
102
RTVSPropertyOp23
 70
     1
102
RTVSPropertyOp24
 70
     1
102
RTVSPropertyOp25
 70
     1
102
RTVSPropertyOp26
 70
     1
102
RTVSPropertyOp27
 70
     1
102
RTVSPropertyOp28
 70
     1
102
RTVSPropertyOp29
 70
     1
102
RTVSPropertyOp30
 70
     1
102
RTVSPropertyOp31
 70
     1
102
RTVSPropertyOp32
 70
     1
102
RTVSPropertyOp33
 70
     1
102
RTVSPropertyOp34
 70
     1
102
RTVSPropertyOp35
 70
     1
102
RTVSPropertyOp36
 70
     1
102
RTVSPropertyOp37
 70
     1
102
RTVSPropertyOp38
 70
     1
102
RTVSPropertyOp39
 70
     1
102
RTVSPropertyOp40
 70
     1
102
RTVSPropertyOp41
 70
     1
102
RTVSPropertyOp42
 70
     1
102
RTVSPropertyOp43
 70
     1
102
RTVSPropertyOp44
 70
     1
102
RTVSPropertyOp45
 70
     1
102
RTVSPropertyOp46
 70
     1
102
RTVSPropertyOp47
 70
     1
102
RTVSPropertyOp48
 70
     1
102
RTVSPropertyOp49
 70
     1
102
RTVSPropertyOp50
 70
     1
102
RTVSPropertyOp51
 70
     0
102
RTVSPropertyOp52
 70
     0
102
RTVSPropertyOp53
 70
     1
102
RTVSPropertyOp54
 70
     1
102
RTVSPropertyOp55
 70
     1
102
RTVSPropertyOp56
 70
     1
102
RTVSPropertyOp57
 70
     1
102
RTVSPropertyOp58
 70
     1
102
RTVSPropertyOp59
 70
     1
102
RTVSPropertyOp60
 70
     1
102
RTVSPropertyOp61
 70
     1
102
RTVSPropertyOp62
 70
     1
  0
XRECORD
  5
83EF
102
{ACAD_REACTORS
330
83EE
102
}
330
83EE
100
AcDbXrecord
280
     1
102
RTVSPost2010Prop28
280
     0
102
RTVSPost2010PropOp28
 70
     1
102
RTVSPost2010Prop29
280
     1
102
RTVSPost2010PropOp29
 70
     1
102
RTVSPost2010Prop30
280
     1
102
RTVSPost2010PropOp30
 70
     1
102
RTVSPost2010Prop31
280
     0
102
RTVSPost2010PropOp31
 70
     1
102
RTVSPost2010Prop32
280
     0
102
RTVSPost2010PropOp32
 70
     1
102
RTVSPost2010Prop33
280
     0
102
RTVSPost2010PropOp33
 70
     1
102
RTVSPost2010Prop34
280
     0
102
RTVSPost2010PropOp34
 70
     1
102
RTVSPost2010Prop35
280
     0
102
RTVSPost2010PropOp35
 70
     1
102
RTVSPost2010Prop36
280
     0
102
RTVSPost2010PropOp36
 70
     1
102
RTVSPost2010Prop37
 90
       50
102
RTVSPost2010PropOp37
 70
     1
102
RTVSPost2010Prop38
140
0.0
102
RTVSPost2010PropOp38
 70
     1
102
RTVSPost2010Prop39
140
1.0
102
RTVSPost2010PropOp39
 70
     1
102
RTVSPost2010Prop40
 90
        0
102
RTVSPost2010PropOp40
 70
     1
102
RTVSPost2010Prop41ColorIndex
 90
       18
102
RTVSPost2010Prop41ColorRGB
 90
        0
102
RTVSPost2010PropOp41
 70
     1
102
RTVSPost2010Prop42
 90
       50
102
RTVSPost2010PropOp42
 70
     1
102
RTVSPost2010Prop43
 90
        3
102
RTVSPost2010PropOp43
 70
     1
102
RTVSPost2010Prop44ColorIndex
 90
        5
102
RTVSPost2010Prop44ColorRGB
 90
      255
102
RTVSPost2010PropOp44
 70
     1
102
RTVSPost2010Prop45
280
     0
102
RTVSPost2010PropOp45
 70
     1
102
RTVSPost2010Prop46
 90
       50
102
RTVSPost2010PropOp46
 70
     1
102
RTVSPost2010Prop47
 90
       50
102
RTVSPost2010PropOp47
 70
     1
102
RTVSPost2010Prop48
 90
       50
102
RTVSPost2010PropOp48
 70
     1
102
RTVSPost2010Prop49
280
     0
102
RTVSPost2010PropOp49
 70
     1
102
RTVSPost2010Prop50
 90
       50
102
RTVSPost2010PropOp50
 70
     1
102
RTVSPost2010Prop51ColorIndex
 90
      256
102
RTVSPost2010Prop51ColorRGB
 90
-16777216
102
RTVSPost2010PropOp51
 70
     0
102
RTVSPost2010Prop52
140
1.0
102
RTVSPost2010PropOp52
 70
     0
102
RTVSPost2010Prop53
 90
        2
102
RTVSPost2010PropOp53
 70
     1
102
RTVSPost2010Prop54
  1
strokes_ogs.tif
102
RTVSPost2010PropOp54
 70
     1
102
RTVSPost2010Prop55
280
     0
102
RTVSPost2010PropOp55
 70
     1
102
RTVSPost2010Prop56
140
1.0
102
RTVSPost2010PropOp56
 70
     1
102
RTVSPost2010Prop57
140
1.0
102
RTVSPost2010PropOp57
 70
     1
102
RTVSPropertyOp0
 70
     1
102
RTVSPropertyOp1
 70
     1
102
RTVSPropertyOp2
 70
     1
102
RTVSPropertyOp3
 70
     1
102
RTVSPropertyOp4
 70
     1
102
RTVSPropertyOp5
 70
     1
102
RTVSPropertyOp6
 70
     1
102
RTVSPropertyOp7
 70
     1
102
RTVSPropertyOp8
 70
     1
102
RTVSPropertyOp9
 70
     1
102
RTVSPropertyOp10
 70
     1
102
RTVSPropertyOp11
 70
     1
102
RTVSPropertyOp12
 70
     1
102
RTVSPropertyOp13
 70
     1
102
RTVSPropertyOp14
 70
     1
102
RTVSPropertyOp15
 70
     1
102
RTVSPropertyOp16
 70
     1
102
RTVSPropertyOp17
 70
     1
102
RTVSPropertyOp18
 70
     1
102
RTVSPropertyOp19
 70
     1
102
RTVSPropertyOp20
 70
     1
102
RTVSPropertyOp21
 70
     1
102
RTVSPropertyOp22
 70
     1
102
RTVSPropertyOp23
 70
     1
102
RTVSPropertyOp24
 70
     1
102
RTVSPropertyOp25
 70
     1
102
RTVSPropertyOp26
 70
     1
102
RTVSPropertyOp27
 70
     1
102
RTVSPropertyOp28
 70
     1
102
RTVSPropertyOp29
 70
     1
102
RTVSPropertyOp30
 70
     1
102
RTVSPropertyOp31
 70
     1
102
RTVSPropertyOp32
 70
     1
102
RTVSPropertyOp33
 70
     1
102
RTVSPropertyOp34
 70
     1
102
RTVSPropertyOp35
 70
     1
102
RTVSPropertyOp36
 70
     1
102
RTVSPropertyOp37
 70
     1
102
RTVSPropertyOp38
 70
     1
102
RTVSPropertyOp39
 70
     1
102
RTVSPropertyOp40
 70
     1
102
RTVSPropertyOp41
 70
     1
102
RTVSPropertyOp42
 70
     1
102
RTVSPropertyOp43
 70
     1
102
RTVSPropertyOp44
 70
     1
102
RTVSPropertyOp45
 70
     1
102
RTVSPropertyOp46
 70
     1
102
RTVSPropertyOp47
 70
     1
102
RTVSPropertyOp48
 70
     1
102
RTVSPropertyOp49
 70
     1
102
RTVSPropertyOp50
 70
     1
102
RTVSPropertyOp51
 70
     0
102
RTVSPropertyOp52
 70
     0
102
RTVSPropertyOp53
 70
     1
102
RTVSPropertyOp54
 70
     1
102
RTVSPropertyOp55
 70
     1
102
RTVSPropertyOp56
 70
     1
102
RTVSPropertyOp57
 70
     1
102
RTVSPropertyOp58
 70
     1
102
RTVSPropertyOp59
 70
     1
102
RTVSPropertyOp60
 70
     1
102
RTVSPropertyOp61
 70
     1
102
RTVSPropertyOp62
 70
     1
  0
XRECORD
  5
83E1
102
{ACAD_REACTORS
330
83E0
102
}
330
83E0
100
AcDbXrecord
280
     1
102
RTVSPost2010Prop28
280
     0
102
RTVSPost2010PropOp28
 70
     1
102
RTVSPost2010Prop29
280
     1
102
RTVSPost2010PropOp29
 70
     1
102
RTVSPost2010Prop30
280
     1
102
RTVSPost2010PropOp30
 70
     1
102
RTVSPost2010Prop31
280
     0
102
RTVSPost2010PropOp31
 70
     1
102
RTVSPost2010Prop32
280
     0
102
RTVSPost2010PropOp32
 70
     1
102
RTVSPost2010Prop33
280
     0
102
RTVSPost2010PropOp33
 70
     1
102
RTVSPost2010Prop34
280
     0
102
RTVSPost2010PropOp34
 70
     1
102
RTVSPost2010Prop35
280
     0
102
RTVSPost2010PropOp35
 70
     1
102
RTVSPost2010Prop36
280
     0
102
RTVSPost2010PropOp36
 70
     1
102
RTVSPost2010Prop37
 90
       50
102
RTVSPost2010PropOp37
 70
     1
102
RTVSPost2010Prop38
140
0.0
102
RTVSPost2010PropOp38
 70
     1
102
RTVSPost2010Prop39
140
1.0
102
RTVSPost2010PropOp39
 70
     1
102
RTVSPost2010Prop40
 90
        0
102
RTVSPost2010PropOp40
 70
     1
102
RTVSPost2010Prop41ColorIndex
 90
       18
102
RTVSPost2010Prop41ColorRGB
 90
        0
102
RTVSPost2010PropOp41
 70
     1
102
RTVSPost2010Prop42
 90
       50
102
RTVSPost2010PropOp42
 70
     1
102
RTVSPost2010Prop43
 90
        3
102
RTVSPost2010PropOp43
 70
     1
102
RTVSPost2010Prop44ColorIndex
 90
        5
102
RTVSPost2010Prop44ColorRGB
 90
      255
102
RTVSPost2010PropOp44
 70
     1
102
RTVSPost2010Prop45
280
     0
102
RTVSPost2010PropOp45
 70
     1
102
RTVSPost2010Prop46
 90
       50
102
RTVSPost2010PropOp46
 70
     1
102
RTVSPost2010Prop47
 90
       50
102
RTVSPost2010PropOp47
 70
     1
102
RTVSPost2010Prop48
 90
       50
102
RTVSPost2010PropOp48
 70
     1
102
RTVSPost2010Prop49
280
     0
102
RTVSPost2010PropOp49
 70
     1
102
RTVSPost2010Prop50
 90
       50
102
RTVSPost2010PropOp50
 70
     1
102
RTVSPost2010Prop51ColorIndex
 90
      256
102
RTVSPost2010Prop51ColorRGB
 90
-16777216
102
RTVSPost2010PropOp51
 70
     0
102
RTVSPost2010Prop52
140
1.0
102
RTVSPost2010PropOp52
 70
     0
102
RTVSPost2010Prop53
 90
        2
102
RTVSPost2010PropOp53
 70
     1
102
RTVSPost2010Prop54
  1
strokes_ogs.tif
102
RTVSPost2010PropOp54
 70
     1
102
RTVSPost2010Prop55
280
     0
102
RTVSPost2010PropOp55
 70
     1
102
RTVSPost2010Prop56
140
1.0
102
RTVSPost2010PropOp56
 70
     1
102
RTVSPost2010Prop57
140
1.0
102
RTVSPost2010PropOp57
 70
     1
102
RTVSPropertyOp0
 70
     1
102
RTVSPropertyOp1
 70
     1
102
RTVSPropertyOp2
 70
     1
102
RTVSPropertyOp3
 70
     1
102
RTVSPropertyOp4
 70
     1
102
RTVSPropertyOp5
 70
     1
102
RTVSPropertyOp6
 70
     1
102
RTVSPropertyOp7
 70
     1
102
RTVSPropertyOp8
 70
     1
102
RTVSPropertyOp9
 70
     1
102
RTVSPropertyOp10
 70
     1
102
RTVSPropertyOp11
 70
     1
102
RTVSPropertyOp12
 70
     1
102
RTVSPropertyOp13
 70
     1
102
RTVSPropertyOp14
 70
     1
102
RTVSPropertyOp15
 70
     1
102
RTVSPropertyOp16
 70
     1
102
RTVSPropertyOp17
 70
     1
102
RTVSPropertyOp18
 70
     1
102
RTVSPropertyOp19
 70
     1
102
RTVSPropertyOp20
 70
     1
102
RTVSPropertyOp21
 70
     1
102
RTVSPropertyOp22
 70
     1
102
RTVSPropertyOp23
 70
     1
102
RTVSPropertyOp24
 70
     1
102
RTVSPropertyOp25
 70
     1
102
RTVSPropertyOp26
 70
     1
102
RTVSPropertyOp27
 70
     1
102
RTVSPropertyOp28
 70
     1
102
RTVSPropertyOp29
 70
     1
102
RTVSPropertyOp30
 70
     1
102
RTVSPropertyOp31
 70
     1
102
RTVSPropertyOp32
 70
     1
102
RTVSPropertyOp33
 70
     1
102
RTVSPropertyOp34
 70
     1
102
RTVSPropertyOp35
 70
     1
102
RTVSPropertyOp36
 70
     1
102
RTVSPropertyOp37
 70
     1
102
RTVSPropertyOp38
 70
     1
102
RTVSPropertyOp39
 70
     1
102
RTVSPropertyOp40
 70
     1
102
RTVSPropertyOp41
 70
     1
102
RTVSPropertyOp42
 70
     1
102
RTVSPropertyOp43
 70
     1
102
RTVSPropertyOp44
 70
     1
102
RTVSPropertyOp45
 70
     1
102
RTVSPropertyOp46
 70
     1
102
RTVSPropertyOp47
 70
     1
102
RTVSPropertyOp48
 70
     1
102
RTVSPropertyOp49
 70
     1
102
RTVSPropertyOp50
 70
     1
102
RTVSPropertyOp51
 70
     0
102
RTVSPropertyOp52
 70
     0
102
RTVSPropertyOp53
 70
     1
102
RTVSPropertyOp54
 70
     1
102
RTVSPropertyOp55
 70
     1
102
RTVSPropertyOp56
 70
     1
102
RTVSPropertyOp57
 70
     1
102
RTVSPropertyOp58
 70
     1
102
RTVSPropertyOp59
 70
     1
102
RTVSPropertyOp60
 70
     1
102
RTVSPropertyOp61
 70
     1
102
RTVSPropertyOp62
 70
     1
  0
XRECORD
  5
83E5
102
{ACAD_REACTORS
330
83E4
102
}
330
83E4
100
AcDbXrecord
280
     1
102
RTVSPost2010Prop28
280
     0
102
RTVSPost2010PropOp28
 70
     1
102
RTVSPost2010Prop29
280
     1
102
RTVSPost2010PropOp29
 70
     1
102
RTVSPost2010Prop30
280
     1
102
RTVSPost2010PropOp30
 70
     1
102
RTVSPost2010Prop31
280
     0
102
RTVSPost2010PropOp31
 70
     1
102
RTVSPost2010Prop32
280
     0
102
RTVSPost2010PropOp32
 70
     1
102
RTVSPost2010Prop33
280
     0
102
RTVSPost2010PropOp33
 70
     1
102
RTVSPost2010Prop34
280
     0
102
RTVSPost2010PropOp34
 70
     1
102
RTVSPost2010Prop35
280
     0
102
RTVSPost2010PropOp35
 70
     1
102
RTVSPost2010Prop36
280
     0
102
RTVSPost2010PropOp36
 70
     1
102
RTVSPost2010Prop37
 90
       50
102
RTVSPost2010PropOp37
 70
     1
102
RTVSPost2010Prop38
140
0.0
102
RTVSPost2010PropOp38
 70
     1
102
RTVSPost2010Prop39
140
1.0
102
RTVSPost2010PropOp39
 70
     1
102
RTVSPost2010Prop40
 90
        0
102
RTVSPost2010PropOp40
 70
     1
102
RTVSPost2010Prop41ColorIndex
 90
       18
102
RTVSPost2010Prop41ColorRGB
 90
        0
102
RTVSPost2010PropOp41
 70
     1
102
RTVSPost2010Prop42
 90
       50
102
RTVSPost2010PropOp42
 70
     1
102
RTVSPost2010Prop43
 90
        3
102
RTVSPost2010PropOp43
 70
     1
102
RTVSPost2010Prop44ColorIndex
 90
        5
102
RTVSPost2010Prop44ColorRGB
 90
      255
102
RTVSPost2010PropOp44
 70
     1
102
RTVSPost2010Prop45
280
     0
102
RTVSPost2010PropOp45
 70
     1
102
RTVSPost2010Prop46
 90
       50
102
RTVSPost2010PropOp46
 70
     1
102
RTVSPost2010Prop47
 90
       50
102
RTVSPost2010PropOp47
 70
     1
102
RTVSPost2010Prop48
 90
       50
102
RTVSPost2010PropOp48
 70
     1
102
RTVSPost2010Prop49
280
     0
102
RTVSPost2010PropOp49
 70
     1
102
RTVSPost2010Prop50
 90
       50
102
RTVSPost2010PropOp50
 70
     1
102
RTVSPost2010Prop51ColorIndex
 90
      256
102
RTVSPost2010Prop51ColorRGB
 90
-16777216
102
RTVSPost2010PropOp51
 70
     0
102
RTVSPost2010Prop52
140
1.0
102
RTVSPost2010PropOp52
 70
     0
102
RTVSPost2010Prop53
 90
        2
102
RTVSPost2010PropOp53
 70
     1
102
RTVSPost2010Prop54
  1
strokes_ogs.tif
102
RTVSPost2010PropOp54
 70
     1
102
RTVSPost2010Prop55
280
     0
102
RTVSPost2010PropOp55
 70
     1
102
RTVSPost2010Prop56
140
1.0
102
RTVSPost2010PropOp56
 70
     1
102
RTVSPost2010Prop57
140
1.0
102
RTVSPost2010PropOp57
 70
     1
102
RTVSPropertyOp0
 70
     1
102
RTVSPropertyOp1
 70
     1
102
RTVSPropertyOp2
 70
     1
102
RTVSPropertyOp3
 70
     1
102
RTVSPropertyOp4
 70
     1
102
RTVSPropertyOp5
 70
     1
102
RTVSPropertyOp6
 70
     1
102
RTVSPropertyOp7
 70
     1
102
RTVSPropertyOp8
 70
     1
102
RTVSPropertyOp9
 70
     1
102
RTVSPropertyOp10
 70
     1
102
RTVSPropertyOp11
 70
     1
102
RTVSPropertyOp12
 70
     1
102
RTVSPropertyOp13
 70
     1
102
RTVSPropertyOp14
 70
     1
102
RTVSPropertyOp15
 70
     1
102
RTVSPropertyOp16
 70
     1
102
RTVSPropertyOp17
 70
     1
102
RTVSPropertyOp18
 70
     1
102
RTVSPropertyOp19
 70
     1
102
RTVSPropertyOp20
 70
     1
102
RTVSPropertyOp21
 70
     1
102
RTVSPropertyOp22
 70
     1
102
RTVSPropertyOp23
 70
     1
102
RTVSPropertyOp24
 70
     1
102
RTVSPropertyOp25
 70
     1
102
RTVSPropertyOp26
 70
     1
102
RTVSPropertyOp27
 70
     1
102
RTVSPropertyOp28
 70
     1
102
RTVSPropertyOp29
 70
     1
102
RTVSPropertyOp30
 70
     1
102
RTVSPropertyOp31
 70
     1
102
RTVSPropertyOp32
 70
     1
102
RTVSPropertyOp33
 70
     1
102
RTVSPropertyOp34
 70
     1
102
RTVSPropertyOp35
 70
     1
102
RTVSPropertyOp36
 70
     1
102
RTVSPropertyOp37
 70
     1
102
RTVSPropertyOp38
 70
     1
102
RTVSPropertyOp39
 70
     1
102
RTVSPropertyOp40
 70
     1
102
RTVSPropertyOp41
 70
     1
102
RTVSPropertyOp42
 70
     1
102
RTVSPropertyOp43
 70
     1
102
RTVSPropertyOp44
 70
     1
102
RTVSPropertyOp45
 70
     1
102
RTVSPropertyOp46
 70
     1
102
RTVSPropertyOp47
 70
     1
102
RTVSPropertyOp48
 70
     1
102
RTVSPropertyOp49
 70
     1
102
RTVSPropertyOp50
 70
     1
102
RTVSPropertyOp51
 70
     0
102
RTVSPropertyOp52
 70
     0
102
RTVSPropertyOp53
 70
     1
102
RTVSPropertyOp54
 70
     1
102
RTVSPropertyOp55
 70
     1
102
RTVSPropertyOp56
 70
     1
102
RTVSPropertyOp57
 70
     1
102
RTVSPropertyOp58
 70
     1
102
RTVSPropertyOp59
 70
     1
102
RTVSPropertyOp60
 70
     1
102
RTVSPropertyOp61
 70
     1
102
RTVSPropertyOp62
 70
     1
  0
XRECORD
  5
83F7
102
{ACAD_REACTORS
330
83F6
102
}
330
83F6
100
AcDbXrecord
280
     1
102
RTVSPost2010Prop28
280
     0
102
RTVSPost2010PropOp28
 70
     1
102
RTVSPost2010Prop29
280
     1
102
RTVSPost2010PropOp29
 70
     1
102
RTVSPost2010Prop30
280
     1
102
RTVSPost2010PropOp30
 70
     1
102
RTVSPost2010Prop31
280
     0
102
RTVSPost2010PropOp31
 70
     1
102
RTVSPost2010Prop32
280
     0
102
RTVSPost2010PropOp32
 70
     1
102
RTVSPost2010Prop33
280
     0
102
RTVSPost2010PropOp33
 70
     1
102
RTVSPost2010Prop34
280
     0
102
RTVSPost2010PropOp34
 70
     1
102
RTVSPost2010Prop35
280
     0
102
RTVSPost2010PropOp35
 70
     1
102
RTVSPost2010Prop36
280
     0
102
RTVSPost2010PropOp36
 70
     1
102
RTVSPost2010Prop37
 90
       50
102
RTVSPost2010PropOp37
 70
     1
102
RTVSPost2010Prop38
140
0.0
102
RTVSPost2010PropOp38
 70
     1
102
RTVSPost2010Prop39
140
1.0
102
RTVSPost2010PropOp39
 70
     1
102
RTVSPost2010Prop40
 90
        0
102
RTVSPost2010PropOp40
 70
     1
102
RTVSPost2010Prop41ColorIndex
 90
       18
102
RTVSPost2010Prop41ColorRGB
 90
        0
102
RTVSPost2010PropOp41
 70
     1
102
RTVSPost2010Prop42
 90
       50
102
RTVSPost2010PropOp42
 70
     1
102
RTVSPost2010Prop43
 90
        3
102
RTVSPost2010PropOp43
 70
     1
102
RTVSPost2010Prop44ColorIndex
 90
        5
102
RTVSPost2010Prop44ColorRGB
 90
      255
102
RTVSPost2010PropOp44
 70
     1
102
RTVSPost2010Prop45
280
     0
102
RTVSPost2010PropOp45
 70
     1
102
RTVSPost2010Prop46
 90
       50
102
RTVSPost2010PropOp46
 70
     1
102
RTVSPost2010Prop47
 90
       50
102
RTVSPost2010PropOp47
 70
     1
102
RTVSPost2010Prop48
 90
       50
102
RTVSPost2010PropOp48
 70
     1
102
RTVSPost2010Prop49
280
     0
102
RTVSPost2010PropOp49
 70
     1
102
RTVSPost2010Prop50
 90
       50
102
RTVSPost2010PropOp50
 70
     1
102
RTVSPost2010Prop51ColorIndex
 90
      256
102
RTVSPost2010Prop51ColorRGB
 90
-16777216
102
RTVSPost2010PropOp51
 70
     0
102
RTVSPost2010Prop52
140
1.0
102
RTVSPost2010PropOp52
 70
     0
102
RTVSPost2010Prop53
 90
        2
102
RTVSPost2010PropOp53
 70
     1
102
RTVSPost2010Prop54
  1
strokes_ogs.tif
102
RTVSPost2010PropOp54
 70
     1
102
RTVSPost2010Prop55
280
     0
102
RTVSPost2010PropOp55
 70
     1
102
RTVSPost2010Prop56
140
1.0
102
RTVSPost2010PropOp56
 70
     1
102
RTVSPost2010Prop57
140
1.0
102
RTVSPost2010PropOp57
 70
     1
102
RTVSPropertyOp0
 70
     0
102
RTVSPropertyOp1
 70
     0
102
RTVSPropertyOp2
 70
     0
102
RTVSPropertyOp3
 70
     0
102
RTVSPropertyOp4
 70
     0
102
RTVSPropertyOp5
 70
     0
102
RTVSPropertyOp6
 70
     0
102
RTVSPropertyOp7
 70
     0
102
RTVSPropertyOp8
 70
     0
102
RTVSPropertyOp9
 70
     0
102
RTVSPropertyOp10
 70
     0
102
RTVSPropertyOp11
 70
     0
102
RTVSPropertyOp12
 70
     0
102
RTVSPropertyOp13
 70
     0
102
RTVSPropertyOp14
 70
     2
102
RTVSPropertyOp15
 70
     0
102
RTVSPropertyOp16
 70
     0
102
RTVSPropertyOp17
 70
     0
102
RTVSPropertyOp18
 70
     0
102
RTVSPropertyOp19
 70
     0
102
RTVSPropertyOp20
 70
     0
102
RTVSPropertyOp21
 70
     0
102
RTVSPropertyOp22
 70
     0
102
RTVSPropertyOp23
 70
     0
102
RTVSPropertyOp24
 70
     0
102
RTVSPropertyOp25
 70
     0
102
RTVSPropertyOp26
 70
     0
102
RTVSPropertyOp27
 70
     0
102
RTVSPropertyOp28
 70
     1
102
RTVSPropertyOp29
 70
     1
102
RTVSPropertyOp30
 70
     1
102
RTVSPropertyOp31
 70
     1
102
RTVSPropertyOp32
 70
     1
102
RTVSPropertyOp33
 70
     1
102
RTVSPropertyOp34
 70
     1
102
RTVSPropertyOp35
 70
     1
102
RTVSPropertyOp36
 70
     1
102
RTVSPropertyOp37
 70
     1
102
RTVSPropertyOp38
 70
     1
102
RTVSPropertyOp39
 70
     1
102
RTVSPropertyOp40
 70
     1
102
RTVSPropertyOp41
 70
     1
102
RTVSPropertyOp42
 70
     1
102
RTVSPropertyOp43
 70
     1
102
RTVSPropertyOp44
 70
     1
102
RTVSPropertyOp45
 70
     1
102
RTVSPropertyOp46
 70
     1
102
RTVSPropertyOp47
 70
     1
102
RTVSPropertyOp48
 70
     1
102
RTVSPropertyOp49
 70
     1
102
RTVSPropertyOp50
 70
     1
102
RTVSPropertyOp51
 70
     0
102
RTVSPropertyOp52
 70
     0
102
RTVSPropertyOp53
 70
     1
102
RTVSPropertyOp54
 70
     1
102
RTVSPropertyOp55
 70
     1
102
RTVSPropertyOp56
 70
     1
102
RTVSPropertyOp57
 70
     1
102
RTVSPropertyOp58
 70
     1
102
RTVSPropertyOp59
 70
     1
102
RTVSPropertyOp60
 70
     1
102
RTVSPropertyOp61
 70
     1
102
RTVSPropertyOp62
 70
     1
  0
XRECORD
  5
83ED
102
{ACAD_REACTORS
330
83EC
102
}
330
83EC
100
AcDbXrecord
280
     1
102
RTVSPost2010Prop28
280
     0
102
RTVSPost2010PropOp28
 70
     1
102
RTVSPost2010Prop29
280
     1
102
RTVSPost2010PropOp29
 70
     1
102
RTVSPost2010Prop30
280
     1
102
RTVSPost2010PropOp30
 70
     1
102
RTVSPost2010Prop31
280
     0
102
RTVSPost2010PropOp31
 70
     1
102
RTVSPost2010Prop32
280
     0
102
RTVSPost2010PropOp32
 70
     1
102
RTVSPost2010Prop33
280
     0
102
RTVSPost2010PropOp33
 70
     1
102
RTVSPost2010Prop34
280
     0
102
RTVSPost2010PropOp34
 70
     1
102
RTVSPost2010Prop35
280
     0
102
RTVSPost2010PropOp35
 70
     1
102
RTVSPost2010Prop36
280
     0
102
RTVSPost2010PropOp36
 70
     1
102
RTVSPost2010Prop37
 90
       50
102
RTVSPost2010PropOp37
 70
     1
102
RTVSPost2010Prop38
140
0.0
102
RTVSPost2010PropOp38
 70
     1
102
RTVSPost2010Prop39
140
1.0
102
RTVSPost2010PropOp39
 70
     1
102
RTVSPost2010Prop40
 90
        0
102
RTVSPost2010PropOp40
 70
     1
102
RTVSPost2010Prop41ColorIndex
 90
       18
102
RTVSPost2010Prop41ColorRGB
 90
        0
102
RTVSPost2010PropOp41
 70
     1
102
RTVSPost2010Prop42
 90
       50
102
RTVSPost2010PropOp42
 70
     1
102
RTVSPost2010Prop43
 90
        3
102
RTVSPost2010PropOp43
 70
     1
102
RTVSPost2010Prop44ColorIndex
 90
        5
102
RTVSPost2010Prop44ColorRGB
 90
      255
102
RTVSPost2010PropOp44
 70
     1
102
RTVSPost2010Prop45
280
     0
102
RTVSPost2010PropOp45
 70
     1
102
RTVSPost2010Prop46
 90
       50
102
RTVSPost2010PropOp46
 70
     1
102
RTVSPost2010Prop47
 90
       50
102
RTVSPost2010PropOp47
 70
     1
102
RTVSPost2010Prop48
 90
       50
102
RTVSPost2010PropOp48
 70
     1
102
RTVSPost2010Prop49
280
     0
102
RTVSPost2010PropOp49
 70
     1
102
RTVSPost2010Prop50
 90
       50
102
RTVSPost2010PropOp50
 70
     1
102
RTVSPost2010Prop51ColorIndex
 90
      256
102
RTVSPost2010Prop51ColorRGB
 90
-16777216
102
RTVSPost2010PropOp51
 70
     0
102
RTVSPost2010Prop52
140
1.0
102
RTVSPost2010PropOp52
 70
     0
102
RTVSPost2010Prop53
 90
        2
102
RTVSPost2010PropOp53
 70
     1
102
RTVSPost2010Prop54
  1
strokes_ogs.tif
102
RTVSPost2010PropOp54
 70
     1
102
RTVSPost2010Prop55
280
     0
102
RTVSPost2010PropOp55
 70
     1
102
RTVSPost2010Prop56
140
1.0
102
RTVSPost2010PropOp56
 70
     1
102
RTVSPost2010Prop57
140
1.0
102
RTVSPost2010PropOp57
 70
     1
102
RTVSPropertyOp0
 70
     1
102
RTVSPropertyOp1
 70
     1
102
RTVSPropertyOp2
 70
     1
102
RTVSPropertyOp3
 70
     1
102
RTVSPropertyOp4
 70
     1
102
RTVSPropertyOp5
 70
     1
102
RTVSPropertyOp6
 70
     1
102
RTVSPropertyOp7
 70
     1
102
RTVSPropertyOp8
 70
     1
102
RTVSPropertyOp9
 70
     1
102
RTVSPropertyOp10
 70
     1
102
RTVSPropertyOp11
 70
     1
102
RTVSPropertyOp12
 70
     1
102
RTVSPropertyOp13
 70
     1
102
RTVSPropertyOp14
 70
     1
102
RTVSPropertyOp15
 70
     1
102
RTVSPropertyOp16
 70
     1
102
RTVSPropertyOp17
 70
     1
102
RTVSPropertyOp18
 70
     1
102
RTVSPropertyOp19
 70
     1
102
RTVSPropertyOp20
 70
     1
102
RTVSPropertyOp21
 70
     1
102
RTVSPropertyOp22
 70
     1
102
RTVSPropertyOp23
 70
     1
102
RTVSPropertyOp24
 70
     1
102
RTVSPropertyOp25
 70
     1
102
RTVSPropertyOp26
 70
     1
102
RTVSPropertyOp27
 70
     1
102
RTVSPropertyOp28
 70
     1
102
RTVSPropertyOp29
 70
     1
102
RTVSPropertyOp30
 70
     1
102
RTVSPropertyOp31
 70
     1
102
RTVSPropertyOp32
 70
     1
102
RTVSPropertyOp33
 70
     1
102
RTVSPropertyOp34
 70
     1
102
RTVSPropertyOp35
 70
     1
102
RTVSPropertyOp36
 70
     1
102
RTVSPropertyOp37
 70
     1
102
RTVSPropertyOp38
 70
     1
102
RTVSPropertyOp39
 70
     1
102
RTVSPropertyOp40
 70
     1
102
RTVSPropertyOp41
 70
     1
102
RTVSPropertyOp42
 70
     1
102
RTVSPropertyOp43
 70
     1
102
RTVSPropertyOp44
 70
     1
102
RTVSPropertyOp45
 70
     1
102
RTVSPropertyOp46
 70
     1
102
RTVSPropertyOp47
 70
     1
102
RTVSPropertyOp48
 70
     1
102
RTVSPropertyOp49
 70
     1
102
RTVSPropertyOp50
 70
     1
102
RTVSPropertyOp51
 70
     0
102
RTVSPropertyOp52
 70
     0
102
RTVSPropertyOp53
 70
     1
102
RTVSPropertyOp54
 70
     1
102
RTVSPropertyOp55
 70
     1
102
RTVSPropertyOp56
 70
     1
102
RTVSPropertyOp57
 70
     1
102
RTVSPropertyOp58
 70
     1
102
RTVSPropertyOp59
 70
     1
102
RTVSPropertyOp60
 70
     1
102
RTVSPropertyOp61
 70
     1
102
RTVSPropertyOp62
 70
     1
  0
XRECORD
  5
83D1
102
{ACAD_REACTORS
330
83D0
102
}
330
83D0
100
AcDbXrecord
280
     1
102
RTVSPost2010Prop28
280
     0
102
RTVSPost2010PropOp28
 70
     1
102
RTVSPost2010Prop29
280
     1
102
RTVSPost2010PropOp29
 70
     1
102
RTVSPost2010Prop30
280
     1
102
RTVSPost2010PropOp30
 70
     1
102
RTVSPost2010Prop31
280
     0
102
RTVSPost2010PropOp31
 70
     1
102
RTVSPost2010Prop32
280
     0
102
RTVSPost2010PropOp32
 70
     1
102
RTVSPost2010Prop33
280
     0
102
RTVSPost2010PropOp33
 70
     1
102
RTVSPost2010Prop34
280
     0
102
RTVSPost2010PropOp34
 70
     1
102
RTVSPost2010Prop35
280
     0
102
RTVSPost2010PropOp35
 70
     1
102
RTVSPost2010Prop36
280
     0
102
RTVSPost2010PropOp36
 70
     1
102
RTVSPost2010Prop37
 90
       50
102
RTVSPost2010PropOp37
 70
     1
102
RTVSPost2010Prop38
140
0.0
102
RTVSPost2010PropOp38
 70
     1
102
RTVSPost2010Prop39
140
1.0
102
RTVSPost2010PropOp39
 70
     1
102
RTVSPost2010Prop40
 90
        0
102
RTVSPost2010PropOp40
 70
     1
102
RTVSPost2010Prop41ColorIndex
 90
       18
102
RTVSPost2010Prop41ColorRGB
 90
        0
102
RTVSPost2010PropOp41
 70
     1
102
RTVSPost2010Prop42
 90
       50
102
RTVSPost2010PropOp42
 70
     1
102
RTVSPost2010Prop43
 90
        3
102
RTVSPost2010PropOp43
 70
     1
102
RTVSPost2010Prop44ColorIndex
 90
        5
102
RTVSPost2010Prop44ColorRGB
 90
      255
102
RTVSPost2010PropOp44
 70
     1
102
RTVSPost2010Prop45
280
     0
102
RTVSPost2010PropOp45
 70
     1
102
RTVSPost2010Prop46
 90
       50
102
RTVSPost2010PropOp46
 70
     1
102
RTVSPost2010Prop47
 90
       50
102
RTVSPost2010PropOp47
 70
     1
102
RTVSPost2010Prop48
 90
       50
102
RTVSPost2010PropOp48
 70
     1
102
RTVSPost2010Prop49
280
     0
102
RTVSPost2010PropOp49
 70
     1
102
RTVSPost2010Prop50
 90
       50
102
RTVSPost2010PropOp50
 70
     1
102
RTVSPost2010Prop51ColorIndex
 90
      256
102
RTVSPost2010Prop51ColorRGB
 90
-16777216
102
RTVSPost2010PropOp51
 70
     0
102
RTVSPost2010Prop52
140
1.0
102
RTVSPost2010PropOp52
 70
     0
102
RTVSPost2010Prop53
 90
        2
102
RTVSPost2010PropOp53
 70
     1
102
RTVSPost2010Prop54
  1
strokes_ogs.tif
102
RTVSPost2010PropOp54
 70
     1
102
RTVSPost2010Prop55
280
     0
102
RTVSPost2010PropOp55
 70
     1
102
RTVSPost2010Prop56
140
1.0
102
RTVSPost2010PropOp56
 70
     1
102
RTVSPost2010Prop57
140
1.0
102
RTVSPost2010PropOp57
 70
     1
102
RTVSPropertyOp0
 70
     1
102
RTVSPropertyOp1
 70
     1
102
RTVSPropertyOp2
 70
     1
102
RTVSPropertyOp3
 70
     1
102
RTVSPropertyOp4
 70
     1
102
RTVSPropertyOp5
 70
     1
102
RTVSPropertyOp6
 70
     1
102
RTVSPropertyOp7
 70
     1
102
RTVSPropertyOp8
 70
     1
102
RTVSPropertyOp9
 70
     1
102
RTVSPropertyOp10
 70
     1
102
RTVSPropertyOp11
 70
     1
102
RTVSPropertyOp12
 70
     1
102
RTVSPropertyOp13
 70
     1
102
RTVSPropertyOp14
 70
     1
102
RTVSPropertyOp15
 70
     1
102
RTVSPropertyOp16
 70
     1
102
RTVSPropertyOp17
 70
     1
102
RTVSPropertyOp18
 70
     1
102
RTVSPropertyOp19
 70
     1
102
RTVSPropertyOp20
 70
     1
102
RTVSPropertyOp21
 70
     1
102
RTVSPropertyOp22
 70
     1
102
RTVSPropertyOp23
 70
     1
102
RTVSPropertyOp24
 70
     1
102
RTVSPropertyOp25
 70
     1
102
RTVSPropertyOp26
 70
     1
102
RTVSPropertyOp27
 70
     1
102
RTVSPropertyOp28
 70
     1
102
RTVSPropertyOp29
 70
     1
102
RTVSPropertyOp30
 70
     1
102
RTVSPropertyOp31
 70
     1
102
RTVSPropertyOp32
 70
     1
102
RTVSPropertyOp33
 70
     1
102
RTVSPropertyOp34
 70
     1
102
RTVSPropertyOp35
 70
     1
102
RTVSPropertyOp36
 70
     1
102
RTVSPropertyOp37
 70
     1
102
RTVSPropertyOp38
 70
     1
102
RTVSPropertyOp39
 70
     1
102
RTVSPropertyOp40
 70
     1
102
RTVSPropertyOp41
 70
     1
102
RTVSPropertyOp42
 70
     1
102
RTVSPropertyOp43
 70
     1
102
RTVSPropertyOp44
 70
     1
102
RTVSPropertyOp45
 70
     1
102
RTVSPropertyOp46
 70
     1
102
RTVSPropertyOp47
 70
     1
102
RTVSPropertyOp48
 70
     1
102
RTVSPropertyOp49
 70
     1
102
RTVSPropertyOp50
 70
     1
102
RTVSPropertyOp51
 70
     0
102
RTVSPropertyOp52
 70
     0
102
RTVSPropertyOp53
 70
     1
102
RTVSPropertyOp54
 70
     1
102
RTVSPropertyOp55
 70
     1
102
RTVSPropertyOp56
 70
     1
102
RTVSPropertyOp57
 70
     1
102
RTVSPropertyOp58
 70
     1
102
RTVSPropertyOp59
 70
     1
102
RTVSPropertyOp60
 70
     1
102
RTVSPropertyOp61
 70
     1
102
RTVSPropertyOp62
 70
     1
  0
XRECORD
  5
83D3
102
{ACAD_REACTORS
330
83D2
102
}
330
83D2
100
AcDbXrecord
280
     1
102
RTVSPost2010Prop28
280
     0
102
RTVSPost2010PropOp28
 70
     1
102
RTVSPost2010Prop29
280
     1
102
RTVSPost2010PropOp29
 70
     1
102
RTVSPost2010Prop30
280
     1
102
RTVSPost2010PropOp30
 70
     1
102
RTVSPost2010Prop31
280
     0
102
RTVSPost2010PropOp31
 70
     1
102
RTVSPost2010Prop32
280
     0
102
RTVSPost2010PropOp32
 70
     1
102
RTVSPost2010Prop33
280
     0
102
RTVSPost2010PropOp33
 70
     1
102
RTVSPost2010Prop34
280
     0
102
RTVSPost2010PropOp34
 70
     1
102
RTVSPost2010Prop35
280
     0
102
RTVSPost2010PropOp35
 70
     1
102
RTVSPost2010Prop36
280
     0
102
RTVSPost2010PropOp36
 70
     1
102
RTVSPost2010Prop37
 90
       50
102
RTVSPost2010PropOp37
 70
     1
102
RTVSPost2010Prop38
140
0.0
102
RTVSPost2010PropOp38
 70
     1
102
RTVSPost2010Prop39
140
1.0
102
RTVSPost2010PropOp39
 70
     1
102
RTVSPost2010Prop40
 90
        0
102
RTVSPost2010PropOp40
 70
     1
102
RTVSPost2010Prop41ColorIndex
 90
       18
102
RTVSPost2010Prop41ColorRGB
 90
        0
102
RTVSPost2010PropOp41
 70
     1
102
RTVSPost2010Prop42
 90
       50
102
RTVSPost2010PropOp42
 70
     1
102
RTVSPost2010Prop43
 90
        3
102
RTVSPost2010PropOp43
 70
     1
102
RTVSPost2010Prop44ColorIndex
 90
        5
102
RTVSPost2010Prop44ColorRGB
 90
      255
102
RTVSPost2010PropOp44
 70
     1
102
RTVSPost2010Prop45
280
     0
102
RTVSPost2010PropOp45
 70
     1
102
RTVSPost2010Prop46
 90
       50
102
RTVSPost2010PropOp46
 70
     1
102
RTVSPost2010Prop47
 90
       50
102
RTVSPost2010PropOp47
 70
     1
102
RTVSPost2010Prop48
 90
       50
102
RTVSPost2010PropOp48
 70
     1
102
RTVSPost2010Prop49
280
     0
102
RTVSPost2010PropOp49
 70
     1
102
RTVSPost2010Prop50
 90
       50
102
RTVSPost2010PropOp50
 70
     1
102
RTVSPost2010Prop51ColorIndex
 90
      256
102
RTVSPost2010Prop51ColorRGB
 90
-16777216
102
RTVSPost2010PropOp51
 70
     0
102
RTVSPost2010Prop52
140
1.0
102
RTVSPost2010PropOp52
 70
     0
102
RTVSPost2010Prop53
 90
        2
102
RTVSPost2010PropOp53
 70
     1
102
RTVSPost2010Prop54
  1
strokes_ogs.tif
102
RTVSPost2010PropOp54
 70
     1
102
RTVSPost2010Prop55
280
     0
102
RTVSPost2010PropOp55
 70
     1
102
RTVSPost2010Prop56
140
1.0
102
RTVSPost2010PropOp56
 70
     1
102
RTVSPost2010Prop57
140
1.0
102
RTVSPost2010PropOp57
 70
     1
102
RTVSPropertyOp0
 70
     1
102
RTVSPropertyOp1
 70
     1
102
RTVSPropertyOp2
 70
     1
102
RTVSPropertyOp3
 70
     1
102
RTVSPropertyOp4
 70
     1
102
RTVSPropertyOp5
 70
     1
102
RTVSPropertyOp6
 70
     1
102
RTVSPropertyOp7
 70
     1
102
RTVSPropertyOp8
 70
     1
102
RTVSPropertyOp9
 70
     1
102
RTVSPropertyOp10
 70
     1
102
RTVSPropertyOp11
 70
     1
102
RTVSPropertyOp12
 70
     1
102
RTVSPropertyOp13
 70
     1
102
RTVSPropertyOp14
 70
     1
102
RTVSPropertyOp15
 70
     1
102
RTVSPropertyOp16
 70
     1
102
RTVSPropertyOp17
 70
     1
102
RTVSPropertyOp18
 70
     1
102
RTVSPropertyOp19
 70
     1
102
RTVSPropertyOp20
 70
     1
102
RTVSPropertyOp21
 70
     1
102
RTVSPropertyOp22
 70
     1
102
RTVSPropertyOp23
 70
     1
102
RTVSPropertyOp24
 70
     1
102
RTVSPropertyOp25
 70
     1
102
RTVSPropertyOp26
 70
     1
102
RTVSPropertyOp27
 70
     1
102
RTVSPropertyOp28
 70
     1
102
RTVSPropertyOp29
 70
     1
102
RTVSPropertyOp30
 70
     1
102
RTVSPropertyOp31
 70
     1
102
RTVSPropertyOp32
 70
     1
102
RTVSPropertyOp33
 70
     1
102
RTVSPropertyOp34
 70
     1
102
RTVSPropertyOp35
 70
     1
102
RTVSPropertyOp36
 70
     1
102
RTVSPropertyOp37
 70
     1
102
RTVSPropertyOp38
 70
     1
102
RTVSPropertyOp39
 70
     1
102
RTVSPropertyOp40
 70
     1
102
RTVSPropertyOp41
 70
     1
102
RTVSPropertyOp42
 70
     1
102
RTVSPropertyOp43
 70
     1
102
RTVSPropertyOp44
 70
     1
102
RTVSPropertyOp45
 70
     1
102
RTVSPropertyOp46
 70
     1
102
RTVSPropertyOp47
 70
     1
102
RTVSPropertyOp48
 70
     1
102
RTVSPropertyOp49
 70
     1
102
RTVSPropertyOp50
 70
     1
102
RTVSPropertyOp51
 70
     0
102
RTVSPropertyOp52
 70
     0
102
RTVSPropertyOp53
 70
     1
102
RTVSPropertyOp54
 70
     1
102
RTVSPropertyOp55
 70
     1
102
RTVSPropertyOp56
 70
     1
102
RTVSPropertyOp57
 70
     1
102
RTVSPropertyOp58
 70
     1
102
RTVSPropertyOp59
 70
     1
102
RTVSPropertyOp60
 70
     1
102
RTVSPropertyOp61
 70
     1
102
RTVSPropertyOp62
 70
     1
  0
XRECORD
  5
83D5
102
{ACAD_REACTORS
330
83D4
102
}
330
83D4
100
AcDbXrecord
280
     1
102
RTVSPost2010Prop28
280
     0
102
RTVSPost2010PropOp28
 70
     1
102
RTVSPost2010Prop29
280
     1
102
RTVSPost2010PropOp29
 70
     1
102
RTVSPost2010Prop30
280
     1
102
RTVSPost2010PropOp30
 70
     1
102
RTVSPost2010Prop31
280
     0
102
RTVSPost2010PropOp31
 70
     1
102
RTVSPost2010Prop32
280
     0
102
RTVSPost2010PropOp32
 70
     1
102
RTVSPost2010Prop33
280
     0
102
RTVSPost2010PropOp33
 70
     1
102
RTVSPost2010Prop34
280
     0
102
RTVSPost2010PropOp34
 70
     1
102
RTVSPost2010Prop35
280
     0
102
RTVSPost2010PropOp35
 70
     1
102
RTVSPost2010Prop36
280
     0
102
RTVSPost2010PropOp36
 70
     1
102
RTVSPost2010Prop37
 90
       50
102
RTVSPost2010PropOp37
 70
     1
102
RTVSPost2010Prop38
140
0.0
102
RTVSPost2010PropOp38
 70
     1
102
RTVSPost2010Prop39
140
1.0
102
RTVSPost2010PropOp39
 70
     1
102
RTVSPost2010Prop40
 90
        0
102
RTVSPost2010PropOp40
 70
     1
102
RTVSPost2010Prop41ColorIndex
 90
       18
102
RTVSPost2010Prop41ColorRGB
 90
        0
102
RTVSPost2010PropOp41
 70
     1
102
RTVSPost2010Prop42
 90
       50
102
RTVSPost2010PropOp42
 70
     1
102
RTVSPost2010Prop43
 90
        3
102
RTVSPost2010PropOp43
 70
     1
102
RTVSPost2010Prop44ColorIndex
 90
        5
102
RTVSPost2010Prop44ColorRGB
 90
      255
102
RTVSPost2010PropOp44
 70
     1
102
RTVSPost2010Prop45
280
     0
102
RTVSPost2010PropOp45
 70
     1
102
RTVSPost2010Prop46
 90
       50
102
RTVSPost2010PropOp46
 70
     1
102
RTVSPost2010Prop47
 90
       50
102
RTVSPost2010PropOp47
 70
     1
102
RTVSPost2010Prop48
 90
       50
102
RTVSPost2010PropOp48
 70
     1
102
RTVSPost2010Prop49
280
     0
102
RTVSPost2010PropOp49
 70
     1
102
RTVSPost2010Prop50
 90
       50
102
RTVSPost2010PropOp50
 70
     1
102
RTVSPost2010Prop51ColorIndex
 90
      256
102
RTVSPost2010Prop51ColorRGB
 90
-16777216
102
RTVSPost2010PropOp51
 70
     0
102
RTVSPost2010Prop52
140
1.0
102
RTVSPost2010PropOp52
 70
     0
102
RTVSPost2010Prop53
 90
        2
102
RTVSPost2010PropOp53
 70
     1
102
RTVSPost2010Prop54
  1
strokes_ogs.tif
102
RTVSPost2010PropOp54
 70
     1
102
RTVSPost2010Prop55
280
     0
102
RTVSPost2010PropOp55
 70
     1
102
RTVSPost2010Prop56
140
1.0
102
RTVSPost2010PropOp56
 70
     1
102
RTVSPost2010Prop57
140
1.0
102
RTVSPost2010PropOp57
 70
     1
102
RTVSPropertyOp0
 70
     1
102
RTVSPropertyOp1
 70
     1
102
RTVSPropertyOp2
 70
     1
102
RTVSPropertyOp3
 70
     1
102
RTVSPropertyOp4
 70
     1
102
RTVSPropertyOp5
 70
     1
102
RTVSPropertyOp6
 70
     1
102
RTVSPropertyOp7
 70
     1
102
RTVSPropertyOp8
 70
     1
102
RTVSPropertyOp9
 70
     1
102
RTVSPropertyOp10
 70
     1
102
RTVSPropertyOp11
 70
     1
102
RTVSPropertyOp12
 70
     1
102
RTVSPropertyOp13
 70
     1
102
RTVSPropertyOp14
 70
     1
102
RTVSPropertyOp15
 70
     1
102
RTVSPropertyOp16
 70
     1
102
RTVSPropertyOp17
 70
     1
102
RTVSPropertyOp18
 70
     1
102
RTVSPropertyOp19
 70
     1
102
RTVSPropertyOp20
 70
     1
102
RTVSPropertyOp21
 70
     1
102
RTVSPropertyOp22
 70
     1
102
RTVSPropertyOp23
 70
     1
102
RTVSPropertyOp24
 70
     1
102
RTVSPropertyOp25
 70
     1
102
RTVSPropertyOp26
 70
     1
102
RTVSPropertyOp27
 70
     1
102
RTVSPropertyOp28
 70
     1
102
RTVSPropertyOp29
 70
     1
102
RTVSPropertyOp30
 70
     1
102
RTVSPropertyOp31
 70
     1
102
RTVSPropertyOp32
 70
     1
102
RTVSPropertyOp33
 70
     1
102
RTVSPropertyOp34
 70
     1
102
RTVSPropertyOp35
 70
     1
102
RTVSPropertyOp36
 70
     1
102
RTVSPropertyOp37
 70
     1
102
RTVSPropertyOp38
 70
     1
102
RTVSPropertyOp39
 70
     1
102
RTVSPropertyOp40
 70
     1
102
RTVSPropertyOp41
 70
     1
102
RTVSPropertyOp42
 70
     1
102
RTVSPropertyOp43
 70
     1
102
RTVSPropertyOp44
 70
     1
102
RTVSPropertyOp45
 70
     1
102
RTVSPropertyOp46
 70
     1
102
RTVSPropertyOp47
 70
     1
102
RTVSPropertyOp48
 70
     1
102
RTVSPropertyOp49
 70
     1
102
RTVSPropertyOp50
 70
     1
102
RTVSPropertyOp51
 70
     0
102
RTVSPropertyOp52
 70
     0
102
RTVSPropertyOp53
 70
     1
102
RTVSPropertyOp54
 70
     1
102
RTVSPropertyOp55
 70
     1
102
RTVSPropertyOp56
 70
     1
102
RTVSPropertyOp57
 70
     1
102
RTVSPropertyOp58
 70
     1
102
RTVSPropertyOp59
 70
     1
102
RTVSPropertyOp60
 70
     1
102
RTVSPropertyOp61
 70
     1
102
RTVSPropertyOp62
 70
     1
  0
XRECORD
  5
83D7
102
{ACAD_REACTORS
330
83D6
102
}
330
83D6
100
AcDbXrecord
280
     1
102
RTVSPost2010Prop28
280
     0
102
RTVSPost2010PropOp28
 70
     1
102
RTVSPost2010Prop29
280
     1
102
RTVSPost2010PropOp29
 70
     1
102
RTVSPost2010Prop30
280
     1
102
RTVSPost2010PropOp30
 70
     1
102
RTVSPost2010Prop31
280
     0
102
RTVSPost2010PropOp31
 70
     1
102
RTVSPost2010Prop32
280
     0
102
RTVSPost2010PropOp32
 70
     1
102
RTVSPost2010Prop33
280
     0
102
RTVSPost2010PropOp33
 70
     1
102
RTVSPost2010Prop34
280
     0
102
RTVSPost2010PropOp34
 70
     1
102
RTVSPost2010Prop35
280
     0
102
RTVSPost2010PropOp35
 70
     1
102
RTVSPost2010Prop36
280
     0
102
RTVSPost2010PropOp36
 70
     1
102
RTVSPost2010Prop37
 90
       50
102
RTVSPost2010PropOp37
 70
     1
102
RTVSPost2010Prop38
140
0.0
102
RTVSPost2010PropOp38
 70
     1
102
RTVSPost2010Prop39
140
1.0
102
RTVSPost2010PropOp39
 70
     1
102
RTVSPost2010Prop40
 90
        0
102
RTVSPost2010PropOp40
 70
     1
102
RTVSPost2010Prop41ColorIndex
 90
       18
102
RTVSPost2010Prop41ColorRGB
 90
        0
102
RTVSPost2010PropOp41
 70
     1
102
RTVSPost2010Prop42
 90
       50
102
RTVSPost2010PropOp42
 70
     1
102
RTVSPost2010Prop43
 90
        3
102
RTVSPost2010PropOp43
 70
     1
102
RTVSPost2010Prop44ColorIndex
 90
        5
102
RTVSPost2010Prop44ColorRGB
 90
      255
102
RTVSPost2010PropOp44
 70
     1
102
RTVSPost2010Prop45
280
     0
102
RTVSPost2010PropOp45
 70
     1
102
RTVSPost2010Prop46
 90
       50
102
RTVSPost2010PropOp46
 70
     1
102
RTVSPost2010Prop47
 90
       50
102
RTVSPost2010PropOp47
 70
     1
102
RTVSPost2010Prop48
 90
       50
102
RTVSPost2010PropOp48
 70
     1
102
RTVSPost2010Prop49
280
     0
102
RTVSPost2010PropOp49
 70
     1
102
RTVSPost2010Prop50
 90
       50
102
RTVSPost2010PropOp50
 70
     1
102
RTVSPost2010Prop51ColorIndex
 90
      256
102
RTVSPost2010Prop51ColorRGB
 90
-16777216
102
RTVSPost2010PropOp51
 70
     0
102
RTVSPost2010Prop52
140
1.0
102
RTVSPost2010PropOp52
 70
     0
102
RTVSPost2010Prop53
 90
        2
102
RTVSPost2010PropOp53
 70
     1
102
RTVSPost2010Prop54
  1
strokes_ogs.tif
102
RTVSPost2010PropOp54
 70
     1
102
RTVSPost2010Prop55
280
     0
102
RTVSPost2010PropOp55
 70
     1
102
RTVSPost2010Prop56
140
1.0
102
RTVSPost2010PropOp56
 70
     1
102
RTVSPost2010Prop57
140
1.0
102
RTVSPost2010PropOp57
 70
     1
102
RTVSPropertyOp0
 70
     1
102
RTVSPropertyOp1
 70
     1
102
RTVSPropertyOp2
 70
     1
102
RTVSPropertyOp3
 70
     1
102
RTVSPropertyOp4
 70
     1
102
RTVSPropertyOp5
 70
     1
102
RTVSPropertyOp6
 70
     1
102
RTVSPropertyOp7
 70
     1
102
RTVSPropertyOp8
 70
     1
102
RTVSPropertyOp9
 70
     1
102
RTVSPropertyOp10
 70
     1
102
RTVSPropertyOp11
 70
     1
102
RTVSPropertyOp12
 70
     1
102
RTVSPropertyOp13
 70
     1
102
RTVSPropertyOp14
 70
     1
102
RTVSPropertyOp15
 70
     1
102
RTVSPropertyOp16
 70
     1
102
RTVSPropertyOp17
 70
     1
102
RTVSPropertyOp18
 70
     1
102
RTVSPropertyOp19
 70
     1
102
RTVSPropertyOp20
 70
     1
102
RTVSPropertyOp21
 70
     1
102
RTVSPropertyOp22
 70
     1
102
RTVSPropertyOp23
 70
     1
102
RTVSPropertyOp24
 70
     1
102
RTVSPropertyOp25
 70
     1
102
RTVSPropertyOp26
 70
     1
102
RTVSPropertyOp27
 70
     1
102
RTVSPropertyOp28
 70
     1
102
RTVSPropertyOp29
 70
     1
102
RTVSPropertyOp30
 70
     1
102
RTVSPropertyOp31
 70
     1
102
RTVSPropertyOp32
 70
     1
102
RTVSPropertyOp33
 70
     1
102
RTVSPropertyOp34
 70
     1
102
RTVSPropertyOp35
 70
     1
102
RTVSPropertyOp36
 70
     1
102
RTVSPropertyOp37
 70
     1
102
RTVSPropertyOp38
 70
     1
102
RTVSPropertyOp39
 70
     1
102
RTVSPropertyOp40
 70
     1
102
RTVSPropertyOp41
 70
     1
102
RTVSPropertyOp42
 70
     1
102
RTVSPropertyOp43
 70
     1
102
RTVSPropertyOp44
 70
     1
102
RTVSPropertyOp45
 70
     1
102
RTVSPropertyOp46
 70
     1
102
RTVSPropertyOp47
 70
     1
102
RTVSPropertyOp48
 70
     1
102
RTVSPropertyOp49
 70
     1
102
RTVSPropertyOp50
 70
     1
102
RTVSPropertyOp51
 70
     0
102
RTVSPropertyOp52
 70
     0
102
RTVSPropertyOp53
 70
     1
102
RTVSPropertyOp54
 70
     1
102
RTVSPropertyOp55
 70
     1
102
RTVSPropertyOp56
 70
     1
102
RTVSPropertyOp57
 70
     1
102
RTVSPropertyOp58
 70
     1
102
RTVSPropertyOp59
 70
     1
102
RTVSPropertyOp60
 70
     1
102
RTVSPropertyOp61
 70
     1
102
RTVSPropertyOp62
 70
     1
  0
XRECORD
  5
83DF
102
{ACAD_REACTORS
330
83DE
102
}
330
83DE
100
AcDbXrecord
280
     1
102
RTVSPost2010Prop28
280
     0
102
RTVSPost2010PropOp28
 70
     1
102
RTVSPost2010Prop29
280
     1
102
RTVSPost2010PropOp29
 70
     1
102
RTVSPost2010Prop30
280
     1
102
RTVSPost2010PropOp30
 70
     1
102
RTVSPost2010Prop31
280
     0
102
RTVSPost2010PropOp31
 70
     1
102
RTVSPost2010Prop32
280
     0
102
RTVSPost2010PropOp32
 70
     1
102
RTVSPost2010Prop33
280
     0
102
RTVSPost2010PropOp33
 70
     1
102
RTVSPost2010Prop34
280
     0
102
RTVSPost2010PropOp34
 70
     1
102
RTVSPost2010Prop35
280
     0
102
RTVSPost2010PropOp35
 70
     1
102
RTVSPost2010Prop36
280
     0
102
RTVSPost2010PropOp36
 70
     1
102
RTVSPost2010Prop37
 90
       50
102
RTVSPost2010PropOp37
 70
     1
102
RTVSPost2010Prop38
140
0.0
102
RTVSPost2010PropOp38
 70
     1
102
RTVSPost2010Prop39
140
1.0
102
RTVSPost2010PropOp39
 70
     1
102
RTVSPost2010Prop40
 90
        0
102
RTVSPost2010PropOp40
 70
     1
102
RTVSPost2010Prop41ColorIndex
 90
       18
102
RTVSPost2010Prop41ColorRGB
 90
        0
102
RTVSPost2010PropOp41
 70
     1
102
RTVSPost2010Prop42
 90
       50
102
RTVSPost2010PropOp42
 70
     1
102
RTVSPost2010Prop43
 90
        3
102
RTVSPost2010PropOp43
 70
     1
102
RTVSPost2010Prop44ColorIndex
 90
        5
102
RTVSPost2010Prop44ColorRGB
 90
      255
102
RTVSPost2010PropOp44
 70
     1
102
RTVSPost2010Prop45
280
     0
102
RTVSPost2010PropOp45
 70
     1
102
RTVSPost2010Prop46
 90
       50
102
RTVSPost2010PropOp46
 70
     1
102
RTVSPost2010Prop47
 90
       50
102
RTVSPost2010PropOp47
 70
     1
102
RTVSPost2010Prop48
 90
       50
102
RTVSPost2010PropOp48
 70
     1
102
RTVSPost2010Prop49
280
     0
102
RTVSPost2010PropOp49
 70
     1
102
RTVSPost2010Prop50
 90
       50
102
RTVSPost2010PropOp50
 70
     1
102
RTVSPost2010Prop51ColorIndex
 90
      256
102
RTVSPost2010Prop51ColorRGB
 90
-16777216
102
RTVSPost2010PropOp51
 70
     0
102
RTVSPost2010Prop52
140
1.0
102
RTVSPost2010PropOp52
 70
     0
102
RTVSPost2010Prop53
 90
        2
102
RTVSPost2010PropOp53
 70
     1
102
RTVSPost2010Prop54
  1
strokes_ogs.tif
102
RTVSPost2010PropOp54
 70
     1
102
RTVSPost2010Prop55
280
     0
102
RTVSPost2010PropOp55
 70
     1
102
RTVSPost2010Prop56
140
1.0
102
RTVSPost2010PropOp56
 70
     1
102
RTVSPost2010Prop57
140
1.0
102
RTVSPost2010PropOp57
 70
     1
102
RTVSPropertyOp0
 70
     1
102
RTVSPropertyOp1
 70
     1
102
RTVSPropertyOp2
 70
     1
102
RTVSPropertyOp3
 70
     1
102
RTVSPropertyOp4
 70
     1
102
RTVSPropertyOp5
 70
     1
102
RTVSPropertyOp6
 70
     1
102
RTVSPropertyOp7
 70
     1
102
RTVSPropertyOp8
 70
     1
102
RTVSPropertyOp9
 70
     1
102
RTVSPropertyOp10
 70
     1
102
RTVSPropertyOp11
 70
     1
102
RTVSPropertyOp12
 70
     1
102
RTVSPropertyOp13
 70
     1
102
RTVSPropertyOp14
 70
     1
102
RTVSPropertyOp15
 70
     1
102
RTVSPropertyOp16
 70
     1
102
RTVSPropertyOp17
 70
     1
102
RTVSPropertyOp18
 70
     1
102
RTVSPropertyOp19
 70
     1
102
RTVSPropertyOp20
 70
     1
102
RTVSPropertyOp21
 70
     1
102
RTVSPropertyOp22
 70
     1
102
RTVSPropertyOp23
 70
     1
102
RTVSPropertyOp24
 70
     1
102
RTVSPropertyOp25
 70
     1
102
RTVSPropertyOp26
 70
     1
102
RTVSPropertyOp27
 70
     1
102
RTVSPropertyOp28
 70
     1
102
RTVSPropertyOp29
 70
     1
102
RTVSPropertyOp30
 70
     1
102
RTVSPropertyOp31
 70
     1
102
RTVSPropertyOp32
 70
     1
102
RTVSPropertyOp33
 70
     1
102
RTVSPropertyOp34
 70
     1
102
RTVSPropertyOp35
 70
     1
102
RTVSPropertyOp36
 70
     1
102
RTVSPropertyOp37
 70
     1
102
RTVSPropertyOp38
 70
     1
102
RTVSPropertyOp39
 70
     1
102
RTVSPropertyOp40
 70
     1
102
RTVSPropertyOp41
 70
     1
102
RTVSPropertyOp42
 70
     1
102
RTVSPropertyOp43
 70
     1
102
RTVSPropertyOp44
 70
     1
102
RTVSPropertyOp45
 70
     1
102
RTVSPropertyOp46
 70
     1
102
RTVSPropertyOp47
 70
     1
102
RTVSPropertyOp48
 70
     1
102
RTVSPropertyOp49
 70
     1
102
RTVSPropertyOp50
 70
     1
102
RTVSPropertyOp51
 70
     0
102
RTVSPropertyOp52
 70
     0
102
RTVSPropertyOp53
 70
     1
102
RTVSPropertyOp54
 70
     1
102
RTVSPropertyOp55
 70
     1
102
RTVSPropertyOp56
 70
     1
102
RTVSPropertyOp57
 70
     1
102
RTVSPropertyOp58
 70
     1
102
RTVSPropertyOp59
 70
     1
102
RTVSPropertyOp60
 70
     1
102
RTVSPropertyOp61
 70
     1
102
RTVSPropertyOp62
 70
     1
  0
XRECORD
  5
83F3
102
{ACAD_REACTORS
330
83F2
102
}
330
83F2
100
AcDbXrecord
280
     1
102
RTVSPost2010Prop28
280
     0
102
RTVSPost2010PropOp28
 70
     1
102
RTVSPost2010Prop29
280
     1
102
RTVSPost2010PropOp29
 70
     1
102
RTVSPost2010Prop30
280
     1
102
RTVSPost2010PropOp30
 70
     1
102
RTVSPost2010Prop31
280
     0
102
RTVSPost2010PropOp31
 70
     1
102
RTVSPost2010Prop32
280
     0
102
RTVSPost2010PropOp32
 70
     1
102
RTVSPost2010Prop33
280
     0
102
RTVSPost2010PropOp33
 70
     1
102
RTVSPost2010Prop34
280
     0
102
RTVSPost2010PropOp34
 70
     1
102
RTVSPost2010Prop35
280
     0
102
RTVSPost2010PropOp35
 70
     1
102
RTVSPost2010Prop36
280
     0
102
RTVSPost2010PropOp36
 70
     1
102
RTVSPost2010Prop37
 90
       50
102
RTVSPost2010PropOp37
 70
     1
102
RTVSPost2010Prop38
140
0.0
102
RTVSPost2010PropOp38
 70
     1
102
RTVSPost2010Prop39
140
1.0
102
RTVSPost2010PropOp39
 70
     1
102
RTVSPost2010Prop40
 90
        0
102
RTVSPost2010PropOp40
 70
     1
102
RTVSPost2010Prop41ColorIndex
 90
       18
102
RTVSPost2010Prop41ColorRGB
 90
        0
102
RTVSPost2010PropOp41
 70
     1
102
RTVSPost2010Prop42
 90
       50
102
RTVSPost2010PropOp42
 70
     1
102
RTVSPost2010Prop43
 90
        3
102
RTVSPost2010PropOp43
 70
     1
102
RTVSPost2010Prop44ColorIndex
 90
        5
102
RTVSPost2010Prop44ColorRGB
 90
      255
102
RTVSPost2010PropOp44
 70
     1
102
RTVSPost2010Prop45
280
     0
102
RTVSPost2010PropOp45
 70
     1
102
RTVSPost2010Prop46
 90
       50
102
RTVSPost2010PropOp46
 70
     1
102
RTVSPost2010Prop47
 90
       50
102
RTVSPost2010PropOp47
 70
     1
102
RTVSPost2010Prop48
 90
       50
102
RTVSPost2010PropOp48
 70
     1
102
RTVSPost2010Prop49
280
     0
102
RTVSPost2010PropOp49
 70
     1
102
RTVSPost2010Prop50
 90
       50
102
RTVSPost2010PropOp50
 70
     1
102
RTVSPost2010Prop51ColorIndex
 90
      256
102
RTVSPost2010Prop51ColorRGB
 90
-16777216
102
RTVSPost2010PropOp51
 70
     0
102
RTVSPost2010Prop52
140
1.0
102
RTVSPost2010PropOp52
 70
     0
102
RTVSPost2010Prop53
 90
        2
102
RTVSPost2010PropOp53
 70
     1
102
RTVSPost2010Prop54
  1
strokes_ogs.tif
102
RTVSPost2010PropOp54
 70
     1
102
RTVSPost2010Prop55
280
     0
102
RTVSPost2010PropOp55
 70
     1
102
RTVSPost2010Prop56
140
1.0
102
RTVSPost2010PropOp56
 70
     1
102
RTVSPost2010Prop57
140
1.0
102
RTVSPost2010PropOp57
 70
     1
102
RTVSPropertyOp0
 70
     0
102
RTVSPropertyOp1
 70
     0
102
RTVSPropertyOp2
 70
     0
102
RTVSPropertyOp3
 70
     0
102
RTVSPropertyOp4
 70
     0
102
RTVSPropertyOp5
 70
     0
102
RTVSPropertyOp6
 70
     0
102
RTVSPropertyOp7
 70
     0
102
RTVSPropertyOp8
 70
     0
102
RTVSPropertyOp9
 70
     0
102
RTVSPropertyOp10
 70
     0
102
RTVSPropertyOp11
 70
     0
102
RTVSPropertyOp12
 70
     0
102
RTVSPropertyOp13
 70
     0
102
RTVSPropertyOp14
 70
     2
102
RTVSPropertyOp15
 70
     0
102
RTVSPropertyOp16
 70
     0
102
RTVSPropertyOp17
 70
     0
102
RTVSPropertyOp18
 70
     0
102
RTVSPropertyOp19
 70
     0
102
RTVSPropertyOp20
 70
     0
102
RTVSPropertyOp21
 70
     0
102
RTVSPropertyOp22
 70
     0
102
RTVSPropertyOp23
 70
     0
102
RTVSPropertyOp24
 70
     0
102
RTVSPropertyOp25
 70
     0
102
RTVSPropertyOp26
 70
     0
102
RTVSPropertyOp27
 70
     0
102
RTVSPropertyOp28
 70
     1
102
RTVSPropertyOp29
 70
     1
102
RTVSPropertyOp30
 70
     1
102
RTVSPropertyOp31
 70
     1
102
RTVSPropertyOp32
 70
     1
102
RTVSPropertyOp33
 70
     1
102
RTVSPropertyOp34
 70
     1
102
RTVSPropertyOp35
 70
     1
102
RTVSPropertyOp36
 70
     1
102
RTVSPropertyOp37
 70
     1
102
RTVSPropertyOp38
 70
     1
102
RTVSPropertyOp39
 70
     1
102
RTVSPropertyOp40
 70
     1
102
RTVSPropertyOp41
 70
     1
102
RTVSPropertyOp42
 70
     1
102
RTVSPropertyOp43
 70
     1
102
RTVSPropertyOp44
 70
     1
102
RTVSPropertyOp45
 70
     1
102
RTVSPropertyOp46
 70
     1
102
RTVSPropertyOp47
 70
     1
102
RTVSPropertyOp48
 70
     1
102
RTVSPropertyOp49
 70
     1
102
RTVSPropertyOp50
 70
     1
102
RTVSPropertyOp51
 70
     0
102
RTVSPropertyOp52
 70
     0
102
RTVSPropertyOp53
 70
     1
102
RTVSPropertyOp54
 70
     1
102
RTVSPropertyOp55
 70
     1
102
RTVSPropertyOp56
 70
     1
102
RTVSPropertyOp57
 70
     1
102
RTVSPropertyOp58
 70
     1
102
RTVSPropertyOp59
 70
     1
102
RTVSPropertyOp60
 70
     1
102
RTVSPropertyOp61
 70
     1
102
RTVSPropertyOp62
 70
     1
  0
XRECORD
  5
83EB
102
{ACAD_REACTORS
330
83EA
102
}
330
83EA
100
AcDbXrecord
280
     1
102
RTVSPost2010Prop28
280
     0
102
RTVSPost2010PropOp28
 70
     1
102
RTVSPost2010Prop29
280
     1
102
RTVSPost2010PropOp29
 70
     1
102
RTVSPost2010Prop30
280
     1
102
RTVSPost2010PropOp30
 70
     1
102
RTVSPost2010Prop31
280
     0
102
RTVSPost2010PropOp31
 70
     1
102
RTVSPost2010Prop32
280
     0
102
RTVSPost2010PropOp32
 70
     1
102
RTVSPost2010Prop33
280
     0
102
RTVSPost2010PropOp33
 70
     1
102
RTVSPost2010Prop34
280
     0
102
RTVSPost2010PropOp34
 70
     1
102
RTVSPost2010Prop35
280
     0
102
RTVSPost2010PropOp35
 70
     1
102
RTVSPost2010Prop36
280
     0
102
RTVSPost2010PropOp36
 70
     1
102
RTVSPost2010Prop37
 90
       50
102
RTVSPost2010PropOp37
 70
     1
102
RTVSPost2010Prop38
140
0.0
102
RTVSPost2010PropOp38
 70
     1
102
RTVSPost2010Prop39
140
1.0
102
RTVSPost2010PropOp39
 70
     1
102
RTVSPost2010Prop40
 90
        0
102
RTVSPost2010PropOp40
 70
     1
102
RTVSPost2010Prop41ColorIndex
 90
       18
102
RTVSPost2010Prop41ColorRGB
 90
        0
102
RTVSPost2010PropOp41
 70
     1
102
RTVSPost2010Prop42
 90
       50
102
RTVSPost2010PropOp42
 70
     1
102
RTVSPost2010Prop43
 90
        3
102
RTVSPost2010PropOp43
 70
     1
102
RTVSPost2010Prop44ColorIndex
 90
        5
102
RTVSPost2010Prop44ColorRGB
 90
      255
102
RTVSPost2010PropOp44
 70
     1
102
RTVSPost2010Prop45
280
     0
102
RTVSPost2010PropOp45
 70
     1
102
RTVSPost2010Prop46
 90
       50
102
RTVSPost2010PropOp46
 70
     1
102
RTVSPost2010Prop47
 90
       50
102
RTVSPost2010PropOp47
 70
     1
102
RTVSPost2010Prop48
 90
       50
102
RTVSPost2010PropOp48
 70
     1
102
RTVSPost2010Prop49
280
     0
102
RTVSPost2010PropOp49
 70
     1
102
RTVSPost2010Prop50
 90
       50
102
RTVSPost2010PropOp50
 70
     1
102
RTVSPost2010Prop51ColorIndex
 90
      256
102
RTVSPost2010Prop51ColorRGB
 90
-16777216
102
RTVSPost2010PropOp51
 70
     0
102
RTVSPost2010Prop52
140
1.0
102
RTVSPost2010PropOp52
 70
     0
102
RTVSPost2010Prop53
 90
        2
102
RTVSPost2010PropOp53
 70
     1
102
RTVSPost2010Prop54
  1
strokes_ogs.tif
102
RTVSPost2010PropOp54
 70
     1
102
RTVSPost2010Prop55
280
     0
102
RTVSPost2010PropOp55
 70
     1
102
RTVSPost2010Prop56
140
1.0
102
RTVSPost2010PropOp56
 70
     1
102
RTVSPost2010Prop57
140
1.0
102
RTVSPost2010PropOp57
 70
     1
102
RTVSPropertyOp0
 70
     1
102
RTVSPropertyOp1
 70
     1
102
RTVSPropertyOp2
 70
     1
102
RTVSPropertyOp3
 70
     1
102
RTVSPropertyOp4
 70
     1
102
RTVSPropertyOp5
 70
     1
102
RTVSPropertyOp6
 70
     1
102
RTVSPropertyOp7
 70
     1
102
RTVSPropertyOp8
 70
     1
102
RTVSPropertyOp9
 70
     1
102
RTVSPropertyOp10
 70
     1
102
RTVSPropertyOp11
 70
     1
102
RTVSPropertyOp12
 70
     1
102
RTVSPropertyOp13
 70
     1
102
RTVSPropertyOp14
 70
     1
102
RTVSPropertyOp15
 70
     1
102
RTVSPropertyOp16
 70
     1
102
RTVSPropertyOp17
 70
     1
102
RTVSPropertyOp18
 70
     1
102
RTVSPropertyOp19
 70
     1
102
RTVSPropertyOp20
 70
     1
102
RTVSPropertyOp21
 70
     1
102
RTVSPropertyOp22
 70
     1
102
RTVSPropertyOp23
 70
     1
102
RTVSPropertyOp24
 70
     1
102
RTVSPropertyOp25
 70
     1
102
RTVSPropertyOp26
 70
     1
102
RTVSPropertyOp27
 70
     1
102
RTVSPropertyOp28
 70
     1
102
RTVSPropertyOp29
 70
     1
102
RTVSPropertyOp30
 70
     1
102
RTVSPropertyOp31
 70
     1
102
RTVSPropertyOp32
 70
     1
102
RTVSPropertyOp33
 70
     1
102
RTVSPropertyOp34
 70
     1
102
RTVSPropertyOp35
 70
     1
102
RTVSPropertyOp36
 70
     1
102
RTVSPropertyOp37
 70
     1
102
RTVSPropertyOp38
 70
     1
102
RTVSPropertyOp39
 70
     1
102
RTVSPropertyOp40
 70
     1
102
RTVSPropertyOp41
 70
     1
102
RTVSPropertyOp42
 70
     1
102
RTVSPropertyOp43
 70
     1
102
RTVSPropertyOp44
 70
     1
102
RTVSPropertyOp45
 70
     1
102
RTVSPropertyOp46
 70
     1
102
RTVSPropertyOp47
 70
     1
102
RTVSPropertyOp48
 70
     1
102
RTVSPropertyOp49
 70
     1
102
RTVSPropertyOp50
 70
     1
102
RTVSPropertyOp51
 70
     0
102
RTVSPropertyOp52
 70
     0
102
RTVSPropertyOp53
 70
     1
102
RTVSPropertyOp54
 70
     1
102
RTVSPropertyOp55
 70
     1
102
RTVSPropertyOp56
 70
     1
102
RTVSPropertyOp57
 70
     1
102
RTVSPropertyOp58
 70
     1
102
RTVSPropertyOp59
 70
     1
102
RTVSPropertyOp60
 70
     1
102
RTVSPropertyOp61
 70
     1
102
RTVSPropertyOp62
 70
     1
  0
XRECORD
  5
83F5
102
{ACAD_REACTORS
330
83F4
102
}
330
83F4
100
AcDbXrecord
280
     1
102
RTVSPost2010Prop28
280
     0
102
RTVSPost2010PropOp28
 70
     1
102
RTVSPost2010Prop29
280
     1
102
RTVSPost2010PropOp29
 70
     1
102
RTVSPost2010Prop30
280
     1
102
RTVSPost2010PropOp30
 70
     1
102
RTVSPost2010Prop31
280
     0
102
RTVSPost2010PropOp31
 70
     1
102
RTVSPost2010Prop32
280
     0
102
RTVSPost2010PropOp32
 70
     1
102
RTVSPost2010Prop33
280
     0
102
RTVSPost2010PropOp33
 70
     1
102
RTVSPost2010Prop34
280
     0
102
RTVSPost2010PropOp34
 70
     1
102
RTVSPost2010Prop35
280
     0
102
RTVSPost2010PropOp35
 70
     1
102
RTVSPost2010Prop36
280
     0
102
RTVSPost2010PropOp36
 70
     1
102
RTVSPost2010Prop37
 90
       50
102
RTVSPost2010PropOp37
 70
     1
102
RTVSPost2010Prop38
140
0.0
102
RTVSPost2010PropOp38
 70
     1
102
RTVSPost2010Prop39
140
1.0
102
RTVSPost2010PropOp39
 70
     1
102
RTVSPost2010Prop40
 90
        0
102
RTVSPost2010PropOp40
 70
     1
102
RTVSPost2010Prop41ColorIndex
 90
       18
102
RTVSPost2010Prop41ColorRGB
 90
        0
102
RTVSPost2010PropOp41
 70
     1
102
RTVSPost2010Prop42
 90
       50
102
RTVSPost2010PropOp42
 70
     1
102
RTVSPost2010Prop43
 90
        3
102
RTVSPost2010PropOp43
 70
     1
102
RTVSPost2010Prop44ColorIndex
 90
        5
102
RTVSPost2010Prop44ColorRGB
 90
      255
102
RTVSPost2010PropOp44
 70
     1
102
RTVSPost2010Prop45
280
     0
102
RTVSPost2010PropOp45
 70
     1
102
RTVSPost2010Prop46
 90
       50
102
RTVSPost2010PropOp46
 70
     1
102
RTVSPost2010Prop47
 90
       50
102
RTVSPost2010PropOp47
 70
     1
102
RTVSPost2010Prop48
 90
       50
102
RTVSPost2010PropOp48
 70
     1
102
RTVSPost2010Prop49
280
     0
102
RTVSPost2010PropOp49
 70
     1
102
RTVSPost2010Prop50
 90
       50
102
RTVSPost2010PropOp50
 70
     1
102
RTVSPost2010Prop51ColorIndex
 90
      256
102
RTVSPost2010Prop51ColorRGB
 90
-16777216
102
RTVSPost2010PropOp51
 70
     0
102
RTVSPost2010Prop52
140
1.0
102
RTVSPost2010PropOp52
 70
     0
102
RTVSPost2010Prop53
 90
        2
102
RTVSPost2010PropOp53
 70
     1
102
RTVSPost2010Prop54
  1
strokes_ogs.tif
102
RTVSPost2010PropOp54
 70
     1
102
RTVSPost2010Prop55
280
     0
102
RTVSPost2010PropOp55
 70
     1
102
RTVSPost2010Prop56
140
1.0
102
RTVSPost2010PropOp56
 70
     1
102
RTVSPost2010Prop57
140
1.0
102
RTVSPost2010PropOp57
 70
     1
102
RTVSPropertyOp0
 70
     0
102
RTVSPropertyOp1
 70
     0
102
RTVSPropertyOp2
 70
     0
102
RTVSPropertyOp3
 70
     0
102
RTVSPropertyOp4
 70
     0
102
RTVSPropertyOp5
 70
     0
102
RTVSPropertyOp6
 70
     0
102
RTVSPropertyOp7
 70
     0
102
RTVSPropertyOp8
 70
     0
102
RTVSPropertyOp9
 70
     0
102
RTVSPropertyOp10
 70
     0
102
RTVSPropertyOp11
 70
     0
102
RTVSPropertyOp12
 70
     0
102
RTVSPropertyOp13
 70
     0
102
RTVSPropertyOp14
 70
     2
102
RTVSPropertyOp15
 70
     0
102
RTVSPropertyOp16
 70
     0
102
RTVSPropertyOp17
 70
     0
102
RTVSPropertyOp18
 70
     0
102
RTVSPropertyOp19
 70
     0
102
RTVSPropertyOp20
 70
     0
102
RTVSPropertyOp21
 70
     0
102
RTVSPropertyOp22
 70
     0
102
RTVSPropertyOp23
 70
     0
102
RTVSPropertyOp24
 70
     0
102
RTVSPropertyOp25
 70
     0
102
RTVSPropertyOp26
 70
     0
102
RTVSPropertyOp27
 70
     0
102
RTVSPropertyOp28
 70
     1
102
RTVSPropertyOp29
 70
     1
102
RTVSPropertyOp30
 70
     1
102
RTVSPropertyOp31
 70
     1
102
RTVSPropertyOp32
 70
     1
102
RTVSPropertyOp33
 70
     1
102
RTVSPropertyOp34
 70
     1
102
RTVSPropertyOp35
 70
     1
102
RTVSPropertyOp36
 70
     1
102
RTVSPropertyOp37
 70
     1
102
RTVSPropertyOp38
 70
     1
102
RTVSPropertyOp39
 70
     1
102
RTVSPropertyOp40
 70
     1
102
RTVSPropertyOp41
 70
     1
102
RTVSPropertyOp42
 70
     1
102
RTVSPropertyOp43
 70
     1
102
RTVSPropertyOp44
 70
     1
102
RTVSPropertyOp45
 70
     1
102
RTVSPropertyOp46
 70
     1
102
RTVSPropertyOp47
 70
     1
102
RTVSPropertyOp48
 70
     1
102
RTVSPropertyOp49
 70
     1
102
RTVSPropertyOp50
 70
     1
102
RTVSPropertyOp51
 70
     0
102
RTVSPropertyOp52
 70
     0
102
RTVSPropertyOp53
 70
     1
102
RTVSPropertyOp54
 70
     1
102
RTVSPropertyOp55
 70
     1
102
RTVSPropertyOp56
 70
     1
102
RTVSPropertyOp57
 70
     1
102
RTVSPropertyOp58
 70
     1
102
RTVSPropertyOp59
 70
     1
102
RTVSPropertyOp60
 70
     1
102
RTVSPropertyOp61
 70
     1
102
RTVSPropertyOp62
 70
     1
  0
XRECORD
  5
83E3
102
{ACAD_REACTORS
330
83E2
102
}
330
83E2
100
AcDbXrecord
280
     1
102
RTVSPost2010Prop28
280
     0
102
RTVSPost2010PropOp28
 70
     1
102
RTVSPost2010Prop29
280
     1
102
RTVSPost2010PropOp29
 70
     1
102
RTVSPost2010Prop30
280
     1
102
RTVSPost2010PropOp30
 70
     1
102
RTVSPost2010Prop31
280
     0
102
RTVSPost2010PropOp31
 70
     1
102
RTVSPost2010Prop32
280
     0
102
RTVSPost2010PropOp32
 70
     1
102
RTVSPost2010Prop33
280
     0
102
RTVSPost2010PropOp33
 70
     1
102
RTVSPost2010Prop34
280
     0
102
RTVSPost2010PropOp34
 70
     1
102
RTVSPost2010Prop35
280
     0
102
RTVSPost2010PropOp35
 70
     1
102
RTVSPost2010Prop36
280
     0
102
RTVSPost2010PropOp36
 70
     1
102
RTVSPost2010Prop37
 90
       50
102
RTVSPost2010PropOp37
 70
     1
102
RTVSPost2010Prop38
140
0.0
102
RTVSPost2010PropOp38
 70
     1
102
RTVSPost2010Prop39
140
1.0
102
RTVSPost2010PropOp39
 70
     1
102
RTVSPost2010Prop40
 90
        0
102
RTVSPost2010PropOp40
 70
     1
102
RTVSPost2010Prop41ColorIndex
 90
       18
102
RTVSPost2010Prop41ColorRGB
 90
        0
102
RTVSPost2010PropOp41
 70
     1
102
RTVSPost2010Prop42
 90
       50
102
RTVSPost2010PropOp42
 70
     1
102
RTVSPost2010Prop43
 90
        3
102
RTVSPost2010PropOp43
 70
     1
102
RTVSPost2010Prop44ColorIndex
 90
        5
102
RTVSPost2010Prop44ColorRGB
 90
      255
102
RTVSPost2010PropOp44
 70
     1
102
RTVSPost2010Prop45
280
     0
102
RTVSPost2010PropOp45
 70
     1
102
RTVSPost2010Prop46
 90
       50
102
RTVSPost2010PropOp46
 70
     1
102
RTVSPost2010Prop47
 90
       50
102
RTVSPost2010PropOp47
 70
     1
102
RTVSPost2010Prop48
 90
       50
102
RTVSPost2010PropOp48
 70
     1
102
RTVSPost2010Prop49
280
     0
102
RTVSPost2010PropOp49
 70
     1
102
RTVSPost2010Prop50
 90
       50
102
RTVSPost2010PropOp50
 70
     1
102
RTVSPost2010Prop51ColorIndex
 90
      256
102
RTVSPost2010Prop51ColorRGB
 90
-16777216
102
RTVSPost2010PropOp51
 70
     0
102
RTVSPost2010Prop52
140
1.0
102
RTVSPost2010PropOp52
 70
     0
102
RTVSPost2010Prop53
 90
        2
102
RTVSPost2010PropOp53
 70
     1
102
RTVSPost2010Prop54
  1
strokes_ogs.tif
102
RTVSPost2010PropOp54
 70
     1
102
RTVSPost2010Prop55
280
     0
102
RTVSPost2010PropOp55
 70
     1
102
RTVSPost2010Prop56
140
1.0
102
RTVSPost2010PropOp56
 70
     1
102
RTVSPost2010Prop57
140
1.0
102
RTVSPost2010PropOp57
 70
     1
102
RTVSPropertyOp0
 70
     1
102
RTVSPropertyOp1
 70
     1
102
RTVSPropertyOp2
 70
     1
102
RTVSPropertyOp3
 70
     1
102
RTVSPropertyOp4
 70
     1
102
RTVSPropertyOp5
 70
     1
102
RTVSPropertyOp6
 70
     1
102
RTVSPropertyOp7
 70
     1
102
RTVSPropertyOp8
 70
     1
102
RTVSPropertyOp9
 70
     1
102
RTVSPropertyOp10
 70
     1
102
RTVSPropertyOp11
 70
     1
102
RTVSPropertyOp12
 70
     1
102
RTVSPropertyOp13
 70
     1
102
RTVSPropertyOp14
 70
     1
102
RTVSPropertyOp15
 70
     1
102
RTVSPropertyOp16
 70
     1
102
RTVSPropertyOp17
 70
     1
102
RTVSPropertyOp18
 70
     1
102
RTVSPropertyOp19
 70
     1
102
RTVSPropertyOp20
 70
     1
102
RTVSPropertyOp21
 70
     1
102
RTVSPropertyOp22
 70
     1
102
RTVSPropertyOp23
 70
     1
102
RTVSPropertyOp24
 70
     1
102
RTVSPropertyOp25
 70
     1
102
RTVSPropertyOp26
 70
     1
102
RTVSPropertyOp27
 70
     1
102
RTVSPropertyOp28
 70
     1
102
RTVSPropertyOp29
 70
     1
102
RTVSPropertyOp30
 70
     1
102
RTVSPropertyOp31
 70
     1
102
RTVSPropertyOp32
 70
     1
102
RTVSPropertyOp33
 70
     1
102
RTVSPropertyOp34
 70
     1
102
RTVSPropertyOp35
 70
     1
102
RTVSPropertyOp36
 70
     1
102
RTVSPropertyOp37
 70
     1
102
RTVSPropertyOp38
 70
     1
102
RTVSPropertyOp39
 70
     1
102
RTVSPropertyOp40
 70
     1
102
RTVSPropertyOp41
 70
     1
102
RTVSPropertyOp42
 70
     1
102
RTVSPropertyOp43
 70
     1
102
RTVSPropertyOp44
 70
     1
102
RTVSPropertyOp45
 70
     1
102
RTVSPropertyOp46
 70
     1
102
RTVSPropertyOp47
 70
     1
102
RTVSPropertyOp48
 70
     1
102
RTVSPropertyOp49
 70
     1
102
RTVSPropertyOp50
 70
     1
102
RTVSPropertyOp51
 70
     0
102
RTVSPropertyOp52
 70
     0
102
RTVSPropertyOp53
 70
     1
102
RTVSPropertyOp54
 70
     1
102
RTVSPropertyOp55
 70
     1
102
RTVSPropertyOp56
 70
     1
102
RTVSPropertyOp57
 70
     1
102
RTVSPropertyOp58
 70
     1
102
RTVSPropertyOp59
 70
     1
102
RTVSPropertyOp60
 70
     1
102
RTVSPropertyOp61
 70
     1
102
RTVSPropertyOp62
 70
     1
  0
XRECORD
  5
8401
102
{ACAD_REACTORS
330
8400
102
}
330
8400
100
AcDbXrecord
280
     1
102
RTVSPost2010Prop28
280
     0
102
RTVSPost2010PropOp28
 70
     1
102
RTVSPost2010Prop29
280
     1
102
RTVSPost2010PropOp29
 70
     1
102
RTVSPost2010Prop30
280
     1
102
RTVSPost2010PropOp30
 70
     1
102
RTVSPost2010Prop31
280
     0
102
RTVSPost2010PropOp31
 70
     1
102
RTVSPost2010Prop32
280
     0
102
RTVSPost2010PropOp32
 70
     1
102
RTVSPost2010Prop33
280
     0
102
RTVSPost2010PropOp33
 70
     1
102
RTVSPost2010Prop34
280
     0
102
RTVSPost2010PropOp34
 70
     1
102
RTVSPost2010Prop35
280
     0
102
RTVSPost2010PropOp35
 70
     1
102
RTVSPost2010Prop36
280
     0
102
RTVSPost2010PropOp36
 70
     1
102
RTVSPost2010Prop37
 90
       50
102
RTVSPost2010PropOp37
 70
     1
102
RTVSPost2010Prop38
140
0.0
102
RTVSPost2010PropOp38
 70
     1
102
RTVSPost2010Prop39
140
1.0
102
RTVSPost2010PropOp39
 70
     1
102
RTVSPost2010Prop40
 90
        0
102
RTVSPost2010PropOp40
 70
     1
102
RTVSPost2010Prop41ColorIndex
 90
       18
102
RTVSPost2010Prop41ColorRGB
 90
        0
102
RTVSPost2010PropOp41
 70
     1
102
RTVSPost2010Prop42
 90
       50
102
RTVSPost2010PropOp42
 70
     1
102
RTVSPost2010Prop43
 90
        3
102
RTVSPost2010PropOp43
 70
     1
102
RTVSPost2010Prop44ColorIndex
 90
        5
102
RTVSPost2010Prop44ColorRGB
 90
      255
102
RTVSPost2010PropOp44
 70
     1
102
RTVSPost2010Prop45
280
     0
102
RTVSPost2010PropOp45
 70
     1
102
RTVSPost2010Prop46
 90
       50
102
RTVSPost2010PropOp46
 70
     1
102
RTVSPost2010Prop47
 90
       50
102
RTVSPost2010PropOp47
 70
     1
102
RTVSPost2010Prop48
 90
       50
102
RTVSPost2010PropOp48
 70
     1
102
RTVSPost2010Prop49
280
     0
102
RTVSPost2010PropOp49
 70
     1
102
RTVSPost2010Prop50
 90
       50
102
RTVSPost2010PropOp50
 70
     1
102
RTVSPost2010Prop51ColorIndex
 90
      256
102
RTVSPost2010Prop51ColorRGB
 90
-16777216
102
RTVSPost2010PropOp51
 70
     0
102
RTVSPost2010Prop52
140
1.0
102
RTVSPost2010PropOp52
 70
     0
102
RTVSPost2010Prop53
 90
        2
102
RTVSPost2010PropOp53
 70
     1
102
RTVSPost2010Prop54
  1
strokes_ogs.tif
102
RTVSPost2010PropOp54
 70
     1
102
RTVSPost2010Prop55
280
     0
102
RTVSPost2010PropOp55
 70
     1
102
RTVSPost2010Prop56
140
1.0
102
RTVSPost2010PropOp56
 70
     1
102
RTVSPost2010Prop57
140
1.0
102
RTVSPost2010PropOp57
 70
     1
102
RTVSPropertyOp0
 70
     1
102
RTVSPropertyOp1
 70
     1
102
RTVSPropertyOp2
 70
     1
102
RTVSPropertyOp3
 70
     1
102
RTVSPropertyOp4
 70
     1
102
RTVSPropertyOp5
 70
     1
102
RTVSPropertyOp6
 70
     1
102
RTVSPropertyOp7
 70
     1
102
RTVSPropertyOp8
 70
     1
102
RTVSPropertyOp9
 70
     1
102
RTVSPropertyOp10
 70
     1
102
RTVSPropertyOp11
 70
     1
102
RTVSPropertyOp12
 70
     1
102
RTVSPropertyOp13
 70
     1
102
RTVSPropertyOp14
 70
     1
102
RTVSPropertyOp15
 70
     1
102
RTVSPropertyOp16
 70
     1
102
RTVSPropertyOp17
 70
     1
102
RTVSPropertyOp18
 70
     1
102
RTVSPropertyOp19
 70
     1
102
RTVSPropertyOp20
 70
     1
102
RTVSPropertyOp21
 70
     1
102
RTVSPropertyOp22
 70
     1
102
RTVSPropertyOp23
 70
     1
102
RTVSPropertyOp24
 70
     1
102
RTVSPropertyOp25
 70
     1
102
RTVSPropertyOp26
 70
     1
102
RTVSPropertyOp27
 70
     1
102
RTVSPropertyOp28
 70
     1
102
RTVSPropertyOp29
 70
     1
102
RTVSPropertyOp30
 70
     1
102
RTVSPropertyOp31
 70
     1
102
RTVSPropertyOp32
 70
     1
102
RTVSPropertyOp33
 70
     1
102
RTVSPropertyOp34
 70
     1
102
RTVSPropertyOp35
 70
     1
102
RTVSPropertyOp36
 70
     1
102
RTVSPropertyOp37
 70
     1
102
RTVSPropertyOp38
 70
     1
102
RTVSPropertyOp39
 70
     1
102
RTVSPropertyOp40
 70
     1
102
RTVSPropertyOp41
 70
     1
102
RTVSPropertyOp42
 70
     1
102
RTVSPropertyOp43
 70
     1
102
RTVSPropertyOp44
 70
     1
102
RTVSPropertyOp45
 70
     1
102
RTVSPropertyOp46
 70
     1
102
RTVSPropertyOp47
 70
     1
102
RTVSPropertyOp48
 70
     1
102
RTVSPropertyOp49
 70
     1
102
RTVSPropertyOp50
 70
     1
102
RTVSPropertyOp51
 70
     0
102
RTVSPropertyOp52
 70
     0
102
RTVSPropertyOp53
 70
     1
102
RTVSPropertyOp54
 70
     1
102
RTVSPropertyOp55
 70
     1
102
RTVSPropertyOp56
 70
     1
102
RTVSPropertyOp57
 70
     1
102
RTVSPropertyOp58
 70
     1
102
RTVSPropertyOp59
 70
     1
102
RTVSPropertyOp60
 70
     1
102
RTVSPropertyOp61
 70
     1
102
RTVSPropertyOp62
 70
     1
  0
XRECORD
  5
83FF
102
{ACAD_REACTORS
330
83FE
102
}
330
83FE
100
AcDbXrecord
280
     1
102
RTVSPost2010Prop28
280
     0
102
RTVSPost2010PropOp28
 70
     1
102
RTVSPost2010Prop29
280
     1
102
RTVSPost2010PropOp29
 70
     1
102
RTVSPost2010Prop30
280
     1
102
RTVSPost2010PropOp30
 70
     1
102
RTVSPost2010Prop31
280
     0
102
RTVSPost2010PropOp31
 70
     1
102
RTVSPost2010Prop32
280
     0
102
RTVSPost2010PropOp32
 70
     1
102
RTVSPost2010Prop33
280
     0
102
RTVSPost2010PropOp33
 70
     1
102
RTVSPost2010Prop34
280
     0
102
RTVSPost2010PropOp34
 70
     1
102
RTVSPost2010Prop35
280
     0
102
RTVSPost2010PropOp35
 70
     1
102
RTVSPost2010Prop36
280
     0
102
RTVSPost2010PropOp36
 70
     1
102
RTVSPost2010Prop37
 90
       50
102
RTVSPost2010PropOp37
 70
     1
102
RTVSPost2010Prop38
140
0.0
102
RTVSPost2010PropOp38
 70
     1
102
RTVSPost2010Prop39
140
1.0
102
RTVSPost2010PropOp39
 70
     1
102
RTVSPost2010Prop40
 90
        0
102
RTVSPost2010PropOp40
 70
     1
102
RTVSPost2010Prop41ColorIndex
 90
       18
102
RTVSPost2010Prop41ColorRGB
 90
        0
102
RTVSPost2010PropOp41
 70
     1
102
RTVSPost2010Prop42
 90
       50
102
RTVSPost2010PropOp42
 70
     1
102
RTVSPost2010Prop43
 90
        3
102
RTVSPost2010PropOp43
 70
     1
102
RTVSPost2010Prop44ColorIndex
 90
        5
102
RTVSPost2010Prop44ColorRGB
 90
      255
102
RTVSPost2010PropOp44
 70
     1
102
RTVSPost2010Prop45
280
     0
102
RTVSPost2010PropOp45
 70
     1
102
RTVSPost2010Prop46
 90
       50
102
RTVSPost2010PropOp46
 70
     1
102
RTVSPost2010Prop47
 90
       50
102
RTVSPost2010PropOp47
 70
     1
102
RTVSPost2010Prop48
 90
       50
102
RTVSPost2010PropOp48
 70
     1
102
RTVSPost2010Prop49
280
     0
102
RTVSPost2010PropOp49
 70
     1
102
RTVSPost2010Prop50
 90
       50
102
RTVSPost2010PropOp50
 70
     1
102
RTVSPost2010Prop51ColorIndex
 90
      256
102
RTVSPost2010Prop51ColorRGB
 90
-16777216
102
RTVSPost2010PropOp51
 70
     0
102
RTVSPost2010Prop52
140
1.0
102
RTVSPost2010PropOp52
 70
     0
102
RTVSPost2010Prop53
 90
        2
102
RTVSPost2010PropOp53
 70
     1
102
RTVSPost2010Prop54
  1
strokes_ogs.tif
102
RTVSPost2010PropOp54
 70
     1
102
RTVSPost2010Prop55
280
     0
102
RTVSPost2010PropOp55
 70
     1
102
RTVSPost2010Prop56
140
1.0
102
RTVSPost2010PropOp56
 70
     1
102
RTVSPost2010Prop57
140
1.0
102
RTVSPost2010PropOp57
 70
     1
102
RTVSPropertyOp0
 70
     1
102
RTVSPropertyOp1
 70
     1
102
RTVSPropertyOp2
 70
     1
102
RTVSPropertyOp3
 70
     1
102
RTVSPropertyOp4
 70
     1
102
RTVSPropertyOp5
 70
     1
102
RTVSPropertyOp6
 70
     1
102
RTVSPropertyOp7
 70
     1
102
RTVSPropertyOp8
 70
     1
102
RTVSPropertyOp9
 70
     1
102
RTVSPropertyOp10
 70
     1
102
RTVSPropertyOp11
 70
     1
102
RTVSPropertyOp12
 70
     1
102
RTVSPropertyOp13
 70
     1
102
RTVSPropertyOp14
 70
     1
102
RTVSPropertyOp15
 70
     1
102
RTVSPropertyOp16
 70
     1
102
RTVSPropertyOp17
 70
     1
102
RTVSPropertyOp18
 70
     1
102
RTVSPropertyOp19
 70
     1
102
RTVSPropertyOp20
 70
     1
102
RTVSPropertyOp21
 70
     1
102
RTVSPropertyOp22
 70
     1
102
RTVSPropertyOp23
 70
     1
102
RTVSPropertyOp24
 70
     1
102
RTVSPropertyOp25
 70
     1
102
RTVSPropertyOp26
 70
     1
102
RTVSPropertyOp27
 70
     1
102
RTVSPropertyOp28
 70
     1
102
RTVSPropertyOp29
 70
     1
102
RTVSPropertyOp30
 70
     1
102
RTVSPropertyOp31
 70
     1
102
RTVSPropertyOp32
 70
     1
102
RTVSPropertyOp33
 70
     1
102
RTVSPropertyOp34
 70
     1
102
RTVSPropertyOp35
 70
     1
102
RTVSPropertyOp36
 70
     1
102
RTVSPropertyOp37
 70
     1
102
RTVSPropertyOp38
 70
     1
102
RTVSPropertyOp39
 70
     1
102
RTVSPropertyOp40
 70
     1
102
RTVSPropertyOp41
 70
     1
102
RTVSPropertyOp42
 70
     1
102
RTVSPropertyOp43
 70
     1
102
RTVSPropertyOp44
 70
     1
102
RTVSPropertyOp45
 70
     1
102
RTVSPropertyOp46
 70
     1
102
RTVSPropertyOp47
 70
     1
102
RTVSPropertyOp48
 70
     1
102
RTVSPropertyOp49
 70
     1
102
RTVSPropertyOp50
 70
     1
102
RTVSPropertyOp51
 70
     0
102
RTVSPropertyOp52
 70
     0
102
RTVSPropertyOp53
 70
     1
102
RTVSPropertyOp54
 70
     1
102
RTVSPropertyOp55
 70
     1
102
RTVSPropertyOp56
 70
     1
102
RTVSPropertyOp57
 70
     1
102
RTVSPropertyOp58
 70
     1
102
RTVSPropertyOp59
 70
     1
102
RTVSPropertyOp60
 70
     1
102
RTVSPropertyOp61
 70
     1
102
RTVSPropertyOp62
 70
     1
  0
XRECORD
  5
83F9
102
{ACAD_REACTORS
330
83F8
102
}
330
83F8
100
AcDbXrecord
280
     1
102
RTVSPost2010Prop28
280
     0
102
RTVSPost2010PropOp28
 70
     1
102
RTVSPost2010Prop29
280
     1
102
RTVSPost2010PropOp29
 70
     1
102
RTVSPost2010Prop30
280
     1
102
RTVSPost2010PropOp30
 70
     1
102
RTVSPost2010Prop31
280
     0
102
RTVSPost2010PropOp31
 70
     1
102
RTVSPost2010Prop32
280
     0
102
RTVSPost2010PropOp32
 70
     1
102
RTVSPost2010Prop33
280
     0
102
RTVSPost2010PropOp33
 70
     1
102
RTVSPost2010Prop34
280
     0
102
RTVSPost2010PropOp34
 70
     1
102
RTVSPost2010Prop35
280
     0
102
RTVSPost2010PropOp35
 70
     1
102
RTVSPost2010Prop36
280
     0
102
RTVSPost2010PropOp36
 70
     1
102
RTVSPost2010Prop37
 90
       50
102
RTVSPost2010PropOp37
 70
     1
102
RTVSPost2010Prop38
140
0.0
102
RTVSPost2010PropOp38
 70
     1
102
RTVSPost2010Prop39
140
1.0
102
RTVSPost2010PropOp39
 70
     1
102
RTVSPost2010Prop40
 90
        0
102
RTVSPost2010PropOp40
 70
     1
102
RTVSPost2010Prop41ColorIndex
 90
       18
102
RTVSPost2010Prop41ColorRGB
 90
        0
102
RTVSPost2010PropOp41
 70
     1
102
RTVSPost2010Prop42
 90
       50
102
RTVSPost2010PropOp42
 70
     1
102
RTVSPost2010Prop43
 90
        3
102
RTVSPost2010PropOp43
 70
     1
102
RTVSPost2010Prop44ColorIndex
 90
        5
102
RTVSPost2010Prop44ColorRGB
 90
      255
102
RTVSPost2010PropOp44
 70
     1
102
RTVSPost2010Prop45
280
     0
102
RTVSPost2010PropOp45
 70
     1
102
RTVSPost2010Prop46
 90
       50
102
RTVSPost2010PropOp46
 70
     1
102
RTVSPost2010Prop47
 90
       50
102
RTVSPost2010PropOp47
 70
     1
102
RTVSPost2010Prop48
 90
       50
102
RTVSPost2010PropOp48
 70
     1
102
RTVSPost2010Prop49
280
     0
102
RTVSPost2010PropOp49
 70
     1
102
RTVSPost2010Prop50
 90
       50
102
RTVSPost2010PropOp50
 70
     1
102
RTVSPost2010Prop51ColorIndex
 90
      256
102
RTVSPost2010Prop51ColorRGB
 90
-16777216
102
RTVSPost2010PropOp51
 70
     0
102
RTVSPost2010Prop52
140
1.0
102
RTVSPost2010PropOp52
 70
     0
102
RTVSPost2010Prop53
 90
        2
102
RTVSPost2010PropOp53
 70
     1
102
RTVSPost2010Prop54
  1
strokes_ogs.tif
102
RTVSPost2010PropOp54
 70
     1
102
RTVSPost2010Prop55
280
     0
102
RTVSPost2010PropOp55
 70
     1
102
RTVSPost2010Prop56
140
1.0
102
RTVSPost2010PropOp56
 70
     1
102
RTVSPost2010Prop57
140
1.0
102
RTVSPost2010PropOp57
 70
     1
102
RTVSPropertyOp0
 70
     1
102
RTVSPropertyOp1
 70
     1
102
RTVSPropertyOp2
 70
     1
102
RTVSPropertyOp3
 70
     1
102
RTVSPropertyOp4
 70
     1
102
RTVSPropertyOp5
 70
     1
102
RTVSPropertyOp6
 70
     1
102
RTVSPropertyOp7
 70
     1
102
RTVSPropertyOp8
 70
     1
102
RTVSPropertyOp9
 70
     1
102
RTVSPropertyOp10
 70
     1
102
RTVSPropertyOp11
 70
     1
102
RTVSPropertyOp12
 70
     1
102
RTVSPropertyOp13
 70
     1
102
RTVSPropertyOp14
 70
     1
102
RTVSPropertyOp15
 70
     1
102
RTVSPropertyOp16
 70
     1
102
RTVSPropertyOp17
 70
     1
102
RTVSPropertyOp18
 70
     1
102
RTVSPropertyOp19
 70
     1
102
RTVSPropertyOp20
 70
     1
102
RTVSPropertyOp21
 70
     1
102
RTVSPropertyOp22
 70
     1
102
RTVSPropertyOp23
 70
     1
102
RTVSPropertyOp24
 70
     1
102
RTVSPropertyOp25
 70
     1
102
RTVSPropertyOp26
 70
     1
102
RTVSPropertyOp27
 70
     1
102
RTVSPropertyOp28
 70
     1
102
RTVSPropertyOp29
 70
     1
102
RTVSPropertyOp30
 70
     1
102
RTVSPropertyOp31
 70
     1
102
RTVSPropertyOp32
 70
     1
102
RTVSPropertyOp33
 70
     1
102
RTVSPropertyOp34
 70
     1
102
RTVSPropertyOp35
 70
     1
102
RTVSPropertyOp36
 70
     1
102
RTVSPropertyOp37
 70
     1
102
RTVSPropertyOp38
 70
     1
102
RTVSPropertyOp39
 70
     1
102
RTVSPropertyOp40
 70
     1
102
RTVSPropertyOp41
 70
     1
102
RTVSPropertyOp42
 70
     1
102
RTVSPropertyOp43
 70
     1
102
RTVSPropertyOp44
 70
     1
102
RTVSPropertyOp45
 70
     1
102
RTVSPropertyOp46
 70
     1
102
RTVSPropertyOp47
 70
     1
102
RTVSPropertyOp48
 70
     1
102
RTVSPropertyOp49
 70
     1
102
RTVSPropertyOp50
 70
     1
102
RTVSPropertyOp51
 70
     0
102
RTVSPropertyOp52
 70
     0
102
RTVSPropertyOp53
 70
     1
102
RTVSPropertyOp54
 70
     1
102
RTVSPropertyOp55
 70
     1
102
RTVSPropertyOp56
 70
     1
102
RTVSPropertyOp57
 70
     1
102
RTVSPropertyOp58
 70
     1
102
RTVSPropertyOp59
 70
     1
102
RTVSPropertyOp60
 70
     1
102
RTVSPropertyOp61
 70
     1
102
RTVSPropertyOp62
 70
     1
  0
XRECORD
  5
83FB
102
{ACAD_REACTORS
330
83FA
102
}
330
83FA
100
AcDbXrecord
280
     1
102
RTVSPost2010Prop28
280
     0
102
RTVSPost2010PropOp28
 70
     1
102
RTVSPost2010Prop29
280
     1
102
RTVSPost2010PropOp29
 70
     1
102
RTVSPost2010Prop30
280
     1
102
RTVSPost2010PropOp30
 70
     1
102
RTVSPost2010Prop31
280
     0
102
RTVSPost2010PropOp31
 70
     1
102
RTVSPost2010Prop32
280
     0
102
RTVSPost2010PropOp32
 70
     1
102
RTVSPost2010Prop33
280
     0
102
RTVSPost2010PropOp33
 70
     1
102
RTVSPost2010Prop34
280
     0
102
RTVSPost2010PropOp34
 70
     1
102
RTVSPost2010Prop35
280
     0
102
RTVSPost2010PropOp35
 70
     1
102
RTVSPost2010Prop36
280
     0
102
RTVSPost2010PropOp36
 70
     1
102
RTVSPost2010Prop37
 90
       50
102
RTVSPost2010PropOp37
 70
     1
102
RTVSPost2010Prop38
140
0.0
102
RTVSPost2010PropOp38
 70
     1
102
RTVSPost2010Prop39
140
1.0
102
RTVSPost2010PropOp39
 70
     1
102
RTVSPost2010Prop40
 90
        0
102
RTVSPost2010PropOp40
 70
     1
102
RTVSPost2010Prop41ColorIndex
 90
       18
102
RTVSPost2010Prop41ColorRGB
 90
        0
102
RTVSPost2010PropOp41
 70
     1
102
RTVSPost2010Prop42
 90
       50
102
RTVSPost2010PropOp42
 70
     1
102
RTVSPost2010Prop43
 90
        3
102
RTVSPost2010PropOp43
 70
     1
102
RTVSPost2010Prop44ColorIndex
 90
        5
102
RTVSPost2010Prop44ColorRGB
 90
      255
102
RTVSPost2010PropOp44
 70
     1
102
RTVSPost2010Prop45
280
     0
102
RTVSPost2010PropOp45
 70
     1
102
RTVSPost2010Prop46
 90
       50
102
RTVSPost2010PropOp46
 70
     1
102
RTVSPost2010Prop47
 90
       50
102
RTVSPost2010PropOp47
 70
     1
102
RTVSPost2010Prop48
 90
       50
102
RTVSPost2010PropOp48
 70
     1
102
RTVSPost2010Prop49
280
     0
102
RTVSPost2010PropOp49
 70
     1
102
RTVSPost2010Prop50
 90
       50
102
RTVSPost2010PropOp50
 70
     1
102
RTVSPost2010Prop51ColorIndex
 90
      256
102
RTVSPost2010Prop51ColorRGB
 90
-16777216
102
RTVSPost2010PropOp51
 70
     0
102
RTVSPost2010Prop52
140
1.0
102
RTVSPost2010PropOp52
 70
     0
102
RTVSPost2010Prop53
 90
        2
102
RTVSPost2010PropOp53
 70
     1
102
RTVSPost2010Prop54
  1
strokes_ogs.tif
102
RTVSPost2010PropOp54
 70
     1
102
RTVSPost2010Prop55
280
     0
102
RTVSPost2010PropOp55
 70
     1
102
RTVSPost2010Prop56
140
1.0
102
RTVSPost2010PropOp56
 70
     1
102
RTVSPost2010Prop57
140
1.0
102
RTVSPost2010PropOp57
 70
     1
102
RTVSPropertyOp0
 70
     1
102
RTVSPropertyOp1
 70
     1
102
RTVSPropertyOp2
 70
     1
102
RTVSPropertyOp3
 70
     1
102
RTVSPropertyOp4
 70
     1
102
RTVSPropertyOp5
 70
     1
102
RTVSPropertyOp6
 70
     1
102
RTVSPropertyOp7
 70
     1
102
RTVSPropertyOp8
 70
     1
102
RTVSPropertyOp9
 70
     1
102
RTVSPropertyOp10
 70
     1
102
RTVSPropertyOp11
 70
     1
102
RTVSPropertyOp12
 70
     1
102
RTVSPropertyOp13
 70
     1
102
RTVSPropertyOp14
 70
     1
102
RTVSPropertyOp15
 70
     1
102
RTVSPropertyOp16
 70
     1
102
RTVSPropertyOp17
 70
     1
102
RTVSPropertyOp18
 70
     1
102
RTVSPropertyOp19
 70
     1
102
RTVSPropertyOp20
 70
     1
102
RTVSPropertyOp21
 70
     1
102
RTVSPropertyOp22
 70
     1
102
RTVSPropertyOp23
 70
     1
102
RTVSPropertyOp24
 70
     1
102
RTVSPropertyOp25
 70
     1
102
RTVSPropertyOp26
 70
     1
102
RTVSPropertyOp27
 70
     1
102
RTVSPropertyOp28
 70
     1
102
RTVSPropertyOp29
 70
     1
102
RTVSPropertyOp30
 70
     1
102
RTVSPropertyOp31
 70
     1
102
RTVSPropertyOp32
 70
     1
102
RTVSPropertyOp33
 70
     1
102
RTVSPropertyOp34
 70
     1
102
RTVSPropertyOp35
 70
     1
102
RTVSPropertyOp36
 70
     1
102
RTVSPropertyOp37
 70
     1
102
RTVSPropertyOp38
 70
     1
102
RTVSPropertyOp39
 70
     1
102
RTVSPropertyOp40
 70
     1
102
RTVSPropertyOp41
 70
     1
102
RTVSPropertyOp42
 70
     1
102
RTVSPropertyOp43
 70
     1
102
RTVSPropertyOp44
 70
     1
102
RTVSPropertyOp45
 70
     1
102
RTVSPropertyOp46
 70
     1
102
RTVSPropertyOp47
 70
     1
102
RTVSPropertyOp48
 70
     1
102
RTVSPropertyOp49
 70
     1
102
RTVSPropertyOp50
 70
     1
102
RTVSPropertyOp51
 70
     0
102
RTVSPropertyOp52
 70
     0
102
RTVSPropertyOp53
 70
     1
102
RTVSPropertyOp54
 70
     1
102
RTVSPropertyOp55
 70
     1
102
RTVSPropertyOp56
 70
     1
102
RTVSPropertyOp57
 70
     1
102
RTVSPropertyOp58
 70
     1
102
RTVSPropertyOp59
 70
     1
102
RTVSPropertyOp60
 70
     1
102
RTVSPropertyOp61
 70
     1
102
RTVSPropertyOp62
 70
     1
  0
XRECORD
  5
83E9
102
{ACAD_REACTORS
330
83E8
102
}
330
83E8
100
AcDbXrecord
280
     1
102
RTVSPost2010Prop28
280
     0
102
RTVSPost2010PropOp28
 70
     1
102
RTVSPost2010Prop29
280
     1
102
RTVSPost2010PropOp29
 70
     1
102
RTVSPost2010Prop30
280
     1
102
RTVSPost2010PropOp30
 70
     1
102
RTVSPost2010Prop31
280
     0
102
RTVSPost2010PropOp31
 70
     1
102
RTVSPost2010Prop32
280
     0
102
RTVSPost2010PropOp32
 70
     1
102
RTVSPost2010Prop33
280
     0
102
RTVSPost2010PropOp33
 70
     1
102
RTVSPost2010Prop34
280
     0
102
RTVSPost2010PropOp34
 70
     1
102
RTVSPost2010Prop35
280
     0
102
RTVSPost2010PropOp35
 70
     1
102
RTVSPost2010Prop36
280
     0
102
RTVSPost2010PropOp36
 70
     1
102
RTVSPost2010Prop37
 90
       50
102
RTVSPost2010PropOp37
 70
     1
102
RTVSPost2010Prop38
140
0.0
102
RTVSPost2010PropOp38
 70
     1
102
RTVSPost2010Prop39
140
1.0
102
RTVSPost2010PropOp39
 70
     1
102
RTVSPost2010Prop40
 90
        0
102
RTVSPost2010PropOp40
 70
     1
102
RTVSPost2010Prop41ColorIndex
 90
       18
102
RTVSPost2010Prop41ColorRGB
 90
        0
102
RTVSPost2010PropOp41
 70
     1
102
RTVSPost2010Prop42
 90
       50
102
RTVSPost2010PropOp42
 70
     1
102
RTVSPost2010Prop43
 90
        3
102
RTVSPost2010PropOp43
 70
     1
102
RTVSPost2010Prop44ColorIndex
 90
        5
102
RTVSPost2010Prop44ColorRGB
 90
      255
102
RTVSPost2010PropOp44
 70
     1
102
RTVSPost2010Prop45
280
     0
102
RTVSPost2010PropOp45
 70
     1
102
RTVSPost2010Prop46
 90
       50
102
RTVSPost2010PropOp46
 70
     1
102
RTVSPost2010Prop47
 90
       50
102
RTVSPost2010PropOp47
 70
     1
102
RTVSPost2010Prop48
 90
       50
102
RTVSPost2010PropOp48
 70
     1
102
RTVSPost2010Prop49
280
     0
102
RTVSPost2010PropOp49
 70
     1
102
RTVSPost2010Prop50
 90
       50
102
RTVSPost2010PropOp50
 70
     1
102
RTVSPost2010Prop51ColorIndex
 90
      256
102
RTVSPost2010Prop51ColorRGB
 90
-16777216
102
RTVSPost2010PropOp51
 70
     0
102
RTVSPost2010Prop52
140
1.0
102
RTVSPost2010PropOp52
 70
     0
102
RTVSPost2010Prop53
 90
        2
102
RTVSPost2010PropOp53
 70
     1
102
RTVSPost2010Prop54
  1
strokes_ogs.tif
102
RTVSPost2010PropOp54
 70
     1
102
RTVSPost2010Prop55
280
     0
102
RTVSPost2010PropOp55
 70
     1
102
RTVSPost2010Prop56
140
1.0
102
RTVSPost2010PropOp56
 70
     1
102
RTVSPost2010Prop57
140
1.0
102
RTVSPost2010PropOp57
 70
     1
102
RTVSPropertyOp0
 70
     1
102
RTVSPropertyOp1
 70
     1
102
RTVSPropertyOp2
 70
     1
102
RTVSPropertyOp3
 70
     1
102
RTVSPropertyOp4
 70
     1
102
RTVSPropertyOp5
 70
     1
102
RTVSPropertyOp6
 70
     1
102
RTVSPropertyOp7
 70
     1
102
RTVSPropertyOp8
 70
     1
102
RTVSPropertyOp9
 70
     1
102
RTVSPropertyOp10
 70
     1
102
RTVSPropertyOp11
 70
     1
102
RTVSPropertyOp12
 70
     1
102
RTVSPropertyOp13
 70
     1
102
RTVSPropertyOp14
 70
     1
102
RTVSPropertyOp15
 70
     1
102
RTVSPropertyOp16
 70
     1
102
RTVSPropertyOp17
 70
     1
102
RTVSPropertyOp18
 70
     1
102
RTVSPropertyOp19
 70
     1
102
RTVSPropertyOp20
 70
     1
102
RTVSPropertyOp21
 70
     1
102
RTVSPropertyOp22
 70
     1
102
RTVSPropertyOp23
 70
     1
102
RTVSPropertyOp24
 70
     1
102
RTVSPropertyOp25
 70
     1
102
RTVSPropertyOp26
 70
     1
102
RTVSPropertyOp27
 70
     1
102
RTVSPropertyOp28
 70
     1
102
RTVSPropertyOp29
 70
     1
102
RTVSPropertyOp30
 70
     1
102
RTVSPropertyOp31
 70
     1
102
RTVSPropertyOp32
 70
     1
102
RTVSPropertyOp33
 70
     1
102
RTVSPropertyOp34
 70
     1
102
RTVSPropertyOp35
 70
     1
102
RTVSPropertyOp36
 70
     1
102
RTVSPropertyOp37
 70
     1
102
RTVSPropertyOp38
 70
     1
102
RTVSPropertyOp39
 70
     1
102
RTVSPropertyOp40
 70
     1
102
RTVSPropertyOp41
 70
     1
102
RTVSPropertyOp42
 70
     1
102
RTVSPropertyOp43
 70
     1
102
RTVSPropertyOp44
 70
     1
102
RTVSPropertyOp45
 70
     1
102
RTVSPropertyOp46
 70
     1
102
RTVSPropertyOp47
 70
     1
102
RTVSPropertyOp48
 70
     1
102
RTVSPropertyOp49
 70
     1
102
RTVSPropertyOp50
 70
     1
102
RTVSPropertyOp51
 70
     0
102
RTVSPropertyOp52
 70
     0
102
RTVSPropertyOp53
 70
     1
102
RTVSPropertyOp54
 70
     1
102
RTVSPropertyOp55
 70
     1
102
RTVSPropertyOp56
 70
     1
102
RTVSPropertyOp57
 70
     1
102
RTVSPropertyOp58
 70
     1
102
RTVSPropertyOp59
 70
     1
102
RTVSPropertyOp60
 70
     1
102
RTVSPropertyOp61
 70
     1
102
RTVSPropertyOp62
 70
     1
  0
XRECORD
  5
83DD
102
{ACAD_REACTORS
330
83DC
102
}
330
83DC
100
AcDbXrecord
280
     1
102
RTVSPost2010Prop28
280
     0
102
RTVSPost2010PropOp28
 70
     1
102
RTVSPost2010Prop29
280
     1
102
RTVSPost2010PropOp29
 70
     1
102
RTVSPost2010Prop30
280
     1
102
RTVSPost2010PropOp30
 70
     1
102
RTVSPost2010Prop31
280
     0
102
RTVSPost2010PropOp31
 70
     1
102
RTVSPost2010Prop32
280
     0
102
RTVSPost2010PropOp32
 70
     1
102
RTVSPost2010Prop33
280
     0
102
RTVSPost2010PropOp33
 70
     1
102
RTVSPost2010Prop34
280
     0
102
RTVSPost2010PropOp34
 70
     1
102
RTVSPost2010Prop35
280
     0
102
RTVSPost2010PropOp35
 70
     1
102
RTVSPost2010Prop36
280
     0
102
RTVSPost2010PropOp36
 70
     1
102
RTVSPost2010Prop37
 90
       50
102
RTVSPost2010PropOp37
 70
     1
102
RTVSPost2010Prop38
140
0.0
102
RTVSPost2010PropOp38
 70
     1
102
RTVSPost2010Prop39
140
1.0
102
RTVSPost2010PropOp39
 70
     1
102
RTVSPost2010Prop40
 90
        0
102
RTVSPost2010PropOp40
 70
     1
102
RTVSPost2010Prop41ColorIndex
 90
       18
102
RTVSPost2010Prop41ColorRGB
 90
        0
102
RTVSPost2010PropOp41
 70
     1
102
RTVSPost2010Prop42
 90
       50
102
RTVSPost2010PropOp42
 70
     1
102
RTVSPost2010Prop43
 90
        3
102
RTVSPost2010PropOp43
 70
     1
102
RTVSPost2010Prop44ColorIndex
 90
        5
102
RTVSPost2010Prop44ColorRGB
 90
      255
102
RTVSPost2010PropOp44
 70
     1
102
RTVSPost2010Prop45
280
     0
102
RTVSPost2010PropOp45
 70
     1
102
RTVSPost2010Prop46
 90
       50
102
RTVSPost2010PropOp46
 70
     1
102
RTVSPost2010Prop47
 90
       50
102
RTVSPost2010PropOp47
 70
     1
102
RTVSPost2010Prop48
 90
       50
102
RTVSPost2010PropOp48
 70
     1
102
RTVSPost2010Prop49
280
     0
102
RTVSPost2010PropOp49
 70
     1
102
RTVSPost2010Prop50
 90
       50
102
RTVSPost2010PropOp50
 70
     1
102
RTVSPost2010Prop51ColorIndex
 90
      256
102
RTVSPost2010Prop51ColorRGB
 90
-16777216
102
RTVSPost2010PropOp51
 70
     0
102
RTVSPost2010Prop52
140
1.0
102
RTVSPost2010PropOp52
 70
     0
102
RTVSPost2010Prop53
 90
        2
102
RTVSPost2010PropOp53
 70
     1
102
RTVSPost2010Prop54
  1
strokes_ogs.tif
102
RTVSPost2010PropOp54
 70
     1
102
RTVSPost2010Prop55
280
     0
102
RTVSPost2010PropOp55
 70
     1
102
RTVSPost2010Prop56
140
1.0
102
RTVSPost2010PropOp56
 70
     1
102
RTVSPost2010Prop57
140
1.0
102
RTVSPost2010PropOp57
 70
     1
102
RTVSPropertyOp0
 70
     1
102
RTVSPropertyOp1
 70
     1
102
RTVSPropertyOp2
 70
     1
102
RTVSPropertyOp3
 70
     1
102
RTVSPropertyOp4
 70
     1
102
RTVSPropertyOp5
 70
     1
102
RTVSPropertyOp6
 70
     1
102
RTVSPropertyOp7
 70
     1
102
RTVSPropertyOp8
 70
     1
102
RTVSPropertyOp9
 70
     1
102
RTVSPropertyOp10
 70
     1
102
RTVSPropertyOp11
 70
     1
102
RTVSPropertyOp12
 70
     1
102
RTVSPropertyOp13
 70
     1
102
RTVSPropertyOp14
 70
     1
102
RTVSPropertyOp15
 70
     1
102
RTVSPropertyOp16
 70
     1
102
RTVSPropertyOp17
 70
     1
102
RTVSPropertyOp18
 70
     1
102
RTVSPropertyOp19
 70
     1
102
RTVSPropertyOp20
 70
     1
102
RTVSPropertyOp21
 70
     1
102
RTVSPropertyOp22
 70
     1
102
RTVSPropertyOp23
 70
     1
102
RTVSPropertyOp24
 70
     1
102
RTVSPropertyOp25
 70
     1
102
RTVSPropertyOp26
 70
     1
102
RTVSPropertyOp27
 70
     1
102
RTVSPropertyOp28
 70
     1
102
RTVSPropertyOp29
 70
     1
102
RTVSPropertyOp30
 70
     1
102
RTVSPropertyOp31
 70
     1
102
RTVSPropertyOp32
 70
     1
102
RTVSPropertyOp33
 70
     1
102
RTVSPropertyOp34
 70
     1
102
RTVSPropertyOp35
 70
     1
102
RTVSPropertyOp36
 70
     1
102
RTVSPropertyOp37
 70
     1
102
RTVSPropertyOp38
 70
     1
102
RTVSPropertyOp39
 70
     1
102
RTVSPropertyOp40
 70
     1
102
RTVSPropertyOp41
 70
     1
102
RTVSPropertyOp42
 70
     1
102
RTVSPropertyOp43
 70
     1
102
RTVSPropertyOp44
 70
     1
102
RTVSPropertyOp45
 70
     1
102
RTVSPropertyOp46
 70
     1
102
RTVSPropertyOp47
 70
     1
102
RTVSPropertyOp48
 70
     1
102
RTVSPropertyOp49
 70
     1
102
RTVSPropertyOp50
 70
     1
102
RTVSPropertyOp51
 70
     0
102
RTVSPropertyOp52
 70
     0
102
RTVSPropertyOp53
 70
     1
102
RTVSPropertyOp54
 70
     1
102
RTVSPropertyOp55
 70
     1
102
RTVSPropertyOp56
 70
     1
102
RTVSPropertyOp57
 70
     1
102
RTVSPropertyOp58
 70
     1
102
RTVSPropertyOp59
 70
     1
102
RTVSPropertyOp60
 70
     1
102
RTVSPropertyOp61
 70
     1
102
RTVSPropertyOp62
 70
     1
  0
XRECORD
  5
83FD
102
{ACAD_REACTORS
330
83FC
102
}
330
83FC
100
AcDbXrecord
280
     1
102
RTVSPost2010Prop28
280
     0
102
RTVSPost2010PropOp28
 70
     1
102
RTVSPost2010Prop29
280
     1
102
RTVSPost2010PropOp29
 70
     1
102
RTVSPost2010Prop30
280
     1
102
RTVSPost2010PropOp30
 70
     1
102
RTVSPost2010Prop31
280
     0
102
RTVSPost2010PropOp31
 70
     1
102
RTVSPost2010Prop32
280
     0
102
RTVSPost2010PropOp32
 70
     1
102
RTVSPost2010Prop33
280
     0
102
RTVSPost2010PropOp33
 70
     1
102
RTVSPost2010Prop34
280
     0
102
RTVSPost2010PropOp34
 70
     1
102
RTVSPost2010Prop35
280
     0
102
RTVSPost2010PropOp35
 70
     1
102
RTVSPost2010Prop36
280
     0
102
RTVSPost2010PropOp36
 70
     1
102
RTVSPost2010Prop37
 90
       50
102
RTVSPost2010PropOp37
 70
     1
102
RTVSPost2010Prop38
140
0.0
102
RTVSPost2010PropOp38
 70
     1
102
RTVSPost2010Prop39
140
1.0
102
RTVSPost2010PropOp39
 70
     1
102
RTVSPost2010Prop40
 90
        0
102
RTVSPost2010PropOp40
 70
     1
102
RTVSPost2010Prop41ColorIndex
 90
       18
102
RTVSPost2010Prop41ColorRGB
 90
        0
102
RTVSPost2010PropOp41
 70
     1
102
RTVSPost2010Prop42
 90
       50
102
RTVSPost2010PropOp42
 70
     1
102
RTVSPost2010Prop43
 90
        3
102
RTVSPost2010PropOp43
 70
     1
102
RTVSPost2010Prop44ColorIndex
 90
        5
102
RTVSPost2010Prop44ColorRGB
 90
      255
102
RTVSPost2010PropOp44
 70
     1
102
RTVSPost2010Prop45
280
     0
102
RTVSPost2010PropOp45
 70
     1
102
RTVSPost2010Prop46
 90
       50
102
RTVSPost2010PropOp46
 70
     1
102
RTVSPost2010Prop47
 90
       50
102
RTVSPost2010PropOp47
 70
     1
102
RTVSPost2010Prop48
 90
       50
102
RTVSPost2010PropOp48
 70
     1
102
RTVSPost2010Prop49
280
     0
102
RTVSPost2010PropOp49
 70
     1
102
RTVSPost2010Prop50
 90
       50
102
RTVSPost2010PropOp50
 70
     1
102
RTVSPost2010Prop51ColorIndex
 90
      256
102
RTVSPost2010Prop51ColorRGB
 90
-16777216
102
RTVSPost2010PropOp51
 70
     0
102
RTVSPost2010Prop52
140
1.0
102
RTVSPost2010PropOp52
 70
     0
102
RTVSPost2010Prop53
 90
        2
102
RTVSPost2010PropOp53
 70
     1
102
RTVSPost2010Prop54
  1
strokes_ogs.tif
102
RTVSPost2010PropOp54
 70
     1
102
RTVSPost2010Prop55
280
     0
102
RTVSPost2010PropOp55
 70
     1
102
RTVSPost2010Prop56
140
1.0
102
RTVSPost2010PropOp56
 70
     1
102
RTVSPost2010Prop57
140
1.0
102
RTVSPost2010PropOp57
 70
     1
102
RTVSPropertyOp0
 70
     1
102
RTVSPropertyOp1
 70
     1
102
RTVSPropertyOp2
 70
     1
102
RTVSPropertyOp3
 70
     1
102
RTVSPropertyOp4
 70
     1
102
RTVSPropertyOp5
 70
     1
102
RTVSPropertyOp6
 70
     1
102
RTVSPropertyOp7
 70
     1
102
RTVSPropertyOp8
 70
     1
102
RTVSPropertyOp9
 70
     1
102
RTVSPropertyOp10
 70
     1
102
RTVSPropertyOp11
 70
     1
102
RTVSPropertyOp12
 70
     1
102
RTVSPropertyOp13
 70
     1
102
RTVSPropertyOp14
 70
     1
102
RTVSPropertyOp15
 70
     1
102
RTVSPropertyOp16
 70
     1
102
RTVSPropertyOp17
 70
     1
102
RTVSPropertyOp18
 70
     1
102
RTVSPropertyOp19
 70
     1
102
RTVSPropertyOp20
 70
     1
102
RTVSPropertyOp21
 70
     1
102
RTVSPropertyOp22
 70
     1
102
RTVSPropertyOp23
 70
     1
102
RTVSPropertyOp24
 70
     1
102
RTVSPropertyOp25
 70
     1
102
RTVSPropertyOp26
 70
     1
102
RTVSPropertyOp27
 70
     1
102
RTVSPropertyOp28
 70
     1
102
RTVSPropertyOp29
 70
     1
102
RTVSPropertyOp30
 70
     1
102
RTVSPropertyOp31
 70
     1
102
RTVSPropertyOp32
 70
     1
102
RTVSPropertyOp33
 70
     1
102
RTVSPropertyOp34
 70
     1
102
RTVSPropertyOp35
 70
     1
102
RTVSPropertyOp36
 70
     1
102
RTVSPropertyOp37
 70
     1
102
RTVSPropertyOp38
 70
     1
102
RTVSPropertyOp39
 70
     1
102
RTVSPropertyOp40
 70
     1
102
RTVSPropertyOp41
 70
     1
102
RTVSPropertyOp42
 70
     1
102
RTVSPropertyOp43
 70
     1
102
RTVSPropertyOp44
 70
     1
102
RTVSPropertyOp45
 70
     1
102
RTVSPropertyOp46
 70
     1
102
RTVSPropertyOp47
 70
     1
102
RTVSPropertyOp48
 70
     1
102
RTVSPropertyOp49
 70
     1
102
RTVSPropertyOp50
 70
     1
102
RTVSPropertyOp51
 70
     0
102
RTVSPropertyOp52
 70
     0
102
RTVSPropertyOp53
 70
     1
102
RTVSPropertyOp54
 70
     1
102
RTVSPropertyOp55
 70
     1
102
RTVSPropertyOp56
 70
     1
102
RTVSPropertyOp57
 70
     1
102
RTVSPropertyOp58
 70
     1
102
RTVSPropertyOp59
 70
     1
102
RTVSPropertyOp60
 70
     1
102
RTVSPropertyOp61
 70
     1
102
RTVSPropertyOp62
 70
     1
  0
ENDSEC
  0
EOF
