  0
SECTION
  2
HEADER
  9
$ACADVER
  1
AC1015
  9
$ACADMAINTVER
 70
    18
  9
$DWGCODEPAGE
  3
ANSI_1252
  9
$INSBASE
 10
0.0
 20
0.0
 30
0.0
  9
$EXTMIN
 10
-195.2215568665665
 20
-238.7701259292314
 30
-0.0015258207003583
  9
$EXTMAX
 10
233.3276374793236
 20
277.7033392920896
 30
0.0000000349246037
  9
$LIMMIN
 10
0.0
 20
0.0
  9
$LIMMAX
 10
420.0
 20
297.0
  9
$ORTHOMODE
 70
     0
  9
$REGENMODE
 70
     1
  9
$FILLMODE
 70
     1
  9
$QTEXTMODE
 70
     0
  9
$MIRRTEXT
 70
     0
  9
$LTSCALE
 40
1.0
  9
$ATTMODE
 70
     1
  9
$TEXTSIZE
 40
2.5
  9
$TRACEWID
 40
1.0
  9
$TEXTSTYLE
  7
Standard
  9
$CLAYER
  8
0
  9
$CELTYPE
  6
ByLayer
  9
$CECOLOR
 62
   256
  9
$CELTSCALE
 40
1.0
  9
$DISPSILH
 70
     0
  9
$DIMSCALE
 40
1.0
  9
$DIMASZ
 40
2.5
  9
$DIMEXO
 40
0.625
  9
$DIMDLI
 40
3.75
  9
$DIMRND
 40
0.0
  9
$DIMDLE
 40
0.0
  9
$DIMEXE
 40
1.25
  9
$DIMTP
 40
0.0
  9
$DIMTM
 40
0.0
  9
$DIMTXT
 40
2.5
  9
$DIMCEN
 40
2.5
  9
$DIMTSZ
 40
0.0
  9
$DIMTOL
 70
     0
  9
$DIMLIM
 70
     0
  9
$DIMTIH
 70
     0
  9
$DIMTOH
 70
     0
  9
$DIMSE1
 70
     0
  9
$DIMSE2
 70
     0
  9
$DIMTAD
 70
     1
  9
$DIMZIN
 70
     8
  9
$DIMBLK
  1

  9
$DIMASO
 70
     1
  9
$DIMSHO
 70
     1
  9
$DIMPOST
  1

  9
$DIMAPOST
  1

  9
$DIMALT
 70
     0
  9
$DIMALTD
 70
     3
  9
$DIMALTF
 40
0.03937007874016
  9
$DIMLFAC
 40
1.0
  9
$DIMTOFL
 70
     1
  9
$DIMTVP
 40
0.0
  9
$DIMTIX
 70
     0
  9
$DIMSOXD
 70
     0
  9
$DIMSAH
 70
     0
  9
$DIMBLK1
  1

  9
$DIMBLK2
  1

  9
$DIMSTYLE
  2
ISO-25
  9
$DIMCLRD
 70
     0
  9
$DIMCLRE
 70
     0
  9
$DIMCLRT
 70
     0
  9
$DIMTFAC
 40
1.0
  9
$DIMGAP
 40
0.625
  9
$DIMJUST
 70
     0
  9
$DIMSD1
 70
     0
  9
$DIMSD2
 70
     0
  9
$DIMTOLJ
 70
     0
  9
$DIMTZIN
 70
     8
  9
$DIMALTZ
 70
     0
  9
$DIMALTTZ
 70
     0
  9
$DIMUPT
 70
     0
  9
$DIMDEC
 70
     2
  9
$DIMTDEC
 70
     2
  9
$DIMALTU
 70
     2
  9
$DIMALTTD
 70
     3
  9
$DIMTXSTY
  7
Standard
  9
$DIMAUNIT
 70
     0
  9
$DIMADEC
 70
     0
  9
$DIMALTRND
 40
0.0
  9
$DIMAZIN
 70
     0
  9
$DIMDSEP
 70
    44
  9
$DIMATFIT
 70
     3
  9
$DIMFRAC
 70
     0
  9
$DIMLDRBLK
  1

  9
$DIMLUNIT
 70
     2
  9
$DIMLWD
 70
    -2
  9
$DIMLWE
 70
    -2
  9
$DIMTMOVE
 70
     0
  9
$LUNITS
 70
     2
  9
$LUPREC
 70
     4
  9
$SKETCHINC
 40
1.0
  9
$FILLETRAD
 40
0.0
  9
$AUNITS
 70
     0
  9
$AUPREC
 70
     0
  9
$MENU
  1
.
  9
$ELEVATION
 40
0.0
  9
$PELEVATION
 40
0.0
  9
$THICKNESS
 40
0.0
  9
$LIMCHECK
 70
     0
  9
$CHAMFERA
 40
0.0
  9
$CHAMFERB
 40
0.0
  9
$CHAMFERC
 40
0.0
  9
$CHAMFERD
 40
0.0
  9
$SKPOLY
 70
     0
  9
$TDCREATE
 40
2460398.356956019
  9
$TDUCREATE
 40
2460398.065289352
  9
$TDUPDATE
 40
2460398.374328704
  9
$TDUUPDATE
 40
2460398.082662037
  9
$TDINDWG
 40
0.0077083333
  9
$TDUSRTIMER
 40
0.0077083333
  9
$USRTIMER
 70
     1
  9
$ANGBASE
 50
0.0
  9
$ANGDIR
 70
     0
  9
$PDMODE
 70
     0
  9
$PDSIZE
 40
0.0
  9
$PLINEWID
 40
0.0
  9
$SPLFRAME
 70
     0
  9
$SPLINETYPE
 70
     6
  9
$SPLINESEGS
 70
     8
  9
$HANDSEED
  5
863A
  9
$SURFTAB1
 70
     6
  9
$SURFTAB2
 70
     6
  9
$SURFTYPE
 70
     6
  9
$SURFU
 70
     6
  9
$SURFV
 70
     6
  9
$UCSBASE
  2

  9
$UCSNAME
  2

  9
$UCSORG
 10
0.0
 20
0.0
 30
0.0
  9
$UCSXDIR
 10
1.0
 20
0.0
 30
0.0
  9
$UCSYDIR
 10
0.0
 20
1.0
 30
0.0
  9
$UCSORTHOREF
  2

  9
$UCSORTHOVIEW
 70
     0
  9
$UCSORGTOP
 10
0.0
 20
0.0
 30
0.0
  9
$UCSORGBOTTOM
 10
0.0
 20
0.0
 30
0.0
  9
$UCSORGLEFT
 10
0.0
 20
0.0
 30
0.0
  9
$UCSORGRIGHT
 10
0.0
 20
0.0
 30
0.0
  9
$UCSORGFRONT
 10
0.0
 20
0.0
 30
0.0
  9
$UCSORGBACK
 10
0.0
 20
0.0
 30
0.0
  9
$PUCSBASE
  2

  9
$PUCSNAME
  2

  9
$PUCSORG
 10
0.0
 20
0.0
 30
0.0
  9
$PUCSXDIR
 10
1.0
 20
0.0
 30
0.0
  9
$PUCSYDIR
 10
0.0
 20
1.0
 30
0.0
  9
$PUCSORTHOREF
  2

  9
$PUCSORTHOVIEW
 70
     0
  9
$PUCSORGTOP
 10
0.0
 20
0.0
 30
0.0
  9
$PUCSORGBOTTOM
 10
0.0
 20
0.0
 30
0.0
  9
$PUCSORGLEFT
 10
0.0
 20
0.0
 30
0.0
  9
$PUCSORGRIGHT
 10
0.0
 20
0.0
 30
0.0
  9
$PUCSORGFRONT
 10
0.0
 20
0.0
 30
0.0
  9
$PUCSORGBACK
 10
0.0
 20
0.0
 30
0.0
  9
$USERI1
 70
     0
  9
$USERI2
 70
     0
  9
$USERI3
 70
     0
  9
$USERI4
 70
     0
  9
$USERI5
 70
     0
  9
$USERR1
 40
0.0
  9
$USERR2
 40
0.0
  9
$USERR3
 40
0.0
  9
$USERR4
 40
0.0
  9
$USERR5
 40
0.0
  9
$WORLDVIEW
 70
     1
  9
$SHADEDGE
 70
     3
  9
$SHADEDIF
 70
    70
  9
$TILEMODE
 70
     1
  9
$MAXACTVP
 70
    48
  9
$PINSBASE
 10
0.0
 20
0.0
 30
0.0
  9
$PLIMCHECK
 70
     0
  9
$PEXTMIN
 10
0.0
 20
0.0
 30
0.0
  9
$PEXTMAX
 10
0.0
 20
0.0
 30
0.0
  9
$PLIMMIN
 10
0.0
 20
0.0
  9
$PLIMMAX
 10
12.0
 20
9.0
  9
$UNITMODE
 70
     0
  9
$VISRETAIN
 70
     1
  9
$PLINEGEN
 70
     0
  9
$PSLTSCALE
 70
     1
  9
$TREEDEPTH
 70
  3020
  9
$CMLSTYLE
  2
Standard
  9
$CMLJUST
 70
     0
  9
$CMLSCALE
 40
20.0
  9
$PROXYGRAPHICS
 70
     1
  9
$MEASUREMENT
 70
     1
  9
$CELWEIGHT
370
    -1
  9
$ENDCAPS
280
     0
  9
$JOINSTYLE
280
     0
  9
$LWDISPLAY
290
     0
  9
$INSUNITS
 70
     4
  9
$HYPERLINKBASE
  1

  9
$STYLESHEET
  1

  9
$XEDIT
290
     1
  9
$CEPSNTYPE
380
     0
  9
$PSTYLEMODE
290
     1
  9
$FINGERPRINTGUID
  2
{6C1266EE-7BC1-BF4A-B059-A6E7702B10CE}
  9
$VERSIONGUID
  2
{88A0EC0B-49E2-4044-B64B-4F2E28799E69}
  9
$EXTNAMES
290
     1
  9
$PSVPSCALE
 40
0.0
  9
$OLESTARTUP
290
     0
  0
ENDSEC
  0
SECTION
  2
CLASSES
  0
CLASS
  1
ACDBDICTIONARYWDFLT
  2
AcDbDictionaryWithDefault
  3
ObjectDBX Classes
 90
        0
280
     0
281
     0
  0
CLASS
  1
ACDBPLACEHOLDER
  2
AcDbPlaceHolder
  3
ObjectDBX Classes
 90
        0
280
     0
281
     0
  0
CLASS
  1
LAYOUT
  2
AcDbLayout
  3
ObjectDBX Classes
 90
        0
280
     0
281
     0
  0
CLASS
  1
DICTIONARYVAR
  2
AcDbDictionaryVar
  3
ObjectDBX Classes
 90
        0
280
     0
281
     0
  0
CLASS
  1
TABLESTYLE
  2
AcDbTableStyle
  3
ObjectDBX Classes
 90
     4095
280
     0
281
     0
  0
CLASS
  1
MATERIAL
  2
AcDbMaterial
  3
ObjectDBX Classes
 90
     1153
280
     0
281
     0
  0
CLASS
  1
VISUALSTYLE
  2
AcDbVisualStyle
  3
ObjectDBX Classes
 90
     4095
280
     0
281
     0
  0
CLASS
  1
SCALE
  2
AcDbScale
  3
ObjectDBX Classes
 90
     1153
280
     0
281
     0
  0
CLASS
  1
MLEADERSTYLE
  2
AcDbMLeaderStyle
  3
ACDB_MLEADERSTYLE_CLASS
 90
     4095
280
     0
281
     0
  0
CLASS
  1
CELLSTYLEMAP
  2
AcDbCellStyleMap
  3
ObjectDBX Classes
 90
     1152
280
     0
281
     0
  0
CLASS
  1
EXACXREFPANELOBJECT
  2
ExAcXREFPanelObject
  3
EXAC_ESW
 90
    33793
280
     0
281
     0
  0
CLASS
  1
NPOCOLLECTION
  2
AcDbImpNonPersistentObjectsCollection
  3
ObjectDBX Classes
 90
    33921
280
     0
281
     0
  0
CLASS
  1
LAYER_INDEX
  2
AcDbLayerIndex
  3
ObjectDBX Classes
 90
    32768
280
     0
281
     0
  0
CLASS
  1
SPATIAL_INDEX
  2
AcDbSpatialIndex
  3
ObjectDBX Classes
 90
    32768
280
     0
281
     0
  0
CLASS
  1
IDBUFFER
  2
AcDbIdBuffer
  3
ObjectDBX Classes
 90
    32768
280
     0
281
     0
  0
CLASS
  1
ACDBSECTIONVIEWSTYLE
  2
AcDbSectionViewStyle
  3
ObjectDBX Classes
 90
     1025
280
     0
281
     0
  0
CLASS
  1
ACDBDETAILVIEWSTYLE
  2
AcDbDetailViewStyle
  3
ObjectDBX Classes
 90
     1025
280
     0
281
     0
  0
CLASS
  1
XRECORD
  2
AcDbXrecord
  3
ObjectDBX Classes
 90
        0
280
     0
281
     0
  0
ENDSEC
  0
SECTION
  2
TABLES
  0
TABLE
  2
VPORT
  5
8
102
{ACAD_XDICTIONARY
360
8548
102
}
330
0
100
AcDbSymbolTable
 70
     1
  0
VPORT
  5
EA
330
8
100
AcDbSymbolTableRecord
100
AcDbViewportTableRecord
  2
*Active
 70
     0
 10
0.0
 20
0.0
 11
1.0
 21
1.0
 12
19.05304030637852
 22
19.46660668142905
 13
0.0
 23
0.0
 14
10.0
 24
10.0
 15
10.0
 25
10.0
 16
0.0
 26
0.0
 36
1.0
 17
0.0
 27
0.0
 37
0.0
 40
549.2227257248464
 41
0.9846153846153846
 42
50.0
 43
0.0
 44
0.0
 50
0.0
 51
0.0
 71
     0
 72
  1000
 73
     1
 74
     3
 75
     0
 76
     1
 77
     0
 78
     0
281
     0
 65
     1
110
0.0
120
0.0
130
0.0
111
1.0
121
0.0
131
0.0
112
0.0
122
1.0
132
0.0
 79
     0
146
0.0
1001
ACAD_NAV_VCDISPLAY
1070
     3
  0
ENDTAB
  0
TABLE
  2
LTYPE
  5
5
330
0
100
AcDbSymbolTable
 70
     1
  0
LTYPE
  5
14
330
5
100
AcDbSymbolTableRecord
100
AcDbLinetypeTableRecord
  2
ByBlock
 70
     0
  3

 72
    65
 73
     0
 40
0.0
  0
LTYPE
  5
15
330
5
100
AcDbSymbolTableRecord
100
AcDbLinetypeTableRecord
  2
ByLayer
 70
     0
  3

 72
    65
 73
     0
 40
0.0
  0
LTYPE
  5
16
330
5
100
AcDbSymbolTableRecord
100
AcDbLinetypeTableRecord
  2
Continuous
 70
     0
  3
Solid line
 72
    65
 73
     0
 40
0.0
  0
ENDTAB
  0
TABLE
  2
LAYER
  5
2
102
{ACAD_XDICTIONARY
360
1FF
102
}
330
0
100
AcDbSymbolTable
 70
     1
  0
LAYER
  5
10
102
{ACAD_XDICTIONARY
360
13C
102
}
330
2
100
AcDbSymbolTableRecord
100
AcDbLayerTableRecord
  2
0
 70
     0
 62
     7
  6
Continuous
370
    -3
390
F
  0
ENDTAB
  0
TABLE
  2
STYLE
  5
3
330
0
100
AcDbSymbolTable
 70
     1
  0
STYLE
  5
11
330
3
100
AcDbSymbolTableRecord
100
AcDbTextStyleTableRecord
  2
Standard
 70
     0
 40
0.0
 41
1.0
 50
0.0
 71
     0
 42
2.5
  3
arial.ttf
  4

1001
ACAD
1000
Arial
1071
       34
  0
ENDTAB
  0
TABLE
  2
VIEW
  5
6
330
0
100
AcDbSymbolTable
 70
     0
  0
ENDTAB
  0
TABLE
  2
UCS
  5
7
330
0
100
AcDbSymbolTable
 70
     0
  0
ENDTAB
  0
TABLE
  2
APPID
  5
9
330
0
100
AcDbSymbolTable
 70
     8
  0
APPID
  5
12
330
9
100
AcDbSymbolTableRecord
100
AcDbRegAppTableRecord
  2
ACAD
 70
     0
  0
APPID
  5
9E
330
9
100
AcDbSymbolTableRecord
100
AcDbRegAppTableRecord
  2
ACAD_PSEXT
 70
     0
  0
APPID
  5
133
330
9
100
AcDbSymbolTableRecord
100
AcDbRegAppTableRecord
  2
AcadAnnoPO
 70
     0
  0
APPID
  5
134
330
9
100
AcDbSymbolTableRecord
100
AcDbRegAppTableRecord
  2
AcadAnnotative
 70
     0
  0
APPID
  5
135
330
9
100
AcDbSymbolTableRecord
100
AcDbRegAppTableRecord
  2
ACAD_DSTYLE_DIMJAG
 70
     0
  0
APPID
  5
136
330
9
100
AcDbSymbolTableRecord
100
AcDbRegAppTableRecord
  2
ACAD_DSTYLE_DIMTALN
 70
     0
  0
APPID
  5
165
330
9
100
AcDbSymbolTableRecord
100
AcDbRegAppTableRecord
  2
ACAD_MLEADERVER
 70
     0
  0
APPID
  5
217
330
9
100
AcDbSymbolTableRecord
100
AcDbRegAppTableRecord
  2
ACAD_NAV_VCDISPLAY
 70
     0
  0
ENDTAB
  0
TABLE
  2
DIMSTYLE
  5
A
330
0
100
AcDbSymbolTable
 70
     1
100
AcDbDimStyleTable
 71
     0
  0
DIMSTYLE
105
27
330
A
100
AcDbSymbolTableRecord
100
AcDbDimStyleTableRecord
  2
ISO-25
 70
     0
 41
2.5
 42
0.625
 43
3.75
 44
1.25
 73
     0
 74
     0
 77
     1
 78
     8
140
2.5
141
2.5
143
0.03937007874016
147
0.625
171
     3
172
     1
271
     2
272
     2
274
     3
278
    44
283
     0
284
     8
340
11
  0
ENDTAB
  0
TABLE
  2
BLOCK_RECORD
  5
1
330
0
100
AcDbSymbolTable
 70
     7
  0
BLOCK_RECORD
  5
1F
102
{ACAD_XDICTIONARY
360
1CE
102
}
330
1
100
AcDbSymbolTableRecord
100
AcDbBlockTableRecord
  2
*Model_Space
340
22
  0
BLOCK_RECORD
  5
D2
102
{ACAD_XDICTIONARY
360
84FB
102
}
330
1
100
AcDbSymbolTableRecord
100
AcDbBlockTableRecord
  2
*Paper_Space
340
D3
  0
BLOCK_RECORD
  5
D6
102
{ACAD_XDICTIONARY
360
84FD
102
}
330
1
100
AcDbSymbolTableRecord
100
AcDbBlockTableRecord
  2
*Paper_Space0
340
D7
  0
BLOCK_RECORD
  5
8375
330
1
100
AcDbSymbolTableRecord
100
AcDbBlockTableRecord
  2
SAE340_46_2-Front
340
0
102
{BLKREFS
331
84F1
102
}
  0
BLOCK_RECORD
  5
83C7
330
1
100
AcDbSymbolTableRecord
100
AcDbBlockTableRecord
  2
SAE340_46_2-Left
340
0
102
{BLKREFS
331
84F2
102
}
  0
BLOCK_RECORD
  5
83E5
330
1
100
AcDbSymbolTableRecord
100
AcDbBlockTableRecord
  2
SAE340_46_2-Right
340
0
102
{BLKREFS
331
84F3
102
}
  0
BLOCK_RECORD
  5
8404
330
1
100
AcDbSymbolTableRecord
100
AcDbBlockTableRecord
  2
SAE340_46_2-Top
340
0
102
{BLKREFS
331
84F4
102
}
  0
BLOCK_RECORD
  5
8438
330
1
100
AcDbSymbolTableRecord
100
AcDbBlockTableRecord
  2
SAE340_46_2-Bottom
340
0
102
{BLKREFS
331
84F5
102
}
  0
BLOCK_RECORD
  5
8463
330
1
100
AcDbSymbolTableRecord
100
AcDbBlockTableRecord
  2
SAE340_46_2-ISO
340
0
102
{BLKREFS
331
84F6
102
}
  0
ENDTAB
  0
ENDSEC
  0
SECTION
  2
BLOCKS
  0
BLOCK
  5
20
330
1F
100
AcDbEntity
  8
0
100
AcDbBlockBegin
  2
*Model_Space
 70
     0
 10
0.0
 20
0.0
 30
0.0
  3
*Model_Space
  1

  0
ENDBLK
  5
21
330
1F
100
AcDbEntity
  8
0
100
AcDbBlockEnd
  0
BLOCK
  5
D4
330
D2
100
AcDbEntity
 67
     1
  8
0
100
AcDbBlockBegin
  2
*Paper_Space
 70
     0
 10
0.0
 20
0.0
 30
0.0
  3
*Paper_Space
  1

  0
ENDBLK
  5
D5
330
D2
100
AcDbEntity
 67
     1
  8
0
100
AcDbBlockEnd
  0
BLOCK
  5
D8
330
D6
100
AcDbEntity
 67
     1
  8
0
100
AcDbBlockBegin
  2
*Paper_Space0
 70
     0
 10
0.0
 20
0.0
 30
0.0
  3
*Paper_Space0
  1

  0
ENDBLK
  5
D9
330
D6
100
AcDbEntity
 67
     1
  8
0
100
AcDbBlockEnd
  0
BLOCK
  5
8376
330
8375
100
AcDbEntity
  8
0
100
AcDbBlockBegin
  2
SAE340_46_2-Front
 70
     0
 10
0.0
 20
0.0
 30
0.0
  3
SAE340_46_2-Front
  1

  0
SPLINE
  5
8378
330
8375
100
AcDbEntity
  8
0
100
AcDbSpline
210
0.0
220
0.0
230
1.0
 70
     8
 71
     3
 72
    14
 73
    10
 74
     0
 42
0.000000001
 43
0.0000000001
 40
0.0
 40
0.0
 40
0.0
 40
0.0
 40
0.3435201403994595
 40
0.3435201403994595
 40
0.3435201403994595
 40
0.7570127568073205
 40
0.7570127568073205
 40
0.7570127568073205
 40
0.9986524678037461
 40
0.9986524678037461
 40
0.9986524678037461
 40
0.9986524678037461
 10
27.60606060606067
 20
19.56249999999996
 30
0.0
 10
27.28489935603177
 20
19.30248939774764
 30
0.0
 10
26.87245051750048
 20
19.07528629123006
 30
0.0
 10
26.4764551551502
 20
18.84407074683196
 30
0.0
 10
25.9997985076733
 20
18.56575833028438
 30
0.0
 10
25.53725634322619
 20
18.27136389234689
 30
0.0
 10
25.26239324896393
 20
17.8578711880303
 30
0.0
 10
25.10176682898548
 20
17.61623142566115
 30
0.0
 10
25.00111647923493
 20
17.36104054310792
 30
0.0
 10
25.00000922977471
 20
17.00594994992001
 30
0.0
  0
LINE
  5
8379
330
8375
100
AcDbEntity
  8
0
100
AcDbLine
 10
25.00000000000001
 20
19.56249999999995
 30
0.0
 11
27.00000000000001
 21
19.56249999999995
 31
0.0
  0
SPLINE
  5
837A
330
8375
100
AcDbEntity
  8
0
100
AcDbSpline
210
0.0
220
0.0
230
1.0
 70
     8
 71
     3
 72
    20
 73
    16
 74
     0
 42
0.000000001
 43
0.0000000001
 40
0.0120727937228609
 40
0.0120727937228609
 40
0.0120727937228609
 40
0.0120727937228609
 40
0.0124288508778185
 40
0.0124288508778185
 40
0.0135302217269946
 40
0.0135302217269946
 40
0.0142261533872483
 40
0.0142261533872483
 40
0.0153094160374555
 40
0.0153094160374555
 40
0.0162525248891207
 40
0.0162525248891207
 40
0.0174015733523787
 40
0.0174015733523787
 40
0.0202445336739376
 40
0.0202445336739376
 40
0.0202445336739376
 40
0.0202445336739376
 10
25.0002916470254
 20
17.05864902334242
 30
0.0
 10
25.00029164702511
 20
17.05864902331687
 30
0.0
 10
25.00029123369334
 20
17.05861294220776
 30
0.0
 10
25.00028772502061
 20
17.05830125779301
 30
0.0
 10
25.0002806534463
 20
17.05767569686192
 30
0.0
 10
25.00026146072333
 20
17.05580875755684
 30
0.0
 10
25.00025209701935
 20
17.05487008330396
 30
0.0
 10
25.0002244704141
 20
17.05189819479178
 30
0.0
 10
25.00020362500281
 20
17.04947455980402
 30
0.0
 10
25.00016554779849
 20
17.04422649456519
 30
0.0
 10
25.0001480068327
 20
17.04146120925997
 30
0.0
 10
25.00011446921864
 20
17.03509374010667
 30
0.0
 10
25.00009956667938
 20
17.03145135009044
 30
0.0
 10
25.00006174351597
 20
17.01867994134186
 30
0.0
 10
25.00005914615846
 20
17.00931579016431
 30
0.0
 10
25.00007431501597
 20
17.00000007787118
 30
0.0
  0
SPLINE
  5
837B
330
8375
100
AcDbEntity
  8
0
100
AcDbSpline
210
0.0
220
0.0
230
1.0
 70
     8
 71
     3
 72
    20
 73
    16
 74
     0
 42
0.000000001
 43
0.0000000001
 40
0.0053329317562137
 40
0.0053329317562137
 40
0.0053329317562137
 40
0.0053329317562137
 40
0.0056476384745446
 40
0.0056476384745446
 40
0.0060463986043606
 40
0.0060463986043606
 40
0.0065307473346624
 40
0.0065307473346624
 40
0.007194033072211
 40
0.007194033072211
 40
0.0085673555752112
 40
0.0085673555752112
 40
0.0106389960579523
 40
0.0106389960579523
 40
0.0111024460098454
 40
0.0111024460098454
 40
0.0111024460098454
 40
0.0111024460098454
 10
25.00010883933672
 20
17.04546313424444
 30
0.0
 10
25.00010883931814
 20
17.04546313125355
 30
0.0
 10
25.00010796018918
 20
17.04532230028783
 30
0.0
 10
25.00010437335174
 20
17.04473468117378
 30
0.0
 10
25.00010121339599
 20
17.04421103323669
 30
0.0
 10
25.00009286789424
 20
17.04276717288377
 30
0.0
 10
25.00008734603742
 20
17.04177610100285
 30
0.0
 10
25.00007384262112
 20
17.03918105363624
 30
0.0
 10
25.00006571149221
 20
17.03748299308414
 30
0.0
 10
25.00004298010629
 20
17.03216377976521
 30
0.0
 10
25.000029830859
 20
17.02823236325082
 30
0.0
 10
25.00000644319706
 20
17.01793194604814
 30
0.0
 10
25.00000107524841
 20
17.01126252379452
 30
0.0
 10
25.00000622906597
 20
17.00302763723064
 30
0.0
 10
25.00000763232394
 20
17.00151582164106
 30
0.0
 10
25.00000948371083
 20
17.00000001226683
 30
0.0
  0
SPLINE
  5
837C
330
8375
100
AcDbEntity
  8
0
100
AcDbSpline
210
0.0
220
0.0
230
1.0
 70
     8
 71
     3
 72
     8
 73
     4
 74
     0
 42
0.000000001
 43
0.0000000001
 40
0.0
 40
0.0
 40
0.0
 40
0.0
 40
0.0015511722957607
 40
0.0015511722957607
 40
0.0015511722957607
 40
0.0015511722957607
 10
22.99955984654366
 20
17.00000111615404
 30
0.0
 10
22.99956565327763
 20
17.00446881098191
 30
0.0
 10
22.99957076641531
 20
17.00884708258792
 30
0.0
 10
22.99957512909036
 20
17.01307591323755
 30
0.0
  0
SPLINE
  5
837D
330
8375
100
AcDbEntity
  8
0
100
AcDbSpline
210
0.0
220
0.0
230
1.0
 70
     8
 71
     3
 72
    16
 73
    12
 74
     0
 42
0.000000001
 43
0.0000000001
 40
0.0
 40
0.0
 40
0.0
 40
0.0
 40
0.0021186908362505
 40
0.0021186908362505
 40
0.0037963630011569
 40
0.0037963630011569
 40
0.006049025375254
 40
0.006049025375254
 40
0.0082160884058309
 40
0.0082160884058309
 40
0.0100715299587738
 40
0.0100715299587738
 40
0.0100715299587738
 40
0.0100715299587738
 10
22.99977770485169
 20
16.99999658161609
 30
0.0
 10
22.99967060337888
 20
17.00696252206759
 30
0.0
 10
22.99956026516472
 20
17.01406431014511
 30
0.0
 10
22.99936153565766
 20
17.02670812134814
 30
0.0
 10
22.99927271955303
 20
17.03230570405056
 30
0.0
 10
22.99907108296822
 20
17.04490249866813
 30
0.0
 10
22.99895812999703
 20
17.05187275002458
 30
0.0
 10
22.99876083650573
 20
17.06395004148274
 30
0.0
 10
22.99867338946264
 20
17.06925360707219
 30
0.0
 10
22.99853375459658
 20
17.07766822579963
 30
0.0
 10
22.99847718641643
 20
17.0810523400624
 30
0.0
 10
22.9984278989371
 20
17.08398349772889
 30
0.0
  0
SPLINE
  5
837E
330
8375
100
AcDbEntity
  8
0
100
AcDbSpline
210
0.0
220
0.0
230
1.0
 70
     8
 71
     3
 72
    34
 73
    30
 74
     0
 42
0.000000001
 43
0.0000000001
 40
0.0018828273621875
 40
0.0018828273621875
 40
0.0018828273621875
 40
0.0018828273621875
 40
0.0067931738588267
 40
0.0067931738588267
 40
0.014858194345833
 40
0.014858194345833
 40
0.021657188792759
 40
0.021657188792759
 40
0.0241183128303282
 40
0.0241183128303282
 40
0.0262726967708833
 40
0.0262726967708833
 40
0.0291188418900243
 40
0.0291188418900243
 40
0.0315306234460119
 40
0.0315306234460119
 40
0.0346499154829561
 40
0.0346499154829561
 40
0.0395922397033565
 40
0.0395922397033565
 40
0.0489104512735399
 40
0.0489104512735399
 40
0.0719044114289597
 40
0.0719044114289597
 40
0.1414596712163276
 40
0.1414596712163276
 40
0.2235217454245321
 40
0.2235217454245321
 40
0.2662178311954607
 40
0.2662178311954607
 40
0.2662178311954607
 40
0.2662178311954607
 10
22.99993407926217
 20
17.00382191537547
 30
0.0
 10
22.99986407575535
 20
17.00784047579974
 30
0.0
 10
22.99976229034361
 20
17.01358824994955
 30
0.0
 10
22.99943617379751
 20
17.03150107642394
 30
0.0
 10
22.99917378800137
 20
17.04547921429945
 30
0.0
 10
22.99862147075325
 20
17.07412873888698
 30
0.0
 10
22.99834194620625
 20
17.08837019568053
 30
0.0
 10
22.99789286036677
 20
17.11130037373282
 30
0.0
 10
22.99776555610417
 20
17.11780854009342
 30
0.0
 10
22.99751099031846
 20
17.13092331013659
 30
0.0
 10
22.99738412343957
 20
17.13749914599022
 30
0.0
 10
22.99708152970887
 20
17.15339591604056
 30
0.0
 10
22.99689905467249
 20
17.16315157116141
 30
0.0
 10
22.99658162006418
 20
17.18063317232434
 30
0.0
 10
22.99644055641228
 20
17.18860705033578
 30
0.0
 10
22.99613972381918
 20
17.20612861495014
 30
0.0
 10
22.99598366074322
 20
17.21561633031948
 30
0.0
 10
22.99561587365931
 20
17.23896508141698
 30
0.0
 10
22.99542142375607
 20
17.25234662125392
 30
0.0
 10
22.9949261532669
 20
17.28909274586005
 30
0.0
 10
22.99467857968337
 20
17.31110300228636
 30
0.0
 10
22.99397364941687
 20
17.38486037624054
 30
0.0
 10
22.99373071960754
 20
17.43326604847731
 30
0.0
 10
22.99330505692759
 20
17.63521424225429
 30
0.0
 10
22.99455179204502
 20
17.81150031281464
 30
0.0
 10
22.99793248616398
 20
18.23289605832418
 30
0.0
 10
22.99943758562001
 20
18.48828696176335
 30
0.0
 10
22.99998708596914
 20
18.8923227120982
 30
0.0
 10
22.9999819089183
 20
19.03403623323374
 30
0.0
 10
22.9999893701996
 20
19.17586295991264
 30
0.0
  0
SPLINE
  5
837F
330
8375
100
AcDbEntity
  8
0
100
AcDbSpline
210
0.0
220
0.0
230
1.0
 70
     8
 71
     3
 72
    12
 73
     8
 74
     0
 42
0.000000001
 43
0.0000000001
 40
0.0
 40
0.0
 40
0.0
 40
0.0
 40
0.0030444953502596
 40
0.0030444953502596
 40
0.0059484402635804
 40
0.0059484402635804
 40
0.0076998808259982
 40
0.0076998808259982
 40
0.0076998808259982
 40
0.0076998808259982
 10
22.99994094380463
 20
16.99999986651921
 30
0.0
 10
22.99992879107765
 20
17.00696353295334
 30
0.0
 10
22.99991750819949
 20
17.01275350427386
 30
0.0
 10
22.99989987691458
 20
17.02087155436179
 30
0.0
 10
22.99989321270218
 20
17.02345635064947
 30
0.0
 10
22.9998873935241
 20
17.02557939686878
 30
0.0
 10
22.99988626658513
 20
17.02594036137276
 30
0.0
 10
22.99988626658518
 20
17.02594036135549
 30
0.0
  0
SPLINE
  5
8380
330
8375
100
AcDbEntity
  8
0
100
AcDbSpline
210
0.0
220
0.0
230
1.0
 70
     8
 71
     3
 72
     8
 73
     4
 74
     0
 42
0.000000001
 43
0.0000000001
 40
0.0
 40
0.0
 40
0.0
 40
0.0
 40
0.0007119893392924
 40
0.0007119893392924
 40
0.0007119893392924
 40
0.0007119893392924
 10
27.60611379963717
 20
19.56243160914637
 30
0.0
 10
27.60533819821916
 20
19.56182868808175
 30
0.0
 10
27.60453872043829
 20
19.56120758958697
 30
0.0
 10
27.60373327027498
 20
19.56058171694584
 30
0.0
  0
SPLINE
  5
8381
330
8375
100
AcDbEntity
  8
0
100
AcDbSpline
210
0.0
220
0.0
230
1.0
 70
     8
 71
     3
 72
     8
 73
     4
 74
     0
 42
0.000000001
 43
0.0000000001
 40
0.0001369350463707
 40
0.0001369350463707
 40
0.0001369350463707
 40
0.0001369350463707
 40
0.0006730443288031
 40
0.0006730443288031
 40
0.0006730443288031
 40
0.0006730443288031
 10
27.6052314709835
 20
19.56174578009665
 30
0.0
 10
27.60408446528556
 20
19.56082273200077
 30
0.0
 10
27.6029010150173
 20
19.55987127864749
 30
0.0
 10
27.60168845104808
 20
19.55889733769899
 30
0.0
  0
LINE
  5
8382
330
8375
100
AcDbEntity
  8
0
100
AcDbLine
 10
20.99999999999999
 20
-2.0
 30
0.0
 11
-20.99999999999998
 21
-2.000000000000003
 31
0.0
  0
LINE
  5
8383
330
8375
100
AcDbEntity
  8
0
100
AcDbLine
 10
-20.99999999999998
 20
0.0
 30
0.0
 11
20.99999999999999
 21
0.0
 31
0.0
  0
LINE
  5
8384
330
8375
100
AcDbEntity
  8
0
100
AcDbLine
 10
-27.00000000000001
 20
19.56249999999995
 30
0.0
 11
-25.00000000000001
 21
19.56249999999995
 31
0.0
  0
SPLINE
  5
8385
330
8375
100
AcDbEntity
  8
0
100
AcDbSpline
210
0.0
220
0.0
230
1.0
 70
     8
 71
     3
 72
    14
 73
    10
 74
     0
 42
0.000000001
 43
0.0000000001
 40
0.0
 40
0.0
 40
0.0
 40
0.0
 40
0.3435201403994595
 40
0.3435201403994595
 40
0.3435201403994595
 40
0.7570127568073205
 40
0.7570127568073205
 40
0.7570127568073205
 40
0.9986524678041945
 40
0.9986524678041945
 40
0.9986524678041945
 40
0.9986524678041945
 10
-27.60606060606067
 20
19.56249999999996
 30
0.0
 10
-27.28489935603177
 20
19.30248939774764
 30
0.0
 10
-26.87245051750048
 20
19.07528629123006
 30
0.0
 10
-26.4764551551502
 20
18.84407074683196
 30
0.0
 10
-25.9997985076733
 20
18.56575833028438
 30
0.0
 10
-25.53725634322619
 20
18.27136389234689
 30
0.0
 10
-25.26239324896393
 20
17.8578711880303
 30
0.0
 10
-25.10176682898518
 20
17.61623142566071
 30
0.0
 10
-25.00111647923456
 20
17.36104054310698
 30
0.0
 10
-25.00000922977471
 20
17.00594994991804
 30
0.0
  0
SPLINE
  5
8386
330
8375
100
AcDbEntity
  8
0
100
AcDbSpline
210
0.0
220
0.0
230
1.0
 70
     8
 71
     3
 72
    30
 73
    26
 74
     0
 42
0.000000001
 43
0.0000000001
 40
0.0
 40
0.0
 40
0.0
 40
0.0
 40
0.0655513996288965
 40
0.0655513996288965
 40
0.1471085804224177
 40
0.1471085804224177
 40
0.1864949363792234
 40
0.1864949363792234
 40
0.2244264000792824
 40
0.2244264000792824
 40
0.2338931540103941
 40
0.2338931540103941
 40
0.2360421315818335
 40
0.2360421315818335
 40
0.2376761107133078
 40
0.2376761107133078
 40
0.2393127189172762
 40
0.2393127189172762
 40
0.2426366893579807
 40
0.2426366893579807
 40
0.249265645265831
 40
0.249265645265831
 40
0.2559083705756882
 40
0.2559083705756882
 40
0.2643717069023888
 40
0.2643717069023888
 40
0.2643717069023888
 40
0.2643717069023888
 10
-22.99998937019959
 20
19.17586295991388
 30
0.0
 10
-22.99997791487708
 20
18.95811605710723
 30
0.0
 10
-22.99997499599625
 20
18.7395510459623
 30
0.0
 10
-22.99847087045585
 20
18.27766021635807
 30
0.0
 10
-22.99618403849791
 20
18.03633561852725
 30
0.0
 10
-22.9939977531133
 20
17.72033846707221
 30
0.0
 10
-22.993561744209
 20
17.62409137661589
 30
0.0
 10
-22.99357531581493
 20
17.45119387887495
 30
0.0
 10
-22.99385397701905
 20
17.37644614828411
 30
0.0
 10
-22.99531453410593
 20
17.25916004883639
 30
0.0
 10
-22.99567939060617
 20
17.23369000786879
 30
0.0
 10
-22.99628189517449
 20
17.19778986030827
 30
0.0
 10
-22.99640074961893
 20
17.19090212779126
 30
0.0
 10
-22.99661976315541
 20
17.17853715293006
 30
0.0
 10
-22.99671829927143
 20
17.17307686541812
 30
0.0
 10
-22.99691819147858
 20
17.16217704866134
 30
0.0
 10
-22.99702051810605
 20
17.15668496000799
 30
0.0
 10
-22.99732539131438
 20
17.14051371455973
 30
0.0
 10
-22.99752614242746
 20
17.13012392530162
 30
0.0
 10
-22.99806193230703
 20
17.10259271578037
 30
0.0
 10
-22.99835888444258
 20
17.08755524808474
 30
0.0
 10
-22.99888986310686
 20
17.06027099384692
 30
0.0
 10
-22.99912802460611
 20
17.04785041858825
 30
0.0
 10
-22.99959811291125
 20
17.02276476369199
 30
0.0
 10
-22.99981347016926
 20
17.01073788924802
 30
0.0
 10
-22.99993407916459
 20
17.00381431416677
 30
0.0
  0
SPLINE
  5
8387
330
8375
100
AcDbEntity
  8
0
100
AcDbSpline
210
0.0
220
0.0
230
1.0
 70
     8
 71
     3
 72
     8
 73
     4
 74
     0
 42
0.000000001
 43
0.0000000001
 40
0.0195591966725089
 40
0.0195591966725089
 40
0.0195591966725089
 40
0.0195591966725089
 40
0.0211163438578363
 40
0.0211163438578363
 40
0.0211163438578363
 40
0.0211163438578363
 10
-22.9995752264057
 20
17.01307778052051
 30
0.0
 10
-22.99957087694074
 20
17.00886175468244
 30
0.0
 10
-22.99956567564432
 20
17.0044860198911
 30
0.0
 10
-22.99955984654366
 20
17.00000111615404
 30
0.0
  0
SPLINE
  5
8388
330
8375
100
AcDbEntity
  8
0
100
AcDbSpline
210
0.0
220
0.0
230
1.0
 70
     8
 71
     3
 72
    16
 73
    12
 74
     0
 42
0.000000001
 43
0.0000000001
 40
0.0328453671082634
 40
0.0328453671082634
 40
0.0328453671082634
 40
0.0328453671082634
 40
0.0346121749403849
 40
0.0346121749403849
 40
0.0362943918558625
 40
0.0362943918558625
 40
0.0388726354813812
 40
0.0388726354813812
 40
0.041044948724907
 40
0.041044948724907
 40
0.0429128596281262
 40
0.0429128596281262
 40
0.0429128596281262
 40
0.0429128596281262
 10
-22.99842789914817
 20
17.08398349503864
 30
0.0
 10
-22.99847484521562
 20
17.0811915826224
 30
0.0
 10
-22.99852835647914
 20
17.07799109632884
 30
0.0
 10
-22.99864665532428
 20
17.07086662691803
 30
0.0
 10
-22.99871142259461
 20
17.0669458651032
 30
0.0
 10
-22.99889097014507
 20
17.05600293367697
 30
0.0
 10
-22.99901757413338
 20
17.04822182326014
 30
0.0
 10
-22.9992592846355
 20
17.03315935054918
 30
0.0
 10
-22.9993754301827
 20
17.02584026816426
 30
0.0
 10
-22.99958650293993
 20
17.01237473116344
 30
0.0
 10
-22.99968328049992
 20
17.00613799493505
 30
0.0
 10
-22.99977770485169
 20
16.99999658161609
 30
0.0
  0
SPLINE
  5
8389
330
8375
100
AcDbEntity
  8
0
100
AcDbSpline
210
0.0
220
0.0
230
1.0
 70
     8
 71
     3
 72
    12
 73
     8
 74
     0
 42
0.000000001
 43
0.0000000001
 40
0.0138145630736559
 40
0.0138145630736559
 40
0.0138145630736559
 40
0.0138145630736559
 40
0.0169919977545609
 40
0.0169919977545609
 40
0.0189384595161375
 40
0.0189384595161375
 40
0.0215156446160975
 40
0.0215156446160975
 40
0.0215156446160975
 40
0.0215156446160975
 10
-22.99988626658519
 20
17.02594036135575
 30
0.0
 10
-22.99988626662712
 20
17.02594034784168
 30
0.0
 10
-22.99989009832566
 20
17.02472197080123
 30
0.0
 10
-22.99990126035964
 20
17.02016542613223
 30
0.0
 10
-22.9999066642769
 20
17.01781767439439
 30
0.0
 10
-22.99992101843319
 20
17.01095160624281
 30
0.0
 10
-22.99993065644227
 20
17.00589465541195
 30
0.0
 10
-22.99994094380463
 20
16.99999986651922
 30
0.0
  0
SPLINE
  5
838A
330
8375
100
AcDbEntity
  8
0
100
AcDbSpline
210
0.0
220
0.0
230
1.0
 70
     8
 71
     3
 72
    16
 73
    12
 74
     0
 42
0.000000001
 43
0.0000000001
 40
0.0
 40
0.0
 40
0.0
 40
0.0
 40
0.0041147701347536
 40
0.0041147701347536
 40
0.0050669104849719
 40
0.0050669104849719
 40
0.0058958097595724
 40
0.0058958097595724
 40
0.0067234516653092
 40
0.0067234516653092
 40
0.0081601476159974
 40
0.0081601476159974
 40
0.0081601476159974
 40
0.0081601476159974
 10
-25.00007431501597
 20
17.0000000778712
 30
0.0
 10
-25.00005236030863
 20
17.01348321178519
 30
0.0
 10
-25.00007089001984
 20
17.02743611948887
 30
0.0
 10
-25.00015518626357
 20
17.0426432390331
 30
0.0
 10
-25.00017334253699
 20
17.04537391437594
 30
0.0
 10
-25.00020680359928
 20
17.04980909449923
 30
0.0
 10
-25.00022231882104
 20
17.0516299838484
 30
0.0
 10
-25.00024914482342
 20
17.05457669175982
 30
0.0
 10
-25.00026066602983
 20
17.05573299463867
 30
0.0
 10
-25.00028457044058
 20
17.0580539164271
 30
0.0
 10
-25.0002916470255
 20
17.05864902335056
 30
0.0
 10
-25.0002916470254
 20
17.05864902334209
 30
0.0
  0
SPLINE
  5
838B
330
8375
100
AcDbEntity
  8
0
100
AcDbSpline
210
0.0
220
0.0
230
1.0
 70
     8
 71
     3
 72
    18
 73
    14
 74
     0
 42
0.000000001
 43
0.0000000001
 40
0.0
 40
0.0
 40
0.0
 40
0.0
 40
0.002045684367021
 40
0.002045684367021
 40
0.0037103800665648
 40
0.0037103800665648
 40
0.0047886576137118
 40
0.0047886576137118
 40
0.0054058581580188
 40
0.0054058581580188
 40
0.0056713595072026
 40
0.0056713595072026
 40
0.0057658588783101
 40
0.0057658588783101
 40
0.0057658588783101
 40
0.0057658588783101
 10
-25.00000948371083
 20
17.00000001226683
 30
0.0
 10
-25.00000131162405
 20
17.00669084808978
 30
0.0
 10
-25.00000211672889
 20
17.01335086193278
 30
0.0
 10
-25.00001995709055
 20
17.02478352049358
 30
0.0
 10
-25.00003405059811
 20
17.02972464727103
 30
0.0
 10
-25.00006334256588
 20
17.03706867882993
 30
0.0
 10
-25.00007727322453
 20
17.03991934661254
 30
0.0
 10
-25.00009604289513
 20
17.04334273332953
 30
0.0
 10
-25.00010217954287
 20
17.04437249641233
 30
0.0
 10
-25.00010716091159
 20
17.04519218276601
 30
0.0
 10
-25.00010818416225
 20
17.04535741756079
 30
0.0
 10
-25.000108761596
 20
17.04545062472607
 30
0.0
 10
-25.00010883935342
 20
17.04546313693331
 30
0.0
 10
-25.00010883933673
 20
17.04546313424614
 30
0.0
  0
SPLINE
  5
838C
330
8375
100
AcDbEntity
  8
0
100
AcDbSpline
210
0.0
220
0.0
230
1.0
 70
     8
 71
     3
 72
     8
 73
     4
 74
     0
 42
0.000000001
 43
0.0000000001
 40
0.0
 40
0.0
 40
0.0
 40
0.0
 40
0.000741861083803
 40
0.000741861083803
 40
0.000741861083803
 40
0.000741861083803
 10
-25.0000122847219
 20
16.99999999832532
 30
0.0
 10
-25.00000823586552
 20
17.00154344175692
 30
0.0
 10
-25.00000411638721
 20
17.00317715862965
 30
0.0
 10
-24.99999998544284
 20
17.00485798899554
 30
0.0
  0
SPLINE
  5
838D
330
8375
100
AcDbEntity
  8
0
100
AcDbSpline
210
0.0
220
0.0
230
1.0
 70
     8
 71
     3
 72
     8
 73
     4
 74
     0
 42
0.000000001
 43
0.0000000001
 40
0.2821158682410695
 40
0.2821158682410695
 40
0.2821158682410695
 40
0.2821158682410695
 40
0.282652157248669
 40
0.282652157248669
 40
0.282652157248669
 40
0.282652157248669
 10
-27.6016899455476
 20
19.55889868024083
 30
0.0
 10
-27.60290278779488
 20
19.55987284470447
 30
0.0
 10
-27.60408444672147
 20
19.56082272397221
 30
0.0
 10
-27.60523157680547
 20
19.56174587216725
 30
0.0
  0
SPLINE
  5
838E
330
8375
100
AcDbEntity
  8
0
100
AcDbSpline
210
0.0
220
0.0
230
1.0
 70
     8
 71
     3
 72
     8
 73
     4
 74
     0
 42
0.000000001
 43
0.0000000001
 40
0.016926713951018
 40
0.016926713951018
 40
0.016926713951018
 40
0.016926713951018
 40
0.0176395326802162
 40
0.0176395326802162
 40
0.0176395326802162
 40
0.0176395326802162
 10
-27.60373962975511
 20
19.56058639079325
 30
0.0
 10
-27.6045442030555
 20
19.56121158207067
 30
0.0
 10
-27.60533729472815
 20
19.56182798574451
 30
0.0
 10
-27.6061137996372
 20
19.56243160914639
 30
0.0
  0
ARC
  5
838F
330
8375
100
AcDbEntity
  8
0
100
AcDbCircle
 10
-20.99999999999998
 20
2.0
 30
0.0
 40
4.000000000000003
100
AcDbArc
 50
180.0
 51
270.0
  0
ARC
  5
8390
330
8375
100
AcDbEntity
  8
0
100
AcDbCircle
 10
-20.99999999999998
 20
2.0
 30
0.0
 40
2.000000000000001
100
AcDbArc
 50
180.0
 51
270.0
  0
ARC
  5
8391
330
8375
100
AcDbEntity
  8
0
100
AcDbCircle
 10
20.99999999999998
 20
2.0
 30
0.0
 40
4.000000000000003
100
AcDbArc
 50
270.0
 51
0.0
  0
LINE
  5
8392
330
8375
100
AcDbEntity
  8
0
100
AcDbLine
 10
27.60606060606067
 20
19.56249999999995
 30
0.0
 11
64.50000000000004
 21
49.99999999999996
 31
0.0
  0
LINE
  5
8393
330
8375
100
AcDbEntity
  8
0
100
AcDbLine
 10
22.99999999999999
 20
16.99999999999999
 30
0.0
 11
23.0
 21
49.99999999999996
 31
0.0
  0
LINE
  5
8394
330
8375
100
AcDbEntity
  8
0
100
AcDbLine
 10
25.0
 20
16.99999999999999
 30
0.0
 11
22.99999999999999
 21
16.99999999999999
 31
0.0
  0
LINE
  5
8395
330
8375
100
AcDbEntity
  8
0
100
AcDbLine
 10
25.0
 20
49.99999999999996
 30
0.0
 11
25.0
 21
16.99999999999999
 31
0.0
  0
LINE
  5
8396
330
8375
100
AcDbEntity
  8
0
100
AcDbLine
 10
25.0
 20
49.99999999999996
 30
0.0
 11
23.0
 21
49.99999999999996
 31
0.0
  0
LINE
  5
8397
330
8375
100
AcDbEntity
  8
0
100
AcDbLine
 10
23.0
 20
49.99999999999996
 30
0.0
 11
23.0
 21
146.9999999999999
 31
0.0
  0
LINE
  5
8398
330
8375
100
AcDbEntity
  8
0
100
AcDbLine
 10
25.0
 20
146.9999999999999
 30
0.0
 11
25.0
 21
49.99999999999996
 31
0.0
  0
LINE
  5
8399
330
8375
100
AcDbEntity
  8
0
100
AcDbLine
 10
23.0
 20
146.9999999999999
 30
0.0
 11
25.0
 21
146.9999999999999
 31
0.0
  0
LINE
  5
839A
330
8375
100
AcDbEntity
  8
0
100
AcDbLine
 10
25.0
 20
16.99999999999999
 30
0.0
 11
24.99999999999999
 21
1.999999999999999
 31
0.0
  0
LINE
  5
839B
330
8375
100
AcDbEntity
  8
0
100
AcDbLine
 10
22.99999999999999
 20
2.0
 30
0.0
 11
22.99999999999999
 21
16.99999999999999
 31
0.0
  0
ARC
  5
839C
330
8375
100
AcDbEntity
  8
0
100
AcDbCircle
 10
20.99999999999998
 20
2.0
 30
0.0
 40
2.000000000000001
100
AcDbArc
 50
270.0
 51
0.0
  0
LINE
  5
839D
330
8375
100
AcDbEntity
  8
0
100
AcDbLine
 10
27.0
 20
147.0
 30
0.0
 11
25.0
 21
147.0
 31
0.0
  0
LINE
  5
839E
330
8375
100
AcDbEntity
  8
0
100
AcDbLine
 10
64.50000000000004
 20
49.99999999999996
 30
0.0
 11
64.50000000000001
 21
147.0
 31
0.0
  0
LINE
  5
839F
330
8375
100
AcDbEntity
  8
0
100
AcDbLine
 10
64.50000000000001
 20
147.0
 30
0.0
 11
27.0
 21
147.0
 31
0.0
  0
CIRCLE
  5
83A0
330
8375
100
AcDbEntity
  8
0
100
AcDbCircle
 10
45.0
 20
127.0
 30
0.0
 40
6.5
  0
CIRCLE
  5
83A1
330
8375
100
AcDbEntity
  8
0
100
AcDbCircle
 10
56.00000000000001
 20
132.0
 30
0.0
 40
2.5
  0
LINE
  5
83A2
330
8375
100
AcDbEntity
  8
0
100
AcDbLine
 10
-64.50000000000004
 20
49.99999999999996
 30
0.0
 11
-27.60606060606067
 21
19.56249999999995
 31
0.0
  0
LINE
  5
83A3
330
8375
100
AcDbEntity
  8
0
100
AcDbLine
 10
-23.0
 20
49.99999999999996
 30
0.0
 11
-22.99999999999999
 21
16.99999999999999
 31
0.0
  0
LINE
  5
83A4
330
8375
100
AcDbEntity
  8
0
100
AcDbLine
 10
-25.0
 20
49.99999999999996
 30
0.0
 11
-23.0
 21
49.99999999999996
 31
0.0
  0
LINE
  5
83A5
330
8375
100
AcDbEntity
  8
0
100
AcDbLine
 10
-25.0
 20
16.99999999999999
 30
0.0
 11
-25.0
 21
49.99999999999996
 31
0.0
  0
LINE
  5
83A6
330
8375
100
AcDbEntity
  8
0
100
AcDbLine
 10
-22.99999999999999
 20
16.99999999999999
 30
0.0
 11
-25.0
 21
16.99999999999999
 31
0.0
  0
LINE
  5
83A7
330
8375
100
AcDbEntity
  8
0
100
AcDbLine
 10
-23.0
 20
146.9999999999999
 30
0.0
 11
-23.0
 21
49.99999999999996
 31
0.0
  0
LINE
  5
83A8
330
8375
100
AcDbEntity
  8
0
100
AcDbLine
 10
-25.0
 20
146.9999999999999
 30
0.0
 11
-23.0
 21
146.9999999999999
 31
0.0
  0
LINE
  5
83A9
330
8375
100
AcDbEntity
  8
0
100
AcDbLine
 10
-25.0
 20
49.99999999999996
 30
0.0
 11
-25.0
 21
146.9999999999999
 31
0.0
  0
CIRCLE
  5
83AA
330
8375
100
AcDbEntity
  8
0
100
AcDbCircle
 10
-45.0
 20
56.99999999999999
 30
0.0
 40
6.5
  0
CIRCLE
  5
83AB
330
8375
100
AcDbEntity
  8
0
100
AcDbCircle
 10
45.0
 20
56.99999999999999
 30
0.0
 40
6.5
  0
CIRCLE
  5
83AC
330
8375
100
AcDbEntity
  8
0
100
AcDbCircle
 10
-45.0
 20
127.0
 30
0.0
 40
6.5
  0
CIRCLE
  5
83AD
330
8375
100
AcDbEntity
  8
0
100
AcDbCircle
 10
-34.0
 20
41.99999999999999
 30
0.0
 40
2.5
  0
CIRCLE
  5
83AE
330
8375
100
AcDbEntity
  8
0
100
AcDbCircle
 10
-34.0
 20
61.99999999999999
 30
0.0
 40
2.5
  0
CIRCLE
  5
83AF
330
8375
100
AcDbEntity
  8
0
100
AcDbCircle
 10
-34.0
 20
82.0
 30
0.0
 40
2.5
  0
CIRCLE
  5
83B0
330
8375
100
AcDbEntity
  8
0
100
AcDbCircle
 10
-34.0
 20
102.0
 30
0.0
 40
2.5
  0
CIRCLE
  5
83B1
330
8375
100
AcDbEntity
  8
0
100
AcDbCircle
 10
-34.0
 20
122.0
 30
0.0
 40
2.5
  0
CIRCLE
  5
83B2
330
8375
100
AcDbEntity
  8
0
100
AcDbCircle
 10
34.0
 20
41.99999999999999
 30
0.0
 40
2.5
  0
CIRCLE
  5
83B3
330
8375
100
AcDbEntity
  8
0
100
AcDbCircle
 10
34.0
 20
61.99999999999999
 30
0.0
 40
2.5
  0
CIRCLE
  5
83B4
330
8375
100
AcDbEntity
  8
0
100
AcDbCircle
 10
34.0
 20
82.0
 30
0.0
 40
2.5
  0
CIRCLE
  5
83B5
330
8375
100
AcDbEntity
  8
0
100
AcDbCircle
 10
34.0
 20
102.0
 30
0.0
 40
2.5
  0
CIRCLE
  5
83B6
330
8375
100
AcDbEntity
  8
0
100
AcDbCircle
 10
34.0
 20
122.0
 30
0.0
 40
2.5
  0
CIRCLE
  5
83B7
330
8375
100
AcDbEntity
  8
0
100
AcDbCircle
 10
-34.0
 20
142.0
 30
0.0
 40
2.5
  0
CIRCLE
  5
83B8
330
8375
100
AcDbEntity
  8
0
100
AcDbCircle
 10
34.0
 20
142.0
 30
0.0
 40
2.5
  0
CIRCLE
  5
83B9
330
8375
100
AcDbEntity
  8
0
100
AcDbCircle
 10
-56.00000000000001
 20
51.99999999999999
 30
0.0
 40
2.5
  0
CIRCLE
  5
83BA
330
8375
100
AcDbEntity
  8
0
100
AcDbCircle
 10
-56.00000000000001
 20
72.0
 30
0.0
 40
2.5
  0
CIRCLE
  5
83BB
330
8375
100
AcDbEntity
  8
0
100
AcDbCircle
 10
-56.00000000000001
 20
92.0
 30
0.0
 40
2.5
  0
CIRCLE
  5
83BC
330
8375
100
AcDbEntity
  8
0
100
AcDbCircle
 10
-56.00000000000001
 20
112.0
 30
0.0
 40
2.5
  0
CIRCLE
  5
83BD
330
8375
100
AcDbEntity
  8
0
100
AcDbCircle
 10
56.00000000000001
 20
51.99999999999999
 30
0.0
 40
2.5
  0
CIRCLE
  5
83BE
330
8375
100
AcDbEntity
  8
0
100
AcDbCircle
 10
56.00000000000001
 20
72.0
 30
0.0
 40
2.5
  0
CIRCLE
  5
83BF
330
8375
100
AcDbEntity
  8
0
100
AcDbCircle
 10
56.00000000000001
 20
92.0
 30
0.0
 40
2.5
  0
CIRCLE
  5
83C0
330
8375
100
AcDbEntity
  8
0
100
AcDbCircle
 10
56.00000000000001
 20
112.0
 30
0.0
 40
2.5
  0
CIRCLE
  5
83C1
330
8375
100
AcDbEntity
  8
0
100
AcDbCircle
 10
-56.00000000000001
 20
132.0
 30
0.0
 40
2.5
  0
LINE
  5
83C2
330
8375
100
AcDbEntity
  8
0
100
AcDbLine
 10
-64.50000000000001
 20
147.0
 30
0.0
 11
-27.0
 21
147.0
 31
0.0
  0
LINE
  5
83C3
330
8375
100
AcDbEntity
  8
0
100
AcDbLine
 10
-64.50000000000004
 20
49.99999999999996
 30
0.0
 11
-64.50000000000001
 21
147.0
 31
0.0
  0
LINE
  5
83C4
330
8375
100
AcDbEntity
  8
0
100
AcDbLine
 10
-22.99999999999999
 20
2.0
 30
0.0
 11
-22.99999999999999
 21
16.99999999999999
 31
0.0
  0
LINE
  5
83C5
330
8375
100
AcDbEntity
  8
0
100
AcDbLine
 10
-25.0
 20
16.99999999999999
 30
0.0
 11
-24.99999999999999
 21
1.999999999999999
 31
0.0
  0
LINE
  5
83C6
330
8375
100
AcDbEntity
  8
0
100
AcDbLine
 10
-27.0
 20
147.0
 30
0.0
 11
-25.0
 21
147.0
 31
0.0
  0
ENDBLK
  5
8377
330
8375
100
AcDbEntity
  8
0
100
AcDbBlockEnd
  0
BLOCK
  5
83C8
330
83C7
100
AcDbEntity
  8
0
100
AcDbBlockBegin
  2
SAE340_46_2-Left
 70
     0
 10
0.0
 20
0.0
 30
0.0
  3
SAE340_46_2-Left
  1

  0
LINE
  5
83CA
330
83C7
100
AcDbEntity
  8
0
100
AcDbLine
 10
2.000000000000004
 20
-2.0
 30
0.0
 11
86.00000000000001
 21
-2.000000000000003
 31
0.0
  0
LINE
  5
83CB
330
83C7
100
AcDbEntity
  8
0
100
AcDbLine
 10
2.000000000000011
 20
2.000000000000004
 30
0.0
 11
2.000000000000004
 21
-1.999999999999999
 31
0.0
  0
LINE
  5
83CC
330
83C7
100
AcDbEntity
  8
0
100
AcDbLine
 10
86.00000000000001
 20
-2.000000000000003
 30
0.0
 11
86.00000000000001
 21
2.0
 31
0.0
  0
SPLINE
  5
83CD
330
83C7
100
AcDbEntity
  8
0
100
AcDbSpline
210
0.0
220
0.0
230
1.0
 70
     8
 71
     3
 72
    14
 73
    10
 74
     0
 42
0.000000001
 43
0.0000000001
 40
-0.4813026532970602
 40
-0.4813026532970602
 40
-0.4813026532970602
 40
-0.4813026532970602
 40
-0.3760960080984736
 40
-0.3760960080984736
 40
-0.3760960080984736
 40
-0.076528497266486
 40
-0.076528497266486
 40
-0.076528497266486
 40
0.0
 40
0.0
 40
0.0
 40
0.0
 10
0.9454120927440134
 20
18.73176011522503
 30
0.0
 10
0.8408297879959079
 20
18.76867618608262
 30
0.0
 10
0.7371129357540771
 20
18.8005409048326
 30
0.0
 10
0.6388614064368264
 20
18.83423666321235
 30
0.0
 10
0.3590980320088366
 20
18.93018264119087
 30
0.0
 10
0.1217220476551993
 20
19.04001612967886
 30
0.0
 10
0.0342615816134176
 20
19.31443386956178
 30
0.0
 10
0.0119186445645532
 20
19.38453752398739
 30
0.0
 10
0.0000045452574084
 20
19.46769665104546
 30
0.0
 10
0.0000000001152103
 20
19.56250000004001
 30
0.0
  0
SPLINE
  5
83CE
330
83C7
100
AcDbEntity
  8
0
100
AcDbSpline
210
0.0
220
0.0
230
1.0
 70
     8
 71
     3
 72
    14
 73
    10
 74
     0
 42
0.000000001
 43
0.0000000001
 40
0.0
 40
0.0
 40
0.0
 40
0.0
 40
0.3435201403994595
 40
0.3435201403994595
 40
0.3435201403994595
 40
0.7570127568073205
 40
0.7570127568073205
 40
0.7570127568073205
 40
1.0
 40
1.0
 40
1.0
 40
1.0
 10
2.00000000000001
 20
19.56249999999996
 30
0.0
 10
2.000036880620258
 20
19.30248939774764
 30
0.0
 10
1.996834301351971
 20
19.07528629123006
 30
0.0
 10
1.998675474349346
 20
18.84407074683196
 30
0.0
 10
2.00089168047647
 20
18.56575833028438
 30
0.0
 10
2.001068977478863
 20
18.27136389234689
 30
0.0
 10
2.001123170497505
 20
17.8578711880303
 30
0.0
 10
2.001155016803044
 20
17.61488389317841
 30
0.0
 10
2.000250524374791
 20
17.35819391789785
 30
0.0
 10
1.999999999992571
 20
17.00000000165263
 30
0.0
  0
LINE
  5
83CF
330
83C7
100
AcDbEntity
  8
0
100
AcDbLine
 10
0.0
 20
19.56249999999995
 30
0.0
 11
2.000000000000011
 21
19.56249999999995
 31
0.0
  0
SPLINE
  5
83D0
330
83C7
100
AcDbEntity
  8
0
100
AcDbSpline
210
0.0
220
0.0
230
1.0
 70
     8
 71
     3
 72
    18
 73
    14
 74
     0
 42
0.000000001
 43
0.0000000001
 40
0.0
 40
0.0
 40
0.0
 40
0.0
 40
0.0048729671371153
 40
0.0048729671371153
 40
0.0070353821194663
 40
0.0070353821194663
 40
0.0087994749872445
 40
0.0087994749872445
 40
0.0102139388697146
 40
0.0102139388697146
 40
0.0113405492796296
 40
0.0113405492796296
 40
0.0120695907488849
 40
0.0120695907488849
 40
0.0120695907488849
 40
0.0120695907488849
 10
1.999551536423743
 20
16.99999857008371
 30
0.0
 10
1.999501455261204
 20
17.01555893162701
 30
0.0
 10
1.999399311237798
 20
17.03064387495198
 30
0.0
 10
1.999203740488015
 20
17.0493439406262
 30
0.0
 10
1.999136854850864
 20
17.05473692732062
 30
0.0
 10
1.999013998696532
 20
17.06343421114569
 30
0.0
 10
1.998957798438386
 20
17.06697466863808
 30
0.0
 10
1.998866163903421
 20
17.07230596051439
 30
0.0
 10
1.998828540631392
 20
17.07432314511477
 30
0.0
 10
1.998775561642784
 20
17.07703972280693
 30
0.0
 10
1.998757115883628
 20
17.07793180565507
 30
0.0
 10
1.998739470221031
 20
17.07876888588331
 30
0.0
 10
1.998735706105146
 20
17.078940582735
 30
0.0
 10
1.99873570609631
 20
17.07894058313855
 30
0.0
  0
SPLINE
  5
83D1
330
83C7
100
AcDbEntity
  8
0
100
AcDbSpline
210
0.0
220
0.0
230
1.0
 70
     8
 71
     3
 72
    12
 73
     8
 74
     0
 42
0.000000001
 43
0.0000000001
 40
0.0063239168507722
 40
0.0063239168507722
 40
0.0063239168507722
 40
0.0063239168507722
 40
0.0066536744746249
 40
0.0066536744746249
 40
0.0086398637348198
 40
0.0086398637348198
 40
0.008725346936122
 40
0.008725346936122
 40
0.008725346936122
 40
0.008725346936122
 10
1.999399054355932
 20
17.02857759079096
 30
0.0
 10
1.999392884239373
 20
17.02884127815594
 30
0.0
 10
1.999387053970682
 20
17.02908879963412
 30
0.0
 10
1.999348675825837
 20
17.03070956773869
 30
0.0
 10
1.999329089675506
 20
17.03149445617393
 30
0.0
 10
1.999327499326468
 20
17.03155858686631
 30
0.0
 10
1.999327466375661
 20
17.03155991428132
 30
0.0
 10
1.999327466389775
 20
17.03155991371273
 30
0.0
  0
SPLINE
  5
83D2
330
83C7
100
AcDbEntity
  8
0
100
AcDbSpline
210
0.0
220
0.0
230
1.0
 70
     8
 71
     3
 72
    32
 73
    28
 74
     0
 42
0.000000001
 43
0.0000000001
 40
0.004564712963108
 40
0.004564712963108
 40
0.004564712963108
 40
0.004564712963108
 40
0.0070673478743643
 40
0.0070673478743643
 40
0.0097302523678463
 40
0.0097302523678463
 40
0.0113867362586877
 40
0.0113867362586877
 40
0.0131313856192174
 40
0.0131313856192174
 40
0.0155636926285984
 40
0.0155636926285984
 40
0.0212052865818411
 40
0.0212052865818411
 40
0.0381194972456412
 40
0.0381194972456412
 40
0.0891487786143933
 40
0.0891487786143933
 40
0.1164039099443638
 40
0.1164039099443638
 40
0.1533844625312934
 40
0.1533844625312934
 40
0.1869859081399947
 40
0.1869859081399947
 40
0.2293218118549448
 40
0.2293218118549448
 40
0.2446904103043712
 40
0.2446904103043712
 40
0.2446904103043712
 40
0.2446904103043712
 10
1.999436008012886
 20
17.02343351940856
 30
0.0
 10
1.999332404454081
 20
17.02730053134492
 30
0.0
 10
1.999227682539286
 20
17.03099629528329
 30
0.0
 10
1.998981968469065
 20
17.0391937093247
 30
0.0
 10
1.998837961926003
 20
17.04380822127326
 30
0.0
 10
1.998501723917615
 20
17.05367272501012
 30
0.0
 10
1.998344226477018
 20
17.05811386846437
 30
0.0
 10
1.997972214971266
 20
17.06798627048272
 30
0.0
 10
1.997753619571043
 20
17.07349135444669
 30
0.0
 10
1.997190397661774
 20
17.08684376383971
 30
0.0
 10
1.996826631611917
 20
17.09485280954212
 30
0.0
 10
1.995525627724422
 20
17.12144433135331
 30
0.0
 10
1.994458470440889
 20
17.14020064476194
 30
0.0
 10
1.989568500880454
 20
17.21499701402699
 30
0.0
 10
1.984487834789882
 20
17.27097240651482
 30
0.0
 10
1.957792708088984
 20
17.49421326126953
 30
0.0
 10
1.923086045895649
 20
17.66276590590697
 30
0.0
 10
1.836502516859826
 20
17.90877550533407
 30
0.0
 10
1.799737008746957
 20
17.992655789249
 30
0.0
 10
1.698972350013354
 20
18.17634306514186
 30
0.0
 10
1.628286279398161
 20
18.27300412669822
 30
0.0
 10
1.483812341344413
 20
18.42613744147386
 30
0.0
 10
1.409906181832352
 20
18.48742821820917
 30
0.0
 10
1.242075422932195
 20
18.60219931270988
 30
0.0
 10
1.146011123577447
 20
18.65141387787324
 30
0.0
 10
1.013499389828919
 20
18.70647216475692
 30
0.0
 10
0.9779701930363247
 20
18.71998389166251
 30
0.0
 10
0.9420912521154621
 20
18.73259712964284
 30
0.0
  0
LINE
  5
83D3
330
83C7
100
AcDbEntity
  8
0
100
AcDbLine
 10
2.000000000000011
 20
2.000000000000003
 30
0.0
 11
2.000000000000011
 21
16.99999999999999
 31
0.0
  0
LINE
  5
83D4
330
83C7
100
AcDbEntity
  8
0
100
AcDbLine
 10
2.000000000000081
 20
49.99999999999996
 30
0.0
 11
2.000000000000011
 21
19.56249999999995
 31
0.0
  0
LINE
  5
83D5
330
83C7
100
AcDbEntity
  8
0
100
AcDbLine
 10
0.0
 20
49.99999999999996
 30
0.0
 11
2.000000000000081
 21
49.99999999999996
 31
0.0
  0
LINE
  5
83D6
330
83C7
100
AcDbEntity
  8
0
100
AcDbLine
 10
0.0
 20
19.56249999999995
 30
0.0
 11
0.0
 21
49.99999999999996
 31
0.0
  0
LINE
  5
83D7
330
83C7
100
AcDbEntity
  8
0
100
AcDbLine
 10
86.00000000000003
 20
16.99999999999999
 30
0.0
 11
46.00000000000003
 21
49.99999999999996
 31
0.0
  0
LINE
  5
83D8
330
83C7
100
AcDbEntity
  8
0
100
AcDbLine
 10
46.00000000000003
 20
49.99999999999996
 30
0.0
 11
46.00000000000001
 21
146.9999999999999
 31
0.0
  0
LINE
  5
83D9
330
83C7
100
AcDbEntity
  8
0
100
AcDbLine
 10
2.000000000000081
 20
49.99999999999996
 30
0.0
 11
2.000000000000006
 21
147.0
 31
0.0
  0
LINE
  5
83DA
330
83C7
100
AcDbEntity
  8
0
100
AcDbLine
 10
86.00000000000003
 20
16.99999999999999
 30
0.0
 11
86.00000000000001
 21
1.999999999999999
 31
0.0
  0
LINE
  5
83DB
330
83C7
100
AcDbEntity
  8
0
100
AcDbLine
 10
4.000000000000003
 20
147.0
 30
0.0
 11
46.00000000000001
 21
146.9999999999999
 31
0.0
  0
LINE
  5
83DC
330
83C7
100
AcDbEntity
  8
0
100
AcDbLine
 10
0.0
 20
147.0
 30
0.0
 11
2.000000000000006
 21
147.0
 31
0.0
  0
LINE
  5
83DD
330
83C7
100
AcDbEntity
  8
0
100
AcDbLine
 10
0.0
 20
49.99999999999996
 30
0.0
 11
0.0
 21
147.0
 31
0.0
  0
LINE
  5
83DE
330
83C7
100
AcDbEntity
  8
0
100
AcDbLine
 10
2.000000000000007
 20
147.0
 30
0.0
 11
4.000000000000003
 21
147.0
 31
0.0
  0
CIRCLE
  5
83DF
330
83C7
100
AcDbEntity
  8
0
100
AcDbCircle
 10
38.50000000000001
 20
41.99999999999999
 30
0.0
 40
2.5
  0
CIRCLE
  5
83E0
330
83C7
100
AcDbEntity
  8
0
100
AcDbCircle
 10
38.50000000000001
 20
61.99999999999999
 30
0.0
 40
2.5
  0
CIRCLE
  5
83E1
330
83C7
100
AcDbEntity
  8
0
100
AcDbCircle
 10
38.50000000000001
 20
82.0
 30
0.0
 40
2.5
  0
CIRCLE
  5
83E2
330
83C7
100
AcDbEntity
  8
0
100
AcDbCircle
 10
38.50000000000001
 20
102.0
 30
0.0
 40
2.5
  0
CIRCLE
  5
83E3
330
83C7
100
AcDbEntity
  8
0
100
AcDbCircle
 10
38.50000000000001
 20
122.0
 30
0.0
 40
2.5
  0
CIRCLE
  5
83E4
330
83C7
100
AcDbEntity
  8
0
100
AcDbCircle
 10
38.50000000000001
 20
142.0
 30
0.0
 40
2.5
  0
ENDBLK
  5
83C9
330
83C7
100
AcDbEntity
  8
0
100
AcDbBlockEnd
  0
BLOCK
  5
83E6
330
83E5
100
AcDbEntity
  8
0
100
AcDbBlockBegin
  2
SAE340_46_2-Right
 70
     0
 10
0.0
 20
0.0
 30
0.0
  3
SAE340_46_2-Right
  1

  0
SPLINE
  5
83E8
330
83E5
100
AcDbEntity
  8
0
100
AcDbSpline
210
0.0
220
0.0
230
1.0
 70
     8
 71
     3
 72
    14
 73
    10
 74
     0
 42
0.000000001
 43
0.0000000001
 40
0.0
 40
0.0
 40
0.0
 40
0.0
 40
0.3435201403994595
 40
0.3435201403994595
 40
0.3435201403994595
 40
0.7570127568073205
 40
0.7570127568073205
 40
0.7570127568073205
 40
1.0
 40
1.0
 40
1.0
 40
1.0
 10
-2.00000000000001
 20
19.56249999999996
 30
0.0
 10
-2.000036880620258
 20
19.30248939774764
 30
0.0
 10
-1.996834301351971
 20
19.07528629123006
 30
0.0
 10
-1.998675474349346
 20
18.84407074683196
 30
0.0
 10
-2.00089168047647
 20
18.56575833028438
 30
0.0
 10
-2.001068977478863
 20
18.27136389234689
 30
0.0
 10
-2.001123170497505
 20
17.8578711880303
 30
0.0
 10
-2.001155016803044
 20
17.61488389317841
 30
0.0
 10
-2.000250524374791
 20
17.35819391789785
 30
0.0
 10
-1.999999999992571
 20
17.00000000165263
 30
0.0
  0
SPLINE
  5
83E9
330
83E5
100
AcDbEntity
  8
0
100
AcDbSpline
210
0.0
220
0.0
230
1.0
 70
     8
 71
     3
 72
    14
 73
    10
 74
     0
 42
0.000000001
 43
0.0000000001
 40
-0.4813026532970845
 40
-0.4813026532970845
 40
-0.4813026532970845
 40
-0.4813026532970845
 40
-0.3760960080984736
 40
-0.3760960080984736
 40
-0.3760960080984736
 40
-0.076528497266486
 40
-0.076528497266486
 40
-0.076528497266486
 40
0.0
 40
0.0
 40
0.0
 40
0.0
 10
-0.9454120927440865
 20
18.73176011522501
 30
0.0
 10
-0.840829787995956
 20
18.7686761860826
 30
0.0
 10
-0.7371129357541
 20
18.80054090483259
 30
0.0
 10
-0.6388614064368264
 20
18.83423666321235
 30
0.0
 10
-0.3590980320088366
 20
18.93018264119087
 30
0.0
 10
-0.1217220476551993
 20
19.04001612967886
 30
0.0
 10
-0.0342615816134176
 20
19.31443386956178
 30
0.0
 10
-0.0119186445645532
 20
19.38453752398739
 30
0.0
 10
-0.0000045452574084
 20
19.46769665104546
 30
0.0
 10
-0.0000000001152103
 20
19.56250000004001
 30
0.0
  0
LINE
  5
83EA
330
83E5
100
AcDbEntity
  8
0
100
AcDbLine
 10
-2.000000000000011
 20
19.56249999999995
 30
0.0
 11
0.0
 21
19.56249999999995
 31
0.0
  0
SPLINE
  5
83EB
330
83E5
100
AcDbEntity
  8
0
100
AcDbSpline
210
0.0
220
0.0
230
1.0
 70
     8
 71
     3
 72
    18
 73
    14
 74
     0
 42
0.000000001
 43
0.0000000001
 40
0.0122744830582443
 40
0.0122744830582443
 40
0.0122744830582443
 40
0.0122744830582443
 40
0.0127922476656704
 40
0.0127922476656704
 40
0.0141039698250395
 40
0.0141039698250395
 40
0.0167552321452017
 40
0.0167552321452017
 40
0.0193828999302553
 40
0.0193828999302553
 40
0.0227949751901348
 40
0.0227949751901348
 40
0.0243496808512687
 40
0.0243496808512687
 40
0.0243496808512687
 40
0.0243496808512687
 10
-1.998735706096247
 20
17.07894058314142
 30
0.0
 10
-1.998735706096983
 20
17.07894058310784
 30
0.0
 10
-1.998737581483026
 20
17.07885499785561
 30
0.0
 10
-1.998750171843811
 20
17.07826494217224
 30
0.0
 10
-1.998770288867423
 20
17.07730702857556
 30
0.0
 10
-1.9988520364566
 20
17.0731242712917
 30
0.0
 10
-1.99893514989982
 20
17.06852994819875
 30
0.0
 10
-1.999099882286477
 20
17.05760342135639
 30
0.0
 10
-1.999183729707894
 20
17.05116828759992
 30
0.0
 10
-1.999352847327051
 20
17.03519352389388
 30
0.0
 10
-1.999433043625709
 20
17.02512813654591
 30
0.0
 10
-1.999514685042201
 20
17.00985788592444
 30
0.0
 10
-1.999535558177898
 20
17.00496305712003
 30
0.0
 10
-1.999551536423743
 20
16.99999857008371
 30
0.0
  0
SPLINE
  5
83EC
330
83E5
100
AcDbEntity
  8
0
100
AcDbSpline
210
0.0
220
0.0
230
1.0
 70
     8
 71
     3
 72
    10
 73
     6
 74
     0
 42
0.000000001
 43
0.0000000001
 40
0.0086744412328501
 40
0.0086744412328501
 40
0.0086744412328501
 40
0.0086744412328501
 40
0.0108228418716111
 40
0.0108228418716111
 40
0.0110653810367492
 40
0.0110653810367492
 40
0.0110653810367492
 40
0.0110653810367492
 10
-1.999327466389649
 20
17.03155991371784
 30
0.0
 10
-1.99932746638626
 20
17.03155991385443
 30
0.0
 10
-1.99934897512434
 20
17.03070111133857
 30
0.0
 10
-1.999389896284595
 20
17.02896801302477
 30
0.0
 10
-1.999394241633689
 20
17.028783230156
 30
0.0
 10
-1.999398770914103
 20
17.02858970286247
 30
0.0
  0
SPLINE
  5
83ED
330
83E5
100
AcDbEntity
  8
0
100
AcDbSpline
210
0.0
220
0.0
230
1.0
 70
     8
 71
     3
 72
    28
 73
    24
 74
     0
 42
0.000000001
 43
0.0000000001
 40
0.0
 40
0.0
 40
0.0
 40
0.0
 40
0.0650016965087558
 40
0.0650016965087558
 40
0.1023228294608179
 40
0.1023228294608179
 40
0.1414747326714867
 40
0.1414747326714867
 40
0.1748987385458948
 40
0.1748987385458948
 40
0.2169224706809403
 40
0.2169224706809403
 40
0.2285442986838723
 40
0.2285442986838723
 40
0.2315623594410598
 40
0.2315623594410598
 40
0.23318507093639
 40
0.23318507093639
 40
0.234818157618148
 40
0.234818157618148
 40
0.238101286323758
 40
0.238101286323758
 40
0.2399160756069655
 40
0.2399160756069655
 40
0.2399160756069655
 40
0.2399160756069655
 10
-0.9420912521155324
 20
18.73259712964281
 30
0.0
 10
-1.093841721520263
 20
18.67924926777449
 30
0.0
 10
-1.242353898730659
 20
18.60988799342576
 30
0.0
 10
-1.466451771011676
 20
18.44171617371195
 30
0.0
 10
-1.547407943203763
 20
18.3659414611029
 30
0.0
 10
-1.695446554661117
 20
18.18241413825219
 30
0.0
 10
-1.763061289549568
 20
18.07040741116294
 30
0.0
 10
-1.860492149633068
 20
17.85077461309657
 30
0.0
 10
-1.895809632776103
 20
17.74321521028993
 30
0.0
 10
-1.955909904598865
 20
17.49957396120076
 30
0.0
 10
-1.976604789861012
 20
17.36178356810119
 30
0.0
 10
-1.991708370868089
 20
17.18431953877076
 30
0.0
 10
-1.994292669593816
 20
17.1456006621967
 30
0.0
 10
-1.996716769270032
 20
17.09729830254428
 30
0.0
 10
-1.99717421588618
 20
17.08730858609197
 30
0.0
 10
-1.997791800469424
 20
17.07253295721658
 30
0.0
 10
-1.997992861248763
 20
17.06744441344199
 30
0.0
 10
-1.998347803048706
 20
17.05801262832287
 30
0.0
 10
-1.998502718509536
 20
17.05364289552281
 30
0.0
 10
-1.998885696674036
 20
17.04240908760235
 30
0.0
 10
-1.999047032940302
 20
17.03711941524383
 30
0.0
 10
-1.999275993866459
 20
17.02927101843252
 30
0.0
 10
-1.999356886192704
 20
17.02637473924044
 30
0.0
 10
-1.999436029917594
 20
17.02341154908786
 30
0.0
  0
LINE
  5
83EE
330
83E5
100
AcDbEntity
  8
0
100
AcDbLine
 10
-2.000000000000004
 20
-2.0
 30
0.0
 11
-86.00000000000001
 21
-2.0
 31
0.0
  0
LINE
  5
83EF
330
83E5
100
AcDbEntity
  8
0
100
AcDbLine
 10
-2.000000000000011
 20
2.000000000000003
 30
0.0
 11
-2.000000000000011
 21
16.99999999999999
 31
0.0
  0
LINE
  5
83F0
330
83E5
100
AcDbEntity
  8
0
100
AcDbLine
 10
-2.000000000000011
 20
2.000000000000004
 30
0.0
 11
-2.000000000000004
 21
-1.999999999999999
 31
0.0
  0
LINE
  5
83F1
330
83E5
100
AcDbEntity
  8
0
100
AcDbLine
 10
-86.00000000000001
 20
-2.000000000000003
 30
0.0
 11
-86.00000000000001
 21
2.0
 31
0.0
  0
LINE
  5
83F2
330
83E5
100
AcDbEntity
  8
0
100
AcDbLine
 10
0.0
 20
49.99999999999996
 30
0.0
 11
0.0
 21
19.56249999999995
 31
0.0
  0
LINE
  5
83F3
330
83E5
100
AcDbEntity
  8
0
100
AcDbLine
 10
-2.000000000000081
 20
49.99999999999996
 30
0.0
 11
0.0
 21
49.99999999999996
 31
0.0
  0
LINE
  5
83F4
330
83E5
100
AcDbEntity
  8
0
100
AcDbLine
 10
-2.000000000000011
 20
19.56249999999995
 30
0.0
 11
-2.000000000000081
 21
49.99999999999996
 31
0.0
  0
LINE
  5
83F5
330
83E5
100
AcDbEntity
  8
0
100
AcDbLine
 10
0.0
 20
49.99999999999996
 30
0.0
 11
0.0
 21
147.0
 31
0.0
  0
CIRCLE
  5
83F6
330
83E5
100
AcDbEntity
  8
0
100
AcDbCircle
 10
-38.50000000000002
 20
132.0
 30
0.0
 40
2.5
  0
LINE
  5
83F7
330
83E5
100
AcDbEntity
  8
0
100
AcDbLine
 10
-46.00000000000003
 20
49.99999999999996
 30
0.0
 11
-86.00000000000003
 21
16.99999999999999
 31
0.0
  0
LINE
  5
83F8
330
83E5
100
AcDbEntity
  8
0
100
AcDbLine
 10
-46.00000000000001
 20
146.9999999999999
 30
0.0
 11
-46.00000000000003
 21
49.99999999999996
 31
0.0
  0
LINE
  5
83F9
330
83E5
100
AcDbEntity
  8
0
100
AcDbLine
 10
-86.00000000000003
 20
16.99999999999999
 30
0.0
 11
-86.00000000000001
 21
1.999999999999999
 31
0.0
  0
LINE
  5
83FA
330
83E5
100
AcDbEntity
  8
0
100
AcDbLine
 10
-4.000000000000003
 20
147.0
 30
0.0
 11
-46.00000000000001
 21
146.9999999999999
 31
0.0
  0
LINE
  5
83FB
330
83E5
100
AcDbEntity
  8
0
100
AcDbLine
 10
-2.000000000000007
 20
147.0
 30
0.0
 11
-4.000000000000003
 21
147.0
 31
0.0
  0
LINE
  5
83FC
330
83E5
100
AcDbEntity
  8
0
100
AcDbLine
 10
0.0
 20
147.0
 30
0.0
 11
-2.000000000000006
 21
147.0
 31
0.0
  0
LINE
  5
83FD
330
83E5
100
AcDbEntity
  8
0
100
AcDbLine
 10
-2.000000000000081
 20
49.99999999999996
 30
0.0
 11
-2.000000000000006
 21
147.0
 31
0.0
  0
CIRCLE
  5
83FE
330
83E5
100
AcDbEntity
  8
0
100
AcDbCircle
 10
-38.50000000000002
 20
31.99999999999997
 30
0.0
 40
2.5
  0
CIRCLE
  5
83FF
330
83E5
100
AcDbEntity
  8
0
100
AcDbCircle
 10
-38.50000000000002
 20
51.99999999999997
 30
0.0
 40
2.5
  0
CIRCLE
  5
8400
330
83E5
100
AcDbEntity
  8
0
100
AcDbCircle
 10
-38.50000000000002
 20
71.99999999999997
 30
0.0
 40
2.5
  0
CIRCLE
  5
8401
330
83E5
100
AcDbEntity
  8
0
100
AcDbCircle
 10
-38.50000000000002
 20
91.99999999999997
 30
0.0
 40
2.5
  0
CIRCLE
  5
8402
330
83E5
100
AcDbEntity
  8
0
100
AcDbCircle
 10
-38.50000000000002
 20
111.9999999999999
 30
0.0
 40
2.5
  0
SPLINE
  5
8403
330
83E5
100
AcDbEntity
  8
0
100
AcDbSpline
210
0.0
220
0.0
230
1.0
 70
     8
 71
     3
 72
    10
 73
     6
 74
     0
 42
0.000000001
 43
0.0000000001
 40
0.0218311961771792
 40
0.0218311961771792
 40
0.0218311961771792
 40
0.0218311961771792
 40
0.0227949751901348
 40
0.0227949751901348
 40
0.0243496808512687
 40
0.0243496808512687
 40
0.0243496808512687
 40
0.0243496808512687
 10
-1.999436029917593
 20
17.02341154908787
 30
0.0
 10
-1.999455521736258
 20
17.02053011842135
 30
0.0
 10
-1.999473287473136
 20
17.01760090756587
 30
0.0
 10
-1.999514685042201
 20
17.00985788592444
 30
0.0
 10
-1.999535558177898
 20
17.00496305712003
 30
0.0
 10
-1.999551536423743
 20
16.99999857008371
 30
0.0
  0
ENDBLK
  5
83E7
330
83E5
100
AcDbEntity
  8
0
100
AcDbBlockEnd
  0
BLOCK
  5
8405
330
8404
100
AcDbEntity
  8
0
100
AcDbBlockBegin
  2
SAE340_46_2-Top
 70
     0
 10
0.0
 20
0.0
 30
0.0
  3
SAE340_46_2-Top
  1

  0
LINE
  5
8407
330
8404
100
AcDbEntity
  8
0
100
AcDbLine
 10
23.00000000000001
 20
-2.000000000000007
 30
0.0
 11
23.00000000000001
 21
-2.069004766157688
 31
0.0
  0
SPLINE
  5
8408
330
8404
100
AcDbEntity
  8
0
100
AcDbSpline
210
0.0
220
0.0
230
1.0
 70
     8
 71
     3
 72
    11
 73
     7
 74
     0
 42
0.000000001
 43
0.0000000001
 40
-1.0
 40
-1.0
 40
-1.0
 40
-1.0
 40
-0.7994286890738256
 40
-0.7994286890738256
 40
-0.7994286890738256
 40
-0.6533573777220317
 40
-0.6533573777220317
 40
-0.6533573777220317
 40
-0.6533573777220317
 10
23.00000000000002
 20
-1.999999999999992
 30
0.0
 10
22.99999961270325
 20
-1.99909354323102
 30
0.0
 10
23.12633150600533
 20
-1.919863896634895
 30
0.0
 10
23.33607694563379
 20
-1.790687786204136
 30
0.0
 10
23.48882955653867
 20
-1.696611899883135
 30
0.0
 10
23.68837056420442
 20
-1.577391377851817
 30
0.0
 10
23.91982716790707
 20
-1.445337717162703
 30
0.0
  0
SPLINE
  5
8409
330
8404
100
AcDbEntity
  8
0
100
AcDbSpline
210
0.0
220
0.0
230
1.0
 70
     8
 71
     3
 72
    24
 73
    20
 74
     0
 42
0.000000001
 43
0.0000000001
 40
0.0
 40
0.0
 40
0.0
 40
0.0
 40
0.0070452398527911
 40
0.0070452398527911
 40
0.0166405949169572
 40
0.0166405949169572
 40
0.0367140942422326
 40
0.0367140942422326
 40
0.0488284899521741
 40
0.0488284899521741
 40
0.0619891282724018
 40
0.0619891282724018
 40
0.0705213679792592
 40
0.0705213679792592
 40
0.0770085533403992
 40
0.0770085533403992
 40
0.0824905607506684
 40
0.0824905607506684
 40
0.0857779388064469
 40
0.0857779388064469
 40
0.0857779388064469
 40
0.0857779388064469
 10
27.5620298567518
 20
-2.000020061973667
 30
0.0
 10
27.5451057227564
 20
-2.000020928437336
 30
0.0
 10
27.52555210342463
 20
-2.00002813429158
 30
0.0
 10
27.47775545401184
 20
-2.000061132070816
 30
0.0
 10
27.44841962906898
 20
-2.000093689688041
 30
0.0
 10
27.35657224067352
 20
-2.000268440249837
 30
0.0
 10
27.29198494490006
 20
-2.000513808507186
 30
0.0
 10
27.19633422830145
 20
-2.000879055387073
 30
0.0
 10
27.1627308169435
 20
-2.000996414973669
 30
0.0
 10
27.09183574212391
 20
-2.001409809828417
 30
0.0
 10
27.05253731370943
 20
-2.001731207546967
 30
0.0
 10
26.98400779001607
 20
-2.002903978539703
 30
0.0
 10
26.95599554113196
 20
-2.003538353557023
 30
0.0
 10
26.90628512835332
 20
-2.005134925843614
 30
0.0
 10
26.88449296277911
 20
-2.00598988580437
 30
0.0
 10
26.84475199403932
 20
-2.007923221138157
 30
0.0
 10
26.82655876560195
 20
-2.008956309595987
 30
0.0
 10
26.79849245258499
 20
-2.010813887644157
 30
0.0
 10
26.78811205309603
 20
-2.011562777479007
 30
0.0
 10
26.77819160777444
 20
-2.012338160981164
 30
0.0
  0
SPLINE
  5
840A
330
8404
100
AcDbEntity
  8
0
100
AcDbSpline
210
0.0
220
0.0
230
1.0
 70
     8
 71
     3
 72
     8
 73
     4
 74
     0
 42
0.000000001
 43
0.0000000001
 40
0.0074009687827891
 40
0.0074009687827891
 40
0.0074009687827891
 40
0.0074009687827891
 40
0.012633819195327
 40
0.012633819195327
 40
0.012633819195327
 40
0.012633819195327
 10
25.00006332208735
 20
-3.9948052796676
 30
0.0
 10
25.00006332193184
 20
-3.994805292080852
 30
0.0
 10
25.00004002244783
 20
-3.996603432326675
 30
0.0
 10
25.00000374810265
 20
-3.999999919748027
 30
0.0
  0
SPLINE
  5
840B
330
8404
100
AcDbEntity
  8
0
100
AcDbSpline
210
0.0
220
0.0
230
1.0
 70
     8
 71
     3
 72
    12
 73
     8
 74
     0
 42
0.000000001
 43
0.0000000001
 40
0.0089798063603442
 40
0.0089798063603442
 40
0.0089798063603442
 40
0.0089798063603442
 40
0.0113546904429064
 40
0.0113546904429064
 40
0.012907992913763
 40
0.012907992913763
 40
0.0147901906162067
 40
0.0147901906162067
 40
0.0147901906162067
 40
0.0147901906162067
 10
25.00020088397195
 20
-3.981813493194326
 30
0.0
 10
25.00020088397253
 20
-3.981813493143893
 30
0.0
 10
25.00019109027672
 20
-3.982640349753106
 30
0.0
 10
25.00015844450413
 20
-3.98582847598639
 30
0.0
 10
25.0001412836337
 20
-3.987570897805646
 30
0.0
 10
25.00009779322026
 20
-3.992494576780925
 30
0.0
 10
25.00007004580908
 20
-3.995945542543307
 30
0.0
 10
25.00004324852711
 20
-4.000000279118447
 30
0.0
  0
SPLINE
  5
840C
330
8404
100
AcDbEntity
  8
0
100
AcDbSpline
210
0.0
220
0.0
230
1.0
 70
     8
 71
     3
 72
    12
 73
     8
 74
     0
 42
0.000000001
 43
0.0000000001
 40
0.063390238885382
 40
0.063390238885382
 40
0.063390238885382
 40
0.063390238885382
 40
0.0668508599962113
 40
0.0668508599962113
 40
0.0731934890163145
 40
0.0731934890163145
 40
0.0741567116081944
 40
0.0741567116081944
 40
0.0741567116081944
 40
0.0741567116081944
 10
25.00192089813212
 20
-3.912418193728284
 30
0.0
 10
25.00167553405574
 20
-3.920252331254583
 30
0.0
 10
25.00143976107548
 20
-3.928419444647003
 30
0.0
 10
25.00082485104665
 20
-3.952312251860848
 30
0.0
 10
25.00047951632223
 20
-3.968845954578385
 30
0.0
 10
25.00016592107612
 20
-3.9884829915232
 30
0.0
 10
25.00012542796155
 20
-3.991142056269689
 30
0.0
 10
25.00008986415954
 20
-3.993579136993019
 30
0.0
  0
SPLINE
  5
840D
330
8404
100
AcDbEntity
  8
0
100
AcDbSpline
210
0.0
220
0.0
230
1.0
 70
     8
 71
     3
 72
    16
 73
    12
 74
     0
 42
0.000000001
 43
0.0000000001
 40
0.0743248550352774
 40
0.0743248550352774
 40
0.0743248550352774
 40
0.0743248550352774
 40
0.0744551854607691
 40
0.0744551854607691
 40
0.0745928350280375
 40
0.0745928350280375
 40
0.0748710363422581
 40
0.0748710363422581
 40
0.0754202656403216
 40
0.0754202656403216
 40
0.0754613372492557
 40
0.0754613372492557
 40
0.0754613372492557
 40
0.0754613372492557
 10
25.00007209549121
 20
-3.994805555265166
 30
0.0
 10
25.0000677259694
 20
-3.995109519337262
 30
0.0
 10
25.00006360810662
 20
-3.995397691937192
 30
0.0
 10
25.00005608291161
 20
-3.995926675865853
 30
0.0
 10
25.00005273470075
 20
-3.996163418728134
 30
0.0
 10
25.00004478612781
 20
-3.996726993844415
 30
0.0
 10
25.00004229195487
 20
-3.996905685299659
 30
0.0
 10
25.00003783922702
 20
-3.997224021860664
 30
0.0
 10
25.00003789664515
 20
-3.997220192398678
 30
0.0
 10
25.00003783815402
 20
-3.997224385834901
 30
0.0
 10
25.00003783627459
 20
-3.997224520582244
 30
0.0
 10
25.00003783627458
 20
-3.997224520582729
 30
0.0
  0
SPLINE
  5
840E
330
8404
100
AcDbEntity
  8
0
100
AcDbSpline
210
0.0
220
0.0
230
1.0
 70
     8
 71
     3
 72
     8
 73
     4
 74
     0
 42
0.000000001
 43
0.0000000001
 40
0.0225532243990715
 40
0.0225532243990715
 40
0.0225532243990715
 40
0.0225532243990715
 40
0.0230051729680748
 40
0.0230051729680748
 40
0.0230051729680748
 40
0.0230051729680748
 10
25.0000591873221
 20
-3.99766994677453
 30
0.0
 10
25.00006217928897
 20
-3.998455702467873
 30
0.0
 10
25.00006517830222
 20
-3.999233160579853
 30
0.0
 10
25.00006818308746
 20
-3.999999804535634
 30
0.0
  0
SPLINE
  5
840F
330
8404
100
AcDbEntity
  8
0
100
AcDbSpline
210
0.0
220
0.0
230
1.0
 70
     8
 71
     3
 72
    12
 73
     8
 74
     0
 42
0.000000001
 43
0.0000000001
 40
0.0101225234414586
 40
0.0101225234414586
 40
0.0101225234414586
 40
0.0101225234414586
 40
0.0121410334134205
 40
0.0121410334134205
 40
0.0133830839640785
 40
0.0133830839640785
 40
0.0141064566924752
 40
0.0141064566924752
 40
0.0141064566924752
 40
0.0141064566924752
 10
24.9999899873443
 20
-3.998412118455449
 30
0.0
 10
24.99998998734407
 20
-3.99841211842086
 30
0.0
 10
24.99999068851426
 20
-3.998522768373211
 30
0.0
 10
24.99999494974159
 20
-3.999182165486803
 30
0.0
 10
24.99999820806424
 20
-3.99968400411199
 30
0.0
 10
25.00000191630416
 20
-4.000251941185462
 30
0.0
 10
25.00000285308656
 20
-4.000394832495972
 30
0.0
 10
25.00000285306293
 20
-4.000394828891828
 30
0.0
  0
SPLINE
  5
8410
330
8404
100
AcDbEntity
  8
0
100
AcDbSpline
210
0.0
220
0.0
230
1.0
 70
     8
 71
     3
 72
    36
 73
    32
 74
     0
 42
0.000000001
 43
0.0000000001
 40
0.0060573707525428
 40
0.0060573707525428
 40
0.0060573707525428
 40
0.0060573707525428
 40
0.0062396592270568
 40
0.0062396592270568
 40
0.0085854932075483
 40
0.0085854932075483
 40
0.0092115017543939
 40
0.0092115017543939
 40
0.0098395509821608
 40
0.0098395509821608
 40
0.0111071424785389
 40
0.0111071424785389
 40
0.0161326476723341
 40
0.0161326476723341
 40
0.0230241162306105
 40
0.0230241162306105
 40
0.0436994219100258
 40
0.0436994219100258
 40
0.1057223645725195
 40
0.1057223645725195
 40
0.1638974659939272
 40
0.1638974659939272
 40
0.1928509943976878
 40
0.1928509943976878
 40
0.2075025903449537
 40
0.2075025903449537
 40
0.2152389656976211
 40
0.2152389656976211
 40
0.2194138366553185
 40
0.2194138366553185
 40
0.2237806008277854
 40
0.2237806008277854
 40
0.2237806008277854
 40
0.2237806008277854
 10
22.99996686903221
 20
-3.998253347946888
 30
0.0
 10
22.99996617740027
 20
-3.998213466531619
 30
0.0
 10
22.99996545951381
 20
-3.998172071972235
 30
0.0
 10
22.99995509298701
 20
-3.997574325510207
 30
0.0
 10
22.99994443490375
 20
-3.99696229049841
 30
0.0
 10
22.99989591700308
 20
-3.994156813192613
 30
0.0
 10
22.99988322330527
 20
-3.993422310072294
 30
0.0
 10
22.99985080753712
 20
-3.9915426172061
 30
0.0
 10
22.99983076097346
 20
-3.990378500819249
 30
0.0
 10
22.99976098684855
 20
-3.986314162312556
 30
0.0
 10
22.99970188271614
 20
-3.982854395274155
 30
0.0
 10
22.99940248115335
 20
-3.965183220961535
 30
0.0
 10
22.99914316102979
 20
-3.949428259841321
 30
0.0
 10
22.99856512299718
 20
-3.913030887714803
 30
0.0
 10
22.99824495679
 20
-3.891873048494266
 30
0.0
 10
22.9970316732729
 20
-3.807354861921363
 30
0.0
 10
22.99627363648035
 20
-3.744128110866249
 30
0.0
 10
22.99386222159173
 20
-3.493665200873498
 30
0.0
 10
22.99340170464447
 20
-3.309130841228244
 30
0.0
 10
22.99381558165253
 20
-2.94024040466943
 30
0.0
 10
22.99468491749003
 20
-2.756039341950588
 30
0.0
 10
22.99654559828593
 20
-2.485247560417559
 30
0.0
 10
22.99721056603625
 20
-2.397090942921788
 30
0.0
 10
22.99846350979796
 20
-2.264078582807046
 30
0.0
 10
22.99895216028439
 20
-2.218568062621053
 30
0.0
 10
22.99940823380488
 20
-2.154905722653302
 30
0.0
 10
22.99950857300594
 20
-2.134022692777234
 30
0.0
 10
22.99957827625146
 20
-2.106007570960667
 30
0.0
 10
22.99958818820906
 20
-2.096878960689129
 30
0.0
 10
22.99959044552732
 20
-2.080664321851657
 30
0.0
 10
22.99958166099706
 20
-2.07354287441965
 30
0.0
 10
22.99957228829779
 20
-2.069004766157688
 30
0.0
  0
SPLINE
  5
8411
330
8404
100
AcDbEntity
  8
0
100
AcDbSpline
210
0.0
220
0.0
230
1.0
 70
     8
 71
     3
 72
    12
 73
     8
 74
     0
 42
0.000000001
 43
0.0000000001
 40
0.0
 40
0.0
 40
0.0
 40
0.0
 40
0.0073680638616734
 40
0.0073680638616734
 40
0.0094714794556209
 40
0.0094714794556209
 40
0.0106892344327883
 40
0.0106892344327883
 40
0.0106892344327883
 40
0.0106892344327883
 10
22.99996053853821
 20
-3.999985503002882
 30
0.0
 10
23.00000120689113
 20
-3.988738678362583
 30
0.0
 10
23.00005705426698
 20
-3.97681739747924
 30
0.0
 10
23.00011475911483
 20
-3.966829073041799
 30
0.0
 10
23.00012596496212
 20
-3.965004429900667
 30
0.0
 10
23.00013624741454
 20
-3.963340749419028
 30
0.0
 10
23.00013843227597
 20
-3.962989239743823
 30
0.0
 10
23.00013843227592
 20
-3.96298923975184
 30
0.0
  0
LINE
  5
8412
330
8404
100
AcDbEntity
  8
0
100
AcDbLine
 10
-23.00000000000001
 20
-2.000000000000007
 30
0.0
 11
-23.00000000000001
 21
-2.069004766157421
 31
0.0
  0
SPLINE
  5
8413
330
8404
100
AcDbEntity
  8
0
100
AcDbSpline
210
0.0
220
0.0
230
1.0
 70
     8
 71
     3
 72
    11
 73
     7
 74
     0
 42
0.000000001
 43
0.0000000001
 40
-1.0
 40
-1.0
 40
-1.0
 40
-1.0
 40
-0.7994286890738256
 40
-0.7994286890738256
 40
-0.7994286890738256
 40
-0.6533573777220317
 40
-0.6533573777220317
 40
-0.6533573777220317
 40
-0.6533573777220317
 10
-23.00000000000002
 20
-1.999999999999992
 30
0.0
 10
-22.99999961270325
 20
-1.99909354323102
 30
0.0
 10
-23.12633150600533
 20
-1.919863896634895
 30
0.0
 10
-23.33607694563379
 20
-1.790687786204136
 30
0.0
 10
-23.48882955653867
 20
-1.696611899883135
 30
0.0
 10
-23.68837056420442
 20
-1.577391377851817
 30
0.0
 10
-23.91982716790707
 20
-1.445337717162703
 30
0.0
  0
SPLINE
  5
8414
330
8404
100
AcDbEntity
  8
0
100
AcDbSpline
210
0.0
220
0.0
230
1.0
 70
     8
 71
     3
 72
    36
 73
    32
 74
     0
 42
0.000000001
 43
0.0000000001
 40
0.0
 40
0.0
 40
0.0
 40
0.0
 40
0.0038040598051069
 40
0.0038040598051069
 40
0.0084789254280355
 40
0.0084789254280355
 40
0.0158054478358357
 40
0.0158054478358357
 40
0.0260000339750554
 40
0.0260000339750554
 40
0.0495206344273475
 40
0.0495206344273475
 40
0.1201103943691143
 40
0.1201103943691143
 40
0.1694133169526242
 40
0.1694133169526242
 40
0.1942220635714088
 40
0.1942220635714088
 40
0.2064767424369803
 40
0.2064767424369803
 40
0.2126069905946568
 40
0.2126069905946568
 40
0.2135995884301721
 40
0.2135995884301721
 40
0.2144116194474573
 40
0.2144116194474573
 40
0.2153140025826875
 40
0.2153140025826875
 40
0.2164060136524627
 40
0.2164060136524627
 40
0.2177036801390989
 40
0.2177036801390989
 40
0.2177036801390989
 40
0.2177036801390989
 10
-22.99957228829779
 20
-2.069004766157421
 30
0.0
 10
-22.9995804532243
 20
-2.072958090529447
 30
0.0
 10
-22.99958825487934
 20
-2.078881092827015
 30
0.0
 10
-22.99959053786108
 20
-2.094285445168039
 30
0.0
 10
-22.99958182785658
 20
-2.104402911837751
 30
0.0
 10
-22.99951287324365
 20
-2.132562809744934
 30
0.0
 10
-22.99942216624643
 20
-2.15217078973582
 30
0.0
 10
-22.99908018252255
 20
-2.201629642004914
 30
0.0
 10
-22.99878019265801
 20
-2.232656804692198
 30
0.0
 10
-22.99777927584696
 20
-2.335149023025489
 30
0.0
 10
-22.99716324831702
 20
-2.406783034311118
 30
0.0
 10
-22.9949874472167
 20
-2.695965694126418
 30
0.0
 10
-22.99378539086352
 20
-2.921302524945307
 30
0.0
 10
-22.99346454344544
 20
-3.28867414886087
 30
0.0
 10
-22.99377304810517
 20
-3.436285040658463
 30
0.0
 10
-22.99539840856983
 20
-3.659531191055408
 30
0.0
 10
-22.99614620642251
 20
-3.734714267235894
 30
0.0
 10
-22.99760569275909
 20
-3.848122421588265
 30
0.0
 10
-22.99814328061424
 20
-3.88577393219494
 30
0.0
 10
-22.99902223832696
 20
-3.942030479492719
 30
0.0
 10
-22.99933800766438
 20
-3.961362970547947
 30
0.0
 10
-22.99967856076602
 20
-3.981480006808301
 30
0.0
 10
-22.99972506791615
 20
-3.984210244751681
 30
0.0
 10
-22.99979991769293
 20
-3.988584336723967
 30
0.0
 10
-22.99983001206042
 20
-3.990334960825667
 30
0.0
 10
-22.99987944343604
 20
-3.99320426565636
 30
0.0
 10
-22.99989784911736
 20
-3.994268761494667
 30
0.0
 10
-22.99992781111098
 20
-3.996000648231841
 30
0.0
 10
-22.99993798692692
 20
-3.996587620701545
 30
0.0
 10
-22.99995539001847
 20
-3.997591537732904
 30
0.0
 10
-22.99996192061339
 20
-3.997968115403918
 30
0.0
 10
-22.99996686875577
 20
-3.998253422656503
 30
0.0
  0
SPLINE
  5
8415
330
8404
100
AcDbEntity
  8
0
100
AcDbSpline
210
0.0
220
0.0
230
1.0
 70
     8
 71
     3
 72
    14
 73
    10
 74
     0
 42
0.000000001
 43
0.0000000001
 40
0.007786780782281
 40
0.007786780782281
 40
0.007786780782281
 40
0.007786780782281
 40
0.0083979033333164
 40
0.0083979033333164
 40
0.0105249655094945
 40
0.0105249655094945
 40
0.01386449236855
 40
0.01386449236855
 40
0.0184801346838515
 40
0.0184801346838515
 40
0.0184801346838515
 40
0.0184801346838515
 10
-23.00013843227592
 20
-3.962989239749957
 30
0.0
 10
-23.00013843227589
 20
-3.962989239755175
 30
0.0
 10
-23.00013788506632
 20
-3.963077842488063
 30
0.0
 10
-23.00013331027563
 20
-3.963815700331486
 30
0.0
 10
-23.00012394049646
 20
-3.965314845153421
 30
0.0
 10
-23.00009364632179
 20
-3.970424767459573
 30
0.0
 10
-23.00006960355248
 20
-3.974738183337494
 30
0.0
 10
-23.00001543374094
 20
-3.985811780934296
 30
0.0
 10
-22.99998601477923
 20
-3.992940053791675
 30
0.0
 10
-22.99996053853824
 20
-3.999985503002887
 30
0.0
  0
SPLINE
  5
8416
330
8404
100
AcDbEntity
  8
0
100
AcDbSpline
210
0.0
220
0.0
230
1.0
 70
     8
 71
     3
 72
     8
 73
     4
 74
     0
 42
0.000000001
 43
0.0000000001
 40
0.0
 40
0.0
 40
0.0
 40
0.0
 40
0.0004520061835018
 40
0.0004520061835018
 40
0.0004520061835018
 40
0.0004520061835018
 10
-25.00006818308746
 20
-3.999999804535634
 30
0.0
 10
-25.00006517791916
 20
-3.99923306284797
 30
0.0
 10
-25.00006218292489
 20
-3.998454380290292
 30
0.0
 10
-25.00005919128888
 20
-3.9976687114858
 30
0.0
  0
SPLINE
  5
8417
330
8404
100
AcDbEntity
  8
0
100
AcDbSpline
210
0.0
220
0.0
230
1.0
 70
     8
 71
     3
 72
    10
 73
     6
 74
     0
 42
0.000000001
 43
0.0000000001
 40
0.0346040522223707
 40
0.0346040522223707
 40
0.0346040522223707
 40
0.0346040522223707
 40
0.035201512227037
 40
0.035201512227037
 40
0.0453454752857302
 40
0.0453454752857302
 40
0.0453454752857302
 40
0.0453454752857302
 10
-25.00008967990402
 20
-3.993592841540342
 30
0.0
 10
-25.0001117437608
 20
-3.992080871586617
 30
0.0
 10
-25.00013635880327
 20
-3.990436553797569
 30
0.0
 10
-25.00058095827941
 20
-3.961637049521069
 30
0.0
 10
-25.00120309854122
 20
-3.935355205425032
 30
0.0
 10
-25.00192023327409
 20
-3.912458079630312
 30
0.0
  0
SPLINE
  5
8418
330
8404
100
AcDbEntity
  8
0
100
AcDbSpline
210
0.0
220
0.0
230
1.0
 70
     8
 71
     3
 72
    12
 73
     8
 74
     0
 42
0.000000001
 43
0.0000000001
 40
0.0
 40
0.0
 40
0.0
 40
0.0
 40
0.002385674831308
 40
0.002385674831308
 40
0.004723485000575
 40
0.004723485000575
 40
0.0058053346531378
 40
0.0058053346531378
 40
0.0058053346531378
 40
0.0058053346531378
 10
-25.00004324852711
 20
-4.000000279118448
 30
0.0
 10
-25.00007721392887
 20
-3.994860923682093
 30
0.0
 10
-25.00011270407393
 20
-3.990694998039072
 30
0.0
 10
-25.00016689564414
 20
-3.984895781718236
 30
0.0
 10
-25.00018616626747
 20
-3.983140318142106
 30
0.0
 10
-25.00019894122889
 20
-3.981982320526602
 30
0.0
 10
-25.00020088388748
 20
-3.981813500583875
 30
0.0
 10
-25.00020088397194
 20
-3.981813493195641
 30
0.0
  0
SPLINE
  5
8419
330
8404
100
AcDbEntity
  8
0
100
AcDbSpline
210
0.0
220
0.0
230
1.0
 70
     8
 71
     3
 72
    22
 73
    18
 74
     0
 42
0.000000001
 43
0.0000000001
 40
0.0482395194446326
 40
0.0482395194446326
 40
0.0482395194446326
 40
0.0482395194446326
 40
0.0514008633054511
 40
0.0514008633054511
 40
0.0575622201559629
 40
0.0575622201559629
 40
0.0663109201140193
 40
0.0663109201140193
 40
0.0777691571692028
 40
0.0777691571692028
 40
0.0915297989665129
 40
0.0915297989665129
 40
0.1091261592650198
 40
0.1091261592650198
 40
0.1213991482523185
 40
0.1213991482523185
 40
0.1339581148885879
 40
0.1339581148885879
 40
0.1339581148885879
 40
0.1339581148885879
 10
-26.77819168980195
 20
-2.012338143879714
 30
0.0
 10
-26.7877319033192
 20
-2.011592479352714
 30
0.0
 10
-26.79769709893196
 20
-2.010871256512451
 30
0.0
 10
-26.82748728068985
 20
-2.008886430637882
 30
0.0
 10
-26.84801708781138
 20
-2.007736132899454
 30
0.0
 10
-26.89758371086642
 20
-2.005403899070921
 30
0.0
 10
-26.92707244666326
 20
-2.004384349536893
 30
0.0
 10
-26.99322601948667
 20
-2.002642063159271
 30
0.0
 10
-27.02998670655706
 20
-2.002078095686799
 30
0.0
 10
-27.10559934799142
 20
-2.001269034084477
 30
0.0
 10
-27.14300972137725
 20
-2.00109927545761
 30
0.0
 10
-27.23196538482686
 20
-2.000732926069319
 30
0.0
 10
-27.28654452181734
 20
-2.000520687818415
 30
0.0
 10
-27.38006146480278
 20
-2.000225594795397
 30
0.0
 10
-27.4187590162901
 20
-2.000139373615686
 30
0.0
 10
-27.49405116613527
 20
-2.000040768467278
 30
0.0
 10
-27.53186060224282
 20
-2.000021606546815
 30
0.0
 10
-27.56202985675182
 20
-2.000020061973666
 30
0.0
  0
LINE
  5
841A
330
8404
100
AcDbEntity
  8
0
100
AcDbLine
 10
-23.00000000000002
 20
-2.000000000000007
 30
0.0
 11
-21.00000000000001
 21
-2.000000000000004
 31
0.0
  0
LINE
  5
841B
330
8404
100
AcDbEntity
  8
0
100
AcDbLine
 10
-22.99999999999998
 20
-86.00000000000001
 30
0.0
 11
-20.99999999999998
 21
-86.00000000000001
 31
0.0
  0
LINE
  5
841C
330
8404
100
AcDbEntity
  8
0
100
AcDbLine
 10
21.00000000000002
 20
-2.000000000000004
 30
0.0
 11
-21.00000000000002
 21
-2.000000000000004
 31
0.0
  0
LINE
  5
841D
330
8404
100
AcDbEntity
  8
0
100
AcDbLine
 10
-20.99999999999998
 20
-86.00000000000001
 30
0.0
 11
20.99999999999999
 21
-86.00000000000001
 31
0.0
  0
CIRCLE
  5
841E
330
8404
100
AcDbEntity
  8
0
100
AcDbCircle
 10
0.0
 20
-47.99999999999998
 30
0.0
 40
2.5
  0
CIRCLE
  5
841F
330
8404
100
AcDbEntity
  8
0
100
AcDbCircle
 10
0.0
 20
-67.99999999999998
 30
0.0
 40
2.5
  0
LINE
  5
8420
330
8404
100
AcDbEntity
  8
0
100
AcDbLine
 10
23.00000000000002
 20
-2.000000000000007
 30
0.0
 11
21.00000000000001
 21
-2.000000000000004
 31
0.0
  0
LINE
  5
8421
330
8404
100
AcDbEntity
  8
0
100
AcDbLine
 10
26.99999999999999
 20
0.0
 30
0.0
 11
64.50000000000001
 21
0.0
 31
0.0
  0
ARC
  5
8422
330
8404
100
AcDbEntity
  8
0
100
AcDbCircle
 10
27.0
 20
-4.000000000000004
 30
0.0
 40
3.999999999999999
100
AcDbArc
 50
90.00000000000012
 51
180.0
  0
LINE
  5
8423
330
8404
100
AcDbEntity
  8
0
100
AcDbLine
 10
22.99999999999999
 20
-86.00000000000003
 30
0.0
 11
23.0
 21
-46.00000000000003
 31
0.0
  0
LINE
  5
8424
330
8404
100
AcDbEntity
  8
0
100
AcDbLine
 10
25.0
 20
-86.00000000000003
 30
0.0
 11
22.99999999999999
 21
-86.00000000000003
 31
0.0
  0
LINE
  5
8425
330
8404
100
AcDbEntity
  8
0
100
AcDbLine
 10
25.0
 20
-46.00000000000003
 30
0.0
 11
25.0
 21
-86.00000000000003
 31
0.0
  0
LINE
  5
8426
330
8404
100
AcDbEntity
  8
0
100
AcDbLine
 10
23.0
 20
-46.00000000000001
 30
0.0
 11
25.0
 21
-46.00000000000001
 31
0.0
  0
LINE
  5
8427
330
8404
100
AcDbEntity
  8
0
100
AcDbLine
 10
25.0
 20
-4.000000000000003
 30
0.0
 11
25.0
 21
-46.00000000000001
 31
0.0
  0
LINE
  5
8428
330
8404
100
AcDbEntity
  8
0
100
AcDbLine
 10
23.0
 20
-46.00000000000001
 30
0.0
 11
23.0
 21
-4.000000000000003
 31
0.0
  0
LINE
  5
8429
330
8404
100
AcDbEntity
  8
0
100
AcDbLine
 10
22.99999999999998
 20
-86.00000000000001
 30
0.0
 11
20.99999999999998
 21
-86.00000000000001
 31
0.0
  0
ARC
  5
842A
330
8404
100
AcDbEntity
  8
0
100
AcDbCircle
 10
27.0
 20
-4.000000000000004
 30
0.0
 40
1.999999999999997
100
AcDbArc
 50
90.00000000000012
 51
180.0
  0
LINE
  5
842B
330
8404
100
AcDbEntity
  8
0
100
AcDbLine
 10
64.50000000000001
 20
0.0
 30
0.0
 11
64.50000000000001
 21
-2.000000000000006
 31
0.0
  0
LINE
  5
842C
330
8404
100
AcDbEntity
  8
0
100
AcDbLine
 10
64.50000000000001
 20
-2.000000000000006
 30
0.0
 11
27.0
 21
-2.000000000000006
 31
0.0
  0
LINE
  5
842D
330
8404
100
AcDbEntity
  8
0
100
AcDbLine
 10
-64.50000000000001
 20
-2.000000000000006
 30
0.0
 11
-27.0
 21
-2.000000000000006
 31
0.0
  0
LINE
  5
842E
330
8404
100
AcDbEntity
  8
0
100
AcDbLine
 10
-23.0
 20
-46.00000000000001
 30
0.0
 11
-23.0
 21
-4.000000000000003
 31
0.0
  0
LINE
  5
842F
330
8404
100
AcDbEntity
  8
0
100
AcDbLine
 10
-25.0
 20
-4.000000000000003
 30
0.0
 11
-25.0
 21
-46.00000000000001
 31
0.0
  0
LINE
  5
8430
330
8404
100
AcDbEntity
  8
0
100
AcDbLine
 10
-26.99999999999999
 20
0.0
 30
0.0
 11
-64.50000000000001
 21
0.0
 31
0.0
  0
LINE
  5
8431
330
8404
100
AcDbEntity
  8
0
100
AcDbLine
 10
-64.50000000000001
 20
0.0
 30
0.0
 11
-64.50000000000001
 21
-2.000000000000006
 31
0.0
  0
ARC
  5
8432
330
8404
100
AcDbEntity
  8
0
100
AcDbCircle
 10
-27.0
 20
-4.000000000000004
 30
0.0
 40
1.999999999999997
100
AcDbArc
 50
0.0
 51
89.99999999999987
  0
ARC
  5
8433
330
8404
100
AcDbEntity
  8
0
100
AcDbCircle
 10
-27.0
 20
-4.000000000000004
 30
0.0
 40
3.999999999999999
100
AcDbArc
 50
0.0
 51
89.99999999999987
  0
LINE
  5
8434
330
8404
100
AcDbEntity
  8
0
100
AcDbLine
 10
-23.0
 20
-46.00000000000003
 30
0.0
 11
-22.99999999999999
 21
-86.00000000000003
 31
0.0
  0
LINE
  5
8435
330
8404
100
AcDbEntity
  8
0
100
AcDbLine
 10
-25.0
 20
-86.00000000000003
 30
0.0
 11
-25.0
 21
-46.00000000000003
 31
0.0
  0
LINE
  5
8436
330
8404
100
AcDbEntity
  8
0
100
AcDbLine
 10
-22.99999999999999
 20
-86.00000000000003
 30
0.0
 11
-25.0
 21
-86.00000000000003
 31
0.0
  0
LINE
  5
8437
330
8404
100
AcDbEntity
  8
0
100
AcDbLine
 10
-25.0
 20
-46.00000000000001
 30
0.0
 11
-23.0
 21
-46.00000000000001
 31
0.0
  0
ENDBLK
  5
8406
330
8404
100
AcDbEntity
  8
0
100
AcDbBlockEnd
  0
BLOCK
  5
8439
330
8438
100
AcDbEntity
  8
0
100
AcDbBlockBegin
  2
SAE340_46_2-Bottom
 70
     0
 10
0.0
 20
0.0
 30
0.0
  3
SAE340_46_2-Bottom
  1

  0
SPLINE
  5
843B
330
8438
100
AcDbEntity
  8
0
100
AcDbSpline
210
0.0
220
0.0
230
1.0
 70
     8
 71
     3
 72
    14
 73
    10
 74
     0
 42
0.000000001
 43
0.0000000001
 40
0.0
 40
0.0
 40
0.0
 40
0.0
 40
0.3435201403994595
 40
0.3435201403994595
 40
0.3435201403994595
 40
0.7570127568073205
 40
0.7570127568073205
 40
0.7570127568073205
 40
1.0
 40
1.0
 40
1.0
 40
1.0
 10
27.60606060606067
 20
2.00000000000001
 30
0.0
 10
27.28489935603177
 20
2.000036880620258
 30
0.0
 10
26.87245051750048
 20
1.996834301351971
 30
0.0
 10
26.4764551551502
 20
1.998675474349346
 30
0.0
 10
25.9997985076733
 20
2.00089168047647
 30
0.0
 10
25.53725634322619
 20
2.001068977478863
 30
0.0
 10
25.26239324896393
 20
2.001123170497505
 30
0.0
 10
25.10087107691064
 20
2.001155016803044
 30
0.0
 10
24.99999576744409
 20
2.000250524374791
 30
0.0
 10
24.9999999994884
 20
1.999999999992571
 30
0.0
  0
LINE
  5
843C
330
8438
100
AcDbEntity
  8
0
100
AcDbLine
 10
27.0000856893285
 20
2.000000000000011
 30
0.0
 11
27.00619229311278
 21
2.000000000000011
 31
0.0
  0
LINE
  5
843D
330
8438
100
AcDbEntity
  8
0
100
AcDbLine
 10
27.56202985675171
 20
2.000000000000011
 30
0.0
 11
27.60606060606067
 21
2.000000000000011
 31
0.0
  0
ARC
  5
843E
330
8438
100
AcDbEntity
  8
0
100
AcDbCircle
 10
27.0
 20
4.000000000000004
 30
0.0
 40
1.999999999999992
100
AcDbArc
 50
182.363555966992
 51
263.5960493823947
  0
ARC
  5
843F
330
8438
100
AcDbEntity
  8
0
100
AcDbCircle
 10
27.0
 20
4.000000000000004
 30
0.0
 40
3.999999999999994
100
AcDbArc
 50
219.6927749101278
 51
270.0
  0
LINE
  5
8440
330
8438
100
AcDbEntity
  8
0
100
AcDbLine
 10
27.60606060606066
 20
0.0
 30
0.0
 11
27.0
 21
0.0
 31
0.0
  0
SPLINE
  5
8441
330
8438
100
AcDbEntity
  8
0
100
AcDbSpline
210
0.0
220
0.0
230
1.0
 70
     8
 71
     3
 72
    17
 73
    13
 74
     0
 42
0.000000001
 43
0.0000000001
 40
-1.0
 40
-1.0
 40
-1.0
 40
-1.0
 40
-0.7994286890738256
 40
-0.7994286890738256
 40
-0.7994286890738256
 40
-0.3760960080984736
 40
-0.3760960080984736
 40
-0.3760960080984736
 40
-0.076528497266486
 40
-0.076528497266486
 40
-0.076528497266486
 40
0.0
 40
0.0
 40
0.0
 40
0.0
 10
23.00000000000002
 20
1.999999999999992
 30
0.0
 10
22.99999961270325
 20
1.99909354323102
 30
0.0
 10
23.12633150600533
 20
1.919863896634895
 30
0.0
 10
23.33607694563379
 20
1.790687786204136
 30
0.0
 10
23.77877285697952
 20
1.518044261593833
 30
0.0
 10
24.6144500834488
 20
1.034207947877147
 30
0.0
 10
25.48107962102417
 20
0.6388614064368264
 30
0.0
 10
26.09434210949253
 20
0.3590980320088366
 30
0.0
 10
26.71765761686038
 20
0.1217220476551993
 30
0.0
 10
27.23393420694654
 20
0.0342615816134176
 30
0.0
 10
27.3658239152244
 20
0.0119186445645532
 30
0.0
 10
27.48832026105292
 20
0.0000045452574084
 30
0.0
 10
27.6060606061109
 20
0.0000000001152103
 30
0.0
  0
LINE
  5
8442
330
8438
100
AcDbEntity
  8
0
100
AcDbLine
 10
27.60606060606066
 20
2.000000000000011
 30
0.0
 11
27.60606060606066
 21
0.0
 31
0.0
  0
SPLINE
  5
8443
330
8438
100
AcDbEntity
  8
0
100
AcDbSpline
210
0.0
220
0.0
230
1.0
 70
     8
 71
     3
 72
    30
 73
    26
 74
     0
 42
0.000000001
 43
0.0000000001
 40
0.0371765708089574
 40
0.0371765708089574
 40
0.0371765708089574
 40
0.0371765708089574
 40
0.0391841751959119
 40
0.0391841751959119
 40
0.0416275644600874
 40
0.0416275644600874
 40
0.0440778641367186
 40
0.0440778641367186
 40
0.0471697400889836
 40
0.0471697400889836
 40
0.0514008633056225
 40
0.0514008633056225
 40
0.0575622201560733
 40
0.0575622201560733
 40
0.0663109201141884
 40
0.0663109201141884
 40
0.0777691571694243
 40
0.0777691571694243
 40
0.0915297989667657
 40
0.0915297989667657
 40
0.1091261592648824
 40
0.1091261592648824
 40
0.1213991482522484
 40
0.1213991482522484
 40
0.1339581148885857
 40
0.1339581148885857
 40
0.1339581148885857
 40
0.1339581148885857
 10
26.71468571208098
 20
2.018273760986592
 30
0.0
 10
26.71468571047909
 20
2.018273761170296
 30
0.0
 10
26.71557405735161
 20
2.018171464540835
 30
0.0
 10
26.71945229442947
 20
2.017742450505446
 30
0.0
 10
26.72295666861935
 20
2.017361611534587
 30
0.0
 10
26.73190006417288
 20
2.016438710628819
 30
0.0
 10
26.73739183440391
 20
2.015892004505302
 30
0.0
 10
26.75105072886442
 20
2.014605630620476
 30
0.0
 10
26.75965459356415
 20
2.01384252700317
 30
0.0
 10
26.7810001101658
 20
2.012087267020344
 30
0.0
 10
26.79427867733687
 20
2.011099015164178
 30
0.0
 10
26.82748728069129
 20
2.008886430637796
 30
0.0
 10
26.84801708781262
 20
2.007736132899391
 30
0.0
 10
26.89758371086766
 20
2.005403899070873
 30
0.0
 10
26.92707244666471
 20
2.004384349536845
 30
0.0
 10
26.99322601948843
 20
2.002642063159235
 30
0.0
 10
27.02998670655891
 20
2.002078095686773
 30
0.0
 10
27.10559934799336
 20
2.001269034084465
 30
0.0
 10
27.14300972137917
 20
2.001099275457601
 30
0.0
 10
27.23196538482794
 20
2.000732926069316
 30
0.0
 10
27.2865445218172
 20
2.000520687818415
 30
0.0
 10
27.38006146480163
 20
2.000225594795399
 30
0.0
 10
27.41875901628916
 20
2.000139373615687
 30
0.0
 10
27.49405116613479
 20
2.000040768467278
 30
0.0
 10
27.53186060224253
 20
2.000021606546815
 30
0.0
 10
27.56202985675171
 20
2.000020061973666
 30
0.0
  0
SPLINE
  5
8444
330
8438
100
AcDbEntity
  8
0
100
AcDbSpline
210
0.0
220
0.0
230
1.0
 70
     8
 71
     3
 72
    18
 73
    14
 74
     0
 42
0.000000001
 43
0.0000000001
 40
0.0342193161281376
 40
0.0342193161281376
 40
0.0342193161281376
 40
0.0342193161281376
 40
0.0343948202369706
 40
0.0343948202369706
 40
0.0352015122897802
 40
0.0352015122897802
 40
0.0480481118401973
 40
0.0480481118401973
 40
0.0610285816699368
 40
0.0610285816699368
 40
0.0696166438240226
 40
0.0696166438240226
 40
0.0712347984825676
 40
0.0712347984825676
 40
0.0712347984825676
 40
0.0712347984825676
 10
25.00005334405037
 20
3.996120547837916
 30
0.0
 10
25.00005733630518
 20
3.995838290212515
 30
0.0
 10
25.00006245594598
 20
3.995477920236158
 30
0.0
 10
25.00009399497977
 20
3.993276396183195
 30
0.0
 10
25.00012769846249
 20
3.990997538524634
 30
0.0
 10
25.00069282342762
 20
3.954390840506576
 30
0.0
 10
25.00155223514518
 20
3.921588196439779
 30
0.0
 10
25.0034757683769
 20
3.867705358236859
 30
0.0
 10
25.00454710473978
 20
3.846111893943346
 30
0.0
 10
25.00570802566104
 20
3.824808075236322
 30
0.0
 10
25.00609564323279
 20
3.818508172047689
 30
0.0
 10
25.00622528905807
 20
3.816422572141282
 30
0.0
 10
25.00623590788496
 20
3.816253828640989
 30
0.0
 10
25.0062359078872
 20
3.81625382860531
 30
0.0
  0
SPLINE
  5
8445
330
8438
100
AcDbEntity
  8
0
100
AcDbSpline
210
0.0
220
0.0
230
1.0
 70
     8
 71
     3
 72
     8
 73
     4
 74
     0
 42
0.000000001
 43
0.0000000001
 40
0.0003712420702027
 40
0.0003712420702027
 40
0.0003712420702027
 40
0.0003712420702027
 40
0.0010920483012363
 40
0.0010920483012363
 40
0.0010920483012363
 40
0.0010920483012363
 10
25.00005917932755
 20
3.997672736186151
 30
0.0
 10
25.00006952181355
 20
3.996211261866269
 30
0.0
 10
25.00007984479527
 20
3.994847275212476
 30
0.0
 10
25.00008992516118
 20
3.993579806502296
 30
0.0
  0
SPLINE
  5
8446
330
8438
100
AcDbEntity
  8
0
100
AcDbSpline
210
0.0
220
0.0
230
1.0
 70
     8
 71
     3
 72
     8
 73
     4
 74
     0
 42
0.000000001
 43
0.0000000001
 40
0.0
 40
0.0
 40
0.0
 40
0.0
 40
0.0035844670268172
 40
0.0035844670268172
 40
0.0035844670268172
 40
0.0035844670268172
 10
25.00006818308746
 20
3.999999804535634
 30
0.0
 10
25.0000443517173
 20
3.993919444580739
 30
0.0
 10
25.0000208873583
 20
3.987176465208869
 30
0.0
 10
25.00000004833697
 20
3.980382203408123
 30
0.0
  0
CIRCLE
  5
8447
330
8438
100
AcDbEntity
  8
0
100
AcDbCircle
 10
0.0
 20
67.99999999999998
 30
0.0
 40
2.5
  0
CIRCLE
  5
8448
330
8438
100
AcDbEntity
  8
0
100
AcDbCircle
 10
0.0
 20
47.99999999999998
 30
0.0
 40
2.5
  0
LINE
  5
8449
330
8438
100
AcDbEntity
  8
0
100
AcDbLine
 10
21.00000000000002
 20
2.000000000000004
 30
0.0
 11
-21.00000000000002
 21
2.000000000000004
 31
0.0
  0
LINE
  5
844A
330
8438
100
AcDbEntity
  8
0
100
AcDbLine
 10
20.99999999999999
 20
86.00000000000001
 30
0.0
 11
-20.99999999999998
 21
86.00000000000001
 31
0.0
  0
SPLINE
  5
844B
330
8438
100
AcDbEntity
  8
0
100
AcDbSpline
210
0.0
220
0.0
230
1.0
 70
     8
 71
     3
 72
    17
 73
    13
 74
     0
 42
0.000000001
 43
0.0000000001
 40
-1.0
 40
-1.0
 40
-1.0
 40
-1.0
 40
-0.7994286890738256
 40
-0.7994286890738256
 40
-0.7994286890738256
 40
-0.3760960080984736
 40
-0.3760960080984736
 40
-0.3760960080984736
 40
-0.076528497266486
 40
-0.076528497266486
 40
-0.076528497266486
 40
0.0
 40
0.0
 40
0.0
 40
0.0
 10
-23.00000000000002
 20
1.999999999999992
 30
0.0
 10
-22.99999961270325
 20
1.99909354323102
 30
0.0
 10
-23.12633150600533
 20
1.919863896634895
 30
0.0
 10
-23.33607694563379
 20
1.790687786204136
 30
0.0
 10
-23.77877285697952
 20
1.518044261593833
 30
0.0
 10
-24.6144500834488
 20
1.034207947877147
 30
0.0
 10
-25.48107962102417
 20
0.6388614064368264
 30
0.0
 10
-26.09434210949253
 20
0.3590980320088366
 30
0.0
 10
-26.71765761686038
 20
0.1217220476551993
 30
0.0
 10
-27.23393420694654
 20
0.0342615816134176
 30
0.0
 10
-27.3658239152244
 20
0.0119186445645532
 30
0.0
 10
-27.48832026105292
 20
0.0000045452574084
 30
0.0
 10
-27.6060606061109
 20
0.0000000001152103
 30
0.0
  0
LINE
  5
844C
330
8438
100
AcDbEntity
  8
0
100
AcDbLine
 10
-27.0
 20
0.0
 30
0.0
 11
-27.60606060606066
 21
0.0
 31
0.0
  0
ARC
  5
844D
330
8438
100
AcDbEntity
  8
0
100
AcDbCircle
 10
-27.0
 20
4.000000000000004
 30
0.0
 40
3.999999999999994
100
AcDbArc
 50
270.0
 51
320.3072250898722
  0
ARC
  5
844E
330
8438
100
AcDbEntity
  8
0
100
AcDbCircle
 10
-27.0
 20
4.000000000000004
 30
0.0
 40
1.999999999999992
100
AcDbArc
 50
276.4039506176033
 51
357.6364440330107
  0
LINE
  5
844F
330
8438
100
AcDbEntity
  8
0
100
AcDbLine
 10
-27.60606060606067
 20
2.000000000000011
 30
0.0
 11
-27.56202985675173
 21
2.000000000000011
 31
0.0
  0
LINE
  5
8450
330
8438
100
AcDbEntity
  8
0
100
AcDbLine
 10
-27.00619229311274
 20
2.000000000000011
 30
0.0
 11
-27.00008568932848
 21
2.000000000000011
 31
0.0
  0
SPLINE
  5
8451
330
8438
100
AcDbEntity
  8
0
100
AcDbSpline
210
0.0
220
0.0
230
1.0
 70
     8
 71
     3
 72
    14
 73
    10
 74
     0
 42
0.000000001
 43
0.0000000001
 40
0.0
 40
0.0
 40
0.0
 40
0.0
 40
0.3435201403994595
 40
0.3435201403994595
 40
0.3435201403994595
 40
0.7570127568073205
 40
0.7570127568073205
 40
0.7570127568073205
 40
1.0
 40
1.0
 40
1.0
 40
1.0
 10
-27.60606060606067
 20
2.00000000000001
 30
0.0
 10
-27.28489935603177
 20
2.000036880620258
 30
0.0
 10
-26.87245051750048
 20
1.996834301351971
 30
0.0
 10
-26.4764551551502
 20
1.998675474349346
 30
0.0
 10
-25.9997985076733
 20
2.00089168047647
 30
0.0
 10
-25.53725634322619
 20
2.001068977478863
 30
0.0
 10
-25.26239324896393
 20
2.001123170497505
 30
0.0
 10
-25.10087107691064
 20
2.001155016803044
 30
0.0
 10
-24.99999576744409
 20
2.000250524374791
 30
0.0
 10
-24.9999999994884
 20
1.999999999992571
 30
0.0
  0
LINE
  5
8452
330
8438
100
AcDbEntity
  8
0
100
AcDbLine
 10
-27.60606060606066
 20
0.0
 30
0.0
 11
-27.60606060606066
 21
2.000000000000011
 31
0.0
  0
SPLINE
  5
8453
330
8438
100
AcDbEntity
  8
0
100
AcDbSpline
210
0.0
220
0.0
230
1.0
 70
     8
 71
     3
 72
    10
 73
     6
 74
     0
 42
0.000000001
 43
0.0000000001
 40
0.0194209731610284
 40
0.0194209731610284
 40
0.0194209731610284
 40
0.0194209731610284
 40
0.0196622419461934
 40
0.0196622419461934
 40
0.0230051729682024
 40
0.0230051729682024
 40
0.0230051729682024
 40
0.0230051729682024
 10
-25.00000000127189
 20
3.980395661601355
 30
0.0
 10
-25.00000140351045
 20
3.980852841223265
 30
0.0
 10
-25.00000281603949
 20
3.981310172727501
 30
0.0
 10
-25.00002398161063
 20
3.988091083058352
 30
0.0
 10
-25.00004595757219
 20
3.994329164028389
 30
0.0
 10
-25.00006818308746
 20
3.999999804535634
 30
0.0
  0
SPLINE
  5
8454
330
8438
100
AcDbEntity
  8
0
100
AcDbSpline
210
0.0
220
0.0
230
1.0
 70
     8
 71
     3
 72
     8
 73
     4
 74
     0
 42
0.000000001
 43
0.0000000001
 40
0.0136968517863512
 40
0.0136968517863512
 40
0.0136968517863512
 40
0.0136968517863512
 40
0.0144188165034955
 40
0.0144188165034955
 40
0.0144188165034955
 40
0.0144188165034955
 10
-25.00008995401341
 20
3.993574803780108
 30
0.0
 10
-25.00007988210062
 20
3.994841209626613
 30
0.0
 10
-25.00006953570832
 20
3.996209075699341
 30
0.0
 10
-25.00005918409828
 20
3.997671839319613
 30
0.0
  0
SPLINE
  5
8455
330
8438
100
AcDbEntity
  8
0
100
AcDbSpline
210
0.0
220
0.0
230
1.0
 70
     8
 71
     3
 72
    20
 73
    16
 74
     0
 42
0.000000001
 43
0.0000000001
 40
0.0375071223005473
 40
0.0375071223005473
 40
0.0375071223005473
 40
0.0375071223005473
 40
0.045883930747237
 40
0.045883930747237
 40
0.0558893865375668
 40
0.0558893865375668
 40
0.0668508600007548
 40
0.0668508600007548
 40
0.0731934890254145
 40
0.0731934890254145
 40
0.0742665618457212
 40
0.0742665618457212
 40
0.0744551854727194
 40
0.0744551854727194
 40
0.0745413565560266
 40
0.0745413565560266
 40
0.0745413565560266
 40
0.0745413565560266
 10
-25.00623590788715
 20
3.81625382860617
 30
0.0
 10
-25.00623590761645
 20
3.816253832912734
 30
0.0
 10
-25.00591395980005
 20
3.821367285385005
 30
0.0
 10
-25.00504489620463
 20
3.836763541178594
 30
0.0
 10
-25.00435071892841
 20
3.849779596523557
 30
0.0
 10
-25.00277902675421
 20
3.886064285321246
 30
0.0
 10
-25.00191025292933
 20
3.910138117890449
 30
0.0
 10
-25.00082485104583
 20
3.952312251896564
 30
0.0
 10
-25.00047951632103
 20
3.968845954637825
 30
0.0
 10
-25.00016120588062
 20
3.98877825259743
 30
0.0
 10
-25.00011561936576
 20
3.991792115581604
 30
0.0
 10
-25.00007149860419
 20
3.994845782276787
 30
0.0
 10
-25.00006524504728
 20
3.995282623119176
 30
0.0
 10
-25.00005752848711
 20
3.99582505907129
 30
0.0
 10
-25.00005530876231
 20
3.995981635045591
 30
0.0
 10
-25.00005334600203
 20
3.996120404758827
 30
0.0
  0
SPLINE
  5
8456
330
8438
100
AcDbEntity
  8
0
100
AcDbSpline
210
0.0
220
0.0
230
1.0
 70
     8
 71
     3
 72
    34
 73
    30
 74
     0
 42
0.000000001
 43
0.0000000001
 40
0.0
 40
0.0
 40
0.0
 40
0.0
 40
0.0070452398529628
 40
0.0070452398529628
 40
0.0166405949172243
 40
0.0166405949172243
 40
0.0367140942429339
 40
0.0367140942429339
 40
0.0488284899528654
 40
0.0488284899528654
 40
0.0619891282714051
 40
0.0619891282714051
 40
0.0705213679781637
 40
0.0705213679781637
 40
0.0770085533394209
 40
0.0770085533394209
 40
0.0824905607498582
 40
0.0824905607498582
 40
0.0868289193350572
 40
0.0868289193350572
 40
0.0899294289791012
 40
0.0899294289791012
 40
0.0920481882385979
 40
0.0920481882385979
 40
0.0936272396659482
 40
0.0936272396659482
 40
0.0962577966518627
 40
0.0962577966518627
 40
0.0968493192578184
 40
0.0968493192578184
 40
0.0968493192578184
 40
0.0968493192578184
 10
-27.56202985675174
 20
2.000020061973666
 30
0.0
 10
-27.54510572275592
 20
2.000020928437335
 30
0.0
 10
-27.52555210342364
 20
2.000028134291582
 30
0.0
 10
-27.47775545400996
 20
2.000061132070819
 30
0.0
 10
-27.44841962906678
 20
2.000093689688045
 30
0.0
 10
-27.35657224066958
 20
2.000268440249848
 30
0.0
 10
-27.29198494489468
 20
2.000513808507206
 30
0.0
 10
-27.19633422829534
 20
2.000879055387096
 30
0.0
 10
-27.16273081693771
 20
2.000996414973692
 30
0.0
 10
-27.09183574212264
 20
2.001409809828435
 30
0.0
 10
-27.05253731371329
 20
2.001731207546959
 30
0.0
 10
-26.98400779002609
 20
2.002903978539496
 30
0.0
 10
-26.95599554114249
 20
2.003538353556753
 30
0.0
 10
-26.90628512836396
 20
2.00513492584322
 30
0.0
 10
-26.88449296278937
 20
2.005989885803931
 30
0.0
 10
-26.84475199404854
 20
2.007923221137655
 30
0.0
 10
-26.82655876561052
 20
2.00895630959547
 30
0.0
 10
-26.79512880201221
 20
2.011036511950416
 30
0.0
 10
-26.78148569478049
 20
2.012048255385688
 30
0.0
 10
-26.75978816418384
 20
2.013830897203152
 30
0.0
 10
-26.7511533960862
 20
2.014596259847249
 30
0.0
 10
-26.73827976284807
 20
2.015808179385536
 30
0.0
 10
-26.73346793468527
 20
2.016283006403216
 30
0.0
 10
-26.72630853368713
 20
2.017013227024839
 30
0.0
 10
-26.72361988365612
 20
2.017296128112711
 30
0.0
 10
-26.71781348310875
 20
2.01791871268094
 30
0.0
 10
-26.71557832693953
 20
2.018172183285785
 30
0.0
 10
-26.71476046658193
 20
2.018265184442203
 30
0.0
 10
-26.71468570912475
 20
2.018273761325608
 30
0.0
 10
-26.71468571208259
 20
2.018273760986403
 30
0.0
  0
LINE
  5
8457
330
8438
100
AcDbEntity
  8
0
100
AcDbLine
 10
-25.00000000000002
 20
2.000000000000011
 30
0.0
 11
-21.00000000000001
 21
2.000000000000004
 31
0.0
  0
LINE
  5
8458
330
8438
100
AcDbEntity
  8
0
100
AcDbLine
 10
-20.99999999999998
 20
86.00000000000001
 30
0.0
 11
-24.99999999999999
 21
86.00000000000001
 31
0.0
  0
LINE
  5
8459
330
8438
100
AcDbEntity
  8
0
100
AcDbLine
 10
-25.00000000000001
 20
2.000000000000011
 30
0.0
 11
-24.99999999999999
 21
86.00000000000001
 31
0.0
  0
LINE
  5
845A
330
8438
100
AcDbEntity
  8
0
100
AcDbLine
 10
25.00000000000002
 20
2.000000000000011
 30
0.0
 11
21.00000000000001
 21
2.000000000000004
 31
0.0
  0
LINE
  5
845B
330
8438
100
AcDbEntity
  8
0
100
AcDbLine
 10
25.00000000000001
 20
2.000000000000011
 30
0.0
 11
24.99999999999999
 21
86.00000000000001
 31
0.0
  0
LINE
  5
845C
330
8438
100
AcDbEntity
  8
0
100
AcDbLine
 10
20.99999999999998
 20
86.00000000000001
 30
0.0
 11
24.99999999999999
 21
86.00000000000001
 31
0.0
  0
LINE
  5
845D
330
8438
100
AcDbEntity
  8
0
100
AcDbLine
 10
64.50000000000004
 20
0.0
 30
0.0
 11
27.60606060606066
 21
0.0
 31
0.0
  0
LINE
  5
845E
330
8438
100
AcDbEntity
  8
0
100
AcDbLine
 10
64.50000000000004
 20
2.000000000000081
 30
0.0
 11
64.50000000000004
 21
0.0
 31
0.0
  0
LINE
  5
845F
330
8438
100
AcDbEntity
  8
0
100
AcDbLine
 10
27.60606060606067
 20
2.000000000000011
 30
0.0
 11
64.50000000000004
 21
2.000000000000081
 31
0.0
  0
LINE
  5
8460
330
8438
100
AcDbEntity
  8
0
100
AcDbLine
 10
-64.50000000000004
 20
2.000000000000081
 30
0.0
 11
-27.60606060606067
 21
2.000000000000011
 31
0.0
  0
LINE
  5
8461
330
8438
100
AcDbEntity
  8
0
100
AcDbLine
 10
-64.50000000000004
 20
0.0
 30
0.0
 11
-64.50000000000004
 21
2.000000000000081
 31
0.0
  0
LINE
  5
8462
330
8438
100
AcDbEntity
  8
0
100
AcDbLine
 10
-27.60606060606066
 20
0.0
 30
0.0
 11
-64.50000000000004
 21
0.0
 31
0.0
  0
ENDBLK
  5
843A
330
8438
100
AcDbEntity
  8
0
100
AcDbBlockEnd
  0
BLOCK
  5
8464
330
8463
100
AcDbEntity
  8
0
100
AcDbBlockBegin
  2
SAE340_46_2-ISO
 70
     0
 10
0.0
 20
0.0
 30
0.0
  3
SAE340_46_2-ISO
  1

  0
LINE
  5
8466
330
8463
100
AcDbEntity
  8
0
100
AcDbLine
 10
46.44158868716048
 20
-38.914911034556
 30
0.0
 11
46.18961602263644
 21
-39.06038752024738
 31
0.0
  0
SPLINE
  5
8467
330
8463
100
AcDbEntity
  8
0
100
AcDbSpline
210
0.0
220
0.0
230
1.0
 70
     8
 71
     3
 72
    14
 73
    10
 74
     0
 42
0.000000001
 43
0.0000000001
 40
0.0
 40
0.0
 40
0.0
 40
0.0
 40
0.3435201403994595
 40
0.3435201403994595
 40
0.3435201403994595
 40
0.7570127568073205
 40
0.7570127568073205
 40
0.7570127568073205
 40
1.0
 40
1.0
 40
1.0
 40
1.0
 10
48.2843518138891
 20
-37.88655833319822
 30
0.0
 10
48.05723043760266
 20
-37.96775762610482
 30
0.0
 10
47.76784963250253
 20
-37.98357920500702
 30
0.0
 10
47.48653672055445
 20
-38.01145313248292
 30
0.0
 10
47.14792247844489
 20
-38.04500476991579
 30
0.0
 10
46.82073040946696
 20
-38.09661715523103
 30
0.0
 10
46.62633453136522
 20
-38.32204227040712
 30
0.0
 10
46.51209858945576
 20
-38.4545124164496
 30
0.0
 10
46.44140854680722
 20
-38.6225474734973
 30
0.0
 10
46.44158868680398
 20
-38.91491103299472
 30
0.0
  0
LINE
  5
8468
330
8463
100
AcDbEntity
  8
0
100
AcDbLine
 10
47.85580224953356
 20
-37.63913512685646
 30
0.0
 11
48.2843518138891
 21
-37.88655833319822
 31
0.0
  0
ELLIPSE
  5
8469
330
8463
100
AcDbEntity
  8
0
100
AcDbEllipse
 10
46.44158868716047
 20
-38.45563170778418
 30
0.0
 11
1.999999999999992
 21
-0.0000000000001191
 31
0.0
210
0.0
220
0.0
230
1.0
 40
0.5773502691896259
 41
0.7853981633976872
 42
2.356194490192605
  0
LINE
  5
846A
330
8463
100
AcDbEntity
  8
0
100
AcDbLine
 10
45.02737512478739
 20
-38.86765157984724
 30
0.0
 11
45.02737512478739
 21
-37.63913512685646
 31
0.0
  0
LINE
  5
846B
330
8463
100
AcDbEntity
  8
0
100
AcDbLine
 10
45.02737512478739
 20
-38.97809804670545
 30
0.0
 11
45.02737512478739
 21
-38.86765157984724
 31
0.0
  0
LINE
  5
846C
330
8463
100
AcDbEntity
  8
0
100
AcDbLine
 10
45.02737512478739
 20
-39.73140761548372
 30
0.0
 11
45.02737512478739
 21
-38.97809804670545
 31
0.0
  0
LINE
  5
846D
330
8463
100
AcDbEntity
  8
0
100
AcDbLine
 10
46.18961602263644
 20
-39.06038752024738
 30
0.0
 11
45.02737512478739
 21
-39.73140761548372
 31
0.0
  0
ELLIPSE
  5
846E
330
8463
100
AcDbEntity
  8
0
100
AcDbEllipse
 10
-17.90512840081533
 20
-71.16652598120115
 30
0.0
 11
-2.5
 21
-0.000000000000149
 31
0.0
210
0.0
220
0.0
230
1.0
 40
0.577350269189626
 41
3.742856870268582
 42
5.681921090500122
  0
LINE
  5
846F
330
8463
100
AcDbEntity
  8
0
100
AcDbLine
 10
-15.78380805725571
 20
-87.08820930929181
 30
0.0
 11
-45.48229286709069
 21
-69.9417811098096
 31
0.0
  0
LINE
  5
8470
330
8463
100
AcDbEntity
  8
0
100
AcDbLine
 10
12.50046319020619
 20
-19.31899309229056
 30
0.0
 11
12.50046319020618
 21
-31.28066800288178
 31
0.0
  0
LINE
  5
8471
330
8463
100
AcDbEntity
  8
0
100
AcDbLine
 10
-45.48229286709069
 20
-68.30878794795413
 30
0.0
 11
-15.78380805725571
 21
-85.45521614743638
 31
0.0
  0
ELLIPSE
  5
8472
330
8463
100
AcDbEntity
  8
0
100
AcDbEllipse
 10
-17.90512840081533
 20
-69.53353281934571
 30
0.0
 11
-2.5
 21
0.0000000000001493
 31
0.0
210
0.0
220
0.0
230
1.0
 40
0.5773502691896259
 41
0.0
 42
6.283185307179586
  0
LINE
  5
8473
330
8463
100
AcDbEntity
  8
0
100
AcDbLine
 10
12.50046319020619
 20
-19.31899309229056
 30
0.0
 11
12.41522128420133
 21
-19.3682075296687
 31
0.0
  0
SPLINE
  5
8474
330
8463
100
AcDbEntity
  8
0
100
AcDbSpline
210
0.0
220
0.0
230
1.0
 70
     8
 71
     3
 72
    11
 73
     7
 74
     0
 42
0.000000001
 43
0.0000000001
 40
-1.0
 40
-1.0
 40
-1.0
 40
-1.0
 40
-0.7994286890738256
 40
-0.7994286890738256
 40
-0.7994286890738256
 40
-0.6581416176264372
 40
-0.6581416176264372
 40
-0.6581416176264372
 40
-0.6581416176264372
 10
12.50046319020619
 20
-19.31899309229057
 30
0.0
 10
12.50110442579455
 20
-18.92438100568659
 30
0.0
 10
12.46779810773965
 20
-18.56563271723641
 30
0.0
 10
12.4108269887083
 20
-18.22429598674291
 30
0.0
 10
12.3706952144887
 20
-17.98385049727506
 30
0.0
 10
12.31624509854656
 20
-17.75401466751444
 30
0.0
 10
12.24911556391837
 20
-17.53122088174287
 30
0.0
  0
ELLIPSE
  5
8475
330
8463
100
AcDbEntity
  8
0
100
AcDbEllipse
 10
8.257822503086909
 20
-16.41022402273557
 30
0.0
 11
3.999999999999995
 21
-0.0000000000000004
 31
0.0
210
0.0
220
0.0
230
1.0
 40
0.5773502691896258
 41
6.058746940098215
 42
6.283185307179587
  0
ELLIPSE
  5
8476
330
8463
100
AcDbEntity
  8
0
100
AcDbEllipse
 10
8.257822503086909
 20
-16.41022402273557
 30
0.0
 11
3.999999999999994
 21
0.0
 31
0.0
210
0.0
220
0.0
230
1.0
 40
0.5773502691896258
 41
5.497787143782129
 42
6.058746940098215
  0
LINE
  5
8477
330
8463
100
AcDbEntity
  8
0
100
AcDbLine
 10
11.08624962783309
 20
-18.04321718459102
 30
0.0
 11
11.08624962783309
 21
-18.23764360014282
 31
0.0
  0
LINE
  5
8478
330
8463
100
AcDbEntity
  8
0
100
AcDbLine
 10
11.08624962783309
 20
-18.23764360014282
 30
0.0
 11
11.08624962783309
 21
-20.13548967321828
 31
0.0
  0
LINE
  5
8479
330
8463
100
AcDbEntity
  8
0
100
AcDbLine
 10
12.41522128420133
 20
-19.3682075296687
 30
0.0
 11
11.0862496278331
 21
-20.13548967321829
 31
0.0
  0
SPLINE
  5
847A
330
8463
100
AcDbEntity
  8
0
100
AcDbSpline
210
0.0
220
0.0
230
1.0
 70
     8
 71
     3
 72
    16
 73
    12
 74
     0
 42
0.000000001
 43
0.0000000001
 40
0.0
 40
0.0
 40
0.0
 40
0.0
 40
0.0351246640585829
 40
0.0351246640585829
 40
0.0553378226125235
 40
0.0553378226125235
 40
0.0803966030567111
 40
0.0803966030567111
 40
0.1060253276729171
 40
0.1060253276729171
 40
0.1164316196668855
 40
0.1164316196668855
 40
0.1164316196668855
 40
0.1164316196668855
 10
12.24644983117335
 20
-16.58425178257209
 30
0.0
 10
12.23125520690486
 20
-16.70034001546229
 30
0.0
 10
12.21632533375018
 20
-16.81856828052868
 30
0.0
 10
12.20147269700444
 20
-16.99593343204229
 30
0.0
 10
12.19789672261569
 20
-17.05944637694056
 30
0.0
 10
12.19565294972916
 20
-17.19054058888105
 30
0.0
 10
12.19838697772054
 20
-17.25639375545596
 30
0.0
 10
12.21025205974681
 20
-17.37183451783296
 30
0.0
 10
12.21930368460389
 20
-17.42244000034021
 30
0.0
 10
12.23614829774154
 20
-17.49129252149688
 30
0.0
 10
12.24153882958342
 20
-17.51101911900391
 30
0.0
 10
12.2476496094161
 20
-17.53132680260262
 30
0.0
  0
LINE
  5
847B
330
8463
100
AcDbEntity
  8
0
100
AcDbLine
 10
46.44158868716047
 20
-51.16235974847187
 30
0.0
 11
46.44158868716048
 21
-38.914911034556
 31
0.0
  0
ELLIPSE
  5
847C
330
8463
100
AcDbEntity
  8
0
100
AcDbEllipse
 10
43.61316156241429
 20
-49.52936658661642
 30
0.0
 11
1.999999999999989
 21
-3.46410161513776
 31
0.0
210
0.0
220
0.0
230
1.0
 40
0.5773502691896248
 41
0.0000000000000112
 42
0.7853981633974613
  0
LINE
  5
847D
330
8463
100
AcDbEntity
  8
0
100
AcDbLine
 10
-15.78380805725571
 20
-85.45521614743638
 30
0.0
 11
-14.36959449488262
 21
-84.63871956650866
 31
0.0
  0
LINE
  5
847E
330
8463
100
AcDbEntity
  8
0
100
AcDbLine
 10
46.44158868716047
 20
-51.16235974847187
 30
0.0
 11
-12.95538093250953
 21
-85.45521614743638
 31
0.0
  0
ELLIPSE
  5
847F
330
8463
100
AcDbEntity
  8
0
100
AcDbEllipse
 10
-15.78380805725572
 20
-83.8222229855809
 30
0.0
 11
2.000000000000001
 21
-3.464101615137758
 31
0.0
210
0.0
220
0.0
230
0.9999999999999998
 40
0.5773502691896257
 41
5.497787143782137
 42
7.068583470577033
  0
LINE
  5
8480
330
8463
100
AcDbEntity
  8
0
100
AcDbLine
 10
74.37230654402909
 20
-28.09633133726369
 30
0.0
 11
75.78652010640218
 21
-27.27983475633597
 31
0.0
  0
LINE
  5
8481
330
8463
100
AcDbEntity
  8
0
100
AcDbLine
 10
48.2843518138891
 20
-37.88655833319822
 30
0.0
 11
74.37230654402909
 21
-28.09633133726369
 31
0.0
  0
ELLIPSE
  5
8482
330
8463
100
AcDbEntity
  8
0
100
AcDbEllipse
 10
61.99793787326453
 20
43.55124363914435
 30
0.0
 11
-3.250000000000003
 21
5.629165124598854
 31
0.0
210
0.0
220
0.0
230
1.0
 40
0.5773502691896259
 41
0.2193254863005967
 42
2.922267167289196
  0
ELLIPSE
  5
8483
330
8463
100
AcDbEntity
  8
0
100
AcDbEllipse
 10
69.77611246631656
 20
43.14299534868049
 30
0.0
 11
1.250000000000129
 21
-2.165063509461022
 31
0.0
210
0.0
220
0.0
230
0.9999999999999998
 40
0.5773502691896259
 41
3.742856870268585
 42
5.681921090500106
  0
LINE
  5
8484
330
8463
100
AcDbEntity
  8
0
100
AcDbLine
 10
49.27001581190666
 20
67.22964448604843
 30
0.0
 11
75.78652010640221
 21
51.92033359365354
 31
0.0
  0
LINE
  5
8485
330
8463
100
AcDbEntity
  8
0
100
AcDbLine
 10
75.78652010640218
 20
-27.27983475633597
 30
0.0
 11
75.78652010640221
 21
51.92033359365355
 31
0.0
  0
ELLIPSE
  5
8486
330
8463
100
AcDbEntity
  8
0
100
AcDbEllipse
 10
46.44158868716047
 20
65.59665132419296
 30
0.0
 11
3.999999999999999
 21
-0.0000000000002386
 31
0.0
210
0.0
220
0.0
230
1.0
 40
0.5773502691896259
 41
0.7853981633976881
 42
2.356194490192585
  0
ELLIPSE
  5
8487
330
8463
100
AcDbEntity
  8
0
100
AcDbEllipse
 10
19.21797761147838
 20
40.89762975112921
 30
0.0
 11
1.24999999999987
 21
2.165063509461171
 31
0.0
210
0.0
220
0.0
230
1.0
 40
0.577350269189626
 41
3.74285687026858
 42
5.681921090500117
  0
ELLIPSE
  5
8488
330
8463
100
AcDbEntity
  8
0
100
AcDbEllipse
 10
20.63219117385148
 20
40.08113317020149
 30
0.0
 11
-1.25
 21
-2.165063509461097
 31
0.0
210
0.0
220
0.0
230
1.0
 40
0.5773502691896259
 41
0.0
 42
6.283185307179586
  0
LINE
  5
8489
330
8463
100
AcDbEntity
  8
0
100
AcDbLine
 10
-14.36959449488264
 20
-72.39127085259276
 30
0.0
 11
13.91467675257927
 21
-29.11695206342331
 31
0.0
  0
LINE
  5
848A
330
8463
100
AcDbEntity
  8
0
100
AcDbLine
 10
-12.95538093250954
 20
-73.2077674335205
 30
0.0
 11
-14.36959449488264
 21
-72.39127085259276
 31
0.0
  0
LINE
  5
848B
330
8463
100
AcDbEntity
  8
0
100
AcDbLine
 10
15.32889031495236
 20
-29.93344864435103
 30
0.0
 11
-12.95538093250954
 21
-73.2077674335205
 31
0.0
  0
LINE
  5
848C
330
8463
100
AcDbEntity
  8
0
100
AcDbLine
 10
15.32889031495236
 20
-29.93344864435103
 30
0.0
 11
13.91467675257927
 21
-29.11695206342331
 31
0.0
  0
LINE
  5
848D
330
8463
100
AcDbEntity
  8
0
100
AcDbLine
 10
13.91467675257927
 20
-29.11695206342331
 30
0.0
 11
13.91467675257928
 21
50.08321628656613
 31
0.0
  0
LINE
  5
848E
330
8463
100
AcDbEntity
  8
0
100
AcDbLine
 10
15.32889031495238
 20
49.26671970563842
 30
0.0
 11
15.32889031495236
 21
-29.93344864435103
 31
0.0
  0
LINE
  5
848F
330
8463
100
AcDbEntity
  8
0
100
AcDbLine
 10
13.91467675257928
 20
50.08321628656614
 30
0.0
 11
15.32889031495238
 21
49.26671970563842
 31
0.0
  0
LINE
  5
8490
330
8463
100
AcDbEntity
  8
0
100
AcDbLine
 10
-12.95538093250954
 20
-73.2077674335205
 30
0.0
 11
-12.95538093250953
 21
-85.45521614743638
 31
0.0
  0
LINE
  5
8491
330
8463
100
AcDbEntity
  8
0
100
AcDbLine
 10
45.02737512478739
 20
-37.63913512685646
 30
0.0
 11
45.02737512478738
 21
66.41314790512068
 31
0.0
  0
LINE
  5
8492
330
8463
100
AcDbEntity
  8
0
100
AcDbLine
 10
45.02737512478738
 20
66.41314790512068
 30
0.0
 11
15.32889031495238
 21
49.26671970563842
 31
0.0
  0
LINE
  5
8493
330
8463
100
AcDbEntity
  8
0
100
AcDbLine
 10
13.91467675257928
 20
50.08321628656614
 30
0.0
 11
43.61316156241429
 21
67.2296444860484
 31
0.0
  0
LINE
  5
8494
330
8463
100
AcDbEntity
  8
0
100
AcDbLine
 10
-14.36959449488262
 20
-84.63871956650864
 30
0.0
 11
-14.36959449488264
 21
-72.39127085259276
 31
0.0
  0
LINE
  5
8495
330
8463
100
AcDbEntity
  8
0
100
AcDbLine
 10
-15.78380805725571
 20
-85.45521614743638
 30
0.0
 11
-15.78380805725571
 21
-87.08820930929181
 31
0.0
  0
LINE
  5
8496
330
8463
100
AcDbEntity
  8
0
100
AcDbLine
 10
-14.36959449488262
 20
-84.63871956650864
 30
0.0
 11
-12.95538093250953
 21
-85.45521614743638
 31
0.0
  0
ELLIPSE
  5
8497
330
8463
100
AcDbEntity
  8
0
100
AcDbEllipse
 10
-15.78380805725572
 20
-83.8222229855809
 30
0.0
 11
1.0
 21
-1.732050807568879
 31
0.0
210
0.0
220
0.0
230
0.9999999999999998
 40
0.5773502691896257
 41
5.49778714378214
 42
7.068583470577038
  0
LINE
  5
8498
330
8463
100
AcDbEntity
  8
0
100
AcDbLine
 10
47.85580224953357
 20
-37.63913512685646
 30
0.0
 11
47.85580224953356
 21
66.41314790512068
 31
0.0
  0
ELLIPSE
  5
8499
330
8463
100
AcDbEntity
  8
0
100
AcDbEllipse
 10
46.44158868716047
 20
65.59665132419296
 30
0.0
 11
-1.999999999999997
 21
-0.0000000000001193
 31
0.0
210
0.0
220
0.0
230
1.0
 40
0.5773502691896259
 41
3.926990816986998
 42
5.497787143781887
  0
LINE
  5
849A
330
8463
100
AcDbEntity
  8
0
100
AcDbLine
 10
75.78652010640221
 20
51.92033359365354
 30
0.0
 11
74.37230654402911
 21
51.10383701272581
 31
0.0
  0
LINE
  5
849B
330
8463
100
AcDbEntity
  8
0
100
AcDbLine
 10
74.37230654402909
 20
-28.09633133726369
 30
0.0
 11
74.37230654402911
 21
51.10383701272581
 31
0.0
  0
LINE
  5
849C
330
8463
100
AcDbEntity
  8
0
100
AcDbLine
 10
45.02737512478738
 20
66.41314790512068
 30
0.0
 11
43.61316156241429
 21
67.2296444860484
 31
0.0
  0
LINE
  5
849D
330
8463
100
AcDbEntity
  8
0
100
AcDbLine
 10
47.85580224953356
 20
66.41314790512068
 30
0.0
 11
49.27001581190666
 21
67.22964448604843
 31
0.0
  0
LINE
  5
849E
330
8463
100
AcDbEntity
  8
0
100
AcDbLine
 10
74.37230654402911
 20
51.10383701272581
 30
0.0
 11
47.85580224953356
 21
66.41314790512068
 31
0.0
  0
ELLIPSE
  5
849F
330
8463
100
AcDbEntity
  8
0
100
AcDbEllipse
 10
60.58372431089141
 20
42.73474705821661
 30
0.0
 11
-3.25
 21
5.62916512459885
 31
0.0
210
0.0
220
0.0
230
1.0
 40
0.577350269189626
 41
0.0
 42
6.283185307179586
  0
ELLIPSE
  5
84A0
330
8463
100
AcDbEntity
  8
0
100
AcDbEllipse
 10
68.36189890394344
 20
42.32649876775275
 30
0.0
 11
-1.25
 21
2.165063509461097
 31
0.0
210
0.0
220
0.0
230
1.0
 40
0.5773502691896259
 41
0.0
 42
6.283185307179586
  0
LINE
  5
84A1
330
8463
100
AcDbEntity
  8
0
100
AcDbLine
 10
-13.78380805725572
 20
-87.28632460071867
 30
0.0
 11
45.61316156241428
 21
-52.99346820175419
 31
0.0
  0
LINE
  5
84A2
330
8463
100
AcDbEntity
  8
0
100
AcDbLine
 10
8.772081980313512
 20
-36.98501002509042
 30
0.0
 11
-45.48229286709069
 21
-68.30878794795413
 31
0.0
  0
ELLIPSE
  5
84A3
330
8463
100
AcDbEntity
  8
0
100
AcDbEllipse
 10
-45.48229286709069
 20
-66.67579478609868
 30
0.0
 11
2.000000000000209
 21
-3.464101615137639
 31
0.0
210
0.0
220
0.0
230
1.0
 40
0.5773502691896258
 41
3.926990816986997
 42
5.497787143781893
  0
LINE
  5
84A4
330
8463
100
AcDbEntity
  8
0
100
AcDbLine
 10
-46.8965064294638
 20
-65.85929820517096
 30
0.0
 11
12.20047849515736
 21
-31.73963805064567
 31
0.0
  0
LINE
  5
84A5
330
8463
100
AcDbEntity
  8
0
100
AcDbLine
 10
-48.31071999183689
 20
-65.04280162424322
 30
0.0
 11
-46.8965064294638
 21
-65.85929820517096
 31
0.0
  0
LINE
  5
84A6
330
8463
100
AcDbEntity
  8
0
100
AcDbLine
 10
-45.48229286709069
 20
-69.9417811098096
 30
0.0
 11
-45.48229286709069
 21
-68.30878794795413
 31
0.0
  0
ELLIPSE
  5
84A7
330
8463
100
AcDbEntity
  8
0
100
AcDbEllipse
 10
-45.48229286709069
 20
-66.67579478609868
 30
0.0
 11
1.000000000000104
 21
-1.732050807568819
 31
0.0
210
0.0
220
0.0
230
1.0
 40
0.5773502691896258
 41
3.926990816986997
 42
5.497787143781896
  0
ELLIPSE
  5
84A8
330
8463
100
AcDbEntity
  8
0
100
AcDbEllipse
 10
61.99793787326453
 20
-13.60351702579648
 30
0.0
 11
-3.25
 21
5.629165124598853
 31
0.0
210
0.0
220
0.0
230
1.0
 40
0.5773502691896259
 41
0.2193254863005958
 42
2.922267167289195
  0
ELLIPSE
  5
84A9
330
8463
100
AcDbEntity
  8
0
100
AcDbEllipse
 10
60.58372431089141
 20
-14.42001360672422
 30
0.0
 11
-3.25
 21
5.62916512459885
 31
0.0
210
0.0
220
0.0
230
1.0
 40
0.577350269189626
 41
0.0
 42
6.283185307179586
  0
ELLIPSE
  5
84AA
330
8463
100
AcDbEntity
  8
0
100
AcDbEllipse
 10
54.21976328021251
 20
-21.36023454460988
 30
0.0
 11
1.250000000000129
 21
-2.165063509461022
 31
0.0
210
0.0
220
0.0
230
0.9999999999999998
 40
0.5773502691896259
 41
3.742856870268589
 42
5.681921090500106
  0
ELLIPSE
  5
84AB
330
8463
100
AcDbEntity
  8
0
100
AcDbEllipse
 10
54.21976328021251
 20
-5.030302926055356
 30
0.0
 11
1.250000000000129
 21
-2.165063509461022
 31
0.0
210
0.0
220
0.0
230
0.9999999999999998
 40
0.5773502691896259
 41
3.742856870268589
 42
5.681921090500106
  0
ELLIPSE
  5
84AC
330
8463
100
AcDbEntity
  8
0
100
AcDbEllipse
 10
54.21976328021251
 20
11.29962869249916
 30
0.0
 11
1.250000000000129
 21
-2.165063509461022
 31
0.0
210
0.0
220
0.0
230
0.9999999999999998
 40
0.5773502691896259
 41
3.742856870268589
 42
5.681921090500106
  0
ELLIPSE
  5
84AD
330
8463
100
AcDbEntity
  8
0
100
AcDbEllipse
 10
54.21976328021251
 20
27.62956031105369
 30
0.0
 11
1.250000000000129
 21
-2.165063509461022
 31
0.0
210
0.0
220
0.0
230
0.9999999999999998
 40
0.5773502691896259
 41
3.742856870268591
 42
5.681921090500106
  0
ELLIPSE
  5
84AE
330
8463
100
AcDbEntity
  8
0
100
AcDbEllipse
 10
54.21976328021251
 20
43.95949192960821
 30
0.0
 11
1.250000000000129
 21
-2.165063509461022
 31
0.0
210
0.0
220
0.0
230
0.9999999999999998
 40
0.5773502691896259
 41
3.742856870268589
 42
5.681921090500106
  0
ELLIPSE
  5
84AF
330
8463
100
AcDbEntity
  8
0
100
AcDbEllipse
 10
52.80554971783939
 20
-22.17673112553761
 30
0.0
 11
-1.25
 21
2.165063509461097
 31
0.0
210
0.0
220
0.0
230
1.0
 40
0.5773502691896259
 41
0.0
 42
6.283185307179586
  0
ELLIPSE
  5
84B0
330
8463
100
AcDbEntity
  8
0
100
AcDbEllipse
 10
52.80554971783939
 20
-5.846799506983093
 30
0.0
 11
-1.25
 21
2.165063509461097
 31
0.0
210
0.0
220
0.0
230
1.0
 40
0.5773502691896259
 41
0.0
 42
6.283185307179586
  0
ELLIPSE
  5
84B1
330
8463
100
AcDbEntity
  8
0
100
AcDbEllipse
 10
52.80554971783939
 20
10.48313211157142
 30
0.0
 11
-1.25
 21
2.165063509461097
 31
0.0
210
0.0
220
0.0
230
1.0
 40
0.5773502691896259
 41
0.0
 42
6.283185307179586
  0
ELLIPSE
  5
84B2
330
8463
100
AcDbEntity
  8
0
100
AcDbEllipse
 10
52.80554971783939
 20
26.81306373012596
 30
0.0
 11
-1.25
 21
2.165063509461097
 31
0.0
210
0.0
220
0.0
230
1.0
 40
0.5773502691896259
 41
0.0
 42
6.283185307179586
  0
ELLIPSE
  5
84B3
330
8463
100
AcDbEntity
  8
0
100
AcDbEllipse
 10
52.80554971783939
 20
43.14299534868047
 30
0.0
 11
-1.25
 21
2.165063509461097
 31
0.0
210
0.0
220
0.0
230
1.0
 40
0.5773502691896259
 41
0.0
 42
6.283185307179586
  0
ELLIPSE
  5
84B4
330
8463
100
AcDbEntity
  8
0
100
AcDbEllipse
 10
54.21976328021251
 20
60.28942354816273
 30
0.0
 11
1.250000000000129
 21
-2.165063509461022
 31
0.0
210
0.0
220
0.0
230
0.9999999999999998
 40
0.5773502691896259
 41
3.742856870268589
 42
5.681921090500106
  0
ELLIPSE
  5
84B5
330
8463
100
AcDbEntity
  8
0
100
AcDbEllipse
 10
4.722288597154151
 20
87.23381071877771
 30
0.0
 11
1.249999999999999
 21
-2.165063509461097
 31
0.0
210
0.0
220
0.0
230
0.9999999999999998
 40
0.5773502691896258
 41
0.0
 42
6.283185307179586
  0
ELLIPSE
  5
84B6
330
8463
100
AcDbEntity
  8
0
100
AcDbEllipse
 10
6.136502159527266
 20
88.05030729970543
 30
0.0
 11
1.250000000000129
 21
-2.165063509461022
 31
0.0
210
0.0
220
0.0
230
1.0
 40
0.5773502691896258
 41
3.742856870268589
 42
5.681921090500108
  0
ELLIPSE
  5
84B7
330
8463
100
AcDbEntity
  8
0
100
AcDbEllipse
 10
52.80554971783939
 20
59.47292696723501
 30
0.0
 11
-1.25
 21
2.165063509461097
 31
0.0
210
0.0
220
0.0
230
1.0
 40
0.5773502691896259
 41
0.0
 42
6.283185307179586
  0
ELLIPSE
  5
84B8
330
8463
100
AcDbEntity
  8
0
100
AcDbEllipse
 10
69.77611246631656
 20
-22.17673112553761
 30
0.0
 11
1.250000000000129
 21
-2.165063509461022
 31
0.0
210
0.0
220
0.0
230
1.0
 40
0.5773502691896259
 41
3.742856870268591
 42
5.681921090500106
  0
ELLIPSE
  5
84B9
330
8463
100
AcDbEntity
  8
0
100
AcDbEllipse
 10
69.77611246631656
 20
-5.846799506983084
 30
0.0
 11
1.250000000000129
 21
-2.165063509461022
 31
0.0
210
0.0
220
0.0
230
1.0
 40
0.5773502691896259
 41
3.742856870268589
 42
5.681921090500106
  0
ELLIPSE
  5
84BA
330
8463
100
AcDbEntity
  8
0
100
AcDbEllipse
 10
69.77611246631656
 20
10.48313211157144
 30
0.0
 11
1.250000000000129
 21
-2.165063509461022
 31
0.0
210
0.0
220
0.0
230
0.9999999999999998
 40
0.5773502691896259
 41
3.742856870268592
 42
5.681921090500106
  0
ELLIPSE
  5
84BB
330
8463
100
AcDbEntity
  8
0
100
AcDbEllipse
 10
69.77611246631656
 20
26.81306373012597
 30
0.0
 11
1.250000000000129
 21
-2.165063509461022
 31
0.0
210
0.0
220
0.0
230
0.9999999999999998
 40
0.5773502691896259
 41
3.742856870268592
 42
5.681921090500106
  0
ELLIPSE
  5
84BC
330
8463
100
AcDbEntity
  8
0
100
AcDbEllipse
 10
68.36189890394344
 20
-22.99322770646535
 30
0.0
 11
-1.25
 21
2.165063509461097
 31
0.0
210
0.0
220
0.0
230
1.0
 40
0.5773502691896259
 41
0.0
 42
6.283185307179586
  0
ELLIPSE
  5
84BD
330
8463
100
AcDbEntity
  8
0
100
AcDbEllipse
 10
68.36189890394344
 20
-6.663296087910821
 30
0.0
 11
-1.25
 21
2.165063509461097
 31
0.0
210
0.0
220
0.0
230
1.0
 40
0.5773502691896259
 41
0.0
 42
6.283185307179586
  0
ELLIPSE
  5
84BE
330
8463
100
AcDbEntity
  8
0
100
AcDbEllipse
 10
68.36189890394344
 20
9.666635530643707
 30
0.0
 11
-1.25
 21
2.165063509461097
 31
0.0
210
0.0
220
0.0
230
1.0
 40
0.5773502691896259
 41
0.0
 42
6.283185307179586
  0
ELLIPSE
  5
84BF
330
8463
100
AcDbEntity
  8
0
100
AcDbEllipse
 10
68.36189890394344
 20
25.99656714919824
 30
0.0
 11
-1.25
 21
2.165063509461097
 31
0.0
210
0.0
220
0.0
230
1.0
 40
0.5773502691896259
 41
0.0
 42
6.283185307179586
  0
LINE
  5
84C0
330
8463
100
AcDbEntity
  8
0
100
AcDbLine
 10
-14.04445286588688
 20
20.28373562990481
 30
0.0
 11
-13.33724102189622
 21
19.20171691637424
 31
0.0
  0
LINE
  5
84C1
330
8463
100
AcDbEntity
  8
0
100
AcDbLine
 10
-18.61223518200192
 20
-10.33753070208561
 30
0.0
 11
-46.89650642946381
 21
-53.61184949125508
 31
0.0
  0
LINE
  5
84C2
330
8463
100
AcDbEntity
  8
0
100
AcDbLine
 10
-20.02644874437501
 20
-9.521034121157887
 30
0.0
 11
-18.61223518200192
 21
-10.33753070208561
 31
0.0
  0
LINE
  5
84C3
330
8463
100
AcDbEntity
  8
0
100
AcDbLine
 10
-48.31071999183691
 20
-52.79535291032735
 30
0.0
 11
-20.02644874437501
 21
-9.521034121157887
 31
0.0
  0
LINE
  5
84C4
330
8463
100
AcDbEntity
  8
0
100
AcDbLine
 10
-46.89650642946381
 20
-53.61184949125508
 30
0.0
 11
-48.31071999183691
 21
-52.79535291032735
 31
0.0
  0
LINE
  5
84C5
330
8463
100
AcDbEntity
  8
0
100
AcDbLine
 10
-18.6122351820019
 20
68.86263764790384
 30
0.0
 11
-18.61223518200192
 21
-10.3375307020856
 31
0.0
  0
LINE
  5
84C6
330
8463
100
AcDbEntity
  8
0
100
AcDbLine
 10
-20.026448744375
 20
69.67913422883156
 30
0.0
 11
-18.6122351820019
 21
68.86263764790384
 31
0.0
  0
LINE
  5
84C7
330
8463
100
AcDbEntity
  8
0
100
AcDbLine
 10
-20.02644874437501
 20
-9.521034121157887
 30
0.0
 11
-20.026448744375
 21
69.67913422883156
 31
0.0
  0
ELLIPSE
  5
84C8
330
8463
100
AcDbEntity
  8
0
100
AcDbEllipse
 10
-3.055885995897873
 20
79.4770931999643
 30
0.0
 11
-3.250000000000005
 21
5.629165124598849
 31
0.0
210
0.0
220
0.0
230
0.9999999999999998
 40
0.5773502691896257
 41
4.712388980384691
 42
7.853981633974485
  0
ELLIPSE
  5
84C9
330
8463
100
AcDbEntity
  8
0
100
AcDbEllipse
 10
-1.641672433524759
 20
80.29358978089204
 30
0.0
 11
-3.249999999999998
 21
5.629165124598853
 31
0.0
210
0.0
220
0.0
230
1.0
 40
0.5773502691896258
 41
0.2193254863005992
 42
1.570796326794899
  0
ELLIPSE
  5
84CA
330
8463
100
AcDbEntity
  8
0
100
AcDbEllipse
 10
-10.8340605889499
 20
88.05030729970543
 30
0.0
 11
1.249999999999999
 21
-2.165063509461097
 31
0.0
210
0.0
220
0.0
230
0.9999999999999998
 40
0.5773502691896258
 41
0.0
 42
6.283185307179586
  0
ELLIPSE
  5
84CB
330
8463
100
AcDbEntity
  8
0
100
AcDbEllipse
 10
-9.419847026576784
 20
88.86680388063314
 30
0.0
 11
1.250000000000129
 21
-2.165063509461022
 31
0.0
210
0.0
220
0.0
230
1.0
 40
0.5773502691896257
 41
3.742856870268589
 42
5.681921090500112
  0
LINE
  5
84CC
330
8463
100
AcDbEntity
  8
0
100
AcDbLine
 10
9.672036065459996
 20
86.82556242831385
 30
0.0
 11
9.672036065460005
 21
88.45855559016928
 31
0.0
  0
ELLIPSE
  5
84CD
330
8463
100
AcDbEntity
  8
0
100
AcDbEllipse
 10
8.257822503086909
 20
87.64205900924157
 30
0.0
 11
1.999999999999997
 21
0.0000000000000003
 31
0.0
210
0.0
220
0.0
230
1.0
 40
0.5773502691896258
 41
5.497787143782139
 42
7.068583470577028
  0
LINE
  5
84CE
330
8463
100
AcDbEntity
  8
0
100
AcDbLine
 10
11.0862496278331
 20
86.00906584738613
 30
0.0
 11
11.08624962783309
 21
-18.04321718459102
 31
0.0
  0
ELLIPSE
  5
84CF
330
8463
100
AcDbEntity
  8
0
100
AcDbEllipse
 10
8.257822503086909
 20
87.64205900924157
 30
0.0
 11
3.999999999999999
 21
-0.0000000000000001
 31
0.0
210
0.0
220
0.0
230
1.0
 40
0.5773502691896258
 41
5.497787143782137
 42
7.068583470577028
  0
LINE
  5
84D0
330
8463
100
AcDbEntity
  8
0
100
AcDbLine
 10
9.672036065460005
 20
88.45855559016928
 30
0.0
 11
11.0862496278331
 21
89.275052171097
 31
0.0
  0
LINE
  5
84D1
330
8463
100
AcDbEntity
  8
0
100
AcDbLine
 10
9.672036065460002
 20
86.82556242831385
 30
0.0
 11
11.0862496278331
 21
86.00906584738613
 31
0.0
  0
LINE
  5
84D2
330
8463
100
AcDbEntity
  8
0
100
AcDbLine
 10
12.2578225030869
 20
-16.41022402273557
 30
0.0
 11
12.2578225030869
 21
87.64205900924157
 31
0.0
  0
LINE
  5
84D3
330
8463
100
AcDbEntity
  8
0
100
AcDbLine
 10
-16.84446822903553
 20
103.7678664825641
 30
0.0
 11
9.672036065460005
 21
88.45855559016928
 31
0.0
  0
LINE
  5
84D4
330
8463
100
AcDbEntity
  8
0
100
AcDbLine
 10
-16.84446822903561
 20
71.51625153591893
 30
0.0
 11
-16.84446822903553
 21
103.7678664825641
 31
0.0
  0
LINE
  5
84D5
330
8463
100
AcDbEntity
  8
0
100
AcDbLine
 10
-46.8965064294638
 20
-65.85929820517096
 30
0.0
 11
-46.89650642946381
 21
-53.61184949125508
 31
0.0
  0
LINE
  5
84D6
330
8463
100
AcDbEntity
  8
0
100
AcDbLine
 10
-18.6122351820019
 20
68.86263764790384
 30
0.0
 11
11.0862496278331
 21
86.00906584738613
 31
0.0
  0
LINE
  5
84D7
330
8463
100
AcDbEntity
  8
0
100
AcDbLine
 10
-48.31071999183691
 20
-52.79535291032735
 30
0.0
 11
-48.31071999183689
 21
-65.04280162424322
 31
0.0
  0
LINE
  5
84D8
330
8463
100
AcDbEntity
  8
0
100
AcDbLine
 10
9.672036065460002
 20
86.82556242831385
 30
0.0
 11
-20.026448744375
 21
69.67913422883156
 31
0.0
  0
LINE
  5
84D9
330
8463
100
AcDbEntity
  8
0
100
AcDbLine
 10
11.0862496278331
 20
89.275052171097
 30
0.0
 11
-15.43025466666243
 21
104.5843630634919
 31
0.0
  0
LINE
  5
84DA
330
8463
100
AcDbEntity
  8
0
100
AcDbLine
 10
-15.43025466666243
 20
104.5843630634919
 30
0.0
 11
-16.84446822903553
 21
103.7678664825641
 31
0.0
  0
ELLIPSE
  5
84DB
330
8463
100
AcDbEntity
  8
0
100
AcDbEllipse
 10
19.21797761147838
 20
-40.75202834164339
 30
0.0
 11
1.24999999999987
 21
2.165063509461171
 31
0.0
210
0.0
220
0.0
230
1.0
 40
0.577350269189626
 41
3.74285687026858
 42
5.681921090500115
  0
ELLIPSE
  5
84DC
330
8463
100
AcDbEntity
  8
0
100
AcDbEllipse
 10
20.63219117385148
 20
-41.56852492257112
 30
0.0
 11
-1.25
 21
-2.165063509461097
 31
0.0
210
0.0
220
0.0
230
1.0
 40
0.5773502691896259
 41
0.0
 42
6.283185307179586
  0
ELLIPSE
  5
84DD
330
8463
100
AcDbEntity
  8
0
100
AcDbEllipse
 10
19.21797761147838
 20
-24.42209672308887
 30
0.0
 11
1.24999999999987
 21
2.165063509461171
 31
0.0
210
0.0
220
0.0
230
1.0
 40
0.577350269189626
 41
3.74285687026858
 42
5.681921090500117
  0
ELLIPSE
  5
84DE
330
8463
100
AcDbEntity
  8
0
100
AcDbEllipse
 10
20.63219117385148
 20
-25.2385933040166
 30
0.0
 11
-1.25
 21
-2.165063509461097
 31
0.0
210
0.0
220
0.0
230
1.0
 40
0.5773502691896259
 41
0.0
 42
6.283185307179586
  0
ELLIPSE
  5
84DF
330
8463
100
AcDbEntity
  8
0
100
AcDbEllipse
 10
19.21797761147838
 20
-8.092165104534352
 30
0.0
 11
1.24999999999987
 21
2.165063509461171
 31
0.0
210
0.0
220
0.0
230
1.0
 40
0.577350269189626
 41
3.74285687026858
 42
5.681921090500119
  0
ELLIPSE
  5
84E0
330
8463
100
AcDbEntity
  8
0
100
AcDbEllipse
 10
20.63219117385148
 20
-8.90866168546208
 30
0.0
 11
-1.25
 21
-2.165063509461097
 31
0.0
210
0.0
220
0.0
230
1.0
 40
0.5773502691896259
 41
0.0
 42
6.283185307179586
  0
ELLIPSE
  5
84E1
330
8463
100
AcDbEntity
  8
0
100
AcDbEllipse
 10
19.21797761147838
 20
8.237766514020172
 30
0.0
 11
1.24999999999987
 21
2.165063509461171
 31
0.0
210
0.0
220
0.0
230
1.0
 40
0.577350269189626
 41
3.74285687026858
 42
5.681921090500118
  0
ELLIPSE
  5
84E2
330
8463
100
AcDbEntity
  8
0
100
AcDbEllipse
 10
20.63219117385148
 20
7.421269933092444
 30
0.0
 11
-1.25
 21
-2.165063509461097
 31
0.0
210
0.0
220
0.0
230
1.0
 40
0.5773502691896259
 41
0.0
 42
6.283185307179586
  0
ELLIPSE
  5
84E3
330
8463
100
AcDbEntity
  8
0
100
AcDbEllipse
 10
19.21797761147838
 20
24.5676981325747
 30
0.0
 11
1.24999999999987
 21
2.165063509461171
 31
0.0
210
0.0
220
0.0
230
1.0
 40
0.577350269189626
 41
3.74285687026858
 42
5.681921090500117
  0
ELLIPSE
  5
84E4
330
8463
100
AcDbEntity
  8
0
100
AcDbEllipse
 10
20.63219117385148
 20
23.75120155164697
 30
0.0
 11
-1.25
 21
-2.165063509461097
 31
0.0
210
0.0
220
0.0
230
1.0
 40
0.5773502691896259
 41
0.0
 42
6.283185307179586
  0
ELLIPSE
  5
84E5
330
8463
100
AcDbEntity
  8
0
100
AcDbEllipse
 10
-14.72314788547589
 20
-12.99114459010068
 30
0.0
 11
1.24999999999987
 21
2.165063509461171
 31
0.0
210
0.0
220
0.0
230
1.0
 40
0.5773502691896258
 41
3.74285687026858
 42
5.681921090500116
  0
ELLIPSE
  5
84E6
330
8463
100
AcDbEntity
  8
0
100
AcDbEllipse
 10
-13.30893432310279
 20
-13.80764117102841
 30
0.0
 11
1.249999999999999
 21
2.165063509461097
 31
0.0
210
0.0
220
0.0
230
0.9999999999999998
 40
0.5773502691896258
 41
0.0
 42
6.283185307179586
  0
ELLIPSE
  5
84E7
330
8463
100
AcDbEntity
  8
0
100
AcDbEllipse
 10
-14.72314788547589
 20
3.338787028453831
 30
0.0
 11
1.24999999999987
 21
2.165063509461171
 31
0.0
210
0.0
220
0.0
230
1.0
 40
0.5773502691896258
 41
3.74285687026858
 42
5.681921090500116
  0
ELLIPSE
  5
84E8
330
8463
100
AcDbEntity
  8
0
100
AcDbEllipse
 10
-13.30893432310279
 20
2.522290447526112
 30
0.0
 11
1.249999999999999
 21
2.165063509461097
 31
0.0
210
0.0
220
0.0
230
0.9999999999999998
 40
0.5773502691896258
 41
0.0
 42
6.283185307179586
  0
ELLIPSE
  5
84E9
330
8463
100
AcDbEntity
  8
0
100
AcDbEllipse
 10
-14.72314788547589
 20
19.66871864700835
 30
0.0
 11
1.24999999999987
 21
2.165063509461171
 31
0.0
210
0.0
220
0.0
230
1.0
 40
0.5773502691896258
 41
3.74285687026858
 42
5.681921090500117
  0
ELLIPSE
  5
84EA
330
8463
100
AcDbEntity
  8
0
100
AcDbEllipse
 10
-13.30893432310279
 20
18.85222206608063
 30
0.0
 11
1.249999999999999
 21
2.165063509461097
 31
0.0
210
0.0
220
0.0
230
0.9999999999999998
 40
0.5773502691896258
 41
0.0
 42
6.283185307179586
  0
ELLIPSE
  5
84EB
330
8463
100
AcDbEntity
  8
0
100
AcDbEllipse
 10
-14.72314788547589
 20
35.99865026556288
 30
0.0
 11
1.24999999999987
 21
2.165063509461171
 31
0.0
210
0.0
220
0.0
230
1.0
 40
0.5773502691896258
 41
3.742856870268582
 42
5.681921090500117
  0
ELLIPSE
  5
84EC
330
8463
100
AcDbEntity
  8
0
100
AcDbEllipse
 10
-13.30893432310279
 20
35.18215368463516
 30
0.0
 11
1.249999999999999
 21
2.165063509461097
 31
0.0
210
0.0
220
0.0
230
0.9999999999999998
 40
0.5773502691896258
 41
0.0
 42
6.283185307179586
  0
ELLIPSE
  5
84ED
330
8463
100
AcDbEntity
  8
0
100
AcDbEllipse
 10
-14.72314788547589
 20
52.3285818841174
 30
0.0
 11
1.24999999999987
 21
2.165063509461171
 31
0.0
210
0.0
220
0.0
230
1.0
 40
0.5773502691896258
 41
3.74285687026858
 42
5.681921090500117
  0
ELLIPSE
  5
84EE
330
8463
100
AcDbEntity
  8
0
100
AcDbEllipse
 10
-13.30893432310279
 20
51.51208530318968
 30
0.0
 11
1.249999999999999
 21
2.165063509461097
 31
0.0
210
0.0
220
0.0
230
0.9999999999999998
 40
0.5773502691896258
 41
0.0
 42
6.283185307179586
  0
ELLIPSE
  5
84EF
330
8463
100
AcDbEntity
  8
0
100
AcDbEllipse
 10
-14.72314788547589
 20
68.65851350267194
 30
0.0
 11
1.24999999999987
 21
2.165063509461171
 31
0.0
210
0.0
220
0.0
230
1.0
 40
0.5773502691896258
 41
3.74285687026858
 42
5.681921090500117
  0
ELLIPSE
  5
84F0
330
8463
100
AcDbEntity
  8
0
100
AcDbEllipse
 10
-13.30893432310279
 20
67.84201692174422
 30
0.0
 11
1.249999999999999
 21
2.165063509461097
 31
0.0
210
0.0
220
0.0
230
0.9999999999999998
 40
0.5773502691896258
 41
0.0
 42
6.283185307179586
  0
ENDBLK
  5
8465
330
8463
100
AcDbEntity
  8
0
100
AcDbBlockEnd
  0
ENDSEC
  0
SECTION
  2
ENTITIES
  0
INSERT
  5
84F1
330
1F
100
AcDbEntity
  8
0
100
AcDbBlockReference
  2
SAE340_46_2-Front
 10
0.0
 20
0.0
 30
0.0
  0
INSERT
  5
84F2
330
1F
100
AcDbEntity
  8
0
100
AcDbBlockReference
  2
SAE340_46_2-Left
 10
109.2
 20
0.0
 30
0.0
  0
INSERT
  5
84F3
330
1F
100
AcDbEntity
  8
0
100
AcDbBlockReference
  2
SAE340_46_2-Right
 10
-109.2
 20
0.0
 30
0.0
  0
INSERT
  5
84F4
330
1F
100
AcDbEntity
  8
0
100
AcDbBlockReference
  2
SAE340_46_2-Top
 10
0.0
 20
-46.7
 30
0.0
  0
INSERT
  5
84F5
330
1F
100
AcDbEntity
  8
0
100
AcDbBlockReference
  2
SAE340_46_2-Bottom
 10
0.0
 20
191.6999999999999
 30
0.0
  0
INSERT
  5
84F6
330
1F
100
AcDbEntity
  8
0
100
AcDbBlockReference
  2
SAE340_46_2-ISO
 10
157.510719991837
 20
-151.2843630634918
 30
0.0
  0
MTEXT
  5
84F7
330
1F
100
AcDbEntity
  8
0
100
AcDbMText
 10
0.0
 20
-177.4
 30
0.0
 40
13.65
 41
0.0
 71
     5
 72
     5
  1
SAE340/46/2
 73
     1
 44
1.0
1001
ACAD
1000
MTEXTBEGIN
1070
    73
1070
     1
1070
    44
1040
1.0
1070
    74
1070
     0
1000
MTEXTEND
  0
ENDSEC
  0
SECTION
  2
OBJECTS
  0
DICTIONARY
  5
C
330
0
100
AcDbDictionary
281
     1
  3
ACAD_CIP_PREVIOUS_PRODUCT_INFO
350
216
  3
ACAD_COLOR
350
6B
  3
ACAD_DETAILVIEWSTYLE
350
21B
  3
ACAD_GROUP
350
D
  3
ACAD_LAYOUT
350
1A
  3
ACAD_MATERIAL
350
6A
  3
ACAD_MLEADERSTYLE
350
12D
  3
ACAD_MLINESTYLE
350
17
  3
ACAD_PLOTSETTINGS
350
19
  3
ACAD_PLOTSTYLENAME
350
E
  3
ACAD_SCALELIST
350
10C
  3
ACAD_SECTIONVIEWSTYLE
350
219
  3
ACAD_TABLESTYLE
350
7E
  3
ACAD_VISUALSTYLE
350
EF
  3
ACDB_RECOMPOSE_DATA
350
85F8
  3
AcDbVariableDictionary
350
5E
  3
DWGPROPS
350
85F9
  0
DICTIONARY
  5
8548
330
8
100
AcDbDictionary
280
     1
281
     1
  0
DICTIONARY
  5
1FF
330
2
100
AcDbDictionary
280
     1
281
     1
  3
ACAD_LAYERSTATES
360
200
  0
DICTIONARY
  5
13C
330
10
100
AcDbDictionary
280
     1
281
     1
  0
DICTIONARY
  5
1CE
330
1F
100
AcDbDictionary
280
     1
281
     1
  3
ACAD_LAYOUTSELFREF
360
8550
  0
DICTIONARY
  5
84FB
330
D2
100
AcDbDictionary
280
     1
281
     1
  3
ACAD_LAYOUTSELFREF
360
8559
  0
DICTIONARY
  5
84FD
330
D6
100
AcDbDictionary
280
     1
281
     1
  3
ACAD_LAYOUTSELFREF
360
855C
  0
XRECORD
  5
216
102
{ACAD_REACTORS
330
C
102
}
330
C
100
AcDbXrecord
280
     1
300
ACD
300
2021
300
87393ACD_2021_0F
  0
DICTIONARY
  5
6B
102
{ACAD_REACTORS
330
C
102
}
330
C
100
AcDbDictionary
281
     1
  0
DICTIONARY
  5
21B
102
{ACAD_REACTORS
330
C
102
}
330
C
100
AcDbDictionary
281
     1
  3
Metric50
350
21C
  0
DICTIONARY
  5
D
102
{ACAD_REACTORS
330
C
102
}
330
C
100
AcDbDictionary
281
     1
  0
DICTIONARY
  5
1A
102
{ACAD_REACTORS
330
C
102
}
330
C
100
AcDbDictionary
281
     1
  3
Layout1
350
D3
  3
Layout2
350
D7
  3
Model
350
22
  0
DICTIONARY
  5
6A
102
{ACAD_REACTORS
330
C
102
}
330
C
100
AcDbDictionary
281
     1
  3
ByBlock
350
ED
  3
ByLayer
350
EC
  3
Global
350
EE
  0
DICTIONARY
  5
12D
102
{ACAD_REACTORS
330
C
102
}
330
C
100
AcDbDictionary
281
     1
  3
Standard
350
12E
  0
DICTIONARY
  5
17
102
{ACAD_REACTORS
330
C
102
}
330
C
100
AcDbDictionary
281
     1
  3
Standard
350
18
  0
DICTIONARY
  5
19
102
{ACAD_REACTORS
330
C
102
}
330
C
100
AcDbDictionary
281
     1
  0
ACDBDICTIONARYWDFLT
  5
E
102
{ACAD_REACTORS
330
C
102
}
330
C
100
AcDbDictionary
281
     1
  3
Normal
350
F
100
AcDbDictionaryWithDefault
340
F
  0
DICTIONARY
  5
10C
102
{ACAD_REACTORS
330
C
102
}
330
C
100
AcDbDictionary
281
     1
  3
A0
350
10D
  3
A1
350
1BE
  3
A2
350
1BF
  3
A3
350
1C0
  3
A4
350
1C1
  3
A5
350
1C2
  3
A6
350
1C3
  3
A7
350
1C4
  3
A8
350
1C5
  3
A9
350
1C6
  3
B0
350
1C7
  3
B1
350
1C8
  3
B2
350
1C9
  3
B3
350
1CA
  3
B4
350
1CB
  3
B5
350
1CC
  3
B6
350
1CD
  0
DICTIONARY
  5
219
102
{ACAD_REACTORS
330
C
102
}
330
C
100
AcDbDictionary
281
     1
  3
Metric50
350
21A
  0
DICTIONARY
  5
7E
102
{ACAD_REACTORS
330
C
102
}
330
C
100
AcDbDictionary
281
     1
  3
Standard
350
7F
  0
DICTIONARY
  5
EF
102
{ACAD_REACTORS
330
C
102
}
330
C
100
AcDbDictionary
281
     1
  3
2dWireframe
350
F5
  3
Basic
350
F4
  3
Brighten
350
FB
  3
ColorChange
350
FF
  3
Conceptual
350
F8
  3
Dim
350
FA
  3
EdgeColorOff
350
1E6
  3
Facepattern
350
FE
  3
Flat
350
F0
  3
FlatWithEdges
350
F1
  3
Gouraud
350
F2
  3
GouraudWithEdges
350
F3
  3
Hidden
350
F7
  3
JitterOff
350
1E4
  3
Linepattern
350
FD
  3
OverhangOff
350
1E5
  3
Realistic
350
F9
  3
Shaded
350
1F3
  3
Shaded with edges
350
1F2
  3
Shades of Gray
350
1EF
  3
Sketchy
350
1F0
  3
Thicken
350
FC
  3
Wireframe
350
F6
  3
X-Ray
350
1F1
  0
XRECORD
  5
85F8
102
{ACAD_REACTORS
330
C
102
}
330
C
100
AcDbXrecord
280
     1
 90
        1
330
7F
  0
DICTIONARY
  5
5E
102
{ACAD_REACTORS
330
C
102
}
330
C
100
AcDbDictionary
281
     1
  3
CANNOSCALE
350
146
  3
CENTEREXE
350
259
  3
CENTERLTYPEFILE
350
25A
  3
CMLEADERSTYLE
350
145
  3
CTABLESTYLE
350
84
  3
CVIEWDETAILSTYLE
350
227
  3
CVIEWSECTIONSTYLE
350
228
  3
DIMASSOC
350
5F
  3
HIDETEXT
350
63
  3
INDEXCTL
350
85A5
  3
LAYEREVAL
350
1AE
  3
LAYERNOTIFY
350
1AF
  3
LIGHTINGUNITS
350
85A3
  3
MSLTSCALE
350
85A2
  3
PSOLHEIGHT
350
85F5
  3
PSOLWIDTH
350
85F4
  3
SORTENTS
350
85A4
  3
XCLIPFRAME
350
85F6
  0
XRECORD
  5
85F9
102
{ACAD_REACTORS
330
C
102
}
330
C
100
AcDbXrecord
280
     1
  1
DWGPROPS COOKIE
  2

  3

  4

  6

  7

  8
truole
  9

300
=
301
=
302
=
303
=
304
=
305
=
306
=
307
=
308
=
309
=
 40
0.0077083333333333
 41
2460398.356956019
 42
2460398.374328704
  1

 90
        0
  0
DICTIONARY
  5
200
102
{ACAD_REACTORS
330
1FF
102
}
330
1FF
100
AcDbDictionary
281
     1
  0
XRECORD
  5
8550
102
{ACAD_REACTORS
330
1CE
102
}
330
1CE
100
AcDbXrecord
280
     1
340
1F
  0
XRECORD
  5
8559
102
{ACAD_REACTORS
330
84FB
102
}
330
84FB
100
AcDbXrecord
280
     1
340
D2
  0
XRECORD
  5
855C
102
{ACAD_REACTORS
330
84FD
102
}
330
84FD
100
AcDbXrecord
280
     1
340
D6
  0
ACDBDETAILVIEWSTYLE
  5
21C
102
{ACAD_XDICTIONARY
360
8638
102
}
102
{ACAD_REACTORS
330
21B
102
}
330
21B
100
AcDbModelDocViewStyle
 70
     0
  3
Metric50
290
     0
100
AcDbDetailViewStyle
 70
     0
 71
     0
 90
        3
 71
     1
340
11
 40
5.0
340
0
 40
5.0
300

 40
0.0
280
     1
 71
     2
340
16
 90
       25
 71
     3
340
11
 40
5.0
 90
        0
 40
15.0
 90
        1
300
%<\AcVar ViewDetailId>% (%<\AcVar ViewScale \f "%sn">%)
 71
     4
340
16
 90
       25
340
16
 90
       25
280
     0
  0
LAYOUT
  5
D3
102
{ACAD_XDICTIONARY
360
85FD
102
}
102
{ACAD_REACTORS
330
1A
102
}
330
1A
100
AcDbPlotSettings
  1

  2
C:\Documents and Settings\basas\Application Data\Autodesk\AutoCAD 2005\R16.1\enu\plotters\Default Windows System Printer.pc3
  4

  6

 40
0.0
 41
0.0
 42
0.0
 43
0.0
 44
0.0
 45
0.0
 46
0.0
 47
0.0
 48
0.0
 49
0.0
140
0.0
141
0.0
142
1.0
143
1.0
 70
   688
 72
     0
 73
     0
 74
     5
  7

 75
    16
147
1.0
148
0.0
149
0.0
100
AcDbLayout
  1
Layout1
 70
     1
 71
     1
 10
0.0
 20
0.0
 11
12.0
 21
9.0
 12
0.0
 22
0.0
 32
0.0
 14
0.0
 24
0.0
 34
0.0
 15
0.0
 25
0.0
 35
0.0
146
0.0
 13
0.0
 23
0.0
 33
0.0
 16
1.0
 26
0.0
 36
0.0
 17
0.0
 27
1.0
 37
0.0
 76
     0
330
D2
  0
LAYOUT
  5
D7
102
{ACAD_XDICTIONARY
360
85FF
102
}
102
{ACAD_REACTORS
330
1A
102
}
330
1A
100
AcDbPlotSettings
  1

  2
C:\Documents and Settings\basas\Application Data\Autodesk\AutoCAD 2005\R16.1\enu\plotters\Default Windows System Printer.pc3
  4

  6

 40
0.0
 41
0.0
 42
0.0
 43
0.0
 44
0.0
 45
0.0
 46
0.0
 47
0.0
 48
0.0
 49
0.0
140
0.0
141
0.0
142
1.0
143
1.0
 70
   688
 72
     0
 73
     0
 74
     5
  7

 75
    16
147
1.0
148
0.0
149
0.0
100
AcDbLayout
  1
Layout2
 70
     1
 71
     2
 10
0.0
 20
0.0
 11
12.0
 21
9.0
 12
0.0
 22
0.0
 32
0.0
 14
0.0
 24
0.0
 34
0.0
 15
0.0
 25
0.0
 35
0.0
146
0.0
 13
0.0
 23
0.0
 33
0.0
 16
1.0
 26
0.0
 36
0.0
 17
0.0
 27
1.0
 37
0.0
 76
     0
330
D6
  0
LAYOUT
  5
22
102
{ACAD_XDICTIONARY
360
85FA
102
}
102
{ACAD_REACTORS
330
1A
102
}
330
1A
100
AcDbPlotSettings
  1

  2
none_device
  4
ISO_A4_(210.00_x_297.00_MM)
  6

 40
7.5
 41
20.0
 42
7.5
 43
20.0
 44
210.0
 45
297.0
 46
11.54999923706054
 47
-13.65000009536743
 48
0.0
 49
0.0
140
0.0
141
0.0
142
1.0
143
8.704084754739808
 70
 11952
 72
     1
 73
     0
 74
     0
  7

 75
     0
147
0.1148885871608098
148
0.0
149
0.0
100
AcDbLayout
  1
Model
 70
     1
 71
     0
 10
0.0
 20
0.0
 11
12.0
 21
9.0
 12
0.0
 22
0.0
 32
0.0
 14
0.0
 24
0.0
 34
0.0
 15
0.0
 25
0.0
 35
0.0
146
0.0
 13
0.0
 23
0.0
 33
0.0
 16
1.0
 26
0.0
 36
0.0
 17
0.0
 27
1.0
 37
0.0
 76
     0
330
1F
331
EA
1001
ACAD_PSEXT
1000
None
1000
None
1000
Not applicable
1000
The layout will not be plotted unless a new plotter configuration name is selected.
1070
     0
  0
MATERIAL
  5
ED
102
{ACAD_XDICTIONARY
360
1F9
102
}
102
{ACAD_REACTORS
330
6A
102
}
330
6A
100
AcDbMaterial
  1
ByBlock
  0
MATERIAL
  5
EC
102
{ACAD_XDICTIONARY
360
1F7
102
}
102
{ACAD_REACTORS
330
6A
102
}
330
6A
100
AcDbMaterial
  1
ByLayer
  0
MATERIAL
  5
EE
102
{ACAD_XDICTIONARY
360
173
102
}
102
{ACAD_REACTORS
330
6A
102
}
330
6A
100
AcDbMaterial
  1
Global
 43
0.0007999999797903
 43
0.0
 43
0.0
 43
0.0
 43
0.0
 43
0.0007999999797903
 43
0.0
 43
0.0
 43
0.0
 43
0.0
 43
1.0
 43
0.0
 43
0.0
 43
0.0
 43
0.0
 43
1.0
 49
0.0007999999797903
 49
0.0
 49
0.0
 49
0.0
 49
0.0
 49
0.0007999999797903
 49
0.0
 49
0.0
 49
0.0
 49
0.0
 49
1.0
 49
0.0
 49
0.0
 49
0.0
 49
0.0
 49
1.0
142
0.0007999999797903
142
0.0
142
0.0
142
0.0
142
0.0
142
0.0007999999797903
142
0.0
142
0.0
142
0.0
142
0.0
142
1.0
142
0.0
142
0.0
142
0.0
142
0.0
142
1.0
144
0.0007999999797903
144
0.0
144
0.0
144
0.0
144
0.0
144
0.0007999999797903
144
0.0
144
0.0
144
0.0
144
0.0
144
1.0
144
0.0
144
0.0
144
0.0
144
0.0
144
1.0
1001
ACAD
1070
    -1
1070
     3
1070
     0
1000

1071
        0
1070
     0
  0
MLEADERSTYLE
  5
12E
102
{ACAD_XDICTIONARY
360
8624
102
}
102
{ACAD_REACTORS
330
12D
102
}
330
12D
100
AcDbMLeaderStyle
170
     2
171
     1
172
     0
 90
        2
 40
0.0
 41
0.0
173
     1
 91
-1056964608
340
14
 92
       -2
290
     1
 42
2.0
291
     1
 43
8.0
  3
Standard
 44
4.0
300

342
11
174
     1
178
     1
175
     1
176
     0
 93
-1056964608
 45
4.0
292
     0
297
     0
 46
4.0
 94
-1056964608
 47
1.0
 49
1.0
140
1.0
293
     1
141
0.0
294
     1
177
     0
142
1.0
295
     0
296
     0
143
3.75
1001
ACAD_MLEADERVER
1070
     2
  0
MLINESTYLE
  5
18
102
{ACAD_REACTORS
330
17
102
}
330
17
100
AcDbMlineStyle
  2
STANDARD
 70
     0
  3

 62
   256
 51
90.0
 52
90.0
 71
     2
 49
0.5
 62
   256
  6
BYLAYER
 49
-0.5
 62
   256
  6
BYLAYER
  0
ACDBPLACEHOLDER
  5
F
102
{ACAD_REACTORS
330
E
102
}
330
E
  0
SCALE
  5
10D
102
{ACAD_REACTORS
330
10C
102
}
330
10C
100
AcDbScale
 70
     0
300
1:1
140
1.0
141
1.0
290
     1
  0
SCALE
  5
1BE
102
{ACAD_REACTORS
330
10C
102
}
330
10C
100
AcDbScale
 70
     0
300
1:2
140
1.0
141
2.0
290
     0
  0
SCALE
  5
1BF
102
{ACAD_REACTORS
330
10C
102
}
330
10C
100
AcDbScale
 70
     0
300
1:4
140
1.0
141
4.0
290
     0
  0
SCALE
  5
1C0
102
{ACAD_REACTORS
330
10C
102
}
330
10C
100
AcDbScale
 70
     0
300
1:5
140
1.0
141
5.0
290
     0
  0
SCALE
  5
1C1
102
{ACAD_REACTORS
330
10C
102
}
330
10C
100
AcDbScale
 70
     0
300
1:8
140
1.0
141
8.0
290
     0
  0
SCALE
  5
1C2
102
{ACAD_REACTORS
330
10C
102
}
330
10C
100
AcDbScale
 70
     0
300
1:10
140
1.0
141
10.0
290
     0
  0
SCALE
  5
1C3
102
{ACAD_REACTORS
330
10C
102
}
330
10C
100
AcDbScale
 70
     0
300
1:16
140
1.0
141
16.0
290
     0
  0
SCALE
  5
1C4
102
{ACAD_REACTORS
330
10C
102
}
330
10C
100
AcDbScale
 70
     0
300
1:20
140
1.0
141
20.0
290
     0
  0
SCALE
  5
1C5
102
{ACAD_REACTORS
330
10C
102
}
330
10C
100
AcDbScale
 70
     0
300
1:30
140
1.0
141
30.0
290
     0
  0
SCALE
  5
1C6
102
{ACAD_REACTORS
330
10C
102
}
330
10C
100
AcDbScale
 70
     0
300
1:40
140
1.0
141
40.0
290
     0
  0
SCALE
  5
1C7
102
{ACAD_REACTORS
330
10C
102
}
330
10C
100
AcDbScale
 70
     0
300
1:50
140
1.0
141
50.0
290
     0
  0
SCALE
  5
1C8
102
{ACAD_REACTORS
330
10C
102
}
330
10C
100
AcDbScale
 70
     0
300
1:100
140
1.0
141
100.0
290
     0
  0
SCALE
  5
1C9
102
{ACAD_REACTORS
330
10C
102
}
330
10C
100
AcDbScale
 70
     0
300
2:1
140
2.0
141
1.0
290
     0
  0
SCALE
  5
1CA
102
{ACAD_REACTORS
330
10C
102
}
330
10C
100
AcDbScale
 70
     0
300
4:1
140
4.0
141
1.0
290
     0
  0
SCALE
  5
1CB
102
{ACAD_REACTORS
330
10C
102
}
330
10C
100
AcDbScale
 70
     0
300
8:1
140
8.0
141
1.0
290
     0
  0
SCALE
  5
1CC
102
{ACAD_REACTORS
330
10C
102
}
330
10C
100
AcDbScale
 70
     0
300
10:1
140
10.0
141
1.0
290
     0
  0
SCALE
  5
1CD
102
{ACAD_REACTORS
330
10C
102
}
330
10C
100
AcDbScale
 70
     0
300
100:1
140
100.0
141
1.0
290
     0
  0
ACDBSECTIONVIEWSTYLE
  5
21A
102
{ACAD_XDICTIONARY
360
8636
102
}
102
{ACAD_REACTORS
330
219
102
}
330
219
100
AcDbModelDocViewStyle
 70
     0
  3
Metric50
290
     0
100
AcDbSectionViewStyle
 70
     0
 71
     0
 90
      102
 71
     1
340
11
 40
5.0
340
0
340
0
 40
5.0
300
I, O, Q, S, X, Z
 40
10.0
 90
        0
 40
2.5
 90
        0
 71
     2
340
16
 90
       25
340
16
 90
       50
 40
5.0
 40
2.5
 40
5.0
 71
     3
340
11
 40
5.0
 90
        0
 40
15.0
 90
        1
300
%<\AcVar ViewSectionStartId>%-%<\AcVar ViewSectionEndId>% (%<\AcVar ViewScale \f "%sn">%)
 71
     4
300
ANSI31
 40
1.0
 90
        0
290
     0
290
     0
 90
        6
 40
0.0
 40
1.570796326794896
 40
0.2617993877991494
 40
1.308996938995747
 40
-0.2617993877991494
 40
1.832595714594046
  0
TABLESTYLE
  5
7F
102
{ACAD_XDICTIONARY
360
162
102
}
102
{ACAD_REACTORS
330
7E
102
}
330
7E
100
AcDbTableStyle
  3
Standard
 70
     0
 71
     0
 40
1.5
 41
1.5
280
     0
281
     0
  7
Standard
140
4.5
170
     2
 62
     0
 63
     7
283
     0
274
    -2
284
     1
 64
     0
275
    -2
285
     1
 65
     0
276
    -2
286
     1
 66
     0
277
    -2
287
     1
 67
     0
278
    -2
288
     1
 68
     0
279
    -2
289
     1
 69
     0
  7
Standard
140
6.0
170
     5
 62
     0
 63
     7
283
     0
274
    -2
284
     1
 64
     0
275
    -2
285
     1
 65
     0
276
    -2
286
     1
 66
     0
277
    -2
287
     1
 67
     0
278
    -2
288
     1
 68
     0
279
    -2
289
     1
 69
     0
  7
Standard
140
4.5
170
     5
 62
     0
 63
     7
283
     0
274
    -2
284
     1
 64
     0
275
    -2
285
     1
 65
     0
276
    -2
286
     1
 66
     0
277
    -2
287
     1
 67
     0
278
    -2
288
     1
 68
     0
279
    -2
289
     1
 69
     0
  0
VISUALSTYLE
  5
F5
102
{ACAD_XDICTIONARY
360
860E
102
}
102
{ACAD_REACTORS
330
EF
102
}
330
EF
100
AcDbVisualStyle
  2
2dWireframe
 70
     4
 71
     0
 72
     2
 73
     1
 90
        0
 40
-0.6
 41
-30.0
 62
     5
 63
     7
 74
     1
 91
        4
 64
     7
 65
   257
 75
     1
175
     1
 42
1.0
 92
        0
 66
   257
 43
1.0
 76
     1
 77
     6
 78
     2
 67
     7
 79
     5
170
     0
171
     0
290
     0
174
     0
 93
        1
 44
0.0
173
     0
291
     0
 45
0.0
1001
ACAD
1000
AcDbSavedByObjectVersion
1070
     0
  0
VISUALSTYLE
  5
F4
102
{ACAD_XDICTIONARY
360
860C
102
}
102
{ACAD_REACTORS
330
EF
102
}
330
EF
100
AcDbVisualStyle
  2
Basic
 70
     7
 71
     1
 72
     0
 73
     1
 90
        0
 40
-0.6
 41
-30.0
 62
     5
 63
     7
 74
     0
 91
        4
 64
     7
 65
   257
 75
     1
175
     1
 42
1.0
 92
        8
 66
     7
 43
1.0
 76
     1
 77
     6
 78
     2
 67
     7
 79
     5
170
     0
171
     0
290
     0
174
     0
 93
        1
 44
0.0
173
     0
291
     1
 45
0.0
1001
ACAD
1000
AcDbSavedByObjectVersion
1070
     0
  0
VISUALSTYLE
  5
FB
102
{ACAD_XDICTIONARY
360
861A
102
}
102
{ACAD_REACTORS
330
EF
102
}
330
EF
100
AcDbVisualStyle
  2
Brighten
 70
    12
 71
     2
 72
     2
 73
     1
 90
        0
 40
-0.6
 41
-30.0
 62
     5
 63
     7
 74
     1
 91
        4
 64
     7
 65
   257
 75
     1
175
     1
 42
1.0
 92
        8
 66
     7
 43
1.0
 76
     1
 77
     6
 78
     2
 67
     7
 79
     5
170
     0
171
     0
290
     0
174
     0
 93
        1
 44
50.0
173
     0
291
     1
 45
0.0
1001
ACAD
1000
AcDbSavedByObjectVersion
1070
     0
  0
VISUALSTYLE
  5
FF
102
{ACAD_XDICTIONARY
360
8622
102
}
102
{ACAD_REACTORS
330
EF
102
}
330
EF
100
AcDbVisualStyle
  2
ColorChange
 70
    16
 71
     2
 72
     2
 73
     3
 90
        0
 40
-0.6
 41
-30.0
 62
     5
 63
     8
 74
     1
 91
        4
 64
     7
 65
   257
 75
     1
175
     1
 42
1.0
 92
        8
 66
     8
 43
1.0
 76
     1
 77
     6
 78
     2
 67
     7
 79
     5
170
     0
171
     0
290
     0
174
     0
 93
        1
 44
0.0
173
     0
291
     1
 45
0.0
1001
ACAD
1000
AcDbSavedByObjectVersion
1070
     0
  0
VISUALSTYLE
  5
F8
102
{ACAD_XDICTIONARY
360
8614
102
}
102
{ACAD_REACTORS
330
EF
102
}
330
EF
100
AcDbVisualStyle
  2
Conceptual
 70
     9
 71
     3
 72
     2
 73
     1
 90
        0
 40
-0.6
 41
-30.0
 62
     5
 63
     7
 74
     2
 91
        2
 64
     7
 65
   257
 75
     1
175
     1
 42
40.0
 92
        8
 66
     7
 43
1.0
 76
     1
 77
     6
 78
     2
 67
     7
 79
     3
170
     0
171
     0
290
     0
174
     0
 93
        1
 44
0.0
173
     0
291
     0
 45
0.0
1001
ACAD
1000
AcDbSavedByObjectVersion
1070
     0
  0
VISUALSTYLE
  5
FA
102
{ACAD_XDICTIONARY
360
8618
102
}
102
{ACAD_REACTORS
330
EF
102
}
330
EF
100
AcDbVisualStyle
  2
Dim
 70
    11
 71
     2
 72
     2
 73
     1
 90
        0
 40
-0.6
 41
-30.0
 62
     5
 63
     7
 74
     1
 91
        4
 64
     7
 65
   257
 75
     1
175
     1
 42
1.0
 92
        8
 66
     7
 43
1.0
 76
     1
 77
     6
 78
     2
 67
     7
 79
     5
170
     0
171
     0
290
     0
174
     0
 93
        1
 44
-50.0
173
     0
291
     1
 45
0.0
1001
ACAD
1000
AcDbSavedByObjectVersion
1070
     0
  0
VISUALSTYLE
  5
1E6
102
{ACAD_XDICTIONARY
360
862A
102
}
102
{ACAD_REACTORS
330
EF
102
}
330
EF
100
AcDbVisualStyle
  2
EdgeColorOff
 70
    22
 71
     2
 72
     2
 73
     0
 90
        0
 40
-0.6
 41
-30.0
 62
     5
 63
     7
 74
     1
 91
        4
 64
     7
 65
   257
 75
     1
175
     1
 42
1.0
 92
        8
 66
     7
 43
1.0
 76
     1
 77
     6
 78
     2
 67
     7
 79
     5
170
     0
171
     0
290
     0
174
     0
 93
        1
 44
0.0
173
     0
291
     1
 45
0.0
1001
ACAD
1000
AcDbSavedByObjectVersion
1070
     0
  0
VISUALSTYLE
  5
FE
102
{ACAD_XDICTIONARY
360
8620
102
}
102
{ACAD_REACTORS
330
EF
102
}
330
EF
100
AcDbVisualStyle
  2
Facepattern
 70
    15
 71
     2
 72
     2
 73
     1
 90
        0
 40
-0.6
 41
-30.0
 62
     5
 63
     7
 74
     1
 91
        4
 64
     7
 65
   257
 75
     1
175
     1
 42
1.0
 92
        8
 66
     7
 43
1.0
 76
     1
 77
     6
 78
     2
 67
     7
 79
     5
170
     0
171
     0
290
     0
174
     0
 93
        1
 44
0.0
173
     0
291
     1
 45
0.0
1001
ACAD
1000
AcDbSavedByObjectVersion
1070
     0
  0
VISUALSTYLE
  5
F0
102
{ACAD_XDICTIONARY
360
8604
102
}
102
{ACAD_REACTORS
330
EF
102
}
330
EF
100
AcDbVisualStyle
  2
Flat
 70
     0
 71
     2
 72
     1
 73
     1
 90
        2
 40
-0.6
 41
30.0
 62
     5
 63
     7
 74
     0
 91
        0
 64
     7
 65
   257
 75
     1
175
     1
 42
1.0
 92
        8
 66
     7
 43
1.0
 76
     1
 77
     6
 78
     2
 67
     7
 79
     5
170
     0
171
     0
290
     0
174
     0
 93
       13
 44
0.0
173
     0
291
     1
 45
0.0
1001
ACAD
1000
AcDbSavedByObjectVersion
1070
     0
  0
VISUALSTYLE
  5
F1
102
{ACAD_XDICTIONARY
360
8606
102
}
102
{ACAD_REACTORS
330
EF
102
}
330
EF
100
AcDbVisualStyle
  2
FlatWithEdges
 70
     1
 71
     2
 72
     1
 73
     1
 90
        2
 40
-0.6
 41
30.0
 62
     5
 63
     7
 74
     1
 91
        0
 64
     7
 65
   257
 75
     1
175
     1
 42
1.0
 92
        0
 66
   257
 43
1.0
 76
     1
 77
     6
 78
     2
 67
     7
 79
     5
170
     0
171
     0
290
     0
174
     0
 93
       13
 44
0.0
173
     0
291
     1
 45
0.0
1001
ACAD
1000
AcDbSavedByObjectVersion
1070
     0
  0
VISUALSTYLE
  5
F2
102
{ACAD_XDICTIONARY
360
8608
102
}
102
{ACAD_REACTORS
330
EF
102
}
330
EF
100
AcDbVisualStyle
  2
Gouraud
 70
     2
 71
     2
 72
     2
 73
     1
 90
        2
 40
-0.6
 41
30.0
 62
     5
 63
     7
 74
     0
 91
        0
 64
     7
 65
   257
 75
     1
175
     1
 42
1.0
 92
        0
 66
     7
 43
1.0
 76
     1
 77
     6
 78
     2
 67
     7
 79
     5
170
     0
171
     0
290
     0
174
     0
 93
       13
 44
0.0
173
     0
291
     1
 45
0.0
1001
ACAD
1000
AcDbSavedByObjectVersion
1070
     0
  0
VISUALSTYLE
  5
F3
102
{ACAD_XDICTIONARY
360
860A
102
}
102
{ACAD_REACTORS
330
EF
102
}
330
EF
100
AcDbVisualStyle
  2
GouraudWithEdges
 70
     3
 71
     2
 72
     2
 73
     1
 90
        2
 40
-0.6
 41
30.0
 62
     5
 63
     7
 74
     1
 91
        0
 64
     7
 65
   257
 75
     1
175
     1
 42
1.0
 92
        0
 66
   257
 43
1.0
 76
     1
 77
     6
 78
     2
 67
     7
 79
     5
170
     0
171
     0
290
     0
174
     0
 93
       13
 44
0.0
173
     0
291
     1
 45
0.0
1001
ACAD
1000
AcDbSavedByObjectVersion
1070
     0
  0
VISUALSTYLE
  5
F7
102
{ACAD_XDICTIONARY
360
8612
102
}
102
{ACAD_REACTORS
330
EF
102
}
330
EF
100
AcDbVisualStyle
  2
Hidden
 70
     6
 71
     1
 72
     2
 73
     2
 90
        0
 40
-0.6
 41
-30.0
 62
     5
 63
     7
 74
     2
 91
        2
 64
     7
 65
   257
 75
     2
175
     1
 42
40.0
 92
        0
 66
   257
 43
1.0
 76
     1
 77
     6
 78
     2
 67
     7
 79
     3
170
     0
171
     0
290
     0
174
     0
 93
        1
 44
0.0
173
     0
291
     0
 45
0.0
1001
ACAD
1000
AcDbSavedByObjectVersion
1070
     0
  0
VISUALSTYLE
  5
1E4
102
{ACAD_XDICTIONARY
360
8626
102
}
102
{ACAD_REACTORS
330
EF
102
}
330
EF
100
AcDbVisualStyle
  2
JitterOff
 70
    20
 71
     2
 72
     2
 73
     0
 90
        0
 40
-0.6
 41
-30.0
 62
     5
 63
     7
 74
     1
 91
        4
 64
     7
 65
   257
 75
     1
175
     1
 42
1.0
 92
       10
 66
     7
 43
1.0
 76
     1
 77
     6
 78
     2
 67
     7
 79
     5
170
     0
171
     0
290
     0
174
     0
 93
        1
 44
0.0
173
     0
291
     1
 45
0.0
1001
ACAD
1000
AcDbSavedByObjectVersion
1070
     0
  0
VISUALSTYLE
  5
FD
102
{ACAD_XDICTIONARY
360
861E
102
}
102
{ACAD_REACTORS
330
EF
102
}
330
EF
100
AcDbVisualStyle
  2
Linepattern
 70
    14
 71
     2
 72
     2
 73
     1
 90
        0
 40
-0.6
 41
-30.0
 62
     5
 63
     7
 74
     1
 91
        4
 64
     7
 65
   257
 75
     7
175
     7
 42
1.0
 92
        8
 66
     7
 43
1.0
 76
     1
 77
     6
 78
     2
 67
     7
 79
     5
170
     0
171
     0
290
     0
174
     0
 93
        1
 44
0.0
173
     0
291
     1
 45
0.0
1001
ACAD
1000
AcDbSavedByObjectVersion
1070
     0
  0
VISUALSTYLE
  5
1E5
102
{ACAD_XDICTIONARY
360
8628
102
}
102
{ACAD_REACTORS
330
EF
102
}
330
EF
100
AcDbVisualStyle
  2
OverhangOff
 70
    21
 71
     2
 72
     2
 73
     0
 90
        0
 40
-0.6
 41
-30.0
 62
     5
 63
     7
 74
     1
 91
        4
 64
     7
 65
   257
 75
     1
175
     1
 42
1.0
 92
        9
 66
     7
 43
1.0
 76
     1
 77
     6
 78
     2
 67
     7
 79
     5
170
     0
171
     0
290
     0
174
     0
 93
        1
 44
0.0
173
     0
291
     1
 45
0.0
1001
ACAD
1000
AcDbSavedByObjectVersion
1070
     0
  0
VISUALSTYLE
  5
F9
102
{ACAD_XDICTIONARY
360
8616
102
}
102
{ACAD_REACTORS
330
EF
102
}
330
EF
100
AcDbVisualStyle
  2
Realistic
 70
     8
 71
     2
 72
     2
 73
     0
 90
        2
 40
-0.6
 41
30.0
 62
     5
 63
     7
 74
     0
 91
        0
 64
     7
 65
   257
 75
     1
175
     1
 42
1.0
 92
        8
 66
   257
 43
1.0
 76
     1
 77
     6
 78
     2
 67
     7
 79
     3
170
     0
171
     0
290
     0
174
     0
 93
       13
 44
0.0
173
     0
291
     0
 45
0.0
1001
ACAD
1000
AcDbSavedByObjectVersion
1070
     0
  0
VISUALSTYLE
  5
1F3
102
{ACAD_XDICTIONARY
360
8634
102
}
102
{ACAD_REACTORS
330
EF
102
}
330
EF
100
AcDbVisualStyle
  2
Shaded
 70
    27
 71
     2
 72
     2
 73
     1
 90
        2
 40
-0.6
 41
30.0
 62
     5
 63
     7
 74
     0
 91
        4
 64
     7
 65
   257
 75
     1
175
     1
 42
1.0
 92
        8
 66
   257
 43
1.0
 76
     1
 77
     6
 78
     2
 67
     8
 79
     3
170
     0
171
     0
290
     0
174
     0
 93
        5
 44
0.0
173
     0
291
     0
 45
0.0
1001
ACAD
1000
AcDbSavedByObjectVersion
1070
     0
  0
VISUALSTYLE
  5
1F2
102
{ACAD_XDICTIONARY
360
8632
102
}
102
{ACAD_REACTORS
330
EF
102
}
330
EF
100
AcDbVisualStyle
  2
Shaded with edges
 70
    26
 71
     2
 72
     2
 73
     1
 90
        2
 40
-0.6
 41
30.0
 62
     5
 63
     7
 74
     1
 91
        2
 64
     7
 65
   257
 75
     2
175
     1
 42
1.0
 92
        8
 66
   257
 43
1.0
 76
     1
 77
     6
 78
     2
 67
     7
 79
     3
170
     0
171
     0
290
     0
174
     0
 93
        5
 44
0.0
173
     0
291
     0
 45
0.0
1001
ACAD
1000
AcDbSavedByObjectVersion
1070
     0
  0
VISUALSTYLE
  5
1EF
102
{ACAD_XDICTIONARY
360
862C
102
}
102
{ACAD_REACTORS
330
EF
102
}
330
EF
100
AcDbVisualStyle
  2
Shades of Gray
 70
    23
 71
     2
 72
     2
 73
     3
 90
        0
 40
-0.6
 41
-30.0
 62
     5
 63
     7
 74
     2
 91
        2
 64
     7
 65
     7
 75
     1
175
     1
 42
40.0
 92
        8
 66
     7
 43
1.0
 76
     1
 77
     6
 78
     2
 67
     7
 79
     3
170
     0
171
     0
290
     0
174
     0
 93
        1
 44
0.0
173
     0
291
     0
 45
0.0
1001
ACAD
1000
AcDbSavedByObjectVersion
1070
     0
  0
VISUALSTYLE
  5
1F0
102
{ACAD_XDICTIONARY
360
862E
102
}
102
{ACAD_REACTORS
330
EF
102
}
330
EF
100
AcDbVisualStyle
  2
Sketchy
 70
    24
 71
     1
 72
     2
 73
     2
 90
        0
 40
-0.6
 41
-30.0
 62
     5
 63
     7
 74
     2
 91
        2
 64
     7
 65
     7
 75
     1
175
     1
 42
40.0
 92
       11
 66
     7
 43
1.0
 76
     1
 77
     6
 78
     2
 67
     7
 79
     6
170
     0
171
     0
290
     0
174
     0
 93
        1
 44
0.0
173
     0
291
     0
 45
0.0
1001
ACAD
1000
AcDbSavedByObjectVersion
1070
     0
  0
VISUALSTYLE
  5
FC
102
{ACAD_XDICTIONARY
360
861C
102
}
102
{ACAD_REACTORS
330
EF
102
}
330
EF
100
AcDbVisualStyle
  2
Thicken
 70
    13
 71
     2
 72
     2
 73
     1
 90
        0
 40
-0.6
 41
-30.0
 62
     5
 63
     7
 74
     1
 91
        4
 64
     7
 65
   257
 75
     1
175
     1
 42
1.0
 92
       12
 66
     7
 43
1.0
 76
     1
 77
     6
 78
     2
 67
     7
 79
     5
170
     0
171
     0
290
     0
174
     0
 93
        1
 44
0.0
173
     0
291
     1
 45
0.0
1001
ACAD
1000
AcDbSavedByObjectVersion
1070
     0
  0
VISUALSTYLE
  5
F6
102
{ACAD_XDICTIONARY
360
8610
102
}
102
{ACAD_REACTORS
330
EF
102
}
330
EF
100
AcDbVisualStyle
  2
Wireframe
 70
     5
 71
     0
 72
     2
 73
     0
 90
        0
 40
-0.6
 41
-30.0
 62
     5
 63
     7
 74
     1
 91
        4
 64
     7
 65
   257
 75
     1
175
     1
 42
1.0
 92
        0
 66
   257
 43
1.0
 76
     1
 77
     6
 78
     2
 67
     7
 79
     3
170
     0
171
     0
290
     0
174
     0
 93
        1
 44
0.0
173
     0
291
     0
 45
0.0
1001
ACAD
1000
AcDbSavedByObjectVersion
1070
     0
  0
VISUALSTYLE
  5
1F1
102
{ACAD_XDICTIONARY
360
8630
102
}
102
{ACAD_REACTORS
330
EF
102
}
330
EF
100
AcDbVisualStyle
  2
X-Ray
 70
    25
 71
     2
 72
     2
 73
     1
 90
        1
 40
0.5
 41
-30.0
 62
     5
 63
     7
 74
     1
 91
        0
 64
     7
 65
   257
 75
     1
175
     1
 42
1.0
 92
        8
 66
     7
 43
1.0
 76
     1
 77
     6
 78
     2
 67
     7
 79
     3
170
     0
171
     0
290
     0
174
     0
 93
       13
 44
0.0
173
     0
291
     0
 45
0.0
1001
ACAD
1000
AcDbSavedByObjectVersion
1070
     0
  0
DICTIONARYVAR
  5
146
102
{ACAD_REACTORS
330
5E
102
}
330
5E
100
DictionaryVariables
280
     0
  1
1:1
  0
DICTIONARYVAR
  5
259
102
{ACAD_REACTORS
330
5E
102
}
330
5E
100
DictionaryVariables
280
     0
  1
3.500000
  0
DICTIONARYVAR
  5
25A
102
{ACAD_REACTORS
330
5E
102
}
330
5E
100
DictionaryVariables
280
     0
  1
acadiso.lin
  0
DICTIONARYVAR
  5
145
102
{ACAD_REACTORS
330
5E
102
}
330
5E
100
DictionaryVariables
280
     0
  1
STANDARD
  0
DICTIONARYVAR
  5
84
102
{ACAD_REACTORS
330
5E
102
}
330
5E
100
DictionaryVariables
280
     0
  1
STANDARD
  0
DICTIONARYVAR
  5
227
102
{ACAD_REACTORS
330
5E
102
}
330
5E
100
DictionaryVariables
280
     0
  1
Metric50
  0
DICTIONARYVAR
  5
228
102
{ACAD_REACTORS
330
5E
102
}
330
5E
100
DictionaryVariables
280
     0
  1
Metric50
  0
DICTIONARYVAR
  5
5F
102
{ACAD_REACTORS
330
5E
102
}
330
5E
100
DictionaryVariables
280
     0
  1
2
  0
DICTIONARYVAR
  5
63
102
{ACAD_REACTORS
330
5E
102
}
330
5E
100
DictionaryVariables
280
     0
  1
1
  0
DICTIONARYVAR
  5
85A5
102
{ACAD_REACTORS
330
5E
102
}
330
5E
100
DictionaryVariables
280
     0
  1
0
  0
DICTIONARYVAR
  5
1AE
102
{ACAD_REACTORS
330
5E
102
}
330
5E
100
DictionaryVariables
280
     0
  1
0
  0
DICTIONARYVAR
  5
1AF
102
{ACAD_REACTORS
330
5E
102
}
330
5E
100
DictionaryVariables
280
     0
  1
0
  0
DICTIONARYVAR
  5
85A3
102
{ACAD_REACTORS
330
5E
102
}
330
5E
100
DictionaryVariables
280
     0
  1
2
  0
DICTIONARYVAR
  5
85A2
102
{ACAD_REACTORS
330
5E
102
}
330
5E
100
DictionaryVariables
280
     0
  1
1
  0
DICTIONARYVAR
  5
85F5
102
{ACAD_REACTORS
330
5E
102
}
330
5E
100
DictionaryVariables
280
     0
  1
80.000000
  0
DICTIONARYVAR
  5
85F4
102
{ACAD_REACTORS
330
5E
102
}
330
5E
100
DictionaryVariables
280
     0
  1
5.000000
  0
DICTIONARYVAR
  5
85A4
102
{ACAD_REACTORS
330
5E
102
}
330
5E
100
DictionaryVariables
280
     0
  1
127
  0
DICTIONARYVAR
  5
85F6
102
{ACAD_REACTORS
330
5E
102
}
330
5E
100
DictionaryVariables
280
     0
  1
2
  0
DICTIONARY
  5
8638
330
21C
100
AcDbDictionary
280
     1
281
     1
  3
ACAD_XREC_ROUNDTRIP
360
8639
  0
DICTIONARY
  5
85FD
330
D3
100
AcDbDictionary
280
     1
281
     1
  3
ACAD_XREC_ROUNDTRIP
360
85FE
  0
DICTIONARY
  5
85FF
330
D7
100
AcDbDictionary
280
     1
281
     1
  3
ACAD_XREC_ROUNDTRIP
360
8600
  0
DICTIONARY
  5
85FA
330
22
100
AcDbDictionary
280
     1
281
     1
  3
ACAD_XREC_ROUNDTRIP
360
85FB
  0
DICTIONARY
  5
1F9
330
ED
100
AcDbDictionary
280
     1
281
     1
  3
ACAD_XREC_ROUNDTRIP
360
8602
  3
FBXASSET
360
1FA
  0
DICTIONARY
  5
1F7
330
EC
100
AcDbDictionary
280
     1
281
     1
  3
ACAD_XREC_ROUNDTRIP
360
8601
  3
FBXASSET
360
1F8
  0
DICTIONARY
  5
173
330
EE
100
AcDbDictionary
280
     1
281
     1
  3
ACAD_XREC_ROUNDTRIP
360
8603
  3
BUMPTILE
360
175
  3
DIFFUSETILE
360
174
  3
FBXASSET
360
1FB
  3
OPACITYTILE
360
176
  3
REFLECTIONTILE
360
177
  0
DICTIONARY
  5
8624
330
12E
100
AcDbDictionary
280
     1
281
     1
  3
ACAD_XREC_ROUNDTRIP
360
8625
  0
DICTIONARY
  5
8636
330
21A
100
AcDbDictionary
280
     1
281
     1
  3
ACAD_XREC_ROUNDTRIP
360
8637
  0
DICTIONARY
  5
162
330
7F
100
AcDbDictionary
280
     1
281
     1
  3
ACAD_ROUNDTRIP_2008_TABLESTYLE_CELLSTYLEMAP
360
85F7
  3
ACAD_XREC_ROUNDTRIP
360
85FC
  0
DICTIONARY
  5
860E
330
F5
100
AcDbDictionary
280
     1
281
     1
  3
ACAD_XREC_ROUNDTRIP
360
860F
  0
DICTIONARY
  5
860C
330
F4
100
AcDbDictionary
280
     1
281
     1
  3
ACAD_XREC_ROUNDTRIP
360
860D
  0
DICTIONARY
  5
861A
330
FB
100
AcDbDictionary
280
     1
281
     1
  3
ACAD_XREC_ROUNDTRIP
360
861B
  0
DICTIONARY
  5
8622
330
FF
100
AcDbDictionary
280
     1
281
     1
  3
ACAD_XREC_ROUNDTRIP
360
8623
  0
DICTIONARY
  5
8614
330
F8
100
AcDbDictionary
280
     1
281
     1
  3
ACAD_XREC_ROUNDTRIP
360
8615
  0
DICTIONARY
  5
8618
330
FA
100
AcDbDictionary
280
     1
281
     1
  3
ACAD_XREC_ROUNDTRIP
360
8619
  0
DICTIONARY
  5
862A
330
1E6
100
AcDbDictionary
280
     1
281
     1
  3
ACAD_XREC_ROUNDTRIP
360
862B
  0
DICTIONARY
  5
8620
330
FE
100
AcDbDictionary
280
     1
281
     1
  3
ACAD_XREC_ROUNDTRIP
360
8621
  0
DICTIONARY
  5
8604
330
F0
100
AcDbDictionary
280
     1
281
     1
  3
ACAD_XREC_ROUNDTRIP
360
8605
  0
DICTIONARY
  5
8606
330
F1
100
AcDbDictionary
280
     1
281
     1
  3
ACAD_XREC_ROUNDTRIP
360
8607
  0
DICTIONARY
  5
8608
330
F2
100
AcDbDictionary
280
     1
281
     1
  3
ACAD_XREC_ROUNDTRIP
360
8609
  0
DICTIONARY
  5
860A
330
F3
100
AcDbDictionary
280
     1
281
     1
  3
ACAD_XREC_ROUNDTRIP
360
860B
  0
DICTIONARY
  5
8612
330
F7
100
AcDbDictionary
280
     1
281
     1
  3
ACAD_XREC_ROUNDTRIP
360
8613
  0
DICTIONARY
  5
8626
330
1E4
100
AcDbDictionary
280
     1
281
     1
  3
ACAD_XREC_ROUNDTRIP
360
8627
  0
DICTIONARY
  5
861E
330
FD
100
AcDbDictionary
280
     1
281
     1
  3
ACAD_XREC_ROUNDTRIP
360
861F
  0
DICTIONARY
  5
8628
330
1E5
100
AcDbDictionary
280
     1
281
     1
  3
ACAD_XREC_ROUNDTRIP
360
8629
  0
DICTIONARY
  5
8616
330
F9
100
AcDbDictionary
280
     1
281
     1
  3
ACAD_XREC_ROUNDTRIP
360
8617
  0
DICTIONARY
  5
8634
330
1F3
100
AcDbDictionary
280
     1
281
     1
  3
ACAD_XREC_ROUNDTRIP
360
8635
  0
DICTIONARY
  5
8632
330
1F2
100
AcDbDictionary
280
     1
281
     1
  3
ACAD_XREC_ROUNDTRIP
360
8633
  0
DICTIONARY
  5
862C
330
1EF
100
AcDbDictionary
280
     1
281
     1
  3
ACAD_XREC_ROUNDTRIP
360
862D
  0
DICTIONARY
  5
862E
330
1F0
100
AcDbDictionary
280
     1
281
     1
  3
ACAD_XREC_ROUNDTRIP
360
862F
  0
DICTIONARY
  5
861C
330
FC
100
AcDbDictionary
280
     1
281
     1
  3
ACAD_XREC_ROUNDTRIP
360
861D
  0
DICTIONARY
  5
8610
330
F6
100
AcDbDictionary
280
     1
281
     1
  3
ACAD_XREC_ROUNDTRIP
360
8611
  0
DICTIONARY
  5
8630
330
1F1
100
AcDbDictionary
280
     1
281
     1
  3
ACAD_XREC_ROUNDTRIP
360
8631
  0
XRECORD
  5
8639
102
{ACAD_REACTORS
330
8638
102
}
330
8638
100
AcDbXrecord
280
     1
102
DISPLAYNAME
  1
Metric50
102
FLAGS
 90
        0
  0
XRECORD
  5
85FE
102
{ACAD_REACTORS
330
85FD
102
}
330
85FD
100
AcDbXrecord
280
     1
102
SHADEPLOT
 70
     0
102
SHADEPLOTRESLEVEL
 70
     2
102
SHADEPLOTCUSTOMDPI
 70
   300
  0
XRECORD
  5
8600
102
{ACAD_REACTORS
330
85FF
102
}
330
85FF
100
AcDbXrecord
280
     1
102
SHADEPLOT
 70
     0
102
SHADEPLOTRESLEVEL
 70
     2
102
SHADEPLOTCUSTOMDPI
 70
   300
  0
XRECORD
  5
85FB
102
{ACAD_REACTORS
330
85FA
102
}
330
85FA
100
AcDbXrecord
280
     1
102
SHADEPLOT
 70
     0
102
SHADEPLOTRESLEVEL
 70
     2
102
SHADEPLOTCUSTOMDPI
 70
   300
  0
XRECORD
  5
8602
102
{ACAD_REACTORS
330
1F9
102
}
330
1F9
100
AcDbXrecord
280
     1
102
MATERIAL
148
0.0
149
0.0
149
0.0
 93
        0
 94
       63
282
     0
 72
     1
 77
     1
171
     1
175
     1
179
     1
273
     0
  0
XRECORD
  5
1FA
102
{ACAD_REACTORS
330
1F9
102
}
330
1F9
100
AcDbXrecord
280
     1
 70
     1
 90
429727718
  1
D62C5603-E3A1-4AEA-B7FB-FE5D8D0755AF
310
504B03040A0000080000CC70623B3DEE336E79000000790000001B0000006175746F6465736B2D64657369676E2D7061636B6167652E786D6C3C3F786D6C2076657273696F6E3D22312E302220656E636F64696E673D227574662D3822203F3E3C666F726D6174733E3C666F726D61743E687474703A2F2F736368656D612E
310
6175746F6465736B2E636F6D2F64657369676E2D7061636B6167652F323030393C2F666F726D61743E3C2F666F726D6174733E504B0304140006080800CC70623BD486FD9CA0000000F4000000130000005B436F6E74656E745F54797065735D2E786D6C7D8EC10E82300C865F65E91D8A1E8C310C0EEA1BF002731658846E
310
D98AC1B77784ABF1D8FE5FBFBF75BBCE937A534CCEB38643598122B6FEE978D0B0485F9C41B54DDD7D022595594E1A469170414C76A4D9A4D207E29CF43ECE46F218070CC6BECC4078ACAA135ACF422C856C0E68EA1BF5669944DDD7BCDE7B1F8E415D77AECB980613C2E4AC91FC167A2B244592486606FC29C8FD7F045B9A
310
EF7053A7E60B504B0304140006080800CC70623B853B8169EB0000007C01000008000000636F72652E786D6C8D90416EC3201045AF62CDB6C206821CC7C244919D9CA01740401C94182C03558F5F9C3852BBEB6A467FFE9B197D7EFC9E1EC5975982F5AE035262288C535E5B377690E21535501C055FBC8FBF6C503839990E
310
5619041F179FE64D52DE45E362569DD7661365082642A11EB9E920A89B99642953CC8E702F67A9EE7234257977194EC9EAE275C4EABCCF5EAD5940D4AC6F0E35A568B8F43562CD7046CD199FD07E60174276A7BE677B5EADB0E0D14EEFFB6A31321A0D82627C4084204C3F096B71DD52F6819B16635EADF63F509AF53FA164
310
5DDCD1EDDD17164090FCC8732078B56691CB33A85CD7DCC40F504B0304140006080800CC70623B55019EA25F0000007C00000007000000636E782E786D6C4DCB3B0E80201045D1AD90E915ED2CF8AC45050C11660C8261F98AB1B07AC9C97D42D718D865D3E909258CFD00CCE24AC6E326A164D74DC0B4128928FF32603847
310
2BA13128B1252AC747C6BAB984FC68F0B87FE8960A5C09FE86CFB69FBA01504B0304140006080800CC70623BDBABAAF470010000D40300000C0000006662782F636F72652E786D6CC553D16E823014FD95A6AF4B694182CC941A83FA05FB810A9511A125A5257EFE2E82712ECEB8A7F100CD39F7F69E734AF9FADC366850B6
310
AF8DCE7018308C942E4C59EB2AC3DE1D498AD15A706B8CFB56869196ADCAF00863C12B6B7C374385D14E6907A836A59A41D9F7CA615434B0C8705F7CAA5606D23BA8E84F41278B93AC54100640439DE0BDB320004D43C63716C7C399D30917DCFBBA9CD9BA8469F5B156168B24CED3F7248AC8769F27244EB73B92EED8862C
310
B7F13E0C179B3C8F979C8ECD82BBBABDAA2BAC924E9558448CBD9330242CFA08E3154B5651FCC6D215639C8EE5774DBE2B5F6CF2B5768B68963BB5F5588420E442FC700B1139D4CB01F450C1E918227C2E09DF070D8140C84E1E9AAB8F1340832A9CB13130A5F1376A908D57309505ECF2A0DF179C4E9D30F5B239B87E3823
310
7A79C6F31DE1A8A5AEC08474B03C7837EAE4938639B44E5932B833D2C6B6B279CDC613877FA26EE21F4A2A4C63EC7F29A2F301D1F9F7A0E37D145F504B0304140006080800CC70623B9C113CC27E0000009D0000000B0000006662782F636E782E786D6C4DCCDF0A83201C86E15B91DFB94BFB330DD428C8FB886521330DA7
310
6397BF1A1DECE883878F57749FCDA1B7892F1BBC047A23808C7F84D9FA55424E0BE6803A256208E9EF06C84F9B91703228B1C690F78B66B34CD9A5439DF5CF0BFBF65E35BCA1B8D6A5C6F540381E886698B5741C695F9503EBA150A2F8958E3DC3EA0B504B0304140006080800CC70623B7DF2F77C2A010000120200003100
310
00006662782F41393633353835312D344632462D344230382D423046372D3739314545314133324237412F636F72652E786D6C8D51DB8EC22014FC15C2939B0D2DB4B45643319AE817EC0F6041255A68B86CFCFC856D4D76DF7CE190393373060EDB3DC707F856CE6B6B7A480A0C81328395DA5C7B18C3057510EC3873D686
310
3F34088C18550F330C39BB3A1BA7051AAC09CA84841A2BD5020AEF55806078A44B0FFD7053A328440C89E1EFC52486BBB8AA8214A99D789CF9E05200300FC927E4FB4D5B375D43103D5527440FB843077C5AA3F5861C8F645F5787F59E95B390B318B55CE45AA638FAA2957BD7248B390B7A7CC51F9C124149C82B8C378810
310
84AB2F42B7B8DD56F413775B8C5999E9FF4471926F8AA236A1AE96B8B3CC434E5839373893369E1FAF30EA395917409EB7F26AF8801C171837A4A6AC9C89E9F9C9B1A58BA30FD6A5EF5DDDCF894B9AD9B6A59C957943A9FCAE2FD5BC4DFE03504B0304140006080800CC70623BAD7543B64E01000033030000300000006662
310
782F41393633353835312D344632462D344230382D423046372D3739314545314133324237412F636E782E786D6CD593CD6EC32010845F0571AD6CE3D48AD20813A9873E410FBD12D82434182C7EAAE6EDBB2424CD25871E7B41D6EC30B3FA84F9E67BB2E40B4234DE8DB46F1925E094D7C6ED479AD3AE5951B2113C789FEE
310
6C943839C1488B4C05DF079FE72A69D8C96C13AAD6B8631503449F83828872B949AC57D26200B826A308D316B4064D6E46FCDA41C05550DC9E483A00797BFD207EFB092A45DE9514C1BBD22178396BD39D891265658C238DEA00936C654E5E433CB65A26D9F6EDB5EBC14EBF49A45CB856E66048291F6939A9A81BB5C89177
310
38143CA680F4AA299D66A042CEB3354A2684DC9D8D178FE0D9B8B41CAAD720F880EE7EF93C0C18769E099ECC04D5A102C8049A8A05632F4DDF376CF1DE0F6BB65C2F8627B65A33C6BB62177CEBBDAD973006829F89F22E814B54F4BC2BE347F8AA8F681390B50FA73F804400B5F542E796F19FF974E7F78DB802FE05E20750
310
4B0304140006080800CC70623BE75B7789680500003C100000340000006662782F41393633353835312D344632462D344230382D423046372D3739314545314133324237412F6F626A656374732E786D6CAD575B8F9B3818FD2B887D06C22499CB8AA1CA655245D5B455A356FB305264C061D8018C6C3393D95FBFC7600890
310
A4CD5EF210B0B1BFEBF98E3F7B1FF6596ABC522E1296DF9BAE3D320D9A872C4AF2F8DE2CE5CEBA358D0FBEC719939D65A691938CDE9B6ADAF4BD98B3B2D05311DD91329583D9D5FC0F438434A7A611A644887B5384CF34233629258BA878B12322891DEFF6B66BD70BFB62634E8AE781D082709A4B588AF91C528CDA28B73F
310
1C998EEF39EABBEFA97FBD6A7C7E9553F9D3D79FE442923C3C523610337627CB87ABE99D359D4CC6D6E4FACAB5E6ABF9D2726FC6A3C5F56271377BB88362213924694B38DD99FE47C48627A1E7D49F5A8BB5E1A74C0A599ED3B0F21F1E56366B89112D681E218F0915D0D6F17AD41FBA2A369DCF6335D62ABBD39779D5DDD1
310
11D4D8DE3CBB96B2E04FB8202E41051754A1AA8E8F76B4C6DFE810B580B1547F4B84911149794252234D024EF8BBE963A95AE27B3D310A9D5C215C7960FAEE415ED75694C6AFB17BCACA5D99A60A9AA65F217B0BFC53292ACB92BF283FAD0D3621576592CB5BED907C2FA8E9DF794E35E97BEA31BED21FEB401ABB94C44839
310
DCACBF0E1C5DA8DA5B2F4DFFD32AD86F543D9E565E7056502E157C00AD2671CD534549AB752FCA9CDA00677A313F04E51B22FF19E57B300579E3C97EB29F682D92935CEC18CF901B7B54FD8C51F362B56FC72FE0B3C1EAE335EDCCBF5AEC39ADB17DC238973F804BA5E6F6BFE7AF1FB32E523BE9F3BD571418E3631DCA4D48
310
5250CF639223210A9446CA30052EDF057BD35F8329C1ECD84552BF0DC8D18BE7BCE23BFE6BD960AB4A7DE79923A103BEBD80F911CBAA2C60DB19B01CF164A5583B772EE6D3FFA56666CBCDA74DC97724A48F9A58967497E489C4D979006FD7A05E227A1EBDD0F737C623387A9C844D3709995625106D157315F8B8392CD4E0
310
A0B9A720C4BE9829CEF37EA1E13111214D53925356365ADA634861B52519DD27A00AEB808EAF0628E6F435519D446F45CF2C9CF5214F0A15B2F6D06B79DA3EE3CBF7F56780D2F4E7EF73A0F5E5B02A38D07DC852C6B7C1FBB6664213E0C39E3EBA7FF4E1AD23EA2829407C85E586727488B751B2DB9502BC7B228A3FD68B6E
310
A65A22397E690AA8D158D7E404EC8CDA235CC3B7D1898680131CEC2CDF2638C65196279577750F15884AEE19F94199155B92B13297978469D4F8D358DF0AEF7631E28DC8F0D9F437D5D39A83B2231A1D52D543813A824EF8D44BCFF2FA6A31BD1E8DAD87F1CCB526B3879935BF59CDADD5C37479BB1CDD4CA7B3556B516589
310
EF352754B706114D9C885EC9131DE6EFEB43D99AFE2391C2F958179413D7CFEF6B1B6DB1E7600F00DE6E5C67454A339A4BA2E0FBA85ED26F045D454F463DBFCE484C2F90F2E5E3666003662ED8F755951A7D1BECD5B30B550B2785C8E7320B7292A4838DDA71BBC863ED7613CAF659337A3354231D4FF4A182A54904C2898C
310
98B28C4AD0CE056CCF332A80986E571EE9DBC305BB5FEB7E509220A58D25CF042D712A806AC0AD0C657FDEF80D2D9CEAA2EE4D1C76F60BFE74219A06527D6F82DF6412526107381E55E353090704D085B52408A8913C4ED159D79BDA71BB4BC506F4831350EB6F975CD22D69BF7AC49B91A2C0A9DDA3D5CA36AD20FC478E37
310
E61844E2352865EBCB61A275A65283CAAA9DD27703B4102F5AF51EF5F573B75CBB5AD38BC845F7A49F82A0966A49C2E3EA5EA0ECD326CD965F1DB402C6FA8B51A4658C5C5E2EC9E214602E55810345408596591009A82E7E7FFACA19EEA299B14A0081A705CB3296EBC14CDF658DCD336EA6D1136881AAEB87B81AB9EE53D5
310
F5EB8BC8362082DA24122F98680A4E7930C01A0079749CEA14382A0783E5EBA5A10F8C098456A03D6A4AEB6BB881E2513747552A5DB22C7EDAF83BD5528081A365F7FF06504B0304140006080000CC70623B000000000000000000000000350000006662782F41393633353835312D344632462D344230382D423046372D37
310
39314545314133324237412F76657274696365732E62696E504B0304140006080800CC70623BF270F1330600000004000000360000006662782F41393633353835312D344632462D344230382D423046372D3739314545314133324237412F747269616E676C65732E62696E636660600000504B0304140006080000CC7062
310
3B000000000000000000000000370000006662782F41393633353835312D344632462D344230382D423046372D3739314545314133324237412F617474726962757465732E62696E504B0304140006080800CC70623B08DA0BD19000000041010000360000006662782F41393633353835312D344632462D344230382D4230
310
46372D3739314545314133324237412F6469726563746F72792E786D6C858F410AC3201045AF22B36F53E9A60B35CBEEBAE80D244E44489C6234F4F835464A48035D0DF398FF9F8AF63D0E6CC63039F212F8F9020C7D47C6792B21C5FE7403D62A1188E2E60C98D7234A5830286103A55745067B9D86B8A3CF9C7F90C11DE6
310
07FB144396D7B6A82D282E9A152AD114D5EF2CB866EEE831B8EEA07A7BB5A8D7D61A2BAAEB7FD5F70921FF497D00504B0304140006080800CC70623BEDD1DC58FD000000A00100003B0000006662782F41393633353835312D344632462D344230382D423046372D3739314545314133324237412F7265736F75726365732F
310
636F72652E786D6C8D504B6E833010BD0A9A6D65B00922041947112427E8052C33A156828DFCA97AFC9A40A576D7CDCCE87D344F8F9FBFE667F689CE6B6B3A6039850C8DB2A336530731DC4903D95970676DF82583CCC8193B5861107C72362E3BA4AC096842428D1D7107A5F7182053CF7474E0D507CE32973124857FE48B
310
540F3961CEF244279DE03EB81420DB9EAC1384436FA353E879B1B182C7A8C75DA3C7F453DF353A1075D537A7BA6464B8F535A99AE14A9A2BBD90E350DD183B5CFABE3AF262350B1EF4FC9351399401471025A527C218A1E53BAB5A5AB765F5469B96525EACF23FA6B88CFF34456DC2A1DCE36E360F82A5202F42F062ED2BAD
310
579969AFDD8A6F504B010214000A0000080000CC70623B3DEE336E79000000790000001B00000000000000000000000000000000006175746F6465736B2D64657369676E2D7061636B6167652E786D6C504B01021400140006080800CC70623BD486FD9CA0000000F40000001300000000000000000000000000B20000005B
310
436F6E74656E745F54797065735D2E786D6C504B01021400140006080800CC70623B853B8169EB0000007C010000080000000000000000000000000083010000636F72652E786D6C504B01021400140006080800CC70623B55019EA25F0000007C000000070000000000000000000000000094020000636E782E786D6C504B
310
01021400140006080800CC70623BDBABAAF470010000D40300000C00000000000000000000000000180300006662782F636F72652E786D6C504B01021400140006080800CC70623B9C113CC27E0000009D0000000B00000000000000000000000000B20400006662782F636E782E786D6C504B01021400140006080800CC70
310
623B7DF2F77C2A010000120200003100000000000000000000000000590500006662782F41393633353835312D344632462D344230382D423046372D3739314545314133324237412F636F72652E786D6C504B01021400140006080800CC70623BAD7543B64E010000330300003000000000000000000000000000D2060000
310
6662782F41393633353835312D344632462D344230382D423046372D3739314545314133324237412F636E782E786D6C504B01021400140006080800CC70623BE75B7789680500003C10000034000000000000000000000000006E0800006662782F41393633353835312D344632462D344230382D423046372D3739314545
310
314133324237412F6F626A656374732E786D6C504B01021400140006080000CC70623B0000000000000000000000003500000000000000000000000000280E00006662782F41393633353835312D344632462D344230382D423046372D3739314545314133324237412F76657274696365732E62696E504B01021400140006
310
080800CC70623BF270F133060000000400000036000000000000000000000000007B0E00006662782F41393633353835312D344632462D344230382D423046372D3739314545314133324237412F747269616E676C65732E62696E504B01021400140006080000CC70623B0000000000000000000000003700000000000000
310
000000000000D50E00006662782F41393633353835312D344632462D344230382D423046372D3739314545314133324237412F617474726962757465732E62696E504B01021400140006080800CC70623B08DA0BD1900000004101000036000000000000000000000000002A0F00006662782F41393633353835312D344632
310
462D344230382D423046372D3739314545314133324237412F6469726563746F72792E786D6C504B01021400140006080800CC70623BEDD1DC58FD000000A00100003B000000000000000000000000000E1000006662782F41393633353835312D344632462D344230382D423046372D3739314545314133324237412F7265
310
736F75726365732F636F72652E786D6C504B0506000000000E000E0080040000641100000000
  0
XRECORD
  5
8601
102
{ACAD_REACTORS
330
1F7
102
}
330
1F7
100
AcDbXrecord
280
     1
102
MATERIAL
148
0.0
149
0.0
149
0.0
 93
        0
 94
       63
282
     0
 72
     1
 77
     1
171
     1
175
     1
179
     1
273
     0
  0
XRECORD
  5
1F8
102
{ACAD_REACTORS
330
1F7
102
}
330
1F7
100
AcDbXrecord
280
     1
 70
     1
 90
429727718
  1
30362254-06B7-45E0-A893-8CFA70E3D6BC
310
504B03040A0000080000CC70623B3DEE336E79000000790000001B0000006175746F6465736B2D64657369676E2D7061636B6167652E786D6C3C3F786D6C2076657273696F6E3D22312E302220656E636F64696E673D227574662D3822203F3E3C666F726D6174733E3C666F726D61743E687474703A2F2F736368656D612E
310
6175746F6465736B2E636F6D2F64657369676E2D7061636B6167652F323030393C2F666F726D61743E3C2F666F726D6174733E504B0304140006080800CC70623BD486FD9CA0000000F4000000130000005B436F6E74656E745F54797065735D2E786D6C7D8EC10E82300C865F65E91D8A1E8C310C0EEA1BF002731658846E
310
D98AC1B77784ABF1D8FE5FBFBF75BBCE937A534CCEB38643598122B6FEE978D0B0485F9C41B54DDD7D022595594E1A469170414C76A4D9A4D207E29CF43ECE46F218070CC6BECC4078ACAA135ACF422C856C0E68EA1BF5669944DDD7BCDE7B1F8E415D77AECB980613C2E4AC91FC167A2B244592486606FC29C8FD7F045B9A
310
EF7053A7E60B504B0304140006080800CC70623B1EC5D7A3EB0000007C01000008000000636F72652E786D6C8D90416EC3201045AF82665B6103C6756C6122AB4D4ED00B204C5C94182C03558F5F9C3852BBEB6A467FFE9B197D71FC9E6FE8CBACC17AD7032D0820E3B41FAD9B7A48F1820F808E52ACDEC75F36404ECDA687
310
4D0629A6D5A76597B477D1B89855E747B38B2A041301E95B6E7A08FAD3CCAA50296647B8168BD2573599823EBB0CA76447F43862C7BCCF5EAC59410E4DDD9C7973C2755553CCCFA4C603E3040F1565ED3B1FDE4E432BCA0D9622DAF9795FAF464533826484B498524CD807E51D79ED187F21878E10516EF63F505AC67F42C9
310
BA58B1FDDD071640D2FCC87D2045B96591CB3DA85CB7DCE40F504B0304140006080800CC70623B55019EA25F0000007C00000007000000636E782E786D6C4DCB3B0E80201045D1AD90E915ED2CF8AC45050C11660C8261F98AB1B07AC9C97D42D718D865D3E909258CFD00CCE24AC6E326A164D74DC0B4128928FF32603847
310
2BA13128B1252AC747C6BAB984FC68F0B87FE8960A5C09FE86CFB69FBA01504B0304140006080800CC70623B8C9102E971010000D40300000C0000006662782F636F72652E786D6CC5535B6E833010BC8AE5DF0A6C08340F1947A84D4ED00B38C6A128602363A31CBFCB234A53A551FA553EC09AD9F5CE8C31DB9E9B1AF5CA
310
7695D1198E428A91D2D214952E33ECDD315861B4E5CC1AE3BE9561A445A3323CC098B3D21ADFCE9034DA29ED00D5A6503328BA4E398C640D8B0C77F253352214DE4145770A5B214FA2546114020D759C75CE8200340D19DE981F0F6746269C33EFAB6266AB02A655C74A59CCF365BADC27CB5D902ED22848F6340DF238A141
310
BE88E2F57B92BFEDF23523433367AE6A2EEAA455C2A902F398D2751045018D3FA264435F3771F242571B4A1919CA6F9A7C5B3CD9E42BED16F12C776AEB308F40C848FC700B1139D4891EF410CEC810227CC6846F8386402064270EF5C5C709A05E49676C024C61FC95EA45ED154CA5211D1FF4FB8291A913A68E9B83EBBB33
310
E2A7673CDE118E5AE8124C0807CB8377834E366998436B950D7A7746DAD846D4CFD978E0F04FD455FC5D49D2D4C6FE9722321F10997F0F32DC47FE05504B0304140006080800CC70623BFFEA85907E0000009D0000000B0000006662782F636E782E786D6C4DCCD10A83201886E15B91FFDC95D95A811AB6F23E625948A6C3
310
E9D8E5AF46073BFAE0E1E365ED67B3E8ADC3CB78C7815C7240DA3DFC64DCC221C519D7805AC182F7F1EF06C88D9BE6703008B6049F9E274D7A1E938DBB5AE3D6131B2589BA0D3D965551E0B2EA732C9B9A624AAEB41E3A557677029960D9AFB4EF11165F504B0304140006080800CC70623B4FEEA4082C0100001202000031
310
0000006662782F39464131463745442D413632322D343644302D413938332D3331353338454246344243312F636F72652E786D6C8D515B6EC32010BC0AE2AB55850DD871ED0813254D72825EC00192A2C460F1A872FC42ED48ED5F7E00CDCECCCEB26C731F6FE05B39AFADE921293004CA082BB5B9F43086336A21D870E6AC
310
0D7F68109861543DCC30E4ECE26C9C164858139409093556AA051CBC570102714B8F1E7AF1A5C6A11862480C7F2DA6415C878B2A4891CA89C7990F2E050073937C42DE1DB7E4F87ED8A36D4329AA9B3D46DBAEAD504556557BD81DEBDD0761E52CE42C462D17B996298E3E6BE59E35C962CE821E1FF18553435012728A7187
310
0841987E927A8D9B35ADDF70BBC6989599FE4F1427F9A4286A132ABAC49D651EF234CD5CE04CDA78BA3DC2A8FB645D00B9DF8B57E215725C60BCA2A463E54C4CE327C7A65E1C7DB02E7DEFCBF594B864C5CA6CDBD49C957943E9FA5D5FBAF336F90F504B0304140006080800CC70623BAD7543B64E01000033030000300000
310
006662782F39464131463745442D413632322D343644302D413938332D3331353338454246344243312F636E782E786D6CD593CD6EC32010845F0571AD6CE3D48AD20813A9873E410FBD12D82434182C7EAAE6EDBB2424CD25871E7B41D6EC30B3FA84F9E67BB2E40B4234DE8DB46F1925E094D7C6ED479AD3AE5951B2113C
310
789FEE6C943839C1488B4C05DF079FE72A69D8C96C13AAD6B8631503449F83828872B949AC57D26200B826A308D316B4064D6E46FCDA41C05550DC9E483A00797BFD207EFB092A45DE9514C1BBD22178396BD39D891265658C238DEA00936C654E5E433CB65A26D9F6EDB5EBC14EBF49A45CB856E66048291F6939A9A81BB5
310
C8917738143CA680F4AA299D66A042CEB3354A2684DC9D8D178FE0D9B8B41CAAD720F880EE7EF93C0C18769E099ECC04D5A102C8049A8A05632F4DDF376CF1DE0F6BB65C2F8627B65A33C6BB62177CEBBDAD973006829F89F22E814B54F4BC2BE347F8AA8F681390B50FA73F804400B5F542E796F19FF974E7F78DB802FE05
310
E207504B0304140006080800CC70623B16AB87BA640500003C100000340000006662782F39464131463745442D413632322D343644302D413938332D3331353338454246344243312F6F626A656374732E786D6CAD575B6FA33818FD2B887DE6924B3BED8A326A92B68A663B534DD4D13E548A0C38942D60649B369D5FBFC7
310
600890A493BDE42160637FD7F31D7FF63E6FB3D478A55C242CBF3247B66B1A340F5994E4F19559CA8D75611A9F7D8F33263BCB4C232719BD32D5B4E97B316765A1A722BA21652A07B3B7B33F0D11D29C9A46981221AE4C113ED38CD8A4942CA2E2C58E882476BCD9DA23BB5ED8171B73523C0F841684D35CC252CCE79062D4
310
468DFA43D7747CCF51DF7D4FFDEB5593E3AB9CCA9FBEFE241792E4E19EB28198C968BAB8199F5D5A67D3E9C49A9E8F47D6EC76B6B0469F26EEFC7C3EBFBCBEB98462213924694B38DD98FE1D62C393D073EA4FADC5DAF04326852CCF6958F90F0F2B9BB5C48816348F90C7840A68EB78EDF68723159BCEE7891A6B95DDE9D3
310
BCEAEEE8086A6C6F9E5D4B59F0175C10A7A0820BAA5055C7473B5AE3CFDD452D602CD5DF12616444529E90D448938013FE6EFA58AA96F85E4F8C42275708571E98FE6827AF6B2B4AE3D7D83D64E5A64C53054DD3AF90BD06FEA9149565C94FCA0F6B834DC85599E4F2423B24DF0B6AFA979E534DFA9E7A4CC6FA631D486393
310
921829879BF5D781A373557BCB85E97FB90DB62B558F8795179C15944B051F40AB495CF35451D26A4727654E6D8033BD98EF82F21D91FF8AF2DD9982BCF1643BDD4EB516C9492E368C67C88DED563FC36D5EACF66DFF057C3658BDBFA69DF9578B3DA735B64F18C7F20770A9D45CFCF7FCF563D6456A277DBEF78A02637CA2
310
43B90A490AEAB94F72244481D24819A6C0E59B606BFA4B3025981DBB48EAB701D97BF19C577CC77F2D1B6C55A9EF3C732474C0B727303F625995056C3B02963D9EAC146BE78EC5FCEC7FA999EBC5EACBAAE41B12D27B4D2C0BBA49F244E2ECDC81B76B502F113D8F5EE8FB1BE3111CDD4FC2AA9B844CAB1288B68AB90A7CDC
310
1C166AB0D3DC5310625FCC14E779BFD0709F8890A629C9292B1B2DED31A4B0DA928CEE135085754027E3018A397D4D5427D15BD1330B677DC8934285AC3DF45A9EB68FF8F2B8FC0A509AFEECFD0FF2DE25CC6047F7214B195F07EFEB9A094D800F7BFAE8FED187B78EA8A3A400F115961BCAD1215E47C966530AF0EE8128FE
310
58CEBB996A8964FFA529A046635D9353B0336A8F700DDF46271A024E70B0B37C9DE01847591E54DED53D54202AB947E4076556AC49C6CA5C9E1226B7F1A7B1BE15DEED62C41B91E1B3E9AFAAA735036547343A925075041DF0A9979E893B391F8FCFA6967B3EFB644DCF6E5CEBFAE272625DCC6FAF3FB93793C5F90CE1EF57
310
407342756B10D1C489E8953CD1617E5CEECAD6F4EF8914CE5D5D504E5C3F1F9736DA62CFC11E00BCDDB8CC8A9466349744C1F75EBDA4DF09BA8A9E8C7A7E9991989E20E5DBDD6A6003664ED8F7A04A8DBE0DF6EAD9B9AA858342E47399053949D2C146EDB85DE4B176BB0965FBAC19BD19AA918E27FA50C1D22402E144464C
310
59462568E704B6E71915404CB72B8FF4EDE184DDAF753F284990D2C6926782963815403548A70C657FDEF80D2D9CEAA2AE4C1C76F60BFE74219A06527D6582DF6412526107381E55E353090704D085B52408D0933C4ED159D79BDA71BB4BC506F4831350EB6F979CD22D69BF7AC49B91A2C0A9DDA3D5CA36AD20FC478E37E6
310
1844E2352865EBCB6EA275A652E3836BE04EFB400BF1A2556F515F1FBB35B2AB35BD889C744FFA1004B5544B121E57F70215746DD2F5E2C1412B602CBF19455AC6C8E5E9922C4E01E65215385004546899059180EAFCF7A707CE7017CD8CDB0410789AB32C63B91E5CEBBBACB17AC6CD347A022D5075FD106377347AAABA7E
310
7D11590744509B44E205134DC1290F06580320F78E537D3D73540E06CB970B431F185308AD40BBD794D6D77003C5A36E8EAA54BA64597CD8F83BD552A080A365F7FF06504B0304140006080000CC70623B000000000000000000000000350000006662782F39464131463745442D413632322D343644302D413938332D3331
310
353338454246344243312F76657274696365732E62696E504B0304140006080800CC70623BF270F1330600000004000000360000006662782F39464131463745442D413632322D343644302D413938332D3331353338454246344243312F747269616E676C65732E62696E636660600000504B0304140006080000CC70623B
310
000000000000000000000000370000006662782F39464131463745442D413632322D343644302D413938332D3331353338454246344243312F617474726962757465732E62696E504B0304140006080800CC70623B08DA0BD19000000041010000360000006662782F39464131463745442D413632322D343644302D413938
310
332D3331353338454246344243312F6469726563746F72792E786D6C858F410AC3201045AF22B36F53E9A60B35CBEEBAE80D244E44489C6234F4F835464A48035D0DF398FF9F8AF63D0E6CC63039F212F8F9020C7D47C6792B21C5FE7403D62A1188E2E60C98D7234A5830286103A55745067B9D86B8A3CF9C7F90C11DE607
310
FB144396D7B6A82D282E9A152AD114D5EF2CB866EEE831B8EEA07A7BB5A8D7D61A2BAAEB7FD5F70921FF497D00504B0304140006080800CC70623B0D6EF93BFE000000A00100003B0000006662782F39464131463745442D413632322D343644302D413938332D3331353338454246344243312F7265736F75726365732F63
310
6F72652E786D6C8D50596E833010BD0A9ADFCA60B334011947A8694ED00B586642AC041B79A97AFC9A40A5F6AF3F33A3B7689E1E3F7DCD8FEC139DD7D6F4C0720A191A65476DA61E62B892236427C19DB5E1970C322367EC618541F0C9D9B8EC90B226A009093576C41D94DE63804C3DD2D18357379C652E63480A7FCF17A9
310
EE72C29CE5894E3AC17D702940B63D59270887DE46A7D0F36263058F518FBB468FE9A7BE6A7420864373B8D4873369AA8691FA421B3294352543C5CAF65C0F6FEF43CB8BD52C78D0F34F46E550061C419494B6843142CB0F5677F4B52BEB177AEC28E5C52AFF638ACBF84F53D42654E51E77B379102C05791282176B5F693D
310
CB4C7BED567C03504B010214000A0000080000CC70623B3DEE336E79000000790000001B00000000000000000000000000000000006175746F6465736B2D64657369676E2D7061636B6167652E786D6C504B01021400140006080800CC70623BD486FD9CA0000000F40000001300000000000000000000000000B20000005B
310
436F6E74656E745F54797065735D2E786D6C504B01021400140006080800CC70623B1EC5D7A3EB0000007C010000080000000000000000000000000083010000636F72652E786D6C504B01021400140006080800CC70623B55019EA25F0000007C000000070000000000000000000000000094020000636E782E786D6C504B
310
01021400140006080800CC70623B8C9102E971010000D40300000C00000000000000000000000000180300006662782F636F72652E786D6C504B01021400140006080800CC70623BFFEA85907E0000009D0000000B00000000000000000000000000B30400006662782F636E782E786D6C504B01021400140006080800CC70
310
623B4FEEA4082C0100001202000031000000000000000000000000005A0500006662782F39464131463745442D413632322D343644302D413938332D3331353338454246344243312F636F72652E786D6C504B01021400140006080800CC70623BAD7543B64E010000330300003000000000000000000000000000D5060000
310
6662782F39464131463745442D413632322D343644302D413938332D3331353338454246344243312F636E782E786D6C504B01021400140006080800CC70623B16AB87BA640500003C1000003400000000000000000000000000710800006662782F39464131463745442D413632322D343644302D413938332D3331353338
310
454246344243312F6F626A656374732E786D6C504B01021400140006080000CC70623B0000000000000000000000003500000000000000000000000000270E00006662782F39464131463745442D413632322D343644302D413938332D3331353338454246344243312F76657274696365732E62696E504B01021400140006
310
080800CC70623BF270F133060000000400000036000000000000000000000000007A0E00006662782F39464131463745442D413632322D343644302D413938332D3331353338454246344243312F747269616E676C65732E62696E504B01021400140006080000CC70623B0000000000000000000000003700000000000000
310
000000000000D40E00006662782F39464131463745442D413632322D343644302D413938332D3331353338454246344243312F617474726962757465732E62696E504B01021400140006080800CC70623B08DA0BD190000000410100003600000000000000000000000000290F00006662782F39464131463745442D413632
310
322D343644302D413938332D3331353338454246344243312F6469726563746F72792E786D6C504B01021400140006080800CC70623B0D6EF93BFE000000A00100003B000000000000000000000000000D1000006662782F39464131463745442D413632322D343644302D413938332D3331353338454246344243312F7265
310
736F75726365732F636F72652E786D6C504B0506000000000E000E0080040000641100000000
  0
XRECORD
  5
8603
102
{ACAD_REACTORS
330
173
102
}
330
173
100
AcDbXrecord
280
     1
102
MATERIAL
148
0.0
149
0.0
149
0.0
 93
        0
 94
       63
282
     0
 72
     1
 77
     1
171
     1
175
     1
179
     1
273
     0
  0
XRECORD
  5
175
102
{ACAD_REACTORS
330
173
102
}
330
173
100
AcDbXrecord
280
     1
270
     1
271
     1
  0
XRECORD
  5
174
102
{ACAD_REACTORS
330
173
102
}
330
173
100
AcDbXrecord
280
     1
270
     1
271
     1
  0
XRECORD
  5
1FB
102
{ACAD_REACTORS
330
173
102
}
330
173
100
AcDbXrecord
280
     1
 70
     0
 90
1673772943
  1
ECE7A1D2-D628-4531-984C-D00F80459256
310
504B03040A0000080000CC70623B3DEE336E79000000790000001B0000006175746F6465736B2D64657369676E2D7061636B6167652E786D6C3C3F786D6C2076657273696F6E3D22312E302220656E636F64696E673D227574662D3822203F3E3C666F726D6174733E3C666F726D61743E687474703A2F2F736368656D612E
310
6175746F6465736B2E636F6D2F64657369676E2D7061636B6167652F323030393C2F666F726D61743E3C2F666F726D6174733E504B0304140006080800CC70623BD486FD9CA0000000F4000000130000005B436F6E74656E745F54797065735D2E786D6C7D8EC10E82300C865F65E91D8A1E8C310C0EEA1BF002731658846E
310
D98AC1B77784ABF1D8FE5FBFBF75BBCE937A534CCEB38643598122B6FEE978D0B0485F9C41B54DDD7D022595594E1A469170414C76A4D9A4D207E29CF43ECE46F218070CC6BECC4078ACAA135ACF422C856C0E68EA1BF5669944DDD7BCDE7B1F8E415D77AECB980613C2E4AC91FC167A2B244592486606FC29C8FD7F045B9A
310
EF7053A7E60B504B0304140006080800CC70623BD9DDAED0EC0000007C01000008000000636F72652E786D6C8D90416EC3201045AF82665B61836D9CD8C2444DD39CA01740405C94182C03558F5F9C3852BBEB6A467FFE9B197D7EF89E6EE8CB2CC17A37002D0820E394D7D68D03A478C17B4007C117EFE32F1B20272733C0
310
2A83E0E3E2D3BC49CABB685CCCAAF3DA6CA20CC14440EA969B0182FA34932C648AD911AEC52CD5558EA6A0CF2EC329598D1E47ACCEFBECC59A050463A7EA5833865FEBDD0E37353BE3EE8DBDE3F6786A48D375FBF6CC78B9C282473B3DEFABC5C86834888A900E538A49F5419B9EB47DD5BC907D4F082F57FB1F28CDFA9F50
310
B22ED6D5F6EE030B20687EE43E10BC5CB3C8E51E54AE6B6EE207504B0304140006080800CC70623B55019EA25F0000007C00000007000000636E782E786D6C4DCB3B0E80201045D1AD90E915ED2CF8AC45050C11660C8261F98AB1B07AC9C97D42D718D865D3E909258CFD00CCE24AC6E326A164D74DC0B4128928FF326038
310
472BA13128B1252AC747C6BAB984FC68F0B87FE8960A5C09FE86CFB69FBA01504B0304140006080800CC70623BA24EB22D72010000D40300000C0000006662782F636F72652E786D6CC5535B6E833010BC8AE5DF0A6C5E49888CA3A6694ED00B38E05014B091B1518EDFE511A5A9D228FD2A1F60CDEC7A67C6986DCE4D8D7A
310
69BA4AAB0C073EC548AA5C17952A33ECECD15B61B4E1CC686DBF9561A44423333CC098B3D268D7CE50AE9595CA02AA74216750749DB418E5352C32DCE59FB211BE70162ABA93DF8AFC244AE9073ED050C759670D0840D390E18DF9F1706664C23973AE2A66B62A605A75ACA4C13C4976E1364A12EF355A2EBD384AF65EFA96
310
BC7B8BED2EA6719AAE16FB8491A199335B351775B991C2CA02F390D2D40B028F861F41BCA68B7518BFD0D59A524686F29B26D7164F36B94AD9289CE54E6D1DE6010819891F6E21228B3AD1831EC219194284CF98F06DD01008846CC5A1BEF83801D4CBDC6A1303536877A57A513B0953A94FC707FDBE6064EA84A9E3E6E0FA
310
EE8CF0E9198F7784A316AA0413C2C2F2E0ECA0934D1AE6D05A69BCDE9E91D2A611F573361E38FC1375157F5752AE6B6DFE4B11990F88CCBF0719EE23FF02504B0304140006080800CC70623B408A7D3B7C0000009D0000000B0000006662782F636E782E786D6C4DCCD10A83201886E15B91FFDC552A92A0064DBC8F581632
310
D3703A76F9ABD1C18E3E78F878E5F0D9027ABBFCF2292AE86E2D20171F69F6715550CB827B40839639A5F2770314A7CD293819B45C73AAFB45B35BA61ACAA1C1C7E7855C58C15BC331339661262CC762340413D68D77DA5B42298546CBE6573AF60CEB2F504B0304140006080800CC70623B449FB9BD290100001202000031
310
0000006662782F36394639363044362D344446342D343946362D394244322D3234314243333846323333332F636F72652E786D6C8D515B6EC32010BC0AE22B55850D98B871848994463E412FE002495162B07854397EA176A4F62F3F2C9A9D991D587EB84F37F0AD7D30CEF6905418026DA553C65E7A98E219ED203808EE9D
310
8B7F6810D871D23D2C3014FCE25D9A57483A1BB58D19B54EE9151C43D0110279CB971E06F9A5A7B11A53CC8C70ADE6515EC78BAE4895DB992778883E0700CB907242D17643D7E2538BD869608875438BBAE38922CAC8F1BDD90DB4691A5E2F42C153326A951B95E398B3D1FE599322163C9AE9115F7A3D46ADA0A018778810
310
84E907617BDCEE297BC5BB3DC6BC2EF47FA234AB2745C9D8D8D035EE220B50105E2F0DC1954B9FB747187D9F9D8FA0CCDB042D5FA0C015C65B42DF78BD10F3F3B363CB56C7109DCFDFBBB97E662ED92EB62D13BC2E1BCAE5777DB9966D8A1F504B0304140006080800CC70623BAD7543B64E01000033030000300000006662
310
782F36394639363044362D344446342D343946362D394244322D3234314243333846323333332F636E782E786D6CD593CD6EC32010845F0571AD6CE3D48AD20813A9873E410FBD12D82434182C7EAAE6EDBB2424CD25871E7B41D6EC30B3FA84F9E67BB2E40B4234DE8DB46F1925E094D7C6ED479AD3AE5951B2113C789FEE
310
6C943839C1488B4C05DF079FE72A69D8C96C13AAD6B8631503449F83828872B949AC57D26200B826A308D316B4064D6E46FCDA41C05550DC9E483A00797BFD207EFB092A45DE9514C1BBD22178396BD39D891265658C238DEA00936C654E5E433CB65A26D9F6EDB5EBC14EBF49A45CB856E66048291F6939A9A81BB5C89177
310
38143CA680F4AA299D66A042CEB3354A2684DC9D8D178FE0D9B8B41CAAD720F880EE7EF93C0C18769E099ECC04D5A102C8049A8A05632F4DDF376CF1DE0F6BB65C2F8627B65A33C6BB62177CEBBDAD973006829F89F22E814B54F4BC2BE347F8AA8F681390B50FA73F804400B5F542E796F19FF974E7F78DB802FE05E20750
310
4B0304140006080800CC70623B8D05915C650500003B100000340000006662782F36394639363044362D344446342D343946362D394244322D3234314243333846323333332F6F626A656374732E786D6CAD575B6FA33814FE2B887D06429276DA1565D4266D158D3A339A6846FB502932E050B66023DB74D2FDF5FB190C01
310
9276B2973C046C8ECFF53B17071F77456EBD502133CEAE6CDF9DD81665314F32965ED995DA3A17B6F5310C04E7AA47665B8C14F4CAD6DB7618A48257A5D94AE89654B91AEDDEDDFC61C998326A5B714EA4BCB265FC440BE2924AF184CA6737218AB8E976E7FA6E4338649B0A523E8D98964450A6A029F619B8588D52FE7039
310
B1BD30F0F4F730D0FF866AF6369557DB33949F31A9088B0F848DD8CCFCF9F2767A76E99CCDE733677E3EF59D9BBB9BA5E37F984D16E78BC5E5F5ED25044B25C0C96822E8D60EEFE11B91C581D77CEA34368A1F5329E68CD1B8B61F16D63A1B8E092D294B10C78C4A48EB593D192E7DED9BDEE7995E1B91FDEDD3ACEA9FE831
310
6A756F9F7D4D79F4274C90A7A04248AA51D5F8C718DAE06FB2F75AC4796EBE65D22A88A22223B995679120E2D50E41AA49C260C046A35368846B0BECD0DFF3EBEB8AD4F835768F69B9ADF25C43D30E6B646F807FAA64AD59F61715C7A54127C4AACA98BA3006A9D792DAE165E0D59B61A01FB3A9F9D838D2DAE62445C86166
310
F37564E842E7DE6A69879FEEA2DD5AE7E371E1A5E025154AC307D06A03D73EB5978C58FFA4C8E9033066E0F3BD53BEC1F39F91BE7B55103791EDE6BBB991A2046172CB4581D8B893FA674DDA17A77B3B7C413D1B511FD2743BFF8A38F03A658705E3ADF8015C3A3417FF3D7E439FF591DA0B5F18BC20C1B8981957AE6392A3
310
F43C640C01D1A0B4728E2DD4F26DB4B3C3152A252A3B4E913CEC1C72F012782FF88EFF8637AA552DBEF76408E8A8DE9E50F9E1CB3A2DA0DB1B6039A893B56063DC5B3E3FFB5F72E67AB9FEB4AEC496C4F4C1149625DD662C53E89D7BF0F6151A046260D1337DFDC94502430F83B0EE07A130A224BCAD7DAE1D9FB6CD422FF6
310
920702629C4BB9AE79C12F243C6432A6794E18E5552BA56B431AAB5D91317302B2B071E86C3A42B1A02F999E24061403B5D0EB639195DA655DD3EBEAB4FB862DDF579F014AD0E73C22F99E28DA57FB98E75C6CA2D74D53086D600F4786E0FE3144B771A8A7B900F03594DB8A633CBC49B2EDB69228BB479CF863B5E807AAAB
310
23872F6DFEB4129B949CA33823F58830E86D65621E10047D9DB34D862E8EAC3C2ABC2F7B2C40D67CDFE01F5545B92105AF983AC54D93D69E56FB8E797F88913F898A9FEC705D3F9D1B54EC8426FB500D40A03BD0119B06E1B95DDC7EB8F6975367793EBD70E66733DFB9BC982F9CE564727731999F5D4ECFCE3B8D6A4DC2A0
310
6D50FD148437D110834A64C6CDDF57FBACB5C307A2A477DFE4939736CFEF2B175371E0E10CF0DD1D5C15654E0BCA14D1E87DD02FF93782A162C0A3D95F1524A52770F972BF1EE9809D13CE7DD599467F8ECE9ADD85CE85A34CD45355448C64F9E8A031DC2D596ACC6E5DD93D9B82DE2EF5CAF81363A8E47996A0DE24564A79
310
4115AACE09C55E14540231FDA13C319787134EBF34E3A022514E5B4D9E0826E25C02D5805B15ABE1BEF51B26383D445DD9E875EE33FE4C22DA16427D65A3BCA92CA6D28DD01DF5DC53330704308475351050232CCD31583787BA75774AFB06E5070DD0C8EF484E19968C5D83BA5B90B244D31E54D55A372320FE4786B7EA58
310
44E135AA5467CB7EA333A61683CC6A8C3257034C10CF46F40EF9F5BE59BE5BD30C3C72D235E95D10345C1D45445A5F0BB47E46A5EBE5570F9380B5FA629579952296A773720405982B9DE04011506178964401AA8BDF1FBF0A8EAB6861DD6580C0E38217056766716DAEB2D6FA0917D3E4116581EADB879C4E7CFFB11EFACD
310
3D641311495D92C8676CB409A72D18610D803CE8A626049E8EC1887CB5B44CC39883690DDA8399B4B9855B481E7D71D4A9D22F96E5BB73BF5793020C02137BF837504B0304140006080000CC70623B000000000000000000000000350000006662782F36394639363044362D344446342D343946362D394244322D32343142
310
43333846323333332F76657274696365732E62696E504B0304140006080800CC70623BF270F1330600000004000000360000006662782F36394639363044362D344446342D343946362D394244322D3234314243333846323333332F747269616E676C65732E62696E636660600000504B0304140006080000CC70623B0000
310
00000000000000000000370000006662782F36394639363044362D344446342D343946362D394244322D3234314243333846323333332F617474726962757465732E62696E504B0304140006080800CC70623B08DA0BD19000000041010000360000006662782F36394639363044362D344446342D343946362D394244322D
310
3234314243333846323333332F6469726563746F72792E786D6C858F410AC3201045AF22B36F53E9A60B35CBEEBAE80D244E44489C6234F4F835464A48035D0DF398FF9F8AF63D0E6CC63039F212F8F9020C7D47C6792B21C5FE7403D62A1188E2E60C98D7234A5830286103A55745067B9D86B8A3CF9C7F90C11DE607FB14
310
4396D7B6A82D282E9A152AD114D5EF2CB866EEE831B8EEA07A7BB5A8D7D61A2BAAEB7FD5F70921FF497D00504B0304140006080800CC70623BCA768048FE000000A00100003B0000006662782F36394639363044362D344446342D343946362D394244322D3234314243333846323333332F7265736F75726365732F636F72
310
652E786D6C8D50596E833010BD0A9ADFCA60D600328E9AA639412F609909B1126CE4A5EAF16B0295DABFFECC8CDEA2797AECF8353F924FB44E193D409E5248504B332A3D0D10FC95B4901C39B3C6F85F3248B49871801506CE266BC2B243D2688FDA47549B11775038871E12F988C7004EDE7016A9083E2ADC3D5D84BC8B09
310
D33C8D74D471E6BC8D0192EDC93A815B742658898E651BCB59086ADC356A8C3FD555A1055ED7E7E254D615792D0F075295F585746FF53B694EE78A565DD736979A65AB9933AFE69F8CD2A2F038022F28ED489E135A7CE4554F9BBEA85E68DB53CAB255FEC71496F19FA6A0B42F8B3DEE6673C0F318E4497096AD7DC5F52C33
310
EEB55BFE0D504B010214000A0000080000CC70623B3DEE336E79000000790000001B00000000000000000000000000000000006175746F6465736B2D64657369676E2D7061636B6167652E786D6C504B01021400140006080800CC70623BD486FD9CA0000000F40000001300000000000000000000000000B20000005B436F
310
6E74656E745F54797065735D2E786D6C504B01021400140006080800CC70623BD9DDAED0EC0000007C010000080000000000000000000000000083010000636F72652E786D6C504B01021400140006080800CC70623B55019EA25F0000007C000000070000000000000000000000000095020000636E782E786D6C504B0102
310
1400140006080800CC70623BA24EB22D72010000D40300000C00000000000000000000000000190300006662782F636F72652E786D6C504B01021400140006080800CC70623B408A7D3B7C0000009D0000000B00000000000000000000000000B50400006662782F636E782E786D6C504B01021400140006080800CC70623B
310
449FB9BD290100001202000031000000000000000000000000005A0500006662782F36394639363044362D344446342D343946362D394244322D3234314243333846323333332F636F72652E786D6C504B01021400140006080800CC70623BAD7543B64E010000330300003000000000000000000000000000D20600006662
310
782F36394639363044362D344446342D343946362D394244322D3234314243333846323333332F636E782E786D6C504B01021400140006080800CC70623B8D05915C650500003B10000034000000000000000000000000006E0800006662782F36394639363044362D344446342D343946362D394244322D32343142433338
310
46323333332F6F626A656374732E786D6C504B01021400140006080000CC70623B0000000000000000000000003500000000000000000000000000250E00006662782F36394639363044362D344446342D343946362D394244322D3234314243333846323333332F76657274696365732E62696E504B010214001400060808
310
00CC70623BF270F13306000000040000003600000000000000000000000000780E00006662782F36394639363044362D344446342D343946362D394244322D3234314243333846323333332F747269616E676C65732E62696E504B01021400140006080000CC70623B00000000000000000000000037000000000000000000
310
00000000D20E00006662782F36394639363044362D344446342D343946362D394244322D3234314243333846323333332F617474726962757465732E62696E504B01021400140006080800CC70623B08DA0BD190000000410100003600000000000000000000000000270F00006662782F36394639363044362D344446342D
310
343946362D394244322D3234314243333846323333332F6469726563746F72792E786D6C504B01021400140006080800CC70623BCA768048FE000000A00100003B000000000000000000000000000B1000006662782F36394639363044362D344446342D343946362D394244322D3234314243333846323333332F7265736F
310
75726365732F636F72652E786D6C504B0506000000000E000E0080040000621100000000
  0
XRECORD
  5
176
102
{ACAD_REACTORS
330
173
102
}
330
173
100
AcDbXrecord
280
     1
270
     1
271
     1
  0
XRECORD
  5
177
102
{ACAD_REACTORS
330
173
102
}
330
173
100
AcDbXrecord
280
     1
270
     1
271
     1
  0
XRECORD
  5
8625
102
{ACAD_REACTORS
330
8624
102
}
330
8624
100
AcDbXrecord
280
     1
102
ACAD_ROUNDTRIP_2012_MLEADER_STYLE
298
     1
  0
XRECORD
  5
8637
102
{ACAD_REACTORS
330
8636
102
}
330
8636
100
AcDbXrecord
280
     1
102
DISPLAYNAME
  1
Metric50
102
FLAGS
 90
        0
  0
CELLSTYLEMAP
  5
85F7
102
{ACAD_REACTORS
330
162
102
}
330
162
100
AcDbCellStyleMap
 90
        3
300
CELLSTYLE
  1
TABLEFORMAT_BEGIN
 90
        5
170
     1
 91
        0
 92
    32768
 62
   257
 93
        1
300
CONTENTFORMAT
  1
CONTENTFORMAT_BEGIN
 90
        0
 91
        0
 92
      512
 93
        0
300

 40
0.0
140
1.0
 94
        5
 62
     0
340
11
144
6.0
309
CONTENTFORMAT_END
171
     1
301
MARGIN
  1
CELLMARGIN_BEGIN
 40
1.5
 40
1.5
 40
1.5
 40
1.5
 40
4.5
 40
4.5
309
CELLMARGIN_END
 94
        6
 95
        1
302
GRIDFORMAT
  1
GRIDFORMAT_BEGIN
 90
        0
 91
        1
 62
     0
 92
       -2
340
14
 93
        0
 40
1.125
309
GRIDFORMAT_END
 95
        2
302
GRIDFORMAT
  1
GRIDFORMAT_BEGIN
 90
        0
 91
        1
 62
     0
 92
       -2
340
14
 93
        0
 40
1.125
309
GRIDFORMAT_END
 95
        4
302
GRIDFORMAT
  1
GRIDFORMAT_BEGIN
 90
        0
 91
        1
 62
     0
 92
       -2
340
14
 93
        0
 40
1.125
309
GRIDFORMAT_END
 95
        8
302
GRIDFORMAT
  1
GRIDFORMAT_BEGIN
 90
        0
 91
        1
 62
     0
 92
       -2
340
14
 93
        0
 40
1.125
309
GRIDFORMAT_END
 95
       16
302
GRIDFORMAT
  1
GRIDFORMAT_BEGIN
 90
        0
 91
        1
 62
     0
 92
       -2
340
14
 93
        0
 40
1.125
309
GRIDFORMAT_END
 95
       32
302
GRIDFORMAT
  1
GRIDFORMAT_BEGIN
 90
        0
 91
        1
 62
     0
 92
       -2
340
14
 93
        0
 40
1.125
309
GRIDFORMAT_END
309
TABLEFORMAT_END
  1
CELLSTYLE_BEGIN
 90
        1
 91
        1
300
_TITLE
309
CELLSTYLE_END
300
CELLSTYLE
  1
TABLEFORMAT_BEGIN
 90
        5
170
     1
 91
        0
 92
        0
 62
   257
 93
        1
300
CONTENTFORMAT
  1
CONTENTFORMAT_BEGIN
 90
        0
 91
        0
 92
      512
 93
        0
300

 40
0.0
140
1.0
 94
        5
 62
     0
340
11
144
4.5
309
CONTENTFORMAT_END
171
     1
301
MARGIN
  1
CELLMARGIN_BEGIN
 40
1.5
 40
1.5
 40
1.5
 40
1.5
 40
4.5
 40
4.5
309
CELLMARGIN_END
 94
        6
 95
        1
302
GRIDFORMAT
  1
GRIDFORMAT_BEGIN
 90
        0
 91
        1
 62
     0
 92
       -2
340
14
 93
        0
 40
1.125
309
GRIDFORMAT_END
 95
        2
302
GRIDFORMAT
  1
GRIDFORMAT_BEGIN
 90
        0
 91
        1
 62
     0
 92
       -2
340
14
 93
        0
 40
1.125
309
GRIDFORMAT_END
 95
        4
302
GRIDFORMAT
  1
GRIDFORMAT_BEGIN
 90
        0
 91
        1
 62
     0
 92
       -2
340
14
 93
        0
 40
1.125
309
GRIDFORMAT_END
 95
        8
302
GRIDFORMAT
  1
GRIDFORMAT_BEGIN
 90
        0
 91
        1
 62
     0
 92
       -2
340
14
 93
        0
 40
1.125
309
GRIDFORMAT_END
 95
       16
302
GRIDFORMAT
  1
GRIDFORMAT_BEGIN
 90
        0
 91
        1
 62
     0
 92
       -2
340
14
 93
        0
 40
1.125
309
GRIDFORMAT_END
 95
       32
302
GRIDFORMAT
  1
GRIDFORMAT_BEGIN
 90
        0
 91
        1
 62
     0
 92
       -2
340
14
 93
        0
 40
1.125
309
GRIDFORMAT_END
309
TABLEFORMAT_END
  1
CELLSTYLE_BEGIN
 90
        2
 91
        1
300
_HEADER
309
CELLSTYLE_END
300
CELLSTYLE
  1
TABLEFORMAT_BEGIN
 90
        5
170
     1
 91
        0
 92
        0
 62
   257
 93
        1
300
CONTENTFORMAT
  1
CONTENTFORMAT_BEGIN
 90
        0
 91
        0
 92
      512
 93
        0
300

 40
0.0
140
1.0
 94
        2
 62
     0
340
11
144
4.5
309
CONTENTFORMAT_END
171
     1
301
MARGIN
  1
CELLMARGIN_BEGIN
 40
1.5
 40
1.5
 40
1.5
 40
1.5
 40
4.5
 40
4.5
309
CELLMARGIN_END
 94
        6
 95
        1
302
GRIDFORMAT
  1
GRIDFORMAT_BEGIN
 90
        0
 91
        1
 62
     0
 92
       -2
340
14
 93
        0
 40
1.125
309
GRIDFORMAT_END
 95
        2
302
GRIDFORMAT
  1
GRIDFORMAT_BEGIN
 90
        0
 91
        1
 62
     0
 92
       -2
340
14
 93
        0
 40
1.125
309
GRIDFORMAT_END
 95
        4
302
GRIDFORMAT
  1
GRIDFORMAT_BEGIN
 90
        0
 91
        1
 62
     0
 92
       -2
340
14
 93
        0
 40
1.125
309
GRIDFORMAT_END
 95
        8
302
GRIDFORMAT
  1
GRIDFORMAT_BEGIN
 90
        0
 91
        1
 62
     0
 92
       -2
340
14
 93
        0
 40
1.125
309
GRIDFORMAT_END
 95
       16
302
GRIDFORMAT
  1
GRIDFORMAT_BEGIN
 90
        0
 91
        1
 62
     0
 92
       -2
340
14
 93
        0
 40
1.125
309
GRIDFORMAT_END
 95
       32
302
GRIDFORMAT
  1
GRIDFORMAT_BEGIN
 90
        0
 91
        1
 62
     0
 92
       -2
340
14
 93
        0
 40
1.125
309
GRIDFORMAT_END
309
TABLEFORMAT_END
  1
CELLSTYLE_BEGIN
 90
        3
 91
        2
300
_DATA
309
CELLSTYLE_END
  0
XRECORD
  5
85FC
102
{ACAD_REACTORS
330
162
102
}
330
162
100
AcDbXrecord
280
     1
102
ACAD_ROUNDTRIP_PRE2007_TABLESTYLE
 90
      512
 91
        0
  1

 92
      512
 93
        0
  2

 94
      512
 95
        0
  3

  0
XRECORD
  5
860F
102
{ACAD_REACTORS
330
860E
102
}
330
860E
100
AcDbXrecord
280
     1
102
RTVSPost2010Prop28
280
     1
102
RTVSPost2010PropOp28
 70
     1
102
RTVSPost2010Prop29
280
     1
102
RTVSPost2010PropOp29
 70
     1
102
RTVSPost2010Prop30
280
     0
102
RTVSPost2010PropOp30
 70
     1
102
RTVSPost2010Prop31
280
     0
102
RTVSPost2010PropOp31
 70
     1
102
RTVSPost2010Prop32
280
     0
102
RTVSPost2010PropOp32
 70
     1
102
RTVSPost2010Prop33
280
     0
102
RTVSPost2010PropOp33
 70
     1
102
RTVSPost2010Prop34
280
     0
102
RTVSPost2010PropOp34
 70
     1
102
RTVSPost2010Prop35
280
     0
102
RTVSPost2010PropOp35
 70
     1
102
RTVSPost2010Prop36
280
     0
102
RTVSPost2010PropOp36
 70
     1
102
RTVSPost2010Prop37
 90
       50
102
RTVSPost2010PropOp37
 70
     1
102
RTVSPost2010Prop38
140
0.0
102
RTVSPost2010PropOp38
 70
     1
102
RTVSPost2010Prop39
140
1.0
102
RTVSPost2010PropOp39
 70
     1
102
RTVSPost2010Prop40
 90
        0
102
RTVSPost2010PropOp40
 70
     1
102
RTVSPost2010Prop41ColorIndex
 90
       18
102
RTVSPost2010Prop41ColorRGB
 90
        0
102
RTVSPost2010PropOp41
 70
     1
102
RTVSPost2010Prop42
 90
       50
102
RTVSPost2010PropOp42
 70
     1
102
RTVSPost2010Prop43
 90
        3
102
RTVSPost2010PropOp43
 70
     1
102
RTVSPost2010Prop44ColorIndex
 90
        5
102
RTVSPost2010Prop44ColorRGB
 90
      255
102
RTVSPost2010PropOp44
 70
     1
102
RTVSPost2010Prop45
280
     0
102
RTVSPost2010PropOp45
 70
     1
102
RTVSPost2010Prop46
 90
       50
102
RTVSPost2010PropOp46
 70
     1
102
RTVSPost2010Prop47
 90
       50
102
RTVSPost2010PropOp47
 70
     1
102
RTVSPost2010Prop48
 90
       50
102
RTVSPost2010PropOp48
 70
     1
102
RTVSPost2010Prop49
280
     0
102
RTVSPost2010PropOp49
 70
     1
102
RTVSPost2010Prop50
 90
       50
102
RTVSPost2010PropOp50
 70
     1
102
RTVSPost2010Prop51ColorIndex
 90
      256
102
RTVSPost2010Prop51ColorRGB
 90
-16777216
102
RTVSPost2010PropOp51
 70
     0
102
RTVSPost2010Prop52
140
1.0
102
RTVSPost2010PropOp52
 70
     0
102
RTVSPost2010Prop53
 90
        2
102
RTVSPost2010PropOp53
 70
     1
102
RTVSPost2010Prop54
  1
strokes_ogs.tif
102
RTVSPost2010PropOp54
 70
     1
102
RTVSPost2010Prop55
280
     0
102
RTVSPost2010PropOp55
 70
     1
102
RTVSPost2010Prop56
140
1.0
102
RTVSPost2010PropOp56
 70
     1
102
RTVSPost2010Prop57
140
1.0
102
RTVSPost2010PropOp57
 70
     1
102
RTVSPropertyOp0
 70
     1
102
RTVSPropertyOp1
 70
     1
102
RTVSPropertyOp2
 70
     1
102
RTVSPropertyOp3
 70
     1
102
RTVSPropertyOp4
 70
     1
102
RTVSPropertyOp5
 70
     1
102
RTVSPropertyOp6
 70
     1
102
RTVSPropertyOp7
 70
     1
102
RTVSPropertyOp8
 70
     1
102
RTVSPropertyOp9
 70
     1
102
RTVSPropertyOp10
 70
     1
102
RTVSPropertyOp11
 70
     1
102
RTVSPropertyOp12
 70
     1
102
RTVSPropertyOp13
 70
     1
102
RTVSPropertyOp14
 70
     1
102
RTVSPropertyOp15
 70
     1
102
RTVSPropertyOp16
 70
     1
102
RTVSPropertyOp17
 70
     1
102
RTVSPropertyOp18
 70
     1
102
RTVSPropertyOp19
 70
     1
102
RTVSPropertyOp20
 70
     1
102
RTVSPropertyOp21
 70
     1
102
RTVSPropertyOp22
 70
     1
102
RTVSPropertyOp23
 70
     1
102
RTVSPropertyOp24
 70
     1
102
RTVSPropertyOp25
 70
     1
102
RTVSPropertyOp26
 70
     1
102
RTVSPropertyOp27
 70
     1
102
RTVSPropertyOp28
 70
     1
102
RTVSPropertyOp29
 70
     1
102
RTVSPropertyOp30
 70
     1
102
RTVSPropertyOp31
 70
     1
102
RTVSPropertyOp32
 70
     1
102
RTVSPropertyOp33
 70
     1
102
RTVSPropertyOp34
 70
     1
102
RTVSPropertyOp35
 70
     1
102
RTVSPropertyOp36
 70
     1
102
RTVSPropertyOp37
 70
     1
102
RTVSPropertyOp38
 70
     1
102
RTVSPropertyOp39
 70
     1
102
RTVSPropertyOp40
 70
     1
102
RTVSPropertyOp41
 70
     1
102
RTVSPropertyOp42
 70
     1
102
RTVSPropertyOp43
 70
     1
102
RTVSPropertyOp44
 70
     1
102
RTVSPropertyOp45
 70
     1
102
RTVSPropertyOp46
 70
     1
102
RTVSPropertyOp47
 70
     1
102
RTVSPropertyOp48
 70
     1
102
RTVSPropertyOp49
 70
     1
102
RTVSPropertyOp50
 70
     1
102
RTVSPropertyOp51
 70
     0
102
RTVSPropertyOp52
 70
     0
102
RTVSPropertyOp53
 70
     1
102
RTVSPropertyOp54
 70
     1
102
RTVSPropertyOp55
 70
     1
102
RTVSPropertyOp56
 70
     1
102
RTVSPropertyOp57
 70
     1
102
RTVSPropertyOp58
 70
     1
102
RTVSPropertyOp59
 70
     1
102
RTVSPropertyOp60
 70
     1
102
RTVSPropertyOp61
 70
     1
102
RTVSPropertyOp62
 70
     1
  0
XRECORD
  5
860D
102
{ACAD_REACTORS
330
860C
102
}
330
860C
100
AcDbXrecord
280
     1
102
RTVSPost2010Prop28
280
     0
102
RTVSPost2010PropOp28
 70
     1
102
RTVSPost2010Prop29
280
     1
102
RTVSPost2010PropOp29
 70
     1
102
RTVSPost2010Prop30
280
     1
102
RTVSPost2010PropOp30
 70
     1
102
RTVSPost2010Prop31
280
     0
102
RTVSPost2010PropOp31
 70
     1
102
RTVSPost2010Prop32
280
     0
102
RTVSPost2010PropOp32
 70
     1
102
RTVSPost2010Prop33
280
     0
102
RTVSPost2010PropOp33
 70
     1
102
RTVSPost2010Prop34
280
     0
102
RTVSPost2010PropOp34
 70
     1
102
RTVSPost2010Prop35
280
     0
102
RTVSPost2010PropOp35
 70
     1
102
RTVSPost2010Prop36
280
     0
102
RTVSPost2010PropOp36
 70
     1
102
RTVSPost2010Prop37
 90
       50
102
RTVSPost2010PropOp37
 70
     1
102
RTVSPost2010Prop38
140
0.0
102
RTVSPost2010PropOp38
 70
     1
102
RTVSPost2010Prop39
140
1.0
102
RTVSPost2010PropOp39
 70
     1
102
RTVSPost2010Prop40
 90
        0
102
RTVSPost2010PropOp40
 70
     1
102
RTVSPost2010Prop41ColorIndex
 90
       18
102
RTVSPost2010Prop41ColorRGB
 90
        0
102
RTVSPost2010PropOp41
 70
     1
102
RTVSPost2010Prop42
 90
       50
102
RTVSPost2010PropOp42
 70
     1
102
RTVSPost2010Prop43
 90
        3
102
RTVSPost2010PropOp43
 70
     1
102
RTVSPost2010Prop44ColorIndex
 90
        5
102
RTVSPost2010Prop44ColorRGB
 90
      255
102
RTVSPost2010PropOp44
 70
     1
102
RTVSPost2010Prop45
280
     0
102
RTVSPost2010PropOp45
 70
     1
102
RTVSPost2010Prop46
 90
       50
102
RTVSPost2010PropOp46
 70
     1
102
RTVSPost2010Prop47
 90
       50
102
RTVSPost2010PropOp47
 70
     1
102
RTVSPost2010Prop48
 90
       50
102
RTVSPost2010PropOp48
 70
     1
102
RTVSPost2010Prop49
280
     0
102
RTVSPost2010PropOp49
 70
     1
102
RTVSPost2010Prop50
 90
       50
102
RTVSPost2010PropOp50
 70
     1
102
RTVSPost2010Prop51ColorIndex
 90
      256
102
RTVSPost2010Prop51ColorRGB
 90
-16777216
102
RTVSPost2010PropOp51
 70
     0
102
RTVSPost2010Prop52
140
1.0
102
RTVSPost2010PropOp52
 70
     0
102
RTVSPost2010Prop53
 90
        2
102
RTVSPost2010PropOp53
 70
     1
102
RTVSPost2010Prop54
  1
strokes_ogs.tif
102
RTVSPost2010PropOp54
 70
     1
102
RTVSPost2010Prop55
280
     0
102
RTVSPost2010PropOp55
 70
     1
102
RTVSPost2010Prop56
140
1.0
102
RTVSPost2010PropOp56
 70
     1
102
RTVSPost2010Prop57
140
1.0
102
RTVSPost2010PropOp57
 70
     1
102
RTVSPropertyOp0
 70
     1
102
RTVSPropertyOp1
 70
     1
102
RTVSPropertyOp2
 70
     1
102
RTVSPropertyOp3
 70
     1
102
RTVSPropertyOp4
 70
     1
102
RTVSPropertyOp5
 70
     1
102
RTVSPropertyOp6
 70
     1
102
RTVSPropertyOp7
 70
     1
102
RTVSPropertyOp8
 70
     1
102
RTVSPropertyOp9
 70
     1
102
RTVSPropertyOp10
 70
     1
102
RTVSPropertyOp11
 70
     1
102
RTVSPropertyOp12
 70
     1
102
RTVSPropertyOp13
 70
     1
102
RTVSPropertyOp14
 70
     1
102
RTVSPropertyOp15
 70
     1
102
RTVSPropertyOp16
 70
     1
102
RTVSPropertyOp17
 70
     1
102
RTVSPropertyOp18
 70
     1
102
RTVSPropertyOp19
 70
     1
102
RTVSPropertyOp20
 70
     1
102
RTVSPropertyOp21
 70
     1
102
RTVSPropertyOp22
 70
     1
102
RTVSPropertyOp23
 70
     1
102
RTVSPropertyOp24
 70
     1
102
RTVSPropertyOp25
 70
     1
102
RTVSPropertyOp26
 70
     1
102
RTVSPropertyOp27
 70
     1
102
RTVSPropertyOp28
 70
     1
102
RTVSPropertyOp29
 70
     1
102
RTVSPropertyOp30
 70
     1
102
RTVSPropertyOp31
 70
     1
102
RTVSPropertyOp32
 70
     1
102
RTVSPropertyOp33
 70
     1
102
RTVSPropertyOp34
 70
     1
102
RTVSPropertyOp35
 70
     1
102
RTVSPropertyOp36
 70
     1
102
RTVSPropertyOp37
 70
     1
102
RTVSPropertyOp38
 70
     1
102
RTVSPropertyOp39
 70
     1
102
RTVSPropertyOp40
 70
     1
102
RTVSPropertyOp41
 70
     1
102
RTVSPropertyOp42
 70
     1
102
RTVSPropertyOp43
 70
     1
102
RTVSPropertyOp44
 70
     1
102
RTVSPropertyOp45
 70
     1
102
RTVSPropertyOp46
 70
     1
102
RTVSPropertyOp47
 70
     1
102
RTVSPropertyOp48
 70
     1
102
RTVSPropertyOp49
 70
     1
102
RTVSPropertyOp50
 70
     1
102
RTVSPropertyOp51
 70
     0
102
RTVSPropertyOp52
 70
     0
102
RTVSPropertyOp53
 70
     1
102
RTVSPropertyOp54
 70
     1
102
RTVSPropertyOp55
 70
     1
102
RTVSPropertyOp56
 70
     1
102
RTVSPropertyOp57
 70
     1
102
RTVSPropertyOp58
 70
     1
102
RTVSPropertyOp59
 70
     1
102
RTVSPropertyOp60
 70
     1
102
RTVSPropertyOp61
 70
     1
102
RTVSPropertyOp62
 70
     1
  0
XRECORD
  5
861B
102
{ACAD_REACTORS
330
861A
102
}
330
861A
100
AcDbXrecord
280
     1
102
RTVSPost2010Prop28
280
     0
102
RTVSPost2010PropOp28
 70
     1
102
RTVSPost2010Prop29
280
     1
102
RTVSPost2010PropOp29
 70
     1
102
RTVSPost2010Prop30
280
     1
102
RTVSPost2010PropOp30
 70
     1
102
RTVSPost2010Prop31
280
     0
102
RTVSPost2010PropOp31
 70
     1
102
RTVSPost2010Prop32
280
     0
102
RTVSPost2010PropOp32
 70
     1
102
RTVSPost2010Prop33
280
     0
102
RTVSPost2010PropOp33
 70
     1
102
RTVSPost2010Prop34
280
     0
102
RTVSPost2010PropOp34
 70
     1
102
RTVSPost2010Prop35
280
     0
102
RTVSPost2010PropOp35
 70
     1
102
RTVSPost2010Prop36
280
     0
102
RTVSPost2010PropOp36
 70
     1
102
RTVSPost2010Prop37
 90
       50
102
RTVSPost2010PropOp37
 70
     1
102
RTVSPost2010Prop38
140
0.0
102
RTVSPost2010PropOp38
 70
     1
102
RTVSPost2010Prop39
140
1.0
102
RTVSPost2010PropOp39
 70
     1
102
RTVSPost2010Prop40
 90
        0
102
RTVSPost2010PropOp40
 70
     1
102
RTVSPost2010Prop41ColorIndex
 90
       18
102
RTVSPost2010Prop41ColorRGB
 90
        0
102
RTVSPost2010PropOp41
 70
     1
102
RTVSPost2010Prop42
 90
       50
102
RTVSPost2010PropOp42
 70
     1
102
RTVSPost2010Prop43
 90
        3
102
RTVSPost2010PropOp43
 70
     1
102
RTVSPost2010Prop44ColorIndex
 90
        5
102
RTVSPost2010Prop44ColorRGB
 90
      255
102
RTVSPost2010PropOp44
 70
     1
102
RTVSPost2010Prop45
280
     0
102
RTVSPost2010PropOp45
 70
     1
102
RTVSPost2010Prop46
 90
       50
102
RTVSPost2010PropOp46
 70
     1
102
RTVSPost2010Prop47
 90
       50
102
RTVSPost2010PropOp47
 70
     1
102
RTVSPost2010Prop48
 90
       50
102
RTVSPost2010PropOp48
 70
     1
102
RTVSPost2010Prop49
280
     0
102
RTVSPost2010PropOp49
 70
     1
102
RTVSPost2010Prop50
 90
       50
102
RTVSPost2010PropOp50
 70
     1
102
RTVSPost2010Prop51ColorIndex
 90
      256
102
RTVSPost2010Prop51ColorRGB
 90
-16777216
102
RTVSPost2010PropOp51
 70
     0
102
RTVSPost2010Prop52
140
1.0
102
RTVSPost2010PropOp52
 70
     0
102
RTVSPost2010Prop53
 90
        2
102
RTVSPost2010PropOp53
 70
     1
102
RTVSPost2010Prop54
  1
strokes_ogs.tif
102
RTVSPost2010PropOp54
 70
     1
102
RTVSPost2010Prop55
280
     0
102
RTVSPost2010PropOp55
 70
     1
102
RTVSPost2010Prop56
140
1.0
102
RTVSPost2010PropOp56
 70
     1
102
RTVSPost2010Prop57
140
1.0
102
RTVSPost2010PropOp57
 70
     1
102
RTVSPropertyOp0
 70
     1
102
RTVSPropertyOp1
 70
     1
102
RTVSPropertyOp2
 70
     1
102
RTVSPropertyOp3
 70
     1
102
RTVSPropertyOp4
 70
     1
102
RTVSPropertyOp5
 70
     1
102
RTVSPropertyOp6
 70
     1
102
RTVSPropertyOp7
 70
     1
102
RTVSPropertyOp8
 70
     1
102
RTVSPropertyOp9
 70
     1
102
RTVSPropertyOp10
 70
     1
102
RTVSPropertyOp11
 70
     1
102
RTVSPropertyOp12
 70
     1
102
RTVSPropertyOp13
 70
     1
102
RTVSPropertyOp14
 70
     1
102
RTVSPropertyOp15
 70
     1
102
RTVSPropertyOp16
 70
     1
102
RTVSPropertyOp17
 70
     1
102
RTVSPropertyOp18
 70
     1
102
RTVSPropertyOp19
 70
     1
102
RTVSPropertyOp20
 70
     1
102
RTVSPropertyOp21
 70
     1
102
RTVSPropertyOp22
 70
     1
102
RTVSPropertyOp23
 70
     1
102
RTVSPropertyOp24
 70
     1
102
RTVSPropertyOp25
 70
     1
102
RTVSPropertyOp26
 70
     1
102
RTVSPropertyOp27
 70
     1
102
RTVSPropertyOp28
 70
     1
102
RTVSPropertyOp29
 70
     1
102
RTVSPropertyOp30
 70
     1
102
RTVSPropertyOp31
 70
     1
102
RTVSPropertyOp32
 70
     1
102
RTVSPropertyOp33
 70
     1
102
RTVSPropertyOp34
 70
     1
102
RTVSPropertyOp35
 70
     1
102
RTVSPropertyOp36
 70
     1
102
RTVSPropertyOp37
 70
     1
102
RTVSPropertyOp38
 70
     1
102
RTVSPropertyOp39
 70
     1
102
RTVSPropertyOp40
 70
     1
102
RTVSPropertyOp41
 70
     1
102
RTVSPropertyOp42
 70
     1
102
RTVSPropertyOp43
 70
     1
102
RTVSPropertyOp44
 70
     1
102
RTVSPropertyOp45
 70
     1
102
RTVSPropertyOp46
 70
     1
102
RTVSPropertyOp47
 70
     1
102
RTVSPropertyOp48
 70
     1
102
RTVSPropertyOp49
 70
     1
102
RTVSPropertyOp50
 70
     1
102
RTVSPropertyOp51
 70
     0
102
RTVSPropertyOp52
 70
     0
102
RTVSPropertyOp53
 70
     1
102
RTVSPropertyOp54
 70
     1
102
RTVSPropertyOp55
 70
     1
102
RTVSPropertyOp56
 70
     1
102
RTVSPropertyOp57
 70
     1
102
RTVSPropertyOp58
 70
     1
102
RTVSPropertyOp59
 70
     1
102
RTVSPropertyOp60
 70
     1
102
RTVSPropertyOp61
 70
     1
102
RTVSPropertyOp62
 70
     1
  0
XRECORD
  5
8623
102
{ACAD_REACTORS
330
8622
102
}
330
8622
100
AcDbXrecord
280
     1
102
RTVSPost2010Prop28
280
     0
102
RTVSPost2010PropOp28
 70
     1
102
RTVSPost2010Prop29
280
     1
102
RTVSPost2010PropOp29
 70
     1
102
RTVSPost2010Prop30
280
     1
102
RTVSPost2010PropOp30
 70
     1
102
RTVSPost2010Prop31
280
     0
102
RTVSPost2010PropOp31
 70
     1
102
RTVSPost2010Prop32
280
     0
102
RTVSPost2010PropOp32
 70
     1
102
RTVSPost2010Prop33
280
     0
102
RTVSPost2010PropOp33
 70
     1
102
RTVSPost2010Prop34
280
     0
102
RTVSPost2010PropOp34
 70
     1
102
RTVSPost2010Prop35
280
     0
102
RTVSPost2010PropOp35
 70
     1
102
RTVSPost2010Prop36
280
     0
102
RTVSPost2010PropOp36
 70
     1
102
RTVSPost2010Prop37
 90
       50
102
RTVSPost2010PropOp37
 70
     1
102
RTVSPost2010Prop38
140
0.0
102
RTVSPost2010PropOp38
 70
     1
102
RTVSPost2010Prop39
140
1.0
102
RTVSPost2010PropOp39
 70
     1
102
RTVSPost2010Prop40
 90
        0
102
RTVSPost2010PropOp40
 70
     1
102
RTVSPost2010Prop41ColorIndex
 90
       18
102
RTVSPost2010Prop41ColorRGB
 90
        0
102
RTVSPost2010PropOp41
 70
     1
102
RTVSPost2010Prop42
 90
       50
102
RTVSPost2010PropOp42
 70
     1
102
RTVSPost2010Prop43
 90
        3
102
RTVSPost2010PropOp43
 70
     1
102
RTVSPost2010Prop44ColorIndex
 90
        5
102
RTVSPost2010Prop44ColorRGB
 90
      255
102
RTVSPost2010PropOp44
 70
     1
102
RTVSPost2010Prop45
280
     0
102
RTVSPost2010PropOp45
 70
     1
102
RTVSPost2010Prop46
 90
       50
102
RTVSPost2010PropOp46
 70
     1
102
RTVSPost2010Prop47
 90
       50
102
RTVSPost2010PropOp47
 70
     1
102
RTVSPost2010Prop48
 90
       50
102
RTVSPost2010PropOp48
 70
     1
102
RTVSPost2010Prop49
280
     0
102
RTVSPost2010PropOp49
 70
     1
102
RTVSPost2010Prop50
 90
       50
102
RTVSPost2010PropOp50
 70
     1
102
RTVSPost2010Prop51ColorIndex
 90
      256
102
RTVSPost2010Prop51ColorRGB
 90
-16777216
102
RTVSPost2010PropOp51
 70
     0
102
RTVSPost2010Prop52
140
1.0
102
RTVSPost2010PropOp52
 70
     0
102
RTVSPost2010Prop53
 90
        2
102
RTVSPost2010PropOp53
 70
     1
102
RTVSPost2010Prop54
  1
strokes_ogs.tif
102
RTVSPost2010PropOp54
 70
     1
102
RTVSPost2010Prop55
280
     0
102
RTVSPost2010PropOp55
 70
     1
102
RTVSPost2010Prop56
140
1.0
102
RTVSPost2010PropOp56
 70
     1
102
RTVSPost2010Prop57
140
1.0
102
RTVSPost2010PropOp57
 70
     1
102
RTVSPropertyOp0
 70
     1
102
RTVSPropertyOp1
 70
     1
102
RTVSPropertyOp2
 70
     1
102
RTVSPropertyOp3
 70
     1
102
RTVSPropertyOp4
 70
     1
102
RTVSPropertyOp5
 70
     1
102
RTVSPropertyOp6
 70
     1
102
RTVSPropertyOp7
 70
     1
102
RTVSPropertyOp8
 70
     1
102
RTVSPropertyOp9
 70
     1
102
RTVSPropertyOp10
 70
     1
102
RTVSPropertyOp11
 70
     1
102
RTVSPropertyOp12
 70
     1
102
RTVSPropertyOp13
 70
     1
102
RTVSPropertyOp14
 70
     1
102
RTVSPropertyOp15
 70
     1
102
RTVSPropertyOp16
 70
     1
102
RTVSPropertyOp17
 70
     1
102
RTVSPropertyOp18
 70
     1
102
RTVSPropertyOp19
 70
     1
102
RTVSPropertyOp20
 70
     1
102
RTVSPropertyOp21
 70
     1
102
RTVSPropertyOp22
 70
     1
102
RTVSPropertyOp23
 70
     1
102
RTVSPropertyOp24
 70
     1
102
RTVSPropertyOp25
 70
     1
102
RTVSPropertyOp26
 70
     1
102
RTVSPropertyOp27
 70
     1
102
RTVSPropertyOp28
 70
     1
102
RTVSPropertyOp29
 70
     1
102
RTVSPropertyOp30
 70
     1
102
RTVSPropertyOp31
 70
     1
102
RTVSPropertyOp32
 70
     1
102
RTVSPropertyOp33
 70
     1
102
RTVSPropertyOp34
 70
     1
102
RTVSPropertyOp35
 70
     1
102
RTVSPropertyOp36
 70
     1
102
RTVSPropertyOp37
 70
     1
102
RTVSPropertyOp38
 70
     1
102
RTVSPropertyOp39
 70
     1
102
RTVSPropertyOp40
 70
     1
102
RTVSPropertyOp41
 70
     1
102
RTVSPropertyOp42
 70
     1
102
RTVSPropertyOp43
 70
     1
102
RTVSPropertyOp44
 70
     1
102
RTVSPropertyOp45
 70
     1
102
RTVSPropertyOp46
 70
     1
102
RTVSPropertyOp47
 70
     1
102
RTVSPropertyOp48
 70
     1
102
RTVSPropertyOp49
 70
     1
102
RTVSPropertyOp50
 70
     1
102
RTVSPropertyOp51
 70
     0
102
RTVSPropertyOp52
 70
     0
102
RTVSPropertyOp53
 70
     1
102
RTVSPropertyOp54
 70
     1
102
RTVSPropertyOp55
 70
     1
102
RTVSPropertyOp56
 70
     1
102
RTVSPropertyOp57
 70
     1
102
RTVSPropertyOp58
 70
     1
102
RTVSPropertyOp59
 70
     1
102
RTVSPropertyOp60
 70
     1
102
RTVSPropertyOp61
 70
     1
102
RTVSPropertyOp62
 70
     1
  0
XRECORD
  5
8615
102
{ACAD_REACTORS
330
8614
102
}
330
8614
100
AcDbXrecord
280
     1
102
RTVSPost2010Prop28
280
     0
102
RTVSPost2010PropOp28
 70
     1
102
RTVSPost2010Prop29
280
     1
102
RTVSPost2010PropOp29
 70
     1
102
RTVSPost2010Prop30
280
     1
102
RTVSPost2010PropOp30
 70
     1
102
RTVSPost2010Prop31
280
     0
102
RTVSPost2010PropOp31
 70
     1
102
RTVSPost2010Prop32
280
     0
102
RTVSPost2010PropOp32
 70
     1
102
RTVSPost2010Prop33
280
     0
102
RTVSPost2010PropOp33
 70
     1
102
RTVSPost2010Prop34
280
     0
102
RTVSPost2010PropOp34
 70
     1
102
RTVSPost2010Prop35
280
     0
102
RTVSPost2010PropOp35
 70
     1
102
RTVSPost2010Prop36
280
     0
102
RTVSPost2010PropOp36
 70
     1
102
RTVSPost2010Prop37
 90
       50
102
RTVSPost2010PropOp37
 70
     1
102
RTVSPost2010Prop38
140
0.0
102
RTVSPost2010PropOp38
 70
     1
102
RTVSPost2010Prop39
140
1.0
102
RTVSPost2010PropOp39
 70
     1
102
RTVSPost2010Prop40
 90
        0
102
RTVSPost2010PropOp40
 70
     1
102
RTVSPost2010Prop41ColorIndex
 90
       18
102
RTVSPost2010Prop41ColorRGB
 90
        0
102
RTVSPost2010PropOp41
 70
     1
102
RTVSPost2010Prop42
 90
       50
102
RTVSPost2010PropOp42
 70
     1
102
RTVSPost2010Prop43
 90
        3
102
RTVSPost2010PropOp43
 70
     1
102
RTVSPost2010Prop44ColorIndex
 90
        5
102
RTVSPost2010Prop44ColorRGB
 90
      255
102
RTVSPost2010PropOp44
 70
     1
102
RTVSPost2010Prop45
280
     0
102
RTVSPost2010PropOp45
 70
     1
102
RTVSPost2010Prop46
 90
       50
102
RTVSPost2010PropOp46
 70
     1
102
RTVSPost2010Prop47
 90
       50
102
RTVSPost2010PropOp47
 70
     1
102
RTVSPost2010Prop48
 90
       50
102
RTVSPost2010PropOp48
 70
     1
102
RTVSPost2010Prop49
280
     0
102
RTVSPost2010PropOp49
 70
     1
102
RTVSPost2010Prop50
 90
       50
102
RTVSPost2010PropOp50
 70
     1
102
RTVSPost2010Prop51ColorIndex
 90
      256
102
RTVSPost2010Prop51ColorRGB
 90
-16777216
102
RTVSPost2010PropOp51
 70
     0
102
RTVSPost2010Prop52
140
1.0
102
RTVSPost2010PropOp52
 70
     0
102
RTVSPost2010Prop53
 90
        2
102
RTVSPost2010PropOp53
 70
     1
102
RTVSPost2010Prop54
  1
strokes_ogs.tif
102
RTVSPost2010PropOp54
 70
     1
102
RTVSPost2010Prop55
280
     0
102
RTVSPost2010PropOp55
 70
     1
102
RTVSPost2010Prop56
140
1.0
102
RTVSPost2010PropOp56
 70
     1
102
RTVSPost2010Prop57
140
1.0
102
RTVSPost2010PropOp57
 70
     1
102
RTVSPropertyOp0
 70
     1
102
RTVSPropertyOp1
 70
     1
102
RTVSPropertyOp2
 70
     1
102
RTVSPropertyOp3
 70
     1
102
RTVSPropertyOp4
 70
     1
102
RTVSPropertyOp5
 70
     1
102
RTVSPropertyOp6
 70
     1
102
RTVSPropertyOp7
 70
     1
102
RTVSPropertyOp8
 70
     1
102
RTVSPropertyOp9
 70
     1
102
RTVSPropertyOp10
 70
     1
102
RTVSPropertyOp11
 70
     1
102
RTVSPropertyOp12
 70
     1
102
RTVSPropertyOp13
 70
     1
102
RTVSPropertyOp14
 70
     1
102
RTVSPropertyOp15
 70
     1
102
RTVSPropertyOp16
 70
     1
102
RTVSPropertyOp17
 70
     1
102
RTVSPropertyOp18
 70
     1
102
RTVSPropertyOp19
 70
     1
102
RTVSPropertyOp20
 70
     1
102
RTVSPropertyOp21
 70
     1
102
RTVSPropertyOp22
 70
     1
102
RTVSPropertyOp23
 70
     1
102
RTVSPropertyOp24
 70
     1
102
RTVSPropertyOp25
 70
     1
102
RTVSPropertyOp26
 70
     1
102
RTVSPropertyOp27
 70
     1
102
RTVSPropertyOp28
 70
     1
102
RTVSPropertyOp29
 70
     1
102
RTVSPropertyOp30
 70
     1
102
RTVSPropertyOp31
 70
     1
102
RTVSPropertyOp32
 70
     1
102
RTVSPropertyOp33
 70
     1
102
RTVSPropertyOp34
 70
     1
102
RTVSPropertyOp35
 70
     1
102
RTVSPropertyOp36
 70
     1
102
RTVSPropertyOp37
 70
     1
102
RTVSPropertyOp38
 70
     1
102
RTVSPropertyOp39
 70
     1
102
RTVSPropertyOp40
 70
     1
102
RTVSPropertyOp41
 70
     1
102
RTVSPropertyOp42
 70
     1
102
RTVSPropertyOp43
 70
     1
102
RTVSPropertyOp44
 70
     1
102
RTVSPropertyOp45
 70
     1
102
RTVSPropertyOp46
 70
     1
102
RTVSPropertyOp47
 70
     1
102
RTVSPropertyOp48
 70
     1
102
RTVSPropertyOp49
 70
     1
102
RTVSPropertyOp50
 70
     1
102
RTVSPropertyOp51
 70
     0
102
RTVSPropertyOp52
 70
     0
102
RTVSPropertyOp53
 70
     1
102
RTVSPropertyOp54
 70
     1
102
RTVSPropertyOp55
 70
     1
102
RTVSPropertyOp56
 70
     1
102
RTVSPropertyOp57
 70
     1
102
RTVSPropertyOp58
 70
     1
102
RTVSPropertyOp59
 70
     1
102
RTVSPropertyOp60
 70
     1
102
RTVSPropertyOp61
 70
     1
102
RTVSPropertyOp62
 70
     1
  0
XRECORD
  5
8619
102
{ACAD_REACTORS
330
8618
102
}
330
8618
100
AcDbXrecord
280
     1
102
RTVSPost2010Prop28
280
     0
102
RTVSPost2010PropOp28
 70
     1
102
RTVSPost2010Prop29
280
     1
102
RTVSPost2010PropOp29
 70
     1
102
RTVSPost2010Prop30
280
     1
102
RTVSPost2010PropOp30
 70
     1
102
RTVSPost2010Prop31
280
     0
102
RTVSPost2010PropOp31
 70
     1
102
RTVSPost2010Prop32
280
     0
102
RTVSPost2010PropOp32
 70
     1
102
RTVSPost2010Prop33
280
     0
102
RTVSPost2010PropOp33
 70
     1
102
RTVSPost2010Prop34
280
     0
102
RTVSPost2010PropOp34
 70
     1
102
RTVSPost2010Prop35
280
     0
102
RTVSPost2010PropOp35
 70
     1
102
RTVSPost2010Prop36
280
     0
102
RTVSPost2010PropOp36
 70
     1
102
RTVSPost2010Prop37
 90
       50
102
RTVSPost2010PropOp37
 70
     1
102
RTVSPost2010Prop38
140
0.0
102
RTVSPost2010PropOp38
 70
     1
102
RTVSPost2010Prop39
140
1.0
102
RTVSPost2010PropOp39
 70
     1
102
RTVSPost2010Prop40
 90
        0
102
RTVSPost2010PropOp40
 70
     1
102
RTVSPost2010Prop41ColorIndex
 90
       18
102
RTVSPost2010Prop41ColorRGB
 90
        0
102
RTVSPost2010PropOp41
 70
     1
102
RTVSPost2010Prop42
 90
       50
102
RTVSPost2010PropOp42
 70
     1
102
RTVSPost2010Prop43
 90
        3
102
RTVSPost2010PropOp43
 70
     1
102
RTVSPost2010Prop44ColorIndex
 90
        5
102
RTVSPost2010Prop44ColorRGB
 90
      255
102
RTVSPost2010PropOp44
 70
     1
102
RTVSPost2010Prop45
280
     0
102
RTVSPost2010PropOp45
 70
     1
102
RTVSPost2010Prop46
 90
       50
102
RTVSPost2010PropOp46
 70
     1
102
RTVSPost2010Prop47
 90
       50
102
RTVSPost2010PropOp47
 70
     1
102
RTVSPost2010Prop48
 90
       50
102
RTVSPost2010PropOp48
 70
     1
102
RTVSPost2010Prop49
280
     0
102
RTVSPost2010PropOp49
 70
     1
102
RTVSPost2010Prop50
 90
       50
102
RTVSPost2010PropOp50
 70
     1
102
RTVSPost2010Prop51ColorIndex
 90
      256
102
RTVSPost2010Prop51ColorRGB
 90
-16777216
102
RTVSPost2010PropOp51
 70
     0
102
RTVSPost2010Prop52
140
1.0
102
RTVSPost2010PropOp52
 70
     0
102
RTVSPost2010Prop53
 90
        2
102
RTVSPost2010PropOp53
 70
     1
102
RTVSPost2010Prop54
  1
strokes_ogs.tif
102
RTVSPost2010PropOp54
 70
     1
102
RTVSPost2010Prop55
280
     0
102
RTVSPost2010PropOp55
 70
     1
102
RTVSPost2010Prop56
140
1.0
102
RTVSPost2010PropOp56
 70
     1
102
RTVSPost2010Prop57
140
1.0
102
RTVSPost2010PropOp57
 70
     1
102
RTVSPropertyOp0
 70
     1
102
RTVSPropertyOp1
 70
     1
102
RTVSPropertyOp2
 70
     1
102
RTVSPropertyOp3
 70
     1
102
RTVSPropertyOp4
 70
     1
102
RTVSPropertyOp5
 70
     1
102
RTVSPropertyOp6
 70
     1
102
RTVSPropertyOp7
 70
     1
102
RTVSPropertyOp8
 70
     1
102
RTVSPropertyOp9
 70
     1
102
RTVSPropertyOp10
 70
     1
102
RTVSPropertyOp11
 70
     1
102
RTVSPropertyOp12
 70
     1
102
RTVSPropertyOp13
 70
     1
102
RTVSPropertyOp14
 70
     1
102
RTVSPropertyOp15
 70
     1
102
RTVSPropertyOp16
 70
     1
102
RTVSPropertyOp17
 70
     1
102
RTVSPropertyOp18
 70
     1
102
RTVSPropertyOp19
 70
     1
102
RTVSPropertyOp20
 70
     1
102
RTVSPropertyOp21
 70
     1
102
RTVSPropertyOp22
 70
     1
102
RTVSPropertyOp23
 70
     1
102
RTVSPropertyOp24
 70
     1
102
RTVSPropertyOp25
 70
     1
102
RTVSPropertyOp26
 70
     1
102
RTVSPropertyOp27
 70
     1
102
RTVSPropertyOp28
 70
     1
102
RTVSPropertyOp29
 70
     1
102
RTVSPropertyOp30
 70
     1
102
RTVSPropertyOp31
 70
     1
102
RTVSPropertyOp32
 70
     1
102
RTVSPropertyOp33
 70
     1
102
RTVSPropertyOp34
 70
     1
102
RTVSPropertyOp35
 70
     1
102
RTVSPropertyOp36
 70
     1
102
RTVSPropertyOp37
 70
     1
102
RTVSPropertyOp38
 70
     1
102
RTVSPropertyOp39
 70
     1
102
RTVSPropertyOp40
 70
     1
102
RTVSPropertyOp41
 70
     1
102
RTVSPropertyOp42
 70
     1
102
RTVSPropertyOp43
 70
     1
102
RTVSPropertyOp44
 70
     1
102
RTVSPropertyOp45
 70
     1
102
RTVSPropertyOp46
 70
     1
102
RTVSPropertyOp47
 70
     1
102
RTVSPropertyOp48
 70
     1
102
RTVSPropertyOp49
 70
     1
102
RTVSPropertyOp50
 70
     1
102
RTVSPropertyOp51
 70
     0
102
RTVSPropertyOp52
 70
     0
102
RTVSPropertyOp53
 70
     1
102
RTVSPropertyOp54
 70
     1
102
RTVSPropertyOp55
 70
     1
102
RTVSPropertyOp56
 70
     1
102
RTVSPropertyOp57
 70
     1
102
RTVSPropertyOp58
 70
     1
102
RTVSPropertyOp59
 70
     1
102
RTVSPropertyOp60
 70
     1
102
RTVSPropertyOp61
 70
     1
102
RTVSPropertyOp62
 70
     1
  0
XRECORD
  5
862B
102
{ACAD_REACTORS
330
862A
102
}
330
862A
100
AcDbXrecord
280
     1
102
RTVSPost2010Prop28
280
     0
102
RTVSPost2010PropOp28
 70
     1
102
RTVSPost2010Prop29
280
     1
102
RTVSPost2010PropOp29
 70
     1
102
RTVSPost2010Prop30
280
     1
102
RTVSPost2010PropOp30
 70
     1
102
RTVSPost2010Prop31
280
     0
102
RTVSPost2010PropOp31
 70
     1
102
RTVSPost2010Prop32
280
     0
102
RTVSPost2010PropOp32
 70
     1
102
RTVSPost2010Prop33
280
     0
102
RTVSPost2010PropOp33
 70
     1
102
RTVSPost2010Prop34
280
     0
102
RTVSPost2010PropOp34
 70
     1
102
RTVSPost2010Prop35
280
     0
102
RTVSPost2010PropOp35
 70
     1
102
RTVSPost2010Prop36
280
     0
102
RTVSPost2010PropOp36
 70
     1
102
RTVSPost2010Prop37
 90
       50
102
RTVSPost2010PropOp37
 70
     1
102
RTVSPost2010Prop38
140
0.0
102
RTVSPost2010PropOp38
 70
     1
102
RTVSPost2010Prop39
140
1.0
102
RTVSPost2010PropOp39
 70
     1
102
RTVSPost2010Prop40
 90
        0
102
RTVSPost2010PropOp40
 70
     1
102
RTVSPost2010Prop41ColorIndex
 90
       18
102
RTVSPost2010Prop41ColorRGB
 90
        0
102
RTVSPost2010PropOp41
 70
     1
102
RTVSPost2010Prop42
 90
       50
102
RTVSPost2010PropOp42
 70
     1
102
RTVSPost2010Prop43
 90
        3
102
RTVSPost2010PropOp43
 70
     1
102
RTVSPost2010Prop44ColorIndex
 90
        5
102
RTVSPost2010Prop44ColorRGB
 90
      255
102
RTVSPost2010PropOp44
 70
     1
102
RTVSPost2010Prop45
280
     0
102
RTVSPost2010PropOp45
 70
     1
102
RTVSPost2010Prop46
 90
       50
102
RTVSPost2010PropOp46
 70
     1
102
RTVSPost2010Prop47
 90
       50
102
RTVSPost2010PropOp47
 70
     1
102
RTVSPost2010Prop48
 90
       50
102
RTVSPost2010PropOp48
 70
     1
102
RTVSPost2010Prop49
280
     0
102
RTVSPost2010PropOp49
 70
     1
102
RTVSPost2010Prop50
 90
       50
102
RTVSPost2010PropOp50
 70
     1
102
RTVSPost2010Prop51ColorIndex
 90
      256
102
RTVSPost2010Prop51ColorRGB
 90
-16777216
102
RTVSPost2010PropOp51
 70
     0
102
RTVSPost2010Prop52
140
1.0
102
RTVSPost2010PropOp52
 70
     0
102
RTVSPost2010Prop53
 90
        2
102
RTVSPost2010PropOp53
 70
     1
102
RTVSPost2010Prop54
  1
strokes_ogs.tif
102
RTVSPost2010PropOp54
 70
     1
102
RTVSPost2010Prop55
280
     0
102
RTVSPost2010PropOp55
 70
     1
102
RTVSPost2010Prop56
140
1.0
102
RTVSPost2010PropOp56
 70
     1
102
RTVSPost2010Prop57
140
1.0
102
RTVSPost2010PropOp57
 70
     1
102
RTVSPropertyOp0
 70
     0
102
RTVSPropertyOp1
 70
     0
102
RTVSPropertyOp2
 70
     0
102
RTVSPropertyOp3
 70
     0
102
RTVSPropertyOp4
 70
     0
102
RTVSPropertyOp5
 70
     0
102
RTVSPropertyOp6
 70
     0
102
RTVSPropertyOp7
 70
     0
102
RTVSPropertyOp8
 70
     0
102
RTVSPropertyOp9
 70
     0
102
RTVSPropertyOp10
 70
     0
102
RTVSPropertyOp11
 70
     0
102
RTVSPropertyOp12
 70
     0
102
RTVSPropertyOp13
 70
     0
102
RTVSPropertyOp14
 70
     2
102
RTVSPropertyOp15
 70
     0
102
RTVSPropertyOp16
 70
     0
102
RTVSPropertyOp17
 70
     0
102
RTVSPropertyOp18
 70
     0
102
RTVSPropertyOp19
 70
     0
102
RTVSPropertyOp20
 70
     0
102
RTVSPropertyOp21
 70
     0
102
RTVSPropertyOp22
 70
     0
102
RTVSPropertyOp23
 70
     0
102
RTVSPropertyOp24
 70
     0
102
RTVSPropertyOp25
 70
     0
102
RTVSPropertyOp26
 70
     0
102
RTVSPropertyOp27
 70
     0
102
RTVSPropertyOp28
 70
     1
102
RTVSPropertyOp29
 70
     1
102
RTVSPropertyOp30
 70
     1
102
RTVSPropertyOp31
 70
     1
102
RTVSPropertyOp32
 70
     1
102
RTVSPropertyOp33
 70
     1
102
RTVSPropertyOp34
 70
     1
102
RTVSPropertyOp35
 70
     1
102
RTVSPropertyOp36
 70
     1
102
RTVSPropertyOp37
 70
     1
102
RTVSPropertyOp38
 70
     1
102
RTVSPropertyOp39
 70
     1
102
RTVSPropertyOp40
 70
     1
102
RTVSPropertyOp41
 70
     1
102
RTVSPropertyOp42
 70
     1
102
RTVSPropertyOp43
 70
     1
102
RTVSPropertyOp44
 70
     1
102
RTVSPropertyOp45
 70
     1
102
RTVSPropertyOp46
 70
     1
102
RTVSPropertyOp47
 70
     1
102
RTVSPropertyOp48
 70
     1
102
RTVSPropertyOp49
 70
     1
102
RTVSPropertyOp50
 70
     1
102
RTVSPropertyOp51
 70
     0
102
RTVSPropertyOp52
 70
     0
102
RTVSPropertyOp53
 70
     1
102
RTVSPropertyOp54
 70
     1
102
RTVSPropertyOp55
 70
     1
102
RTVSPropertyOp56
 70
     1
102
RTVSPropertyOp57
 70
     1
102
RTVSPropertyOp58
 70
     1
102
RTVSPropertyOp59
 70
     1
102
RTVSPropertyOp60
 70
     1
102
RTVSPropertyOp61
 70
     1
102
RTVSPropertyOp62
 70
     1
  0
XRECORD
  5
8621
102
{ACAD_REACTORS
330
8620
102
}
330
8620
100
AcDbXrecord
280
     1
102
RTVSPost2010Prop28
280
     0
102
RTVSPost2010PropOp28
 70
     1
102
RTVSPost2010Prop29
280
     1
102
RTVSPost2010PropOp29
 70
     1
102
RTVSPost2010Prop30
280
     1
102
RTVSPost2010PropOp30
 70
     1
102
RTVSPost2010Prop31
280
     0
102
RTVSPost2010PropOp31
 70
     1
102
RTVSPost2010Prop32
280
     0
102
RTVSPost2010PropOp32
 70
     1
102
RTVSPost2010Prop33
280
     0
102
RTVSPost2010PropOp33
 70
     1
102
RTVSPost2010Prop34
280
     0
102
RTVSPost2010PropOp34
 70
     1
102
RTVSPost2010Prop35
280
     0
102
RTVSPost2010PropOp35
 70
     1
102
RTVSPost2010Prop36
280
     0
102
RTVSPost2010PropOp36
 70
     1
102
RTVSPost2010Prop37
 90
       50
102
RTVSPost2010PropOp37
 70
     1
102
RTVSPost2010Prop38
140
0.0
102
RTVSPost2010PropOp38
 70
     1
102
RTVSPost2010Prop39
140
1.0
102
RTVSPost2010PropOp39
 70
     1
102
RTVSPost2010Prop40
 90
        0
102
RTVSPost2010PropOp40
 70
     1
102
RTVSPost2010Prop41ColorIndex
 90
       18
102
RTVSPost2010Prop41ColorRGB
 90
        0
102
RTVSPost2010PropOp41
 70
     1
102
RTVSPost2010Prop42
 90
       50
102
RTVSPost2010PropOp42
 70
     1
102
RTVSPost2010Prop43
 90
        3
102
RTVSPost2010PropOp43
 70
     1
102
RTVSPost2010Prop44ColorIndex
 90
        5
102
RTVSPost2010Prop44ColorRGB
 90
      255
102
RTVSPost2010PropOp44
 70
     1
102
RTVSPost2010Prop45
280
     0
102
RTVSPost2010PropOp45
 70
     1
102
RTVSPost2010Prop46
 90
       50
102
RTVSPost2010PropOp46
 70
     1
102
RTVSPost2010Prop47
 90
       50
102
RTVSPost2010PropOp47
 70
     1
102
RTVSPost2010Prop48
 90
       50
102
RTVSPost2010PropOp48
 70
     1
102
RTVSPost2010Prop49
280
     0
102
RTVSPost2010PropOp49
 70
     1
102
RTVSPost2010Prop50
 90
       50
102
RTVSPost2010PropOp50
 70
     1
102
RTVSPost2010Prop51ColorIndex
 90
      256
102
RTVSPost2010Prop51ColorRGB
 90
-16777216
102
RTVSPost2010PropOp51
 70
     0
102
RTVSPost2010Prop52
140
1.0
102
RTVSPost2010PropOp52
 70
     0
102
RTVSPost2010Prop53
 90
        2
102
RTVSPost2010PropOp53
 70
     1
102
RTVSPost2010Prop54
  1
strokes_ogs.tif
102
RTVSPost2010PropOp54
 70
     1
102
RTVSPost2010Prop55
280
     0
102
RTVSPost2010PropOp55
 70
     1
102
RTVSPost2010Prop56
140
1.0
102
RTVSPost2010PropOp56
 70
     1
102
RTVSPost2010Prop57
140
1.0
102
RTVSPost2010PropOp57
 70
     1
102
RTVSPropertyOp0
 70
     1
102
RTVSPropertyOp1
 70
     1
102
RTVSPropertyOp2
 70
     1
102
RTVSPropertyOp3
 70
     1
102
RTVSPropertyOp4
 70
     1
102
RTVSPropertyOp5
 70
     1
102
RTVSPropertyOp6
 70
     1
102
RTVSPropertyOp7
 70
     1
102
RTVSPropertyOp8
 70
     1
102
RTVSPropertyOp9
 70
     1
102
RTVSPropertyOp10
 70
     1
102
RTVSPropertyOp11
 70
     1
102
RTVSPropertyOp12
 70
     1
102
RTVSPropertyOp13
 70
     1
102
RTVSPropertyOp14
 70
     1
102
RTVSPropertyOp15
 70
     1
102
RTVSPropertyOp16
 70
     1
102
RTVSPropertyOp17
 70
     1
102
RTVSPropertyOp18
 70
     1
102
RTVSPropertyOp19
 70
     1
102
RTVSPropertyOp20
 70
     1
102
RTVSPropertyOp21
 70
     1
102
RTVSPropertyOp22
 70
     1
102
RTVSPropertyOp23
 70
     1
102
RTVSPropertyOp24
 70
     1
102
RTVSPropertyOp25
 70
     1
102
RTVSPropertyOp26
 70
     1
102
RTVSPropertyOp27
 70
     1
102
RTVSPropertyOp28
 70
     1
102
RTVSPropertyOp29
 70
     1
102
RTVSPropertyOp30
 70
     1
102
RTVSPropertyOp31
 70
     1
102
RTVSPropertyOp32
 70
     1
102
RTVSPropertyOp33
 70
     1
102
RTVSPropertyOp34
 70
     1
102
RTVSPropertyOp35
 70
     1
102
RTVSPropertyOp36
 70
     1
102
RTVSPropertyOp37
 70
     1
102
RTVSPropertyOp38
 70
     1
102
RTVSPropertyOp39
 70
     1
102
RTVSPropertyOp40
 70
     1
102
RTVSPropertyOp41
 70
     1
102
RTVSPropertyOp42
 70
     1
102
RTVSPropertyOp43
 70
     1
102
RTVSPropertyOp44
 70
     1
102
RTVSPropertyOp45
 70
     1
102
RTVSPropertyOp46
 70
     1
102
RTVSPropertyOp47
 70
     1
102
RTVSPropertyOp48
 70
     1
102
RTVSPropertyOp49
 70
     1
102
RTVSPropertyOp50
 70
     1
102
RTVSPropertyOp51
 70
     0
102
RTVSPropertyOp52
 70
     0
102
RTVSPropertyOp53
 70
     1
102
RTVSPropertyOp54
 70
     1
102
RTVSPropertyOp55
 70
     1
102
RTVSPropertyOp56
 70
     1
102
RTVSPropertyOp57
 70
     1
102
RTVSPropertyOp58
 70
     1
102
RTVSPropertyOp59
 70
     1
102
RTVSPropertyOp60
 70
     1
102
RTVSPropertyOp61
 70
     1
102
RTVSPropertyOp62
 70
     1
  0
XRECORD
  5
8605
102
{ACAD_REACTORS
330
8604
102
}
330
8604
100
AcDbXrecord
280
     1
102
RTVSPost2010Prop28
280
     0
102
RTVSPost2010PropOp28
 70
     1
102
RTVSPost2010Prop29
280
     1
102
RTVSPost2010PropOp29
 70
     1
102
RTVSPost2010Prop30
280
     1
102
RTVSPost2010PropOp30
 70
     1
102
RTVSPost2010Prop31
280
     0
102
RTVSPost2010PropOp31
 70
     1
102
RTVSPost2010Prop32
280
     0
102
RTVSPost2010PropOp32
 70
     1
102
RTVSPost2010Prop33
280
     0
102
RTVSPost2010PropOp33
 70
     1
102
RTVSPost2010Prop34
280
     0
102
RTVSPost2010PropOp34
 70
     1
102
RTVSPost2010Prop35
280
     0
102
RTVSPost2010PropOp35
 70
     1
102
RTVSPost2010Prop36
280
     0
102
RTVSPost2010PropOp36
 70
     1
102
RTVSPost2010Prop37
 90
       50
102
RTVSPost2010PropOp37
 70
     1
102
RTVSPost2010Prop38
140
0.0
102
RTVSPost2010PropOp38
 70
     1
102
RTVSPost2010Prop39
140
1.0
102
RTVSPost2010PropOp39
 70
     1
102
RTVSPost2010Prop40
 90
        0
102
RTVSPost2010PropOp40
 70
     1
102
RTVSPost2010Prop41ColorIndex
 90
       18
102
RTVSPost2010Prop41ColorRGB
 90
        0
102
RTVSPost2010PropOp41
 70
     1
102
RTVSPost2010Prop42
 90
       50
102
RTVSPost2010PropOp42
 70
     1
102
RTVSPost2010Prop43
 90
        3
102
RTVSPost2010PropOp43
 70
     1
102
RTVSPost2010Prop44ColorIndex
 90
        5
102
RTVSPost2010Prop44ColorRGB
 90
      255
102
RTVSPost2010PropOp44
 70
     1
102
RTVSPost2010Prop45
280
     0
102
RTVSPost2010PropOp45
 70
     1
102
RTVSPost2010Prop46
 90
       50
102
RTVSPost2010PropOp46
 70
     1
102
RTVSPost2010Prop47
 90
       50
102
RTVSPost2010PropOp47
 70
     1
102
RTVSPost2010Prop48
 90
       50
102
RTVSPost2010PropOp48
 70
     1
102
RTVSPost2010Prop49
280
     0
102
RTVSPost2010PropOp49
 70
     1
102
RTVSPost2010Prop50
 90
       50
102
RTVSPost2010PropOp50
 70
     1
102
RTVSPost2010Prop51ColorIndex
 90
      256
102
RTVSPost2010Prop51ColorRGB
 90
-16777216
102
RTVSPost2010PropOp51
 70
     0
102
RTVSPost2010Prop52
140
1.0
102
RTVSPost2010PropOp52
 70
     0
102
RTVSPost2010Prop53
 90
        2
102
RTVSPost2010PropOp53
 70
     1
102
RTVSPost2010Prop54
  1
strokes_ogs.tif
102
RTVSPost2010PropOp54
 70
     1
102
RTVSPost2010Prop55
280
     0
102
RTVSPost2010PropOp55
 70
     1
102
RTVSPost2010Prop56
140
1.0
102
RTVSPost2010PropOp56
 70
     1
102
RTVSPost2010Prop57
140
1.0
102
RTVSPost2010PropOp57
 70
     1
102
RTVSPropertyOp0
 70
     1
102
RTVSPropertyOp1
 70
     1
102
RTVSPropertyOp2
 70
     1
102
RTVSPropertyOp3
 70
     1
102
RTVSPropertyOp4
 70
     1
102
RTVSPropertyOp5
 70
     1
102
RTVSPropertyOp6
 70
     1
102
RTVSPropertyOp7
 70
     1
102
RTVSPropertyOp8
 70
     1
102
RTVSPropertyOp9
 70
     1
102
RTVSPropertyOp10
 70
     1
102
RTVSPropertyOp11
 70
     1
102
RTVSPropertyOp12
 70
     1
102
RTVSPropertyOp13
 70
     1
102
RTVSPropertyOp14
 70
     1
102
RTVSPropertyOp15
 70
     1
102
RTVSPropertyOp16
 70
     1
102
RTVSPropertyOp17
 70
     1
102
RTVSPropertyOp18
 70
     1
102
RTVSPropertyOp19
 70
     1
102
RTVSPropertyOp20
 70
     1
102
RTVSPropertyOp21
 70
     1
102
RTVSPropertyOp22
 70
     1
102
RTVSPropertyOp23
 70
     1
102
RTVSPropertyOp24
 70
     1
102
RTVSPropertyOp25
 70
     1
102
RTVSPropertyOp26
 70
     1
102
RTVSPropertyOp27
 70
     1
102
RTVSPropertyOp28
 70
     1
102
RTVSPropertyOp29
 70
     1
102
RTVSPropertyOp30
 70
     1
102
RTVSPropertyOp31
 70
     1
102
RTVSPropertyOp32
 70
     1
102
RTVSPropertyOp33
 70
     1
102
RTVSPropertyOp34
 70
     1
102
RTVSPropertyOp35
 70
     1
102
RTVSPropertyOp36
 70
     1
102
RTVSPropertyOp37
 70
     1
102
RTVSPropertyOp38
 70
     1
102
RTVSPropertyOp39
 70
     1
102
RTVSPropertyOp40
 70
     1
102
RTVSPropertyOp41
 70
     1
102
RTVSPropertyOp42
 70
     1
102
RTVSPropertyOp43
 70
     1
102
RTVSPropertyOp44
 70
     1
102
RTVSPropertyOp45
 70
     1
102
RTVSPropertyOp46
 70
     1
102
RTVSPropertyOp47
 70
     1
102
RTVSPropertyOp48
 70
     1
102
RTVSPropertyOp49
 70
     1
102
RTVSPropertyOp50
 70
     1
102
RTVSPropertyOp51
 70
     0
102
RTVSPropertyOp52
 70
     0
102
RTVSPropertyOp53
 70
     1
102
RTVSPropertyOp54
 70
     1
102
RTVSPropertyOp55
 70
     1
102
RTVSPropertyOp56
 70
     1
102
RTVSPropertyOp57
 70
     1
102
RTVSPropertyOp58
 70
     1
102
RTVSPropertyOp59
 70
     1
102
RTVSPropertyOp60
 70
     1
102
RTVSPropertyOp61
 70
     1
102
RTVSPropertyOp62
 70
     1
  0
XRECORD
  5
8607
102
{ACAD_REACTORS
330
8606
102
}
330
8606
100
AcDbXrecord
280
     1
102
RTVSPost2010Prop28
280
     0
102
RTVSPost2010PropOp28
 70
     1
102
RTVSPost2010Prop29
280
     1
102
RTVSPost2010PropOp29
 70
     1
102
RTVSPost2010Prop30
280
     1
102
RTVSPost2010PropOp30
 70
     1
102
RTVSPost2010Prop31
280
     0
102
RTVSPost2010PropOp31
 70
     1
102
RTVSPost2010Prop32
280
     0
102
RTVSPost2010PropOp32
 70
     1
102
RTVSPost2010Prop33
280
     0
102
RTVSPost2010PropOp33
 70
     1
102
RTVSPost2010Prop34
280
     0
102
RTVSPost2010PropOp34
 70
     1
102
RTVSPost2010Prop35
280
     0
102
RTVSPost2010PropOp35
 70
     1
102
RTVSPost2010Prop36
280
     0
102
RTVSPost2010PropOp36
 70
     1
102
RTVSPost2010Prop37
 90
       50
102
RTVSPost2010PropOp37
 70
     1
102
RTVSPost2010Prop38
140
0.0
102
RTVSPost2010PropOp38
 70
     1
102
RTVSPost2010Prop39
140
1.0
102
RTVSPost2010PropOp39
 70
     1
102
RTVSPost2010Prop40
 90
        0
102
RTVSPost2010PropOp40
 70
     1
102
RTVSPost2010Prop41ColorIndex
 90
       18
102
RTVSPost2010Prop41ColorRGB
 90
        0
102
RTVSPost2010PropOp41
 70
     1
102
RTVSPost2010Prop42
 90
       50
102
RTVSPost2010PropOp42
 70
     1
102
RTVSPost2010Prop43
 90
        3
102
RTVSPost2010PropOp43
 70
     1
102
RTVSPost2010Prop44ColorIndex
 90
        5
102
RTVSPost2010Prop44ColorRGB
 90
      255
102
RTVSPost2010PropOp44
 70
     1
102
RTVSPost2010Prop45
280
     0
102
RTVSPost2010PropOp45
 70
     1
102
RTVSPost2010Prop46
 90
       50
102
RTVSPost2010PropOp46
 70
     1
102
RTVSPost2010Prop47
 90
       50
102
RTVSPost2010PropOp47
 70
     1
102
RTVSPost2010Prop48
 90
       50
102
RTVSPost2010PropOp48
 70
     1
102
RTVSPost2010Prop49
280
     0
102
RTVSPost2010PropOp49
 70
     1
102
RTVSPost2010Prop50
 90
       50
102
RTVSPost2010PropOp50
 70
     1
102
RTVSPost2010Prop51ColorIndex
 90
      256
102
RTVSPost2010Prop51ColorRGB
 90
-16777216
102
RTVSPost2010PropOp51
 70
     0
102
RTVSPost2010Prop52
140
1.0
102
RTVSPost2010PropOp52
 70
     0
102
RTVSPost2010Prop53
 90
        2
102
RTVSPost2010PropOp53
 70
     1
102
RTVSPost2010Prop54
  1
strokes_ogs.tif
102
RTVSPost2010PropOp54
 70
     1
102
RTVSPost2010Prop55
280
     0
102
RTVSPost2010PropOp55
 70
     1
102
RTVSPost2010Prop56
140
1.0
102
RTVSPost2010PropOp56
 70
     1
102
RTVSPost2010Prop57
140
1.0
102
RTVSPost2010PropOp57
 70
     1
102
RTVSPropertyOp0
 70
     1
102
RTVSPropertyOp1
 70
     1
102
RTVSPropertyOp2
 70
     1
102
RTVSPropertyOp3
 70
     1
102
RTVSPropertyOp4
 70
     1
102
RTVSPropertyOp5
 70
     1
102
RTVSPropertyOp6
 70
     1
102
RTVSPropertyOp7
 70
     1
102
RTVSPropertyOp8
 70
     1
102
RTVSPropertyOp9
 70
     1
102
RTVSPropertyOp10
 70
     1
102
RTVSPropertyOp11
 70
     1
102
RTVSPropertyOp12
 70
     1
102
RTVSPropertyOp13
 70
     1
102
RTVSPropertyOp14
 70
     1
102
RTVSPropertyOp15
 70
     1
102
RTVSPropertyOp16
 70
     1
102
RTVSPropertyOp17
 70
     1
102
RTVSPropertyOp18
 70
     1
102
RTVSPropertyOp19
 70
     1
102
RTVSPropertyOp20
 70
     1
102
RTVSPropertyOp21
 70
     1
102
RTVSPropertyOp22
 70
     1
102
RTVSPropertyOp23
 70
     1
102
RTVSPropertyOp24
 70
     1
102
RTVSPropertyOp25
 70
     1
102
RTVSPropertyOp26
 70
     1
102
RTVSPropertyOp27
 70
     1
102
RTVSPropertyOp28
 70
     1
102
RTVSPropertyOp29
 70
     1
102
RTVSPropertyOp30
 70
     1
102
RTVSPropertyOp31
 70
     1
102
RTVSPropertyOp32
 70
     1
102
RTVSPropertyOp33
 70
     1
102
RTVSPropertyOp34
 70
     1
102
RTVSPropertyOp35
 70
     1
102
RTVSPropertyOp36
 70
     1
102
RTVSPropertyOp37
 70
     1
102
RTVSPropertyOp38
 70
     1
102
RTVSPropertyOp39
 70
     1
102
RTVSPropertyOp40
 70
     1
102
RTVSPropertyOp41
 70
     1
102
RTVSPropertyOp42
 70
     1
102
RTVSPropertyOp43
 70
     1
102
RTVSPropertyOp44
 70
     1
102
RTVSPropertyOp45
 70
     1
102
RTVSPropertyOp46
 70
     1
102
RTVSPropertyOp47
 70
     1
102
RTVSPropertyOp48
 70
     1
102
RTVSPropertyOp49
 70
     1
102
RTVSPropertyOp50
 70
     1
102
RTVSPropertyOp51
 70
     0
102
RTVSPropertyOp52
 70
     0
102
RTVSPropertyOp53
 70
     1
102
RTVSPropertyOp54
 70
     1
102
RTVSPropertyOp55
 70
     1
102
RTVSPropertyOp56
 70
     1
102
RTVSPropertyOp57
 70
     1
102
RTVSPropertyOp58
 70
     1
102
RTVSPropertyOp59
 70
     1
102
RTVSPropertyOp60
 70
     1
102
RTVSPropertyOp61
 70
     1
102
RTVSPropertyOp62
 70
     1
  0
XRECORD
  5
8609
102
{ACAD_REACTORS
330
8608
102
}
330
8608
100
AcDbXrecord
280
     1
102
RTVSPost2010Prop28
280
     0
102
RTVSPost2010PropOp28
 70
     1
102
RTVSPost2010Prop29
280
     1
102
RTVSPost2010PropOp29
 70
     1
102
RTVSPost2010Prop30
280
     1
102
RTVSPost2010PropOp30
 70
     1
102
RTVSPost2010Prop31
280
     0
102
RTVSPost2010PropOp31
 70
     1
102
RTVSPost2010Prop32
280
     0
102
RTVSPost2010PropOp32
 70
     1
102
RTVSPost2010Prop33
280
     0
102
RTVSPost2010PropOp33
 70
     1
102
RTVSPost2010Prop34
280
     0
102
RTVSPost2010PropOp34
 70
     1
102
RTVSPost2010Prop35
280
     0
102
RTVSPost2010PropOp35
 70
     1
102
RTVSPost2010Prop36
280
     0
102
RTVSPost2010PropOp36
 70
     1
102
RTVSPost2010Prop37
 90
       50
102
RTVSPost2010PropOp37
 70
     1
102
RTVSPost2010Prop38
140
0.0
102
RTVSPost2010PropOp38
 70
     1
102
RTVSPost2010Prop39
140
1.0
102
RTVSPost2010PropOp39
 70
     1
102
RTVSPost2010Prop40
 90
        0
102
RTVSPost2010PropOp40
 70
     1
102
RTVSPost2010Prop41ColorIndex
 90
       18
102
RTVSPost2010Prop41ColorRGB
 90
        0
102
RTVSPost2010PropOp41
 70
     1
102
RTVSPost2010Prop42
 90
       50
102
RTVSPost2010PropOp42
 70
     1
102
RTVSPost2010Prop43
 90
        3
102
RTVSPost2010PropOp43
 70
     1
102
RTVSPost2010Prop44ColorIndex
 90
        5
102
RTVSPost2010Prop44ColorRGB
 90
      255
102
RTVSPost2010PropOp44
 70
     1
102
RTVSPost2010Prop45
280
     0
102
RTVSPost2010PropOp45
 70
     1
102
RTVSPost2010Prop46
 90
       50
102
RTVSPost2010PropOp46
 70
     1
102
RTVSPost2010Prop47
 90
       50
102
RTVSPost2010PropOp47
 70
     1
102
RTVSPost2010Prop48
 90
       50
102
RTVSPost2010PropOp48
 70
     1
102
RTVSPost2010Prop49
280
     0
102
RTVSPost2010PropOp49
 70
     1
102
RTVSPost2010Prop50
 90
       50
102
RTVSPost2010PropOp50
 70
     1
102
RTVSPost2010Prop51ColorIndex
 90
      256
102
RTVSPost2010Prop51ColorRGB
 90
-16777216
102
RTVSPost2010PropOp51
 70
     0
102
RTVSPost2010Prop52
140
1.0
102
RTVSPost2010PropOp52
 70
     0
102
RTVSPost2010Prop53
 90
        2
102
RTVSPost2010PropOp53
 70
     1
102
RTVSPost2010Prop54
  1
strokes_ogs.tif
102
RTVSPost2010PropOp54
 70
     1
102
RTVSPost2010Prop55
280
     0
102
RTVSPost2010PropOp55
 70
     1
102
RTVSPost2010Prop56
140
1.0
102
RTVSPost2010PropOp56
 70
     1
102
RTVSPost2010Prop57
140
1.0
102
RTVSPost2010PropOp57
 70
     1
102
RTVSPropertyOp0
 70
     1
102
RTVSPropertyOp1
 70
     1
102
RTVSPropertyOp2
 70
     1
102
RTVSPropertyOp3
 70
     1
102
RTVSPropertyOp4
 70
     1
102
RTVSPropertyOp5
 70
     1
102
RTVSPropertyOp6
 70
     1
102
RTVSPropertyOp7
 70
     1
102
RTVSPropertyOp8
 70
     1
102
RTVSPropertyOp9
 70
     1
102
RTVSPropertyOp10
 70
     1
102
RTVSPropertyOp11
 70
     1
102
RTVSPropertyOp12
 70
     1
102
RTVSPropertyOp13
 70
     1
102
RTVSPropertyOp14
 70
     1
102
RTVSPropertyOp15
 70
     1
102
RTVSPropertyOp16
 70
     1
102
RTVSPropertyOp17
 70
     1
102
RTVSPropertyOp18
 70
     1
102
RTVSPropertyOp19
 70
     1
102
RTVSPropertyOp20
 70
     1
102
RTVSPropertyOp21
 70
     1
102
RTVSPropertyOp22
 70
     1
102
RTVSPropertyOp23
 70
     1
102
RTVSPropertyOp24
 70
     1
102
RTVSPropertyOp25
 70
     1
102
RTVSPropertyOp26
 70
     1
102
RTVSPropertyOp27
 70
     1
102
RTVSPropertyOp28
 70
     1
102
RTVSPropertyOp29
 70
     1
102
RTVSPropertyOp30
 70
     1
102
RTVSPropertyOp31
 70
     1
102
RTVSPropertyOp32
 70
     1
102
RTVSPropertyOp33
 70
     1
102
RTVSPropertyOp34
 70
     1
102
RTVSPropertyOp35
 70
     1
102
RTVSPropertyOp36
 70
     1
102
RTVSPropertyOp37
 70
     1
102
RTVSPropertyOp38
 70
     1
102
RTVSPropertyOp39
 70
     1
102
RTVSPropertyOp40
 70
     1
102
RTVSPropertyOp41
 70
     1
102
RTVSPropertyOp42
 70
     1
102
RTVSPropertyOp43
 70
     1
102
RTVSPropertyOp44
 70
     1
102
RTVSPropertyOp45
 70
     1
102
RTVSPropertyOp46
 70
     1
102
RTVSPropertyOp47
 70
     1
102
RTVSPropertyOp48
 70
     1
102
RTVSPropertyOp49
 70
     1
102
RTVSPropertyOp50
 70
     1
102
RTVSPropertyOp51
 70
     0
102
RTVSPropertyOp52
 70
     0
102
RTVSPropertyOp53
 70
     1
102
RTVSPropertyOp54
 70
     1
102
RTVSPropertyOp55
 70
     1
102
RTVSPropertyOp56
 70
     1
102
RTVSPropertyOp57
 70
     1
102
RTVSPropertyOp58
 70
     1
102
RTVSPropertyOp59
 70
     1
102
RTVSPropertyOp60
 70
     1
102
RTVSPropertyOp61
 70
     1
102
RTVSPropertyOp62
 70
     1
  0
XRECORD
  5
860B
102
{ACAD_REACTORS
330
860A
102
}
330
860A
100
AcDbXrecord
280
     1
102
RTVSPost2010Prop28
280
     0
102
RTVSPost2010PropOp28
 70
     1
102
RTVSPost2010Prop29
280
     1
102
RTVSPost2010PropOp29
 70
     1
102
RTVSPost2010Prop30
280
     1
102
RTVSPost2010PropOp30
 70
     1
102
RTVSPost2010Prop31
280
     0
102
RTVSPost2010PropOp31
 70
     1
102
RTVSPost2010Prop32
280
     0
102
RTVSPost2010PropOp32
 70
     1
102
RTVSPost2010Prop33
280
     0
102
RTVSPost2010PropOp33
 70
     1
102
RTVSPost2010Prop34
280
     0
102
RTVSPost2010PropOp34
 70
     1
102
RTVSPost2010Prop35
280
     0
102
RTVSPost2010PropOp35
 70
     1
102
RTVSPost2010Prop36
280
     0
102
RTVSPost2010PropOp36
 70
     1
102
RTVSPost2010Prop37
 90
       50
102
RTVSPost2010PropOp37
 70
     1
102
RTVSPost2010Prop38
140
0.0
102
RTVSPost2010PropOp38
 70
     1
102
RTVSPost2010Prop39
140
1.0
102
RTVSPost2010PropOp39
 70
     1
102
RTVSPost2010Prop40
 90
        0
102
RTVSPost2010PropOp40
 70
     1
102
RTVSPost2010Prop41ColorIndex
 90
       18
102
RTVSPost2010Prop41ColorRGB
 90
        0
102
RTVSPost2010PropOp41
 70
     1
102
RTVSPost2010Prop42
 90
       50
102
RTVSPost2010PropOp42
 70
     1
102
RTVSPost2010Prop43
 90
        3
102
RTVSPost2010PropOp43
 70
     1
102
RTVSPost2010Prop44ColorIndex
 90
        5
102
RTVSPost2010Prop44ColorRGB
 90
      255
102
RTVSPost2010PropOp44
 70
     1
102
RTVSPost2010Prop45
280
     0
102
RTVSPost2010PropOp45
 70
     1
102
RTVSPost2010Prop46
 90
       50
102
RTVSPost2010PropOp46
 70
     1
102
RTVSPost2010Prop47
 90
       50
102
RTVSPost2010PropOp47
 70
     1
102
RTVSPost2010Prop48
 90
       50
102
RTVSPost2010PropOp48
 70
     1
102
RTVSPost2010Prop49
280
     0
102
RTVSPost2010PropOp49
 70
     1
102
RTVSPost2010Prop50
 90
       50
102
RTVSPost2010PropOp50
 70
     1
102
RTVSPost2010Prop51ColorIndex
 90
      256
102
RTVSPost2010Prop51ColorRGB
 90
-16777216
102
RTVSPost2010PropOp51
 70
     0
102
RTVSPost2010Prop52
140
1.0
102
RTVSPost2010PropOp52
 70
     0
102
RTVSPost2010Prop53
 90
        2
102
RTVSPost2010PropOp53
 70
     1
102
RTVSPost2010Prop54
  1
strokes_ogs.tif
102
RTVSPost2010PropOp54
 70
     1
102
RTVSPost2010Prop55
280
     0
102
RTVSPost2010PropOp55
 70
     1
102
RTVSPost2010Prop56
140
1.0
102
RTVSPost2010PropOp56
 70
     1
102
RTVSPost2010Prop57
140
1.0
102
RTVSPost2010PropOp57
 70
     1
102
RTVSPropertyOp0
 70
     1
102
RTVSPropertyOp1
 70
     1
102
RTVSPropertyOp2
 70
     1
102
RTVSPropertyOp3
 70
     1
102
RTVSPropertyOp4
 70
     1
102
RTVSPropertyOp5
 70
     1
102
RTVSPropertyOp6
 70
     1
102
RTVSPropertyOp7
 70
     1
102
RTVSPropertyOp8
 70
     1
102
RTVSPropertyOp9
 70
     1
102
RTVSPropertyOp10
 70
     1
102
RTVSPropertyOp11
 70
     1
102
RTVSPropertyOp12
 70
     1
102
RTVSPropertyOp13
 70
     1
102
RTVSPropertyOp14
 70
     1
102
RTVSPropertyOp15
 70
     1
102
RTVSPropertyOp16
 70
     1
102
RTVSPropertyOp17
 70
     1
102
RTVSPropertyOp18
 70
     1
102
RTVSPropertyOp19
 70
     1
102
RTVSPropertyOp20
 70
     1
102
RTVSPropertyOp21
 70
     1
102
RTVSPropertyOp22
 70
     1
102
RTVSPropertyOp23
 70
     1
102
RTVSPropertyOp24
 70
     1
102
RTVSPropertyOp25
 70
     1
102
RTVSPropertyOp26
 70
     1
102
RTVSPropertyOp27
 70
     1
102
RTVSPropertyOp28
 70
     1
102
RTVSPropertyOp29
 70
     1
102
RTVSPropertyOp30
 70
     1
102
RTVSPropertyOp31
 70
     1
102
RTVSPropertyOp32
 70
     1
102
RTVSPropertyOp33
 70
     1
102
RTVSPropertyOp34
 70
     1
102
RTVSPropertyOp35
 70
     1
102
RTVSPropertyOp36
 70
     1
102
RTVSPropertyOp37
 70
     1
102
RTVSPropertyOp38
 70
     1
102
RTVSPropertyOp39
 70
     1
102
RTVSPropertyOp40
 70
     1
102
RTVSPropertyOp41
 70
     1
102
RTVSPropertyOp42
 70
     1
102
RTVSPropertyOp43
 70
     1
102
RTVSPropertyOp44
 70
     1
102
RTVSPropertyOp45
 70
     1
102
RTVSPropertyOp46
 70
     1
102
RTVSPropertyOp47
 70
     1
102
RTVSPropertyOp48
 70
     1
102
RTVSPropertyOp49
 70
     1
102
RTVSPropertyOp50
 70
     1
102
RTVSPropertyOp51
 70
     0
102
RTVSPropertyOp52
 70
     0
102
RTVSPropertyOp53
 70
     1
102
RTVSPropertyOp54
 70
     1
102
RTVSPropertyOp55
 70
     1
102
RTVSPropertyOp56
 70
     1
102
RTVSPropertyOp57
 70
     1
102
RTVSPropertyOp58
 70
     1
102
RTVSPropertyOp59
 70
     1
102
RTVSPropertyOp60
 70
     1
102
RTVSPropertyOp61
 70
     1
102
RTVSPropertyOp62
 70
     1
  0
XRECORD
  5
8613
102
{ACAD_REACTORS
330
8612
102
}
330
8612
100
AcDbXrecord
280
     1
102
RTVSPost2010Prop28
280
     0
102
RTVSPost2010PropOp28
 70
     1
102
RTVSPost2010Prop29
280
     1
102
RTVSPost2010PropOp29
 70
     1
102
RTVSPost2010Prop30
280
     1
102
RTVSPost2010PropOp30
 70
     1
102
RTVSPost2010Prop31
280
     0
102
RTVSPost2010PropOp31
 70
     1
102
RTVSPost2010Prop32
280
     0
102
RTVSPost2010PropOp32
 70
     1
102
RTVSPost2010Prop33
280
     0
102
RTVSPost2010PropOp33
 70
     1
102
RTVSPost2010Prop34
280
     0
102
RTVSPost2010PropOp34
 70
     1
102
RTVSPost2010Prop35
280
     0
102
RTVSPost2010PropOp35
 70
     1
102
RTVSPost2010Prop36
280
     0
102
RTVSPost2010PropOp36
 70
     1
102
RTVSPost2010Prop37
 90
       50
102
RTVSPost2010PropOp37
 70
     1
102
RTVSPost2010Prop38
140
0.0
102
RTVSPost2010PropOp38
 70
     1
102
RTVSPost2010Prop39
140
1.0
102
RTVSPost2010PropOp39
 70
     1
102
RTVSPost2010Prop40
 90
        0
102
RTVSPost2010PropOp40
 70
     1
102
RTVSPost2010Prop41ColorIndex
 90
       18
102
RTVSPost2010Prop41ColorRGB
 90
        0
102
RTVSPost2010PropOp41
 70
     1
102
RTVSPost2010Prop42
 90
       50
102
RTVSPost2010PropOp42
 70
     1
102
RTVSPost2010Prop43
 90
        3
102
RTVSPost2010PropOp43
 70
     1
102
RTVSPost2010Prop44ColorIndex
 90
        5
102
RTVSPost2010Prop44ColorRGB
 90
      255
102
RTVSPost2010PropOp44
 70
     1
102
RTVSPost2010Prop45
280
     0
102
RTVSPost2010PropOp45
 70
     1
102
RTVSPost2010Prop46
 90
       50
102
RTVSPost2010PropOp46
 70
     1
102
RTVSPost2010Prop47
 90
       50
102
RTVSPost2010PropOp47
 70
     1
102
RTVSPost2010Prop48
 90
       50
102
RTVSPost2010PropOp48
 70
     1
102
RTVSPost2010Prop49
280
     0
102
RTVSPost2010PropOp49
 70
     1
102
RTVSPost2010Prop50
 90
       50
102
RTVSPost2010PropOp50
 70
     1
102
RTVSPost2010Prop51ColorIndex
 90
      256
102
RTVSPost2010Prop51ColorRGB
 90
-16777216
102
RTVSPost2010PropOp51
 70
     0
102
RTVSPost2010Prop52
140
1.0
102
RTVSPost2010PropOp52
 70
     0
102
RTVSPost2010Prop53
 90
        2
102
RTVSPost2010PropOp53
 70
     1
102
RTVSPost2010Prop54
  1
strokes_ogs.tif
102
RTVSPost2010PropOp54
 70
     1
102
RTVSPost2010Prop55
280
     0
102
RTVSPost2010PropOp55
 70
     1
102
RTVSPost2010Prop56
140
1.0
102
RTVSPost2010PropOp56
 70
     1
102
RTVSPost2010Prop57
140
1.0
102
RTVSPost2010PropOp57
 70
     1
102
RTVSPropertyOp0
 70
     1
102
RTVSPropertyOp1
 70
     1
102
RTVSPropertyOp2
 70
     1
102
RTVSPropertyOp3
 70
     1
102
RTVSPropertyOp4
 70
     1
102
RTVSPropertyOp5
 70
     1
102
RTVSPropertyOp6
 70
     1
102
RTVSPropertyOp7
 70
     1
102
RTVSPropertyOp8
 70
     1
102
RTVSPropertyOp9
 70
     1
102
RTVSPropertyOp10
 70
     1
102
RTVSPropertyOp11
 70
     1
102
RTVSPropertyOp12
 70
     1
102
RTVSPropertyOp13
 70
     1
102
RTVSPropertyOp14
 70
     1
102
RTVSPropertyOp15
 70
     1
102
RTVSPropertyOp16
 70
     1
102
RTVSPropertyOp17
 70
     1
102
RTVSPropertyOp18
 70
     1
102
RTVSPropertyOp19
 70
     1
102
RTVSPropertyOp20
 70
     1
102
RTVSPropertyOp21
 70
     1
102
RTVSPropertyOp22
 70
     1
102
RTVSPropertyOp23
 70
     1
102
RTVSPropertyOp24
 70
     1
102
RTVSPropertyOp25
 70
     1
102
RTVSPropertyOp26
 70
     1
102
RTVSPropertyOp27
 70
     1
102
RTVSPropertyOp28
 70
     1
102
RTVSPropertyOp29
 70
     1
102
RTVSPropertyOp30
 70
     1
102
RTVSPropertyOp31
 70
     1
102
RTVSPropertyOp32
 70
     1
102
RTVSPropertyOp33
 70
     1
102
RTVSPropertyOp34
 70
     1
102
RTVSPropertyOp35
 70
     1
102
RTVSPropertyOp36
 70
     1
102
RTVSPropertyOp37
 70
     1
102
RTVSPropertyOp38
 70
     1
102
RTVSPropertyOp39
 70
     1
102
RTVSPropertyOp40
 70
     1
102
RTVSPropertyOp41
 70
     1
102
RTVSPropertyOp42
 70
     1
102
RTVSPropertyOp43
 70
     1
102
RTVSPropertyOp44
 70
     1
102
RTVSPropertyOp45
 70
     1
102
RTVSPropertyOp46
 70
     1
102
RTVSPropertyOp47
 70
     1
102
RTVSPropertyOp48
 70
     1
102
RTVSPropertyOp49
 70
     1
102
RTVSPropertyOp50
 70
     1
102
RTVSPropertyOp51
 70
     0
102
RTVSPropertyOp52
 70
     0
102
RTVSPropertyOp53
 70
     1
102
RTVSPropertyOp54
 70
     1
102
RTVSPropertyOp55
 70
     1
102
RTVSPropertyOp56
 70
     1
102
RTVSPropertyOp57
 70
     1
102
RTVSPropertyOp58
 70
     1
102
RTVSPropertyOp59
 70
     1
102
RTVSPropertyOp60
 70
     1
102
RTVSPropertyOp61
 70
     1
102
RTVSPropertyOp62
 70
     1
  0
XRECORD
  5
8627
102
{ACAD_REACTORS
330
8626
102
}
330
8626
100
AcDbXrecord
280
     1
102
RTVSPost2010Prop28
280
     0
102
RTVSPost2010PropOp28
 70
     1
102
RTVSPost2010Prop29
280
     1
102
RTVSPost2010PropOp29
 70
     1
102
RTVSPost2010Prop30
280
     1
102
RTVSPost2010PropOp30
 70
     1
102
RTVSPost2010Prop31
280
     0
102
RTVSPost2010PropOp31
 70
     1
102
RTVSPost2010Prop32
280
     0
102
RTVSPost2010PropOp32
 70
     1
102
RTVSPost2010Prop33
280
     0
102
RTVSPost2010PropOp33
 70
     1
102
RTVSPost2010Prop34
280
     0
102
RTVSPost2010PropOp34
 70
     1
102
RTVSPost2010Prop35
280
     0
102
RTVSPost2010PropOp35
 70
     1
102
RTVSPost2010Prop36
280
     0
102
RTVSPost2010PropOp36
 70
     1
102
RTVSPost2010Prop37
 90
       50
102
RTVSPost2010PropOp37
 70
     1
102
RTVSPost2010Prop38
140
0.0
102
RTVSPost2010PropOp38
 70
     1
102
RTVSPost2010Prop39
140
1.0
102
RTVSPost2010PropOp39
 70
     1
102
RTVSPost2010Prop40
 90
        0
102
RTVSPost2010PropOp40
 70
     1
102
RTVSPost2010Prop41ColorIndex
 90
       18
102
RTVSPost2010Prop41ColorRGB
 90
        0
102
RTVSPost2010PropOp41
 70
     1
102
RTVSPost2010Prop42
 90
       50
102
RTVSPost2010PropOp42
 70
     1
102
RTVSPost2010Prop43
 90
        3
102
RTVSPost2010PropOp43
 70
     1
102
RTVSPost2010Prop44ColorIndex
 90
        5
102
RTVSPost2010Prop44ColorRGB
 90
      255
102
RTVSPost2010PropOp44
 70
     1
102
RTVSPost2010Prop45
280
     0
102
RTVSPost2010PropOp45
 70
     1
102
RTVSPost2010Prop46
 90
       50
102
RTVSPost2010PropOp46
 70
     1
102
RTVSPost2010Prop47
 90
       50
102
RTVSPost2010PropOp47
 70
     1
102
RTVSPost2010Prop48
 90
       50
102
RTVSPost2010PropOp48
 70
     1
102
RTVSPost2010Prop49
280
     0
102
RTVSPost2010PropOp49
 70
     1
102
RTVSPost2010Prop50
 90
       50
102
RTVSPost2010PropOp50
 70
     1
102
RTVSPost2010Prop51ColorIndex
 90
      256
102
RTVSPost2010Prop51ColorRGB
 90
-16777216
102
RTVSPost2010PropOp51
 70
     0
102
RTVSPost2010Prop52
140
1.0
102
RTVSPost2010PropOp52
 70
     0
102
RTVSPost2010Prop53
 90
        2
102
RTVSPost2010PropOp53
 70
     1
102
RTVSPost2010Prop54
  1
strokes_ogs.tif
102
RTVSPost2010PropOp54
 70
     1
102
RTVSPost2010Prop55
280
     0
102
RTVSPost2010PropOp55
 70
     1
102
RTVSPost2010Prop56
140
1.0
102
RTVSPost2010PropOp56
 70
     1
102
RTVSPost2010Prop57
140
1.0
102
RTVSPost2010PropOp57
 70
     1
102
RTVSPropertyOp0
 70
     0
102
RTVSPropertyOp1
 70
     0
102
RTVSPropertyOp2
 70
     0
102
RTVSPropertyOp3
 70
     0
102
RTVSPropertyOp4
 70
     0
102
RTVSPropertyOp5
 70
     0
102
RTVSPropertyOp6
 70
     0
102
RTVSPropertyOp7
 70
     0
102
RTVSPropertyOp8
 70
     0
102
RTVSPropertyOp9
 70
     0
102
RTVSPropertyOp10
 70
     0
102
RTVSPropertyOp11
 70
     0
102
RTVSPropertyOp12
 70
     0
102
RTVSPropertyOp13
 70
     0
102
RTVSPropertyOp14
 70
     2
102
RTVSPropertyOp15
 70
     0
102
RTVSPropertyOp16
 70
     0
102
RTVSPropertyOp17
 70
     0
102
RTVSPropertyOp18
 70
     0
102
RTVSPropertyOp19
 70
     0
102
RTVSPropertyOp20
 70
     0
102
RTVSPropertyOp21
 70
     0
102
RTVSPropertyOp22
 70
     0
102
RTVSPropertyOp23
 70
     0
102
RTVSPropertyOp24
 70
     0
102
RTVSPropertyOp25
 70
     0
102
RTVSPropertyOp26
 70
     0
102
RTVSPropertyOp27
 70
     0
102
RTVSPropertyOp28
 70
     1
102
RTVSPropertyOp29
 70
     1
102
RTVSPropertyOp30
 70
     1
102
RTVSPropertyOp31
 70
     1
102
RTVSPropertyOp32
 70
     1
102
RTVSPropertyOp33
 70
     1
102
RTVSPropertyOp34
 70
     1
102
RTVSPropertyOp35
 70
     1
102
RTVSPropertyOp36
 70
     1
102
RTVSPropertyOp37
 70
     1
102
RTVSPropertyOp38
 70
     1
102
RTVSPropertyOp39
 70
     1
102
RTVSPropertyOp40
 70
     1
102
RTVSPropertyOp41
 70
     1
102
RTVSPropertyOp42
 70
     1
102
RTVSPropertyOp43
 70
     1
102
RTVSPropertyOp44
 70
     1
102
RTVSPropertyOp45
 70
     1
102
RTVSPropertyOp46
 70
     1
102
RTVSPropertyOp47
 70
     1
102
RTVSPropertyOp48
 70
     1
102
RTVSPropertyOp49
 70
     1
102
RTVSPropertyOp50
 70
     1
102
RTVSPropertyOp51
 70
     0
102
RTVSPropertyOp52
 70
     0
102
RTVSPropertyOp53
 70
     1
102
RTVSPropertyOp54
 70
     1
102
RTVSPropertyOp55
 70
     1
102
RTVSPropertyOp56
 70
     1
102
RTVSPropertyOp57
 70
     1
102
RTVSPropertyOp58
 70
     1
102
RTVSPropertyOp59
 70
     1
102
RTVSPropertyOp60
 70
     1
102
RTVSPropertyOp61
 70
     1
102
RTVSPropertyOp62
 70
     1
  0
XRECORD
  5
861F
102
{ACAD_REACTORS
330
861E
102
}
330
861E
100
AcDbXrecord
280
     1
102
RTVSPost2010Prop28
280
     0
102
RTVSPost2010PropOp28
 70
     1
102
RTVSPost2010Prop29
280
     1
102
RTVSPost2010PropOp29
 70
     1
102
RTVSPost2010Prop30
280
     1
102
RTVSPost2010PropOp30
 70
     1
102
RTVSPost2010Prop31
280
     0
102
RTVSPost2010PropOp31
 70
     1
102
RTVSPost2010Prop32
280
     0
102
RTVSPost2010PropOp32
 70
     1
102
RTVSPost2010Prop33
280
     0
102
RTVSPost2010PropOp33
 70
     1
102
RTVSPost2010Prop34
280
     0
102
RTVSPost2010PropOp34
 70
     1
102
RTVSPost2010Prop35
280
     0
102
RTVSPost2010PropOp35
 70
     1
102
RTVSPost2010Prop36
280
     0
102
RTVSPost2010PropOp36
 70
     1
102
RTVSPost2010Prop37
 90
       50
102
RTVSPost2010PropOp37
 70
     1
102
RTVSPost2010Prop38
140
0.0
102
RTVSPost2010PropOp38
 70
     1
102
RTVSPost2010Prop39
140
1.0
102
RTVSPost2010PropOp39
 70
     1
102
RTVSPost2010Prop40
 90
        0
102
RTVSPost2010PropOp40
 70
     1
102
RTVSPost2010Prop41ColorIndex
 90
       18
102
RTVSPost2010Prop41ColorRGB
 90
        0
102
RTVSPost2010PropOp41
 70
     1
102
RTVSPost2010Prop42
 90
       50
102
RTVSPost2010PropOp42
 70
     1
102
RTVSPost2010Prop43
 90
        3
102
RTVSPost2010PropOp43
 70
     1
102
RTVSPost2010Prop44ColorIndex
 90
        5
102
RTVSPost2010Prop44ColorRGB
 90
      255
102
RTVSPost2010PropOp44
 70
     1
102
RTVSPost2010Prop45
280
     0
102
RTVSPost2010PropOp45
 70
     1
102
RTVSPost2010Prop46
 90
       50
102
RTVSPost2010PropOp46
 70
     1
102
RTVSPost2010Prop47
 90
       50
102
RTVSPost2010PropOp47
 70
     1
102
RTVSPost2010Prop48
 90
       50
102
RTVSPost2010PropOp48
 70
     1
102
RTVSPost2010Prop49
280
     0
102
RTVSPost2010PropOp49
 70
     1
102
RTVSPost2010Prop50
 90
       50
102
RTVSPost2010PropOp50
 70
     1
102
RTVSPost2010Prop51ColorIndex
 90
      256
102
RTVSPost2010Prop51ColorRGB
 90
-16777216
102
RTVSPost2010PropOp51
 70
     0
102
RTVSPost2010Prop52
140
1.0
102
RTVSPost2010PropOp52
 70
     0
102
RTVSPost2010Prop53
 90
        2
102
RTVSPost2010PropOp53
 70
     1
102
RTVSPost2010Prop54
  1
strokes_ogs.tif
102
RTVSPost2010PropOp54
 70
     1
102
RTVSPost2010Prop55
280
     0
102
RTVSPost2010PropOp55
 70
     1
102
RTVSPost2010Prop56
140
1.0
102
RTVSPost2010PropOp56
 70
     1
102
RTVSPost2010Prop57
140
1.0
102
RTVSPost2010PropOp57
 70
     1
102
RTVSPropertyOp0
 70
     1
102
RTVSPropertyOp1
 70
     1
102
RTVSPropertyOp2
 70
     1
102
RTVSPropertyOp3
 70
     1
102
RTVSPropertyOp4
 70
     1
102
RTVSPropertyOp5
 70
     1
102
RTVSPropertyOp6
 70
     1
102
RTVSPropertyOp7
 70
     1
102
RTVSPropertyOp8
 70
     1
102
RTVSPropertyOp9
 70
     1
102
RTVSPropertyOp10
 70
     1
102
RTVSPropertyOp11
 70
     1
102
RTVSPropertyOp12
 70
     1
102
RTVSPropertyOp13
 70
     1
102
RTVSPropertyOp14
 70
     1
102
RTVSPropertyOp15
 70
     1
102
RTVSPropertyOp16
 70
     1
102
RTVSPropertyOp17
 70
     1
102
RTVSPropertyOp18
 70
     1
102
RTVSPropertyOp19
 70
     1
102
RTVSPropertyOp20
 70
     1
102
RTVSPropertyOp21
 70
     1
102
RTVSPropertyOp22
 70
     1
102
RTVSPropertyOp23
 70
     1
102
RTVSPropertyOp24
 70
     1
102
RTVSPropertyOp25
 70
     1
102
RTVSPropertyOp26
 70
     1
102
RTVSPropertyOp27
 70
     1
102
RTVSPropertyOp28
 70
     1
102
RTVSPropertyOp29
 70
     1
102
RTVSPropertyOp30
 70
     1
102
RTVSPropertyOp31
 70
     1
102
RTVSPropertyOp32
 70
     1
102
RTVSPropertyOp33
 70
     1
102
RTVSPropertyOp34
 70
     1
102
RTVSPropertyOp35
 70
     1
102
RTVSPropertyOp36
 70
     1
102
RTVSPropertyOp37
 70
     1
102
RTVSPropertyOp38
 70
     1
102
RTVSPropertyOp39
 70
     1
102
RTVSPropertyOp40
 70
     1
102
RTVSPropertyOp41
 70
     1
102
RTVSPropertyOp42
 70
     1
102
RTVSPropertyOp43
 70
     1
102
RTVSPropertyOp44
 70
     1
102
RTVSPropertyOp45
 70
     1
102
RTVSPropertyOp46
 70
     1
102
RTVSPropertyOp47
 70
     1
102
RTVSPropertyOp48
 70
     1
102
RTVSPropertyOp49
 70
     1
102
RTVSPropertyOp50
 70
     1
102
RTVSPropertyOp51
 70
     0
102
RTVSPropertyOp52
 70
     0
102
RTVSPropertyOp53
 70
     1
102
RTVSPropertyOp54
 70
     1
102
RTVSPropertyOp55
 70
     1
102
RTVSPropertyOp56
 70
     1
102
RTVSPropertyOp57
 70
     1
102
RTVSPropertyOp58
 70
     1
102
RTVSPropertyOp59
 70
     1
102
RTVSPropertyOp60
 70
     1
102
RTVSPropertyOp61
 70
     1
102
RTVSPropertyOp62
 70
     1
  0
XRECORD
  5
8629
102
{ACAD_REACTORS
330
8628
102
}
330
8628
100
AcDbXrecord
280
     1
102
RTVSPost2010Prop28
280
     0
102
RTVSPost2010PropOp28
 70
     1
102
RTVSPost2010Prop29
280
     1
102
RTVSPost2010PropOp29
 70
     1
102
RTVSPost2010Prop30
280
     1
102
RTVSPost2010PropOp30
 70
     1
102
RTVSPost2010Prop31
280
     0
102
RTVSPost2010PropOp31
 70
     1
102
RTVSPost2010Prop32
280
     0
102
RTVSPost2010PropOp32
 70
     1
102
RTVSPost2010Prop33
280
     0
102
RTVSPost2010PropOp33
 70
     1
102
RTVSPost2010Prop34
280
     0
102
RTVSPost2010PropOp34
 70
     1
102
RTVSPost2010Prop35
280
     0
102
RTVSPost2010PropOp35
 70
     1
102
RTVSPost2010Prop36
280
     0
102
RTVSPost2010PropOp36
 70
     1
102
RTVSPost2010Prop37
 90
       50
102
RTVSPost2010PropOp37
 70
     1
102
RTVSPost2010Prop38
140
0.0
102
RTVSPost2010PropOp38
 70
     1
102
RTVSPost2010Prop39
140
1.0
102
RTVSPost2010PropOp39
 70
     1
102
RTVSPost2010Prop40
 90
        0
102
RTVSPost2010PropOp40
 70
     1
102
RTVSPost2010Prop41ColorIndex
 90
       18
102
RTVSPost2010Prop41ColorRGB
 90
        0
102
RTVSPost2010PropOp41
 70
     1
102
RTVSPost2010Prop42
 90
       50
102
RTVSPost2010PropOp42
 70
     1
102
RTVSPost2010Prop43
 90
        3
102
RTVSPost2010PropOp43
 70
     1
102
RTVSPost2010Prop44ColorIndex
 90
        5
102
RTVSPost2010Prop44ColorRGB
 90
      255
102
RTVSPost2010PropOp44
 70
     1
102
RTVSPost2010Prop45
280
     0
102
RTVSPost2010PropOp45
 70
     1
102
RTVSPost2010Prop46
 90
       50
102
RTVSPost2010PropOp46
 70
     1
102
RTVSPost2010Prop47
 90
       50
102
RTVSPost2010PropOp47
 70
     1
102
RTVSPost2010Prop48
 90
       50
102
RTVSPost2010PropOp48
 70
     1
102
RTVSPost2010Prop49
280
     0
102
RTVSPost2010PropOp49
 70
     1
102
RTVSPost2010Prop50
 90
       50
102
RTVSPost2010PropOp50
 70
     1
102
RTVSPost2010Prop51ColorIndex
 90
      256
102
RTVSPost2010Prop51ColorRGB
 90
-16777216
102
RTVSPost2010PropOp51
 70
     0
102
RTVSPost2010Prop52
140
1.0
102
RTVSPost2010PropOp52
 70
     0
102
RTVSPost2010Prop53
 90
        2
102
RTVSPost2010PropOp53
 70
     1
102
RTVSPost2010Prop54
  1
strokes_ogs.tif
102
RTVSPost2010PropOp54
 70
     1
102
RTVSPost2010Prop55
280
     0
102
RTVSPost2010PropOp55
 70
     1
102
RTVSPost2010Prop56
140
1.0
102
RTVSPost2010PropOp56
 70
     1
102
RTVSPost2010Prop57
140
1.0
102
RTVSPost2010PropOp57
 70
     1
102
RTVSPropertyOp0
 70
     0
102
RTVSPropertyOp1
 70
     0
102
RTVSPropertyOp2
 70
     0
102
RTVSPropertyOp3
 70
     0
102
RTVSPropertyOp4
 70
     0
102
RTVSPropertyOp5
 70
     0
102
RTVSPropertyOp6
 70
     0
102
RTVSPropertyOp7
 70
     0
102
RTVSPropertyOp8
 70
     0
102
RTVSPropertyOp9
 70
     0
102
RTVSPropertyOp10
 70
     0
102
RTVSPropertyOp11
 70
     0
102
RTVSPropertyOp12
 70
     0
102
RTVSPropertyOp13
 70
     0
102
RTVSPropertyOp14
 70
     2
102
RTVSPropertyOp15
 70
     0
102
RTVSPropertyOp16
 70
     0
102
RTVSPropertyOp17
 70
     0
102
RTVSPropertyOp18
 70
     0
102
RTVSPropertyOp19
 70
     0
102
RTVSPropertyOp20
 70
     0
102
RTVSPropertyOp21
 70
     0
102
RTVSPropertyOp22
 70
     0
102
RTVSPropertyOp23
 70
     0
102
RTVSPropertyOp24
 70
     0
102
RTVSPropertyOp25
 70
     0
102
RTVSPropertyOp26
 70
     0
102
RTVSPropertyOp27
 70
     0
102
RTVSPropertyOp28
 70
     1
102
RTVSPropertyOp29
 70
     1
102
RTVSPropertyOp30
 70
     1
102
RTVSPropertyOp31
 70
     1
102
RTVSPropertyOp32
 70
     1
102
RTVSPropertyOp33
 70
     1
102
RTVSPropertyOp34
 70
     1
102
RTVSPropertyOp35
 70
     1
102
RTVSPropertyOp36
 70
     1
102
RTVSPropertyOp37
 70
     1
102
RTVSPropertyOp38
 70
     1
102
RTVSPropertyOp39
 70
     1
102
RTVSPropertyOp40
 70
     1
102
RTVSPropertyOp41
 70
     1
102
RTVSPropertyOp42
 70
     1
102
RTVSPropertyOp43
 70
     1
102
RTVSPropertyOp44
 70
     1
102
RTVSPropertyOp45
 70
     1
102
RTVSPropertyOp46
 70
     1
102
RTVSPropertyOp47
 70
     1
102
RTVSPropertyOp48
 70
     1
102
RTVSPropertyOp49
 70
     1
102
RTVSPropertyOp50
 70
     1
102
RTVSPropertyOp51
 70
     0
102
RTVSPropertyOp52
 70
     0
102
RTVSPropertyOp53
 70
     1
102
RTVSPropertyOp54
 70
     1
102
RTVSPropertyOp55
 70
     1
102
RTVSPropertyOp56
 70
     1
102
RTVSPropertyOp57
 70
     1
102
RTVSPropertyOp58
 70
     1
102
RTVSPropertyOp59
 70
     1
102
RTVSPropertyOp60
 70
     1
102
RTVSPropertyOp61
 70
     1
102
RTVSPropertyOp62
 70
     1
  0
XRECORD
  5
8617
102
{ACAD_REACTORS
330
8616
102
}
330
8616
100
AcDbXrecord
280
     1
102
RTVSPost2010Prop28
280
     0
102
RTVSPost2010PropOp28
 70
     1
102
RTVSPost2010Prop29
280
     1
102
RTVSPost2010PropOp29
 70
     1
102
RTVSPost2010Prop30
280
     1
102
RTVSPost2010PropOp30
 70
     1
102
RTVSPost2010Prop31
280
     0
102
RTVSPost2010PropOp31
 70
     1
102
RTVSPost2010Prop32
280
     0
102
RTVSPost2010PropOp32
 70
     1
102
RTVSPost2010Prop33
280
     0
102
RTVSPost2010PropOp33
 70
     1
102
RTVSPost2010Prop34
280
     0
102
RTVSPost2010PropOp34
 70
     1
102
RTVSPost2010Prop35
280
     0
102
RTVSPost2010PropOp35
 70
     1
102
RTVSPost2010Prop36
280
     0
102
RTVSPost2010PropOp36
 70
     1
102
RTVSPost2010Prop37
 90
       50
102
RTVSPost2010PropOp37
 70
     1
102
RTVSPost2010Prop38
140
0.0
102
RTVSPost2010PropOp38
 70
     1
102
RTVSPost2010Prop39
140
1.0
102
RTVSPost2010PropOp39
 70
     1
102
RTVSPost2010Prop40
 90
        0
102
RTVSPost2010PropOp40
 70
     1
102
RTVSPost2010Prop41ColorIndex
 90
       18
102
RTVSPost2010Prop41ColorRGB
 90
        0
102
RTVSPost2010PropOp41
 70
     1
102
RTVSPost2010Prop42
 90
       50
102
RTVSPost2010PropOp42
 70
     1
102
RTVSPost2010Prop43
 90
        3
102
RTVSPost2010PropOp43
 70
     1
102
RTVSPost2010Prop44ColorIndex
 90
        5
102
RTVSPost2010Prop44ColorRGB
 90
      255
102
RTVSPost2010PropOp44
 70
     1
102
RTVSPost2010Prop45
280
     0
102
RTVSPost2010PropOp45
 70
     1
102
RTVSPost2010Prop46
 90
       50
102
RTVSPost2010PropOp46
 70
     1
102
RTVSPost2010Prop47
 90
       50
102
RTVSPost2010PropOp47
 70
     1
102
RTVSPost2010Prop48
 90
       50
102
RTVSPost2010PropOp48
 70
     1
102
RTVSPost2010Prop49
280
     0
102
RTVSPost2010PropOp49
 70
     1
102
RTVSPost2010Prop50
 90
       50
102
RTVSPost2010PropOp50
 70
     1
102
RTVSPost2010Prop51ColorIndex
 90
      256
102
RTVSPost2010Prop51ColorRGB
 90
-16777216
102
RTVSPost2010PropOp51
 70
     0
102
RTVSPost2010Prop52
140
1.0
102
RTVSPost2010PropOp52
 70
     0
102
RTVSPost2010Prop53
 90
        2
102
RTVSPost2010PropOp53
 70
     1
102
RTVSPost2010Prop54
  1
strokes_ogs.tif
102
RTVSPost2010PropOp54
 70
     1
102
RTVSPost2010Prop55
280
     0
102
RTVSPost2010PropOp55
 70
     1
102
RTVSPost2010Prop56
140
1.0
102
RTVSPost2010PropOp56
 70
     1
102
RTVSPost2010Prop57
140
1.0
102
RTVSPost2010PropOp57
 70
     1
102
RTVSPropertyOp0
 70
     1
102
RTVSPropertyOp1
 70
     1
102
RTVSPropertyOp2
 70
     1
102
RTVSPropertyOp3
 70
     1
102
RTVSPropertyOp4
 70
     1
102
RTVSPropertyOp5
 70
     1
102
RTVSPropertyOp6
 70
     1
102
RTVSPropertyOp7
 70
     1
102
RTVSPropertyOp8
 70
     1
102
RTVSPropertyOp9
 70
     1
102
RTVSPropertyOp10
 70
     1
102
RTVSPropertyOp11
 70
     1
102
RTVSPropertyOp12
 70
     1
102
RTVSPropertyOp13
 70
     1
102
RTVSPropertyOp14
 70
     1
102
RTVSPropertyOp15
 70
     1
102
RTVSPropertyOp16
 70
     1
102
RTVSPropertyOp17
 70
     1
102
RTVSPropertyOp18
 70
     1
102
RTVSPropertyOp19
 70
     1
102
RTVSPropertyOp20
 70
     1
102
RTVSPropertyOp21
 70
     1
102
RTVSPropertyOp22
 70
     1
102
RTVSPropertyOp23
 70
     1
102
RTVSPropertyOp24
 70
     1
102
RTVSPropertyOp25
 70
     1
102
RTVSPropertyOp26
 70
     1
102
RTVSPropertyOp27
 70
     1
102
RTVSPropertyOp28
 70
     1
102
RTVSPropertyOp29
 70
     1
102
RTVSPropertyOp30
 70
     1
102
RTVSPropertyOp31
 70
     1
102
RTVSPropertyOp32
 70
     1
102
RTVSPropertyOp33
 70
     1
102
RTVSPropertyOp34
 70
     1
102
RTVSPropertyOp35
 70
     1
102
RTVSPropertyOp36
 70
     1
102
RTVSPropertyOp37
 70
     1
102
RTVSPropertyOp38
 70
     1
102
RTVSPropertyOp39
 70
     1
102
RTVSPropertyOp40
 70
     1
102
RTVSPropertyOp41
 70
     1
102
RTVSPropertyOp42
 70
     1
102
RTVSPropertyOp43
 70
     1
102
RTVSPropertyOp44
 70
     1
102
RTVSPropertyOp45
 70
     1
102
RTVSPropertyOp46
 70
     1
102
RTVSPropertyOp47
 70
     1
102
RTVSPropertyOp48
 70
     1
102
RTVSPropertyOp49
 70
     1
102
RTVSPropertyOp50
 70
     1
102
RTVSPropertyOp51
 70
     0
102
RTVSPropertyOp52
 70
     0
102
RTVSPropertyOp53
 70
     1
102
RTVSPropertyOp54
 70
     1
102
RTVSPropertyOp55
 70
     1
102
RTVSPropertyOp56
 70
     1
102
RTVSPropertyOp57
 70
     1
102
RTVSPropertyOp58
 70
     1
102
RTVSPropertyOp59
 70
     1
102
RTVSPropertyOp60
 70
     1
102
RTVSPropertyOp61
 70
     1
102
RTVSPropertyOp62
 70
     1
  0
XRECORD
  5
8635
102
{ACAD_REACTORS
330
8634
102
}
330
8634
100
AcDbXrecord
280
     1
102
RTVSPost2010Prop28
280
     0
102
RTVSPost2010PropOp28
 70
     1
102
RTVSPost2010Prop29
280
     1
102
RTVSPost2010PropOp29
 70
     1
102
RTVSPost2010Prop30
280
     1
102
RTVSPost2010PropOp30
 70
     1
102
RTVSPost2010Prop31
280
     0
102
RTVSPost2010PropOp31
 70
     1
102
RTVSPost2010Prop32
280
     0
102
RTVSPost2010PropOp32
 70
     1
102
RTVSPost2010Prop33
280
     0
102
RTVSPost2010PropOp33
 70
     1
102
RTVSPost2010Prop34
280
     0
102
RTVSPost2010PropOp34
 70
     1
102
RTVSPost2010Prop35
280
     0
102
RTVSPost2010PropOp35
 70
     1
102
RTVSPost2010Prop36
280
     0
102
RTVSPost2010PropOp36
 70
     1
102
RTVSPost2010Prop37
 90
       50
102
RTVSPost2010PropOp37
 70
     1
102
RTVSPost2010Prop38
140
0.0
102
RTVSPost2010PropOp38
 70
     1
102
RTVSPost2010Prop39
140
1.0
102
RTVSPost2010PropOp39
 70
     1
102
RTVSPost2010Prop40
 90
        0
102
RTVSPost2010PropOp40
 70
     1
102
RTVSPost2010Prop41ColorIndex
 90
       18
102
RTVSPost2010Prop41ColorRGB
 90
        0
102
RTVSPost2010PropOp41
 70
     1
102
RTVSPost2010Prop42
 90
       50
102
RTVSPost2010PropOp42
 70
     1
102
RTVSPost2010Prop43
 90
        3
102
RTVSPost2010PropOp43
 70
     1
102
RTVSPost2010Prop44ColorIndex
 90
        5
102
RTVSPost2010Prop44ColorRGB
 90
      255
102
RTVSPost2010PropOp44
 70
     1
102
RTVSPost2010Prop45
280
     0
102
RTVSPost2010PropOp45
 70
     1
102
RTVSPost2010Prop46
 90
       50
102
RTVSPost2010PropOp46
 70
     1
102
RTVSPost2010Prop47
 90
       50
102
RTVSPost2010PropOp47
 70
     1
102
RTVSPost2010Prop48
 90
       50
102
RTVSPost2010PropOp48
 70
     1
102
RTVSPost2010Prop49
280
     0
102
RTVSPost2010PropOp49
 70
     1
102
RTVSPost2010Prop50
 90
       50
102
RTVSPost2010PropOp50
 70
     1
102
RTVSPost2010Prop51ColorIndex
 90
      256
102
RTVSPost2010Prop51ColorRGB
 90
-16777216
102
RTVSPost2010PropOp51
 70
     0
102
RTVSPost2010Prop52
140
1.0
102
RTVSPost2010PropOp52
 70
     0
102
RTVSPost2010Prop53
 90
        2
102
RTVSPost2010PropOp53
 70
     1
102
RTVSPost2010Prop54
  1
strokes_ogs.tif
102
RTVSPost2010PropOp54
 70
     1
102
RTVSPost2010Prop55
280
     0
102
RTVSPost2010PropOp55
 70
     1
102
RTVSPost2010Prop56
140
1.0
102
RTVSPost2010PropOp56
 70
     1
102
RTVSPost2010Prop57
140
1.0
102
RTVSPost2010PropOp57
 70
     1
102
RTVSPropertyOp0
 70
     1
102
RTVSPropertyOp1
 70
     1
102
RTVSPropertyOp2
 70
     1
102
RTVSPropertyOp3
 70
     1
102
RTVSPropertyOp4
 70
     1
102
RTVSPropertyOp5
 70
     1
102
RTVSPropertyOp6
 70
     1
102
RTVSPropertyOp7
 70
     1
102
RTVSPropertyOp8
 70
     1
102
RTVSPropertyOp9
 70
     1
102
RTVSPropertyOp10
 70
     1
102
RTVSPropertyOp11
 70
     1
102
RTVSPropertyOp12
 70
     1
102
RTVSPropertyOp13
 70
     1
102
RTVSPropertyOp14
 70
     1
102
RTVSPropertyOp15
 70
     1
102
RTVSPropertyOp16
 70
     1
102
RTVSPropertyOp17
 70
     1
102
RTVSPropertyOp18
 70
     1
102
RTVSPropertyOp19
 70
     1
102
RTVSPropertyOp20
 70
     1
102
RTVSPropertyOp21
 70
     1
102
RTVSPropertyOp22
 70
     1
102
RTVSPropertyOp23
 70
     1
102
RTVSPropertyOp24
 70
     1
102
RTVSPropertyOp25
 70
     1
102
RTVSPropertyOp26
 70
     1
102
RTVSPropertyOp27
 70
     1
102
RTVSPropertyOp28
 70
     1
102
RTVSPropertyOp29
 70
     1
102
RTVSPropertyOp30
 70
     1
102
RTVSPropertyOp31
 70
     1
102
RTVSPropertyOp32
 70
     1
102
RTVSPropertyOp33
 70
     1
102
RTVSPropertyOp34
 70
     1
102
RTVSPropertyOp35
 70
     1
102
RTVSPropertyOp36
 70
     1
102
RTVSPropertyOp37
 70
     1
102
RTVSPropertyOp38
 70
     1
102
RTVSPropertyOp39
 70
     1
102
RTVSPropertyOp40
 70
     1
102
RTVSPropertyOp41
 70
     1
102
RTVSPropertyOp42
 70
     1
102
RTVSPropertyOp43
 70
     1
102
RTVSPropertyOp44
 70
     1
102
RTVSPropertyOp45
 70
     1
102
RTVSPropertyOp46
 70
     1
102
RTVSPropertyOp47
 70
     1
102
RTVSPropertyOp48
 70
     1
102
RTVSPropertyOp49
 70
     1
102
RTVSPropertyOp50
 70
     1
102
RTVSPropertyOp51
 70
     0
102
RTVSPropertyOp52
 70
     0
102
RTVSPropertyOp53
 70
     1
102
RTVSPropertyOp54
 70
     1
102
RTVSPropertyOp55
 70
     1
102
RTVSPropertyOp56
 70
     1
102
RTVSPropertyOp57
 70
     1
102
RTVSPropertyOp58
 70
     1
102
RTVSPropertyOp59
 70
     1
102
RTVSPropertyOp60
 70
     1
102
RTVSPropertyOp61
 70
     1
102
RTVSPropertyOp62
 70
     1
  0
XRECORD
  5
8633
102
{ACAD_REACTORS
330
8632
102
}
330
8632
100
AcDbXrecord
280
     1
102
RTVSPost2010Prop28
280
     0
102
RTVSPost2010PropOp28
 70
     1
102
RTVSPost2010Prop29
280
     1
102
RTVSPost2010PropOp29
 70
     1
102
RTVSPost2010Prop30
280
     1
102
RTVSPost2010PropOp30
 70
     1
102
RTVSPost2010Prop31
280
     0
102
RTVSPost2010PropOp31
 70
     1
102
RTVSPost2010Prop32
280
     0
102
RTVSPost2010PropOp32
 70
     1
102
RTVSPost2010Prop33
280
     0
102
RTVSPost2010PropOp33
 70
     1
102
RTVSPost2010Prop34
280
     0
102
RTVSPost2010PropOp34
 70
     1
102
RTVSPost2010Prop35
280
     0
102
RTVSPost2010PropOp35
 70
     1
102
RTVSPost2010Prop36
280
     0
102
RTVSPost2010PropOp36
 70
     1
102
RTVSPost2010Prop37
 90
       50
102
RTVSPost2010PropOp37
 70
     1
102
RTVSPost2010Prop38
140
0.0
102
RTVSPost2010PropOp38
 70
     1
102
RTVSPost2010Prop39
140
1.0
102
RTVSPost2010PropOp39
 70
     1
102
RTVSPost2010Prop40
 90
        0
102
RTVSPost2010PropOp40
 70
     1
102
RTVSPost2010Prop41ColorIndex
 90
       18
102
RTVSPost2010Prop41ColorRGB
 90
        0
102
RTVSPost2010PropOp41
 70
     1
102
RTVSPost2010Prop42
 90
       50
102
RTVSPost2010PropOp42
 70
     1
102
RTVSPost2010Prop43
 90
        3
102
RTVSPost2010PropOp43
 70
     1
102
RTVSPost2010Prop44ColorIndex
 90
        5
102
RTVSPost2010Prop44ColorRGB
 90
      255
102
RTVSPost2010PropOp44
 70
     1
102
RTVSPost2010Prop45
280
     0
102
RTVSPost2010PropOp45
 70
     1
102
RTVSPost2010Prop46
 90
       50
102
RTVSPost2010PropOp46
 70
     1
102
RTVSPost2010Prop47
 90
       50
102
RTVSPost2010PropOp47
 70
     1
102
RTVSPost2010Prop48
 90
       50
102
RTVSPost2010PropOp48
 70
     1
102
RTVSPost2010Prop49
280
     0
102
RTVSPost2010PropOp49
 70
     1
102
RTVSPost2010Prop50
 90
       50
102
RTVSPost2010PropOp50
 70
     1
102
RTVSPost2010Prop51ColorIndex
 90
      256
102
RTVSPost2010Prop51ColorRGB
 90
-16777216
102
RTVSPost2010PropOp51
 70
     0
102
RTVSPost2010Prop52
140
1.0
102
RTVSPost2010PropOp52
 70
     0
102
RTVSPost2010Prop53
 90
        2
102
RTVSPost2010PropOp53
 70
     1
102
RTVSPost2010Prop54
  1
strokes_ogs.tif
102
RTVSPost2010PropOp54
 70
     1
102
RTVSPost2010Prop55
280
     0
102
RTVSPost2010PropOp55
 70
     1
102
RTVSPost2010Prop56
140
1.0
102
RTVSPost2010PropOp56
 70
     1
102
RTVSPost2010Prop57
140
1.0
102
RTVSPost2010PropOp57
 70
     1
102
RTVSPropertyOp0
 70
     1
102
RTVSPropertyOp1
 70
     1
102
RTVSPropertyOp2
 70
     1
102
RTVSPropertyOp3
 70
     1
102
RTVSPropertyOp4
 70
     1
102
RTVSPropertyOp5
 70
     1
102
RTVSPropertyOp6
 70
     1
102
RTVSPropertyOp7
 70
     1
102
RTVSPropertyOp8
 70
     1
102
RTVSPropertyOp9
 70
     1
102
RTVSPropertyOp10
 70
     1
102
RTVSPropertyOp11
 70
     1
102
RTVSPropertyOp12
 70
     1
102
RTVSPropertyOp13
 70
     1
102
RTVSPropertyOp14
 70
     1
102
RTVSPropertyOp15
 70
     1
102
RTVSPropertyOp16
 70
     1
102
RTVSPropertyOp17
 70
     1
102
RTVSPropertyOp18
 70
     1
102
RTVSPropertyOp19
 70
     1
102
RTVSPropertyOp20
 70
     1
102
RTVSPropertyOp21
 70
     1
102
RTVSPropertyOp22
 70
     1
102
RTVSPropertyOp23
 70
     1
102
RTVSPropertyOp24
 70
     1
102
RTVSPropertyOp25
 70
     1
102
RTVSPropertyOp26
 70
     1
102
RTVSPropertyOp27
 70
     1
102
RTVSPropertyOp28
 70
     1
102
RTVSPropertyOp29
 70
     1
102
RTVSPropertyOp30
 70
     1
102
RTVSPropertyOp31
 70
     1
102
RTVSPropertyOp32
 70
     1
102
RTVSPropertyOp33
 70
     1
102
RTVSPropertyOp34
 70
     1
102
RTVSPropertyOp35
 70
     1
102
RTVSPropertyOp36
 70
     1
102
RTVSPropertyOp37
 70
     1
102
RTVSPropertyOp38
 70
     1
102
RTVSPropertyOp39
 70
     1
102
RTVSPropertyOp40
 70
     1
102
RTVSPropertyOp41
 70
     1
102
RTVSPropertyOp42
 70
     1
102
RTVSPropertyOp43
 70
     1
102
RTVSPropertyOp44
 70
     1
102
RTVSPropertyOp45
 70
     1
102
RTVSPropertyOp46
 70
     1
102
RTVSPropertyOp47
 70
     1
102
RTVSPropertyOp48
 70
     1
102
RTVSPropertyOp49
 70
     1
102
RTVSPropertyOp50
 70
     1
102
RTVSPropertyOp51
 70
     0
102
RTVSPropertyOp52
 70
     0
102
RTVSPropertyOp53
 70
     1
102
RTVSPropertyOp54
 70
     1
102
RTVSPropertyOp55
 70
     1
102
RTVSPropertyOp56
 70
     1
102
RTVSPropertyOp57
 70
     1
102
RTVSPropertyOp58
 70
     1
102
RTVSPropertyOp59
 70
     1
102
RTVSPropertyOp60
 70
     1
102
RTVSPropertyOp61
 70
     1
102
RTVSPropertyOp62
 70
     1
  0
XRECORD
  5
862D
102
{ACAD_REACTORS
330
862C
102
}
330
862C
100
AcDbXrecord
280
     1
102
RTVSPost2010Prop28
280
     0
102
RTVSPost2010PropOp28
 70
     1
102
RTVSPost2010Prop29
280
     1
102
RTVSPost2010PropOp29
 70
     1
102
RTVSPost2010Prop30
280
     1
102
RTVSPost2010PropOp30
 70
     1
102
RTVSPost2010Prop31
280
     0
102
RTVSPost2010PropOp31
 70
     1
102
RTVSPost2010Prop32
280
     0
102
RTVSPost2010PropOp32
 70
     1
102
RTVSPost2010Prop33
280
     0
102
RTVSPost2010PropOp33
 70
     1
102
RTVSPost2010Prop34
280
     0
102
RTVSPost2010PropOp34
 70
     1
102
RTVSPost2010Prop35
280
     0
102
RTVSPost2010PropOp35
 70
     1
102
RTVSPost2010Prop36
280
     0
102
RTVSPost2010PropOp36
 70
     1
102
RTVSPost2010Prop37
 90
       50
102
RTVSPost2010PropOp37
 70
     1
102
RTVSPost2010Prop38
140
0.0
102
RTVSPost2010PropOp38
 70
     1
102
RTVSPost2010Prop39
140
1.0
102
RTVSPost2010PropOp39
 70
     1
102
RTVSPost2010Prop40
 90
        0
102
RTVSPost2010PropOp40
 70
     1
102
RTVSPost2010Prop41ColorIndex
 90
       18
102
RTVSPost2010Prop41ColorRGB
 90
        0
102
RTVSPost2010PropOp41
 70
     1
102
RTVSPost2010Prop42
 90
       50
102
RTVSPost2010PropOp42
 70
     1
102
RTVSPost2010Prop43
 90
        3
102
RTVSPost2010PropOp43
 70
     1
102
RTVSPost2010Prop44ColorIndex
 90
        5
102
RTVSPost2010Prop44ColorRGB
 90
      255
102
RTVSPost2010PropOp44
 70
     1
102
RTVSPost2010Prop45
280
     0
102
RTVSPost2010PropOp45
 70
     1
102
RTVSPost2010Prop46
 90
       50
102
RTVSPost2010PropOp46
 70
     1
102
RTVSPost2010Prop47
 90
       50
102
RTVSPost2010PropOp47
 70
     1
102
RTVSPost2010Prop48
 90
       50
102
RTVSPost2010PropOp48
 70
     1
102
RTVSPost2010Prop49
280
     0
102
RTVSPost2010PropOp49
 70
     1
102
RTVSPost2010Prop50
 90
       50
102
RTVSPost2010PropOp50
 70
     1
102
RTVSPost2010Prop51ColorIndex
 90
      256
102
RTVSPost2010Prop51ColorRGB
 90
-16777216
102
RTVSPost2010PropOp51
 70
     0
102
RTVSPost2010Prop52
140
1.0
102
RTVSPost2010PropOp52
 70
     0
102
RTVSPost2010Prop53
 90
        2
102
RTVSPost2010PropOp53
 70
     1
102
RTVSPost2010Prop54
  1
strokes_ogs.tif
102
RTVSPost2010PropOp54
 70
     1
102
RTVSPost2010Prop55
280
     0
102
RTVSPost2010PropOp55
 70
     1
102
RTVSPost2010Prop56
140
1.0
102
RTVSPost2010PropOp56
 70
     1
102
RTVSPost2010Prop57
140
1.0
102
RTVSPost2010PropOp57
 70
     1
102
RTVSPropertyOp0
 70
     1
102
RTVSPropertyOp1
 70
     1
102
RTVSPropertyOp2
 70
     1
102
RTVSPropertyOp3
 70
     1
102
RTVSPropertyOp4
 70
     1
102
RTVSPropertyOp5
 70
     1
102
RTVSPropertyOp6
 70
     1
102
RTVSPropertyOp7
 70
     1
102
RTVSPropertyOp8
 70
     1
102
RTVSPropertyOp9
 70
     1
102
RTVSPropertyOp10
 70
     1
102
RTVSPropertyOp11
 70
     1
102
RTVSPropertyOp12
 70
     1
102
RTVSPropertyOp13
 70
     1
102
RTVSPropertyOp14
 70
     1
102
RTVSPropertyOp15
 70
     1
102
RTVSPropertyOp16
 70
     1
102
RTVSPropertyOp17
 70
     1
102
RTVSPropertyOp18
 70
     1
102
RTVSPropertyOp19
 70
     1
102
RTVSPropertyOp20
 70
     1
102
RTVSPropertyOp21
 70
     1
102
RTVSPropertyOp22
 70
     1
102
RTVSPropertyOp23
 70
     1
102
RTVSPropertyOp24
 70
     1
102
RTVSPropertyOp25
 70
     1
102
RTVSPropertyOp26
 70
     1
102
RTVSPropertyOp27
 70
     1
102
RTVSPropertyOp28
 70
     1
102
RTVSPropertyOp29
 70
     1
102
RTVSPropertyOp30
 70
     1
102
RTVSPropertyOp31
 70
     1
102
RTVSPropertyOp32
 70
     1
102
RTVSPropertyOp33
 70
     1
102
RTVSPropertyOp34
 70
     1
102
RTVSPropertyOp35
 70
     1
102
RTVSPropertyOp36
 70
     1
102
RTVSPropertyOp37
 70
     1
102
RTVSPropertyOp38
 70
     1
102
RTVSPropertyOp39
 70
     1
102
RTVSPropertyOp40
 70
     1
102
RTVSPropertyOp41
 70
     1
102
RTVSPropertyOp42
 70
     1
102
RTVSPropertyOp43
 70
     1
102
RTVSPropertyOp44
 70
     1
102
RTVSPropertyOp45
 70
     1
102
RTVSPropertyOp46
 70
     1
102
RTVSPropertyOp47
 70
     1
102
RTVSPropertyOp48
 70
     1
102
RTVSPropertyOp49
 70
     1
102
RTVSPropertyOp50
 70
     1
102
RTVSPropertyOp51
 70
     0
102
RTVSPropertyOp52
 70
     0
102
RTVSPropertyOp53
 70
     1
102
RTVSPropertyOp54
 70
     1
102
RTVSPropertyOp55
 70
     1
102
RTVSPropertyOp56
 70
     1
102
RTVSPropertyOp57
 70
     1
102
RTVSPropertyOp58
 70
     1
102
RTVSPropertyOp59
 70
     1
102
RTVSPropertyOp60
 70
     1
102
RTVSPropertyOp61
 70
     1
102
RTVSPropertyOp62
 70
     1
  0
XRECORD
  5
862F
102
{ACAD_REACTORS
330
862E
102
}
330
862E
100
AcDbXrecord
280
     1
102
RTVSPost2010Prop28
280
     0
102
RTVSPost2010PropOp28
 70
     1
102
RTVSPost2010Prop29
280
     1
102
RTVSPost2010PropOp29
 70
     1
102
RTVSPost2010Prop30
280
     1
102
RTVSPost2010PropOp30
 70
     1
102
RTVSPost2010Prop31
280
     0
102
RTVSPost2010PropOp31
 70
     1
102
RTVSPost2010Prop32
280
     0
102
RTVSPost2010PropOp32
 70
     1
102
RTVSPost2010Prop33
280
     0
102
RTVSPost2010PropOp33
 70
     1
102
RTVSPost2010Prop34
280
     0
102
RTVSPost2010PropOp34
 70
     1
102
RTVSPost2010Prop35
280
     0
102
RTVSPost2010PropOp35
 70
     1
102
RTVSPost2010Prop36
280
     0
102
RTVSPost2010PropOp36
 70
     1
102
RTVSPost2010Prop37
 90
       50
102
RTVSPost2010PropOp37
 70
     1
102
RTVSPost2010Prop38
140
0.0
102
RTVSPost2010PropOp38
 70
     1
102
RTVSPost2010Prop39
140
1.0
102
RTVSPost2010PropOp39
 70
     1
102
RTVSPost2010Prop40
 90
        0
102
RTVSPost2010PropOp40
 70
     1
102
RTVSPost2010Prop41ColorIndex
 90
       18
102
RTVSPost2010Prop41ColorRGB
 90
        0
102
RTVSPost2010PropOp41
 70
     1
102
RTVSPost2010Prop42
 90
       50
102
RTVSPost2010PropOp42
 70
     1
102
RTVSPost2010Prop43
 90
        3
102
RTVSPost2010PropOp43
 70
     1
102
RTVSPost2010Prop44ColorIndex
 90
        5
102
RTVSPost2010Prop44ColorRGB
 90
      255
102
RTVSPost2010PropOp44
 70
     1
102
RTVSPost2010Prop45
280
     0
102
RTVSPost2010PropOp45
 70
     1
102
RTVSPost2010Prop46
 90
       50
102
RTVSPost2010PropOp46
 70
     1
102
RTVSPost2010Prop47
 90
       50
102
RTVSPost2010PropOp47
 70
     1
102
RTVSPost2010Prop48
 90
       50
102
RTVSPost2010PropOp48
 70
     1
102
RTVSPost2010Prop49
280
     0
102
RTVSPost2010PropOp49
 70
     1
102
RTVSPost2010Prop50
 90
       50
102
RTVSPost2010PropOp50
 70
     1
102
RTVSPost2010Prop51ColorIndex
 90
      256
102
RTVSPost2010Prop51ColorRGB
 90
-16777216
102
RTVSPost2010PropOp51
 70
     0
102
RTVSPost2010Prop52
140
1.0
102
RTVSPost2010PropOp52
 70
     0
102
RTVSPost2010Prop53
 90
        2
102
RTVSPost2010PropOp53
 70
     1
102
RTVSPost2010Prop54
  1
strokes_ogs.tif
102
RTVSPost2010PropOp54
 70
     1
102
RTVSPost2010Prop55
280
     0
102
RTVSPost2010PropOp55
 70
     1
102
RTVSPost2010Prop56
140
1.0
102
RTVSPost2010PropOp56
 70
     1
102
RTVSPost2010Prop57
140
1.0
102
RTVSPost2010PropOp57
 70
     1
102
RTVSPropertyOp0
 70
     1
102
RTVSPropertyOp1
 70
     1
102
RTVSPropertyOp2
 70
     1
102
RTVSPropertyOp3
 70
     1
102
RTVSPropertyOp4
 70
     1
102
RTVSPropertyOp5
 70
     1
102
RTVSPropertyOp6
 70
     1
102
RTVSPropertyOp7
 70
     1
102
RTVSPropertyOp8
 70
     1
102
RTVSPropertyOp9
 70
     1
102
RTVSPropertyOp10
 70
     1
102
RTVSPropertyOp11
 70
     1
102
RTVSPropertyOp12
 70
     1
102
RTVSPropertyOp13
 70
     1
102
RTVSPropertyOp14
 70
     1
102
RTVSPropertyOp15
 70
     1
102
RTVSPropertyOp16
 70
     1
102
RTVSPropertyOp17
 70
     1
102
RTVSPropertyOp18
 70
     1
102
RTVSPropertyOp19
 70
     1
102
RTVSPropertyOp20
 70
     1
102
RTVSPropertyOp21
 70
     1
102
RTVSPropertyOp22
 70
     1
102
RTVSPropertyOp23
 70
     1
102
RTVSPropertyOp24
 70
     1
102
RTVSPropertyOp25
 70
     1
102
RTVSPropertyOp26
 70
     1
102
RTVSPropertyOp27
 70
     1
102
RTVSPropertyOp28
 70
     1
102
RTVSPropertyOp29
 70
     1
102
RTVSPropertyOp30
 70
     1
102
RTVSPropertyOp31
 70
     1
102
RTVSPropertyOp32
 70
     1
102
RTVSPropertyOp33
 70
     1
102
RTVSPropertyOp34
 70
     1
102
RTVSPropertyOp35
 70
     1
102
RTVSPropertyOp36
 70
     1
102
RTVSPropertyOp37
 70
     1
102
RTVSPropertyOp38
 70
     1
102
RTVSPropertyOp39
 70
     1
102
RTVSPropertyOp40
 70
     1
102
RTVSPropertyOp41
 70
     1
102
RTVSPropertyOp42
 70
     1
102
RTVSPropertyOp43
 70
     1
102
RTVSPropertyOp44
 70
     1
102
RTVSPropertyOp45
 70
     1
102
RTVSPropertyOp46
 70
     1
102
RTVSPropertyOp47
 70
     1
102
RTVSPropertyOp48
 70
     1
102
RTVSPropertyOp49
 70
     1
102
RTVSPropertyOp50
 70
     1
102
RTVSPropertyOp51
 70
     0
102
RTVSPropertyOp52
 70
     0
102
RTVSPropertyOp53
 70
     1
102
RTVSPropertyOp54
 70
     1
102
RTVSPropertyOp55
 70
     1
102
RTVSPropertyOp56
 70
     1
102
RTVSPropertyOp57
 70
     1
102
RTVSPropertyOp58
 70
     1
102
RTVSPropertyOp59
 70
     1
102
RTVSPropertyOp60
 70
     1
102
RTVSPropertyOp61
 70
     1
102
RTVSPropertyOp62
 70
     1
  0
XRECORD
  5
861D
102
{ACAD_REACTORS
330
861C
102
}
330
861C
100
AcDbXrecord
280
     1
102
RTVSPost2010Prop28
280
     0
102
RTVSPost2010PropOp28
 70
     1
102
RTVSPost2010Prop29
280
     1
102
RTVSPost2010PropOp29
 70
     1
102
RTVSPost2010Prop30
280
     1
102
RTVSPost2010PropOp30
 70
     1
102
RTVSPost2010Prop31
280
     0
102
RTVSPost2010PropOp31
 70
     1
102
RTVSPost2010Prop32
280
     0
102
RTVSPost2010PropOp32
 70
     1
102
RTVSPost2010Prop33
280
     0
102
RTVSPost2010PropOp33
 70
     1
102
RTVSPost2010Prop34
280
     0
102
RTVSPost2010PropOp34
 70
     1
102
RTVSPost2010Prop35
280
     0
102
RTVSPost2010PropOp35
 70
     1
102
RTVSPost2010Prop36
280
     0
102
RTVSPost2010PropOp36
 70
     1
102
RTVSPost2010Prop37
 90
       50
102
RTVSPost2010PropOp37
 70
     1
102
RTVSPost2010Prop38
140
0.0
102
RTVSPost2010PropOp38
 70
     1
102
RTVSPost2010Prop39
140
1.0
102
RTVSPost2010PropOp39
 70
     1
102
RTVSPost2010Prop40
 90
        0
102
RTVSPost2010PropOp40
 70
     1
102
RTVSPost2010Prop41ColorIndex
 90
       18
102
RTVSPost2010Prop41ColorRGB
 90
        0
102
RTVSPost2010PropOp41
 70
     1
102
RTVSPost2010Prop42
 90
       50
102
RTVSPost2010PropOp42
 70
     1
102
RTVSPost2010Prop43
 90
        3
102
RTVSPost2010PropOp43
 70
     1
102
RTVSPost2010Prop44ColorIndex
 90
        5
102
RTVSPost2010Prop44ColorRGB
 90
      255
102
RTVSPost2010PropOp44
 70
     1
102
RTVSPost2010Prop45
280
     0
102
RTVSPost2010PropOp45
 70
     1
102
RTVSPost2010Prop46
 90
       50
102
RTVSPost2010PropOp46
 70
     1
102
RTVSPost2010Prop47
 90
       50
102
RTVSPost2010PropOp47
 70
     1
102
RTVSPost2010Prop48
 90
       50
102
RTVSPost2010PropOp48
 70
     1
102
RTVSPost2010Prop49
280
     0
102
RTVSPost2010PropOp49
 70
     1
102
RTVSPost2010Prop50
 90
       50
102
RTVSPost2010PropOp50
 70
     1
102
RTVSPost2010Prop51ColorIndex
 90
      256
102
RTVSPost2010Prop51ColorRGB
 90
-16777216
102
RTVSPost2010PropOp51
 70
     0
102
RTVSPost2010Prop52
140
1.0
102
RTVSPost2010PropOp52
 70
     0
102
RTVSPost2010Prop53
 90
        2
102
RTVSPost2010PropOp53
 70
     1
102
RTVSPost2010Prop54
  1
strokes_ogs.tif
102
RTVSPost2010PropOp54
 70
     1
102
RTVSPost2010Prop55
280
     0
102
RTVSPost2010PropOp55
 70
     1
102
RTVSPost2010Prop56
140
1.0
102
RTVSPost2010PropOp56
 70
     1
102
RTVSPost2010Prop57
140
1.0
102
RTVSPost2010PropOp57
 70
     1
102
RTVSPropertyOp0
 70
     1
102
RTVSPropertyOp1
 70
     1
102
RTVSPropertyOp2
 70
     1
102
RTVSPropertyOp3
 70
     1
102
RTVSPropertyOp4
 70
     1
102
RTVSPropertyOp5
 70
     1
102
RTVSPropertyOp6
 70
     1
102
RTVSPropertyOp7
 70
     1
102
RTVSPropertyOp8
 70
     1
102
RTVSPropertyOp9
 70
     1
102
RTVSPropertyOp10
 70
     1
102
RTVSPropertyOp11
 70
     1
102
RTVSPropertyOp12
 70
     1
102
RTVSPropertyOp13
 70
     1
102
RTVSPropertyOp14
 70
     1
102
RTVSPropertyOp15
 70
     1
102
RTVSPropertyOp16
 70
     1
102
RTVSPropertyOp17
 70
     1
102
RTVSPropertyOp18
 70
     1
102
RTVSPropertyOp19
 70
     1
102
RTVSPropertyOp20
 70
     1
102
RTVSPropertyOp21
 70
     1
102
RTVSPropertyOp22
 70
     1
102
RTVSPropertyOp23
 70
     1
102
RTVSPropertyOp24
 70
     1
102
RTVSPropertyOp25
 70
     1
102
RTVSPropertyOp26
 70
     1
102
RTVSPropertyOp27
 70
     1
102
RTVSPropertyOp28
 70
     1
102
RTVSPropertyOp29
 70
     1
102
RTVSPropertyOp30
 70
     1
102
RTVSPropertyOp31
 70
     1
102
RTVSPropertyOp32
 70
     1
102
RTVSPropertyOp33
 70
     1
102
RTVSPropertyOp34
 70
     1
102
RTVSPropertyOp35
 70
     1
102
RTVSPropertyOp36
 70
     1
102
RTVSPropertyOp37
 70
     1
102
RTVSPropertyOp38
 70
     1
102
RTVSPropertyOp39
 70
     1
102
RTVSPropertyOp40
 70
     1
102
RTVSPropertyOp41
 70
     1
102
RTVSPropertyOp42
 70
     1
102
RTVSPropertyOp43
 70
     1
102
RTVSPropertyOp44
 70
     1
102
RTVSPropertyOp45
 70
     1
102
RTVSPropertyOp46
 70
     1
102
RTVSPropertyOp47
 70
     1
102
RTVSPropertyOp48
 70
     1
102
RTVSPropertyOp49
 70
     1
102
RTVSPropertyOp50
 70
     1
102
RTVSPropertyOp51
 70
     0
102
RTVSPropertyOp52
 70
     0
102
RTVSPropertyOp53
 70
     1
102
RTVSPropertyOp54
 70
     1
102
RTVSPropertyOp55
 70
     1
102
RTVSPropertyOp56
 70
     1
102
RTVSPropertyOp57
 70
     1
102
RTVSPropertyOp58
 70
     1
102
RTVSPropertyOp59
 70
     1
102
RTVSPropertyOp60
 70
     1
102
RTVSPropertyOp61
 70
     1
102
RTVSPropertyOp62
 70
     1
  0
XRECORD
  5
8611
102
{ACAD_REACTORS
330
8610
102
}
330
8610
100
AcDbXrecord
280
     1
102
RTVSPost2010Prop28
280
     0
102
RTVSPost2010PropOp28
 70
     1
102
RTVSPost2010Prop29
280
     1
102
RTVSPost2010PropOp29
 70
     1
102
RTVSPost2010Prop30
280
     1
102
RTVSPost2010PropOp30
 70
     1
102
RTVSPost2010Prop31
280
     0
102
RTVSPost2010PropOp31
 70
     1
102
RTVSPost2010Prop32
280
     0
102
RTVSPost2010PropOp32
 70
     1
102
RTVSPost2010Prop33
280
     0
102
RTVSPost2010PropOp33
 70
     1
102
RTVSPost2010Prop34
280
     0
102
RTVSPost2010PropOp34
 70
     1
102
RTVSPost2010Prop35
280
     0
102
RTVSPost2010PropOp35
 70
     1
102
RTVSPost2010Prop36
280
     0
102
RTVSPost2010PropOp36
 70
     1
102
RTVSPost2010Prop37
 90
       50
102
RTVSPost2010PropOp37
 70
     1
102
RTVSPost2010Prop38
140
0.0
102
RTVSPost2010PropOp38
 70
     1
102
RTVSPost2010Prop39
140
1.0
102
RTVSPost2010PropOp39
 70
     1
102
RTVSPost2010Prop40
 90
        0
102
RTVSPost2010PropOp40
 70
     1
102
RTVSPost2010Prop41ColorIndex
 90
       18
102
RTVSPost2010Prop41ColorRGB
 90
        0
102
RTVSPost2010PropOp41
 70
     1
102
RTVSPost2010Prop42
 90
       50
102
RTVSPost2010PropOp42
 70
     1
102
RTVSPost2010Prop43
 90
        3
102
RTVSPost2010PropOp43
 70
     1
102
RTVSPost2010Prop44ColorIndex
 90
        5
102
RTVSPost2010Prop44ColorRGB
 90
      255
102
RTVSPost2010PropOp44
 70
     1
102
RTVSPost2010Prop45
280
     0
102
RTVSPost2010PropOp45
 70
     1
102
RTVSPost2010Prop46
 90
       50
102
RTVSPost2010PropOp46
 70
     1
102
RTVSPost2010Prop47
 90
       50
102
RTVSPost2010PropOp47
 70
     1
102
RTVSPost2010Prop48
 90
       50
102
RTVSPost2010PropOp48
 70
     1
102
RTVSPost2010Prop49
280
     0
102
RTVSPost2010PropOp49
 70
     1
102
RTVSPost2010Prop50
 90
       50
102
RTVSPost2010PropOp50
 70
     1
102
RTVSPost2010Prop51ColorIndex
 90
      256
102
RTVSPost2010Prop51ColorRGB
 90
-16777216
102
RTVSPost2010PropOp51
 70
     0
102
RTVSPost2010Prop52
140
1.0
102
RTVSPost2010PropOp52
 70
     0
102
RTVSPost2010Prop53
 90
        2
102
RTVSPost2010PropOp53
 70
     1
102
RTVSPost2010Prop54
  1
strokes_ogs.tif
102
RTVSPost2010PropOp54
 70
     1
102
RTVSPost2010Prop55
280
     0
102
RTVSPost2010PropOp55
 70
     1
102
RTVSPost2010Prop56
140
1.0
102
RTVSPost2010PropOp56
 70
     1
102
RTVSPost2010Prop57
140
1.0
102
RTVSPost2010PropOp57
 70
     1
102
RTVSPropertyOp0
 70
     1
102
RTVSPropertyOp1
 70
     1
102
RTVSPropertyOp2
 70
     1
102
RTVSPropertyOp3
 70
     1
102
RTVSPropertyOp4
 70
     1
102
RTVSPropertyOp5
 70
     1
102
RTVSPropertyOp6
 70
     1
102
RTVSPropertyOp7
 70
     1
102
RTVSPropertyOp8
 70
     1
102
RTVSPropertyOp9
 70
     1
102
RTVSPropertyOp10
 70
     1
102
RTVSPropertyOp11
 70
     1
102
RTVSPropertyOp12
 70
     1
102
RTVSPropertyOp13
 70
     1
102
RTVSPropertyOp14
 70
     1
102
RTVSPropertyOp15
 70
     1
102
RTVSPropertyOp16
 70
     1
102
RTVSPropertyOp17
 70
     1
102
RTVSPropertyOp18
 70
     1
102
RTVSPropertyOp19
 70
     1
102
RTVSPropertyOp20
 70
     1
102
RTVSPropertyOp21
 70
     1
102
RTVSPropertyOp22
 70
     1
102
RTVSPropertyOp23
 70
     1
102
RTVSPropertyOp24
 70
     1
102
RTVSPropertyOp25
 70
     1
102
RTVSPropertyOp26
 70
     1
102
RTVSPropertyOp27
 70
     1
102
RTVSPropertyOp28
 70
     1
102
RTVSPropertyOp29
 70
     1
102
RTVSPropertyOp30
 70
     1
102
RTVSPropertyOp31
 70
     1
102
RTVSPropertyOp32
 70
     1
102
RTVSPropertyOp33
 70
     1
102
RTVSPropertyOp34
 70
     1
102
RTVSPropertyOp35
 70
     1
102
RTVSPropertyOp36
 70
     1
102
RTVSPropertyOp37
 70
     1
102
RTVSPropertyOp38
 70
     1
102
RTVSPropertyOp39
 70
     1
102
RTVSPropertyOp40
 70
     1
102
RTVSPropertyOp41
 70
     1
102
RTVSPropertyOp42
 70
     1
102
RTVSPropertyOp43
 70
     1
102
RTVSPropertyOp44
 70
     1
102
RTVSPropertyOp45
 70
     1
102
RTVSPropertyOp46
 70
     1
102
RTVSPropertyOp47
 70
     1
102
RTVSPropertyOp48
 70
     1
102
RTVSPropertyOp49
 70
     1
102
RTVSPropertyOp50
 70
     1
102
RTVSPropertyOp51
 70
     0
102
RTVSPropertyOp52
 70
     0
102
RTVSPropertyOp53
 70
     1
102
RTVSPropertyOp54
 70
     1
102
RTVSPropertyOp55
 70
     1
102
RTVSPropertyOp56
 70
     1
102
RTVSPropertyOp57
 70
     1
102
RTVSPropertyOp58
 70
     1
102
RTVSPropertyOp59
 70
     1
102
RTVSPropertyOp60
 70
     1
102
RTVSPropertyOp61
 70
     1
102
RTVSPropertyOp62
 70
     1
  0
XRECORD
  5
8631
102
{ACAD_REACTORS
330
8630
102
}
330
8630
100
AcDbXrecord
280
     1
102
RTVSPost2010Prop28
280
     0
102
RTVSPost2010PropOp28
 70
     1
102
RTVSPost2010Prop29
280
     1
102
RTVSPost2010PropOp29
 70
     1
102
RTVSPost2010Prop30
280
     1
102
RTVSPost2010PropOp30
 70
     1
102
RTVSPost2010Prop31
280
     0
102
RTVSPost2010PropOp31
 70
     1
102
RTVSPost2010Prop32
280
     0
102
RTVSPost2010PropOp32
 70
     1
102
RTVSPost2010Prop33
280
     0
102
RTVSPost2010PropOp33
 70
     1
102
RTVSPost2010Prop34
280
     0
102
RTVSPost2010PropOp34
 70
     1
102
RTVSPost2010Prop35
280
     0
102
RTVSPost2010PropOp35
 70
     1
102
RTVSPost2010Prop36
280
     0
102
RTVSPost2010PropOp36
 70
     1
102
RTVSPost2010Prop37
 90
       50
102
RTVSPost2010PropOp37
 70
     1
102
RTVSPost2010Prop38
140
0.0
102
RTVSPost2010PropOp38
 70
     1
102
RTVSPost2010Prop39
140
1.0
102
RTVSPost2010PropOp39
 70
     1
102
RTVSPost2010Prop40
 90
        0
102
RTVSPost2010PropOp40
 70
     1
102
RTVSPost2010Prop41ColorIndex
 90
       18
102
RTVSPost2010Prop41ColorRGB
 90
        0
102
RTVSPost2010PropOp41
 70
     1
102
RTVSPost2010Prop42
 90
       50
102
RTVSPost2010PropOp42
 70
     1
102
RTVSPost2010Prop43
 90
        3
102
RTVSPost2010PropOp43
 70
     1
102
RTVSPost2010Prop44ColorIndex
 90
        5
102
RTVSPost2010Prop44ColorRGB
 90
      255
102
RTVSPost2010PropOp44
 70
     1
102
RTVSPost2010Prop45
280
     0
102
RTVSPost2010PropOp45
 70
     1
102
RTVSPost2010Prop46
 90
       50
102
RTVSPost2010PropOp46
 70
     1
102
RTVSPost2010Prop47
 90
       50
102
RTVSPost2010PropOp47
 70
     1
102
RTVSPost2010Prop48
 90
       50
102
RTVSPost2010PropOp48
 70
     1
102
RTVSPost2010Prop49
280
     0
102
RTVSPost2010PropOp49
 70
     1
102
RTVSPost2010Prop50
 90
       50
102
RTVSPost2010PropOp50
 70
     1
102
RTVSPost2010Prop51ColorIndex
 90
      256
102
RTVSPost2010Prop51ColorRGB
 90
-16777216
102
RTVSPost2010PropOp51
 70
     0
102
RTVSPost2010Prop52
140
1.0
102
RTVSPost2010PropOp52
 70
     0
102
RTVSPost2010Prop53
 90
        2
102
RTVSPost2010PropOp53
 70
     1
102
RTVSPost2010Prop54
  1
strokes_ogs.tif
102
RTVSPost2010PropOp54
 70
     1
102
RTVSPost2010Prop55
280
     0
102
RTVSPost2010PropOp55
 70
     1
102
RTVSPost2010Prop56
140
1.0
102
RTVSPost2010PropOp56
 70
     1
102
RTVSPost2010Prop57
140
1.0
102
RTVSPost2010PropOp57
 70
     1
102
RTVSPropertyOp0
 70
     1
102
RTVSPropertyOp1
 70
     1
102
RTVSPropertyOp2
 70
     1
102
RTVSPropertyOp3
 70
     1
102
RTVSPropertyOp4
 70
     1
102
RTVSPropertyOp5
 70
     1
102
RTVSPropertyOp6
 70
     1
102
RTVSPropertyOp7
 70
     1
102
RTVSPropertyOp8
 70
     1
102
RTVSPropertyOp9
 70
     1
102
RTVSPropertyOp10
 70
     1
102
RTVSPropertyOp11
 70
     1
102
RTVSPropertyOp12
 70
     1
102
RTVSPropertyOp13
 70
     1
102
RTVSPropertyOp14
 70
     1
102
RTVSPropertyOp15
 70
     1
102
RTVSPropertyOp16
 70
     1
102
RTVSPropertyOp17
 70
     1
102
RTVSPropertyOp18
 70
     1
102
RTVSPropertyOp19
 70
     1
102
RTVSPropertyOp20
 70
     1
102
RTVSPropertyOp21
 70
     1
102
RTVSPropertyOp22
 70
     1
102
RTVSPropertyOp23
 70
     1
102
RTVSPropertyOp24
 70
     1
102
RTVSPropertyOp25
 70
     1
102
RTVSPropertyOp26
 70
     1
102
RTVSPropertyOp27
 70
     1
102
RTVSPropertyOp28
 70
     1
102
RTVSPropertyOp29
 70
     1
102
RTVSPropertyOp30
 70
     1
102
RTVSPropertyOp31
 70
     1
102
RTVSPropertyOp32
 70
     1
102
RTVSPropertyOp33
 70
     1
102
RTVSPropertyOp34
 70
     1
102
RTVSPropertyOp35
 70
     1
102
RTVSPropertyOp36
 70
     1
102
RTVSPropertyOp37
 70
     1
102
RTVSPropertyOp38
 70
     1
102
RTVSPropertyOp39
 70
     1
102
RTVSPropertyOp40
 70
     1
102
RTVSPropertyOp41
 70
     1
102
RTVSPropertyOp42
 70
     1
102
RTVSPropertyOp43
 70
     1
102
RTVSPropertyOp44
 70
     1
102
RTVSPropertyOp45
 70
     1
102
RTVSPropertyOp46
 70
     1
102
RTVSPropertyOp47
 70
     1
102
RTVSPropertyOp48
 70
     1
102
RTVSPropertyOp49
 70
     1
102
RTVSPropertyOp50
 70
     1
102
RTVSPropertyOp51
 70
     0
102
RTVSPropertyOp52
 70
     0
102
RTVSPropertyOp53
 70
     1
102
RTVSPropertyOp54
 70
     1
102
RTVSPropertyOp55
 70
     1
102
RTVSPropertyOp56
 70
     1
102
RTVSPropertyOp57
 70
     1
102
RTVSPropertyOp58
 70
     1
102
RTVSPropertyOp59
 70
     1
102
RTVSPropertyOp60
 70
     1
102
RTVSPropertyOp61
 70
     1
102
RTVSPropertyOp62
 70
     1
  0
ENDSEC
  0
EOF
