  0
SECTION
  2
HEADER
  9
$ACADVER
  1
AC1015
  9
$ACADMAINTVER
 70
    18
  9
$DWGCODEPAGE
  3
ANSI_1252
  9
$INSBASE
 10
0.0
 20
0.0
 30
0.0
  9
$EXTMIN
 10
-200.1242057980553
 20
-236.6628108633016
 30
-0.0015258207003583
  9
$EXTMAX
 10
248.0996711879268
 20
268.6169592766289
 30
0.0000000349246037
  9
$LIMMIN
 10
0.0
 20
0.0
  9
$LIMMAX
 10
420.0
 20
297.0
  9
$ORTHOMODE
 70
     0
  9
$REGENMODE
 70
     1
  9
$FILLMODE
 70
     1
  9
$QTEXTMODE
 70
     0
  9
$MIRRTEXT
 70
     0
  9
$LTSCALE
 40
1.0
  9
$ATTMODE
 70
     1
  9
$TEXTSIZE
 40
2.5
  9
$TRACEWID
 40
1.0
  9
$TEXTSTYLE
  7
Standard
  9
$CLAYER
  8
0
  9
$CELTYPE
  6
ByLayer
  9
$CECOLOR
 62
   256
  9
$CELTSCALE
 40
1.0
  9
$DISPSILH
 70
     0
  9
$DIMSCALE
 40
1.0
  9
$DIMASZ
 40
2.5
  9
$DIMEXO
 40
0.625
  9
$DIMDLI
 40
3.75
  9
$DIMRND
 40
0.0
  9
$DIMDLE
 40
0.0
  9
$DIMEXE
 40
1.25
  9
$DIMTP
 40
0.0
  9
$DIMTM
 40
0.0
  9
$DIMTXT
 40
2.5
  9
$DIMCEN
 40
2.5
  9
$DIMTSZ
 40
0.0
  9
$DIMTOL
 70
     0
  9
$DIMLIM
 70
     0
  9
$DIMTIH
 70
     0
  9
$DIMTOH
 70
     0
  9
$DIMSE1
 70
     0
  9
$DIMSE2
 70
     0
  9
$DIMTAD
 70
     1
  9
$DIMZIN
 70
     8
  9
$DIMBLK
  1

  9
$DIMASO
 70
     1
  9
$DIMSHO
 70
     1
  9
$DIMPOST
  1

  9
$DIMAPOST
  1

  9
$DIMALT
 70
     0
  9
$DIMALTD
 70
     3
  9
$DIMALTF
 40
0.03937007874016
  9
$DIMLFAC
 40
1.0
  9
$DIMTOFL
 70
     1
  9
$DIMTVP
 40
0.0
  9
$DIMTIX
 70
     0
  9
$DIMSOXD
 70
     0
  9
$DIMSAH
 70
     0
  9
$DIMBLK1
  1

  9
$DIMBLK2
  1

  9
$DIMSTYLE
  2
ISO-25
  9
$DIMCLRD
 70
     0
  9
$DIMCLRE
 70
     0
  9
$DIMCLRT
 70
     0
  9
$DIMTFAC
 40
1.0
  9
$DIMGAP
 40
0.625
  9
$DIMJUST
 70
     0
  9
$DIMSD1
 70
     0
  9
$DIMSD2
 70
     0
  9
$DIMTOLJ
 70
     0
  9
$DIMTZIN
 70
     8
  9
$DIMALTZ
 70
     0
  9
$DIMALTTZ
 70
     0
  9
$DIMUPT
 70
     0
  9
$DIMDEC
 70
     2
  9
$DIMTDEC
 70
     2
  9
$DIMALTU
 70
     2
  9
$DIMALTTD
 70
     3
  9
$DIMTXSTY
  7
Standard
  9
$DIMAUNIT
 70
     0
  9
$DIMADEC
 70
     0
  9
$DIMALTRND
 40
0.0
  9
$DIMAZIN
 70
     0
  9
$DIMDSEP
 70
    44
  9
$DIMATFIT
 70
     3
  9
$DIMFRAC
 70
     0
  9
$DIMLDRBLK
  1

  9
$DIMLUNIT
 70
     2
  9
$DIMLWD
 70
    -2
  9
$DIMLWE
 70
    -2
  9
$DIMTMOVE
 70
     0
  9
$LUNITS
 70
     2
  9
$LUPREC
 70
     4
  9
$SKETCHINC
 40
1.0
  9
$FILLETRAD
 40
0.0
  9
$AUNITS
 70
     0
  9
$AUPREC
 70
     0
  9
$MENU
  1
.
  9
$ELEVATION
 40
0.0
  9
$PELEVATION
 40
0.0
  9
$THICKNESS
 40
0.0
  9
$LIMCHECK
 70
     0
  9
$CHAMFERA
 40
0.0
  9
$CHAMFERB
 40
0.0
  9
$CHAMFERC
 40
0.0
  9
$CHAMFERD
 40
0.0
  9
$SKPOLY
 70
     0
  9
$TDCREATE
 40
2460398.356956019
  9
$TDUCREATE
 40
2460398.065289352
  9
$TDUPDATE
 40
2460398.374479167
  9
$TDUUPDATE
 40
2460398.082812500
  9
$TDINDWG
 40
0.0077430556
  9
$TDUSRTIMER
 40
0.0077430556
  9
$USRTIMER
 70
     1
  9
$ANGBASE
 50
0.0
  9
$ANGDIR
 70
     0
  9
$PDMODE
 70
     0
  9
$PDSIZE
 40
0.0
  9
$PLINEWID
 40
0.0
  9
$SPLFRAME
 70
     0
  9
$SPLINETYPE
 70
     6
  9
$SPLINESEGS
 70
     8
  9
$HANDSEED
  5
8A9F
  9
$SURFTAB1
 70
     6
  9
$SURFTAB2
 70
     6
  9
$SURFTYPE
 70
     6
  9
$SURFU
 70
     6
  9
$SURFV
 70
     6
  9
$UCSBASE
  2

  9
$UCSNAME
  2

  9
$UCSORG
 10
0.0
 20
0.0
 30
0.0
  9
$UCSXDIR
 10
1.0
 20
0.0
 30
0.0
  9
$UCSYDIR
 10
0.0
 20
1.0
 30
0.0
  9
$UCSORTHOREF
  2

  9
$UCSORTHOVIEW
 70
     0
  9
$UCSORGTOP
 10
0.0
 20
0.0
 30
0.0
  9
$UCSORGBOTTOM
 10
0.0
 20
0.0
 30
0.0
  9
$UCSORGLEFT
 10
0.0
 20
0.0
 30
0.0
  9
$UCSORGRIGHT
 10
0.0
 20
0.0
 30
0.0
  9
$UCSORGFRONT
 10
0.0
 20
0.0
 30
0.0
  9
$UCSORGBACK
 10
0.0
 20
0.0
 30
0.0
  9
$PUCSBASE
  2

  9
$PUCSNAME
  2

  9
$PUCSORG
 10
0.0
 20
0.0
 30
0.0
  9
$PUCSXDIR
 10
1.0
 20
0.0
 30
0.0
  9
$PUCSYDIR
 10
0.0
 20
1.0
 30
0.0
  9
$PUCSORTHOREF
  2

  9
$PUCSORTHOVIEW
 70
     0
  9
$PUCSORGTOP
 10
0.0
 20
0.0
 30
0.0
  9
$PUCSORGBOTTOM
 10
0.0
 20
0.0
 30
0.0
  9
$PUCSORGLEFT
 10
0.0
 20
0.0
 30
0.0
  9
$PUCSORGRIGHT
 10
0.0
 20
0.0
 30
0.0
  9
$PUCSORGFRONT
 10
0.0
 20
0.0
 30
0.0
  9
$PUCSORGBACK
 10
0.0
 20
0.0
 30
0.0
  9
$USERI1
 70
     0
  9
$USERI2
 70
     0
  9
$USERI3
 70
     0
  9
$USERI4
 70
     0
  9
$USERI5
 70
     0
  9
$USERR1
 40
0.0
  9
$USERR2
 40
0.0
  9
$USERR3
 40
0.0
  9
$USERR4
 40
0.0
  9
$USERR5
 40
0.0
  9
$WORLDVIEW
 70
     1
  9
$SHADEDGE
 70
     3
  9
$SHADEDIF
 70
    70
  9
$TILEMODE
 70
     1
  9
$MAXACTVP
 70
    48
  9
$PINSBASE
 10
0.0
 20
0.0
 30
0.0
  9
$PLIMCHECK
 70
     0
  9
$PEXTMIN
 10
0.0
 20
0.0
 30
0.0
  9
$PEXTMAX
 10
0.0
 20
0.0
 30
0.0
  9
$PLIMMIN
 10
0.0
 20
0.0
  9
$PLIMMAX
 10
12.0
 20
9.0
  9
$UNITMODE
 70
     0
  9
$VISRETAIN
 70
     1
  9
$PLINEGEN
 70
     0
  9
$PSLTSCALE
 70
     1
  9
$TREEDEPTH
 70
  3020
  9
$CMLSTYLE
  2
Standard
  9
$CMLJUST
 70
     0
  9
$CMLSCALE
 40
20.0
  9
$PROXYGRAPHICS
 70
     1
  9
$MEASUREMENT
 70
     1
  9
$CELWEIGHT
370
    -1
  9
$ENDCAPS
280
     0
  9
$JOINSTYLE
280
     0
  9
$LWDISPLAY
290
     0
  9
$INSUNITS
 70
     4
  9
$HYPERLINKBASE
  1

  9
$STYLESHEET
  1

  9
$XEDIT
290
     1
  9
$CEPSNTYPE
380
     0
  9
$PSTYLEMODE
290
     1
  9
$FINGERPRINTGUID
  2
{6C1266EE-7BC1-BF4A-B059-A6E7702B10CE}
  9
$VERSIONGUID
  2
{319E6628-3B5B-8D4E-BB56-0426BFE64DEB}
  9
$EXTNAMES
290
     1
  9
$PSVPSCALE
 40
0.0
  9
$OLESTARTUP
290
     0
  0
ENDSEC
  0
SECTION
  2
CLASSES
  0
CLASS
  1
ACDBDICTIONARYWDFLT
  2
AcDbDictionaryWithDefault
  3
ObjectDBX Classes
 90
        0
280
     0
281
     0
  0
CLASS
  1
ACDBPLACEHOLDER
  2
AcDbPlaceHolder
  3
ObjectDBX Classes
 90
        0
280
     0
281
     0
  0
CLASS
  1
LAYOUT
  2
AcDbLayout
  3
ObjectDBX Classes
 90
        0
280
     0
281
     0
  0
CLASS
  1
DICTIONARYVAR
  2
AcDbDictionaryVar
  3
ObjectDBX Classes
 90
        0
280
     0
281
     0
  0
CLASS
  1
TABLESTYLE
  2
AcDbTableStyle
  3
ObjectDBX Classes
 90
     4095
280
     0
281
     0
  0
CLASS
  1
MATERIAL
  2
AcDbMaterial
  3
ObjectDBX Classes
 90
     1153
280
     0
281
     0
  0
CLASS
  1
VISUALSTYLE
  2
AcDbVisualStyle
  3
ObjectDBX Classes
 90
     4095
280
     0
281
     0
  0
CLASS
  1
SCALE
  2
AcDbScale
  3
ObjectDBX Classes
 90
     1153
280
     0
281
     0
  0
CLASS
  1
MLEADERSTYLE
  2
AcDbMLeaderStyle
  3
ACDB_MLEADERSTYLE_CLASS
 90
     4095
280
     0
281
     0
  0
CLASS
  1
CELLSTYLEMAP
  2
AcDbCellStyleMap
  3
ObjectDBX Classes
 90
     1152
280
     0
281
     0
  0
CLASS
  1
EXACXREFPANELOBJECT
  2
ExAcXREFPanelObject
  3
EXAC_ESW
 90
    33793
280
     0
281
     0
  0
CLASS
  1
NPOCOLLECTION
  2
AcDbImpNonPersistentObjectsCollection
  3
ObjectDBX Classes
 90
    33921
280
     0
281
     0
  0
CLASS
  1
LAYER_INDEX
  2
AcDbLayerIndex
  3
ObjectDBX Classes
 90
    32768
280
     0
281
     0
  0
CLASS
  1
SPATIAL_INDEX
  2
AcDbSpatialIndex
  3
ObjectDBX Classes
 90
    32768
280
     0
281
     0
  0
CLASS
  1
IDBUFFER
  2
AcDbIdBuffer
  3
ObjectDBX Classes
 90
    32768
280
     0
281
     0
  0
CLASS
  1
ACDBSECTIONVIEWSTYLE
  2
AcDbSectionViewStyle
  3
ObjectDBX Classes
 90
     1025
280
     0
281
     0
  0
CLASS
  1
ACDBDETAILVIEWSTYLE
  2
AcDbDetailViewStyle
  3
ObjectDBX Classes
 90
     1025
280
     0
281
     0
  0
CLASS
  1
XRECORD
  2
AcDbXrecord
  3
ObjectDBX Classes
 90
        0
280
     0
281
     0
  0
ENDSEC
  0
SECTION
  2
TABLES
  0
TABLE
  2
VPORT
  5
8
102
{ACAD_XDICTIONARY
360
89AD
102
}
330
0
100
AcDbSymbolTable
 70
     1
  0
VPORT
  5
EA
330
8
100
AcDbSymbolTableRecord
100
AcDbViewportTableRecord
  2
*Active
 70
     0
 10
0.0
 20
0.0
 11
1.0
 21
1.0
 12
23.98773269493575
 22
15.97707420666367
 13
0.0
 23
0.0
 14
10.0
 24
10.0
 15
10.0
 25
10.0
 16
0.0
 26
0.0
 36
1.0
 17
0.0
 27
0.0
 37
0.0
 40
537.3192454155539
 41
0.9846153846153846
 42
50.0
 43
0.0
 44
0.0
 50
0.0
 51
0.0
 71
     0
 72
  1000
 73
     1
 74
     3
 75
     0
 76
     1
 77
     0
 78
     0
281
     0
 65
     1
110
0.0
120
0.0
130
0.0
111
1.0
121
0.0
131
0.0
112
0.0
122
1.0
132
0.0
 79
     0
146
0.0
1001
ACAD_NAV_VCDISPLAY
1070
     3
  0
ENDTAB
  0
TABLE
  2
LTYPE
  5
5
330
0
100
AcDbSymbolTable
 70
     1
  0
LTYPE
  5
14
330
5
100
AcDbSymbolTableRecord
100
AcDbLinetypeTableRecord
  2
ByBlock
 70
     0
  3

 72
    65
 73
     0
 40
0.0
  0
LTYPE
  5
15
330
5
100
AcDbSymbolTableRecord
100
AcDbLinetypeTableRecord
  2
ByLayer
 70
     0
  3

 72
    65
 73
     0
 40
0.0
  0
LTYPE
  5
16
330
5
100
AcDbSymbolTableRecord
100
AcDbLinetypeTableRecord
  2
Continuous
 70
     0
  3
Solid line
 72
    65
 73
     0
 40
0.0
  0
ENDTAB
  0
TABLE
  2
LAYER
  5
2
102
{ACAD_XDICTIONARY
360
1FF
102
}
330
0
100
AcDbSymbolTable
 70
     1
  0
LAYER
  5
10
102
{ACAD_XDICTIONARY
360
13C
102
}
330
2
100
AcDbSymbolTableRecord
100
AcDbLayerTableRecord
  2
0
 70
     0
 62
     7
  6
Continuous
370
    -3
390
F
  0
ENDTAB
  0
TABLE
  2
STYLE
  5
3
330
0
100
AcDbSymbolTable
 70
     1
  0
STYLE
  5
11
330
3
100
AcDbSymbolTableRecord
100
AcDbTextStyleTableRecord
  2
Standard
 70
     0
 40
0.0
 41
1.0
 50
0.0
 71
     0
 42
2.5
  3
arial.ttf
  4

1001
ACAD
1000
Arial
1071
       34
  0
ENDTAB
  0
TABLE
  2
VIEW
  5
6
330
0
100
AcDbSymbolTable
 70
     0
  0
ENDTAB
  0
TABLE
  2
UCS
  5
7
330
0
100
AcDbSymbolTable
 70
     0
  0
ENDTAB
  0
TABLE
  2
APPID
  5
9
330
0
100
AcDbSymbolTable
 70
     8
  0
APPID
  5
12
330
9
100
AcDbSymbolTableRecord
100
AcDbRegAppTableRecord
  2
ACAD
 70
     0
  0
APPID
  5
9E
330
9
100
AcDbSymbolTableRecord
100
AcDbRegAppTableRecord
  2
ACAD_PSEXT
 70
     0
  0
APPID
  5
133
330
9
100
AcDbSymbolTableRecord
100
AcDbRegAppTableRecord
  2
AcadAnnoPO
 70
     0
  0
APPID
  5
134
330
9
100
AcDbSymbolTableRecord
100
AcDbRegAppTableRecord
  2
AcadAnnotative
 70
     0
  0
APPID
  5
135
330
9
100
AcDbSymbolTableRecord
100
AcDbRegAppTableRecord
  2
ACAD_DSTYLE_DIMJAG
 70
     0
  0
APPID
  5
136
330
9
100
AcDbSymbolTableRecord
100
AcDbRegAppTableRecord
  2
ACAD_DSTYLE_DIMTALN
 70
     0
  0
APPID
  5
165
330
9
100
AcDbSymbolTableRecord
100
AcDbRegAppTableRecord
  2
ACAD_MLEADERVER
 70
     0
  0
APPID
  5
217
330
9
100
AcDbSymbolTableRecord
100
AcDbRegAppTableRecord
  2
ACAD_NAV_VCDISPLAY
 70
     0
  0
ENDTAB
  0
TABLE
  2
DIMSTYLE
  5
A
330
0
100
AcDbSymbolTable
 70
     1
100
AcDbDimStyleTable
 71
     0
  0
DIMSTYLE
105
27
330
A
100
AcDbSymbolTableRecord
100
AcDbDimStyleTableRecord
  2
ISO-25
 70
     0
 41
2.5
 42
0.625
 43
3.75
 44
1.25
 73
     0
 74
     0
 77
     1
 78
     8
140
2.5
141
2.5
143
0.03937007874016
147
0.625
171
     3
172
     1
271
     2
272
     2
274
     3
278
    44
283
     0
284
     8
340
11
  0
ENDTAB
  0
TABLE
  2
BLOCK_RECORD
  5
1
330
0
100
AcDbSymbolTable
 70
     7
  0
BLOCK_RECORD
  5
1F
102
{ACAD_XDICTIONARY
360
1CE
102
}
330
1
100
AcDbSymbolTableRecord
100
AcDbBlockTableRecord
  2
*Model_Space
340
22
  0
BLOCK_RECORD
  5
D2
102
{ACAD_XDICTIONARY
360
8960
102
}
330
1
100
AcDbSymbolTableRecord
100
AcDbBlockTableRecord
  2
*Paper_Space
340
D3
  0
BLOCK_RECORD
  5
D6
102
{ACAD_XDICTIONARY
360
8962
102
}
330
1
100
AcDbSymbolTableRecord
100
AcDbBlockTableRecord
  2
*Paper_Space0
340
D7
  0
BLOCK_RECORD
  5
87DB
330
1
100
AcDbSymbolTableRecord
100
AcDbBlockTableRecord
  2
SAE340_60_2-Front
340
0
102
{BLKREFS
331
8956
102
}
  0
BLOCK_RECORD
  5
882D
330
1
100
AcDbSymbolTableRecord
100
AcDbBlockTableRecord
  2
SAE340_60_2-Left
340
0
102
{BLKREFS
331
8957
102
}
  0
BLOCK_RECORD
  5
884C
330
1
100
AcDbSymbolTableRecord
100
AcDbBlockTableRecord
  2
SAE340_60_2-Right
340
0
102
{BLKREFS
331
8958
102
}
  0
BLOCK_RECORD
  5
886A
330
1
100
AcDbSymbolTableRecord
100
AcDbBlockTableRecord
  2
SAE340_60_2-Top
340
0
102
{BLKREFS
331
8959
102
}
  0
BLOCK_RECORD
  5
889A
330
1
100
AcDbSymbolTableRecord
100
AcDbBlockTableRecord
  2
SAE340_60_2-Bottom
340
0
102
{BLKREFS
331
895A
102
}
  0
BLOCK_RECORD
  5
88C5
330
1
100
AcDbSymbolTableRecord
100
AcDbBlockTableRecord
  2
SAE340_60_2-ISO
340
0
102
{BLKREFS
331
895B
102
}
  0
ENDTAB
  0
ENDSEC
  0
SECTION
  2
BLOCKS
  0
BLOCK
  5
20
330
1F
100
AcDbEntity
  8
0
100
AcDbBlockBegin
  2
*Model_Space
 70
     0
 10
0.0
 20
0.0
 30
0.0
  3
*Model_Space
  1

  0
ENDBLK
  5
21
330
1F
100
AcDbEntity
  8
0
100
AcDbBlockEnd
  0
BLOCK
  5
D4
330
D2
100
AcDbEntity
 67
     1
  8
0
100
AcDbBlockBegin
  2
*Paper_Space
 70
     0
 10
0.0
 20
0.0
 30
0.0
  3
*Paper_Space
  1

  0
ENDBLK
  5
D5
330
D2
100
AcDbEntity
 67
     1
  8
0
100
AcDbBlockEnd
  0
BLOCK
  5
D8
330
D6
100
AcDbEntity
 67
     1
  8
0
100
AcDbBlockBegin
  2
*Paper_Space0
 70
     0
 10
0.0
 20
0.0
 30
0.0
  3
*Paper_Space0
  1

  0
ENDBLK
  5
D9
330
D6
100
AcDbEntity
 67
     1
  8
0
100
AcDbBlockEnd
  0
BLOCK
  5
87DC
330
87DB
100
AcDbEntity
  8
0
100
AcDbBlockBegin
  2
SAE340_60_2-Front
 70
     0
 10
0.0
 20
0.0
 30
0.0
  3
SAE340_60_2-Front
  1

  0
SPLINE
  5
87DE
330
87DB
100
AcDbEntity
  8
0
100
AcDbSpline
210
0.0
220
0.0
230
1.0
 70
     8
 71
     3
 72
    14
 73
    10
 74
     0
 42
0.000000001
 43
0.0000000001
 40
0.0
 40
0.0
 40
0.0
 40
0.0
 40
0.3435185598330248
 40
0.3435185598330248
 40
0.3435185598330248
 40
0.757013838864677
 40
0.757013838864677
 40
0.757013838864677
 40
0.9986524656796774
 40
0.9986524656796774
 40
0.9986524656796774
 40
0.9986524656796774
 10
34.60606060606064
 20
12.56249999999995
 30
0.0
 10
34.28490437776704
 20
12.30249346332017
 30
0.0
 10
33.87245674614272
 20
12.07528977169215
 30
0.0
 10
33.47646184525582
 20
11.84407447159542
 30
0.0
 10
32.99980049072252
 20
11.56575927640958
 30
0.0
 10
32.53725454065256
 20
11.27136286305494
 30
0.0
 10
32.26239142283203
 20
10.85786784791074
 30
0.0
 10
32.1017667440986
 20
10.61622937530646
 30
0.0
 10
32.00111648508349
 20
10.36103839417637
 30
0.0
 10
32.00000922987911
 20
10.00594994989027
 30
0.0
  0
LINE
  5
87DF
330
87DB
100
AcDbEntity
  8
0
100
AcDbLine
 10
32.0
 20
12.56249999999995
 30
0.0
 11
34.0
 21
12.56249999999995
 31
0.0
  0
SPLINE
  5
87E0
330
87DB
100
AcDbEntity
  8
0
100
AcDbSpline
210
0.0
220
0.0
230
1.0
 70
     8
 71
     3
 72
    20
 73
    16
 74
     0
 42
0.000000001
 43
0.0000000001
 40
0.0120765331146732
 40
0.0120765331146732
 40
0.0120765331146732
 40
0.0120765331146732
 40
0.0124299338906531
 40
0.0124299338906531
 40
0.0135323717878918
 40
0.0135323717878918
 40
0.0142287686607601
 40
0.0142287686607601
 40
0.0153124062711918
 40
0.0153124062711918
 40
0.0162555189854153
 40
0.0162555189854153
 40
0.0174042296464308
 40
0.0174042296464308
 40
0.0202482571554825
 40
0.0202482571554825
 40
0.0202482571554825
 40
0.0202482571554825
 10
32.00029164702532
 20
10.05864902333204
 30
0.0
 10
32.00029164702504
 20
10.0586490233072
 30
0.0
 10
32.00029123985775
 20
10.0586134793159
 30
0.0
 10
32.00028776216087
 20
10.05830458930173
 30
0.0
 10
32.0002807024662
 20
10.05768025204833
 30
0.0
 10
32.00026151506531
 20
10.05581417746555
 30
0.0
 10
32.00025215189548
 20
10.05487575890084
 30
0.0
 10
32.00022452416588
 20
10.05190432983086
 30
0.0
 10
32.00020367422506
 20
10.04948075123429
 30
0.0
 10
32.00016558925908
 20
10.04423272367492
 30
0.0
 10
32.00014804564319
 20
10.04146773837277
 30
0.0
 10
32.00011450601197
 20
10.03510174601184
 30
0.0
 10
32.00009960125935
 20
10.03146048160197
 30
0.0
 10
32.00006174602783
 20
10.01868707772262
 30
0.0
 10
32.00005914044792
 20
10.00931933022837
 30
0.0
 10
32.00007431494561
 20
10.00000012101581
 30
0.0
  0
SPLINE
  5
87E1
330
87DB
100
AcDbEntity
  8
0
100
AcDbSpline
210
0.0
220
0.0
230
1.0
 70
     8
 71
     3
 72
    20
 73
    16
 74
     0
 42
0.000000001
 43
0.0000000001
 40
0.0053330443942001
 40
0.0053330443942001
 40
0.0053330443942001
 40
0.0053330443942001
 40
0.0056477560980498
 40
0.0056477560980498
 40
0.0060465169059825
 40
0.0060465169059825
 40
0.0065308672760526
 40
0.0065308672760526
 40
0.0071941562447399
 40
0.0071941562447399
 40
0.0085674960007615
 40
0.0085674960007615
 40
0.0106391405294094
 40
0.0106391405294094
 40
0.0111026036871263
 40
0.0111026036871263
 40
0.0111026036871263
 40
0.0111026036871263
 10
32.00010883933713
 20
10.04546313430401
 30
0.0
 10
32.00010883931855
 20
10.04546313131374
 30
0.0
 10
32.00010796016149
 20
10.04532229586889
 30
0.0
 10
32.00010437324532
 20
10.04473466358421
 30
0.0
 10
32.00010121326007
 20
10.04421101036279
 30
0.0
 10
32.00009286769651
 20
10.04276713788388
 30
0.0
 10
32.00008734580634
 20
10.0417760586222
 30
0.0
 10
32.0000738423155
 20
10.03918099212067
 30
0.0
 10
32.00006571116003
 20
10.03748292147361
 30
0.0
 10
32.00004297959458
 20
10.03216364735005
 30
0.0
 10
32.00002983026033
 20
10.02823217291746
 30
0.0
 10
32.00000644282607
 20
10.01793167202146
 30
0.0
 10
32.00000107515148
 20
10.01126223033447
 30
0.0
 10
32.00000622935035
 20
10.00302728305657
 30
0.0
 10
32.00000763272407
 20
10.00151542351381
 30
0.0
 10
32.00000948425083
 20
9.999999570123552
 30
0.0
  0
SPLINE
  5
87E2
330
87DB
100
AcDbEntity
  8
0
100
AcDbSpline
210
0.0
220
0.0
230
1.0
 70
     8
 71
     3
 72
     8
 73
     4
 74
     0
 42
0.000000001
 43
0.0000000001
 40
0.0
 40
0.0
 40
0.0
 40
0.0
 40
0.0015511722945477
 40
0.0015511722945477
 40
0.0015511722945477
 40
0.0015511722945477
 10
29.99955984654367
 20
10.00000111615405
 30
0.0
 10
29.99956565327763
 20
10.00446881097839
 30
0.0
 10
29.99957076641531
 20
10.00884708258101
 30
0.0
 10
29.99957512909035
 20
10.0130759132275
 30
0.0
  0
SPLINE
  5
87E3
330
87DB
100
AcDbEntity
  8
0
100
AcDbSpline
210
0.0
220
0.0
230
1.0
 70
     8
 71
     3
 72
    16
 73
    12
 74
     0
 42
0.000000001
 43
0.0000000001
 40
0.0
 40
0.0
 40
0.0
 40
0.0
 40
0.0021186908369333
 40
0.0021186908369333
 40
0.0037963630018734
 40
0.0037963630018734
 40
0.0060490253771134
 40
0.0060490253771134
 40
0.0082160884083542
 40
0.0082160884083542
 40
0.0100715299618894
 40
0.0100715299618894
 40
0.0100715299618894
 40
0.0100715299618894
 10
29.99977770485155
 20
9.999996581616093
 30
0.0
 10
29.99967060337869
 20
10.00696252206991
 30
0.0
 10
29.99956026516452
 20
10.01406431014976
 30
0.0
 10
29.99936153565741
 20
10.02670812135511
 30
0.0
 10
29.99927271955281
 20
10.03230570405721
 30
0.0
 10
29.99907108296794
 20
10.0449024986785
 30
0.0
 10
29.99895812999666
 20
10.05187275003845
 30
0.0
 10
29.9987608365053
 20
10.0639500415009
 30
0.0
 10
29.99867338946219
 20
10.0692536070921
 30
0.0
 10
29.9985337545961
 20
10.07766822582089
 30
0.0
 10
29.99847718641597
 20
10.08105234008275
 30
0.0
 10
29.99842789893664
 20
10.08398349774934
 30
0.0
  0
SPLINE
  5
87E4
330
87DB
100
AcDbEntity
  8
0
100
AcDbSpline
210
0.0
220
0.0
230
1.0
 70
     8
 71
     3
 72
    34
 73
    30
 74
     0
 42
0.000000001
 43
0.0000000001
 40
0.0018828273636796
 40
0.0018828273636796
 40
0.0018828273636796
 40
0.0018828273636796
 40
0.0067931738570373
 40
0.0067931738570373
 40
0.0148581943407725
 40
0.0148581943407725
 40
0.0216571887858932
 40
0.0216571887858932
 40
0.0241183128298723
 40
0.0241183128298723
 40
0.0262726967758833
 40
0.0262726967758833
 40
0.0291188418969433
 40
0.0291188418969433
 40
0.0315306234526974
 40
0.0315306234526974
 40
0.0346499154874399
 40
0.0346499154874399
 40
0.0395922397061635
 40
0.0395922397061635
 40
0.0489104512695918
 40
0.0489104512695918
 40
0.0719044114008577
 40
0.0719044114008577
 40
0.1414596711127888
 40
0.1414596711127888
 40
0.2235217453436837
 40
0.2235217453436837
 40
0.2662178312083177
 40
0.2662178312083177
 40
0.2662178312083177
 40
0.2662178312083177
 10
29.99993407926221
 20
10.00382191537238
 30
0.0
 10
29.99986407575552
 20
10.00784047578925
 30
0.0
 10
29.99976229034389
 20
10.01358824993034
 30
0.0
 10
29.99943617379822
 20
10.03150107638195
 30
0.0
 10
29.99917378800241
 20
10.04547921424292
 30
0.0
 10
29.99862147075479
 20
10.07412873880537
 30
0.0
 10
29.99834194620802
 20
10.08837019558685
 30
0.0
 10
29.99789286036872
 20
10.11130037362969
 30
0.0
 10
29.99776555610588
 20
10.11780854000135
 30
0.0
 10
29.99751099031965
 20
10.13092331007026
 30
0.0
 10
29.99738412344047
 20
10.13749914593824
 30
0.0
 10
29.99708152970935
 20
10.15339591600927
 30
0.0
 10
29.99689905467284
 20
10.16315157113577
 30
0.0
 10
29.99658162006441
 20
10.1806331723046
 30
0.0
 10
29.99644055641253
 20
10.18860705031545
 30
0.0
 10
29.99613972381952
 20
10.20612861492266
 30
0.0
 10
29.99598366074362
 20
10.21561633028647
 30
0.0
 10
29.99561587365979
 20
10.23896508137499
 30
0.0
 10
29.99542142375658
 20
10.25234662120816
 30
0.0
 10
29.99492615326754
 20
10.28909274579574
 30
0.0
 10
29.99467857968405
 20
10.31110300220837
 30
0.0
 10
29.99397364941776
 20
10.38486037609694
 30
0.0
 10
29.99373071960818
 20
10.43326604828861
 30
0.0
 10
29.99330505692666
 20
10.63521424183536
 30
0.0
 10
29.99455179203927
 20
10.81150031212919
 30
0.0
 10
29.99793248615631
 20
11.23289605737556
 30
0.0
 10
29.99943758561704
 20
11.48828696083073
 30
0.0
 10
29.99998708596909
 20
11.8923227115052
 30
0.0
 10
29.99998190891825
 20
12.03403623295322
 30
0.0
 10
29.99998937019957
 20
12.1758629599435
 30
0.0
  0
SPLINE
  5
87E5
330
87DB
100
AcDbEntity
  8
0
100
AcDbSpline
210
0.0
220
0.0
230
1.0
 70
     8
 71
     3
 72
    12
 73
     8
 74
     0
 42
0.000000001
 43
0.0000000001
 40
0.0
 40
0.0
 40
0.0
 40
0.0
 40
0.0030444953498268
 40
0.0030444953498268
 40
0.0059484402631429
 40
0.0059484402631429
 40
0.0076998808246853
 40
0.0076998808246853
 40
0.0076998808246853
 40
0.0076998808246853
 10
29.99994094380467
 20
9.999999866519219
 30
0.0
 10
29.9999287910777
 20
10.00696353295092
 30
0.0
 10
29.99991750819955
 20
10.0127535042696
 30
0.0
 10
29.99989987691466
 20
10.0208715543543
 30
0.0
 10
29.99989321270226
 20
10.02345635064287
 30
0.0
 10
29.99988739352418
 20
10.02557939685949
 30
0.0
 10
29.99988626658521
 20
10.02594036136009
 30
0.0
 10
29.99988626658526
 20
10.02594036134264
 30
0.0
  0
SPLINE
  5
87E6
330
87DB
100
AcDbEntity
  8
0
100
AcDbSpline
210
0.0
220
0.0
230
1.0
 70
     8
 71
     3
 72
     8
 73
     4
 74
     0
 42
0.000000001
 43
0.0000000001
 40
0.0
 40
0.0
 40
0.0
 40
0.0
 40
0.0004175797800814
 40
0.0004175797800814
 40
0.0004175797800814
 40
0.0004175797800814
 10
34.60608748744886
 20
12.5624652987288
 30
0.0
 10
34.60571549269083
 20
12.56217719719084
 30
0.0
 10
34.60533668493029
 20
12.5618838751384
 30
0.0
 10
34.60495522081437
 20
12.56158845919362
 30
0.0
  0
SPLINE
  5
87E7
330
87DB
100
AcDbEntity
  8
0
100
AcDbSpline
210
0.0
220
0.0
230
1.0
 70
     8
 71
     3
 72
     8
 73
     4
 74
     0
 42
0.000000001
 43
0.0000000001
 40
0.0
 40
0.0
 40
0.0
 40
0.0
 40
0.0006732114000045
 40
0.0006732114000045
 40
0.0006732114000045
 40
0.0006732114000045
 10
34.60610302684229
 20
12.56244731317944
 30
0.0
 10
34.60468696697002
 20
12.56130722804098
 30
0.0
 10
34.60321000837176
 20
12.56011946381037
 30
0.0
 10
34.60168732652248
 20
12.55889643449703
 30
0.0
  0
LINE
  5
87E8
330
87DB
100
AcDbEntity
  8
0
100
AcDbLine
 10
27.99999999999999
 20
-2.0
 30
0.0
 11
-27.99999999999999
 21
-2.000000000000003
 31
0.0
  0
LINE
  5
87E9
330
87DB
100
AcDbEntity
  8
0
100
AcDbLine
 10
-27.99999999999999
 20
0.0
 30
0.0
 11
27.99999999999999
 21
0.0
 31
0.0
  0
LINE
  5
87EA
330
87DB
100
AcDbEntity
  8
0
100
AcDbLine
 10
-34.0
 20
12.56249999999995
 30
0.0
 11
-32.0
 21
12.56249999999995
 31
0.0
  0
SPLINE
  5
87EB
330
87DB
100
AcDbEntity
  8
0
100
AcDbSpline
210
0.0
220
0.0
230
1.0
 70
     8
 71
     3
 72
    14
 73
    10
 74
     0
 42
0.000000001
 43
0.0000000001
 40
0.0
 40
0.0
 40
0.0
 40
0.0
 40
0.3435185598330248
 40
0.3435185598330248
 40
0.3435185598330248
 40
0.757013838864677
 40
0.757013838864677
 40
0.757013838864677
 40
0.9986524656798582
 40
0.9986524656798582
 40
0.9986524656798582
 40
0.9986524656798582
 10
-34.60606060606064
 20
12.56249999999995
 30
0.0
 10
-34.28490437776704
 20
12.30249346332017
 30
0.0
 10
-33.87245674614272
 20
12.07528977169215
 30
0.0
 10
-33.47646184525582
 20
11.84407447159542
 30
0.0
 10
-32.99980049072252
 20
11.56575927640958
 30
0.0
 10
-32.53725454065256
 20
11.27136286305494
 30
0.0
 10
-32.26239142283203
 20
10.85786784791074
 30
0.0
 10
-32.10176674409848
 20
10.61622937530628
 30
0.0
 10
-32.00111648508334
 20
10.36103839417599
 30
0.0
 10
-32.00000922987911
 20
10.00594994988948
 30
0.0
  0
SPLINE
  5
87EC
330
87DB
100
AcDbEntity
  8
0
100
AcDbSpline
210
0.0
220
0.0
230
1.0
 70
     8
 71
     3
 72
    30
 73
    26
 74
     0
 42
0.000000001
 43
0.0000000001
 40
0.0
 40
0.0
 40
0.0
 40
0.0
 40
0.0655513996111596
 40
0.0655513996111596
 40
0.147108580410447
 40
0.147108580410447
 40
0.1864949363680817
 40
0.1864949363680817
 40
0.2244264000635415
 40
0.2244264000635415
 40
0.2338931540060846
 40
0.2338931540060846
 40
0.2360421315822002
 40
0.2360421315822002
 40
0.2376761107132081
 40
0.2376761107132081
 40
0.239312718916706
 40
0.239312718916706
 40
0.2426366893566388
 40
0.2426366893566388
 40
0.2492656452630103
 40
0.2492656452630103
 40
0.2559083705658003
 40
0.2559083705658003
 40
0.2643717069149771
 40
0.2643717069149771
 40
0.2643717069149771
 40
0.2643717069149771
 10
-29.99998937019955
 20
12.17586295994644
 30
0.0
 10
-29.99997791487704
 20
11.95811605719855
 30
0.0
 10
-29.99997499599624
 20
11.73955104611273
 30
0.0
 10
-29.99847087045687
 20
11.27766021653061
 30
0.0
 10
-29.99618403849909
 20
11.03633561867405
 30
0.0
 10
-29.99399775311362
 20
10.72033846718224
 30
0.0
 10
-29.99356174420901
 20
10.62409137672115
 30
0.0
 10
-29.99357531581432
 20
10.45119387897817
 30
0.0
 10
-29.99385397701831
 20
10.37644614838983
 30
0.0
 10
-29.99531453410409
 20
10.25916004895761
 30
0.0
 10
-29.99567939060441
 20
10.2336900079723
 30
0.0
 10
-29.99628189517329
 20
10.1977898603711
 30
0.0
 10
-29.99640074961797
 20
10.19090212783919
 30
0.0
 10
-29.99661976315467
 20
10.17853715296514
 30
0.0
 10
-29.99671829927065
 20
10.17307686545536
 30
0.0
 10
-29.99691819147774
 20
10.16217704870175
 30
0.0
 10
-29.99702051810518
 20
10.1566849600494
 30
0.0
 10
-29.99732539131344
 20
10.14051371460356
 30
0.0
 10
-29.99752614242649
 20
10.13012392534681
 30
0.0
 10
-29.99806193230606
 20
10.10259271582564
 30
0.0
 10
-29.99835888444156
 20
10.08755524813353
 30
0.0
 10
-29.99888986310559
 20
10.06027099391042
 30
0.0
 10
-29.99912802460461
 20
10.04785041866487
 30
0.0
 10
-29.99959811291053
 20
10.0227647637311
 30
0.0
 10
-29.99981347016922
 20
10.01073788924934
 30
0.0
 10
-29.9999340791647
 20
10.00381431415937
 30
0.0
  0
SPLINE
  5
87ED
330
87DB
100
AcDbEntity
  8
0
100
AcDbSpline
210
0.0
220
0.0
230
1.0
 70
     8
 71
     3
 72
     8
 73
     4
 74
     0
 42
0.000000001
 43
0.0000000001
 40
0.0195591966729936
 40
0.0195591966729936
 40
0.0195591966729936
 40
0.0195591966729936
 40
0.0211163438571362
 40
0.0211163438571362
 40
0.0211163438571362
 40
0.0211163438571362
 10
-29.99957522640568
 20
10.01307778051096
 30
0.0
 10
-29.99957087694073
 20
10.0088617546758
 30
0.0
 10
-29.99956567564432
 20
10.0044860198877
 30
0.0
 10
-29.99955984654367
 20
10.00000111615404
 30
0.0
  0
SPLINE
  5
87EE
330
87DB
100
AcDbEntity
  8
0
100
AcDbSpline
210
0.0
220
0.0
230
1.0
 70
     8
 71
     3
 72
    16
 73
    12
 74
     0
 42
0.000000001
 43
0.0000000001
 40
0.0328453671119169
 40
0.0328453671119169
 40
0.0328453671119169
 40
0.0328453671119169
 40
0.0346121749408335
 40
0.0346121749408335
 40
0.0362943918575873
 40
0.0362943918575873
 40
0.0388726354851166
 40
0.0388726354851166
 40
0.0410449487291902
 40
0.0410449487291902
 40
0.04291285963409
 40
0.04291285963409
 40
0.04291285963409
 40
0.04291285963409
 10
-29.99842789914776
 20
10.0839834950558
 30
0.0
 10
-29.99847484521512
 20
10.08119158264499
 30
0.0
 10
-29.99852835647855
 20
10.07799109635719
 30
0.0
 10
-29.99864665532355
 20
10.07086662695437
 30
0.0
 10
-29.99871142259388
 20
10.06694586513964
 30
0.0
 10
-29.99889097014442
 20
10.05600293370897
 30
0.0
 10
-29.9990175741328
 20
10.04822182328743
 30
0.0
 10
-29.99925928463504
 20
10.03315935056957
 30
0.0
 10
-29.99937543018226
 20
10.02584026818306
 30
0.0
 10
-29.99958650293961
 20
10.01237473117483
 30
0.0
 10
-29.99968328049968
 20
10.00613799494063
 30
0.0
 10
-29.99977770485153
 20
9.999996581616091
 30
0.0
  0
SPLINE
  5
87EF
330
87DB
100
AcDbEntity
  8
0
100
AcDbSpline
210
0.0
220
0.0
230
1.0
 70
     8
 71
     3
 72
    12
 73
     8
 74
     0
 42
0.000000001
 43
0.0000000001
 40
0.0138145630638584
 40
0.0138145630638584
 40
0.0138145630638584
 40
0.0138145630638584
 40
0.01699199774784
 40
0.01699199774784
 40
0.0189384595083376
 40
0.0189384595083376
 40
0.0215156446046398
 40
0.0215156446046398
 40
0.0215156446046398
 40
0.0215156446046398
 10
-29.99988626658526
 20
10.02594036134093
 30
0.0
 10
-29.9998862666272
 20
10.02594034782704
 30
0.0
 10
-29.99989009832575
 20
10.02472197078631
 30
0.0
 10
-29.99990126035974
 20
10.02016542611031
 30
0.0
 10
-29.99990666427699
 20
10.01781767437323
 30
0.0
 10
-29.99992101843327
 20
10.01095160622623
 30
0.0
 10
-29.99993065644233
 20
10.00589465540258
 30
0.0
 10
-29.99994094380467
 20
9.999999866519219
 30
0.0
  0
SPLINE
  5
87F0
330
87DB
100
AcDbEntity
  8
0
100
AcDbSpline
210
0.0
220
0.0
230
1.0
 70
     8
 71
     3
 72
    16
 73
    12
 74
     0
 42
0.000000001
 43
0.0000000001
 40
0.0
 40
0.0
 40
0.0
 40
0.0
 40
0.0041147701486544
 40
0.0041147701486544
 40
0.0050669104885269
 40
0.0050669104885269
 40
0.0058958097660538
 40
0.0058958097660538
 40
0.0067234516745549
 40
0.0067234516745549
 40
0.0081601476137586
 40
0.0081601476137586
 40
0.0081601476137586
 40
0.0081601476137586
 10
-32.00007431501587
 20
10.00000007787121
 30
0.0
 10
-32.00005236030848
 20
10.01348321183066
 30
0.0
 10
-32.00007089001999
 20
10.02743611959269
 30
0.0
 10
-32.00015518626414
 20
10.04264323912511
 30
0.0
 10
-32.00017334253739
 20
10.04537391443371
 30
0.0
 10
-32.00020680359956
 20
10.04980909453579
 30
0.0
 10
-32.00022231882136
 20
10.05162998388501
 30
0.0
 10
-32.00024914482378
 20
10.0545766917952
 30
0.0
 10
-32.00026066603022
 20
10.05573299467349
 30
0.0
 10
-32.00028457044067
 20
10.05805391643078
 30
0.0
 10
-32.00029164702538
 20
10.05864902333901
 30
0.0
 10
-32.00029164702529
 20
10.05864902333049
 30
0.0
  0
SPLINE
  5
87F1
330
87DB
100
AcDbEntity
  8
0
100
AcDbSpline
210
0.0
220
0.0
230
1.0
 70
     8
 71
     3
 72
    18
 73
    14
 74
     0
 42
0.000000001
 43
0.0000000001
 40
0.0
 40
0.0
 40
0.0
 40
0.0
 40
0.0020456842367811
 40
0.0020456842367811
 40
0.003710379888384
 40
0.003710379888384
 40
0.0047886574386713
 40
0.0047886574386713
 40
0.005405858030038
 40
0.005405858030038
 40
0.0056713593860847
 40
0.0056713593860847
 40
0.0057658587648033
 40
0.0057658587648033
 40
0.0057658587648033
 40
0.0057658587648033
 10
-32.00000948370926
 20
10.00000001349921
 30
0.0
 10
-32.00000131162409
 20
10.00669084888692
 30
0.0
 10
-32.00000211672948
 20
10.01335086228841
 30
0.0
 10
-32.00001995709021
 20
10.02478352029955
 30
0.0
 10
-32.00003405059712
 20
10.02972464693435
 30
0.0
 10
-32.00006334256401
 20
10.03706867841563
 30
0.0
 10
-32.0000772732225
 20
10.03991934621475
 30
0.0
 10
-32.00009604289412
 20
10.04334273315878
 30
0.0
 10
-32.00010217954266
 20
10.04437249637413
 30
0.0
 10
-32.00010716091187
 20
10.04519218280554
 30
0.0
 10
-32.00010818416266
 20
10.04535741761714
 30
0.0
 10
-32.00010876159648
 20
10.04545062479364
 30
0.0
 10
-32.00010883935384
 20
10.04546313699447
 30
0.0
 10
-32.00010883933714
 20
10.0454631343073
 30
0.0
  0
SPLINE
  5
87F2
330
87DB
100
AcDbEntity
  8
0
100
AcDbSpline
210
0.0
220
0.0
230
1.0
 70
     8
 71
     3
 72
     8
 73
     4
 74
     0
 42
0.000000001
 43
0.0000000001
 40
0.0
 40
0.0
 40
0.0
 40
0.0
 40
0.0007418618435643
 40
0.0007418618435643
 40
0.0007418618435643
 40
0.0007418618435643
 10
-32.00001228473436
 20
9.99999999359673
 30
0.0
 10
-32.00000823587396
 20
10.00154343846242
 30
0.0
 10
-32.00000411639137
 20
10.00317715697698
 30
0.0
 10
-31.99999998544275
 20
10.0048579890708
 30
0.0
  0
SPLINE
  5
87F3
330
87DB
100
AcDbEntity
  8
0
100
AcDbSpline
210
0.0
220
0.0
230
1.0
 70
     8
 71
     3
 72
     8
 73
     4
 74
     0
 42
0.000000001
 43
0.0000000001
 40
0.2821157139088896
 40
0.2821157139088896
 40
0.2821157139088896
 40
0.2821157139088896
 40
0.2827891218861106
 40
0.2827891218861106
 40
0.2827891218861106
 40
0.2827891218861106
 10
-34.60168882155749
 20
12.55889777753536
 30
0.0
 10
-34.60321178745819
 20
12.5601210350009
 30
0.0
 10
-34.60468655348163
 20
12.561306895137
 30
0.0
 10
-34.60610302684229
 20
12.56244731317945
 30
0.0
  0
SPLINE
  5
87F4
330
87DB
100
AcDbEntity
  8
0
100
AcDbSpline
210
0.0
220
0.0
230
1.0
 70
     8
 71
     3
 72
     8
 73
     4
 74
     0
 42
0.000000001
 43
0.0000000001
 40
0.018488637208986
 40
0.018488637208986
 40
0.018488637208986
 40
0.018488637208986
 40
0.0189064924589799
 40
0.0189064924589799
 40
0.0189064924589799
 40
0.0189064924589799
 10
-34.60495654410912
 20
12.56158945169509
 30
0.0
 10
-34.60533777059011
 20
12.56188468360908
 30
0.0
 10
-34.6057152472925
 20
12.56217700713539
 30
0.0
 10
-34.60608748744885
 20
12.56246529872879
 30
0.0
  0
ARC
  5
87F5
330
87DB
100
AcDbEntity
  8
0
100
AcDbCircle
 10
-27.99999999999999
 20
2.0
 30
0.0
 40
4.000000000000003
100
AcDbArc
 50
180.0
 51
270.0
  0
ARC
  5
87F6
330
87DB
100
AcDbEntity
  8
0
100
AcDbCircle
 10
-27.99999999999999
 20
2.0
 30
0.0
 40
2.000000000000001
100
AcDbArc
 50
180.0
 51
270.0
  0
ARC
  5
87F7
330
87DB
100
AcDbEntity
  8
0
100
AcDbCircle
 10
27.99999999999999
 20
2.0
 30
0.0
 40
4.000000000000003
100
AcDbArc
 50
270.0
 51
0.0
  0
LINE
  5
87F8
330
87DB
100
AcDbEntity
  8
0
100
AcDbLine
 10
34.60606060606065
 20
12.56249999999994
 30
0.0
 11
71.50000000000004
 21
42.99999999999997
 31
0.0
  0
LINE
  5
87F9
330
87DB
100
AcDbEntity
  8
0
100
AcDbLine
 10
29.99999999999998
 20
10.0
 30
0.0
 11
30.0
 21
42.99999999999997
 31
0.0
  0
LINE
  5
87FA
330
87DB
100
AcDbEntity
  8
0
100
AcDbLine
 10
31.99999999999999
 20
10.0
 30
0.0
 11
29.99999999999998
 21
10.0
 31
0.0
  0
LINE
  5
87FB
330
87DB
100
AcDbEntity
  8
0
100
AcDbLine
 10
31.99999999999999
 20
42.99999999999997
 30
0.0
 11
31.99999999999999
 21
10.0
 31
0.0
  0
LINE
  5
87FC
330
87DB
100
AcDbEntity
  8
0
100
AcDbLine
 10
31.99999999999999
 20
42.99999999999997
 30
0.0
 11
30.0
 21
42.99999999999997
 31
0.0
  0
LINE
  5
87FD
330
87DB
100
AcDbEntity
  8
0
100
AcDbLine
 10
30.0
 20
42.99999999999997
 30
0.0
 11
30.0
 21
139.9999999999999
 31
0.0
  0
LINE
  5
87FE
330
87DB
100
AcDbEntity
  8
0
100
AcDbLine
 10
31.99999999999999
 20
139.9999999999999
 30
0.0
 11
31.99999999999999
 21
42.99999999999997
 31
0.0
  0
LINE
  5
87FF
330
87DB
100
AcDbEntity
  8
0
100
AcDbLine
 10
30.0
 20
139.9999999999999
 30
0.0
 11
31.99999999999999
 21
139.9999999999999
 31
0.0
  0
LINE
  5
8800
330
87DB
100
AcDbEntity
  8
0
100
AcDbLine
 10
31.99999999999999
 20
10.0
 30
0.0
 11
31.99999999999999
 21
2.0
 31
0.0
  0
LINE
  5
8801
330
87DB
100
AcDbEntity
  8
0
100
AcDbLine
 10
29.99999999999998
 20
2.0
 30
0.0
 11
29.99999999999998
 21
10.0
 31
0.0
  0
ARC
  5
8802
330
87DB
100
AcDbEntity
  8
0
100
AcDbCircle
 10
27.99999999999999
 20
2.0
 30
0.0
 40
2.000000000000001
100
AcDbArc
 50
270.0
 51
0.0
  0
LINE
  5
8803
330
87DB
100
AcDbEntity
  8
0
100
AcDbLine
 10
33.99999999999999
 20
140.0
 30
0.0
 11
32.0
 21
140.0
 31
0.0
  0
LINE
  5
8804
330
87DB
100
AcDbEntity
  8
0
100
AcDbLine
 10
71.50000000000004
 20
42.99999999999997
 30
0.0
 11
71.5
 21
140.0
 31
0.0
  0
LINE
  5
8805
330
87DB
100
AcDbEntity
  8
0
100
AcDbLine
 10
71.5
 20
140.0
 30
0.0
 11
33.99999999999999
 21
140.0
 31
0.0
  0
CIRCLE
  5
8806
330
87DB
100
AcDbEntity
  8
0
100
AcDbCircle
 10
51.99999999999999
 20
120.0
 30
0.0
 40
6.5
  0
CIRCLE
  5
8807
330
87DB
100
AcDbEntity
  8
0
100
AcDbCircle
 10
62.99999999999998
 20
125.0
 30
0.0
 40
2.5
  0
LINE
  5
8808
330
87DB
100
AcDbEntity
  8
0
100
AcDbLine
 10
-71.50000000000004
 20
42.99999999999997
 30
0.0
 11
-34.60606060606065
 21
12.56249999999994
 31
0.0
  0
LINE
  5
8809
330
87DB
100
AcDbEntity
  8
0
100
AcDbLine
 10
-30.0
 20
42.99999999999997
 30
0.0
 11
-29.99999999999998
 21
10.0
 31
0.0
  0
LINE
  5
880A
330
87DB
100
AcDbEntity
  8
0
100
AcDbLine
 10
-31.99999999999999
 20
42.99999999999997
 30
0.0
 11
-30.0
 21
42.99999999999997
 31
0.0
  0
LINE
  5
880B
330
87DB
100
AcDbEntity
  8
0
100
AcDbLine
 10
-31.99999999999999
 20
10.0
 30
0.0
 11
-31.99999999999999
 21
42.99999999999997
 31
0.0
  0
LINE
  5
880C
330
87DB
100
AcDbEntity
  8
0
100
AcDbLine
 10
-29.99999999999998
 20
10.0
 30
0.0
 11
-31.99999999999999
 21
10.0
 31
0.0
  0
LINE
  5
880D
330
87DB
100
AcDbEntity
  8
0
100
AcDbLine
 10
-30.0
 20
139.9999999999999
 30
0.0
 11
-30.0
 21
42.99999999999997
 31
0.0
  0
LINE
  5
880E
330
87DB
100
AcDbEntity
  8
0
100
AcDbLine
 10
-31.99999999999999
 20
139.9999999999999
 30
0.0
 11
-30.0
 21
139.9999999999999
 31
0.0
  0
LINE
  5
880F
330
87DB
100
AcDbEntity
  8
0
100
AcDbLine
 10
-31.99999999999999
 20
42.99999999999997
 30
0.0
 11
-31.99999999999999
 21
139.9999999999999
 31
0.0
  0
CIRCLE
  5
8810
330
87DB
100
AcDbEntity
  8
0
100
AcDbCircle
 10
-51.99999999999999
 20
50.0
 30
0.0
 40
6.5
  0
CIRCLE
  5
8811
330
87DB
100
AcDbEntity
  8
0
100
AcDbCircle
 10
51.99999999999999
 20
50.0
 30
0.0
 40
6.5
  0
CIRCLE
  5
8812
330
87DB
100
AcDbEntity
  8
0
100
AcDbCircle
 10
-51.99999999999999
 20
120.0
 30
0.0
 40
6.5
  0
CIRCLE
  5
8813
330
87DB
100
AcDbEntity
  8
0
100
AcDbCircle
 10
-40.99999999999998
 20
35.0
 30
0.0
 40
2.5
  0
CIRCLE
  5
8814
330
87DB
100
AcDbEntity
  8
0
100
AcDbCircle
 10
-40.99999999999998
 20
55.0
 30
0.0
 40
2.5
  0
CIRCLE
  5
8815
330
87DB
100
AcDbEntity
  8
0
100
AcDbCircle
 10
-40.99999999999998
 20
75.0
 30
0.0
 40
2.5
  0
CIRCLE
  5
8816
330
87DB
100
AcDbEntity
  8
0
100
AcDbCircle
 10
-40.99999999999998
 20
95.0
 30
0.0
 40
2.5
  0
CIRCLE
  5
8817
330
87DB
100
AcDbEntity
  8
0
100
AcDbCircle
 10
-40.99999999999998
 20
115.0
 30
0.0
 40
2.5
  0
CIRCLE
  5
8818
330
87DB
100
AcDbEntity
  8
0
100
AcDbCircle
 10
40.99999999999998
 20
35.0
 30
0.0
 40
2.5
  0
CIRCLE
  5
8819
330
87DB
100
AcDbEntity
  8
0
100
AcDbCircle
 10
40.99999999999998
 20
55.0
 30
0.0
 40
2.5
  0
CIRCLE
  5
881A
330
87DB
100
AcDbEntity
  8
0
100
AcDbCircle
 10
40.99999999999998
 20
75.0
 30
0.0
 40
2.5
  0
CIRCLE
  5
881B
330
87DB
100
AcDbEntity
  8
0
100
AcDbCircle
 10
40.99999999999998
 20
95.0
 30
0.0
 40
2.5
  0
CIRCLE
  5
881C
330
87DB
100
AcDbEntity
  8
0
100
AcDbCircle
 10
40.99999999999998
 20
115.0
 30
0.0
 40
2.5
  0
CIRCLE
  5
881D
330
87DB
100
AcDbEntity
  8
0
100
AcDbCircle
 10
-40.99999999999998
 20
135.0
 30
0.0
 40
2.5
  0
CIRCLE
  5
881E
330
87DB
100
AcDbEntity
  8
0
100
AcDbCircle
 10
40.99999999999998
 20
135.0
 30
0.0
 40
2.5
  0
CIRCLE
  5
881F
330
87DB
100
AcDbEntity
  8
0
100
AcDbCircle
 10
-62.99999999999998
 20
45.0
 30
0.0
 40
2.5
  0
CIRCLE
  5
8820
330
87DB
100
AcDbEntity
  8
0
100
AcDbCircle
 10
-62.99999999999998
 20
65.0
 30
0.0
 40
2.5
  0
CIRCLE
  5
8821
330
87DB
100
AcDbEntity
  8
0
100
AcDbCircle
 10
-62.99999999999998
 20
85.0
 30
0.0
 40
2.5
  0
CIRCLE
  5
8822
330
87DB
100
AcDbEntity
  8
0
100
AcDbCircle
 10
-62.99999999999998
 20
105.0
 30
0.0
 40
2.5
  0
CIRCLE
  5
8823
330
87DB
100
AcDbEntity
  8
0
100
AcDbCircle
 10
62.99999999999998
 20
45.0
 30
0.0
 40
2.5
  0
CIRCLE
  5
8824
330
87DB
100
AcDbEntity
  8
0
100
AcDbCircle
 10
62.99999999999998
 20
65.0
 30
0.0
 40
2.5
  0
CIRCLE
  5
8825
330
87DB
100
AcDbEntity
  8
0
100
AcDbCircle
 10
62.99999999999998
 20
85.0
 30
0.0
 40
2.5
  0
CIRCLE
  5
8826
330
87DB
100
AcDbEntity
  8
0
100
AcDbCircle
 10
62.99999999999998
 20
105.0
 30
0.0
 40
2.5
  0
CIRCLE
  5
8827
330
87DB
100
AcDbEntity
  8
0
100
AcDbCircle
 10
-62.99999999999998
 20
125.0
 30
0.0
 40
2.5
  0
LINE
  5
8828
330
87DB
100
AcDbEntity
  8
0
100
AcDbLine
 10
-71.5
 20
140.0
 30
0.0
 11
-33.99999999999999
 21
140.0
 31
0.0
  0
LINE
  5
8829
330
87DB
100
AcDbEntity
  8
0
100
AcDbLine
 10
-71.50000000000004
 20
42.99999999999997
 30
0.0
 11
-71.5
 21
140.0
 31
0.0
  0
LINE
  5
882A
330
87DB
100
AcDbEntity
  8
0
100
AcDbLine
 10
-29.99999999999998
 20
2.0
 30
0.0
 11
-29.99999999999998
 21
10.0
 31
0.0
  0
LINE
  5
882B
330
87DB
100
AcDbEntity
  8
0
100
AcDbLine
 10
-31.99999999999999
 20
10.0
 30
0.0
 11
-31.99999999999999
 21
2.0
 31
0.0
  0
LINE
  5
882C
330
87DB
100
AcDbEntity
  8
0
100
AcDbLine
 10
-33.99999999999999
 20
140.0
 30
0.0
 11
-32.0
 21
140.0
 31
0.0
  0
ENDBLK
  5
87DD
330
87DB
100
AcDbEntity
  8
0
100
AcDbBlockEnd
  0
BLOCK
  5
882E
330
882D
100
AcDbEntity
  8
0
100
AcDbBlockBegin
  2
SAE340_60_2-Left
 70
     0
 10
0.0
 20
0.0
 30
0.0
  3
SAE340_60_2-Left
  1

  0
LINE
  5
8830
330
882D
100
AcDbEntity
  8
0
100
AcDbLine
 10
2.000000000000005
 20
-2.0
 30
0.0
 11
86.00000000000001
 21
-2.000000000000003
 31
0.0
  0
LINE
  5
8831
330
882D
100
AcDbEntity
  8
0
100
AcDbLine
 10
2.000000000000012
 20
2.000000000000004
 30
0.0
 11
2.000000000000005
 21
-1.999999999999999
 31
0.0
  0
LINE
  5
8832
330
882D
100
AcDbEntity
  8
0
100
AcDbLine
 10
86.00000000000001
 20
-2.000000000000003
 30
0.0
 11
86.00000000000001
 21
2.0
 31
0.0
  0
SPLINE
  5
8833
330
882D
100
AcDbEntity
  8
0
100
AcDbSpline
210
0.0
220
0.0
230
1.0
 70
     8
 71
     3
 72
    14
 73
    10
 74
     0
 42
0.000000001
 43
0.0000000001
 40
-0.4812947826585175
 40
-0.4812947826585175
 40
-0.4812947826585175
 40
-0.4812947826585175
 40
-0.3760548405701244
 40
-0.3760548405701244
 40
-0.3760548405701244
 40
-0.0764956636405383
 40
-0.0764956636405383
 40
-0.0764956636405383
 40
0.0
 40
0.0
 40
0.0
 40
0.0
 10
0.9453931030589933
 20
11.73176443993407
 30
0.0
 10
0.8407778630271131
 20
11.76869255411381
 30
0.0
 10
0.7370280984356958
 20
11.80056667972261
 30
0.0
 10
0.6387472629443629
 20
11.83427526822552
 30
0.0
 10
0.3589967651437487
 20
11.93022474165748
 30
0.0
 10
0.1216595940158009
 20
12.04007652482728
 30
0.0
 10
0.0342334975174002
 20
12.314524055926
 30
0.0
 10
0.0119083017424135
 20
12.3846071902205
 30
0.0
 10
0.0000045433204815
 20
12.46773705179181
 30
0.0
 10
0.0000000001152103
 20
12.56250000004005
 30
0.0
  0
SPLINE
  5
8834
330
882D
100
AcDbEntity
  8
0
100
AcDbSpline
210
0.0
220
0.0
230
1.0
 70
     8
 71
     3
 72
    14
 73
    10
 74
     0
 42
0.000000001
 43
0.0000000001
 40
0.0
 40
0.0
 40
0.0
 40
0.0
 40
0.3435185598330248
 40
0.3435185598330248
 40
0.3435185598330248
 40
0.757013838864677
 40
0.757013838864677
 40
0.757013838864677
 40
1.0
 40
1.0
 40
1.0
 40
1.0
 10
2.000000000000007
 20
12.56249999999995
 30
0.0
 10
2.000036880043579
 20
12.30249346332017
 30
0.0
 10
1.996834397684452
 20
12.07528977169215
 30
0.0
 10
1.998675842003752
 20
11.84407447159542
 30
0.0
 10
2.000892399190648
 20
11.56575927640958
 30
0.0
 10
2.001069140210785
 20
11.27136286305494
 30
0.0
 10
2.001123280650577
 20
10.85786784791074
 30
0.0
 10
2.001155095711822
 20
10.61488184184612
 30
0.0
 10
2.000250522859214
 20
10.35819175056184
 30
0.0
 10
1.999999999992519
 20
10.00000000165264
 30
0.0
  0
LINE
  5
8835
330
882D
100
AcDbEntity
  8
0
100
AcDbLine
 10
0.0
 20
12.56249999999995
 30
0.0
 11
2.000000000000008
 21
12.56249999999995
 31
0.0
  0
SPLINE
  5
8836
330
882D
100
AcDbEntity
  8
0
100
AcDbSpline
210
0.0
220
0.0
230
1.0
 70
     8
 71
     3
 72
    18
 73
    14
 74
     0
 42
0.000000001
 43
0.0000000001
 40
0.0
 40
0.0
 40
0.0
 40
0.0
 40
0.0048729671372876
 40
0.0048729671372876
 40
0.0070353821196862
 40
0.0070353821196862
 40
0.0087994749874828
 40
0.0087994749874828
 40
0.0102139388699529
 40
0.0102139388699529
 40
0.0113405492798678
 40
0.0113405492798678
 40
0.0120695907490878
 40
0.0120695907490878
 40
0.0120695907490878
 40
0.0120695907490878
 10
1.999551536423682
 20
9.999998570083715
 30
0.0
 10
1.999501455261152
 20
10.01555893162752
 30
0.0
 10
1.999399311237753
 20
10.03064387495296
 30
0.0
 10
1.999203740487974
 20
10.04934394062755
 30
0.0
 10
1.999136854850824
 20
10.05473692732203
 30
0.0
 10
1.999013998696496
 20
10.06343421114707
 30
0.0
 10
1.998957798438351
 20
10.0669746686394
 30
0.0
 10
1.99886616390339
 20
10.07230596051556
 30
0.0
 10
1.998828540631364
 20
10.07432314511581
 30
0.0
 10
1.99877556164276
 20
10.07703972280782
 30
0.0
 10
1.998757115883606
 20
10.07793180565594
 30
0.0
 10
1.998739470221011
 20
10.07876888588408
 30
0.0
 10
1.998735706105127
 20
10.07894058273572
 30
0.0
 10
1.99873570609629
 20
10.07894058313927
 30
0.0
  0
SPLINE
  5
8837
330
882D
100
AcDbEntity
  8
0
100
AcDbSpline
210
0.0
220
0.0
230
1.0
 70
     8
 71
     3
 72
    12
 73
     8
 74
     0
 42
0.000000001
 43
0.0000000001
 40
0.006323916854525
 40
0.006323916854525
 40
0.006323916854525
 40
0.006323916854525
 40
0.0066536744747381
 40
0.0066536744747381
 40
0.0086398637348725
 40
0.0086398637348725
 40
0.0087253469353528
 40
0.0087253469353528
 40
0.0087253469353528
 40
0.0087253469353528
 10
1.999399054355861
 20
10.02857759079496
 30
0.0
 10
1.999392884239381
 20
10.02884127815657
 30
0.0
 10
1.999387053970757
 20
10.02908879963189
 30
0.0
 10
1.999348675825993
 20
10.03070956773311
 30
0.0
 10
1.999329089675685
 20
10.03149445616747
 30
0.0
 10
1.999327499326664
 20
10.0315585868592
 30
0.0
 10
1.999327466375855
 20
10.03155991427431
 30
0.0
 10
1.999327466389969
 20
10.03155991370573
 30
0.0
  0
SPLINE
  5
8838
330
882D
100
AcDbEntity
  8
0
100
AcDbSpline
210
0.0
220
0.0
230
1.0
 70
     8
 71
     3
 72
    32
 73
    28
 74
     0
 42
0.000000001
 43
0.0000000001
 40
0.004564712964672
 40
0.004564712964672
 40
0.004564712964672
 40
0.004564712964672
 40
0.0070673478697979
 40
0.0070673478697979
 40
0.009730252361463
 40
0.009730252361463
 40
0.0113867362586714
 40
0.0113867362586714
 40
0.0131313856244679
 40
0.0131313856244679
 40
0.0155636926390562
 40
0.0155636926390562
 40
0.02120528660229
 40
0.02120528660229
 40
0.0381194972960629
 40
0.0381194972960629
 40
0.0891487787569352
 40
0.0891487787569352
 40
0.1164039100433282
 40
0.1164039100433282
 40
0.1533844625918917
 40
0.1533844625918917
 40
0.1869859086433084
 40
0.1869859086433084
 40
0.2293223966970745
 40
0.2293223966970745
 40
0.2446953932712078
 40
0.2446953932712078
 40
0.2446953932712078
 40
0.2446953932712078
 10
1.999436008012854
 20
10.02343351941086
 30
0.0
 10
1.999332404454319
 20
10.02730053133713
 30
0.0
 10
1.999227682539691
 20
10.03099629527021
 30
0.0
 10
1.998981968469688
 20
10.03919370930611
 30
0.0
 10
1.99883796192666
 20
10.04380822125399
 30
0.0
 10
1.99850172391825
 20
10.05367272499403
 30
0.0
 10
1.998344226477146
 20
10.05811386846314
 30
0.0
 10
1.99797221497018
 20
10.0679862705128
 30
0.0
 10
1.997753619569291
 20
10.07349135449239
 30
0.0
 10
1.99719039765843
 20
10.08684376391794
 30
0.0
 10
1.996826631607635
 20
10.09485280963689
 30
0.0
 10
1.995525627716902
 20
10.12144433149735
 30
0.0
 10
1.994458470430639
 20
10.14020064493888
 30
0.0
 10
1.989568500856858
 20
10.21499701433653
 30
0.0
 10
1.984487834751292
 20
10.27097240692051
 30
0.0
 10
1.957792707963514
 20
10.49421326207521
 30
0.0
 10
1.923086045640634
 20
10.6627659070312
 30
0.0
 10
1.836502516362262
 20
10.90877550653654
 30
0.0
 10
1.799737008248083
 20
10.99265579028144
 30
0.0
 10
1.698972349538365
 20
11.17634306584383
 30
0.0
 10
1.628286278958854
 20
11.27300412723307
 30
0.0
 10
1.483812340040225
 20
11.42613744279505
 30
0.0
 10
1.409906466289955
 20
11.48742802796597
 30
0.0
 10
1.24207381426103
 20
11.60220040656596
 30
0.0
 10
1.14600394478311
 20
11.65141674905516
 30
0.0
 10
1.013489403633968
 20
11.70647586424635
 30
0.0
 10
0.9779533303093181
 20
11.7199898773456
 30
0.0
 10
0.9420664873533144
 20
11.73260544764763
 30
0.0
  0
LINE
  5
8839
330
882D
100
AcDbEntity
  8
0
100
AcDbLine
 10
2.000000000000012
 20
2.000000000000003
 30
0.0
 11
2.000000000000012
 21
10.0
 31
0.0
  0
LINE
  5
883A
330
882D
100
AcDbEntity
  8
0
100
AcDbLine
 10
1.999999999999992
 20
42.99999999999997
 30
0.0
 11
2.000000000000008
 21
12.56249999999994
 31
0.0
  0
LINE
  5
883B
330
882D
100
AcDbEntity
  8
0
100
AcDbLine
 10
0.0
 20
42.99999999999997
 30
0.0
 11
1.999999999999992
 21
42.99999999999997
 31
0.0
  0
LINE
  5
883C
330
882D
100
AcDbEntity
  8
0
100
AcDbLine
 10
0.0
 20
12.56249999999995
 30
0.0
 11
0.0
 21
42.99999999999997
 31
0.0
  0
LINE
  5
883D
330
882D
100
AcDbEntity
  8
0
100
AcDbLine
 10
86.00000000000003
 20
10.0
 30
0.0
 11
46.00000000000003
 21
42.99999999999997
 31
0.0
  0
LINE
  5
883E
330
882D
100
AcDbEntity
  8
0
100
AcDbLine
 10
46.00000000000003
 20
42.99999999999997
 30
0.0
 11
46.00000000000001
 21
139.9999999999999
 31
0.0
  0
LINE
  5
883F
330
882D
100
AcDbEntity
  8
0
100
AcDbLine
 10
1.999999999999992
 20
42.99999999999997
 30
0.0
 11
2.000000000000006
 21
140.0
 31
0.0
  0
LINE
  5
8840
330
882D
100
AcDbEntity
  8
0
100
AcDbLine
 10
86.00000000000003
 20
10.0
 30
0.0
 11
86.00000000000001
 21
2.0
 31
0.0
  0
LINE
  5
8841
330
882D
100
AcDbEntity
  8
0
100
AcDbLine
 10
4.000000000000003
 20
140.0
 30
0.0
 11
46.00000000000001
 21
139.9999999999999
 31
0.0
  0
LINE
  5
8842
330
882D
100
AcDbEntity
  8
0
100
AcDbLine
 10
0.0
 20
140.0
 30
0.0
 11
2.000000000000006
 21
140.0
 31
0.0
  0
LINE
  5
8843
330
882D
100
AcDbEntity
  8
0
100
AcDbLine
 10
0.0
 20
42.99999999999997
 30
0.0
 11
0.0
 21
140.0
 31
0.0
  0
LINE
  5
8844
330
882D
100
AcDbEntity
  8
0
100
AcDbLine
 10
2.000000000000007
 20
140.0
 30
0.0
 11
4.000000000000003
 21
140.0
 31
0.0
  0
CIRCLE
  5
8845
330
882D
100
AcDbEntity
  8
0
100
AcDbCircle
 10
38.50000000000001
 20
35.0
 30
0.0
 40
2.5
  0
CIRCLE
  5
8846
330
882D
100
AcDbEntity
  8
0
100
AcDbCircle
 10
38.50000000000001
 20
55.0
 30
0.0
 40
2.5
  0
CIRCLE
  5
8847
330
882D
100
AcDbEntity
  8
0
100
AcDbCircle
 10
38.50000000000001
 20
75.0
 30
0.0
 40
2.5
  0
CIRCLE
  5
8848
330
882D
100
AcDbEntity
  8
0
100
AcDbCircle
 10
38.50000000000001
 20
95.0
 30
0.0
 40
2.5
  0
CIRCLE
  5
8849
330
882D
100
AcDbEntity
  8
0
100
AcDbCircle
 10
38.50000000000001
 20
115.0
 30
0.0
 40
2.5
  0
CIRCLE
  5
884A
330
882D
100
AcDbEntity
  8
0
100
AcDbCircle
 10
38.50000000000001
 20
135.0
 30
0.0
 40
2.5
  0
SPLINE
  5
884B
330
882D
100
AcDbEntity
  8
0
100
AcDbSpline
210
0.0
220
0.0
230
1.0
 70
     8
 71
     3
 72
     8
 73
     4
 74
     0
 42
0.000000001
 43
0.0000000001
 40
0.0
 40
0.0
 40
0.0
 40
0.0
 40
0.0025091688883095
 40
0.0025091688883095
 40
0.0025091688883095
 40
0.0025091688883095
 10
1.999551536423682
 20
9.999998570083715
 30
0.0
 10
1.999525748830339
 20
10.00801084966135
 30
0.0
 10
1.999486860814022
 20
10.01590007715199
 30
0.0
 10
1.999436008012788
 20
10.02343351941085
 30
0.0
  0
ENDBLK
  5
882F
330
882D
100
AcDbEntity
  8
0
100
AcDbBlockEnd
  0
BLOCK
  5
884D
330
884C
100
AcDbEntity
  8
0
100
AcDbBlockBegin
  2
SAE340_60_2-Right
 70
     0
 10
0.0
 20
0.0
 30
0.0
  3
SAE340_60_2-Right
  1

  0
SPLINE
  5
884F
330
884C
100
AcDbEntity
  8
0
100
AcDbSpline
210
0.0
220
0.0
230
1.0
 70
     8
 71
     3
 72
    14
 73
    10
 74
     0
 42
0.000000001
 43
0.0000000001
 40
0.0
 40
0.0
 40
0.0
 40
0.0
 40
0.3435185598330248
 40
0.3435185598330248
 40
0.3435185598330248
 40
0.757013838864677
 40
0.757013838864677
 40
0.757013838864677
 40
1.0
 40
1.0
 40
1.0
 40
1.0
 10
-2.000000000000007
 20
12.56249999999995
 30
0.0
 10
-2.000036880043579
 20
12.30249346332017
 30
0.0
 10
-1.996834397684452
 20
12.07528977169215
 30
0.0
 10
-1.998675842003752
 20
11.84407447159542
 30
0.0
 10
-2.000892399190648
 20
11.56575927640958
 30
0.0
 10
-2.001069140210785
 20
11.27136286305494
 30
0.0
 10
-2.001123280650577
 20
10.85786784791074
 30
0.0
 10
-2.001155095711822
 20
10.61488184184612
 30
0.0
 10
-2.000250522859214
 20
10.35819175056184
 30
0.0
 10
-1.999999999992519
 20
10.00000000165264
 30
0.0
  0
SPLINE
  5
8850
330
884C
100
AcDbEntity
  8
0
100
AcDbSpline
210
0.0
220
0.0
230
1.0
 70
     8
 71
     3
 72
    14
 73
    10
 74
     0
 42
0.000000001
 43
0.0000000001
 40
-0.4812947826585086
 40
-0.4812947826585086
 40
-0.4812947826585086
 40
-0.4812947826585086
 40
-0.3760548405701244
 40
-0.3760548405701244
 40
-0.3760548405701244
 40
-0.0764956636405383
 40
-0.0764956636405383
 40
-0.0764956636405383
 40
0.0
 40
0.0
 40
0.0
 40
0.0
 10
-0.945393103058967
 20
11.73176443993408
 30
0.0
 10
-0.8407778630270957
 20
11.76869255411381
 30
0.0
 10
-0.7370280984356876
 20
11.80056667972261
 30
0.0
 10
-0.6387472629443629
 20
11.83427526822552
 30
0.0
 10
-0.3589967651437487
 20
11.93022474165748
 30
0.0
 10
-0.1216595940158009
 20
12.04007652482728
 30
0.0
 10
-0.0342334975174002
 20
12.314524055926
 30
0.0
 10
-0.0119083017424135
 20
12.3846071902205
 30
0.0
 10
-0.0000045433204815
 20
12.46773705179181
 30
0.0
 10
-0.0000000001152103
 20
12.56250000004005
 30
0.0
  0
LINE
  5
8851
330
884C
100
AcDbEntity
  8
0
100
AcDbLine
 10
-2.000000000000008
 20
12.56249999999995
 30
0.0
 11
0.0
 21
12.56249999999995
 31
0.0
  0
SPLINE
  5
8852
330
884C
100
AcDbEntity
  8
0
100
AcDbSpline
210
0.0
220
0.0
230
1.0
 70
     8
 71
     3
 72
    18
 73
    14
 74
     0
 42
0.000000001
 43
0.0000000001
 40
0.012274483058705
 40
0.012274483058705
 40
0.012274483058705
 40
0.012274483058705
 40
0.012792247664019
 40
0.012792247664019
 40
0.0141039698227506
 40
0.0141039698227506
 40
0.0167552321416315
 40
0.0167552321416315
 40
0.01938289992542
 40
0.01938289992542
 40
0.0227949751837409
 40
0.0227949751837409
 40
0.0243496808519543
 40
0.0243496808519543
 40
0.0243496808519543
 40
0.0243496808519543
 10
-1.998735706096226
 20
10.07894058314218
 30
0.0
 10
-1.998735706096962
 20
10.07894058310859
 30
0.0
 10
-1.998737581482991
 20
10.07885499785704
 30
0.0
 10
-1.998750171843706
 20
10.07826494217695
 30
0.0
 10
-1.998770288867272
 20
10.07730702858267
 30
0.0
 10
-1.998852036456316
 20
10.07312427130643
 30
0.0
 10
-1.998935149899456
 20
10.06852994821932
 30
0.0
 10
-1.999099882286014
 20
10.05760342138847
 30
0.0
 10
-1.999183729707406
 20
10.05116828763785
 30
0.0
 10
-1.999352847326558
 20
10.03519352394491
 30
0.0
 10
-1.999433043625248
 20
10.02512813660426
 30
0.0
 10
-1.999514685041957
 20
10.00985788596902
 30
0.0
 10
-1.999535558177767
 20
10.00496305714263
 30
0.0
 10
-1.999551536423682
 20
9.999998570083716
 30
0.0
  0
SPLINE
  5
8853
330
884C
100
AcDbEntity
  8
0
100
AcDbSpline
210
0.0
220
0.0
230
1.0
 70
     8
 71
     3
 72
    10
 73
     6
 74
     0
 42
0.000000001
 43
0.0000000001
 40
0.0086744412326774
 40
0.0086744412326774
 40
0.0086744412326774
 40
0.0086744412326774
 40
0.0108228418728486
 40
0.0108228418728486
 40
0.0110653810320774
 40
0.0110653810320774
 40
0.0110653810320774
 40
0.0110653810320774
 10
-1.999327466389847
 20
10.03155991371065
 30
0.0
 10
-1.999327466386457
 20
10.03155991384725
 30
0.0
 10
-1.999348975124556
 20
10.03070111133055
 30
0.0
 10
-1.99938989628475
 20
10.02896801301911
 30
0.0
 10
-1.999394241633738
 20
10.02878323015491
 30
0.0
 10
-1.999398770914034
 20
10.02858970286644
 30
0.0
  0
SPLINE
  5
8854
330
884C
100
AcDbEntity
  8
0
100
AcDbSpline
210
0.0
220
0.0
230
1.0
 70
     8
 71
     3
 72
    28
 73
    24
 74
     0
 42
0.000000001
 43
0.0000000001
 40
0.0
 40
0.0
 40
0.0
 40
0.0
 40
0.0650102908179237
 40
0.0650102908179237
 40
0.1023324561114466
 40
0.1023324561114466
 40
0.1414826668481021
 40
0.1414826668481021
 40
0.174906853778656
 40
0.174906853778656
 40
0.2169319592806616
 40
0.2169319592806616
 40
0.2285514099413453
 40
0.2285514099413453
 40
0.2315690563667809
 40
0.2315690563667809
 40
0.2331919919069925
 40
0.2331919919069925
 40
0.2348253005841827
 40
0.2348253005841827
 40
0.2381087445410844
 40
0.2381087445410844
 40
0.2399211410662734
 40
0.2399211410662734
 40
0.2399211410662734
 40
0.2399211410662734
 10
-0.9420664873532857
 20
11.73260544764763
 30
0.0
 10
-1.093827016659083
 20
11.67925593376372
 30
0.0
 10
-1.242360483935614
 20
11.60988808094403
 30
0.0
 10
-1.466477993068895
 20
11.44169360768764
 30
0.0
 10
-1.547435732571323
 20
11.36591310605125
 30
0.0
 10
-1.695468924322285
 20
11.18238000886036
 30
0.0
 10
-1.763077923672385
 20
11.07037577807902
 30
0.0
 10
-1.860502950930512
 20
10.85074525651038
 30
0.0
 10
-1.895818805721976
 20
10.74318475625263
 30
0.0
 10
-1.955916726917181
 20
10.49953783723997
 30
0.0
 10
-1.976610278802069
 20
10.36174277111562
 30
0.0
 10
-1.991711042845434
 20
10.18428158667098
 30
0.0
 10
-1.994294429522945
 20
10.14557044232877
 30
0.0
 10
-1.996717741705764
 20
10.09727766499939
 30
0.0
 10
-1.997175066403152
 20
10.08728935655013
 30
0.0
 10
-1.997792520308899
 20
10.07251513180185
 30
0.0
 10
-1.997993565941489
 20
10.06742630299832
 30
0.0
 10
-1.998348438880864
 20
10.05799511104099
 30
0.0
 10
-1.998503300314659
 20
10.05362629824437
 30
0.0
 10
-1.998886116817597
 20
10.04239581850546
 30
0.0
 10
-1.999047393445726
 20
10.03710762382233
 30
0.0
 10
-1.999276215804022
 20
10.02926309728005
 30
0.0
 10
-1.999356992647769
 20
10.02637076439398
 30
0.0
 10
-1.999436030053971
 20
10.02341152892084
 30
0.0
  0
LINE
  5
8855
330
884C
100
AcDbEntity
  8
0
100
AcDbLine
 10
-2.000000000000005
 20
-2.0
 30
0.0
 11
-86.00000000000001
 21
-2.0
 31
0.0
  0
LINE
  5
8856
330
884C
100
AcDbEntity
  8
0
100
AcDbLine
 10
-2.000000000000012
 20
2.000000000000003
 30
0.0
 11
-2.000000000000012
 21
10.0
 31
0.0
  0
LINE
  5
8857
330
884C
100
AcDbEntity
  8
0
100
AcDbLine
 10
-2.000000000000012
 20
2.000000000000004
 30
0.0
 11
-2.000000000000005
 21
-1.999999999999999
 31
0.0
  0
LINE
  5
8858
330
884C
100
AcDbEntity
  8
0
100
AcDbLine
 10
-86.00000000000001
 20
-2.000000000000003
 30
0.0
 11
-86.00000000000001
 21
2.0
 31
0.0
  0
LINE
  5
8859
330
884C
100
AcDbEntity
  8
0
100
AcDbLine
 10
0.0
 20
42.99999999999997
 30
0.0
 11
0.0
 21
12.56249999999995
 31
0.0
  0
LINE
  5
885A
330
884C
100
AcDbEntity
  8
0
100
AcDbLine
 10
-1.999999999999992
 20
42.99999999999997
 30
0.0
 11
0.0
 21
42.99999999999997
 31
0.0
  0
LINE
  5
885B
330
884C
100
AcDbEntity
  8
0
100
AcDbLine
 10
-2.000000000000008
 20
12.56249999999994
 30
0.0
 11
-1.999999999999992
 21
42.99999999999997
 31
0.0
  0
LINE
  5
885C
330
884C
100
AcDbEntity
  8
0
100
AcDbLine
 10
0.0
 20
42.99999999999997
 30
0.0
 11
0.0
 21
140.0
 31
0.0
  0
CIRCLE
  5
885D
330
884C
100
AcDbEntity
  8
0
100
AcDbCircle
 10
-38.50000000000002
 20
125.0
 30
0.0
 40
2.5
  0
LINE
  5
885E
330
884C
100
AcDbEntity
  8
0
100
AcDbLine
 10
-46.00000000000003
 20
42.99999999999997
 30
0.0
 11
-86.00000000000003
 21
10.0
 31
0.0
  0
LINE
  5
885F
330
884C
100
AcDbEntity
  8
0
100
AcDbLine
 10
-46.00000000000001
 20
139.9999999999999
 30
0.0
 11
-46.00000000000003
 21
42.99999999999997
 31
0.0
  0
LINE
  5
8860
330
884C
100
AcDbEntity
  8
0
100
AcDbLine
 10
-86.00000000000003
 20
10.0
 30
0.0
 11
-86.00000000000001
 21
2.0
 31
0.0
  0
LINE
  5
8861
330
884C
100
AcDbEntity
  8
0
100
AcDbLine
 10
-4.000000000000003
 20
140.0
 30
0.0
 11
-46.00000000000001
 21
139.9999999999999
 31
0.0
  0
LINE
  5
8862
330
884C
100
AcDbEntity
  8
0
100
AcDbLine
 10
-2.000000000000007
 20
140.0
 30
0.0
 11
-4.000000000000003
 21
140.0
 31
0.0
  0
LINE
  5
8863
330
884C
100
AcDbEntity
  8
0
100
AcDbLine
 10
0.0
 20
140.0
 30
0.0
 11
-2.000000000000006
 21
140.0
 31
0.0
  0
LINE
  5
8864
330
884C
100
AcDbEntity
  8
0
100
AcDbLine
 10
-1.999999999999992
 20
42.99999999999997
 30
0.0
 11
-2.000000000000006
 21
140.0
 31
0.0
  0
CIRCLE
  5
8865
330
884C
100
AcDbEntity
  8
0
100
AcDbCircle
 10
-38.50000000000002
 20
24.99999999999998
 30
0.0
 40
2.5
  0
CIRCLE
  5
8866
330
884C
100
AcDbEntity
  8
0
100
AcDbCircle
 10
-38.50000000000002
 20
44.99999999999999
 30
0.0
 40
2.5
  0
CIRCLE
  5
8867
330
884C
100
AcDbEntity
  8
0
100
AcDbCircle
 10
-38.50000000000002
 20
64.99999999999999
 30
0.0
 40
2.5
  0
CIRCLE
  5
8868
330
884C
100
AcDbEntity
  8
0
100
AcDbCircle
 10
-38.50000000000002
 20
84.99999999999998
 30
0.0
 40
2.5
  0
CIRCLE
  5
8869
330
884C
100
AcDbEntity
  8
0
100
AcDbCircle
 10
-38.50000000000002
 20
105.0
 30
0.0
 40
2.5
  0
ENDBLK
  5
884E
330
884C
100
AcDbEntity
  8
0
100
AcDbBlockEnd
  0
BLOCK
  5
886B
330
886A
100
AcDbEntity
  8
0
100
AcDbBlockBegin
  2
SAE340_60_2-Top
 70
     0
 10
0.0
 20
0.0
 30
0.0
  3
SAE340_60_2-Top
  1

  0
LINE
  5
886D
330
886A
100
AcDbEntity
  8
0
100
AcDbLine
 10
30.00000000000002
 20
-2.000000000000008
 30
0.0
 11
30.00000000000002
 21
-2.06900476615598
 31
0.0
  0
SPLINE
  5
886E
330
886A
100
AcDbEntity
  8
0
100
AcDbSpline
210
0.0
220
0.0
230
1.0
 70
     8
 71
     3
 72
    11
 73
     7
 74
     0
 42
0.000000001
 43
0.0000000001
 40
-1.0
 40
-1.0
 40
-1.0
 40
-1.0
 40
-0.7994229169941683
 40
-0.7994229169941683
 40
-0.7994229169941683
 40
-0.6533567280362136
 40
-0.6533567280362136
 40
-0.6533567280362136
 40
-0.6533567280362136
 10
30.00000000000001
 20
-2.000000000000013
 30
0.0
 10
29.99999961269025
 20
-1.999093512538138
 30
0.0
 10
30.12633724888436
 20
-1.919864828363606
 30
0.0
 10
30.3360966527508
 20
-1.790678672558773
 30
0.0
 10
30.48884968047318
 20
-1.696601477089779
 30
0.0
 10
30.68838688637112
 20
-1.577384795869038
 30
0.0
 10
30.91983662718171
 20
-1.445336730391675
 30
0.0
  0
SPLINE
  5
886F
330
886A
100
AcDbEntity
  8
0
100
AcDbSpline
210
0.0
220
0.0
230
1.0
 70
     8
 71
     3
 72
    22
 73
    18
 74
     0
 42
0.000000001
 43
0.0000000001
 40
0.0
 40
0.0
 40
0.0
 40
0.0
 40
0.0062834381474505
 40
0.0062834381474505
 40
0.0147058049801191
 40
0.0147058049801191
 40
0.037375579368758
 40
0.037375579368758
 40
0.050194786502593
 40
0.050194786502593
 40
0.0667274351831468
 40
0.0667274351831468
 40
0.0745951079245702
 40
0.0745951079245702
 40
0.0808821788788642
 40
0.0808821788788642
 40
0.0850548433220753
 40
0.0850548433220753
 40
0.0850548433220753
 40
0.0850548433220753
 10
34.56214430292463
 20
-2.000020290751297
 30
0.0
 10
34.54700960597449
 20
-2.000021425462916
 30
0.0
 10
34.52948500200666
 20
-2.000028425796091
 30
0.0
 10
34.48709187818142
 20
-2.000060615575897
 30
0.0
 10
34.46142391802545
 20
-2.000092345611944
 30
0.0
 10
34.36626722179511
 20
-2.000257841535571
 30
0.0
 10
34.29520834517393
 20
-2.000490386302128
 30
0.0
 10
34.1881602225488
 20
-2.000912253181229
 30
0.0
 10
34.15315286414821
 20
-2.001031881988577
 30
0.0
 10
34.07004998857412
 20
-2.001571991473185
 30
0.0
 10
34.01811518834815
 20
-2.002075843427749
 30
0.0
 10
33.93881711724597
 20
-2.003973453438925
 30
0.0
 10
33.91258353170615
 20
-2.004777578169238
 30
0.0
 10
33.86545376801062
 20
-2.006716589798492
 30
0.0
 10
33.844308460003
 20
-2.007765721343898
 30
0.0
 10
33.81018213717246
 20
-2.009824043726157
 30
0.0
 10
33.79667677844793
 20
-2.010739680504745
 30
0.0
 10
33.78400618479719
 20
-2.011697617734567
 30
0.0
  0
SPLINE
  5
8870
330
886A
100
AcDbEntity
  8
0
100
AcDbSpline
210
0.0
220
0.0
230
1.0
 70
     8
 71
     3
 72
    10
 73
     6
 74
     0
 42
0.000000001
 43
0.0000000001
 40
0.0662129554742349
 40
0.0662129554742349
 40
0.0662129554742349
 40
0.0662129554742349
 40
0.0674413380904781
 40
0.0674413380904781
 40
0.0706012009944968
 40
0.0706012009944968
 40
0.0706012009944968
 40
0.0706012009944968
 10
32.00189270279132
 20
-3.913021602196124
 30
0.0
 10
32.00179633192788
 20
-3.916137797387287
 30
0.0
 10
32.00170141114217
 20
-3.919304413736895
 30
0.0
 10
32.00137023795786
 20
-3.930825838399948
 30
0.0
 10
32.00114394121388
 20
-3.939519344698838
 30
0.0
 10
32.00093640231755
 20
-3.948477388677885
 30
0.0
  0
SPLINE
  5
8871
330
886A
100
AcDbEntity
  8
0
100
AcDbSpline
210
0.0
220
0.0
230
1.0
 70
     8
 71
     3
 72
    12
 73
     8
 74
     0
 42
0.000000001
 43
0.0000000001
 40
0.0101225241330921
 40
0.0101225241330921
 40
0.0101225241330921
 40
0.0101225241330921
 40
0.012141922815662
 40
0.012141922815662
 40
0.0133840633859378
 40
0.0133840633859378
 40
0.0141064564832396
 40
0.0141064564832396
 40
0.0141064564832396
 40
0.0141064564832396
 10
31.99998998734382
 20
-3.99841211837792
 30
0.0
 10
31.99998998734278
 20
-3.998412118215115
 30
0.0
 10
31.99999068900652
 20
-3.998522847200161
 30
0.0
 10
31.99999495447156
 20
-3.999182895779776
 30
0.0
 10
31.99999821558597
 20
-3.999685158761986
 30
0.0
 10
32.00000191873722
 20
-4.000252312274139
 30
0.0
 10
32.00000285308945
 20
-4.000394832937772
 30
0.0
 10
32.00000285306569
 20
-4.000394829311916
 30
0.0
  0
SPLINE
  5
8872
330
886A
100
AcDbEntity
  8
0
100
AcDbSpline
210
0.0
220
0.0
230
1.0
 70
     8
 71
     3
 72
    16
 73
    12
 74
     0
 42
0.000000001
 43
0.0000000001
 40
0.0298160529517973
 40
0.0298160529517973
 40
0.0298160529517973
 40
0.0298160529517973
 40
0.0305405682039867
 40
0.0305405682039867
 40
0.0359537622445799
 40
0.0359537622445799
 40
0.0382249031083545
 40
0.0382249031083545
 40
0.0413340226999525
 40
0.0413340226999525
 40
0.0433661953353455
 40
0.0433661953353455
 40
0.0433661953353455
 40
0.0433661953353455
 10
32.00114771962398
 20
-3.937776707720547
 30
0.0
 10
32.00114771962545
 20
-3.93777670765468
 30
0.0
 10
32.00114687914831
 20
-3.93781436833416
 30
0.0
 10
32.00113196436948
 20
-3.938489936836798
 30
0.0
 10
32.00105779472338
 20
-3.94161215775991
 30
0.0
 10
32.00087662447332
 20
-3.951851220321273
 30
0.0
 10
32.00081397879685
 20
-3.955643243700594
 30
0.0
 10
32.0006607029786
 20
-3.966444217803602
 30
0.0
 10
32.00056980486932
 20
-3.974140984467904
 30
0.0
 10
32.000450873965
 20
-3.988060783903952
 30
0.0
 10
32.00041102189209
 20
-3.993926940689023
 30
0.0
 10
32.00037993280682
 20
-4.000001916296981
 30
0.0
  0
SPLINE
  5
8873
330
886A
100
AcDbEntity
  8
0
100
AcDbSpline
210
0.0
220
0.0
230
1.0
 70
     8
 71
     3
 72
    36
 73
    32
 74
     0
 42
0.000000001
 43
0.0000000001
 40
0.0060573702790588
 40
0.0060573702790588
 40
0.0060573702790588
 40
0.0060573702790588
 40
0.0062396580614659
 40
0.0062396580614659
 40
0.0085854915928189
 40
0.0085854915928189
 40
0.0092115000180532
 40
0.0092115000180532
 40
0.0098395491240285
 40
0.0098395491240285
 40
0.0111071404159655
 40
0.0111071404159655
 40
0.0161326447588019
 40
0.0161326447588019
 40
0.023024102978135
 40
0.023024102978135
 40
0.043699377629631
 40
0.043699377629631
 40
0.1057222272640846
 40
0.1057222272640846
 40
0.1638973981831497
 40
0.1638973981831497
 40
0.192850959550245
 40
0.192850959550245
 40
0.2075025725309802
 40
0.2075025725309802
 40
0.2152389556602535
 40
0.2152389556602535
 40
0.2194138311052586
 40
0.2194138311052586
 40
0.2237806002302279
 40
0.2237806002302279
 40
0.2237806002302279
 40
0.2237806002302279
 10
29.99996686903189
 20
-3.998253347931395
 30
0.0
 10
29.99996617740255
 20
-3.998213466666056
 30
0.0
 10
29.99996545951863
 20
-3.998172072253163
 30
0.0
 10
29.99995509299928
 20
-3.997574326220997
 30
0.0
 10
29.99994443491785
 20
-3.99696229130889
 30
0.0
 10
29.99989591706564
 20
-3.994156816814469
 30
0.0
 10
29.99988322338156
 20
-3.993422314493489
 30
0.0
 10
29.99985080764674
 20
-3.991542623572486
 30
0.0
 10
29.99983076110366
 20
-3.990378508391417
 30
0.0
 10
29.99976098703003
 20
-3.986314172918429
 30
0.0
 10
29.99970188291881
 20
-3.982854407176109
 30
0.0
 10
29.9994024814399
 20
-3.965183238127666
 30
0.0
 10
29.99914316134166
 20
-3.949428278982658
 30
0.0
 10
29.99856512383609
 20
-3.913030941230718
 30
0.0
 10
29.99824495807562
 20
-3.891873133850289
 30
0.0
 10
29.99703167613518
 20
-3.807355073947191
 30
0.0
 10
29.99627364004084
 20
-3.744128416229627
 30
0.0
 10
29.99386222621872
 20
-3.493665874888439
 30
0.0
 10
29.9934017067124
 20
-3.309131795662541
 30
0.0
 10
29.99381557751238
 20
-2.940241470333441
 30
0.0
 10
29.99468491241203
 20
-2.756040196666047
 30
0.0
 10
29.99654559432347
 20
-2.485248079471128
 30
0.0
 10
29.99721056248551
 20
-2.397091357276179
 30
0.0
 10
29.99846350715501
 20
-2.264078844442548
 30
0.0
 10
29.9989521584329
 20
-2.218568269366752
 30
0.0
 10
29.9994082331418
 20
-2.154905842500999
 30
0.0
 10
29.9995085726724
 20
-2.134022784419167
 30
0.0
 10
29.9995782761765
 20
-2.10600762397054
 30
0.0
 10
29.99958818818323
 20
-2.096879000539727
 30
0.0
 10
29.99959044554628
 20
-2.08066433788737
 30
0.0
 10
29.9995816610077
 20
-2.073542879567604
 30
0.0
 10
29.9995722882978
 20
-2.069004766155981
 30
0.0
  0
SPLINE
  5
8874
330
886A
100
AcDbEntity
  8
0
100
AcDbSpline
210
0.0
220
0.0
230
1.0
 70
     8
 71
     3
 72
    12
 73
     8
 74
     0
 42
0.000000001
 43
0.0000000001
 40
0.0
 40
0.0
 40
0.0
 40
0.0
 40
0.0073680638626796
 40
0.0073680638626796
 40
0.0094714794568148
 40
0.0094714794568148
 40
0.0106892344361655
 40
0.0106892344361655
 40
0.0106892344361655
 40
0.0106892344361655
 10
29.99996053853817
 20
-3.999985503002875
 30
0.0
 10
30.00000120689108
 20
-3.988738678357896
 30
0.0
 10
30.00005705426696
 20
-3.976817397469626
 30
0.0
 10
30.00011475911489
 20
-3.966829073021662
 30
0.0
 10
30.00012596496217
 20
-3.965004429881011
 30
0.0
 10
30.00013624741462
 20
-3.963340749395378
 30
0.0
 10
30.00013843227606
 20
-3.962989239718796
 30
0.0
 10
30.00013843227601
 20
-3.962989239726812
 30
0.0
  0
LINE
  5
8875
330
886A
100
AcDbEntity
  8
0
100
AcDbLine
 10
-30.00000000000002
 20
-2.000000000000008
 30
0.0
 11
-30.00000000000002
 21
-2.069004766156143
 31
0.0
  0
SPLINE
  5
8876
330
886A
100
AcDbEntity
  8
0
100
AcDbSpline
210
0.0
220
0.0
230
1.0
 70
     8
 71
     3
 72
    11
 73
     7
 74
     0
 42
0.000000001
 43
0.0000000001
 40
-1.0
 40
-1.0
 40
-1.0
 40
-1.0
 40
-0.7994229169941683
 40
-0.7994229169941683
 40
-0.7994229169941683
 40
-0.6533567280362136
 40
-0.6533567280362136
 40
-0.6533567280362136
 40
-0.6533567280362136
 10
-30.00000000000001
 20
-2.000000000000013
 30
0.0
 10
-29.99999961269025
 20
-1.999093512538138
 30
0.0
 10
-30.12633724888436
 20
-1.919864828363606
 30
0.0
 10
-30.3360966527508
 20
-1.790678672558773
 30
0.0
 10
-30.48884968047318
 20
-1.696601477089779
 30
0.0
 10
-30.68838688637112
 20
-1.577384795869038
 30
0.0
 10
-30.91983662718171
 20
-1.445336730391675
 30
0.0
  0
SPLINE
  5
8877
330
886A
100
AcDbEntity
  8
0
100
AcDbSpline
210
0.0
220
0.0
230
1.0
 70
     8
 71
     3
 72
    36
 73
    32
 74
     0
 42
0.000000001
 43
0.0000000001
 40
0.0
 40
0.0
 40
0.0
 40
0.0
 40
0.0038040598092973
 40
0.0038040598092973
 40
0.0084789254369465
 40
0.0084789254369465
 40
0.0158054478500603
 40
0.0158054478500603
 40
0.0260000339952607
 40
0.0260000339952607
 40
0.0495206345047205
 40
0.0495206345047205
 40
0.1201103946175146
 40
0.1201103946175146
 40
0.1694133169793593
 40
0.1694133169793593
 40
0.1942220634765947
 40
0.1942220634765947
 40
0.2064767422921652
 40
0.2064767422921652
 40
0.2126069904224486
 40
0.2126069904224486
 40
0.2135995883897704
 40
0.2135995883897704
 40
0.2144116194790969
 40
0.2144116194790969
 40
0.2153140026295049
 40
0.2153140026295049
 40
0.2164060137432587
 40
0.2164060137432587
 40
0.2177036800853824
 40
0.2177036800853824
 40
0.2177036800853824
 40
0.2177036800853824
 10
-29.99957228829779
 20
-2.069004766156143
 30
0.0
 10
-29.99958045322431
 20
-2.072958090535335
 30
0.0
 10
-29.99958825487935
 20
-2.078881092841166
 30
0.0
 10
-29.99959053786105
 20
-2.094285445204497
 30
0.0
 10
-29.99958182785651
 20
-2.104402911887603
 30
0.0
 10
-29.99951287324333
 20
-2.132562809827321
 30
0.0
 10
-29.99942216624584
 20
-2.152170789837606
 30
0.0
 10
-29.99908018252128
 20
-2.201629642149304
 30
0.0
 10
-29.99878019265636
 20
-2.232656804857814
 30
0.0
 10
-29.99777927584338
 20
-2.335149023387315
 30
0.0
 10
-29.99716324831254
 20
-2.406783034843566
 30
0.0
 10
-29.99498744720817
 20
-2.695965695381761
 30
0.0
 10
-29.99378539085507
 20
-2.92130252674659
 30
0.0
 10
-29.99346454344837
 20
-3.288674150438366
 30
0.0
 10
-29.99377304811066
 20
-3.4362850415661
 30
0.0
 10
-29.9953984085691
 20
-3.659531190932779
 30
0.0
 10
-29.99614620641782
 20
-3.734714266760126
 30
0.0
 10
-29.9976056927449
 20
-3.84812242055908
 30
0.0
 10
-29.99814328059679
 20
-3.885773931009018
 30
0.0
 10
-29.99902223830397
 20
-3.942030478065106
 30
0.0
 10
-29.99933800763741
 20
-3.961362968921712
 30
0.0
 10
-29.99967856074715
 20
-3.981480005702944
 30
0.0
 10
-29.99972506790398
 20
-3.984210244042328
 30
0.0
 10
-29.99979991768982
 20
-3.98858433654598
 30
0.0
 10
-29.99983001205997
 20
-3.990334960803359
 30
0.0
 10
-29.99987944343717
 20
-3.993204265725239
 30
0.0
 10
-29.99989784911858
 20
-3.994268761569124
 30
0.0
 10
-29.99992781111254
 20
-3.996000648325367
 30
0.0
 10
-29.99993798692917
 20
-3.996587620834754
 30
0.0
 10
-29.9999553900193
 20
-3.997591537783704
 30
0.0
 10
-29.99996192061363
 20
-3.997968115420821
 30
0.0
 10
-29.9999668687557
 20
-3.998253422655283
 30
0.0
  0
SPLINE
  5
8878
330
886A
100
AcDbEntity
  8
0
100
AcDbSpline
210
0.0
220
0.0
230
1.0
 70
     8
 71
     3
 72
    14
 73
    10
 74
     0
 42
0.000000001
 43
0.0000000001
 40
0.0077867807848304
 40
0.0077867807848304
 40
0.0077867807848304
 40
0.0077867807848304
 40
0.008397903305527
 40
0.008397903305527
 40
0.0105249654758056
 40
0.0105249654758056
 40
0.013864492301725
 40
0.013864492301725
 40
0.018480134689574
 40
0.018480134689574
 40
0.018480134689574
 40
0.018480134689574
 10
-30.00013843227602
 20
-3.962989239723401
 30
0.0
 10
-30.00013843227599
 20
-3.962989239728604
 30
0.0
 10
-30.00013788506644
 20
-3.963077842455222
 30
0.0
 10
-30.00013331027603
 20
-3.96381570025431
 30
0.0
 10
-30.00012394049703
 20
-3.965314845049354
 30
0.0
 10
-30.00009364632276
 20
-3.970424767277797
 30
0.0
 10
-30.00006960355376
 20
-3.974738183087695
 30
0.0
 10
-30.00001543374183
 20
-3.985811780704933
 30
0.0
 10
-29.99998601477955
 20
-3.992940053678649
 30
0.0
 10
-29.99996053853815
 20
-3.999985503002871
 30
0.0
  0
SPLINE
  5
8879
330
886A
100
AcDbEntity
  8
0
100
AcDbSpline
210
0.0
220
0.0
230
1.0
 70
     8
 71
     3
 72
    10
 73
     6
 74
     0
 42
0.000000001
 43
0.0000000001
 40
0.0391508869077656
 40
0.0391508869077656
 40
0.0391508869077656
 40
0.0391508869077656
 40
0.0423952213675391
 40
0.0423952213675391
 40
0.043541186343682
 40
0.043541186343682
 40
0.043541186343682
 40
0.043541186343682
 10
-32.00093517807429
 20
-3.948632987350154
 30
0.0
 10
-32.00114838720594
 20
-3.93943019784009
 30
0.0
 10
-32.00138202215889
 20
-3.93037400861889
 30
0.0
 10
-32.00171424728495
 20
-3.918874896892487
 30
0.0
 10
-32.00180281603297
 20
-3.915923580219616
 30
0.0
 10
-32.00189265282705
 20
-3.913018667098459
 30
0.0
  0
SPLINE
  5
887A
330
886A
100
AcDbEntity
  8
0
100
AcDbSpline
210
0.0
220
0.0
230
1.0
 70
     8
 71
     3
 72
    14
 73
    10
 74
     0
 42
0.000000001
 43
0.0000000001
 40
0.0
 40
0.0
 40
0.0
 40
0.0
 40
0.0042629590888587
 40
0.0042629590888587
 40
0.0078984680321635
 40
0.0078984680321635
 40
0.0110131178469042
 40
0.0110131178469042
 40
0.0135447394033404
 40
0.0135447394033404
 40
0.0135447394033404
 40
0.0135447394033404
 10
-32.00037993280682
 20
-4.000001916296981
 30
0.0
 10
-32.00044514946033
 20
-3.987258229057331
 30
0.0
 10
-32.00055430095861
 20
-3.975277107464046
 30
0.0
 10
-32.00077809153987
 20
-3.957593796969375
 30
0.0
 10
-32.00088547668055
 20
-3.951225734300177
 30
0.0
 10
-32.0010336057157
 20
-3.9431531249553
 30
0.0
 10
-32.00108435725813
 20
-3.940732005482101
 30
0.0
 10
-32.00113729054193
 20
-3.93823659004512
 30
0.0
 10
-32.00114771962758
 20
-3.937776707558657
 30
0.0
 10
-32.00114771962398
 20
-3.937776707720173
 30
0.0
  0
SPLINE
  5
887B
330
886A
100
AcDbEntity
  8
0
100
AcDbSpline
210
0.0
220
0.0
230
1.0
 70
     8
 71
     3
 72
    22
 73
    18
 74
     0
 42
0.000000001
 43
0.0000000001
 40
0.0478424950443765
 40
0.0478424950443765
 40
0.0478424950443765
 40
0.0478424950443765
 40
0.0505206701037138
 40
0.0505206701037138
 40
0.0557907468498364
 40
0.0557907468498364
 40
0.063735418097104
 40
0.063735418097104
 40
0.0751923873001476
 40
0.0751923873001476
 40
0.0899440115323633
 40
0.0899440115323633
 40
0.108175757850502
 40
0.108175757850502
 40
0.1267677335826401
 40
0.1267677335826401
 40
0.132916608682914
 40
0.132916608682914
 40
0.132916608682914
 40
0.132916608682914
 10
-33.78400568583469
 20
-2.011697818838015
 30
0.0
 10
-33.79214624102921
 20
-2.011082366941506
 30
0.0
 10
-33.80063456030278
 20
-2.0104831918667
 30
0.0
 10
-33.82613745285782
 20
-2.008810540919491
 30
0.0
 10
-33.84370300518146
 20
-2.007822836328992
 30
0.0
 10
-33.88763450728397
 20
-2.005704464439043
 30
0.0
 10
-33.91435601623757
 20
-2.004731535260065
 30
0.0
 10
-33.97810991990056
 20
-2.002914647745654
 30
0.0
 10
-34.01514730078408
 20
-2.002286943471453
 30
0.0
 10
-34.09512567584474
 20
-2.001329432556062
 30
0.0
 10
-34.13569763834298
 20
-2.00113254001172
 30
0.0
 10
-34.22892435730828
 20
-2.000741918814477
 30
0.0
 10
-34.28733019907986
 20
-2.000505885545914
 30
0.0
 10
-34.40025108077575
 20
-2.000183972775235
 30
0.0
 10
-34.45905078510747
 20
-2.000081116917522
 30
0.0
 10
-34.53023069388363
 20
-2.000028132717023
 30
0.0
 10
-34.54733372326364
 20
-2.000021401162485
 30
0.0
 10
-34.5621443029245
 20
-2.000020290751296
 30
0.0
  0
LINE
  5
887C
330
886A
100
AcDbEntity
  8
0
100
AcDbLine
 10
-30.0
 20
-2.000000000000008
 30
0.0
 11
-28.0
 21
-2.000000000000005
 31
0.0
  0
LINE
  5
887D
330
886A
100
AcDbEntity
  8
0
100
AcDbLine
 10
-30.0
 20
-86.00000000000001
 30
0.0
 11
-27.99999999999999
 21
-86.00000000000001
 31
0.0
  0
LINE
  5
887E
330
886A
100
AcDbEntity
  8
0
100
AcDbLine
 10
28.00000000000001
 20
-2.000000000000005
 30
0.0
 11
-28.00000000000001
 21
-2.000000000000005
 31
0.0
  0
LINE
  5
887F
330
886A
100
AcDbEntity
  8
0
100
AcDbLine
 10
-27.99999999999999
 20
-86.00000000000001
 30
0.0
 11
27.99999999999999
 21
-86.00000000000001
 31
0.0
  0
CIRCLE
  5
8880
330
886A
100
AcDbEntity
  8
0
100
AcDbCircle
 10
0.0
 20
-47.99999999999998
 30
0.0
 40
2.5
  0
CIRCLE
  5
8881
330
886A
100
AcDbEntity
  8
0
100
AcDbCircle
 10
0.0
 20
-67.99999999999998
 30
0.0
 40
2.5
  0
LINE
  5
8882
330
886A
100
AcDbEntity
  8
0
100
AcDbLine
 10
30.0
 20
-2.000000000000008
 30
0.0
 11
28.0
 21
-2.000000000000005
 31
0.0
  0
LINE
  5
8883
330
886A
100
AcDbEntity
  8
0
100
AcDbLine
 10
33.99999999999999
 20
0.0
 30
0.0
 11
71.5
 21
0.0
 31
0.0
  0
ARC
  5
8884
330
886A
100
AcDbEntity
  8
0
100
AcDbCircle
 10
34.0
 20
-4.000000000000004
 30
0.0
 40
3.999999999999999
100
AcDbArc
 50
90.00000000000012
 51
180.0
  0
LINE
  5
8885
330
886A
100
AcDbEntity
  8
0
100
AcDbLine
 10
29.99999999999998
 20
-86.00000000000003
 30
0.0
 11
30.0
 21
-46.00000000000003
 31
0.0
  0
LINE
  5
8886
330
886A
100
AcDbEntity
  8
0
100
AcDbLine
 10
31.99999999999999
 20
-86.00000000000003
 30
0.0
 11
29.99999999999998
 21
-86.00000000000003
 31
0.0
  0
LINE
  5
8887
330
886A
100
AcDbEntity
  8
0
100
AcDbLine
 10
31.99999999999999
 20
-46.00000000000003
 30
0.0
 11
31.99999999999999
 21
-86.00000000000003
 31
0.0
  0
LINE
  5
8888
330
886A
100
AcDbEntity
  8
0
100
AcDbLine
 10
30.0
 20
-46.00000000000001
 30
0.0
 11
31.99999999999999
 21
-46.00000000000001
 31
0.0
  0
LINE
  5
8889
330
886A
100
AcDbEntity
  8
0
100
AcDbLine
 10
32.0
 20
-4.000000000000003
 30
0.0
 11
31.99999999999999
 21
-46.00000000000001
 31
0.0
  0
LINE
  5
888A
330
886A
100
AcDbEntity
  8
0
100
AcDbLine
 10
30.0
 20
-46.00000000000001
 30
0.0
 11
30.0
 21
-4.000000000000003
 31
0.0
  0
LINE
  5
888B
330
886A
100
AcDbEntity
  8
0
100
AcDbLine
 10
30.0
 20
-86.00000000000001
 30
0.0
 11
27.99999999999999
 21
-86.00000000000001
 31
0.0
  0
ARC
  5
888C
330
886A
100
AcDbEntity
  8
0
100
AcDbCircle
 10
34.0
 20
-4.000000000000004
 30
0.0
 40
1.999999999999997
100
AcDbArc
 50
90.00000000000026
 51
180.0
  0
LINE
  5
888D
330
886A
100
AcDbEntity
  8
0
100
AcDbLine
 10
71.5
 20
0.0
 30
0.0
 11
71.5
 21
-2.000000000000006
 31
0.0
  0
LINE
  5
888E
330
886A
100
AcDbEntity
  8
0
100
AcDbLine
 10
71.5
 20
-2.000000000000006
 30
0.0
 11
33.99999999999999
 21
-2.000000000000006
 31
0.0
  0
LINE
  5
888F
330
886A
100
AcDbEntity
  8
0
100
AcDbLine
 10
-71.5
 20
-2.000000000000006
 30
0.0
 11
-33.99999999999999
 21
-2.000000000000006
 31
0.0
  0
LINE
  5
8890
330
886A
100
AcDbEntity
  8
0
100
AcDbLine
 10
-30.0
 20
-46.00000000000001
 30
0.0
 11
-30.0
 21
-4.000000000000003
 31
0.0
  0
LINE
  5
8891
330
886A
100
AcDbEntity
  8
0
100
AcDbLine
 10
-32.0
 20
-4.000000000000003
 30
0.0
 11
-31.99999999999999
 21
-46.00000000000001
 31
0.0
  0
LINE
  5
8892
330
886A
100
AcDbEntity
  8
0
100
AcDbLine
 10
-33.99999999999999
 20
0.0
 30
0.0
 11
-71.5
 21
0.0
 31
0.0
  0
LINE
  5
8893
330
886A
100
AcDbEntity
  8
0
100
AcDbLine
 10
-71.5
 20
0.0
 30
0.0
 11
-71.5
 21
-2.000000000000006
 31
0.0
  0
ARC
  5
8894
330
886A
100
AcDbEntity
  8
0
100
AcDbCircle
 10
-34.0
 20
-4.000000000000004
 30
0.0
 40
1.999999999999997
100
AcDbArc
 50
0.0
 51
89.99999999999975
  0
ARC
  5
8895
330
886A
100
AcDbEntity
  8
0
100
AcDbCircle
 10
-34.0
 20
-4.000000000000004
 30
0.0
 40
3.999999999999999
100
AcDbArc
 50
0.0
 51
89.99999999999987
  0
LINE
  5
8896
330
886A
100
AcDbEntity
  8
0
100
AcDbLine
 10
-30.0
 20
-46.00000000000003
 30
0.0
 11
-29.99999999999998
 21
-86.00000000000003
 31
0.0
  0
LINE
  5
8897
330
886A
100
AcDbEntity
  8
0
100
AcDbLine
 10
-31.99999999999999
 20
-86.00000000000003
 30
0.0
 11
-31.99999999999999
 21
-46.00000000000003
 31
0.0
  0
LINE
  5
8898
330
886A
100
AcDbEntity
  8
0
100
AcDbLine
 10
-29.99999999999998
 20
-86.00000000000003
 30
0.0
 11
-31.99999999999999
 21
-86.00000000000003
 31
0.0
  0
LINE
  5
8899
330
886A
100
AcDbEntity
  8
0
100
AcDbLine
 10
-31.99999999999999
 20
-46.00000000000001
 30
0.0
 11
-30.0
 21
-46.00000000000001
 31
0.0
  0
ENDBLK
  5
886C
330
886A
100
AcDbEntity
  8
0
100
AcDbBlockEnd
  0
BLOCK
  5
889B
330
889A
100
AcDbEntity
  8
0
100
AcDbBlockBegin
  2
SAE340_60_2-Bottom
 70
     0
 10
0.0
 20
0.0
 30
0.0
  3
SAE340_60_2-Bottom
  1

  0
SPLINE
  5
889D
330
889A
100
AcDbEntity
  8
0
100
AcDbSpline
210
0.0
220
0.0
230
1.0
 70
     8
 71
     3
 72
    14
 73
    10
 74
     0
 42
0.000000001
 43
0.0000000001
 40
0.0
 40
0.0
 40
0.0
 40
0.0
 40
0.3435185598330248
 40
0.3435185598330248
 40
0.3435185598330248
 40
0.757013838864677
 40
0.757013838864677
 40
0.757013838864677
 40
1.0
 40
1.0
 40
1.0
 40
1.0
 10
34.60606060606064
 20
2.000000000000007
 30
0.0
 10
34.28490437776704
 20
2.000036880043579
 30
0.0
 10
33.87245674614272
 20
1.996834397684452
 30
0.0
 10
33.47646184525582
 20
1.998675842003752
 30
0.0
 10
32.99980049072252
 20
2.000892399190648
 30
0.0
 10
32.53725454065256
 20
2.001069140210785
 30
0.0
 10
32.26239142283203
 20
2.001123280650577
 30
0.0
 10
32.10087099630308
 20
2.001155095711822
 30
0.0
 10
31.99999576746968
 20
2.000250522859214
 30
0.0
 10
31.9999999994884
 20
1.999999999992519
 30
0.0
  0
LINE
  5
889E
330
889A
100
AcDbEntity
  8
0
100
AcDbLine
 10
34.00221893141608
 20
2.000000000000008
 30
0.0
 11
34.0061440489349
 21
2.000000000000008
 31
0.0
  0
LINE
  5
889F
330
889A
100
AcDbEntity
  8
0
100
AcDbLine
 10
34.56214430292462
 20
2.000000000000008
 30
0.0
 11
34.60606060606065
 21
2.000000000000008
 31
0.0
  0
ARC
  5
88A0
330
889A
100
AcDbEntity
  8
0
100
AcDbCircle
 10
34.0
 20
4.000000000000004
 30
0.0
 40
1.999999999999996
100
AcDbArc
 50
182.3401701237705
 51
263.7599697061009
  0
ARC
  5
88A1
330
889A
100
AcDbEntity
  8
0
100
AcDbCircle
 10
34.0
 20
4.000000000000004
 30
0.0
 40
3.999999999999998
100
AcDbArc
 50
219.6928227302355
 51
270.0
  0
LINE
  5
88A2
330
889A
100
AcDbEntity
  8
0
100
AcDbLine
 10
34.60606060606064
 20
0.0
 30
0.0
 11
34.0
 21
0.0
 31
0.0
  0
SPLINE
  5
88A3
330
889A
100
AcDbEntity
  8
0
100
AcDbSpline
210
0.0
220
0.0
230
1.0
 70
     8
 71
     3
 72
    17
 73
    13
 74
     0
 42
0.000000001
 43
0.0000000001
 40
-1.0
 40
-1.0
 40
-1.0
 40
-1.0
 40
-0.7994229169941683
 40
-0.7994229169941683
 40
-0.7994229169941683
 40
-0.3760548405701244
 40
-0.3760548405701244
 40
-0.3760548405701244
 40
-0.0764956636405383
 40
-0.0764956636405383
 40
-0.0764956636405383
 40
0.0
 40
0.0
 40
0.0
 40
0.0
 10
30.00000000000001
 20
2.000000000000013
 30
0.0
 10
29.99999961269025
 20
1.999093512538138
 30
0.0
 10
30.12633724888436
 20
1.919864828363606
 30
0.0
 10
30.3360966527508
 20
1.790678672558773
 30
0.0
 10
30.7788463128613
 20
1.517998995179486
 30
0.0
 10
31.61463513349602
 20
1.03411966096759
 30
0.0
 10
32.48133337947793
 20
0.6387472629443629
 30
0.0
 10
33.094576152541
 20
0.3589967651437487
 30
0.0
 10
33.71786514801807
 20
0.1216595940158009
 30
0.0
 10
34.23410388679283
 20
0.0342334975174002
 30
0.0
 10
34.36593101131725
 20
0.0119083017424135
 30
0.0
 10
34.48837043647239
 20
0.0000045433204815
 30
0.0
 10
34.60606060611084
 20
0.0000000001152103
 30
0.0
  0
LINE
  5
88A4
330
889A
100
AcDbEntity
  8
0
100
AcDbLine
 10
34.60606060606064
 20
2.000000000000008
 30
0.0
 11
34.60606060606064
 21
0.0
 31
0.0
  0
SPLINE
  5
88A5
330
889A
100
AcDbEntity
  8
0
100
AcDbSpline
210
0.0
220
0.0
230
1.0
 70
     8
 71
     3
 72
    30
 73
    26
 74
     0
 42
0.000000001
 43
0.0000000001
 40
0.0364436676224086
 40
0.0364436676224086
 40
0.0364436676224086
 40
0.0364436676224086
 40
0.0380818745044933
 40
0.0380818745044933
 40
0.0410710676994058
 40
0.0410710676994058
 40
0.0442713980416312
 40
0.0442713980416312
 40
0.046983744267463
 40
0.046983744267463
 40
0.0505206701034892
 40
0.0505206701034892
 40
0.0557907468495496
 40
0.0557907468495496
 40
0.0637354180966544
 40
0.0637354180966544
 40
0.0751923872995098
 40
0.0751923872995098
 40
0.0899440115316198
 40
0.0899440115316198
 40
0.1081757578533921
 40
0.1081757578533921
 40
0.1267677335843878
 40
0.1267677335843878
 40
0.1329166086829232
 40
0.1329166086829232
 40
0.1329166086829232
 40
0.1329166086829232
 10
33.72383606962807
 20
2.017146192077017
 30
0.0
 10
33.72383606954904
 20
2.017146192085867
 30
0.0
 10
33.72433092022655
 20
2.017090688260691
 30
0.0
 10
33.7269227409827
 20
2.016807862407308
 30
0.0
 10
33.72981147767145
 20
2.016495928548555
 30
0.0
 10
33.7391325122225
 20
2.015552740398512
 30
0.0
 10
33.74599009102155
 20
2.014886000993102
 30
0.0
 10
33.7606727022172
 20
2.013570511778316
 30
0.0
 10
33.76830173300518
 20
2.012924217363677
 30
0.0
 10
33.78671156266324
 20
2.011471035796254
 30
0.0
 10
33.79787915831715
 20
2.010663909631617
 30
0.0
 10
33.82613745285532
 20
2.008810540919641
 30
0.0
 10
33.84370300517873
 20
2.007822836329138
 30
0.0
 10
33.88763450728047
 20
2.005704464439188
 30
0.0
 10
33.91435601623352
 20
2.004731535260204
 30
0.0
 10
33.97810991989548
 20
2.002914647745764
 30
0.0
 10
34.01514730077852
 20
2.00228694347154
 30
0.0
 10
34.09512567583874
 20
2.001329432556105
 30
0.0
 10
34.13569763833738
 20
2.001132540011748
 30
0.0
 10
34.2289243573116
 20
2.000741918814457
 30
0.0
 10
34.28733019909559
 20
2.000505885545846
 30
0.0
 10
34.40025108079854
 20
2.000183972775191
 30
0.0
 10
34.45905078512728
 20
2.000081116917496
 30
0.0
 10
34.53023069389334
 20
2.000028132717019
 30
0.0
 10
34.54733372326791
 20
2.000021401162484
 30
0.0
 10
34.56214430292462
 20
2.000020290751296
 30
0.0
  0
SPLINE
  5
88A6
330
889A
100
AcDbEntity
  8
0
100
AcDbSpline
210
0.0
220
0.0
230
1.0
 70
     8
 71
     3
 72
     8
 73
     4
 74
     0
 42
0.000000001
 43
0.0000000001
 40
0.0
 40
0.0
 40
0.0
 40
0.0
 40
0.0035844670535568
 40
0.0035844670535568
 40
0.0035844670535568
 40
0.0035844670535568
 10
32.00006818308799
 20
3.999999804698429
 30
0.0
 10
32.00004435171765
 20
3.993919444707561
 30
0.0
 10
32.00002088735847
 20
3.987176465289785
 30
0.0
 10
32.00000004833698
 20
3.980382203437651
 30
0.0
  0
SPLINE
  5
88A7
330
889A
100
AcDbEntity
  8
0
100
AcDbSpline
210
0.0
220
0.0
230
1.0
 70
     8
 71
     3
 72
    24
 73
    20
 74
     0
 42
0.000000001
 43
0.0000000001
 40
0.0332189383564771
 40
0.0332189383564771
 40
0.0332189383564771
 40
0.0332189383564771
 40
0.0332261111538913
 40
0.0332261111538913
 40
0.0337115898242101
 40
0.0337115898242101
 40
0.0341490474667189
 40
0.0341490474667189
 40
0.035073383352917
 40
0.035073383352917
 40
0.0423952202670535
 40
0.0423952202670535
 40
0.0497847737088218
 40
0.0497847737088218
 40
0.0571728820864394
 40
0.0571728820864394
 40
0.0667680015630704
 40
0.0667680015630704
 40
0.0674413336652649
 40
0.0674413336652649
 40
0.0674413336652649
 40
0.0674413336652649
 10
32.00005333783148
 20
3.99612035639296
 30
0.0
 10
32.00005340413461
 20
3.996115666871513
 30
0.0
 10
32.00005347107489
 20
3.996110933257485
 30
0.0
 10
32.00005808228952
 20
3.995784846829816
 30
0.0
 10
32.00006454606423
 20
3.995327962302456
 30
0.0
 10
32.00008531342118
 20
3.993886974019775
 30
0.0
 10
32.00009935164219
 20
3.992922239958013
 30
0.0
 10
32.00014976092675
 20
3.989537915120442
 30
0.0
 10
32.00019210278885
 20
3.986802830328608
 30
0.0
 10
32.00058231679175
 20
3.962835471909721
 30
0.0
 10
32.00107346694453
 20
3.941053849000955
 30
0.0
 10
32.00218671523474
 20
3.902521641967546
 30
0.0
 10
32.0028206652993
 20
3.885143223333858
 30
0.0
 10
32.00401021668979
 20
3.856605833972816
 30
0.0
 10
32.004573742082
 20
3.845148087223453
 30
0.0
 10
32.00556084507113
 20
3.826280975702975
 30
0.0
 10
32.00589824023122
 20
3.82081114210422
 30
0.0
 10
32.00594054363487
 20
3.820105345611099
 30
0.0
 10
32.00594192708836
 20
3.820082347860465
 30
0.0
 10
32.00594192710616
 20
3.820082347564619
 30
0.0
  0
SPLINE
  5
88A8
330
889A
100
AcDbEntity
  8
0
100
AcDbSpline
210
0.0
220
0.0
230
1.0
 70
     8
 71
     3
 72
    10
 73
     6
 74
     0
 42
0.000000001
 43
0.0000000001
 40
0.0
 40
0.0
 40
0.0
 40
0.0
 40
0.0042629590916659
 40
0.0042629590916659
 40
0.0074741982876545
 40
0.0074741982876545
 40
0.0074741982876545
 40
0.0074741982876545
 10
32.00037993280683
 20
4.000001916296981
 30
0.0
 10
32.00044514946039
 20
3.987258229049047
 30
0.0
 10
32.00055430095879
 20
3.975277107446906
 30
0.0
 10
32.00076607052886
 20
3.958543663893496
 30
0.0
 10
32.00086108440069
 20
3.952702520317777
 30
0.0
 10
32.00093624793685
 20
3.948482298023292
 30
0.0
  0
CIRCLE
  5
88A9
330
889A
100
AcDbEntity
  8
0
100
AcDbCircle
 10
0.0
 20
67.99999999999998
 30
0.0
 40
2.5
  0
CIRCLE
  5
88AA
330
889A
100
AcDbEntity
  8
0
100
AcDbCircle
 10
0.0
 20
47.99999999999998
 30
0.0
 40
2.5
  0
LINE
  5
88AB
330
889A
100
AcDbEntity
  8
0
100
AcDbLine
 10
28.00000000000001
 20
2.000000000000005
 30
0.0
 11
-28.00000000000001
 21
2.000000000000005
 31
0.0
  0
LINE
  5
88AC
330
889A
100
AcDbEntity
  8
0
100
AcDbLine
 10
27.99999999999999
 20
86.00000000000001
 30
0.0
 11
-27.99999999999999
 21
86.00000000000001
 31
0.0
  0
SPLINE
  5
88AD
330
889A
100
AcDbEntity
  8
0
100
AcDbSpline
210
0.0
220
0.0
230
1.0
 70
     8
 71
     3
 72
    17
 73
    13
 74
     0
 42
0.000000001
 43
0.0000000001
 40
-1.0
 40
-1.0
 40
-1.0
 40
-1.0
 40
-0.7994229169941683
 40
-0.7994229169941683
 40
-0.7994229169941683
 40
-0.3760548405701244
 40
-0.3760548405701244
 40
-0.3760548405701244
 40
-0.0764956636405383
 40
-0.0764956636405383
 40
-0.0764956636405383
 40
0.0
 40
0.0
 40
0.0
 40
0.0
 10
-30.00000000000001
 20
2.000000000000013
 30
0.0
 10
-29.99999961269025
 20
1.999093512538138
 30
0.0
 10
-30.12633724888436
 20
1.919864828363606
 30
0.0
 10
-30.3360966527508
 20
1.790678672558773
 30
0.0
 10
-30.7788463128613
 20
1.517998995179486
 30
0.0
 10
-31.61463513349602
 20
1.03411966096759
 30
0.0
 10
-32.48133337947793
 20
0.6387472629443629
 30
0.0
 10
-33.094576152541
 20
0.3589967651437487
 30
0.0
 10
-33.71786514801807
 20
0.1216595940158009
 30
0.0
 10
-34.23410388679283
 20
0.0342334975174002
 30
0.0
 10
-34.36593101131725
 20
0.0119083017424135
 30
0.0
 10
-34.48837043647239
 20
0.0000045433204815
 30
0.0
 10
-34.60606060611084
 20
0.0000000001152103
 30
0.0
  0
LINE
  5
88AE
330
889A
100
AcDbEntity
  8
0
100
AcDbLine
 10
-34.0
 20
0.0
 30
0.0
 11
-34.60606060606064
 21
0.0
 31
0.0
  0
ARC
  5
88AF
330
889A
100
AcDbEntity
  8
0
100
AcDbCircle
 10
-34.0
 20
4.000000000000004
 30
0.0
 40
3.999999999999999
100
AcDbArc
 50
270.0
 51
320.3071772697644
  0
ARC
  5
88B0
330
889A
100
AcDbEntity
  8
0
100
AcDbCircle
 10
-34.0
 20
4.000000000000004
 30
0.0
 40
1.999999999999996
100
AcDbArc
 50
276.2400302938975
 51
357.6598298763007
  0
LINE
  5
88B1
330
889A
100
AcDbEntity
  8
0
100
AcDbLine
 10
-34.60606060606065
 20
2.000000000000008
 30
0.0
 11
-34.56214430292467
 21
2.000000000000008
 31
0.0
  0
LINE
  5
88B2
330
889A
100
AcDbEntity
  8
0
100
AcDbLine
 10
-34.00614404893516
 20
2.000000000000008
 30
0.0
 11
-34.00221893141605
 21
2.000000000000008
 31
0.0
  0
SPLINE
  5
88B3
330
889A
100
AcDbEntity
  8
0
100
AcDbSpline
210
0.0
220
0.0
230
1.0
 70
     8
 71
     3
 72
    14
 73
    10
 74
     0
 42
0.000000001
 43
0.0000000001
 40
0.0
 40
0.0
 40
0.0
 40
0.0
 40
0.3435185598330248
 40
0.3435185598330248
 40
0.3435185598330248
 40
0.757013838864677
 40
0.757013838864677
 40
0.757013838864677
 40
1.0
 40
1.0
 40
1.0
 40
1.0
 10
-34.60606060606064
 20
2.000000000000007
 30
0.0
 10
-34.28490437776704
 20
2.000036880043579
 30
0.0
 10
-33.87245674614272
 20
1.996834397684452
 30
0.0
 10
-33.47646184525582
 20
1.998675842003752
 30
0.0
 10
-32.99980049072252
 20
2.000892399190648
 30
0.0
 10
-32.53725454065256
 20
2.001069140210785
 30
0.0
 10
-32.26239142283203
 20
2.001123280650577
 30
0.0
 10
-32.10087099630308
 20
2.001155095711822
 30
0.0
 10
-31.99999576746968
 20
2.000250522859214
 30
0.0
 10
-31.9999999994884
 20
1.999999999992519
 30
0.0
  0
LINE
  5
88B4
330
889A
100
AcDbEntity
  8
0
100
AcDbLine
 10
-34.60606060606064
 20
0.0
 30
0.0
 11
-34.60606060606064
 21
2.000000000000008
 31
0.0
  0
SPLINE
  5
88B5
330
889A
100
AcDbEntity
  8
0
100
AcDbSpline
210
0.0
220
0.0
230
1.0
 70
     8
 71
     3
 72
    10
 73
     6
 74
     0
 42
0.000000001
 43
0.0000000001
 40
0.0194209736531451
 40
0.0194209736531451
 40
0.0194209736531451
 40
0.0194209736531451
 40
0.0196622418939511
 40
0.0196622418939511
 40
0.0230051734864283
 40
0.0230051734864283
 40
0.0230051734864283
 40
0.0230051734864283
 10
-32.00000000127189
 20
3.98039566163455
 30
0.0
 10
-32.00000140350729
 20
3.980852840224778
 30
0.0
 10
-32.00000281603312
 20
3.981310170696632
 30
0.0
 10
-32.00002398160366
 20
3.988091081104183
 30
0.0
 10
-32.00004595756893
 20
3.994329163232261
 30
0.0
 10
-32.00006818308799
 20
3.999999804698427
 30
0.0
  0
SPLINE
  5
88B6
330
889A
100
AcDbEntity
  8
0
100
AcDbSpline
210
0.0
220
0.0
230
1.0
 70
     8
 71
     3
 72
    14
 73
    10
 74
     0
 42
0.000000001
 43
0.0000000001
 40
0.0358655438226722
 40
0.0358655438226722
 40
0.0358655438226722
 40
0.0358655438226722
 40
0.0359537623489155
 40
0.0359537623489155
 40
0.0382249031774564
 40
0.0382249031774564
 40
0.0413340227413308
 40
0.0413340227413308
 40
0.0433661953269363
 40
0.0433661953269363
 40
0.0433661953269363
 40
0.0433661953269363
 10
-32.0009363672205
 20
3.948475628058217
 30
0.0
 10
-32.00093431013524
 20
3.948591127641036
 30
0.0
 10
-32.00093225006419
 20
3.948707470700071
 30
0.0
 10
-32.0008766244654
 20
3.951851220795163
 30
0.0
 10
-32.00081397878926
 20
3.955643244192255
 30
0.0
 10
-32.00066070297257
 20
3.966444218287188
 30
0.0
 10
-32.00056980486465
 20
3.974140984922253
 30
0.0
 10
-32.00045087396301
 20
3.988060784191638
 30
0.0
 10
-32.00041102189132
 20
3.993926940837869
 30
0.0
 10
-32.00037993280682
 20
4.000001916296978
 30
0.0
  0
SPLINE
  5
88B7
330
889A
100
AcDbEntity
  8
0
100
AcDbSpline
210
0.0
220
0.0
230
1.0
 70
     8
 71
     3
 72
    26
 73
    22
 74
     0
 42
0.000000001
 43
0.0000000001
 40
0.0423486644559127
 40
0.0423486644559127
 40
0.0423486644559127
 40
0.0423486644559127
 40
0.0483636528969745
 40
0.0483636528969745
 40
0.0586880658142169
 40
0.0586880658142169
 40
0.0674413380668238
 40
0.0674413380668238
 40
0.0715211996494627
 40
0.0715211996494627
 40
0.0739353548151236
 40
0.0739353548151236
 40
0.0748404282670972
 40
0.0748404282670972
 40
0.0755203186362218
 40
0.0755203186362218
 40
0.0758686409134588
 40
0.0758686409134588
 40
0.0761955793309323
 40
0.0761955793309323
 40
0.0765450936253661
 40
0.0765450936253661
 40
0.0765450936253661
 40
0.0765450936253661
 10
-32.00594192710628
 20
3.820082347562448
 30
0.0
 10
-32.00594192740001
 20
3.82008234267881
 30
0.0
 10
-32.00582793432213
 20
3.821949407343472
 30
0.0
 10
-32.0052392644149
 20
3.832329603587574
 30
0.0
 10
-32.00453526996259
 20
3.84511157841411
 30
0.0
 10
-32.0030384126749
 20
3.879316907582006
 30
0.0
 10
-32.00226930135626
 20
3.899547668270884
 30
0.0
 10
-32.00130080727795
 20
3.933241312782663
 30
0.0
 10
-32.00101327304778
 20
3.944620217522473
 30
0.0
 10
-32.00061012474374
 20
3.96330912282885
 30
0.0
 10
-32.00047172799981
 20
3.970404377380134
 30
0.0
 10
-32.0003009661271
 20
3.980163661431427
 30
0.0
 10
-32.00025634560366
 20
3.982828161140751
 30
0.0
 10
-32.00018293880083
 20
3.987404484209146
 30
0.0
 10
-32.00015262208665
 20
3.989363713801998
 30
0.0
 10
-32.00011259009001
 20
3.992028816351295
 30
0.0
 10
-32.0001000417772
 20
3.992879465741368
 30
0.0
 10
-32.00008017115423
 20
3.994241778198399
 30
0.0
 10
-32.00007255575299
 20
3.994771470383813
 30
0.0
 10
-32.00006075798769
 20
3.995596128429046
 30
0.0
 10
-32.00005647525726
 20
3.995897847752578
 30
0.0
 10
-32.00005322915257
 20
3.99612743987654
 30
0.0
  0
SPLINE
  5
88B8
330
889A
100
AcDbEntity
  8
0
100
AcDbSpline
210
0.0
220
0.0
230
1.0
 70
     8
 71
     3
 72
    32
 73
    28
 74
     0
 42
0.000000001
 43
0.0000000001
 40
0.0
 40
0.0
 40
0.0
 40
0.0
 40
0.0062834381475791
 40
0.0062834381475791
 40
0.0147058049803179
 40
0.0147058049803179
 40
0.0373755793695136
 40
0.0373755793695136
 40
0.0501947865013997
 40
0.0501947865013997
 40
0.0667274351829266
 40
0.0667274351829266
 40
0.0745951079245912
 40
0.0745951079245912
 40
0.0808821788788943
 40
0.0808821788788943
 40
0.0854267843918214
 40
0.0854267843918214
 40
0.0883503176114407
 40
0.0883503176114407
 40
0.0902010186893271
 40
0.0902010186893271
 40
0.0931504657392542
 40
0.0931504657392542
 40
0.0957950367155904
 40
0.0957950367155904
 40
0.0964631606638125
 40
0.0964631606638125
 40
0.0964631606638125
 40
0.0964631606638125
 10
-34.56214430292467
 20
2.000020290751296
 30
0.0
 10
-34.54700960597422
 20
2.000021425462915
 30
0.0
 10
-34.52948500200598
 20
2.000028425796092
 30
0.0
 10
-34.48709187818009
 20
2.000060615575899
 30
0.0
 10
-34.46142391802387
 20
2.000092345611945
 30
0.0
 10
-34.36626722179157
 20
2.000257841535578
 30
0.0
 10
-34.2952083451684
 20
2.000490386302149
 30
0.0
 10
-34.18816022254808
 20
2.000912253181233
 30
0.0
 10
-34.15315286415256
 20
2.001031881988571
 30
0.0
 10
-34.07004998858197
 20
2.001571991473106
 30
0.0
 10
-34.01811518835335
 20
2.002075843427645
 30
0.0
 10
-33.93881711724731
 20
2.003973453438884
 30
0.0
 10
-33.91258353170667
 20
2.004777578169212
 30
0.0
 10
-33.86545376801031
 20
2.006716589798504
 30
0.0
 10
-33.84430846000266
 20
2.007765721343915
 30
0.0
 10
-33.80896862836556
 20
2.009897236268781
 30
0.0
 10
-33.79426718207242
 20
2.010904595981492
 30
0.0
 10
-33.77187213365407
 20
2.012629908936362
 30
0.0
 10
-33.76345170634459
 20
2.013330600727671
 30
0.0
 10
-33.75130451242423
 20
2.014405930614268
 30
0.0
 10
-33.74694266116079
 20
2.014809472883131
 30
0.0
 10
-33.73705123412814
 20
2.015754670665008
 30
0.0
 10
-33.73234055575613
 20
2.016237576059608
 30
0.0
 10
-33.72656863505903
 20
2.01684412203334
 30
0.0
 10
-33.72469991148899
 20
2.017050246870764
 30
0.0
 10
-33.72391709528293
 20
2.017137115256588
 30
0.0
 10
-33.72383606964463
 20
2.017146192075164
 30
0.0
 10
-33.72383606962882
 20
2.017146192076936
 30
0.0
  0
LINE
  5
88B9
330
889A
100
AcDbEntity
  8
0
100
AcDbLine
 10
-32.0
 20
2.000000000000012
 30
0.0
 11
-28.0
 21
2.000000000000005
 31
0.0
  0
LINE
  5
88BA
330
889A
100
AcDbEntity
  8
0
100
AcDbLine
 10
-27.99999999999999
 20
86.00000000000001
 30
0.0
 11
-31.99999999999999
 21
86.00000000000001
 31
0.0
  0
LINE
  5
88BB
330
889A
100
AcDbEntity
  8
0
100
AcDbLine
 10
-31.99999999999999
 20
2.000000000000012
 30
0.0
 11
-31.99999999999999
 21
86.00000000000001
 31
0.0
  0
LINE
  5
88BC
330
889A
100
AcDbEntity
  8
0
100
AcDbLine
 10
32.0
 20
2.000000000000012
 30
0.0
 11
28.0
 21
2.000000000000005
 31
0.0
  0
LINE
  5
88BD
330
889A
100
AcDbEntity
  8
0
100
AcDbLine
 10
31.99999999999999
 20
2.000000000000012
 30
0.0
 11
31.99999999999999
 21
86.00000000000001
 31
0.0
  0
LINE
  5
88BE
330
889A
100
AcDbEntity
  8
0
100
AcDbLine
 10
27.99999999999999
 20
86.00000000000001
 30
0.0
 11
31.99999999999999
 21
86.00000000000001
 31
0.0
  0
LINE
  5
88BF
330
889A
100
AcDbEntity
  8
0
100
AcDbLine
 10
71.50000000000004
 20
0.0
 30
0.0
 11
34.60606060606064
 21
0.0
 31
0.0
  0
LINE
  5
88C0
330
889A
100
AcDbEntity
  8
0
100
AcDbLine
 10
71.50000000000004
 20
1.999999999999992
 30
0.0
 11
71.50000000000004
 21
0.0
 31
0.0
  0
LINE
  5
88C1
330
889A
100
AcDbEntity
  8
0
100
AcDbLine
 10
34.60606060606065
 20
2.000000000000008
 30
0.0
 11
71.50000000000004
 21
1.999999999999992
 31
0.0
  0
LINE
  5
88C2
330
889A
100
AcDbEntity
  8
0
100
AcDbLine
 10
-71.50000000000004
 20
1.999999999999992
 30
0.0
 11
-34.60606060606065
 21
2.000000000000008
 31
0.0
  0
LINE
  5
88C3
330
889A
100
AcDbEntity
  8
0
100
AcDbLine
 10
-71.50000000000004
 20
0.0
 30
0.0
 11
-71.50000000000004
 21
1.999999999999992
 31
0.0
  0
LINE
  5
88C4
330
889A
100
AcDbEntity
  8
0
100
AcDbLine
 10
-34.60606060606064
 20
0.0
 30
0.0
 11
-71.50000000000004
 21
0.0
 31
0.0
  0
ENDBLK
  5
889C
330
889A
100
AcDbEntity
  8
0
100
AcDbBlockEnd
  0
BLOCK
  5
88C6
330
88C5
100
AcDbEntity
  8
0
100
AcDbBlockBegin
  2
SAE340_60_2-ISO
 70
     0
 10
0.0
 20
0.0
 30
0.0
  3
SAE340_60_2-ISO
  1

  0
LINE
  5
88C8
330
88C5
100
AcDbEntity
  8
0
100
AcDbLine
 10
51.39133562556417
 20
-44.63038740698919
 30
0.0
 11
51.25770915990123
 21
-44.70753668291055
 31
0.0
  0
SPLINE
  5
88C9
330
88C5
100
AcDbEntity
  8
0
100
AcDbSpline
210
0.0
220
0.0
230
1.0
 70
     8
 71
     3
 72
    14
 73
    10
 74
     0
 42
0.000000001
 43
0.0000000001
 40
0.0
 40
0.0
 40
0.0
 40
0.0
 40
0.3435185598330248
 40
0.3435185598330248
 40
0.3435185598330248
 40
0.757013838864677
 40
0.757013838864677
 40
0.757013838864677
 40
1.0
 40
1.0
 40
1.0
 40
1.0
 10
53.23409875229277
 20
-43.60203470563141
 30
0.0
 10
53.00698092731717
 20
-43.68323272889136
 30
0.0
 10
52.71760090710405
 20
-43.69905531781494
 30
0.0
 10
52.43628812960629
 20
-43.72692934497795
 30
0.0
 10
52.09767031086848
 20
-43.76048147283127
 30
0.0
 10
51.77047595818978
 20
-43.81209369861501
 30
0.0
 10
51.57608010060869
 20
-44.0375206694911
 30
0.0
 10
51.46184541506439
 20
-44.16999046309507
 30
0.0
 10
51.39115548630069
 20
-44.33802561494466
 30
0.0
 10
51.39133562520772
 20
-44.63038740542788
 30
0.0
  0
LINE
  5
88CA
330
88C5
100
AcDbEntity
  8
0
100
AcDbLine
 10
52.80554918793727
 20
-43.35461149928966
 30
0.0
 11
53.23409875229279
 21
-43.60203470563141
 31
0.0
  0
ELLIPSE
  5
88CB
330
88C5
100
AcDbEntity
  8
0
100
AcDbEllipse
 10
51.39133562556418
 20
-44.17110808021738
 30
0.0
 11
1.999999999999996
 21
-0.0000000000001189
 31
0.0
210
0.0
220
0.0
230
1.0
 40
0.5773502691896259
 41
0.7853981633976899
 42
2.356194490192606
  0
LINE
  5
88CC
330
88C5
100
AcDbEntity
  8
0
100
AcDbLine
 10
49.97712206319109
 20
-43.5499698060973
 30
0.0
 11
49.97712206319109
 21
-43.35461149928966
 31
0.0
  0
LINE
  5
88CD
330
88C5
100
AcDbEntity
  8
0
100
AcDbLine
 10
49.97712206319109
 20
-45.44688398791691
 30
0.0
 11
49.97712206319109
 21
-43.5499698060973
 31
0.0
  0
LINE
  5
88CE
330
88C5
100
AcDbEntity
  8
0
100
AcDbLine
 10
51.25770915990123
 20
-44.70753668291055
 30
0.0
 11
49.97712206319109
 21
-45.44688398791691
 31
0.0
  0
ELLIPSE
  5
88CF
330
88C5
100
AcDbEntity
  8
0
100
AcDbEllipse
 10
-17.90512893071746
 20
-68.30878825389323
 30
0.0
 11
-2.5
 21
-0.000000000000149
 31
0.0
210
0.0
220
0.0
230
1.0
 40
0.577350269189626
 41
3.742856870268582
 42
5.681921090500122
  0
ELLIPSE
  5
88D0
330
88C5
100
AcDbEntity
  8
0
100
AcDbEllipse
 10
-3.76299330698651
 20
-60.14382244461597
 30
0.0
 11
-2.5
 21
-0.000000000000149
 31
0.0
210
0.0
220
0.0
230
1.0
 40
0.577350269189626
 41
3.742856870268582
 42
5.681921090500122
  0
LINE
  5
88D1
330
88C5
100
AcDbEntity
  8
0
100
AcDbLine
 10
-10.83406111885202
 20
-87.08820961523095
 30
0.0
 11
-50.43204086529868
 21
-64.22630534925463
 31
0.0
  0
LINE
  5
88D2
330
88C5
100
AcDbEntity
  8
0
100
AcDbLine
 10
7.550715191998214
 20
-19.31899339822967
 30
0.0
 11
7.550715191998231
 21
-25.85096604565149
 31
0.0
  0
LINE
  5
88D3
330
88C5
100
AcDbEntity
  8
0
100
AcDbLine
 10
18.86442369098294
 20
-34.01593185492874
 30
0.0
 11
8.964928754371319
 21
-28.30045578843467
 31
0.0
  0
LINE
  5
88D4
330
88C5
100
AcDbEntity
  8
0
100
AcDbLine
 10
-50.43204086529866
 20
-62.59331218739917
 30
0.0
 11
-10.83406111885201
 21
-85.45521645337549
 31
0.0
  0
ELLIPSE
  5
88D5
330
88C5
100
AcDbEntity
  8
0
100
AcDbEllipse
 10
-3.76299330698651
 20
-58.51082928276053
 30
0.0
 11
-2.5
 21
0.0000000000001493
 31
0.0
210
0.0
220
0.0
230
1.0
 40
0.5773502691896259
 41
0.0
 42
6.283185307179586
  0
ELLIPSE
  5
88D6
330
88C5
100
AcDbEntity
  8
0
100
AcDbEllipse
 10
-17.90512893071746
 20
-66.67579509203779
 30
0.0
 11
-2.5
 21
0.0000000000001493
 31
0.0
210
0.0
220
0.0
230
1.0
 40
0.5773502691896259
 41
0.0
 42
6.283185307179586
  0
LINE
  5
88D7
330
88C5
100
AcDbEntity
  8
0
100
AcDbLine
 10
7.550715191998214
 20
-19.31899339822967
 30
0.0
 11
7.465473285992829
 21
-19.36820783560811
 31
0.0
  0
SPLINE
  5
88D8
330
88C5
100
AcDbEntity
  8
0
100
AcDbSpline
210
0.0
220
0.0
230
1.0
 70
     8
 71
     3
 72
    11
 73
     7
 74
     0
 42
0.000000001
 43
0.0000000001
 40
-1.0
 40
-1.0
 40
-1.0
 40
-1.0
 40
-0.7994229169941683
 40
-0.7994229169941683
 40
-0.7994229169941683
 40
-0.6581414025874199
 40
-0.6581414025874199
 40
-0.6581414025874199
 40
-0.6581414025874199
 10
7.550715191998218
 20
-19.31899339822967
 30
0.0
 10
7.551356449298931
 20
-18.92436794996906
 30
0.0
 10
7.518045389871295
 20
-18.5656091805372
 30
0.0
 10
7.461071499784708
 20
-18.22426670583724
 30
0.0
 10
7.420940506989071
 20
-17.9838335465039
 30
0.0
 10
7.366490678434995
 20
-17.75400811793656
 30
0.0
 10
7.299362348285538
 20
-17.53122354206856
 30
0.0
  0
ELLIPSE
  5
88D9
330
88C5
100
AcDbEntity
  8
0
100
AcDbEllipse
 10
3.308074504878946
 20
-16.41022432867469
 30
0.0
 11
3.999999999999999
 21
0.0000000000000004
 31
0.0
210
0.0
220
0.0
230
1.0
 40
0.5773502691896259
 41
6.05874703688933
 42
6.283185307179587
  0
ELLIPSE
  5
88DA
330
88C5
100
AcDbEntity
  8
0
100
AcDbEllipse
 10
3.308074504878946
 20
-16.41022432867469
 30
0.0
 11
3.999999999999999
 21
0.0000000000000003
 31
0.0
210
0.0
220
0.0
230
1.0
 40
0.5773502691896258
 41
5.497787143782129
 42
6.058747036889328
  0
LINE
  5
88DB
330
88C5
100
AcDbEntity
  8
0
100
AcDbLine
 10
6.136501629625135
 20
-18.04321749053015
 30
0.0
 11
6.136501629625135
 21
-18.23764390611671
 31
0.0
  0
LINE
  5
88DC
330
88C5
100
AcDbEntity
  8
0
100
AcDbLine
 10
6.136501629625135
 20
-18.23764390611671
 30
0.0
 11
6.136501629625135
 21
-20.13548997915741
 31
0.0
  0
LINE
  5
88DD
330
88C5
100
AcDbEntity
  8
0
100
AcDbLine
 10
7.465473285992829
 20
-19.36820783560811
 30
0.0
 11
6.136501629625126
 21
-20.1354899791574
 31
0.0
  0
SPLINE
  5
88DE
330
88C5
100
AcDbEntity
  8
0
100
AcDbSpline
210
0.0
220
0.0
230
1.0
 70
     8
 71
     3
 72
    16
 73
    12
 74
     0
 42
0.000000001
 43
0.0000000001
 40
0.0
 40
0.0
 40
0.0
 40
0.0
 40
0.0351246664949734
 40
0.0351246664949734
 40
0.0553378252829295
 40
0.0553378252829295
 40
0.0803966055249045
 40
0.0803966055249045
 40
0.1060253304088411
 40
0.1060253304088411
 40
0.1164305243516562
 40
0.1164305243516562
 40
0.1164305243516562
 40
0.1164305243516562
 10
7.296701835244792
 20
-16.58425207109778
 30
0.0
 10
7.281507209863584
 20
-16.7003403120251
 30
0.0
 10
7.266577335412791
 20
-16.81856858562387
 30
0.0
 10
7.251724698293249
 20
-16.99593374534837
 30
0.0
 10
7.248148724049938
 20
-17.05944669076273
 30
0.0
 10
7.245904951672592
 20
-17.19054090187609
 30
0.0
 10
7.24863897989191
 20
-17.25639406727228
 30
0.0
 10
7.260504062295427
 20
-17.37183482893986
 30
0.0
 10
7.269555687414932
 20
-17.42244031155286
 30
0.0
 10
7.286399787745754
 20
-17.49129073505255
 30
0.0
 10
7.29178969599681
 20
-17.51101526415026
 30
0.0
 10
7.297899678041916
 20
-17.53132068407469
 30
0.0
  0
ELLIPSE
  5
88DF
330
88C5
100
AcDbEntity
  8
0
100
AcDbEllipse
 10
8.964928754371324
 20
-26.66746262657922
 30
0.0
 11
1.000000000000106
 21
-1.732050807568816
 31
0.0
210
0.0
220
0.0
230
1.0
 40
0.5773502691896267
 41
3.926990816987
 42
5.497787143781896
  0
LINE
  5
88E0
330
88C5
100
AcDbEntity
  8
0
100
AcDbLine
 10
8.964928754371319
 20
-28.30045578843467
 30
0.0
 11
-50.43204086529866
 21
-62.59331218739917
 31
0.0
  0
ELLIPSE
  5
88E1
330
88C5
100
AcDbEntity
  8
0
100
AcDbEllipse
 10
-50.43204086529866
 20
-60.96031902554372
 30
0.0
 11
2.000000000000209
 21
-3.464101615137639
 31
0.0
210
0.0
220
0.0
230
1.0
 40
0.5773502691896258
 41
3.926990816986997
 42
5.497787143781893
  0
LINE
  5
88E2
330
88C5
100
AcDbEntity
  8
0
100
AcDbLine
 10
-51.84625442767175
 20
-60.143822444616
 30
0.0
 11
7.550715191998227
 21
-25.85096604565149
 31
0.0
  0
LINE
  5
88E3
330
88C5
100
AcDbEntity
  8
0
100
AcDbLine
 10
-53.26046799004487
 20
-59.32732586368827
 30
0.0
 11
-51.84625442767175
 21
-60.143822444616
 31
0.0
  0
LINE
  5
88E4
330
88C5
100
AcDbEntity
  8
0
100
AcDbLine
 10
-50.43204086529866
 20
-64.22630534925463
 30
0.0
 11
-50.43204086529866
 21
-62.59331218739917
 31
0.0
  0
ELLIPSE
  5
88E5
330
88C5
100
AcDbEntity
  8
0
100
AcDbEllipse
 10
-50.43204086529866
 20
-60.96031902554372
 30
0.0
 11
1.000000000000104
 21
-1.732050807568819
 31
0.0
210
0.0
220
0.0
230
1.0
 40
0.5773502691896258
 41
3.926990816986997
 42
5.497787143781896
  0
LINE
  5
88E6
330
88C5
100
AcDbEntity
  8
0
100
AcDbLine
 10
51.39133562556416
 20
-51.16236005441098
 30
0.0
 11
51.39133562556417
 21
-44.63038740698919
 31
0.0
  0
ELLIPSE
  5
88E7
330
88C5
100
AcDbEntity
  8
0
100
AcDbEllipse
 10
48.56290850081799
 20
-49.52936689255555
 30
0.0
 11
1.999999999999999
 21
-3.464101615137756
 31
0.0
210
0.0
220
0.0
230
1.0
 40
0.5773502691896249
 41
0.0
 42
0.7853981633974457
  0
LINE
  5
88E8
330
88C5
100
AcDbEntity
  8
0
100
AcDbLine
 10
-10.83406111885202
 20
-85.45521645337549
 30
0.0
 11
-9.419847556478933
 21
-84.63871987244775
 31
0.0
  0
LINE
  5
88E9
330
88C5
100
AcDbEntity
  8
0
100
AcDbLine
 10
51.39133562556416
 20
-51.16236005441098
 30
0.0
 11
-8.005633994105831
 21
-85.45521645337549
 31
0.0
  0
ELLIPSE
  5
88EA
330
88C5
100
AcDbEntity
  8
0
100
AcDbEllipse
 10
-10.83406111885201
 20
-83.82222329152003
 30
0.0
 11
2.000000000000001
 21
-3.464101615137758
 31
0.0
210
0.0
220
0.0
230
0.9999999999999998
 40
0.5773502691896257
 41
5.497787143782137
 42
7.068583470577033
  0
LINE
  5
88EB
330
88C5
100
AcDbEntity
  8
0
100
AcDbLine
 10
79.32205348243285
 20
-33.81180770969686
 30
0.0
 11
80.73626704480595
 21
-32.99531112876913
 31
0.0
  0
LINE
  5
88EC
330
88C5
100
AcDbEntity
  8
0
100
AcDbLine
 10
53.23409875229279
 20
-43.60203470563141
 30
0.0
 11
79.32205348243285
 21
-33.81180770969686
 31
0.0
  0
ELLIPSE
  5
88ED
330
88C5
100
AcDbEntity
  8
0
100
AcDbEllipse
 10
66.94768481166822
 20
37.83576726671115
 30
0.0
 11
-3.25
 21
5.629165124598853
 31
0.0
210
0.0
220
0.0
230
1.0
 40
0.5773502691896259
 41
0.2193254863005972
 42
2.922267167289197
  0
ELLIPSE
  5
88EE
330
88C5
100
AcDbEntity
  8
0
100
AcDbEllipse
 10
74.72585940472024
 20
37.42751897624729
 30
0.0
 11
1.250000000000129
 21
-2.165063509461022
 31
0.0
210
0.0
220
0.0
230
0.9999999999999998
 40
0.5773502691896259
 41
3.742856870268592
 42
5.681921090500106
  0
LINE
  5
88EF
330
88C5
100
AcDbEntity
  8
0
100
AcDbLine
 10
54.21976275031036
 20
61.51416811361521
 30
0.0
 11
80.7362670448059
 21
46.20485722122034
 31
0.0
  0
LINE
  5
88F0
330
88C5
100
AcDbEntity
  8
0
100
AcDbLine
 10
80.73626704480595
 20
-32.99531112876913
 30
0.0
 11
80.7362670448059
 21
46.20485722122033
 31
0.0
  0
ELLIPSE
  5
88F1
330
88C5
100
AcDbEntity
  8
0
100
AcDbEllipse
 10
51.39133562556418
 20
59.88117495175977
 30
0.0
 11
3.999999999999999
 21
-0.0000000000002386
 31
0.0
210
0.0
220
0.0
230
1.0
 40
0.5773502691896259
 41
0.7853981633976881
 42
2.356194490192585
  0
ELLIPSE
  5
88F2
330
88C5
100
AcDbEntity
  8
0
100
AcDbEllipse
 10
24.16772454988208
 20
35.18215337869602
 30
0.0
 11
1.24999999999987
 21
2.165063509461171
 31
0.0
210
0.0
220
0.0
230
1.0
 40
0.577350269189626
 41
3.742856870268578
 42
5.681921090500117
  0
ELLIPSE
  5
88F3
330
88C5
100
AcDbEntity
  8
0
100
AcDbEllipse
 10
25.58193811225518
 20
34.3656567977683
 30
0.0
 11
-1.25
 21
-2.165063509461097
 31
0.0
210
0.0
220
0.0
230
1.0
 40
0.5773502691896259
 41
0.0
 42
6.283185307179586
  0
LINE
  5
88F4
330
88C5
100
AcDbEntity
  8
0
100
AcDbLine
 10
-9.419847556478945
 20
-78.10674722502596
 30
0.0
 11
18.86442369098297
 21
-34.83242843585651
 31
0.0
  0
LINE
  5
88F5
330
88C5
100
AcDbEntity
  8
0
100
AcDbLine
 10
-8.005633994105849
 20
-78.92324380595368
 30
0.0
 11
-9.419847556478945
 21
-78.10674722502596
 31
0.0
  0
LINE
  5
88F6
330
88C5
100
AcDbEntity
  8
0
100
AcDbLine
 10
20.27863725335606
 20
-35.64892501678424
 30
0.0
 11
-8.005633994105849
 21
-78.92324380595368
 31
0.0
  0
LINE
  5
88F7
330
88C5
100
AcDbEntity
  8
0
100
AcDbLine
 10
20.27863725335606
 20
-35.64892501678424
 30
0.0
 11
18.86442369098297
 21
-34.83242843585651
 31
0.0
  0
LINE
  5
88F8
330
88C5
100
AcDbEntity
  8
0
100
AcDbLine
 10
18.86442369098297
 20
-34.83242843585651
 30
0.0
 11
18.86442369098298
 21
44.36773991413294
 31
0.0
  0
LINE
  5
88F9
330
88C5
100
AcDbEntity
  8
0
100
AcDbLine
 10
20.27863725335607
 20
43.5512433332052
 30
0.0
 11
20.27863725335606
 21
-35.64892501678424
 31
0.0
  0
LINE
  5
88FA
330
88C5
100
AcDbEntity
  8
0
100
AcDbLine
 10
18.86442369098298
 20
44.36773991413294
 30
0.0
 11
20.27863725335607
 21
43.5512433332052
 31
0.0
  0
LINE
  5
88FB
330
88C5
100
AcDbEntity
  8
0
100
AcDbLine
 10
-8.005633994105849
 20
-78.92324380595368
 30
0.0
 11
-8.005633994105828
 21
-85.45521645337549
 31
0.0
  0
LINE
  5
88FC
330
88C5
100
AcDbEntity
  8
0
100
AcDbLine
 10
49.97712206319109
 20
-43.35461149928966
 30
0.0
 11
49.97712206319109
 21
60.69767153268748
 31
0.0
  0
LINE
  5
88FD
330
88C5
100
AcDbEntity
  8
0
100
AcDbLine
 10
49.97712206319109
 20
60.69767153268749
 30
0.0
 11
20.27863725335607
 21
43.5512433332052
 31
0.0
  0
LINE
  5
88FE
330
88C5
100
AcDbEntity
  8
0
100
AcDbLine
 10
18.86442369098298
 20
44.36773991413294
 30
0.0
 11
48.56290850081799
 21
61.51416811361521
 31
0.0
  0
LINE
  5
88FF
330
88C5
100
AcDbEntity
  8
0
100
AcDbLine
 10
-9.419847556478927
 20
-84.63871987244775
 30
0.0
 11
-9.419847556478945
 21
-78.10674722502596
 31
0.0
  0
LINE
  5
8900
330
88C5
100
AcDbEntity
  8
0
100
AcDbLine
 10
-10.83406111885202
 20
-85.45521645337549
 30
0.0
 11
-10.83406111885202
 21
-87.08820961523095
 31
0.0
  0
LINE
  5
8901
330
88C5
100
AcDbEntity
  8
0
100
AcDbLine
 10
-9.419847556478927
 20
-84.63871987244775
 30
0.0
 11
-8.005633994105828
 21
-85.45521645337549
 31
0.0
  0
ELLIPSE
  5
8902
330
88C5
100
AcDbEntity
  8
0
100
AcDbEllipse
 10
-10.83406111885201
 20
-83.82222329152003
 30
0.0
 11
1.0
 21
-1.732050807568879
 31
0.0
210
0.0
220
0.0
230
0.9999999999999998
 40
0.5773502691896257
 41
5.49778714378214
 42
7.068583470577038
  0
LINE
  5
8903
330
88C5
100
AcDbEntity
  8
0
100
AcDbLine
 10
52.80554918793727
 20
-43.35461149928966
 30
0.0
 11
52.80554918793725
 21
60.69767153268748
 31
0.0
  0
ELLIPSE
  5
8904
330
88C5
100
AcDbEntity
  8
0
100
AcDbEllipse
 10
51.39133562556418
 20
59.88117495175977
 30
0.0
 11
-1.999999999999997
 21
-0.0000000000001195
 31
0.0
210
0.0
220
0.0
230
1.0
 40
0.5773502691896259
 41
3.926990816987004
 42
5.497787143781901
  0
LINE
  5
8905
330
88C5
100
AcDbEntity
  8
0
100
AcDbLine
 10
80.7362670448059
 20
46.20485722122034
 30
0.0
 11
79.32205348243281
 21
45.3883606402926
 31
0.0
  0
LINE
  5
8906
330
88C5
100
AcDbEntity
  8
0
100
AcDbLine
 10
79.32205348243285
 20
-33.81180770969686
 30
0.0
 11
79.32205348243281
 21
45.38836064029261
 31
0.0
  0
LINE
  5
8907
330
88C5
100
AcDbEntity
  8
0
100
AcDbLine
 10
49.97712206319109
 20
60.69767153268749
 30
0.0
 11
48.56290850081799
 21
61.51416811361521
 31
0.0
  0
LINE
  5
8908
330
88C5
100
AcDbEntity
  8
0
100
AcDbLine
 10
52.80554918793725
 20
60.69767153268749
 30
0.0
 11
54.21976275031036
 21
61.51416811361521
 31
0.0
  0
LINE
  5
8909
330
88C5
100
AcDbEntity
  8
0
100
AcDbLine
 10
79.32205348243281
 20
45.3883606402926
 30
0.0
 11
52.80554918793725
 21
60.69767153268749
 31
0.0
  0
ELLIPSE
  5
890A
330
88C5
100
AcDbEntity
  8
0
100
AcDbEllipse
 10
65.5334712492951
 20
37.01927068578342
 30
0.0
 11
-3.25
 21
5.62916512459885
 31
0.0
210
0.0
220
0.0
230
1.0
 40
0.577350269189626
 41
0.0
 42
6.283185307179586
  0
ELLIPSE
  5
890B
330
88C5
100
AcDbEntity
  8
0
100
AcDbEllipse
 10
73.31164584234712
 20
36.61102239531956
 30
0.0
 11
-1.25
 21
2.165063509461097
 31
0.0
210
0.0
220
0.0
230
1.0
 40
0.5773502691896259
 41
0.0
 42
6.283185307179586
  0
LINE
  5
890C
330
88C5
100
AcDbEntity
  8
0
100
AcDbLine
 10
-8.834061118852014
 20
-87.28632490665781
 30
0.0
 11
50.56290850081801
 21
-52.99346850769331
 31
0.0
  0
ELLIPSE
  5
890D
330
88C5
100
AcDbEntity
  8
0
100
AcDbEllipse
 10
66.94768481166822
 20
-19.31899339822967
 30
0.0
 11
-3.25
 21
5.629165124598853
 31
0.0
210
0.0
220
0.0
230
1.0
 40
0.5773502691896259
 41
0.2193254863005959
 42
2.922267167289195
  0
ELLIPSE
  5
890E
330
88C5
100
AcDbEntity
  8
0
100
AcDbEllipse
 10
65.5334712492951
 20
-20.13548997915741
 30
0.0
 11
-3.25
 21
5.62916512459885
 31
0.0
210
0.0
220
0.0
230
1.0
 40
0.577350269189626
 41
0.0
 42
6.283185307179586
  0
ELLIPSE
  5
890F
330
88C5
100
AcDbEntity
  8
0
100
AcDbEllipse
 10
59.1695102186162
 20
-27.07571091704307
 30
0.0
 11
1.250000000000129
 21
-2.165063509461022
 31
0.0
210
0.0
220
0.0
230
0.9999999999999998
 40
0.5773502691896259
 41
3.742856870268591
 42
5.681921090500106
  0
ELLIPSE
  5
8910
330
88C5
100
AcDbEntity
  8
0
100
AcDbEllipse
 10
59.1695102186162
 20
-10.74577929848855
 30
0.0
 11
1.250000000000129
 21
-2.165063509461022
 31
0.0
210
0.0
220
0.0
230
0.9999999999999998
 40
0.5773502691896259
 41
3.742856870268589
 42
5.681921090500106
  0
ELLIPSE
  5
8911
330
88C5
100
AcDbEntity
  8
0
100
AcDbEllipse
 10
59.1695102186162
 20
5.58415232006598
 30
0.0
 11
1.250000000000129
 21
-2.165063509461022
 31
0.0
210
0.0
220
0.0
230
0.9999999999999998
 40
0.5773502691896259
 41
3.742856870268589
 42
5.681921090500106
  0
ELLIPSE
  5
8912
330
88C5
100
AcDbEntity
  8
0
100
AcDbEllipse
 10
59.1695102186162
 20
21.91408393862051
 30
0.0
 11
1.250000000000129
 21
-2.165063509461022
 31
0.0
210
0.0
220
0.0
230
0.9999999999999998
 40
0.5773502691896258
 41
3.742856870268591
 42
5.681921090500105
  0
ELLIPSE
  5
8913
330
88C5
100
AcDbEntity
  8
0
100
AcDbEllipse
 10
59.1695102186162
 20
38.24401555717501
 30
0.0
 11
1.250000000000129
 21
-2.165063509461022
 31
0.0
210
0.0
220
0.0
230
0.9999999999999998
 40
0.5773502691896258
 41
3.742856870268591
 42
5.681921090500106
  0
ELLIPSE
  5
8914
330
88C5
100
AcDbEntity
  8
0
100
AcDbEllipse
 10
57.75529665624308
 20
-27.89220749797081
 30
0.0
 11
-1.25
 21
2.165063509461097
 31
0.0
210
0.0
220
0.0
230
1.0
 40
0.5773502691896259
 41
0.0
 42
6.283185307179586
  0
ELLIPSE
  5
8915
330
88C5
100
AcDbEntity
  8
0
100
AcDbEllipse
 10
57.75529665624308
 20
-11.56227587941629
 30
0.0
 11
-1.25
 21
2.165063509461097
 31
0.0
210
0.0
220
0.0
230
1.0
 40
0.5773502691896259
 41
0.0
 42
6.283185307179586
  0
ELLIPSE
  5
8916
330
88C5
100
AcDbEntity
  8
0
100
AcDbEllipse
 10
57.75529665624308
 20
4.767655739138243
 30
0.0
 11
-1.25
 21
2.165063509461097
 31
0.0
210
0.0
220
0.0
230
1.0
 40
0.5773502691896259
 41
0.0
 42
6.283185307179586
  0
ELLIPSE
  5
8917
330
88C5
100
AcDbEntity
  8
0
100
AcDbEllipse
 10
57.75529665624308
 20
21.09758735769277
 30
0.0
 11
-1.25
 21
2.165063509461097
 31
0.0
210
0.0
220
0.0
230
1.0
 40
0.5773502691896259
 41
0.0
 42
6.283185307179586
  0
ELLIPSE
  5
8918
330
88C5
100
AcDbEntity
  8
0
100
AcDbEllipse
 10
57.75529665624308
 20
37.42751897624728
 30
0.0
 11
-1.25
 21
2.165063509461097
 31
0.0
210
0.0
220
0.0
230
1.0
 40
0.5773502691896259
 41
0.0
 42
6.283185307179586
  0
ELLIPSE
  5
8919
330
88C5
100
AcDbEntity
  8
0
100
AcDbEllipse
 10
59.1695102186162
 20
54.57394717572953
 30
0.0
 11
1.250000000000129
 21
-2.165063509461022
 31
0.0
210
0.0
220
0.0
230
0.9999999999999998
 40
0.5773502691896258
 41
3.742856870268589
 42
5.681921090500106
  0
ELLIPSE
  5
891A
330
88C5
100
AcDbEntity
  8
0
100
AcDbEllipse
 10
-0.2274594010537978
 20
87.23381041283857
 30
0.0
 11
1.249999999999999
 21
-2.165063509461097
 31
0.0
210
0.0
220
0.0
230
0.9999999999999998
 40
0.5773502691896258
 41
0.0
 42
6.283185307179586
  0
ELLIPSE
  5
891B
330
88C5
100
AcDbEntity
  8
0
100
AcDbEllipse
 10
1.186754161319316
 20
88.05030699376629
 30
0.0
 11
1.250000000000129
 21
-2.165063509461022
 31
0.0
210
0.0
220
0.0
230
1.0
 40
0.5773502691896257
 41
3.742856870268589
 42
5.681921090500112
  0
ELLIPSE
  5
891C
330
88C5
100
AcDbEntity
  8
0
100
AcDbEllipse
 10
57.75529665624308
 20
53.7574505948018
 30
0.0
 11
-1.25
 21
2.165063509461097
 31
0.0
210
0.0
220
0.0
230
1.0
 40
0.5773502691896259
 41
0.0
 42
6.283185307179586
  0
ELLIPSE
  5
891D
330
88C5
100
AcDbEntity
  8
0
100
AcDbEllipse
 10
74.72585940472024
 20
-27.8922074979708
 30
0.0
 11
1.250000000000129
 21
-2.165063509461022
 31
0.0
210
0.0
220
0.0
230
1.0
 40
0.5773502691896259
 41
3.742856870268591
 42
5.681921090500106
  0
ELLIPSE
  5
891E
330
88C5
100
AcDbEntity
  8
0
100
AcDbEllipse
 10
74.72585940472024
 20
-11.56227587941627
 30
0.0
 11
1.250000000000129
 21
-2.165063509461022
 31
0.0
210
0.0
220
0.0
230
1.0
 40
0.5773502691896259
 41
3.742856870268589
 42
5.681921090500106
  0
ELLIPSE
  5
891F
330
88C5
100
AcDbEntity
  8
0
100
AcDbEllipse
 10
74.72585940472024
 20
4.767655739138243
 30
0.0
 11
1.250000000000129
 21
-2.165063509461022
 31
0.0
210
0.0
220
0.0
230
0.9999999999999998
 40
0.5773502691896259
 41
3.742856870268592
 42
5.681921090500106
  0
ELLIPSE
  5
8920
330
88C5
100
AcDbEntity
  8
0
100
AcDbEllipse
 10
74.72585940472024
 20
21.09758735769277
 30
0.0
 11
1.250000000000129
 21
-2.165063509461022
 31
0.0
210
0.0
220
0.0
230
0.9999999999999998
 40
0.5773502691896259
 41
3.742856870268592
 42
5.681921090500106
  0
ELLIPSE
  5
8921
330
88C5
100
AcDbEntity
  8
0
100
AcDbEllipse
 10
73.31164584234712
 20
-28.70870407889853
 30
0.0
 11
-1.25
 21
2.165063509461097
 31
0.0
210
0.0
220
0.0
230
1.0
 40
0.5773502691896259
 41
0.0
 42
6.283185307179586
  0
ELLIPSE
  5
8922
330
88C5
100
AcDbEntity
  8
0
100
AcDbEllipse
 10
73.31164584234712
 20
-12.37877246034401
 30
0.0
 11
-1.25
 21
2.165063509461097
 31
0.0
210
0.0
220
0.0
230
1.0
 40
0.5773502691896259
 41
0.0
 42
6.283185307179586
  0
ELLIPSE
  5
8923
330
88C5
100
AcDbEntity
  8
0
100
AcDbEllipse
 10
73.31164584234712
 20
3.951159158210506
 30
0.0
 11
-1.25
 21
2.165063509461097
 31
0.0
210
0.0
220
0.0
230
1.0
 40
0.5773502691896259
 41
0.0
 42
6.283185307179586
  0
ELLIPSE
  5
8924
330
88C5
100
AcDbEntity
  8
0
100
AcDbEllipse
 10
73.31164584234712
 20
20.28109077676504
 30
0.0
 11
-1.25
 21
2.165063509461097
 31
0.0
210
0.0
220
0.0
230
1.0
 40
0.5773502691896259
 41
0.0
 42
6.283185307179586
  0
LINE
  5
8925
330
88C5
100
AcDbEntity
  8
0
100
AcDbLine
 10
-18.99420086409478
 20
20.28373532396572
 30
0.0
 11
-18.28698902010412
 21
19.20171661043516
 31
0.0
  0
LINE
  5
8926
330
88C5
100
AcDbEntity
  8
0
100
AcDbLine
 10
-23.56198318020987
 20
-10.33753100802473
 30
0.0
 11
-51.84625442767178
 21
-53.61184979719419
 31
0.0
  0
LINE
  5
8927
330
88C5
100
AcDbEntity
  8
0
100
AcDbLine
 10
-24.97619674258297
 20
-9.521034427097001
 30
0.0
 11
-23.56198318020987
 21
-10.33753100802473
 31
0.0
  0
LINE
  5
8928
330
88C5
100
AcDbEntity
  8
0
100
AcDbLine
 10
-53.26046799004487
 20
-52.79535321626647
 30
0.0
 11
-24.97619674258297
 21
-9.521034427097001
 31
0.0
  0
LINE
  5
8929
330
88C5
100
AcDbEntity
  8
0
100
AcDbLine
 10
-51.84625442767178
 20
-53.61184979719419
 30
0.0
 11
-53.26046799004487
 21
-52.79535321626647
 31
0.0
  0
LINE
  5
892A
330
88C5
100
AcDbEntity
  8
0
100
AcDbLine
 10
-23.56198318020986
 20
68.86263734196472
 30
0.0
 11
-23.56198318020987
 21
-10.33753100802473
 31
0.0
  0
LINE
  5
892B
330
88C5
100
AcDbEntity
  8
0
100
AcDbLine
 10
-24.97619674258296
 20
69.67913392289244
 30
0.0
 11
-23.56198318020986
 21
68.86263734196472
 31
0.0
  0
LINE
  5
892C
330
88C5
100
AcDbEntity
  8
0
100
AcDbLine
 10
-24.97619674258297
 20
-9.521034427097001
 30
0.0
 11
-24.97619674258296
 21
69.67913392289244
 31
0.0
  0
ELLIPSE
  5
892D
330
88C5
100
AcDbEntity
  8
0
100
AcDbEllipse
 10
-8.005633994105828
 20
79.47709289402516
 30
0.0
 11
-3.250000000000007
 21
5.629165124598848
 31
0.0
210
0.0
220
0.0
230
1.0
 40
0.5773502691896258
 41
4.712388980384691
 42
7.853981633974484
  0
ELLIPSE
  5
892E
330
88C5
100
AcDbEntity
  8
0
100
AcDbEllipse
 10
-6.591420431732712
 20
80.29358947495289
 30
0.0
 11
-3.25
 21
5.629165124598853
 31
0.0
210
0.0
220
0.0
230
1.0
 40
0.5773502691896255
 41
0.2193254863005987
 42
1.570796326794899
  0
ELLIPSE
  5
892F
330
88C5
100
AcDbEntity
  8
0
100
AcDbEllipse
 10
-15.78380858715784
 20
88.05030699376629
 30
0.0
 11
1.249999999999999
 21
-2.165063509461097
 31
0.0
210
0.0
220
0.0
230
0.9999999999999998
 40
0.5773502691896258
 41
0.0
 42
6.283185307179586
  0
ELLIPSE
  5
8930
330
88C5
100
AcDbEntity
  8
0
100
AcDbEllipse
 10
-14.36959502478473
 20
88.86680357469401
 30
0.0
 11
1.250000000000129
 21
-2.165063509461022
 31
0.0
210
0.0
220
0.0
230
1.0
 40
0.5773502691896257
 41
3.742856870268589
 42
5.681921090500112
  0
LINE
  5
8931
330
88C5
100
AcDbEntity
  8
0
100
AcDbLine
 10
4.722288067252038
 20
86.82556212237471
 30
0.0
 11
4.722288067252047
 21
88.45855528423015
 31
0.0
  0
ELLIPSE
  5
8932
330
88C5
100
AcDbEntity
  8
0
100
AcDbEllipse
 10
3.308074504878946
 20
87.64205870330243
 30
0.0
 11
1.999999999999997
 21
0.0
 31
0.0
210
0.0
220
0.0
230
1.0
 40
0.5773502691896259
 41
5.49778714378214
 42
7.068583470577027
  0
LINE
  5
8933
330
88C5
100
AcDbEntity
  8
0
100
AcDbLine
 10
6.136501629625135
 20
86.009065541447
 30
0.0
 11
6.136501629625135
 21
-18.04321749053015
 31
0.0
  0
ELLIPSE
  5
8934
330
88C5
100
AcDbEntity
  8
0
100
AcDbEllipse
 10
3.308074504878946
 20
87.64205870330243
 30
0.0
 11
3.999999999999999
 21
-0.0000000000000001
 31
0.0
210
0.0
220
0.0
230
1.0
 40
0.5773502691896258
 41
5.497787143782137
 42
7.068583470577028
  0
LINE
  5
8935
330
88C5
100
AcDbEntity
  8
0
100
AcDbLine
 10
4.722288067252047
 20
88.45855528423015
 30
0.0
 11
6.136501629625144
 21
89.27505186515787
 31
0.0
  0
LINE
  5
8936
330
88C5
100
AcDbEntity
  8
0
100
AcDbLine
 10
4.722288067252038
 20
86.82556212237471
 30
0.0
 11
6.136501629625135
 21
86.009065541447
 31
0.0
  0
LINE
  5
8937
330
88C5
100
AcDbEntity
  8
0
100
AcDbLine
 10
7.308074504878945
 20
-16.4102243286747
 30
0.0
 11
7.308074504878945
 21
87.64205870330243
 31
0.0
  0
LINE
  5
8938
330
88C5
100
AcDbEntity
  8
0
100
AcDbLine
 10
-21.79421622724349
 20
103.767866176625
 30
0.0
 11
4.722288067252047
 21
88.45855528423015
 31
0.0
  0
LINE
  5
8939
330
88C5
100
AcDbEntity
  8
0
100
AcDbLine
 10
-21.79421622724352
 20
71.51625122997987
 30
0.0
 11
-21.79421622724349
 21
103.767866176625
 31
0.0
  0
LINE
  5
893A
330
88C5
100
AcDbEntity
  8
0
100
AcDbLine
 10
-51.84625442767175
 20
-60.143822444616
 30
0.0
 11
-51.84625442767178
 21
-53.61184979719419
 31
0.0
  0
LINE
  5
893B
330
88C5
100
AcDbEntity
  8
0
100
AcDbLine
 10
-23.56198318020986
 20
68.86263734196472
 30
0.0
 11
6.136501629625135
 21
86.009065541447
 31
0.0
  0
LINE
  5
893C
330
88C5
100
AcDbEntity
  8
0
100
AcDbLine
 10
-53.26046799004487
 20
-52.79535321626647
 30
0.0
 11
-53.26046799004487
 21
-59.32732586368827
 31
0.0
  0
LINE
  5
893D
330
88C5
100
AcDbEntity
  8
0
100
AcDbLine
 10
4.722288067252038
 20
86.82556212237471
 30
0.0
 11
-24.97619674258296
 21
69.67913392289244
 31
0.0
  0
LINE
  5
893E
330
88C5
100
AcDbEntity
  8
0
100
AcDbLine
 10
6.136501629625144
 20
89.27505186515787
 30
0.0
 11
-20.38000266487039
 21
104.5843627575527
 31
0.0
  0
LINE
  5
893F
330
88C5
100
AcDbEntity
  8
0
100
AcDbLine
 10
-20.38000266487039
 20
104.5843627575527
 30
0.0
 11
-21.79421622724349
 21
103.767866176625
 31
0.0
  0
ELLIPSE
  5
8940
330
88C5
100
AcDbEntity
  8
0
100
AcDbEllipse
 10
24.16772454988208
 20
-46.46750471407659
 30
0.0
 11
1.24999999999987
 21
2.165063509461171
 31
0.0
210
0.0
220
0.0
230
1.0
 40
0.577350269189626
 41
3.742856870268578
 42
5.681921090500114
  0
ELLIPSE
  5
8941
330
88C5
100
AcDbEntity
  8
0
100
AcDbEllipse
 10
25.58193811225518
 20
-47.28400129500432
 30
0.0
 11
-1.25
 21
-2.165063509461097
 31
0.0
210
0.0
220
0.0
230
1.0
 40
0.5773502691896259
 41
0.0
 42
6.283185307179586
  0
ELLIPSE
  5
8942
330
88C5
100
AcDbEntity
  8
0
100
AcDbEllipse
 10
24.16772454988208
 20
-30.13757309552207
 30
0.0
 11
1.24999999999987
 21
2.165063509461171
 31
0.0
210
0.0
220
0.0
230
1.0
 40
0.577350269189626
 41
3.742856870268578
 42
5.681921090500117
  0
ELLIPSE
  5
8943
330
88C5
100
AcDbEntity
  8
0
100
AcDbEllipse
 10
25.58193811225518
 20
-30.9540696764498
 30
0.0
 11
-1.25
 21
-2.165063509461097
 31
0.0
210
0.0
220
0.0
230
1.0
 40
0.5773502691896259
 41
0.0
 42
6.283185307179586
  0
ELLIPSE
  5
8944
330
88C5
100
AcDbEntity
  8
0
100
AcDbEllipse
 10
24.16772454988208
 20
-13.80764147696754
 30
0.0
 11
1.24999999999987
 21
2.165063509461171
 31
0.0
210
0.0
220
0.0
230
1.0
 40
0.577350269189626
 41
3.742856870268578
 42
5.681921090500117
  0
ELLIPSE
  5
8945
330
88C5
100
AcDbEntity
  8
0
100
AcDbEllipse
 10
25.58193811225518
 20
-14.62413805789527
 30
0.0
 11
-1.25
 21
-2.165063509461097
 31
0.0
210
0.0
220
0.0
230
1.0
 40
0.5773502691896259
 41
0.0
 42
6.283185307179586
  0
ELLIPSE
  5
8946
330
88C5
100
AcDbEntity
  8
0
100
AcDbEllipse
 10
24.16772454988208
 20
2.522290141586971
 30
0.0
 11
1.24999999999987
 21
2.165063509461171
 31
0.0
210
0.0
220
0.0
230
1.0
 40
0.577350269189626
 41
3.742856870268578
 42
5.681921090500117
  0
ELLIPSE
  5
8947
330
88C5
100
AcDbEntity
  8
0
100
AcDbEllipse
 10
25.58193811225518
 20
1.705793560659243
 30
0.0
 11
-1.25
 21
-2.165063509461097
 31
0.0
210
0.0
220
0.0
230
1.0
 40
0.5773502691896259
 41
0.0
 42
6.283185307179586
  0
ELLIPSE
  5
8948
330
88C5
100
AcDbEntity
  8
0
100
AcDbEllipse
 10
24.16772454988208
 20
18.8522217601415
 30
0.0
 11
1.24999999999987
 21
2.165063509461171
 31
0.0
210
0.0
220
0.0
230
1.0
 40
0.577350269189626
 41
3.742856870268578
 42
5.681921090500117
  0
ELLIPSE
  5
8949
330
88C5
100
AcDbEntity
  8
0
100
AcDbEllipse
 10
25.58193811225518
 20
18.03572517921378
 30
0.0
 11
-1.25
 21
-2.165063509461097
 31
0.0
210
0.0
220
0.0
230
1.0
 40
0.5773502691896259
 41
0.0
 42
6.283185307179586
  0
ELLIPSE
  5
894A
330
88C5
100
AcDbEntity
  8
0
100
AcDbEllipse
 10
-19.67289588368384
 20
-12.99114489603981
 30
0.0
 11
1.24999999999987
 21
2.165063509461171
 31
0.0
210
0.0
220
0.0
230
1.0
 40
0.5773502691896258
 41
3.742856870268582
 42
5.681921090500116
  0
ELLIPSE
  5
894B
330
88C5
100
AcDbEntity
  8
0
100
AcDbEllipse
 10
-18.25868232131074
 20
-13.80764147696753
 30
0.0
 11
1.249999999999999
 21
2.165063509461097
 31
0.0
210
0.0
220
0.0
230
0.9999999999999998
 40
0.5773502691896258
 41
0.0
 42
6.283185307179586
  0
ELLIPSE
  5
894C
330
88C5
100
AcDbEntity
  8
0
100
AcDbEllipse
 10
-19.67289588368384
 20
3.338786722514717
 30
0.0
 11
1.24999999999987
 21
2.165063509461171
 31
0.0
210
0.0
220
0.0
230
1.0
 40
0.5773502691896258
 41
3.742856870268582
 42
5.681921090500116
  0
ELLIPSE
  5
894D
330
88C5
100
AcDbEntity
  8
0
100
AcDbEllipse
 10
-18.25868232131074
 20
2.522290141586989
 30
0.0
 11
1.249999999999999
 21
2.165063509461097
 31
0.0
210
0.0
220
0.0
230
0.9999999999999998
 40
0.5773502691896258
 41
0.0
 42
6.283185307179586
  0
ELLIPSE
  5
894E
330
88C5
100
AcDbEntity
  8
0
100
AcDbEllipse
 10
-19.67289588368384
 20
19.66871834106924
 30
0.0
 11
1.24999999999987
 21
2.165063509461171
 31
0.0
210
0.0
220
0.0
230
1.0
 40
0.5773502691896258
 41
3.742856870268582
 42
5.681921090500117
  0
ELLIPSE
  5
894F
330
88C5
100
AcDbEntity
  8
0
100
AcDbEllipse
 10
-18.25868232131074
 20
18.85222176014151
 30
0.0
 11
1.249999999999999
 21
2.165063509461097
 31
0.0
210
0.0
220
0.0
230
0.9999999999999998
 40
0.5773502691896258
 41
0.0
 42
6.283185307179586
  0
ELLIPSE
  5
8950
330
88C5
100
AcDbEntity
  8
0
100
AcDbEllipse
 10
-19.67289588368384
 20
35.99864995962377
 30
0.0
 11
1.24999999999987
 21
2.165063509461171
 31
0.0
210
0.0
220
0.0
230
1.0
 40
0.5773502691896258
 41
3.742856870268582
 42
5.681921090500117
  0
ELLIPSE
  5
8951
330
88C5
100
AcDbEntity
  8
0
100
AcDbEllipse
 10
-18.25868232131074
 20
35.18215337869604
 30
0.0
 11
1.249999999999999
 21
2.165063509461097
 31
0.0
210
0.0
220
0.0
230
0.9999999999999998
 40
0.5773502691896258
 41
0.0
 42
6.283185307179586
  0
ELLIPSE
  5
8952
330
88C5
100
AcDbEntity
  8
0
100
AcDbEllipse
 10
-19.67289588368384
 20
52.32858157817827
 30
0.0
 11
1.24999999999987
 21
2.165063509461171
 31
0.0
210
0.0
220
0.0
230
1.0
 40
0.5773502691896258
 41
3.742856870268582
 42
5.681921090500117
  0
ELLIPSE
  5
8953
330
88C5
100
AcDbEntity
  8
0
100
AcDbEllipse
 10
-18.25868232131074
 20
51.51208499725055
 30
0.0
 11
1.249999999999999
 21
2.165063509461097
 31
0.0
210
0.0
220
0.0
230
0.9999999999999998
 40
0.5773502691896258
 41
0.0
 42
6.283185307179586
  0
ELLIPSE
  5
8954
330
88C5
100
AcDbEntity
  8
0
100
AcDbEllipse
 10
-19.67289588368384
 20
68.65851319673279
 30
0.0
 11
1.24999999999987
 21
2.165063509461171
 31
0.0
210
0.0
220
0.0
230
1.0
 40
0.5773502691896258
 41
3.742856870268582
 42
5.681921090500117
  0
ELLIPSE
  5
8955
330
88C5
100
AcDbEntity
  8
0
100
AcDbEllipse
 10
-18.25868232131074
 20
67.84201661580508
 30
0.0
 11
1.249999999999999
 21
2.165063509461097
 31
0.0
210
0.0
220
0.0
230
0.9999999999999998
 40
0.5773502691896258
 41
0.0
 42
6.283185307179586
  0
ENDBLK
  5
88C7
330
88C5
100
AcDbEntity
  8
0
100
AcDbBlockEnd
  0
ENDSEC
  0
SECTION
  2
ENTITIES
  0
INSERT
  5
8956
330
1F
100
AcDbEntity
  8
0
100
AcDbBlockReference
  2
SAE340_60_2-Front
 10
0.0
 20
0.0
 30
0.0
  0
INSERT
  5
8957
330
1F
100
AcDbEntity
  8
0
100
AcDbBlockReference
  2
SAE340_60_2-Left
 10
114.1
 20
0.0
 30
0.0
  0
INSERT
  5
8958
330
1F
100
AcDbEntity
  8
0
100
AcDbBlockReference
  2
SAE340_60_2-Right
 10
-114.1
 20
0.0
 30
0.0
  0
INSERT
  5
8959
330
1F
100
AcDbEntity
  8
0
100
AcDbBlockReference
  2
SAE340_60_2-Top
 10
0.0
 20
-44.59999999999999
 30
0.0
  0
INSERT
  5
895A
330
1F
100
AcDbEntity
  8
0
100
AcDbBlockReference
  2
SAE340_60_2-Bottom
 10
0.0
 20
182.6
 30
0.0
  0
INSERT
  5
895B
330
1F
100
AcDbEntity
  8
0
100
AcDbBlockReference
  2
SAE340_60_2-ISO
 10
167.3604679900449
 20
-149.1843627575527
 30
0.0
  0
MTEXT
  5
895C
330
1F
100
AcDbEntity
  8
0
100
AcDbMText
 10
0.0
 20
-173.2
 30
0.0
 40
14.2
 41
0.0
 71
     5
 72
     5
  1
SAE340/60/2
 73
     1
 44
1.0
1001
ACAD
1000
MTEXTBEGIN
1070
    73
1070
     1
1070
    44
1040
1.0
1070
    74
1070
     0
1000
MTEXTEND
  0
ENDSEC
  0
SECTION
  2
OBJECTS
  0
DICTIONARY
  5
C
330
0
100
AcDbDictionary
281
     1
  3
ACAD_CIP_PREVIOUS_PRODUCT_INFO
350
216
  3
ACAD_COLOR
350
6B
  3
ACAD_DETAILVIEWSTYLE
350
21B
  3
ACAD_GROUP
350
D
  3
ACAD_LAYOUT
350
1A
  3
ACAD_MATERIAL
350
6A
  3
ACAD_MLEADERSTYLE
350
12D
  3
ACAD_MLINESTYLE
350
17
  3
ACAD_PLOTSETTINGS
350
19
  3
ACAD_PLOTSTYLENAME
350
E
  3
ACAD_SCALELIST
350
10C
  3
ACAD_SECTIONVIEWSTYLE
350
219
  3
ACAD_TABLESTYLE
350
7E
  3
ACAD_VISUALSTYLE
350
EF
  3
ACDB_RECOMPOSE_DATA
350
8A5D
  3
AcDbVariableDictionary
350
5E
  3
DWGPROPS
350
8A5E
  0
DICTIONARY
  5
89AD
330
8
100
AcDbDictionary
280
     1
281
     1
  0
DICTIONARY
  5
1FF
330
2
100
AcDbDictionary
280
     1
281
     1
  3
ACAD_LAYERSTATES
360
200
  0
DICTIONARY
  5
13C
330
10
100
AcDbDictionary
280
     1
281
     1
  0
DICTIONARY
  5
1CE
330
1F
100
AcDbDictionary
280
     1
281
     1
  3
ACAD_LAYOUTSELFREF
360
89B5
  0
DICTIONARY
  5
8960
330
D2
100
AcDbDictionary
280
     1
281
     1
  3
ACAD_LAYOUTSELFREF
360
89BE
  0
DICTIONARY
  5
8962
330
D6
100
AcDbDictionary
280
     1
281
     1
  3
ACAD_LAYOUTSELFREF
360
89C1
  0
XRECORD
  5
216
102
{ACAD_REACTORS
330
C
102
}
330
C
100
AcDbXrecord
280
     1
300
ACD
300
2021
300
87393ACD_2021_0F
  0
DICTIONARY
  5
6B
102
{ACAD_REACTORS
330
C
102
}
330
C
100
AcDbDictionary
281
     1
  0
DICTIONARY
  5
21B
102
{ACAD_REACTORS
330
C
102
}
330
C
100
AcDbDictionary
281
     1
  3
Metric50
350
21C
  0
DICTIONARY
  5
D
102
{ACAD_REACTORS
330
C
102
}
330
C
100
AcDbDictionary
281
     1
  0
DICTIONARY
  5
1A
102
{ACAD_REACTORS
330
C
102
}
330
C
100
AcDbDictionary
281
     1
  3
Layout1
350
D3
  3
Layout2
350
D7
  3
Model
350
22
  0
DICTIONARY
  5
6A
102
{ACAD_REACTORS
330
C
102
}
330
C
100
AcDbDictionary
281
     1
  3
ByBlock
350
ED
  3
ByLayer
350
EC
  3
Global
350
EE
  0
DICTIONARY
  5
12D
102
{ACAD_REACTORS
330
C
102
}
330
C
100
AcDbDictionary
281
     1
  3
Standard
350
12E
  0
DICTIONARY
  5
17
102
{ACAD_REACTORS
330
C
102
}
330
C
100
AcDbDictionary
281
     1
  3
Standard
350
18
  0
DICTIONARY
  5
19
102
{ACAD_REACTORS
330
C
102
}
330
C
100
AcDbDictionary
281
     1
  0
ACDBDICTIONARYWDFLT
  5
E
102
{ACAD_REACTORS
330
C
102
}
330
C
100
AcDbDictionary
281
     1
  3
Normal
350
F
100
AcDbDictionaryWithDefault
340
F
  0
DICTIONARY
  5
10C
102
{ACAD_REACTORS
330
C
102
}
330
C
100
AcDbDictionary
281
     1
  3
A0
350
10D
  3
A1
350
1BE
  3
A2
350
1BF
  3
A3
350
1C0
  3
A4
350
1C1
  3
A5
350
1C2
  3
A6
350
1C3
  3
A7
350
1C4
  3
A8
350
1C5
  3
A9
350
1C6
  3
B0
350
1C7
  3
B1
350
1C8
  3
B2
350
1C9
  3
B3
350
1CA
  3
B4
350
1CB
  3
B5
350
1CC
  3
B6
350
1CD
  0
DICTIONARY
  5
219
102
{ACAD_REACTORS
330
C
102
}
330
C
100
AcDbDictionary
281
     1
  3
Metric50
350
21A
  0
DICTIONARY
  5
7E
102
{ACAD_REACTORS
330
C
102
}
330
C
100
AcDbDictionary
281
     1
  3
Standard
350
7F
  0
DICTIONARY
  5
EF
102
{ACAD_REACTORS
330
C
102
}
330
C
100
AcDbDictionary
281
     1
  3
2dWireframe
350
F5
  3
Basic
350
F4
  3
Brighten
350
FB
  3
ColorChange
350
FF
  3
Conceptual
350
F8
  3
Dim
350
FA
  3
EdgeColorOff
350
1E6
  3
Facepattern
350
FE
  3
Flat
350
F0
  3
FlatWithEdges
350
F1
  3
Gouraud
350
F2
  3
GouraudWithEdges
350
F3
  3
Hidden
350
F7
  3
JitterOff
350
1E4
  3
Linepattern
350
FD
  3
OverhangOff
350
1E5
  3
Realistic
350
F9
  3
Shaded
350
1F3
  3
Shaded with edges
350
1F2
  3
Shades of Gray
350
1EF
  3
Sketchy
350
1F0
  3
Thicken
350
FC
  3
Wireframe
350
F6
  3
X-Ray
350
1F1
  0
XRECORD
  5
8A5D
102
{ACAD_REACTORS
330
C
102
}
330
C
100
AcDbXrecord
280
     1
 90
        1
330
7F
  0
DICTIONARY
  5
5E
102
{ACAD_REACTORS
330
C
102
}
330
C
100
AcDbDictionary
281
     1
  3
CANNOSCALE
350
146
  3
CENTEREXE
350
259
  3
CENTERLTYPEFILE
350
25A
  3
CMLEADERSTYLE
350
145
  3
CTABLESTYLE
350
84
  3
CVIEWDETAILSTYLE
350
227
  3
CVIEWSECTIONSTYLE
350
228
  3
DIMASSOC
350
5F
  3
HIDETEXT
350
63
  3
INDEXCTL
350
8A0A
  3
LAYEREVAL
350
1AE
  3
LAYERNOTIFY
350
1AF
  3
LIGHTINGUNITS
350
8A08
  3
MSLTSCALE
350
8A07
  3
PSOLHEIGHT
350
8A5A
  3
PSOLWIDTH
350
8A59
  3
SORTENTS
350
8A09
  3
XCLIPFRAME
350
8A5B
  0
XRECORD
  5
8A5E
102
{ACAD_REACTORS
330
C
102
}
330
C
100
AcDbXrecord
280
     1
  1
DWGPROPS COOKIE
  2

  3

  4

  6

  7

  8
truole
  9

300
=
301
=
302
=
303
=
304
=
305
=
306
=
307
=
308
=
309
=
 40
0.0077430555555556
 41
2460398.356956019
 42
2460398.374479167
  1

 90
        0
  0
DICTIONARY
  5
200
102
{ACAD_REACTORS
330
1FF
102
}
330
1FF
100
AcDbDictionary
281
     1
  0
XRECORD
  5
89B5
102
{ACAD_REACTORS
330
1CE
102
}
330
1CE
100
AcDbXrecord
280
     1
340
1F
  0
XRECORD
  5
89BE
102
{ACAD_REACTORS
330
8960
102
}
330
8960
100
AcDbXrecord
280
     1
340
D2
  0
XRECORD
  5
89C1
102
{ACAD_REACTORS
330
8962
102
}
330
8962
100
AcDbXrecord
280
     1
340
D6
  0
ACDBDETAILVIEWSTYLE
  5
21C
102
{ACAD_XDICTIONARY
360
8A9D
102
}
102
{ACAD_REACTORS
330
21B
102
}
330
21B
100
AcDbModelDocViewStyle
 70
     0
  3
Metric50
290
     0
100
AcDbDetailViewStyle
 70
     0
 71
     0
 90
        3
 71
     1
340
11
 40
5.0
340
0
 40
5.0
300

 40
0.0
280
     1
 71
     2
340
16
 90
       25
 71
     3
340
11
 40
5.0
 90
        0
 40
15.0
 90
        1
300
%<\AcVar ViewDetailId>% (%<\AcVar ViewScale \f "%sn">%)
 71
     4
340
16
 90
       25
340
16
 90
       25
280
     0
  0
LAYOUT
  5
D3
102
{ACAD_XDICTIONARY
360
8A62
102
}
102
{ACAD_REACTORS
330
1A
102
}
330
1A
100
AcDbPlotSettings
  1

  2
C:\Documents and Settings\basas\Application Data\Autodesk\AutoCAD 2005\R16.1\enu\plotters\Default Windows System Printer.pc3
  4

  6

 40
0.0
 41
0.0
 42
0.0
 43
0.0
 44
0.0
 45
0.0
 46
0.0
 47
0.0
 48
0.0
 49
0.0
140
0.0
141
0.0
142
1.0
143
1.0
 70
   688
 72
     0
 73
     0
 74
     5
  7

 75
    16
147
1.0
148
0.0
149
0.0
100
AcDbLayout
  1
Layout1
 70
     1
 71
     1
 10
0.0
 20
0.0
 11
12.0
 21
9.0
 12
0.0
 22
0.0
 32
0.0
 14
0.0
 24
0.0
 34
0.0
 15
0.0
 25
0.0
 35
0.0
146
0.0
 13
0.0
 23
0.0
 33
0.0
 16
1.0
 26
0.0
 36
0.0
 17
0.0
 27
1.0
 37
0.0
 76
     0
330
D2
  0
LAYOUT
  5
D7
102
{ACAD_XDICTIONARY
360
8A64
102
}
102
{ACAD_REACTORS
330
1A
102
}
330
1A
100
AcDbPlotSettings
  1

  2
C:\Documents and Settings\basas\Application Data\Autodesk\AutoCAD 2005\R16.1\enu\plotters\Default Windows System Printer.pc3
  4

  6

 40
0.0
 41
0.0
 42
0.0
 43
0.0
 44
0.0
 45
0.0
 46
0.0
 47
0.0
 48
0.0
 49
0.0
140
0.0
141
0.0
142
1.0
143
1.0
 70
   688
 72
     0
 73
     0
 74
     5
  7

 75
    16
147
1.0
148
0.0
149
0.0
100
AcDbLayout
  1
Layout2
 70
     1
 71
     2
 10
0.0
 20
0.0
 11
12.0
 21
9.0
 12
0.0
 22
0.0
 32
0.0
 14
0.0
 24
0.0
 34
0.0
 15
0.0
 25
0.0
 35
0.0
146
0.0
 13
0.0
 23
0.0
 33
0.0
 16
1.0
 26
0.0
 36
0.0
 17
0.0
 27
1.0
 37
0.0
 76
     0
330
D6
  0
LAYOUT
  5
22
102
{ACAD_XDICTIONARY
360
8A5F
102
}
102
{ACAD_REACTORS
330
1A
102
}
330
1A
100
AcDbPlotSettings
  1

  2
none_device
  4
ISO_A4_(210.00_x_297.00_MM)
  6

 40
7.5
 41
20.0
 42
7.5
 43
20.0
 44
210.0
 45
297.0
 46
11.54999923706054
 47
-13.65000009536743
 48
0.0
 49
0.0
140
0.0
141
0.0
142
1.0
143
8.704084754739808
 70
 11952
 72
     1
 73
     0
 74
     0
  7

 75
     0
147
0.1148885871608098
148
0.0
149
0.0
100
AcDbLayout
  1
Model
 70
     1
 71
     0
 10
0.0
 20
0.0
 11
12.0
 21
9.0
 12
0.0
 22
0.0
 32
0.0
 14
0.0
 24
0.0
 34
0.0
 15
0.0
 25
0.0
 35
0.0
146
0.0
 13
0.0
 23
0.0
 33
0.0
 16
1.0
 26
0.0
 36
0.0
 17
0.0
 27
1.0
 37
0.0
 76
     0
330
1F
331
EA
1001
ACAD_PSEXT
1000
None
1000
None
1000
Not applicable
1000
The layout will not be plotted unless a new plotter configuration name is selected.
1070
     0
  0
MATERIAL
  5
ED
102
{ACAD_XDICTIONARY
360
1F9
102
}
102
{ACAD_REACTORS
330
6A
102
}
330
6A
100
AcDbMaterial
  1
ByBlock
  0
MATERIAL
  5
EC
102
{ACAD_XDICTIONARY
360
1F7
102
}
102
{ACAD_REACTORS
330
6A
102
}
330
6A
100
AcDbMaterial
  1
ByLayer
  0
MATERIAL
  5
EE
102
{ACAD_XDICTIONARY
360
173
102
}
102
{ACAD_REACTORS
330
6A
102
}
330
6A
100
AcDbMaterial
  1
Global
 43
0.0007999999797903
 43
0.0
 43
0.0
 43
0.0
 43
0.0
 43
0.0007999999797903
 43
0.0
 43
0.0
 43
0.0
 43
0.0
 43
1.0
 43
0.0
 43
0.0
 43
0.0
 43
0.0
 43
1.0
 49
0.0007999999797903
 49
0.0
 49
0.0
 49
0.0
 49
0.0
 49
0.0007999999797903
 49
0.0
 49
0.0
 49
0.0
 49
0.0
 49
1.0
 49
0.0
 49
0.0
 49
0.0
 49
0.0
 49
1.0
142
0.0007999999797903
142
0.0
142
0.0
142
0.0
142
0.0
142
0.0007999999797903
142
0.0
142
0.0
142
0.0
142
0.0
142
1.0
142
0.0
142
0.0
142
0.0
142
0.0
142
1.0
144
0.0007999999797903
144
0.0
144
0.0
144
0.0
144
0.0
144
0.0007999999797903
144
0.0
144
0.0
144
0.0
144
0.0
144
1.0
144
0.0
144
0.0
144
0.0
144
0.0
144
1.0
1001
ACAD
1070
    -1
1070
     3
1070
     0
1000

1071
        0
1070
     0
  0
MLEADERSTYLE
  5
12E
102
{ACAD_XDICTIONARY
360
8A89
102
}
102
{ACAD_REACTORS
330
12D
102
}
330
12D
100
AcDbMLeaderStyle
170
     2
171
     1
172
     0
 90
        2
 40
0.0
 41
0.0
173
     1
 91
-1056964608
340
14
 92
       -2
290
     1
 42
2.0
291
     1
 43
8.0
  3
Standard
 44
4.0
300

342
11
174
     1
178
     1
175
     1
176
     0
 93
-1056964608
 45
4.0
292
     0
297
     0
 46
4.0
 94
-1056964608
 47
1.0
 49
1.0
140
1.0
293
     1
141
0.0
294
     1
177
     0
142
1.0
295
     0
296
     0
143
3.75
1001
ACAD_MLEADERVER
1070
     2
  0
MLINESTYLE
  5
18
102
{ACAD_REACTORS
330
17
102
}
330
17
100
AcDbMlineStyle
  2
STANDARD
 70
     0
  3

 62
   256
 51
90.0
 52
90.0
 71
     2
 49
0.5
 62
   256
  6
BYLAYER
 49
-0.5
 62
   256
  6
BYLAYER
  0
ACDBPLACEHOLDER
  5
F
102
{ACAD_REACTORS
330
E
102
}
330
E
  0
SCALE
  5
10D
102
{ACAD_REACTORS
330
10C
102
}
330
10C
100
AcDbScale
 70
     0
300
1:1
140
1.0
141
1.0
290
     1
  0
SCALE
  5
1BE
102
{ACAD_REACTORS
330
10C
102
}
330
10C
100
AcDbScale
 70
     0
300
1:2
140
1.0
141
2.0
290
     0
  0
SCALE
  5
1BF
102
{ACAD_REACTORS
330
10C
102
}
330
10C
100
AcDbScale
 70
     0
300
1:4
140
1.0
141
4.0
290
     0
  0
SCALE
  5
1C0
102
{ACAD_REACTORS
330
10C
102
}
330
10C
100
AcDbScale
 70
     0
300
1:5
140
1.0
141
5.0
290
     0
  0
SCALE
  5
1C1
102
{ACAD_REACTORS
330
10C
102
}
330
10C
100
AcDbScale
 70
     0
300
1:8
140
1.0
141
8.0
290
     0
  0
SCALE
  5
1C2
102
{ACAD_REACTORS
330
10C
102
}
330
10C
100
AcDbScale
 70
     0
300
1:10
140
1.0
141
10.0
290
     0
  0
SCALE
  5
1C3
102
{ACAD_REACTORS
330
10C
102
}
330
10C
100
AcDbScale
 70
     0
300
1:16
140
1.0
141
16.0
290
     0
  0
SCALE
  5
1C4
102
{ACAD_REACTORS
330
10C
102
}
330
10C
100
AcDbScale
 70
     0
300
1:20
140
1.0
141
20.0
290
     0
  0
SCALE
  5
1C5
102
{ACAD_REACTORS
330
10C
102
}
330
10C
100
AcDbScale
 70
     0
300
1:30
140
1.0
141
30.0
290
     0
  0
SCALE
  5
1C6
102
{ACAD_REACTORS
330
10C
102
}
330
10C
100
AcDbScale
 70
     0
300
1:40
140
1.0
141
40.0
290
     0
  0
SCALE
  5
1C7
102
{ACAD_REACTORS
330
10C
102
}
330
10C
100
AcDbScale
 70
     0
300
1:50
140
1.0
141
50.0
290
     0
  0
SCALE
  5
1C8
102
{ACAD_REACTORS
330
10C
102
}
330
10C
100
AcDbScale
 70
     0
300
1:100
140
1.0
141
100.0
290
     0
  0
SCALE
  5
1C9
102
{ACAD_REACTORS
330
10C
102
}
330
10C
100
AcDbScale
 70
     0
300
2:1
140
2.0
141
1.0
290
     0
  0
SCALE
  5
1CA
102
{ACAD_REACTORS
330
10C
102
}
330
10C
100
AcDbScale
 70
     0
300
4:1
140
4.0
141
1.0
290
     0
  0
SCALE
  5
1CB
102
{ACAD_REACTORS
330
10C
102
}
330
10C
100
AcDbScale
 70
     0
300
8:1
140
8.0
141
1.0
290
     0
  0
SCALE
  5
1CC
102
{ACAD_REACTORS
330
10C
102
}
330
10C
100
AcDbScale
 70
     0
300
10:1
140
10.0
141
1.0
290
     0
  0
SCALE
  5
1CD
102
{ACAD_REACTORS
330
10C
102
}
330
10C
100
AcDbScale
 70
     0
300
100:1
140
100.0
141
1.0
290
     0
  0
ACDBSECTIONVIEWSTYLE
  5
21A
102
{ACAD_XDICTIONARY
360
8A9B
102
}
102
{ACAD_REACTORS
330
219
102
}
330
219
100
AcDbModelDocViewStyle
 70
     0
  3
Metric50
290
     0
100
AcDbSectionViewStyle
 70
     0
 71
     0
 90
      102
 71
     1
340
11
 40
5.0
340
0
340
0
 40
5.0
300
I, O, Q, S, X, Z
 40
10.0
 90
        0
 40
2.5
 90
        0
 71
     2
340
16
 90
       25
340
16
 90
       50
 40
5.0
 40
2.5
 40
5.0
 71
     3
340
11
 40
5.0
 90
        0
 40
15.0
 90
        1
300
%<\AcVar ViewSectionStartId>%-%<\AcVar ViewSectionEndId>% (%<\AcVar ViewScale \f "%sn">%)
 71
     4
300
ANSI31
 40
1.0
 90
        0
290
     0
290
     0
 90
        6
 40
0.0
 40
1.570796326794896
 40
0.2617993877991494
 40
1.308996938995747
 40
-0.2617993877991494
 40
1.832595714594046
  0
TABLESTYLE
  5
7F
102
{ACAD_XDICTIONARY
360
162
102
}
102
{ACAD_REACTORS
330
7E
102
}
330
7E
100
AcDbTableStyle
  3
Standard
 70
     0
 71
     0
 40
1.5
 41
1.5
280
     0
281
     0
  7
Standard
140
4.5
170
     2
 62
     0
 63
     7
283
     0
274
    -2
284
     1
 64
     0
275
    -2
285
     1
 65
     0
276
    -2
286
     1
 66
     0
277
    -2
287
     1
 67
     0
278
    -2
288
     1
 68
     0
279
    -2
289
     1
 69
     0
  7
Standard
140
6.0
170
     5
 62
     0
 63
     7
283
     0
274
    -2
284
     1
 64
     0
275
    -2
285
     1
 65
     0
276
    -2
286
     1
 66
     0
277
    -2
287
     1
 67
     0
278
    -2
288
     1
 68
     0
279
    -2
289
     1
 69
     0
  7
Standard
140
4.5
170
     5
 62
     0
 63
     7
283
     0
274
    -2
284
     1
 64
     0
275
    -2
285
     1
 65
     0
276
    -2
286
     1
 66
     0
277
    -2
287
     1
 67
     0
278
    -2
288
     1
 68
     0
279
    -2
289
     1
 69
     0
  0
VISUALSTYLE
  5
F5
102
{ACAD_XDICTIONARY
360
8A73
102
}
102
{ACAD_REACTORS
330
EF
102
}
330
EF
100
AcDbVisualStyle
  2
2dWireframe
 70
     4
 71
     0
 72
     2
 73
     1
 90
        0
 40
-0.6
 41
-30.0
 62
     5
 63
     7
 74
     1
 91
        4
 64
     7
 65
   257
 75
     1
175
     1
 42
1.0
 92
        0
 66
   257
 43
1.0
 76
     1
 77
     6
 78
     2
 67
     7
 79
     5
170
     0
171
     0
290
     0
174
     0
 93
        1
 44
0.0
173
     0
291
     0
 45
0.0
1001
ACAD
1000
AcDbSavedByObjectVersion
1070
     0
  0
VISUALSTYLE
  5
F4
102
{ACAD_XDICTIONARY
360
8A71
102
}
102
{ACAD_REACTORS
330
EF
102
}
330
EF
100
AcDbVisualStyle
  2
Basic
 70
     7
 71
     1
 72
     0
 73
     1
 90
        0
 40
-0.6
 41
-30.0
 62
     5
 63
     7
 74
     0
 91
        4
 64
     7
 65
   257
 75
     1
175
     1
 42
1.0
 92
        8
 66
     7
 43
1.0
 76
     1
 77
     6
 78
     2
 67
     7
 79
     5
170
     0
171
     0
290
     0
174
     0
 93
        1
 44
0.0
173
     0
291
     1
 45
0.0
1001
ACAD
1000
AcDbSavedByObjectVersion
1070
     0
  0
VISUALSTYLE
  5
FB
102
{ACAD_XDICTIONARY
360
8A7F
102
}
102
{ACAD_REACTORS
330
EF
102
}
330
EF
100
AcDbVisualStyle
  2
Brighten
 70
    12
 71
     2
 72
     2
 73
     1
 90
        0
 40
-0.6
 41
-30.0
 62
     5
 63
     7
 74
     1
 91
        4
 64
     7
 65
   257
 75
     1
175
     1
 42
1.0
 92
        8
 66
     7
 43
1.0
 76
     1
 77
     6
 78
     2
 67
     7
 79
     5
170
     0
171
     0
290
     0
174
     0
 93
        1
 44
50.0
173
     0
291
     1
 45
0.0
1001
ACAD
1000
AcDbSavedByObjectVersion
1070
     0
  0
VISUALSTYLE
  5
FF
102
{ACAD_XDICTIONARY
360
8A87
102
}
102
{ACAD_REACTORS
330
EF
102
}
330
EF
100
AcDbVisualStyle
  2
ColorChange
 70
    16
 71
     2
 72
     2
 73
     3
 90
        0
 40
-0.6
 41
-30.0
 62
     5
 63
     8
 74
     1
 91
        4
 64
     7
 65
   257
 75
     1
175
     1
 42
1.0
 92
        8
 66
     8
 43
1.0
 76
     1
 77
     6
 78
     2
 67
     7
 79
     5
170
     0
171
     0
290
     0
174
     0
 93
        1
 44
0.0
173
     0
291
     1
 45
0.0
1001
ACAD
1000
AcDbSavedByObjectVersion
1070
     0
  0
VISUALSTYLE
  5
F8
102
{ACAD_XDICTIONARY
360
8A79
102
}
102
{ACAD_REACTORS
330
EF
102
}
330
EF
100
AcDbVisualStyle
  2
Conceptual
 70
     9
 71
     3
 72
     2
 73
     1
 90
        0
 40
-0.6
 41
-30.0
 62
     5
 63
     7
 74
     2
 91
        2
 64
     7
 65
   257
 75
     1
175
     1
 42
40.0
 92
        8
 66
     7
 43
1.0
 76
     1
 77
     6
 78
     2
 67
     7
 79
     3
170
     0
171
     0
290
     0
174
     0
 93
        1
 44
0.0
173
     0
291
     0
 45
0.0
1001
ACAD
1000
AcDbSavedByObjectVersion
1070
     0
  0
VISUALSTYLE
  5
FA
102
{ACAD_XDICTIONARY
360
8A7D
102
}
102
{ACAD_REACTORS
330
EF
102
}
330
EF
100
AcDbVisualStyle
  2
Dim
 70
    11
 71
     2
 72
     2
 73
     1
 90
        0
 40
-0.6
 41
-30.0
 62
     5
 63
     7
 74
     1
 91
        4
 64
     7
 65
   257
 75
     1
175
     1
 42
1.0
 92
        8
 66
     7
 43
1.0
 76
     1
 77
     6
 78
     2
 67
     7
 79
     5
170
     0
171
     0
290
     0
174
     0
 93
        1
 44
-50.0
173
     0
291
     1
 45
0.0
1001
ACAD
1000
AcDbSavedByObjectVersion
1070
     0
  0
VISUALSTYLE
  5
1E6
102
{ACAD_XDICTIONARY
360
8A8F
102
}
102
{ACAD_REACTORS
330
EF
102
}
330
EF
100
AcDbVisualStyle
  2
EdgeColorOff
 70
    22
 71
     2
 72
     2
 73
     0
 90
        0
 40
-0.6
 41
-30.0
 62
     5
 63
     7
 74
     1
 91
        4
 64
     7
 65
   257
 75
     1
175
     1
 42
1.0
 92
        8
 66
     7
 43
1.0
 76
     1
 77
     6
 78
     2
 67
     7
 79
     5
170
     0
171
     0
290
     0
174
     0
 93
        1
 44
0.0
173
     0
291
     1
 45
0.0
1001
ACAD
1000
AcDbSavedByObjectVersion
1070
     0
  0
VISUALSTYLE
  5
FE
102
{ACAD_XDICTIONARY
360
8A85
102
}
102
{ACAD_REACTORS
330
EF
102
}
330
EF
100
AcDbVisualStyle
  2
Facepattern
 70
    15
 71
     2
 72
     2
 73
     1
 90
        0
 40
-0.6
 41
-30.0
 62
     5
 63
     7
 74
     1
 91
        4
 64
     7
 65
   257
 75
     1
175
     1
 42
1.0
 92
        8
 66
     7
 43
1.0
 76
     1
 77
     6
 78
     2
 67
     7
 79
     5
170
     0
171
     0
290
     0
174
     0
 93
        1
 44
0.0
173
     0
291
     1
 45
0.0
1001
ACAD
1000
AcDbSavedByObjectVersion
1070
     0
  0
VISUALSTYLE
  5
F0
102
{ACAD_XDICTIONARY
360
8A69
102
}
102
{ACAD_REACTORS
330
EF
102
}
330
EF
100
AcDbVisualStyle
  2
Flat
 70
     0
 71
     2
 72
     1
 73
     1
 90
        2
 40
-0.6
 41
30.0
 62
     5
 63
     7
 74
     0
 91
        0
 64
     7
 65
   257
 75
     1
175
     1
 42
1.0
 92
        8
 66
     7
 43
1.0
 76
     1
 77
     6
 78
     2
 67
     7
 79
     5
170
     0
171
     0
290
     0
174
     0
 93
       13
 44
0.0
173
     0
291
     1
 45
0.0
1001
ACAD
1000
AcDbSavedByObjectVersion
1070
     0
  0
VISUALSTYLE
  5
F1
102
{ACAD_XDICTIONARY
360
8A6B
102
}
102
{ACAD_REACTORS
330
EF
102
}
330
EF
100
AcDbVisualStyle
  2
FlatWithEdges
 70
     1
 71
     2
 72
     1
 73
     1
 90
        2
 40
-0.6
 41
30.0
 62
     5
 63
     7
 74
     1
 91
        0
 64
     7
 65
   257
 75
     1
175
     1
 42
1.0
 92
        0
 66
   257
 43
1.0
 76
     1
 77
     6
 78
     2
 67
     7
 79
     5
170
     0
171
     0
290
     0
174
     0
 93
       13
 44
0.0
173
     0
291
     1
 45
0.0
1001
ACAD
1000
AcDbSavedByObjectVersion
1070
     0
  0
VISUALSTYLE
  5
F2
102
{ACAD_XDICTIONARY
360
8A6D
102
}
102
{ACAD_REACTORS
330
EF
102
}
330
EF
100
AcDbVisualStyle
  2
Gouraud
 70
     2
 71
     2
 72
     2
 73
     1
 90
        2
 40
-0.6
 41
30.0
 62
     5
 63
     7
 74
     0
 91
        0
 64
     7
 65
   257
 75
     1
175
     1
 42
1.0
 92
        0
 66
     7
 43
1.0
 76
     1
 77
     6
 78
     2
 67
     7
 79
     5
170
     0
171
     0
290
     0
174
     0
 93
       13
 44
0.0
173
     0
291
     1
 45
0.0
1001
ACAD
1000
AcDbSavedByObjectVersion
1070
     0
  0
VISUALSTYLE
  5
F3
102
{ACAD_XDICTIONARY
360
8A6F
102
}
102
{ACAD_REACTORS
330
EF
102
}
330
EF
100
AcDbVisualStyle
  2
GouraudWithEdges
 70
     3
 71
     2
 72
     2
 73
     1
 90
        2
 40
-0.6
 41
30.0
 62
     5
 63
     7
 74
     1
 91
        0
 64
     7
 65
   257
 75
     1
175
     1
 42
1.0
 92
        0
 66
   257
 43
1.0
 76
     1
 77
     6
 78
     2
 67
     7
 79
     5
170
     0
171
     0
290
     0
174
     0
 93
       13
 44
0.0
173
     0
291
     1
 45
0.0
1001
ACAD
1000
AcDbSavedByObjectVersion
1070
     0
  0
VISUALSTYLE
  5
F7
102
{ACAD_XDICTIONARY
360
8A77
102
}
102
{ACAD_REACTORS
330
EF
102
}
330
EF
100
AcDbVisualStyle
  2
Hidden
 70
     6
 71
     1
 72
     2
 73
     2
 90
        0
 40
-0.6
 41
-30.0
 62
     5
 63
     7
 74
     2
 91
        2
 64
     7
 65
   257
 75
     2
175
     1
 42
40.0
 92
        0
 66
   257
 43
1.0
 76
     1
 77
     6
 78
     2
 67
     7
 79
     3
170
     0
171
     0
290
     0
174
     0
 93
        1
 44
0.0
173
     0
291
     0
 45
0.0
1001
ACAD
1000
AcDbSavedByObjectVersion
1070
     0
  0
VISUALSTYLE
  5
1E4
102
{ACAD_XDICTIONARY
360
8A8B
102
}
102
{ACAD_REACTORS
330
EF
102
}
330
EF
100
AcDbVisualStyle
  2
JitterOff
 70
    20
 71
     2
 72
     2
 73
     0
 90
        0
 40
-0.6
 41
-30.0
 62
     5
 63
     7
 74
     1
 91
        4
 64
     7
 65
   257
 75
     1
175
     1
 42
1.0
 92
       10
 66
     7
 43
1.0
 76
     1
 77
     6
 78
     2
 67
     7
 79
     5
170
     0
171
     0
290
     0
174
     0
 93
        1
 44
0.0
173
     0
291
     1
 45
0.0
1001
ACAD
1000
AcDbSavedByObjectVersion
1070
     0
  0
VISUALSTYLE
  5
FD
102
{ACAD_XDICTIONARY
360
8A83
102
}
102
{ACAD_REACTORS
330
EF
102
}
330
EF
100
AcDbVisualStyle
  2
Linepattern
 70
    14
 71
     2
 72
     2
 73
     1
 90
        0
 40
-0.6
 41
-30.0
 62
     5
 63
     7
 74
     1
 91
        4
 64
     7
 65
   257
 75
     7
175
     7
 42
1.0
 92
        8
 66
     7
 43
1.0
 76
     1
 77
     6
 78
     2
 67
     7
 79
     5
170
     0
171
     0
290
     0
174
     0
 93
        1
 44
0.0
173
     0
291
     1
 45
0.0
1001
ACAD
1000
AcDbSavedByObjectVersion
1070
     0
  0
VISUALSTYLE
  5
1E5
102
{ACAD_XDICTIONARY
360
8A8D
102
}
102
{ACAD_REACTORS
330
EF
102
}
330
EF
100
AcDbVisualStyle
  2
OverhangOff
 70
    21
 71
     2
 72
     2
 73
     0
 90
        0
 40
-0.6
 41
-30.0
 62
     5
 63
     7
 74
     1
 91
        4
 64
     7
 65
   257
 75
     1
175
     1
 42
1.0
 92
        9
 66
     7
 43
1.0
 76
     1
 77
     6
 78
     2
 67
     7
 79
     5
170
     0
171
     0
290
     0
174
     0
 93
        1
 44
0.0
173
     0
291
     1
 45
0.0
1001
ACAD
1000
AcDbSavedByObjectVersion
1070
     0
  0
VISUALSTYLE
  5
F9
102
{ACAD_XDICTIONARY
360
8A7B
102
}
102
{ACAD_REACTORS
330
EF
102
}
330
EF
100
AcDbVisualStyle
  2
Realistic
 70
     8
 71
     2
 72
     2
 73
     0
 90
        2
 40
-0.6
 41
30.0
 62
     5
 63
     7
 74
     0
 91
        0
 64
     7
 65
   257
 75
     1
175
     1
 42
1.0
 92
        8
 66
   257
 43
1.0
 76
     1
 77
     6
 78
     2
 67
     7
 79
     3
170
     0
171
     0
290
     0
174
     0
 93
       13
 44
0.0
173
     0
291
     0
 45
0.0
1001
ACAD
1000
AcDbSavedByObjectVersion
1070
     0
  0
VISUALSTYLE
  5
1F3
102
{ACAD_XDICTIONARY
360
8A99
102
}
102
{ACAD_REACTORS
330
EF
102
}
330
EF
100
AcDbVisualStyle
  2
Shaded
 70
    27
 71
     2
 72
     2
 73
     1
 90
        2
 40
-0.6
 41
30.0
 62
     5
 63
     7
 74
     0
 91
        4
 64
     7
 65
   257
 75
     1
175
     1
 42
1.0
 92
        8
 66
   257
 43
1.0
 76
     1
 77
     6
 78
     2
 67
     8
 79
     3
170
     0
171
     0
290
     0
174
     0
 93
        5
 44
0.0
173
     0
291
     0
 45
0.0
1001
ACAD
1000
AcDbSavedByObjectVersion
1070
     0
  0
VISUALSTYLE
  5
1F2
102
{ACAD_XDICTIONARY
360
8A97
102
}
102
{ACAD_REACTORS
330
EF
102
}
330
EF
100
AcDbVisualStyle
  2
Shaded with edges
 70
    26
 71
     2
 72
     2
 73
     1
 90
        2
 40
-0.6
 41
30.0
 62
     5
 63
     7
 74
     1
 91
        2
 64
     7
 65
   257
 75
     2
175
     1
 42
1.0
 92
        8
 66
   257
 43
1.0
 76
     1
 77
     6
 78
     2
 67
     7
 79
     3
170
     0
171
     0
290
     0
174
     0
 93
        5
 44
0.0
173
     0
291
     0
 45
0.0
1001
ACAD
1000
AcDbSavedByObjectVersion
1070
     0
  0
VISUALSTYLE
  5
1EF
102
{ACAD_XDICTIONARY
360
8A91
102
}
102
{ACAD_REACTORS
330
EF
102
}
330
EF
100
AcDbVisualStyle
  2
Shades of Gray
 70
    23
 71
     2
 72
     2
 73
     3
 90
        0
 40
-0.6
 41
-30.0
 62
     5
 63
     7
 74
     2
 91
        2
 64
     7
 65
     7
 75
     1
175
     1
 42
40.0
 92
        8
 66
     7
 43
1.0
 76
     1
 77
     6
 78
     2
 67
     7
 79
     3
170
     0
171
     0
290
     0
174
     0
 93
        1
 44
0.0
173
     0
291
     0
 45
0.0
1001
ACAD
1000
AcDbSavedByObjectVersion
1070
     0
  0
VISUALSTYLE
  5
1F0
102
{ACAD_XDICTIONARY
360
8A93
102
}
102
{ACAD_REACTORS
330
EF
102
}
330
EF
100
AcDbVisualStyle
  2
Sketchy
 70
    24
 71
     1
 72
     2
 73
     2
 90
        0
 40
-0.6
 41
-30.0
 62
     5
 63
     7
 74
     2
 91
        2
 64
     7
 65
     7
 75
     1
175
     1
 42
40.0
 92
       11
 66
     7
 43
1.0
 76
     1
 77
     6
 78
     2
 67
     7
 79
     6
170
     0
171
     0
290
     0
174
     0
 93
        1
 44
0.0
173
     0
291
     0
 45
0.0
1001
ACAD
1000
AcDbSavedByObjectVersion
1070
     0
  0
VISUALSTYLE
  5
FC
102
{ACAD_XDICTIONARY
360
8A81
102
}
102
{ACAD_REACTORS
330
EF
102
}
330
EF
100
AcDbVisualStyle
  2
Thicken
 70
    13
 71
     2
 72
     2
 73
     1
 90
        0
 40
-0.6
 41
-30.0
 62
     5
 63
     7
 74
     1
 91
        4
 64
     7
 65
   257
 75
     1
175
     1
 42
1.0
 92
       12
 66
     7
 43
1.0
 76
     1
 77
     6
 78
     2
 67
     7
 79
     5
170
     0
171
     0
290
     0
174
     0
 93
        1
 44
0.0
173
     0
291
     1
 45
0.0
1001
ACAD
1000
AcDbSavedByObjectVersion
1070
     0
  0
VISUALSTYLE
  5
F6
102
{ACAD_XDICTIONARY
360
8A75
102
}
102
{ACAD_REACTORS
330
EF
102
}
330
EF
100
AcDbVisualStyle
  2
Wireframe
 70
     5
 71
     0
 72
     2
 73
     0
 90
        0
 40
-0.6
 41
-30.0
 62
     5
 63
     7
 74
     1
 91
        4
 64
     7
 65
   257
 75
     1
175
     1
 42
1.0
 92
        0
 66
   257
 43
1.0
 76
     1
 77
     6
 78
     2
 67
     7
 79
     3
170
     0
171
     0
290
     0
174
     0
 93
        1
 44
0.0
173
     0
291
     0
 45
0.0
1001
ACAD
1000
AcDbSavedByObjectVersion
1070
     0
  0
VISUALSTYLE
  5
1F1
102
{ACAD_XDICTIONARY
360
8A95
102
}
102
{ACAD_REACTORS
330
EF
102
}
330
EF
100
AcDbVisualStyle
  2
X-Ray
 70
    25
 71
     2
 72
     2
 73
     1
 90
        1
 40
0.5
 41
-30.0
 62
     5
 63
     7
 74
     1
 91
        0
 64
     7
 65
   257
 75
     1
175
     1
 42
1.0
 92
        8
 66
     7
 43
1.0
 76
     1
 77
     6
 78
     2
 67
     7
 79
     3
170
     0
171
     0
290
     0
174
     0
 93
       13
 44
0.0
173
     0
291
     0
 45
0.0
1001
ACAD
1000
AcDbSavedByObjectVersion
1070
     0
  0
DICTIONARYVAR
  5
146
102
{ACAD_REACTORS
330
5E
102
}
330
5E
100
DictionaryVariables
280
     0
  1
1:1
  0
DICTIONARYVAR
  5
259
102
{ACAD_REACTORS
330
5E
102
}
330
5E
100
DictionaryVariables
280
     0
  1
3.500000
  0
DICTIONARYVAR
  5
25A
102
{ACAD_REACTORS
330
5E
102
}
330
5E
100
DictionaryVariables
280
     0
  1
acadiso.lin
  0
DICTIONARYVAR
  5
145
102
{ACAD_REACTORS
330
5E
102
}
330
5E
100
DictionaryVariables
280
     0
  1
STANDARD
  0
DICTIONARYVAR
  5
84
102
{ACAD_REACTORS
330
5E
102
}
330
5E
100
DictionaryVariables
280
     0
  1
STANDARD
  0
DICTIONARYVAR
  5
227
102
{ACAD_REACTORS
330
5E
102
}
330
5E
100
DictionaryVariables
280
     0
  1
Metric50
  0
DICTIONARYVAR
  5
228
102
{ACAD_REACTORS
330
5E
102
}
330
5E
100
DictionaryVariables
280
     0
  1
Metric50
  0
DICTIONARYVAR
  5
5F
102
{ACAD_REACTORS
330
5E
102
}
330
5E
100
DictionaryVariables
280
     0
  1
2
  0
DICTIONARYVAR
  5
63
102
{ACAD_REACTORS
330
5E
102
}
330
5E
100
DictionaryVariables
280
     0
  1
1
  0
DICTIONARYVAR
  5
8A0A
102
{ACAD_REACTORS
330
5E
102
}
330
5E
100
DictionaryVariables
280
     0
  1
0
  0
DICTIONARYVAR
  5
1AE
102
{ACAD_REACTORS
330
5E
102
}
330
5E
100
DictionaryVariables
280
     0
  1
0
  0
DICTIONARYVAR
  5
1AF
102
{ACAD_REACTORS
330
5E
102
}
330
5E
100
DictionaryVariables
280
     0
  1
0
  0
DICTIONARYVAR
  5
8A08
102
{ACAD_REACTORS
330
5E
102
}
330
5E
100
DictionaryVariables
280
     0
  1
2
  0
DICTIONARYVAR
  5
8A07
102
{ACAD_REACTORS
330
5E
102
}
330
5E
100
DictionaryVariables
280
     0
  1
1
  0
DICTIONARYVAR
  5
8A5A
102
{ACAD_REACTORS
330
5E
102
}
330
5E
100
DictionaryVariables
280
     0
  1
80.000000
  0
DICTIONARYVAR
  5
8A59
102
{ACAD_REACTORS
330
5E
102
}
330
5E
100
DictionaryVariables
280
     0
  1
5.000000
  0
DICTIONARYVAR
  5
8A09
102
{ACAD_REACTORS
330
5E
102
}
330
5E
100
DictionaryVariables
280
     0
  1
127
  0
DICTIONARYVAR
  5
8A5B
102
{ACAD_REACTORS
330
5E
102
}
330
5E
100
DictionaryVariables
280
     0
  1
2
  0
DICTIONARY
  5
8A9D
330
21C
100
AcDbDictionary
280
     1
281
     1
  3
ACAD_XREC_ROUNDTRIP
360
8A9E
  0
DICTIONARY
  5
8A62
330
D3
100
AcDbDictionary
280
     1
281
     1
  3
ACAD_XREC_ROUNDTRIP
360
8A63
  0
DICTIONARY
  5
8A64
330
D7
100
AcDbDictionary
280
     1
281
     1
  3
ACAD_XREC_ROUNDTRIP
360
8A65
  0
DICTIONARY
  5
8A5F
330
22
100
AcDbDictionary
280
     1
281
     1
  3
ACAD_XREC_ROUNDTRIP
360
8A60
  0
DICTIONARY
  5
1F9
330
ED
100
AcDbDictionary
280
     1
281
     1
  3
ACAD_XREC_ROUNDTRIP
360
8A67
  3
FBXASSET
360
1FA
  0
DICTIONARY
  5
1F7
330
EC
100
AcDbDictionary
280
     1
281
     1
  3
ACAD_XREC_ROUNDTRIP
360
8A66
  3
FBXASSET
360
1F8
  0
DICTIONARY
  5
173
330
EE
100
AcDbDictionary
280
     1
281
     1
  3
ACAD_XREC_ROUNDTRIP
360
8A68
  3
BUMPTILE
360
175
  3
DIFFUSETILE
360
174
  3
FBXASSET
360
1FB
  3
OPACITYTILE
360
176
  3
REFLECTIONTILE
360
177
  0
DICTIONARY
  5
8A89
330
12E
100
AcDbDictionary
280
     1
281
     1
  3
ACAD_XREC_ROUNDTRIP
360
8A8A
  0
DICTIONARY
  5
8A9B
330
21A
100
AcDbDictionary
280
     1
281
     1
  3
ACAD_XREC_ROUNDTRIP
360
8A9C
  0
DICTIONARY
  5
162
330
7F
100
AcDbDictionary
280
     1
281
     1
  3
ACAD_ROUNDTRIP_2008_TABLESTYLE_CELLSTYLEMAP
360
8A5C
  3
ACAD_XREC_ROUNDTRIP
360
8A61
  0
DICTIONARY
  5
8A73
330
F5
100
AcDbDictionary
280
     1
281
     1
  3
ACAD_XREC_ROUNDTRIP
360
8A74
  0
DICTIONARY
  5
8A71
330
F4
100
AcDbDictionary
280
     1
281
     1
  3
ACAD_XREC_ROUNDTRIP
360
8A72
  0
DICTIONARY
  5
8A7F
330
FB
100
AcDbDictionary
280
     1
281
     1
  3
ACAD_XREC_ROUNDTRIP
360
8A80
  0
DICTIONARY
  5
8A87
330
FF
100
AcDbDictionary
280
     1
281
     1
  3
ACAD_XREC_ROUNDTRIP
360
8A88
  0
DICTIONARY
  5
8A79
330
F8
100
AcDbDictionary
280
     1
281
     1
  3
ACAD_XREC_ROUNDTRIP
360
8A7A
  0
DICTIONARY
  5
8A7D
330
FA
100
AcDbDictionary
280
     1
281
     1
  3
ACAD_XREC_ROUNDTRIP
360
8A7E
  0
DICTIONARY
  5
8A8F
330
1E6
100
AcDbDictionary
280
     1
281
     1
  3
ACAD_XREC_ROUNDTRIP
360
8A90
  0
DICTIONARY
  5
8A85
330
FE
100
AcDbDictionary
280
     1
281
     1
  3
ACAD_XREC_ROUNDTRIP
360
8A86
  0
DICTIONARY
  5
8A69
330
F0
100
AcDbDictionary
280
     1
281
     1
  3
ACAD_XREC_ROUNDTRIP
360
8A6A
  0
DICTIONARY
  5
8A6B
330
F1
100
AcDbDictionary
280
     1
281
     1
  3
ACAD_XREC_ROUNDTRIP
360
8A6C
  0
DICTIONARY
  5
8A6D
330
F2
100
AcDbDictionary
280
     1
281
     1
  3
ACAD_XREC_ROUNDTRIP
360
8A6E
  0
DICTIONARY
  5
8A6F
330
F3
100
AcDbDictionary
280
     1
281
     1
  3
ACAD_XREC_ROUNDTRIP
360
8A70
  0
DICTIONARY
  5
8A77
330
F7
100
AcDbDictionary
280
     1
281
     1
  3
ACAD_XREC_ROUNDTRIP
360
8A78
  0
DICTIONARY
  5
8A8B
330
1E4
100
AcDbDictionary
280
     1
281
     1
  3
ACAD_XREC_ROUNDTRIP
360
8A8C
  0
DICTIONARY
  5
8A83
330
FD
100
AcDbDictionary
280
     1
281
     1
  3
ACAD_XREC_ROUNDTRIP
360
8A84
  0
DICTIONARY
  5
8A8D
330
1E5
100
AcDbDictionary
280
     1
281
     1
  3
ACAD_XREC_ROUNDTRIP
360
8A8E
  0
DICTIONARY
  5
8A7B
330
F9
100
AcDbDictionary
280
     1
281
     1
  3
ACAD_XREC_ROUNDTRIP
360
8A7C
  0
DICTIONARY
  5
8A99
330
1F3
100
AcDbDictionary
280
     1
281
     1
  3
ACAD_XREC_ROUNDTRIP
360
8A9A
  0
DICTIONARY
  5
8A97
330
1F2
100
AcDbDictionary
280
     1
281
     1
  3
ACAD_XREC_ROUNDTRIP
360
8A98
  0
DICTIONARY
  5
8A91
330
1EF
100
AcDbDictionary
280
     1
281
     1
  3
ACAD_XREC_ROUNDTRIP
360
8A92
  0
DICTIONARY
  5
8A93
330
1F0
100
AcDbDictionary
280
     1
281
     1
  3
ACAD_XREC_ROUNDTRIP
360
8A94
  0
DICTIONARY
  5
8A81
330
FC
100
AcDbDictionary
280
     1
281
     1
  3
ACAD_XREC_ROUNDTRIP
360
8A82
  0
DICTIONARY
  5
8A75
330
F6
100
AcDbDictionary
280
     1
281
     1
  3
ACAD_XREC_ROUNDTRIP
360
8A76
  0
DICTIONARY
  5
8A95
330
1F1
100
AcDbDictionary
280
     1
281
     1
  3
ACAD_XREC_ROUNDTRIP
360
8A96
  0
XRECORD
  5
8A9E
102
{ACAD_REACTORS
330
8A9D
102
}
330
8A9D
100
AcDbXrecord
280
     1
102
DISPLAYNAME
  1
Metric50
102
FLAGS
 90
        0
  0
XRECORD
  5
8A63
102
{ACAD_REACTORS
330
8A62
102
}
330
8A62
100
AcDbXrecord
280
     1
102
SHADEPLOT
 70
     0
102
SHADEPLOTRESLEVEL
 70
     2
102
SHADEPLOTCUSTOMDPI
 70
   300
  0
XRECORD
  5
8A65
102
{ACAD_REACTORS
330
8A64
102
}
330
8A64
100
AcDbXrecord
280
     1
102
SHADEPLOT
 70
     0
102
SHADEPLOTRESLEVEL
 70
     2
102
SHADEPLOTCUSTOMDPI
 70
   300
  0
XRECORD
  5
8A60
102
{ACAD_REACTORS
330
8A5F
102
}
330
8A5F
100
AcDbXrecord
280
     1
102
SHADEPLOT
 70
     0
102
SHADEPLOTRESLEVEL
 70
     2
102
SHADEPLOTCUSTOMDPI
 70
   300
  0
XRECORD
  5
8A67
102
{ACAD_REACTORS
330
1F9
102
}
330
1F9
100
AcDbXrecord
280
     1
102
MATERIAL
148
0.0
149
0.0
149
0.0
 93
        0
 94
       63
282
     0
 72
     1
 77
     1
171
     1
175
     1
179
     1
273
     0
  0
XRECORD
  5
1FA
102
{ACAD_REACTORS
330
1F9
102
}
330
1F9
100
AcDbXrecord
280
     1
 70
     1
 90
429727718
  1
D62C5603-E3A1-4AEA-B7FB-FE5D8D0755AF
310
504B03040A0000080000CC70623B3DEE336E79000000790000001B0000006175746F6465736B2D64657369676E2D7061636B6167652E786D6C3C3F786D6C2076657273696F6E3D22312E302220656E636F64696E673D227574662D3822203F3E3C666F726D6174733E3C666F726D61743E687474703A2F2F736368656D612E
310
6175746F6465736B2E636F6D2F64657369676E2D7061636B6167652F323030393C2F666F726D61743E3C2F666F726D6174733E504B0304140006080800CC70623BD486FD9CA0000000F4000000130000005B436F6E74656E745F54797065735D2E786D6C7D8EC10E82300C865F65E91D8A1E8C310C0EEA1BF002731658846E
310
D98AC1B77784ABF1D8FE5FBFBF75BBCE937A534CCEB38643598122B6FEE978D0B0485F9C41B54DDD7D022595594E1A469170414C76A4D9A4D207E29CF43ECE46F218070CC6BECC4078ACAA135ACF422C856C0E68EA1BF5669944DDD7BCDE7B1F8E415D77AECB980613C2E4AC91FC167A2B244592486606FC29C8FD7F045B9A
310
EF7053A7E60B504B0304140006080800CC70623B853B8169EB0000007C01000008000000636F72652E786D6C8D90416EC3201045AF62CDB6C206821CC7C244919D9CA01740401C94182C03558F5F9C3852BBEB6A467FFE9B197D7EFC9E1EC5975982F5AE035262288C535E5B377690E21535501C055FBC8FBF6C503839990E
310
5619041F179FE64D52DE45E362569DD7661365082642A11EB9E920A89B99642953CC8E702F67A9EE7234257977194EC9EAE275C4EABCCF5EAD5940D4AC6F0E35A568B8F43562CD7046CD199FD07E60174276A7BE677B5EADB0E0D14EEFFB6A31321A0D82627C4084204C3F096B71DD52F6819B16635EADF63F509AF53FA164
310
5DDCD1EDDD17164090FCC8732078B56691CB33A85CD7DCC40F504B0304140006080800CC70623B55019EA25F0000007C00000007000000636E782E786D6C4DCB3B0E80201045D1AD90E915ED2CF8AC45050C11660C8261F98AB1B07AC9C97D42D718D865D3E909258CFD00CCE24AC6E326A164D74DC0B4128928FF32603847
310
2BA13128B1252AC747C6BAB984FC68F0B87FE8960A5C09FE86CFB69FBA01504B0304140006080800CC70623BDBABAAF470010000D40300000C0000006662782F636F72652E786D6CC553D16E823014FD95A6AF4B694182CC941A83FA05FB810A9511A125A5257EFE2E82712ECEB8A7F100CD39F7F69E734AF9FADC366850B6
310
AF8DCE7018308C942E4C59EB2AC3DE1D498AD15A706B8CFB56869196ADCAF00863C12B6B7C374385D14E6907A836A59A41D9F7CA615434B0C8705F7CAA5606D23BA8E84F41278B93AC54100640439DE0BDB320004D43C63716C7C399D30917DCFBBA9CD9BA8469F5B156168B24CED3F7248AC8769F27244EB73B92EED8862C
310
B7F13E0C179B3C8F979C8ECD82BBBABDAA2BAC924E9558448CBD9330242CFA08E3154B5651FCC6D215639C8EE5774DBE2B5F6CF2B5768B68963BB5F5588420E442FC700B1139D4CB01F450C1E918227C2E09DF070D8140C84E1E9AAB8F1340832A9CB13130A5F1376A908D57309505ECF2A0DF179C4E9D30F5B239B87E3823
310
7A79C6F31DE1A8A5AEC08474B03C7837EAE4938639B44E5932B833D2C6B6B279CDC613877FA26EE21F4A2A4C63EC7F29A2F301D1F9F7A0E37D145F504B0304140006080800CC70623B9C113CC27E0000009D0000000B0000006662782F636E782E786D6C4DCCDF0A83201C86E15B91DFB94BFB330DD428C8FB886521330DA7
310
6397BF1A1DECE883878F57749FCDA1B7892F1BBC047A23808C7F84D9FA55424E0BE6803A256208E9EF06C84F9B91703228B1C690F78B66B34CD9A5439DF5CF0BFBF65E35BCA1B8D6A5C6F540381E886698B5741C695F9503EBA150A2F8958E3DC3EA0B504B0304140006080800CC70623B7DF2F77C2A010000120200003100
310
00006662782F41393633353835312D344632462D344230382D423046372D3739314545314133324237412F636F72652E786D6C8D51DB8EC22014FC15C2939B0D2DB4B45643319AE817EC0F6041255A68B86CFCFC856D4D76DF7CE190393373060EDB3DC707F856CE6B6B7A480A0C81328395DA5C7B18C3057510EC3873D686
310
3F34088C18550F330C39BB3A1BA7051AAC09CA84841A2BD5020AEF55806078A44B0FFD7053A328440C89E1EFC52486BBB8AA8214A99D789CF9E05200300FC927E4FB4D5B375D43103D5527440FB843077C5AA3F5861C8F645F5787F59E95B390B318B55CE45AA638FAA2957BD7248B390B7A7CC51F9C124149C82B8C378810
310
84AB2F42B7B8DD56F413775B8C5999E9FF4471926F8AA236A1AE96B8B3CC434E5839373893369E1FAF30EA395917409EB7F26AF8801C171837A4A6AC9C89E9F9C9B1A58BA30FD6A5EF5DDDCF894B9AD9B6A59C957943A9FCAE2FD5BC4DFE03504B0304140006080800CC70623BAD7543B64E01000033030000300000006662
310
782F41393633353835312D344632462D344230382D423046372D3739314545314133324237412F636E782E786D6CD593CD6EC32010845F0571AD6CE3D48AD20813A9873E410FBD12D82434182C7EAAE6EDBB2424CD25871E7B41D6EC30B3FA84F9E67BB2E40B4234DE8DB46F1925E094D7C6ED479AD3AE5951B2113C789FEE
310
6C943839C1488B4C05DF079FE72A69D8C96C13AAD6B8631503449F83828872B949AC57D26200B826A308D316B4064D6E46FCDA41C05550DC9E483A00797BFD207EFB092A45DE9514C1BBD22178396BD39D891265658C238DEA00936C654E5E433CB65A26D9F6EDB5EBC14EBF49A45CB856E66048291F6939A9A81BB5C89177
310
38143CA680F4AA299D66A042CEB3354A2684DC9D8D178FE0D9B8B41CAAD720F880EE7EF93C0C18769E099ECC04D5A102C8049A8A05632F4DDF376CF1DE0F6BB65C2F8627B65A33C6BB62177CEBBDAD973006829F89F22E814B54F4BC2BE347F8AA8F681390B50FA73F804400B5F542E796F19FF974E7F78DB802FE05E20750
310
4B0304140006080800CC70623BE75B7789680500003C100000340000006662782F41393633353835312D344632462D344230382D423046372D3739314545314133324237412F6F626A656374732E786D6CAD575B8F9B3818FD2B887D06C22499CB8AA1CA655245D5B455A356FB305264C061D8018C6C3393D95FBFC7600890
310
A4CD5EF210B0B1BFEBF98E3F7B1FF6596ABC522E1296DF9BAE3D320D9A872C4AF2F8DE2CE5CEBA358D0FBEC719939D65A691938CDE9B6ADAF4BD98B3B2D05311DD91329583D9D5FC0F438434A7A611A644887B5384CF34233629258BA878B12322891DEFF6B66BD70BFB62634E8AE781D082709A4B588AF91C528CDA28B73F
310
1C998EEF39EABBEFA97FBD6A7C7E9553F9D3D79FE442923C3C523610337627CB87ABE99D359D4CC6D6E4FACAB5E6ABF9D2726FC6A3C5F56271377BB88362213924694B38DD99FE47C48627A1E7D49F5A8BB5E1A74C0A599ED3B0F21F1E56366B89112D681E218F0915D0D6F17AD41FBA2A369DCF6335D62ABBD39779D5DDD1
310
11D4D8DE3CBB96B2E04FB8202E41051754A1AA8E8F76B4C6DFE810B580B1547F4B84911149794252234D024EF8BBE963A95AE27B3D310A9D5C215C7960FAEE415ED75694C6AFB17BCACA5D99A60A9AA65F217B0BFC53292ACB92BF283FAD0D3621576592CB5BED907C2FA8E9DF794E35E97BEA31BED21FEB401ABB94C44839
310
DCACBF0E1C5DA8DA5B2F4DFFD32AD86F543D9E565E7056502E157C00AD2671CD534549AB752FCA9CDA00677A313F04E51B22FF19E57B300579E3C97EB29F682D92935CEC18CF901B7B54FD8C51F362B56FC72FE0B3C1EAE335EDCCBF5AEC39ADB17DC238973F804BA5E6F6BFE7AF1FB32E523BE9F3BD571418E3631DCA4D48
310
5250CF639223210A9446CA30052EDF057BD35F8329C1ECD84552BF0DC8D18BE7BCE23BFE6BD960AB4A7DE79923A103BEBD80F911CBAA2C60DB19B01CF164A5583B772EE6D3FFA56666CBCDA74DC97724A48F9A58967497E489C4D979006FD7A05E227A1EBDD0F737C623387A9C844D3709995625106D157315F8B8392CD4E0
310
A0B9A720C4BE9829CEF37EA1E13111214D53925356365ADA634861B52519DD27A00AEB808EAF0628E6F435519D446F45CF2C9CF5214F0A15B2F6D06B79DA3EE3CBF7F56780D2F4E7EF73A0F5E5B02A38D07DC852C6B7C1FBB6664213E0C39E3EBA7FF4E1AD23EA2829407C85E586727488B751B2DB9502BC7B228A3FD68B6E
310
A65A22397E690AA8D158D7E404EC8CDA235CC3B7D1898680131CEC2CDF2638C65196279577750F15884AEE19F94199155B92B13297978469D4F8D358DF0AEF7631E28DC8F0D9F437D5D39A83B2231A1D52D543813A824EF8D44BCFF2FA6A31BD1E8DAD87F1CCB526B3879935BF59CDADD5C37479BB1CDD4CA7B3556B516589
310
EF352754B706114D9C885EC9131DE6EFEB43D99AFE2391C2F958179413D7CFEF6B1B6DB1E7600F00DE6E5C67454A339A4BA2E0FBA85ED26F045D454F463DBFCE484C2F90F2E5E3666003662ED8F755951A7D1BECD5B30B550B2785C8E7320B7292A4838DDA71BBC863ED7613CAF659337A3354231D4FF4A182A54904C2898C
310
98B28C4AD0CE056CCF332A80986E571EE9DBC305BB5FEB7E509220A58D25CF042D712A806AC0AD0C657FDEF80D2D9CEAA2EE4D1C76F60BFE74219A06527D6F82DF6412526107381E55E353090704D085B52408A8913C4ED159D79BDA71BB4BC506F4831350EB6F975CD22D69BF7AC49B91A2C0A9DDA3D5CA36AD20FC478E37
310
E61844E2352865EBCB61A275A65283CAAA9DD27703B4102F5AF51EF5F573B75CBB5AD38BC845F7A49F82A0966A49C2E3EA5EA0ECD326CD965F1DB402C6FA8B51A4658C5C5E2EC9E214602E55810345408596591009A82E7E7FFACA19EEA299B14A0081A705CB3296EBC14CDF658DCD336EA6D1136881AAEB87B81AB9EE53D5
310
F5EB8BC8362082DA24122F98680A4E7930C01A0079749CEA14382A0783E5EBA5A10F8C098456A03D6A4AEB6BB881E2513747552A5DB22C7EDAF83BD5528081A365F7FF06504B0304140006080000CC70623B000000000000000000000000350000006662782F41393633353835312D344632462D344230382D423046372D37
310
39314545314133324237412F76657274696365732E62696E504B0304140006080800CC70623BF270F1330600000004000000360000006662782F41393633353835312D344632462D344230382D423046372D3739314545314133324237412F747269616E676C65732E62696E636660600000504B0304140006080000CC7062
310
3B000000000000000000000000370000006662782F41393633353835312D344632462D344230382D423046372D3739314545314133324237412F617474726962757465732E62696E504B0304140006080800CC70623B08DA0BD19000000041010000360000006662782F41393633353835312D344632462D344230382D4230
310
46372D3739314545314133324237412F6469726563746F72792E786D6C858F410AC3201045AF22B36F53E9A60B35CBEEBAE80D244E44489C6234F4F835464A48035D0DF398FF9F8AF63D0E6CC63039F212F8F9020C7D47C6792B21C5FE7403D62A1188E2E60C98D7234A5830286103A55745067B9D86B8A3CF9C7F90C11DE6
310
07FB144396D7B6A82D282E9A152AD114D5EF2CB866EEE831B8EEA07A7BB5A8D7D61A2BAAEB7FD5F70921FF497D00504B0304140006080800CC70623BEDD1DC58FD000000A00100003B0000006662782F41393633353835312D344632462D344230382D423046372D3739314545314133324237412F7265736F75726365732F
310
636F72652E786D6C8D504B6E833010BD0A9A6D65B00922041947112427E8052C33A156828DFCA97AFC9A40A576D7CDCCE87D344F8F9FBFE667F689CE6B6B3A6039850C8DB2A336530731DC4903D95970676DF82583CCC8193B5861107C72362E3BA4AC096842428D1D7107A5F7182053CF7474E0D507CE32973124857FE48B
310
540F3961CEF244279DE03EB81420DB9EAC1384436FA353E879B1B182C7A8C75DA3C7F453DF353A1075D537A7BA6464B8F535A99AE14A9A2BBD90E350DD183B5CFABE3AF262350B1EF4FC9351399401471025A527C218A1E53BAB5A5AB765F5469B96525EACF23FA6B88CFF34456DC2A1DCE36E360F82A5202F42F062ED2BAD
310
579969AFDD8A6F504B010214000A0000080000CC70623B3DEE336E79000000790000001B00000000000000000000000000000000006175746F6465736B2D64657369676E2D7061636B6167652E786D6C504B01021400140006080800CC70623BD486FD9CA0000000F40000001300000000000000000000000000B20000005B
310
436F6E74656E745F54797065735D2E786D6C504B01021400140006080800CC70623B853B8169EB0000007C010000080000000000000000000000000083010000636F72652E786D6C504B01021400140006080800CC70623B55019EA25F0000007C000000070000000000000000000000000094020000636E782E786D6C504B
310
01021400140006080800CC70623BDBABAAF470010000D40300000C00000000000000000000000000180300006662782F636F72652E786D6C504B01021400140006080800CC70623B9C113CC27E0000009D0000000B00000000000000000000000000B20400006662782F636E782E786D6C504B01021400140006080800CC70
310
623B7DF2F77C2A010000120200003100000000000000000000000000590500006662782F41393633353835312D344632462D344230382D423046372D3739314545314133324237412F636F72652E786D6C504B01021400140006080800CC70623BAD7543B64E010000330300003000000000000000000000000000D2060000
310
6662782F41393633353835312D344632462D344230382D423046372D3739314545314133324237412F636E782E786D6C504B01021400140006080800CC70623BE75B7789680500003C10000034000000000000000000000000006E0800006662782F41393633353835312D344632462D344230382D423046372D3739314545
310
314133324237412F6F626A656374732E786D6C504B01021400140006080000CC70623B0000000000000000000000003500000000000000000000000000280E00006662782F41393633353835312D344632462D344230382D423046372D3739314545314133324237412F76657274696365732E62696E504B01021400140006
310
080800CC70623BF270F133060000000400000036000000000000000000000000007B0E00006662782F41393633353835312D344632462D344230382D423046372D3739314545314133324237412F747269616E676C65732E62696E504B01021400140006080000CC70623B0000000000000000000000003700000000000000
310
000000000000D50E00006662782F41393633353835312D344632462D344230382D423046372D3739314545314133324237412F617474726962757465732E62696E504B01021400140006080800CC70623B08DA0BD1900000004101000036000000000000000000000000002A0F00006662782F41393633353835312D344632
310
462D344230382D423046372D3739314545314133324237412F6469726563746F72792E786D6C504B01021400140006080800CC70623BEDD1DC58FD000000A00100003B000000000000000000000000000E1000006662782F41393633353835312D344632462D344230382D423046372D3739314545314133324237412F7265
310
736F75726365732F636F72652E786D6C504B0506000000000E000E0080040000641100000000
  0
XRECORD
  5
8A66
102
{ACAD_REACTORS
330
1F7
102
}
330
1F7
100
AcDbXrecord
280
     1
102
MATERIAL
148
0.0
149
0.0
149
0.0
 93
        0
 94
       63
282
     0
 72
     1
 77
     1
171
     1
175
     1
179
     1
273
     0
  0
XRECORD
  5
1F8
102
{ACAD_REACTORS
330
1F7
102
}
330
1F7
100
AcDbXrecord
280
     1
 70
     1
 90
429727718
  1
30362254-06B7-45E0-A893-8CFA70E3D6BC
310
504B03040A0000080000CC70623B3DEE336E79000000790000001B0000006175746F6465736B2D64657369676E2D7061636B6167652E786D6C3C3F786D6C2076657273696F6E3D22312E302220656E636F64696E673D227574662D3822203F3E3C666F726D6174733E3C666F726D61743E687474703A2F2F736368656D612E
310
6175746F6465736B2E636F6D2F64657369676E2D7061636B6167652F323030393C2F666F726D61743E3C2F666F726D6174733E504B0304140006080800CC70623BD486FD9CA0000000F4000000130000005B436F6E74656E745F54797065735D2E786D6C7D8EC10E82300C865F65E91D8A1E8C310C0EEA1BF002731658846E
310
D98AC1B77784ABF1D8FE5FBFBF75BBCE937A534CCEB38643598122B6FEE978D0B0485F9C41B54DDD7D022595594E1A469170414C76A4D9A4D207E29CF43ECE46F218070CC6BECC4078ACAA135ACF422C856C0E68EA1BF5669944DDD7BCDE7B1F8E415D77AECB980613C2E4AC91FC167A2B244592486606FC29C8FD7F045B9A
310
EF7053A7E60B504B0304140006080800CC70623B1EC5D7A3EB0000007C01000008000000636F72652E786D6C8D90416EC3201045AF82665B6103C6756C6122AB4D4ED00B204C5C94182C03558F5F9C3852BBEB6A467FFE9B197D71FC9E6FE8CBACC17AD7032D0820E3B41FAD9B7A48F1820F808E52ACDEC75F36404ECDA687
310
4D0629A6D5A76597B477D1B89855E747B38B2A041301E95B6E7A08FAD3CCAA50296647B8168BD2573599823EBB0CA76447F43862C7BCCF5EAC59410E4DDD9C7973C2755553CCCFA4C603E3040F1565ED3B1FDE4E432BCA0D9622DAF9795FAF464533826484B498524CD807E51D79ED187F21878E10516EF63F505AC67F42C9
310
BA58B1FDDD071640D2FCC87D2045B96591CB3DA85CB7DCE40F504B0304140006080800CC70623B55019EA25F0000007C00000007000000636E782E786D6C4DCB3B0E80201045D1AD90E915ED2CF8AC45050C11660C8261F98AB1B07AC9C97D42D718D865D3E909258CFD00CCE24AC6E326A164D74DC0B4128928FF32603847
310
2BA13128B1252AC747C6BAB984FC68F0B87FE8960A5C09FE86CFB69FBA01504B0304140006080800CC70623B8C9102E971010000D40300000C0000006662782F636F72652E786D6CC5535B6E833010BC8AE5DF0A6C08340F1947A84D4ED00B38C6A128602363A31CBFCB234A53A551FA553EC09AD9F5CE8C31DB9E9B1AF5CA
310
7695D1198E428A91D2D214952E33ECDD315861B4E5CC1AE3BE9561A445A3323CC098B3D21ADFCE9034DA29ED00D5A6503328BA4E398C640D8B0C77F253352214DE4145770A5B214FA2546114020D759C75CE8200340D19DE981F0F6746269C33EFAB6266AB02A655C74A59CCF365BADC27CB5D902ED22848F6340DF238A141
310
BE88E2F57B92BFEDF23523433367AE6A2EEAA455C2A902F398D2751045018D3FA264435F3771F242571B4A1919CA6F9A7C5B3CD9E42BED16F12C776AEB308F40C848FC700B1139D4891EF410CEC810227CC6846F8386402064270EF5C5C709A05E49676C024C61FC95EA45ED154CA5211D1FF4FB8291A913A68E9B83EBBB33
310
E2A7673CDE118E5AE8124C0807CB8377834E366998436B950D7A7746DAD846D4CFD978E0F04FD455FC5D49D2D4C6FE9722321F10997F0F32DC47FE05504B0304140006080800CC70623BFFEA85907E0000009D0000000B0000006662782F636E782E786D6C4DCCD10A83201886E15B91FFDC95D95A811AB6F23E625948A6C3
310
E9D8E5AF46073BFAE0E1E365ED67B3E8ADC3CB78C7815C7240DA3DFC64DCC221C519D7805AC182F7F1EF06C88D9BE6703008B6049F9E274D7A1E938DBB5AE3D6131B2589BA0D3D965551E0B2EA732C9B9A624AAEB41E3A557677029960D9AFB4EF11165F504B0304140006080800CC70623B4FEEA4082C0100001202000031
310
0000006662782F39464131463745442D413632322D343644302D413938332D3331353338454246344243312F636F72652E786D6C8D515B6EC32010BC0AE2AB55850DD871ED0813254D72825EC00192A2C460F1A872FC42ED48ED5F7E00CDCECCCEB26C731F6FE05B39AFADE921293004CA082BB5B9F43086336A21D870E6AC
310
0D7F68109861543DCC30E4ECE26C9C164858139409093556AA051CBC570102714B8F1E7AF1A5C6A11862480C7F2DA6415C878B2A4891CA89C7990F2E050073937C42DE1DB7E4F87ED8A36D4329AA9B3D46DBAEAD504556557BD81DEBDD0761E52CE42C462D17B996298E3E6BE59E35C962CE821E1FF18553435012728A7187
310
0841987E927A8D9B35ADDF70BBC6989599FE4F1427F9A4286A132ABAC49D651EF234CD5CE04CDA78BA3DC2A8FB645D00B9DF8B57E215725C60BCA2A463E54C4CE327C7A65E1C7DB02E7DEFCBF594B864C5CA6CDBD49C957943E9FA5D5FBAF336F90F504B0304140006080800CC70623BAD7543B64E01000033030000300000
310
006662782F39464131463745442D413632322D343644302D413938332D3331353338454246344243312F636E782E786D6CD593CD6EC32010845F0571AD6CE3D48AD20813A9873E410FBD12D82434182C7EAAE6EDBB2424CD25871E7B41D6EC30B3FA84F9E67BB2E40B4234DE8DB46F1925E094D7C6ED479AD3AE5951B2113C
310
789FEE6C943839C1488B4C05DF079FE72A69D8C96C13AAD6B8631503449F83828872B949AC57D26200B826A308D316B4064D6E46FCDA41C05550DC9E483A00797BFD207EFB092A45DE9514C1BBD22178396BD39D891265658C238DEA00936C654E5E433CB65A26D9F6EDB5EBC14EBF49A45CB856E66048291F6939A9A81BB5
310
C8917738143CA680F4AA299D66A042CEB3354A2684DC9D8D178FE0D9B8B41CAAD720F880EE7EF93C0C18769E099ECC04D5A102C8049A8A05632F4DDF376CF1DE0F6BB65C2F8627B65A33C6BB62177CEBBDAD973006829F89F22E814B54F4BC2BE347F8AA8F681390B50FA73F804400B5F542E796F19FF974E7F78DB802FE05
310
E207504B0304140006080800CC70623B16AB87BA640500003C100000340000006662782F39464131463745442D413632322D343644302D413938332D3331353338454246344243312F6F626A656374732E786D6CAD575B6FA33818FD2B887DE6924B3BED8A326A92B68A663B534DD4D13E548A0C38942D60649B369D5FBFC7
310
600890A493BDE42160637FD7F31D7FF63E6FB3D478A55C242CBF3247B66B1A340F5994E4F19559CA8D75611A9F7D8F33263BCB4C232719BD32D5B4E97B316765A1A722BA21652A07B3B7B33F0D11D29C9A46981221AE4C113ED38CD8A4942CA2E2C58E882476BCD9DA23BB5ED8171B73523C0F841684D35CC252CCE79062D4
310
468DFA43D7747CCF51DF7D4FFDEB5593E3AB9CCA9FBEFE241792E4E19EB28198C968BAB8199F5D5A67D3E9C49A9E8F47D6EC76B6B0469F26EEFC7C3EBFBCBEB98462213924694B38DD98FE1D62C393D073EA4FADC5DAF04326852CCF6958F90F0F2B9BB5C48816348F90C7840A68EB78EDF68723159BCEE7891A6B95DDE9D3
310
BCEAEEE8086A6C6F9E5D4B59F0175C10A7A0820BAA5055C7473B5AE3CFDD452D602CD5DF12616444529E90D448938013FE6EFA58AA96F85E4F8C42275708571E98FE6827AF6B2B4AE3D7D83D64E5A64C53054DD3AF90BD06FEA9149565C94FCA0F6B834DC85599E4F2423B24DF0B6AFA979E534DFA9E7A4CC6FA631D486393
310
921829879BF5D781A373557BCB85E97FB90DB62B558F8795179C15944B051F40AB495CF35451D26A4727654E6D8033BD98EF82F21D91FF8AF2DD9982BCF1643BDD4EB516C9492E368C67C88DED563FC36D5EACF66DFF057C3658BDBFA69DF9578B3DA735B64F18C7F20770A9D45CFCF7FCF563D6456A277DBEF78A02637CA2
310
43B90A490AEAB94F72244481D24819A6C0E59B606BFA4B3025981DBB48EAB701D97BF19C577CC77F2D1B6C55A9EF3C732474C0B727303F625995056C3B02963D9EAC146BE78EC5FCEC7FA999EBC5EACBAAE41B12D27B4D2C0BBA49F244E2ECDC81B76B502F113D8F5EE8FB1BE3111CDD4FC2AA9B844CAB1288B68AB90A7CDC
310
1C166AB0D3DC5310625FCC14E779BFD0709F8890A629C9292B1B2DED31A4B0DA928CEE135085754027E3018A397D4D5427D15BD1330B677DC8934285AC3DF45A9EB68FF8F2B8FC0A509AFEECFD0FF2DE25CC6047F7214B195F07EFEB9A094D800F7BFAE8FED187B78EA8A3A400F115961BCAD1215E47C966530AF0EE8128FE
310
58CEBB996A8964FFA529A046635D9353B0336A8F700DDF46271A024E70B0B37C9DE01847591E54DED53D54202AB947E4076556AC49C6CA5C9E1226B7F1A7B1BE15DEED62C41B91E1B3E9AFAAA735036547343A925075041DF0A9979E893B391F8FCFA6967B3EFB644DCF6E5CEBFAE272625DCC6FAF3FB93793C5F90CE1EF57
310
407342756B10D1C489E8953CD1617E5CEECAD6F4EF8914CE5D5D504E5C3F1F9736DA62CFC11E00BCDDB8CC8A9466349744C1F75EBDA4DF09BA8A9E8C7A7E9991989E20E5DBDD6A6003664ED8F7A04A8DBE0DF6EAD9B9AA858342E47399053949D2C146EDB85DE4B176BB0965FBAC19BD19AA918E27FA50C1D22402E144464C
310
59462568E704B6E71915404CB72B8FF4EDE184DDAF753F284990D2C6926782963815403548A70C657FDEF80D2D9CEAA2AE4C1C76F60BFE74219A06527D6582DF6412526107381E55E353090704D085B52408D0933C4ED159D79BDA71BB4BC506F4831350EB6F979CD22D69BF7AC49B91A2C0A9DDA3D5CA36AD20FC478E37E6
310
1844E2352865EBCB6EA275A652E3836BE04EFB400BF1A2556F515F1FBB35B2AB35BD889C744FFA1004B5544B121E57F70215746DD2F5E2C1412B602CBF19455AC6C8E5E9922C4E01E65215385004546899059180EAFCF7A707CE7017CD8CDB0410789AB32C63B91E5CEBBBACB17AC6CD347A022D5075FD106377347AAABA7E
310
7D11590744509B44E205134DC1290F06580320F78E537D3D73540E06CB970B431F185308AD40BBD794D6D77003C5A36E8EAA54BA64597CD8F83BD552A080A365F7FF06504B0304140006080000CC70623B000000000000000000000000350000006662782F39464131463745442D413632322D343644302D413938332D3331
310
353338454246344243312F76657274696365732E62696E504B0304140006080800CC70623BF270F1330600000004000000360000006662782F39464131463745442D413632322D343644302D413938332D3331353338454246344243312F747269616E676C65732E62696E636660600000504B0304140006080000CC70623B
310
000000000000000000000000370000006662782F39464131463745442D413632322D343644302D413938332D3331353338454246344243312F617474726962757465732E62696E504B0304140006080800CC70623B08DA0BD19000000041010000360000006662782F39464131463745442D413632322D343644302D413938
310
332D3331353338454246344243312F6469726563746F72792E786D6C858F410AC3201045AF22B36F53E9A60B35CBEEBAE80D244E44489C6234F4F835464A48035D0DF398FF9F8AF63D0E6CC63039F212F8F9020C7D47C6792B21C5FE7403D62A1188E2E60C98D7234A5830286103A55745067B9D86B8A3CF9C7F90C11DE607
310
FB144396D7B6A82D282E9A152AD114D5EF2CB866EEE831B8EEA07A7BB5A8D7D61A2BAAEB7FD5F70921FF497D00504B0304140006080800CC70623B0D6EF93BFE000000A00100003B0000006662782F39464131463745442D413632322D343644302D413938332D3331353338454246344243312F7265736F75726365732F63
310
6F72652E786D6C8D50596E833010BD0A9ADFCA60B334011947A8694ED00B586642AC041B79A97AFC9A40A5F6AF3F33A3B7689E1E3F7DCD8FEC139DD7D6F4C0720A191A65476DA61E62B892236427C19DB5E1970C322367EC618541F0C9D9B8EC90B226A009093576C41D94DE63804C3DD2D18357379C652E63480A7FCF17A9
310
EE72C29CE5894E3AC17D702940B63D59270887DE46A7D0F36263058F518FBB468FE9A7BE6A7420864373B8D4873369AA8691FA421B3294352543C5CAF65C0F6FEF43CB8BD52C78D0F34F46E550061C419494B6843142CB0F5677F4B52BEB177AEC28E5C52AFF638ACBF84F53D42654E51E77B379102C05791282176B5F693D
310
CB4C7BED567C03504B010214000A0000080000CC70623B3DEE336E79000000790000001B00000000000000000000000000000000006175746F6465736B2D64657369676E2D7061636B6167652E786D6C504B01021400140006080800CC70623BD486FD9CA0000000F40000001300000000000000000000000000B20000005B
310
436F6E74656E745F54797065735D2E786D6C504B01021400140006080800CC70623B1EC5D7A3EB0000007C010000080000000000000000000000000083010000636F72652E786D6C504B01021400140006080800CC70623B55019EA25F0000007C000000070000000000000000000000000094020000636E782E786D6C504B
310
01021400140006080800CC70623B8C9102E971010000D40300000C00000000000000000000000000180300006662782F636F72652E786D6C504B01021400140006080800CC70623BFFEA85907E0000009D0000000B00000000000000000000000000B30400006662782F636E782E786D6C504B01021400140006080800CC70
310
623B4FEEA4082C0100001202000031000000000000000000000000005A0500006662782F39464131463745442D413632322D343644302D413938332D3331353338454246344243312F636F72652E786D6C504B01021400140006080800CC70623BAD7543B64E010000330300003000000000000000000000000000D5060000
310
6662782F39464131463745442D413632322D343644302D413938332D3331353338454246344243312F636E782E786D6C504B01021400140006080800CC70623B16AB87BA640500003C1000003400000000000000000000000000710800006662782F39464131463745442D413632322D343644302D413938332D3331353338
310
454246344243312F6F626A656374732E786D6C504B01021400140006080000CC70623B0000000000000000000000003500000000000000000000000000270E00006662782F39464131463745442D413632322D343644302D413938332D3331353338454246344243312F76657274696365732E62696E504B01021400140006
310
080800CC70623BF270F133060000000400000036000000000000000000000000007A0E00006662782F39464131463745442D413632322D343644302D413938332D3331353338454246344243312F747269616E676C65732E62696E504B01021400140006080000CC70623B0000000000000000000000003700000000000000
310
000000000000D40E00006662782F39464131463745442D413632322D343644302D413938332D3331353338454246344243312F617474726962757465732E62696E504B01021400140006080800CC70623B08DA0BD190000000410100003600000000000000000000000000290F00006662782F39464131463745442D413632
310
322D343644302D413938332D3331353338454246344243312F6469726563746F72792E786D6C504B01021400140006080800CC70623B0D6EF93BFE000000A00100003B000000000000000000000000000D1000006662782F39464131463745442D413632322D343644302D413938332D3331353338454246344243312F7265
310
736F75726365732F636F72652E786D6C504B0506000000000E000E0080040000641100000000
  0
XRECORD
  5
8A68
102
{ACAD_REACTORS
330
173
102
}
330
173
100
AcDbXrecord
280
     1
102
MATERIAL
148
0.0
149
0.0
149
0.0
 93
        0
 94
       63
282
     0
 72
     1
 77
     1
171
     1
175
     1
179
     1
273
     0
  0
XRECORD
  5
175
102
{ACAD_REACTORS
330
173
102
}
330
173
100
AcDbXrecord
280
     1
270
     1
271
     1
  0
XRECORD
  5
174
102
{ACAD_REACTORS
330
173
102
}
330
173
100
AcDbXrecord
280
     1
270
     1
271
     1
  0
XRECORD
  5
1FB
102
{ACAD_REACTORS
330
173
102
}
330
173
100
AcDbXrecord
280
     1
 70
     0
 90
1673772943
  1
ECE7A1D2-D628-4531-984C-D00F80459256
310
504B03040A0000080000CC70623B3DEE336E79000000790000001B0000006175746F6465736B2D64657369676E2D7061636B6167652E786D6C3C3F786D6C2076657273696F6E3D22312E302220656E636F64696E673D227574662D3822203F3E3C666F726D6174733E3C666F726D61743E687474703A2F2F736368656D612E
310
6175746F6465736B2E636F6D2F64657369676E2D7061636B6167652F323030393C2F666F726D61743E3C2F666F726D6174733E504B0304140006080800CC70623BD486FD9CA0000000F4000000130000005B436F6E74656E745F54797065735D2E786D6C7D8EC10E82300C865F65E91D8A1E8C310C0EEA1BF002731658846E
310
D98AC1B77784ABF1D8FE5FBFBF75BBCE937A534CCEB38643598122B6FEE978D0B0485F9C41B54DDD7D022595594E1A469170414C76A4D9A4D207E29CF43ECE46F218070CC6BECC4078ACAA135ACF422C856C0E68EA1BF5669944DDD7BCDE7B1F8E415D77AECB980613C2E4AC91FC167A2B244592486606FC29C8FD7F045B9A
310
EF7053A7E60B504B0304140006080800CC70623BD9DDAED0EC0000007C01000008000000636F72652E786D6C8D90416EC3201045AF82665B61836D9CD8C2444DD39CA01740405C94182C03558F5F9C3852BBEB6A467FFE9B197D7EF89E6EE8CB2CC17A37002D0820E394D7D68D03A478C17B4007C117EFE32F1B20272733C0
310
2A83E0E3E2D3BC49CABB685CCCAAF3DA6CA20CC14440EA969B0182FA34932C648AD911AEC52CD5558EA6A0CF2EC329598D1E47ACCEFBECC59A050463A7EA5833865FEBDD0E37353BE3EE8DBDE3F6786A48D375FBF6CC78B9C282473B3DEFABC5C86834888A900E538A49F5419B9EB47DD5BC907D4F082F57FB1F28CDFA9F50
310
B22ED6D5F6EE030B20687EE43E10BC5CB3C8E51E54AE6B6EE207504B0304140006080800CC70623B55019EA25F0000007C00000007000000636E782E786D6C4DCB3B0E80201045D1AD90E915ED2CF8AC45050C11660C8261F98AB1B07AC9C97D42D718D865D3E909258CFD00CCE24AC6E326A164D74DC0B4128928FF326038
310
472BA13128B1252AC747C6BAB984FC68F0B87FE8960A5C09FE86CFB69FBA01504B0304140006080800CC70623BA24EB22D72010000D40300000C0000006662782F636F72652E786D6CC5535B6E833010BC8AE5DF0A6C5E49888CA3A6694ED00B38E05014B091B1518EDFE511A5A9D228FD2A1F60CDEC7A67C6986DCE4D8D7A
310
69BA4AAB0C073EC548AA5C17952A33ECECD15B61B4E1CC686DBF9561A44423333CC098B3D268D7CE50AE9595CA02AA74216750749DB418E5352C32DCE59FB211BE70162ABA93DF8AFC244AE9073ED050C759670D0840D390E18DF9F1706664C23973AE2A66B62A605A75ACA4C13C4976E1364A12EF355A2EBD384AF65EFA96
310
BC7B8BED2EA6719AAE16FB8491A199335B351775B991C2CA02F390D2D40B028F861F41BCA68B7518BFD0D59A524686F29B26D7164F36B94AD9289CE54E6D1DE6010819891F6E21228B3AD1831EC219194284CF98F06DD01008846CC5A1BEF83801D4CBDC6A1303536877A57A513B0953A94FC707FDBE6064EA84A9E3E6E0FA
310
EE8CF0E9198F7784A316AA0413C2C2F2E0ECA0934D1AE6D05A69BCDE9E91D2A611F573361E38FC1375157F5752AE6B6DFE4B11990F88CCBF0719EE23FF02504B0304140006080800CC70623B408A7D3B7C0000009D0000000B0000006662782F636E782E786D6C4DCCD10A83201886E15B91FFDC552A92A0064DBC8F581632
310
D3703A76F9ABD1C18E3E78F878E5F0D9027ABBFCF2292AE86E2D20171F69F6715550CB827B40839639A5F2770314A7CD293819B45C73AAFB45B35BA61ACAA1C1C7E7855C58C15BC331339661262CC762340413D68D77DA5B42298546CBE6573AF60CEB2F504B0304140006080800CC70623B449FB9BD290100001202000031
310
0000006662782F36394639363044362D344446342D343946362D394244322D3234314243333846323333332F636F72652E786D6C8D515B6EC32010BC0AE22B55850D98B871848994463E412FE002495162B07854397EA176A4F62F3F2C9A9D991D587EB84F37F0AD7D30CEF6905418026DA553C65E7A98E219ED203808EE9D
310
8B7F6810D871D23D2C3014FCE25D9A57483A1BB58D19B54EE9151C43D0110279CB971E06F9A5A7B11A53CC8C70ADE6515EC78BAE4895DB992778883E0700CB907242D17643D7E2538BD869608875438BBAE38922CAC8F1BDD90DB4691A5E2F42C153326A951B95E398B3D1FE599322163C9AE9115F7A3D46ADA0A018778810
310
84E907617BDCEE297BC5BB3DC6BC2EF47FA234AB2745C9D8D8D035EE220B50105E2F0DC1954B9FB747187D9F9D8FA0CCDB042D5FA0C015C65B42DF78BD10F3F3B363CB56C7109DCFDFBBB97E662ED92EB62D13BC2E1BCAE5777DB9966D8A1F504B0304140006080800CC70623BAD7543B64E01000033030000300000006662
310
782F36394639363044362D344446342D343946362D394244322D3234314243333846323333332F636E782E786D6CD593CD6EC32010845F0571AD6CE3D48AD20813A9873E410FBD12D82434182C7EAAE6EDBB2424CD25871E7B41D6EC30B3FA84F9E67BB2E40B4234DE8DB46F1925E094D7C6ED479AD3AE5951B2113C789FEE
310
6C943839C1488B4C05DF079FE72A69D8C96C13AAD6B8631503449F83828872B949AC57D26200B826A308D316B4064D6E46FCDA41C05550DC9E483A00797BFD207EFB092A45DE9514C1BBD22178396BD39D891265658C238DEA00936C654E5E433CB65A26D9F6EDB5EBC14EBF49A45CB856E66048291F6939A9A81BB5C89177
310
38143CA680F4AA299D66A042CEB3354A2684DC9D8D178FE0D9B8B41CAAD720F880EE7EF93C0C18769E099ECC04D5A102C8049A8A05632F4DDF376CF1DE0F6BB65C2F8627B65A33C6BB62177CEBBDAD973006829F89F22E814B54F4BC2BE347F8AA8F681390B50FA73F804400B5F542E796F19FF974E7F78DB802FE05E20750
310
4B0304140006080800CC70623B8D05915C650500003B100000340000006662782F36394639363044362D344446342D343946362D394244322D3234314243333846323333332F6F626A656374732E786D6CAD575B6FA33814FE2B887D06429276DA1565D4266D158D3A339A6846FB502932E050B66023DB74D2FDF5FB190C01
310
9276B2973C046C8ECFF53B17071F77456EBD502133CEAE6CDF9DD81665314F32965ED995DA3A17B6F5310C04E7AA47665B8C14F4CAD6DB7618A48257A5D94AE89654B91AEDDEDDFC61C998326A5B714EA4BCB265FC440BE2924AF184CA6737218AB8E976E7FA6E4338649B0A523E8D98964450A6A029F619B8588D52FE7039
310
B1BD30F0F4F730D0FF866AF6369557DB33949F31A9088B0F848DD8CCFCF9F2767A76E99CCDE733677E3EF59D9BBB9BA5E37F984D16E78BC5E5F5ED25044B25C0C96822E8D60EEFE11B91C581D77CEA34368A1F5329E68CD1B8B61F16D63A1B8E092D294B10C78C4A48EB593D192E7DED9BDEE7995E1B91FDEDD3ACEA9FE831
310
6A756F9F7D4D79F4274C90A7A04248AA51D5F8C718DAE06FB2F75AC4796EBE65D22A88A22223B995679120E2D50E41AA49C260C046A35368846B0BECD0DFF3EBEB8AD4F835768F69B9ADF25C43D30E6B646F807FAA64AD59F61715C7A54127C4AACA98BA3006A9D792DAE165E0D59B61A01FB3A9F9D838D2DAE62445C86166
310
F37564E842E7DE6A69879FEEA2DD5AE7E371E1A5E025154AC307D06A03D73EB5978C58FFA4C8E9033066E0F3BD53BEC1F39F91BE7B55103791EDE6BBB991A2046172CB4581D8B893FA674DDA17A77B3B7C413D1B511FD2743BFF8A38F03A658705E3ADF8015C3A3417FF3D7E439FF591DA0B5F18BC20C1B8981957AE6392A3
310
F43C640C01D1A0B4728E2DD4F26DB4B3C3152A252A3B4E913CEC1C72F012782FF88EFF8637AA552DBEF76408E8A8DE9E50F9E1CB3A2DA0DB1B6039A893B56063DC5B3E3FFB5F72E67AB9FEB4AEC496C4F4C1149625DD662C53E89D7BF0F6151A046260D1337DFDC94502430F83B0EE07A130A224BCAD7DAE1D9FB6CD422FF6
310
920702629C4BB9AE79C12F243C6432A6794E18E5552BA56B431AAB5D91317302B2B071E86C3A42B1A02F999E24061403B5D0EB639195DA655DD3EBEAB4FB862DDF579F014AD0E73C22F99E28DA57FB98E75C6CA2D74D53086D600F4786E0FE3144B771A8A7B900F03594DB8A633CBC49B2EDB69228BB479CF863B5E807AAAB
310
23872F6DFEB4129B949CA33823F58830E86D65621E10047D9DB34D862E8EAC3C2ABC2F7B2C40D67CDFE01F5545B92105AF983AC54D93D69E56FB8E797F88913F898A9FEC705D3F9D1B54EC8426FB500D40A03BD0119B06E1B95DDC7EB8F6975367793EBD70E66733DFB9BC982F9CE564727731999F5D4ECFCE3B8D6A4DC2A0
310
6D50FD148437D110834A64C6CDDF57FBACB5C307A2A477DFE4939736CFEF2B175371E0E10CF0DD1D5C15654E0BCA14D1E87DD02FF93782A162C0A3D95F1524A52770F972BF1EE9809D13CE7DD599467F8ECE9ADD85CE85A34CD45355448C64F9E8A031DC2D596ACC6E5DD93D9B82DE2EF5CAF81363A8E47996A0DE24564A79
310
4115AACE09C55E14540231FDA13C319787134EBF34E3A022514E5B4D9E0826E25C02D5805B15ABE1BEF51B26383D445DD9E875EE33FE4C22DA16427D65A3BCA92CA6D28DD01DF5DC53330704308475351050232CCD31583787BA75774AFB06E5070DD0C8EF484E19968C5D83BA5B90B244D31E54D55A372320FE4786B7EA58
310
44E135AA5467CB7EA333A61683CC6A8C3257034C10CF46F40EF9F5BE59BE5BD30C3C72D235E95D10345C1D45445A5F0BB47E46A5EBE5570F9380B5FA629579952296A773720405982B9DE04011506178964401AA8BDF1FBF0A8EAB6861DD6580C0E38217056766716DAEB2D6FA0917D3E4116581EADB879C4E7CFFB11EFACD
310
3D641311495D92C8676CB409A72D18610D803CE8A626049E8EC1887CB5B44CC39883690DDA8399B4B9855B481E7D71D4A9D22F96E5BB73BF5793020C02137BF837504B0304140006080000CC70623B000000000000000000000000350000006662782F36394639363044362D344446342D343946362D394244322D32343142
310
43333846323333332F76657274696365732E62696E504B0304140006080800CC70623BF270F1330600000004000000360000006662782F36394639363044362D344446342D343946362D394244322D3234314243333846323333332F747269616E676C65732E62696E636660600000504B0304140006080000CC70623B0000
310
00000000000000000000370000006662782F36394639363044362D344446342D343946362D394244322D3234314243333846323333332F617474726962757465732E62696E504B0304140006080800CC70623B08DA0BD19000000041010000360000006662782F36394639363044362D344446342D343946362D394244322D
310
3234314243333846323333332F6469726563746F72792E786D6C858F410AC3201045AF22B36F53E9A60B35CBEEBAE80D244E44489C6234F4F835464A48035D0DF398FF9F8AF63D0E6CC63039F212F8F9020C7D47C6792B21C5FE7403D62A1188E2E60C98D7234A5830286103A55745067B9D86B8A3CF9C7F90C11DE607FB14
310
4396D7B6A82D282E9A152AD114D5EF2CB866EEE831B8EEA07A7BB5A8D7D61A2BAAEB7FD5F70921FF497D00504B0304140006080800CC70623BCA768048FE000000A00100003B0000006662782F36394639363044362D344446342D343946362D394244322D3234314243333846323333332F7265736F75726365732F636F72
310
652E786D6C8D50596E833010BD0A9ADFCA60D600328E9AA639412F609909B1126CE4A5EAF16B0295DABFFECC8CDEA2797AECF8353F924FB44E193D409E5248504B332A3D0D10FC95B4901C39B3C6F85F3248B49871801506CE266BC2B243D2688FDA47549B11775038871E12F988C7004EDE7016A9083E2ADC3D5D84BC8B09
310
D33C8D74D471E6BC8D0192EDC93A815B742658898E651BCB59086ADC356A8C3FD555A1055ED7E7E254D615792D0F075295F585746FF53B694EE78A565DD736979A65AB9933AFE69F8CD2A2F038022F28ED489E135A7CE4554F9BBEA85E68DB53CAB255FEC71496F19FA6A0B42F8B3DEE6673C0F318E4497096AD7DC5F52C33
310
EEB55BFE0D504B010214000A0000080000CC70623B3DEE336E79000000790000001B00000000000000000000000000000000006175746F6465736B2D64657369676E2D7061636B6167652E786D6C504B01021400140006080800CC70623BD486FD9CA0000000F40000001300000000000000000000000000B20000005B436F
310
6E74656E745F54797065735D2E786D6C504B01021400140006080800CC70623BD9DDAED0EC0000007C010000080000000000000000000000000083010000636F72652E786D6C504B01021400140006080800CC70623B55019EA25F0000007C000000070000000000000000000000000095020000636E782E786D6C504B0102
310
1400140006080800CC70623BA24EB22D72010000D40300000C00000000000000000000000000190300006662782F636F72652E786D6C504B01021400140006080800CC70623B408A7D3B7C0000009D0000000B00000000000000000000000000B50400006662782F636E782E786D6C504B01021400140006080800CC70623B
310
449FB9BD290100001202000031000000000000000000000000005A0500006662782F36394639363044362D344446342D343946362D394244322D3234314243333846323333332F636F72652E786D6C504B01021400140006080800CC70623BAD7543B64E010000330300003000000000000000000000000000D20600006662
310
782F36394639363044362D344446342D343946362D394244322D3234314243333846323333332F636E782E786D6C504B01021400140006080800CC70623B8D05915C650500003B10000034000000000000000000000000006E0800006662782F36394639363044362D344446342D343946362D394244322D32343142433338
310
46323333332F6F626A656374732E786D6C504B01021400140006080000CC70623B0000000000000000000000003500000000000000000000000000250E00006662782F36394639363044362D344446342D343946362D394244322D3234314243333846323333332F76657274696365732E62696E504B010214001400060808
310
00CC70623BF270F13306000000040000003600000000000000000000000000780E00006662782F36394639363044362D344446342D343946362D394244322D3234314243333846323333332F747269616E676C65732E62696E504B01021400140006080000CC70623B00000000000000000000000037000000000000000000
310
00000000D20E00006662782F36394639363044362D344446342D343946362D394244322D3234314243333846323333332F617474726962757465732E62696E504B01021400140006080800CC70623B08DA0BD190000000410100003600000000000000000000000000270F00006662782F36394639363044362D344446342D
310
343946362D394244322D3234314243333846323333332F6469726563746F72792E786D6C504B01021400140006080800CC70623BCA768048FE000000A00100003B000000000000000000000000000B1000006662782F36394639363044362D344446342D343946362D394244322D3234314243333846323333332F7265736F
310
75726365732F636F72652E786D6C504B0506000000000E000E0080040000621100000000
  0
XRECORD
  5
176
102
{ACAD_REACTORS
330
173
102
}
330
173
100
AcDbXrecord
280
     1
270
     1
271
     1
  0
XRECORD
  5
177
102
{ACAD_REACTORS
330
173
102
}
330
173
100
AcDbXrecord
280
     1
270
     1
271
     1
  0
XRECORD
  5
8A8A
102
{ACAD_REACTORS
330
8A89
102
}
330
8A89
100
AcDbXrecord
280
     1
102
ACAD_ROUNDTRIP_2012_MLEADER_STYLE
298
     1
  0
XRECORD
  5
8A9C
102
{ACAD_REACTORS
330
8A9B
102
}
330
8A9B
100
AcDbXrecord
280
     1
102
DISPLAYNAME
  1
Metric50
102
FLAGS
 90
        0
  0
CELLSTYLEMAP
  5
8A5C
102
{ACAD_REACTORS
330
162
102
}
330
162
100
AcDbCellStyleMap
 90
        3
300
CELLSTYLE
  1
TABLEFORMAT_BEGIN
 90
        5
170
     1
 91
        0
 92
    32768
 62
   257
 93
        1
300
CONTENTFORMAT
  1
CONTENTFORMAT_BEGIN
 90
        0
 91
        0
 92
      512
 93
        0
300

 40
0.0
140
1.0
 94
        5
 62
     0
340
11
144
6.0
309
CONTENTFORMAT_END
171
     1
301
MARGIN
  1
CELLMARGIN_BEGIN
 40
1.5
 40
1.5
 40
1.5
 40
1.5
 40
4.5
 40
4.5
309
CELLMARGIN_END
 94
        6
 95
        1
302
GRIDFORMAT
  1
GRIDFORMAT_BEGIN
 90
        0
 91
        1
 62
     0
 92
       -2
340
14
 93
        0
 40
1.125
309
GRIDFORMAT_END
 95
        2
302
GRIDFORMAT
  1
GRIDFORMAT_BEGIN
 90
        0
 91
        1
 62
     0
 92
       -2
340
14
 93
        0
 40
1.125
309
GRIDFORMAT_END
 95
        4
302
GRIDFORMAT
  1
GRIDFORMAT_BEGIN
 90
        0
 91
        1
 62
     0
 92
       -2
340
14
 93
        0
 40
1.125
309
GRIDFORMAT_END
 95
        8
302
GRIDFORMAT
  1
GRIDFORMAT_BEGIN
 90
        0
 91
        1
 62
     0
 92
       -2
340
14
 93
        0
 40
1.125
309
GRIDFORMAT_END
 95
       16
302
GRIDFORMAT
  1
GRIDFORMAT_BEGIN
 90
        0
 91
        1
 62
     0
 92
       -2
340
14
 93
        0
 40
1.125
309
GRIDFORMAT_END
 95
       32
302
GRIDFORMAT
  1
GRIDFORMAT_BEGIN
 90
        0
 91
        1
 62
     0
 92
       -2
340
14
 93
        0
 40
1.125
309
GRIDFORMAT_END
309
TABLEFORMAT_END
  1
CELLSTYLE_BEGIN
 90
        1
 91
        1
300
_TITLE
309
CELLSTYLE_END
300
CELLSTYLE
  1
TABLEFORMAT_BEGIN
 90
        5
170
     1
 91
        0
 92
        0
 62
   257
 93
        1
300
CONTENTFORMAT
  1
CONTENTFORMAT_BEGIN
 90
        0
 91
        0
 92
      512
 93
        0
300

 40
0.0
140
1.0
 94
        5
 62
     0
340
11
144
4.5
309
CONTENTFORMAT_END
171
     1
301
MARGIN
  1
CELLMARGIN_BEGIN
 40
1.5
 40
1.5
 40
1.5
 40
1.5
 40
4.5
 40
4.5
309
CELLMARGIN_END
 94
        6
 95
        1
302
GRIDFORMAT
  1
GRIDFORMAT_BEGIN
 90
        0
 91
        1
 62
     0
 92
       -2
340
14
 93
        0
 40
1.125
309
GRIDFORMAT_END
 95
        2
302
GRIDFORMAT
  1
GRIDFORMAT_BEGIN
 90
        0
 91
        1
 62
     0
 92
       -2
340
14
 93
        0
 40
1.125
309
GRIDFORMAT_END
 95
        4
302
GRIDFORMAT
  1
GRIDFORMAT_BEGIN
 90
        0
 91
        1
 62
     0
 92
       -2
340
14
 93
        0
 40
1.125
309
GRIDFORMAT_END
 95
        8
302
GRIDFORMAT
  1
GRIDFORMAT_BEGIN
 90
        0
 91
        1
 62
     0
 92
       -2
340
14
 93
        0
 40
1.125
309
GRIDFORMAT_END
 95
       16
302
GRIDFORMAT
  1
GRIDFORMAT_BEGIN
 90
        0
 91
        1
 62
     0
 92
       -2
340
14
 93
        0
 40
1.125
309
GRIDFORMAT_END
 95
       32
302
GRIDFORMAT
  1
GRIDFORMAT_BEGIN
 90
        0
 91
        1
 62
     0
 92
       -2
340
14
 93
        0
 40
1.125
309
GRIDFORMAT_END
309
TABLEFORMAT_END
  1
CELLSTYLE_BEGIN
 90
        2
 91
        1
300
_HEADER
309
CELLSTYLE_END
300
CELLSTYLE
  1
TABLEFORMAT_BEGIN
 90
        5
170
     1
 91
        0
 92
        0
 62
   257
 93
        1
300
CONTENTFORMAT
  1
CONTENTFORMAT_BEGIN
 90
        0
 91
        0
 92
      512
 93
        0
300

 40
0.0
140
1.0
 94
        2
 62
     0
340
11
144
4.5
309
CONTENTFORMAT_END
171
     1
301
MARGIN
  1
CELLMARGIN_BEGIN
 40
1.5
 40
1.5
 40
1.5
 40
1.5
 40
4.5
 40
4.5
309
CELLMARGIN_END
 94
        6
 95
        1
302
GRIDFORMAT
  1
GRIDFORMAT_BEGIN
 90
        0
 91
        1
 62
     0
 92
       -2
340
14
 93
        0
 40
1.125
309
GRIDFORMAT_END
 95
        2
302
GRIDFORMAT
  1
GRIDFORMAT_BEGIN
 90
        0
 91
        1
 62
     0
 92
       -2
340
14
 93
        0
 40
1.125
309
GRIDFORMAT_END
 95
        4
302
GRIDFORMAT
  1
GRIDFORMAT_BEGIN
 90
        0
 91
        1
 62
     0
 92
       -2
340
14
 93
        0
 40
1.125
309
GRIDFORMAT_END
 95
        8
302
GRIDFORMAT
  1
GRIDFORMAT_BEGIN
 90
        0
 91
        1
 62
     0
 92
       -2
340
14
 93
        0
 40
1.125
309
GRIDFORMAT_END
 95
       16
302
GRIDFORMAT
  1
GRIDFORMAT_BEGIN
 90
        0
 91
        1
 62
     0
 92
       -2
340
14
 93
        0
 40
1.125
309
GRIDFORMAT_END
 95
       32
302
GRIDFORMAT
  1
GRIDFORMAT_BEGIN
 90
        0
 91
        1
 62
     0
 92
       -2
340
14
 93
        0
 40
1.125
309
GRIDFORMAT_END
309
TABLEFORMAT_END
  1
CELLSTYLE_BEGIN
 90
        3
 91
        2
300
_DATA
309
CELLSTYLE_END
  0
XRECORD
  5
8A61
102
{ACAD_REACTORS
330
162
102
}
330
162
100
AcDbXrecord
280
     1
102
ACAD_ROUNDTRIP_PRE2007_TABLESTYLE
 90
      512
 91
        0
  1

 92
      512
 93
        0
  2

 94
      512
 95
        0
  3

  0
XRECORD
  5
8A74
102
{ACAD_REACTORS
330
8A73
102
}
330
8A73
100
AcDbXrecord
280
     1
102
RTVSPost2010Prop28
280
     1
102
RTVSPost2010PropOp28
 70
     1
102
RTVSPost2010Prop29
280
     1
102
RTVSPost2010PropOp29
 70
     1
102
RTVSPost2010Prop30
280
     0
102
RTVSPost2010PropOp30
 70
     1
102
RTVSPost2010Prop31
280
     0
102
RTVSPost2010PropOp31
 70
     1
102
RTVSPost2010Prop32
280
     0
102
RTVSPost2010PropOp32
 70
     1
102
RTVSPost2010Prop33
280
     0
102
RTVSPost2010PropOp33
 70
     1
102
RTVSPost2010Prop34
280
     0
102
RTVSPost2010PropOp34
 70
     1
102
RTVSPost2010Prop35
280
     0
102
RTVSPost2010PropOp35
 70
     1
102
RTVSPost2010Prop36
280
     0
102
RTVSPost2010PropOp36
 70
     1
102
RTVSPost2010Prop37
 90
       50
102
RTVSPost2010PropOp37
 70
     1
102
RTVSPost2010Prop38
140
0.0
102
RTVSPost2010PropOp38
 70
     1
102
RTVSPost2010Prop39
140
1.0
102
RTVSPost2010PropOp39
 70
     1
102
RTVSPost2010Prop40
 90
        0
102
RTVSPost2010PropOp40
 70
     1
102
RTVSPost2010Prop41ColorIndex
 90
       18
102
RTVSPost2010Prop41ColorRGB
 90
        0
102
RTVSPost2010PropOp41
 70
     1
102
RTVSPost2010Prop42
 90
       50
102
RTVSPost2010PropOp42
 70
     1
102
RTVSPost2010Prop43
 90
        3
102
RTVSPost2010PropOp43
 70
     1
102
RTVSPost2010Prop44ColorIndex
 90
        5
102
RTVSPost2010Prop44ColorRGB
 90
      255
102
RTVSPost2010PropOp44
 70
     1
102
RTVSPost2010Prop45
280
     0
102
RTVSPost2010PropOp45
 70
     1
102
RTVSPost2010Prop46
 90
       50
102
RTVSPost2010PropOp46
 70
     1
102
RTVSPost2010Prop47
 90
       50
102
RTVSPost2010PropOp47
 70
     1
102
RTVSPost2010Prop48
 90
       50
102
RTVSPost2010PropOp48
 70
     1
102
RTVSPost2010Prop49
280
     0
102
RTVSPost2010PropOp49
 70
     1
102
RTVSPost2010Prop50
 90
       50
102
RTVSPost2010PropOp50
 70
     1
102
RTVSPost2010Prop51ColorIndex
 90
      256
102
RTVSPost2010Prop51ColorRGB
 90
-16777216
102
RTVSPost2010PropOp51
 70
     0
102
RTVSPost2010Prop52
140
1.0
102
RTVSPost2010PropOp52
 70
     0
102
RTVSPost2010Prop53
 90
        2
102
RTVSPost2010PropOp53
 70
     1
102
RTVSPost2010Prop54
  1
strokes_ogs.tif
102
RTVSPost2010PropOp54
 70
     1
102
RTVSPost2010Prop55
280
     0
102
RTVSPost2010PropOp55
 70
     1
102
RTVSPost2010Prop56
140
1.0
102
RTVSPost2010PropOp56
 70
     1
102
RTVSPost2010Prop57
140
1.0
102
RTVSPost2010PropOp57
 70
     1
102
RTVSPropertyOp0
 70
     1
102
RTVSPropertyOp1
 70
     1
102
RTVSPropertyOp2
 70
     1
102
RTVSPropertyOp3
 70
     1
102
RTVSPropertyOp4
 70
     1
102
RTVSPropertyOp5
 70
     1
102
RTVSPropertyOp6
 70
     1
102
RTVSPropertyOp7
 70
     1
102
RTVSPropertyOp8
 70
     1
102
RTVSPropertyOp9
 70
     1
102
RTVSPropertyOp10
 70
     1
102
RTVSPropertyOp11
 70
     1
102
RTVSPropertyOp12
 70
     1
102
RTVSPropertyOp13
 70
     1
102
RTVSPropertyOp14
 70
     1
102
RTVSPropertyOp15
 70
     1
102
RTVSPropertyOp16
 70
     1
102
RTVSPropertyOp17
 70
     1
102
RTVSPropertyOp18
 70
     1
102
RTVSPropertyOp19
 70
     1
102
RTVSPropertyOp20
 70
     1
102
RTVSPropertyOp21
 70
     1
102
RTVSPropertyOp22
 70
     1
102
RTVSPropertyOp23
 70
     1
102
RTVSPropertyOp24
 70
     1
102
RTVSPropertyOp25
 70
     1
102
RTVSPropertyOp26
 70
     1
102
RTVSPropertyOp27
 70
     1
102
RTVSPropertyOp28
 70
     1
102
RTVSPropertyOp29
 70
     1
102
RTVSPropertyOp30
 70
     1
102
RTVSPropertyOp31
 70
     1
102
RTVSPropertyOp32
 70
     1
102
RTVSPropertyOp33
 70
     1
102
RTVSPropertyOp34
 70
     1
102
RTVSPropertyOp35
 70
     1
102
RTVSPropertyOp36
 70
     1
102
RTVSPropertyOp37
 70
     1
102
RTVSPropertyOp38
 70
     1
102
RTVSPropertyOp39
 70
     1
102
RTVSPropertyOp40
 70
     1
102
RTVSPropertyOp41
 70
     1
102
RTVSPropertyOp42
 70
     1
102
RTVSPropertyOp43
 70
     1
102
RTVSPropertyOp44
 70
     1
102
RTVSPropertyOp45
 70
     1
102
RTVSPropertyOp46
 70
     1
102
RTVSPropertyOp47
 70
     1
102
RTVSPropertyOp48
 70
     1
102
RTVSPropertyOp49
 70
     1
102
RTVSPropertyOp50
 70
     1
102
RTVSPropertyOp51
 70
     0
102
RTVSPropertyOp52
 70
     0
102
RTVSPropertyOp53
 70
     1
102
RTVSPropertyOp54
 70
     1
102
RTVSPropertyOp55
 70
     1
102
RTVSPropertyOp56
 70
     1
102
RTVSPropertyOp57
 70
     1
102
RTVSPropertyOp58
 70
     1
102
RTVSPropertyOp59
 70
     1
102
RTVSPropertyOp60
 70
     1
102
RTVSPropertyOp61
 70
     1
102
RTVSPropertyOp62
 70
     1
  0
XRECORD
  5
8A72
102
{ACAD_REACTORS
330
8A71
102
}
330
8A71
100
AcDbXrecord
280
     1
102
RTVSPost2010Prop28
280
     0
102
RTVSPost2010PropOp28
 70
     1
102
RTVSPost2010Prop29
280
     1
102
RTVSPost2010PropOp29
 70
     1
102
RTVSPost2010Prop30
280
     1
102
RTVSPost2010PropOp30
 70
     1
102
RTVSPost2010Prop31
280
     0
102
RTVSPost2010PropOp31
 70
     1
102
RTVSPost2010Prop32
280
     0
102
RTVSPost2010PropOp32
 70
     1
102
RTVSPost2010Prop33
280
     0
102
RTVSPost2010PropOp33
 70
     1
102
RTVSPost2010Prop34
280
     0
102
RTVSPost2010PropOp34
 70
     1
102
RTVSPost2010Prop35
280
     0
102
RTVSPost2010PropOp35
 70
     1
102
RTVSPost2010Prop36
280
     0
102
RTVSPost2010PropOp36
 70
     1
102
RTVSPost2010Prop37
 90
       50
102
RTVSPost2010PropOp37
 70
     1
102
RTVSPost2010Prop38
140
0.0
102
RTVSPost2010PropOp38
 70
     1
102
RTVSPost2010Prop39
140
1.0
102
RTVSPost2010PropOp39
 70
     1
102
RTVSPost2010Prop40
 90
        0
102
RTVSPost2010PropOp40
 70
     1
102
RTVSPost2010Prop41ColorIndex
 90
       18
102
RTVSPost2010Prop41ColorRGB
 90
        0
102
RTVSPost2010PropOp41
 70
     1
102
RTVSPost2010Prop42
 90
       50
102
RTVSPost2010PropOp42
 70
     1
102
RTVSPost2010Prop43
 90
        3
102
RTVSPost2010PropOp43
 70
     1
102
RTVSPost2010Prop44ColorIndex
 90
        5
102
RTVSPost2010Prop44ColorRGB
 90
      255
102
RTVSPost2010PropOp44
 70
     1
102
RTVSPost2010Prop45
280
     0
102
RTVSPost2010PropOp45
 70
     1
102
RTVSPost2010Prop46
 90
       50
102
RTVSPost2010PropOp46
 70
     1
102
RTVSPost2010Prop47
 90
       50
102
RTVSPost2010PropOp47
 70
     1
102
RTVSPost2010Prop48
 90
       50
102
RTVSPost2010PropOp48
 70
     1
102
RTVSPost2010Prop49
280
     0
102
RTVSPost2010PropOp49
 70
     1
102
RTVSPost2010Prop50
 90
       50
102
RTVSPost2010PropOp50
 70
     1
102
RTVSPost2010Prop51ColorIndex
 90
      256
102
RTVSPost2010Prop51ColorRGB
 90
-16777216
102
RTVSPost2010PropOp51
 70
     0
102
RTVSPost2010Prop52
140
1.0
102
RTVSPost2010PropOp52
 70
     0
102
RTVSPost2010Prop53
 90
        2
102
RTVSPost2010PropOp53
 70
     1
102
RTVSPost2010Prop54
  1
strokes_ogs.tif
102
RTVSPost2010PropOp54
 70
     1
102
RTVSPost2010Prop55
280
     0
102
RTVSPost2010PropOp55
 70
     1
102
RTVSPost2010Prop56
140
1.0
102
RTVSPost2010PropOp56
 70
     1
102
RTVSPost2010Prop57
140
1.0
102
RTVSPost2010PropOp57
 70
     1
102
RTVSPropertyOp0
 70
     1
102
RTVSPropertyOp1
 70
     1
102
RTVSPropertyOp2
 70
     1
102
RTVSPropertyOp3
 70
     1
102
RTVSPropertyOp4
 70
     1
102
RTVSPropertyOp5
 70
     1
102
RTVSPropertyOp6
 70
     1
102
RTVSPropertyOp7
 70
     1
102
RTVSPropertyOp8
 70
     1
102
RTVSPropertyOp9
 70
     1
102
RTVSPropertyOp10
 70
     1
102
RTVSPropertyOp11
 70
     1
102
RTVSPropertyOp12
 70
     1
102
RTVSPropertyOp13
 70
     1
102
RTVSPropertyOp14
 70
     1
102
RTVSPropertyOp15
 70
     1
102
RTVSPropertyOp16
 70
     1
102
RTVSPropertyOp17
 70
     1
102
RTVSPropertyOp18
 70
     1
102
RTVSPropertyOp19
 70
     1
102
RTVSPropertyOp20
 70
     1
102
RTVSPropertyOp21
 70
     1
102
RTVSPropertyOp22
 70
     1
102
RTVSPropertyOp23
 70
     1
102
RTVSPropertyOp24
 70
     1
102
RTVSPropertyOp25
 70
     1
102
RTVSPropertyOp26
 70
     1
102
RTVSPropertyOp27
 70
     1
102
RTVSPropertyOp28
 70
     1
102
RTVSPropertyOp29
 70
     1
102
RTVSPropertyOp30
 70
     1
102
RTVSPropertyOp31
 70
     1
102
RTVSPropertyOp32
 70
     1
102
RTVSPropertyOp33
 70
     1
102
RTVSPropertyOp34
 70
     1
102
RTVSPropertyOp35
 70
     1
102
RTVSPropertyOp36
 70
     1
102
RTVSPropertyOp37
 70
     1
102
RTVSPropertyOp38
 70
     1
102
RTVSPropertyOp39
 70
     1
102
RTVSPropertyOp40
 70
     1
102
RTVSPropertyOp41
 70
     1
102
RTVSPropertyOp42
 70
     1
102
RTVSPropertyOp43
 70
     1
102
RTVSPropertyOp44
 70
     1
102
RTVSPropertyOp45
 70
     1
102
RTVSPropertyOp46
 70
     1
102
RTVSPropertyOp47
 70
     1
102
RTVSPropertyOp48
 70
     1
102
RTVSPropertyOp49
 70
     1
102
RTVSPropertyOp50
 70
     1
102
RTVSPropertyOp51
 70
     0
102
RTVSPropertyOp52
 70
     0
102
RTVSPropertyOp53
 70
     1
102
RTVSPropertyOp54
 70
     1
102
RTVSPropertyOp55
 70
     1
102
RTVSPropertyOp56
 70
     1
102
RTVSPropertyOp57
 70
     1
102
RTVSPropertyOp58
 70
     1
102
RTVSPropertyOp59
 70
     1
102
RTVSPropertyOp60
 70
     1
102
RTVSPropertyOp61
 70
     1
102
RTVSPropertyOp62
 70
     1
  0
XRECORD
  5
8A80
102
{ACAD_REACTORS
330
8A7F
102
}
330
8A7F
100
AcDbXrecord
280
     1
102
RTVSPost2010Prop28
280
     0
102
RTVSPost2010PropOp28
 70
     1
102
RTVSPost2010Prop29
280
     1
102
RTVSPost2010PropOp29
 70
     1
102
RTVSPost2010Prop30
280
     1
102
RTVSPost2010PropOp30
 70
     1
102
RTVSPost2010Prop31
280
     0
102
RTVSPost2010PropOp31
 70
     1
102
RTVSPost2010Prop32
280
     0
102
RTVSPost2010PropOp32
 70
     1
102
RTVSPost2010Prop33
280
     0
102
RTVSPost2010PropOp33
 70
     1
102
RTVSPost2010Prop34
280
     0
102
RTVSPost2010PropOp34
 70
     1
102
RTVSPost2010Prop35
280
     0
102
RTVSPost2010PropOp35
 70
     1
102
RTVSPost2010Prop36
280
     0
102
RTVSPost2010PropOp36
 70
     1
102
RTVSPost2010Prop37
 90
       50
102
RTVSPost2010PropOp37
 70
     1
102
RTVSPost2010Prop38
140
0.0
102
RTVSPost2010PropOp38
 70
     1
102
RTVSPost2010Prop39
140
1.0
102
RTVSPost2010PropOp39
 70
     1
102
RTVSPost2010Prop40
 90
        0
102
RTVSPost2010PropOp40
 70
     1
102
RTVSPost2010Prop41ColorIndex
 90
       18
102
RTVSPost2010Prop41ColorRGB
 90
        0
102
RTVSPost2010PropOp41
 70
     1
102
RTVSPost2010Prop42
 90
       50
102
RTVSPost2010PropOp42
 70
     1
102
RTVSPost2010Prop43
 90
        3
102
RTVSPost2010PropOp43
 70
     1
102
RTVSPost2010Prop44ColorIndex
 90
        5
102
RTVSPost2010Prop44ColorRGB
 90
      255
102
RTVSPost2010PropOp44
 70
     1
102
RTVSPost2010Prop45
280
     0
102
RTVSPost2010PropOp45
 70
     1
102
RTVSPost2010Prop46
 90
       50
102
RTVSPost2010PropOp46
 70
     1
102
RTVSPost2010Prop47
 90
       50
102
RTVSPost2010PropOp47
 70
     1
102
RTVSPost2010Prop48
 90
       50
102
RTVSPost2010PropOp48
 70
     1
102
RTVSPost2010Prop49
280
     0
102
RTVSPost2010PropOp49
 70
     1
102
RTVSPost2010Prop50
 90
       50
102
RTVSPost2010PropOp50
 70
     1
102
RTVSPost2010Prop51ColorIndex
 90
      256
102
RTVSPost2010Prop51ColorRGB
 90
-16777216
102
RTVSPost2010PropOp51
 70
     0
102
RTVSPost2010Prop52
140
1.0
102
RTVSPost2010PropOp52
 70
     0
102
RTVSPost2010Prop53
 90
        2
102
RTVSPost2010PropOp53
 70
     1
102
RTVSPost2010Prop54
  1
strokes_ogs.tif
102
RTVSPost2010PropOp54
 70
     1
102
RTVSPost2010Prop55
280
     0
102
RTVSPost2010PropOp55
 70
     1
102
RTVSPost2010Prop56
140
1.0
102
RTVSPost2010PropOp56
 70
     1
102
RTVSPost2010Prop57
140
1.0
102
RTVSPost2010PropOp57
 70
     1
102
RTVSPropertyOp0
 70
     1
102
RTVSPropertyOp1
 70
     1
102
RTVSPropertyOp2
 70
     1
102
RTVSPropertyOp3
 70
     1
102
RTVSPropertyOp4
 70
     1
102
RTVSPropertyOp5
 70
     1
102
RTVSPropertyOp6
 70
     1
102
RTVSPropertyOp7
 70
     1
102
RTVSPropertyOp8
 70
     1
102
RTVSPropertyOp9
 70
     1
102
RTVSPropertyOp10
 70
     1
102
RTVSPropertyOp11
 70
     1
102
RTVSPropertyOp12
 70
     1
102
RTVSPropertyOp13
 70
     1
102
RTVSPropertyOp14
 70
     1
102
RTVSPropertyOp15
 70
     1
102
RTVSPropertyOp16
 70
     1
102
RTVSPropertyOp17
 70
     1
102
RTVSPropertyOp18
 70
     1
102
RTVSPropertyOp19
 70
     1
102
RTVSPropertyOp20
 70
     1
102
RTVSPropertyOp21
 70
     1
102
RTVSPropertyOp22
 70
     1
102
RTVSPropertyOp23
 70
     1
102
RTVSPropertyOp24
 70
     1
102
RTVSPropertyOp25
 70
     1
102
RTVSPropertyOp26
 70
     1
102
RTVSPropertyOp27
 70
     1
102
RTVSPropertyOp28
 70
     1
102
RTVSPropertyOp29
 70
     1
102
RTVSPropertyOp30
 70
     1
102
RTVSPropertyOp31
 70
     1
102
RTVSPropertyOp32
 70
     1
102
RTVSPropertyOp33
 70
     1
102
RTVSPropertyOp34
 70
     1
102
RTVSPropertyOp35
 70
     1
102
RTVSPropertyOp36
 70
     1
102
RTVSPropertyOp37
 70
     1
102
RTVSPropertyOp38
 70
     1
102
RTVSPropertyOp39
 70
     1
102
RTVSPropertyOp40
 70
     1
102
RTVSPropertyOp41
 70
     1
102
RTVSPropertyOp42
 70
     1
102
RTVSPropertyOp43
 70
     1
102
RTVSPropertyOp44
 70
     1
102
RTVSPropertyOp45
 70
     1
102
RTVSPropertyOp46
 70
     1
102
RTVSPropertyOp47
 70
     1
102
RTVSPropertyOp48
 70
     1
102
RTVSPropertyOp49
 70
     1
102
RTVSPropertyOp50
 70
     1
102
RTVSPropertyOp51
 70
     0
102
RTVSPropertyOp52
 70
     0
102
RTVSPropertyOp53
 70
     1
102
RTVSPropertyOp54
 70
     1
102
RTVSPropertyOp55
 70
     1
102
RTVSPropertyOp56
 70
     1
102
RTVSPropertyOp57
 70
     1
102
RTVSPropertyOp58
 70
     1
102
RTVSPropertyOp59
 70
     1
102
RTVSPropertyOp60
 70
     1
102
RTVSPropertyOp61
 70
     1
102
RTVSPropertyOp62
 70
     1
  0
XRECORD
  5
8A88
102
{ACAD_REACTORS
330
8A87
102
}
330
8A87
100
AcDbXrecord
280
     1
102
RTVSPost2010Prop28
280
     0
102
RTVSPost2010PropOp28
 70
     1
102
RTVSPost2010Prop29
280
     1
102
RTVSPost2010PropOp29
 70
     1
102
RTVSPost2010Prop30
280
     1
102
RTVSPost2010PropOp30
 70
     1
102
RTVSPost2010Prop31
280
     0
102
RTVSPost2010PropOp31
 70
     1
102
RTVSPost2010Prop32
280
     0
102
RTVSPost2010PropOp32
 70
     1
102
RTVSPost2010Prop33
280
     0
102
RTVSPost2010PropOp33
 70
     1
102
RTVSPost2010Prop34
280
     0
102
RTVSPost2010PropOp34
 70
     1
102
RTVSPost2010Prop35
280
     0
102
RTVSPost2010PropOp35
 70
     1
102
RTVSPost2010Prop36
280
     0
102
RTVSPost2010PropOp36
 70
     1
102
RTVSPost2010Prop37
 90
       50
102
RTVSPost2010PropOp37
 70
     1
102
RTVSPost2010Prop38
140
0.0
102
RTVSPost2010PropOp38
 70
     1
102
RTVSPost2010Prop39
140
1.0
102
RTVSPost2010PropOp39
 70
     1
102
RTVSPost2010Prop40
 90
        0
102
RTVSPost2010PropOp40
 70
     1
102
RTVSPost2010Prop41ColorIndex
 90
       18
102
RTVSPost2010Prop41ColorRGB
 90
        0
102
RTVSPost2010PropOp41
 70
     1
102
RTVSPost2010Prop42
 90
       50
102
RTVSPost2010PropOp42
 70
     1
102
RTVSPost2010Prop43
 90
        3
102
RTVSPost2010PropOp43
 70
     1
102
RTVSPost2010Prop44ColorIndex
 90
        5
102
RTVSPost2010Prop44ColorRGB
 90
      255
102
RTVSPost2010PropOp44
 70
     1
102
RTVSPost2010Prop45
280
     0
102
RTVSPost2010PropOp45
 70
     1
102
RTVSPost2010Prop46
 90
       50
102
RTVSPost2010PropOp46
 70
     1
102
RTVSPost2010Prop47
 90
       50
102
RTVSPost2010PropOp47
 70
     1
102
RTVSPost2010Prop48
 90
       50
102
RTVSPost2010PropOp48
 70
     1
102
RTVSPost2010Prop49
280
     0
102
RTVSPost2010PropOp49
 70
     1
102
RTVSPost2010Prop50
 90
       50
102
RTVSPost2010PropOp50
 70
     1
102
RTVSPost2010Prop51ColorIndex
 90
      256
102
RTVSPost2010Prop51ColorRGB
 90
-16777216
102
RTVSPost2010PropOp51
 70
     0
102
RTVSPost2010Prop52
140
1.0
102
RTVSPost2010PropOp52
 70
     0
102
RTVSPost2010Prop53
 90
        2
102
RTVSPost2010PropOp53
 70
     1
102
RTVSPost2010Prop54
  1
strokes_ogs.tif
102
RTVSPost2010PropOp54
 70
     1
102
RTVSPost2010Prop55
280
     0
102
RTVSPost2010PropOp55
 70
     1
102
RTVSPost2010Prop56
140
1.0
102
RTVSPost2010PropOp56
 70
     1
102
RTVSPost2010Prop57
140
1.0
102
RTVSPost2010PropOp57
 70
     1
102
RTVSPropertyOp0
 70
     1
102
RTVSPropertyOp1
 70
     1
102
RTVSPropertyOp2
 70
     1
102
RTVSPropertyOp3
 70
     1
102
RTVSPropertyOp4
 70
     1
102
RTVSPropertyOp5
 70
     1
102
RTVSPropertyOp6
 70
     1
102
RTVSPropertyOp7
 70
     1
102
RTVSPropertyOp8
 70
     1
102
RTVSPropertyOp9
 70
     1
102
RTVSPropertyOp10
 70
     1
102
RTVSPropertyOp11
 70
     1
102
RTVSPropertyOp12
 70
     1
102
RTVSPropertyOp13
 70
     1
102
RTVSPropertyOp14
 70
     1
102
RTVSPropertyOp15
 70
     1
102
RTVSPropertyOp16
 70
     1
102
RTVSPropertyOp17
 70
     1
102
RTVSPropertyOp18
 70
     1
102
RTVSPropertyOp19
 70
     1
102
RTVSPropertyOp20
 70
     1
102
RTVSPropertyOp21
 70
     1
102
RTVSPropertyOp22
 70
     1
102
RTVSPropertyOp23
 70
     1
102
RTVSPropertyOp24
 70
     1
102
RTVSPropertyOp25
 70
     1
102
RTVSPropertyOp26
 70
     1
102
RTVSPropertyOp27
 70
     1
102
RTVSPropertyOp28
 70
     1
102
RTVSPropertyOp29
 70
     1
102
RTVSPropertyOp30
 70
     1
102
RTVSPropertyOp31
 70
     1
102
RTVSPropertyOp32
 70
     1
102
RTVSPropertyOp33
 70
     1
102
RTVSPropertyOp34
 70
     1
102
RTVSPropertyOp35
 70
     1
102
RTVSPropertyOp36
 70
     1
102
RTVSPropertyOp37
 70
     1
102
RTVSPropertyOp38
 70
     1
102
RTVSPropertyOp39
 70
     1
102
RTVSPropertyOp40
 70
     1
102
RTVSPropertyOp41
 70
     1
102
RTVSPropertyOp42
 70
     1
102
RTVSPropertyOp43
 70
     1
102
RTVSPropertyOp44
 70
     1
102
RTVSPropertyOp45
 70
     1
102
RTVSPropertyOp46
 70
     1
102
RTVSPropertyOp47
 70
     1
102
RTVSPropertyOp48
 70
     1
102
RTVSPropertyOp49
 70
     1
102
RTVSPropertyOp50
 70
     1
102
RTVSPropertyOp51
 70
     0
102
RTVSPropertyOp52
 70
     0
102
RTVSPropertyOp53
 70
     1
102
RTVSPropertyOp54
 70
     1
102
RTVSPropertyOp55
 70
     1
102
RTVSPropertyOp56
 70
     1
102
RTVSPropertyOp57
 70
     1
102
RTVSPropertyOp58
 70
     1
102
RTVSPropertyOp59
 70
     1
102
RTVSPropertyOp60
 70
     1
102
RTVSPropertyOp61
 70
     1
102
RTVSPropertyOp62
 70
     1
  0
XRECORD
  5
8A7A
102
{ACAD_REACTORS
330
8A79
102
}
330
8A79
100
AcDbXrecord
280
     1
102
RTVSPost2010Prop28
280
     0
102
RTVSPost2010PropOp28
 70
     1
102
RTVSPost2010Prop29
280
     1
102
RTVSPost2010PropOp29
 70
     1
102
RTVSPost2010Prop30
280
     1
102
RTVSPost2010PropOp30
 70
     1
102
RTVSPost2010Prop31
280
     0
102
RTVSPost2010PropOp31
 70
     1
102
RTVSPost2010Prop32
280
     0
102
RTVSPost2010PropOp32
 70
     1
102
RTVSPost2010Prop33
280
     0
102
RTVSPost2010PropOp33
 70
     1
102
RTVSPost2010Prop34
280
     0
102
RTVSPost2010PropOp34
 70
     1
102
RTVSPost2010Prop35
280
     0
102
RTVSPost2010PropOp35
 70
     1
102
RTVSPost2010Prop36
280
     0
102
RTVSPost2010PropOp36
 70
     1
102
RTVSPost2010Prop37
 90
       50
102
RTVSPost2010PropOp37
 70
     1
102
RTVSPost2010Prop38
140
0.0
102
RTVSPost2010PropOp38
 70
     1
102
RTVSPost2010Prop39
140
1.0
102
RTVSPost2010PropOp39
 70
     1
102
RTVSPost2010Prop40
 90
        0
102
RTVSPost2010PropOp40
 70
     1
102
RTVSPost2010Prop41ColorIndex
 90
       18
102
RTVSPost2010Prop41ColorRGB
 90
        0
102
RTVSPost2010PropOp41
 70
     1
102
RTVSPost2010Prop42
 90
       50
102
RTVSPost2010PropOp42
 70
     1
102
RTVSPost2010Prop43
 90
        3
102
RTVSPost2010PropOp43
 70
     1
102
RTVSPost2010Prop44ColorIndex
 90
        5
102
RTVSPost2010Prop44ColorRGB
 90
      255
102
RTVSPost2010PropOp44
 70
     1
102
RTVSPost2010Prop45
280
     0
102
RTVSPost2010PropOp45
 70
     1
102
RTVSPost2010Prop46
 90
       50
102
RTVSPost2010PropOp46
 70
     1
102
RTVSPost2010Prop47
 90
       50
102
RTVSPost2010PropOp47
 70
     1
102
RTVSPost2010Prop48
 90
       50
102
RTVSPost2010PropOp48
 70
     1
102
RTVSPost2010Prop49
280
     0
102
RTVSPost2010PropOp49
 70
     1
102
RTVSPost2010Prop50
 90
       50
102
RTVSPost2010PropOp50
 70
     1
102
RTVSPost2010Prop51ColorIndex
 90
      256
102
RTVSPost2010Prop51ColorRGB
 90
-16777216
102
RTVSPost2010PropOp51
 70
     0
102
RTVSPost2010Prop52
140
1.0
102
RTVSPost2010PropOp52
 70
     0
102
RTVSPost2010Prop53
 90
        2
102
RTVSPost2010PropOp53
 70
     1
102
RTVSPost2010Prop54
  1
strokes_ogs.tif
102
RTVSPost2010PropOp54
 70
     1
102
RTVSPost2010Prop55
280
     0
102
RTVSPost2010PropOp55
 70
     1
102
RTVSPost2010Prop56
140
1.0
102
RTVSPost2010PropOp56
 70
     1
102
RTVSPost2010Prop57
140
1.0
102
RTVSPost2010PropOp57
 70
     1
102
RTVSPropertyOp0
 70
     1
102
RTVSPropertyOp1
 70
     1
102
RTVSPropertyOp2
 70
     1
102
RTVSPropertyOp3
 70
     1
102
RTVSPropertyOp4
 70
     1
102
RTVSPropertyOp5
 70
     1
102
RTVSPropertyOp6
 70
     1
102
RTVSPropertyOp7
 70
     1
102
RTVSPropertyOp8
 70
     1
102
RTVSPropertyOp9
 70
     1
102
RTVSPropertyOp10
 70
     1
102
RTVSPropertyOp11
 70
     1
102
RTVSPropertyOp12
 70
     1
102
RTVSPropertyOp13
 70
     1
102
RTVSPropertyOp14
 70
     1
102
RTVSPropertyOp15
 70
     1
102
RTVSPropertyOp16
 70
     1
102
RTVSPropertyOp17
 70
     1
102
RTVSPropertyOp18
 70
     1
102
RTVSPropertyOp19
 70
     1
102
RTVSPropertyOp20
 70
     1
102
RTVSPropertyOp21
 70
     1
102
RTVSPropertyOp22
 70
     1
102
RTVSPropertyOp23
 70
     1
102
RTVSPropertyOp24
 70
     1
102
RTVSPropertyOp25
 70
     1
102
RTVSPropertyOp26
 70
     1
102
RTVSPropertyOp27
 70
     1
102
RTVSPropertyOp28
 70
     1
102
RTVSPropertyOp29
 70
     1
102
RTVSPropertyOp30
 70
     1
102
RTVSPropertyOp31
 70
     1
102
RTVSPropertyOp32
 70
     1
102
RTVSPropertyOp33
 70
     1
102
RTVSPropertyOp34
 70
     1
102
RTVSPropertyOp35
 70
     1
102
RTVSPropertyOp36
 70
     1
102
RTVSPropertyOp37
 70
     1
102
RTVSPropertyOp38
 70
     1
102
RTVSPropertyOp39
 70
     1
102
RTVSPropertyOp40
 70
     1
102
RTVSPropertyOp41
 70
     1
102
RTVSPropertyOp42
 70
     1
102
RTVSPropertyOp43
 70
     1
102
RTVSPropertyOp44
 70
     1
102
RTVSPropertyOp45
 70
     1
102
RTVSPropertyOp46
 70
     1
102
RTVSPropertyOp47
 70
     1
102
RTVSPropertyOp48
 70
     1
102
RTVSPropertyOp49
 70
     1
102
RTVSPropertyOp50
 70
     1
102
RTVSPropertyOp51
 70
     0
102
RTVSPropertyOp52
 70
     0
102
RTVSPropertyOp53
 70
     1
102
RTVSPropertyOp54
 70
     1
102
RTVSPropertyOp55
 70
     1
102
RTVSPropertyOp56
 70
     1
102
RTVSPropertyOp57
 70
     1
102
RTVSPropertyOp58
 70
     1
102
RTVSPropertyOp59
 70
     1
102
RTVSPropertyOp60
 70
     1
102
RTVSPropertyOp61
 70
     1
102
RTVSPropertyOp62
 70
     1
  0
XRECORD
  5
8A7E
102
{ACAD_REACTORS
330
8A7D
102
}
330
8A7D
100
AcDbXrecord
280
     1
102
RTVSPost2010Prop28
280
     0
102
RTVSPost2010PropOp28
 70
     1
102
RTVSPost2010Prop29
280
     1
102
RTVSPost2010PropOp29
 70
     1
102
RTVSPost2010Prop30
280
     1
102
RTVSPost2010PropOp30
 70
     1
102
RTVSPost2010Prop31
280
     0
102
RTVSPost2010PropOp31
 70
     1
102
RTVSPost2010Prop32
280
     0
102
RTVSPost2010PropOp32
 70
     1
102
RTVSPost2010Prop33
280
     0
102
RTVSPost2010PropOp33
 70
     1
102
RTVSPost2010Prop34
280
     0
102
RTVSPost2010PropOp34
 70
     1
102
RTVSPost2010Prop35
280
     0
102
RTVSPost2010PropOp35
 70
     1
102
RTVSPost2010Prop36
280
     0
102
RTVSPost2010PropOp36
 70
     1
102
RTVSPost2010Prop37
 90
       50
102
RTVSPost2010PropOp37
 70
     1
102
RTVSPost2010Prop38
140
0.0
102
RTVSPost2010PropOp38
 70
     1
102
RTVSPost2010Prop39
140
1.0
102
RTVSPost2010PropOp39
 70
     1
102
RTVSPost2010Prop40
 90
        0
102
RTVSPost2010PropOp40
 70
     1
102
RTVSPost2010Prop41ColorIndex
 90
       18
102
RTVSPost2010Prop41ColorRGB
 90
        0
102
RTVSPost2010PropOp41
 70
     1
102
RTVSPost2010Prop42
 90
       50
102
RTVSPost2010PropOp42
 70
     1
102
RTVSPost2010Prop43
 90
        3
102
RTVSPost2010PropOp43
 70
     1
102
RTVSPost2010Prop44ColorIndex
 90
        5
102
RTVSPost2010Prop44ColorRGB
 90
      255
102
RTVSPost2010PropOp44
 70
     1
102
RTVSPost2010Prop45
280
     0
102
RTVSPost2010PropOp45
 70
     1
102
RTVSPost2010Prop46
 90
       50
102
RTVSPost2010PropOp46
 70
     1
102
RTVSPost2010Prop47
 90
       50
102
RTVSPost2010PropOp47
 70
     1
102
RTVSPost2010Prop48
 90
       50
102
RTVSPost2010PropOp48
 70
     1
102
RTVSPost2010Prop49
280
     0
102
RTVSPost2010PropOp49
 70
     1
102
RTVSPost2010Prop50
 90
       50
102
RTVSPost2010PropOp50
 70
     1
102
RTVSPost2010Prop51ColorIndex
 90
      256
102
RTVSPost2010Prop51ColorRGB
 90
-16777216
102
RTVSPost2010PropOp51
 70
     0
102
RTVSPost2010Prop52
140
1.0
102
RTVSPost2010PropOp52
 70
     0
102
RTVSPost2010Prop53
 90
        2
102
RTVSPost2010PropOp53
 70
     1
102
RTVSPost2010Prop54
  1
strokes_ogs.tif
102
RTVSPost2010PropOp54
 70
     1
102
RTVSPost2010Prop55
280
     0
102
RTVSPost2010PropOp55
 70
     1
102
RTVSPost2010Prop56
140
1.0
102
RTVSPost2010PropOp56
 70
     1
102
RTVSPost2010Prop57
140
1.0
102
RTVSPost2010PropOp57
 70
     1
102
RTVSPropertyOp0
 70
     1
102
RTVSPropertyOp1
 70
     1
102
RTVSPropertyOp2
 70
     1
102
RTVSPropertyOp3
 70
     1
102
RTVSPropertyOp4
 70
     1
102
RTVSPropertyOp5
 70
     1
102
RTVSPropertyOp6
 70
     1
102
RTVSPropertyOp7
 70
     1
102
RTVSPropertyOp8
 70
     1
102
RTVSPropertyOp9
 70
     1
102
RTVSPropertyOp10
 70
     1
102
RTVSPropertyOp11
 70
     1
102
RTVSPropertyOp12
 70
     1
102
RTVSPropertyOp13
 70
     1
102
RTVSPropertyOp14
 70
     1
102
RTVSPropertyOp15
 70
     1
102
RTVSPropertyOp16
 70
     1
102
RTVSPropertyOp17
 70
     1
102
RTVSPropertyOp18
 70
     1
102
RTVSPropertyOp19
 70
     1
102
RTVSPropertyOp20
 70
     1
102
RTVSPropertyOp21
 70
     1
102
RTVSPropertyOp22
 70
     1
102
RTVSPropertyOp23
 70
     1
102
RTVSPropertyOp24
 70
     1
102
RTVSPropertyOp25
 70
     1
102
RTVSPropertyOp26
 70
     1
102
RTVSPropertyOp27
 70
     1
102
RTVSPropertyOp28
 70
     1
102
RTVSPropertyOp29
 70
     1
102
RTVSPropertyOp30
 70
     1
102
RTVSPropertyOp31
 70
     1
102
RTVSPropertyOp32
 70
     1
102
RTVSPropertyOp33
 70
     1
102
RTVSPropertyOp34
 70
     1
102
RTVSPropertyOp35
 70
     1
102
RTVSPropertyOp36
 70
     1
102
RTVSPropertyOp37
 70
     1
102
RTVSPropertyOp38
 70
     1
102
RTVSPropertyOp39
 70
     1
102
RTVSPropertyOp40
 70
     1
102
RTVSPropertyOp41
 70
     1
102
RTVSPropertyOp42
 70
     1
102
RTVSPropertyOp43
 70
     1
102
RTVSPropertyOp44
 70
     1
102
RTVSPropertyOp45
 70
     1
102
RTVSPropertyOp46
 70
     1
102
RTVSPropertyOp47
 70
     1
102
RTVSPropertyOp48
 70
     1
102
RTVSPropertyOp49
 70
     1
102
RTVSPropertyOp50
 70
     1
102
RTVSPropertyOp51
 70
     0
102
RTVSPropertyOp52
 70
     0
102
RTVSPropertyOp53
 70
     1
102
RTVSPropertyOp54
 70
     1
102
RTVSPropertyOp55
 70
     1
102
RTVSPropertyOp56
 70
     1
102
RTVSPropertyOp57
 70
     1
102
RTVSPropertyOp58
 70
     1
102
RTVSPropertyOp59
 70
     1
102
RTVSPropertyOp60
 70
     1
102
RTVSPropertyOp61
 70
     1
102
RTVSPropertyOp62
 70
     1
  0
XRECORD
  5
8A90
102
{ACAD_REACTORS
330
8A8F
102
}
330
8A8F
100
AcDbXrecord
280
     1
102
RTVSPost2010Prop28
280
     0
102
RTVSPost2010PropOp28
 70
     1
102
RTVSPost2010Prop29
280
     1
102
RTVSPost2010PropOp29
 70
     1
102
RTVSPost2010Prop30
280
     1
102
RTVSPost2010PropOp30
 70
     1
102
RTVSPost2010Prop31
280
     0
102
RTVSPost2010PropOp31
 70
     1
102
RTVSPost2010Prop32
280
     0
102
RTVSPost2010PropOp32
 70
     1
102
RTVSPost2010Prop33
280
     0
102
RTVSPost2010PropOp33
 70
     1
102
RTVSPost2010Prop34
280
     0
102
RTVSPost2010PropOp34
 70
     1
102
RTVSPost2010Prop35
280
     0
102
RTVSPost2010PropOp35
 70
     1
102
RTVSPost2010Prop36
280
     0
102
RTVSPost2010PropOp36
 70
     1
102
RTVSPost2010Prop37
 90
       50
102
RTVSPost2010PropOp37
 70
     1
102
RTVSPost2010Prop38
140
0.0
102
RTVSPost2010PropOp38
 70
     1
102
RTVSPost2010Prop39
140
1.0
102
RTVSPost2010PropOp39
 70
     1
102
RTVSPost2010Prop40
 90
        0
102
RTVSPost2010PropOp40
 70
     1
102
RTVSPost2010Prop41ColorIndex
 90
       18
102
RTVSPost2010Prop41ColorRGB
 90
        0
102
RTVSPost2010PropOp41
 70
     1
102
RTVSPost2010Prop42
 90
       50
102
RTVSPost2010PropOp42
 70
     1
102
RTVSPost2010Prop43
 90
        3
102
RTVSPost2010PropOp43
 70
     1
102
RTVSPost2010Prop44ColorIndex
 90
        5
102
RTVSPost2010Prop44ColorRGB
 90
      255
102
RTVSPost2010PropOp44
 70
     1
102
RTVSPost2010Prop45
280
     0
102
RTVSPost2010PropOp45
 70
     1
102
RTVSPost2010Prop46
 90
       50
102
RTVSPost2010PropOp46
 70
     1
102
RTVSPost2010Prop47
 90
       50
102
RTVSPost2010PropOp47
 70
     1
102
RTVSPost2010Prop48
 90
       50
102
RTVSPost2010PropOp48
 70
     1
102
RTVSPost2010Prop49
280
     0
102
RTVSPost2010PropOp49
 70
     1
102
RTVSPost2010Prop50
 90
       50
102
RTVSPost2010PropOp50
 70
     1
102
RTVSPost2010Prop51ColorIndex
 90
      256
102
RTVSPost2010Prop51ColorRGB
 90
-16777216
102
RTVSPost2010PropOp51
 70
     0
102
RTVSPost2010Prop52
140
1.0
102
RTVSPost2010PropOp52
 70
     0
102
RTVSPost2010Prop53
 90
        2
102
RTVSPost2010PropOp53
 70
     1
102
RTVSPost2010Prop54
  1
strokes_ogs.tif
102
RTVSPost2010PropOp54
 70
     1
102
RTVSPost2010Prop55
280
     0
102
RTVSPost2010PropOp55
 70
     1
102
RTVSPost2010Prop56
140
1.0
102
RTVSPost2010PropOp56
 70
     1
102
RTVSPost2010Prop57
140
1.0
102
RTVSPost2010PropOp57
 70
     1
102
RTVSPropertyOp0
 70
     0
102
RTVSPropertyOp1
 70
     0
102
RTVSPropertyOp2
 70
     0
102
RTVSPropertyOp3
 70
     0
102
RTVSPropertyOp4
 70
     0
102
RTVSPropertyOp5
 70
     0
102
RTVSPropertyOp6
 70
     0
102
RTVSPropertyOp7
 70
     0
102
RTVSPropertyOp8
 70
     0
102
RTVSPropertyOp9
 70
     0
102
RTVSPropertyOp10
 70
     0
102
RTVSPropertyOp11
 70
     0
102
RTVSPropertyOp12
 70
     0
102
RTVSPropertyOp13
 70
     0
102
RTVSPropertyOp14
 70
     2
102
RTVSPropertyOp15
 70
     0
102
RTVSPropertyOp16
 70
     0
102
RTVSPropertyOp17
 70
     0
102
RTVSPropertyOp18
 70
     0
102
RTVSPropertyOp19
 70
     0
102
RTVSPropertyOp20
 70
     0
102
RTVSPropertyOp21
 70
     0
102
RTVSPropertyOp22
 70
     0
102
RTVSPropertyOp23
 70
     0
102
RTVSPropertyOp24
 70
     0
102
RTVSPropertyOp25
 70
     0
102
RTVSPropertyOp26
 70
     0
102
RTVSPropertyOp27
 70
     0
102
RTVSPropertyOp28
 70
     1
102
RTVSPropertyOp29
 70
     1
102
RTVSPropertyOp30
 70
     1
102
RTVSPropertyOp31
 70
     1
102
RTVSPropertyOp32
 70
     1
102
RTVSPropertyOp33
 70
     1
102
RTVSPropertyOp34
 70
     1
102
RTVSPropertyOp35
 70
     1
102
RTVSPropertyOp36
 70
     1
102
RTVSPropertyOp37
 70
     1
102
RTVSPropertyOp38
 70
     1
102
RTVSPropertyOp39
 70
     1
102
RTVSPropertyOp40
 70
     1
102
RTVSPropertyOp41
 70
     1
102
RTVSPropertyOp42
 70
     1
102
RTVSPropertyOp43
 70
     1
102
RTVSPropertyOp44
 70
     1
102
RTVSPropertyOp45
 70
     1
102
RTVSPropertyOp46
 70
     1
102
RTVSPropertyOp47
 70
     1
102
RTVSPropertyOp48
 70
     1
102
RTVSPropertyOp49
 70
     1
102
RTVSPropertyOp50
 70
     1
102
RTVSPropertyOp51
 70
     0
102
RTVSPropertyOp52
 70
     0
102
RTVSPropertyOp53
 70
     1
102
RTVSPropertyOp54
 70
     1
102
RTVSPropertyOp55
 70
     1
102
RTVSPropertyOp56
 70
     1
102
RTVSPropertyOp57
 70
     1
102
RTVSPropertyOp58
 70
     1
102
RTVSPropertyOp59
 70
     1
102
RTVSPropertyOp60
 70
     1
102
RTVSPropertyOp61
 70
     1
102
RTVSPropertyOp62
 70
     1
  0
XRECORD
  5
8A86
102
{ACAD_REACTORS
330
8A85
102
}
330
8A85
100
AcDbXrecord
280
     1
102
RTVSPost2010Prop28
280
     0
102
RTVSPost2010PropOp28
 70
     1
102
RTVSPost2010Prop29
280
     1
102
RTVSPost2010PropOp29
 70
     1
102
RTVSPost2010Prop30
280
     1
102
RTVSPost2010PropOp30
 70
     1
102
RTVSPost2010Prop31
280
     0
102
RTVSPost2010PropOp31
 70
     1
102
RTVSPost2010Prop32
280
     0
102
RTVSPost2010PropOp32
 70
     1
102
RTVSPost2010Prop33
280
     0
102
RTVSPost2010PropOp33
 70
     1
102
RTVSPost2010Prop34
280
     0
102
RTVSPost2010PropOp34
 70
     1
102
RTVSPost2010Prop35
280
     0
102
RTVSPost2010PropOp35
 70
     1
102
RTVSPost2010Prop36
280
     0
102
RTVSPost2010PropOp36
 70
     1
102
RTVSPost2010Prop37
 90
       50
102
RTVSPost2010PropOp37
 70
     1
102
RTVSPost2010Prop38
140
0.0
102
RTVSPost2010PropOp38
 70
     1
102
RTVSPost2010Prop39
140
1.0
102
RTVSPost2010PropOp39
 70
     1
102
RTVSPost2010Prop40
 90
        0
102
RTVSPost2010PropOp40
 70
     1
102
RTVSPost2010Prop41ColorIndex
 90
       18
102
RTVSPost2010Prop41ColorRGB
 90
        0
102
RTVSPost2010PropOp41
 70
     1
102
RTVSPost2010Prop42
 90
       50
102
RTVSPost2010PropOp42
 70
     1
102
RTVSPost2010Prop43
 90
        3
102
RTVSPost2010PropOp43
 70
     1
102
RTVSPost2010Prop44ColorIndex
 90
        5
102
RTVSPost2010Prop44ColorRGB
 90
      255
102
RTVSPost2010PropOp44
 70
     1
102
RTVSPost2010Prop45
280
     0
102
RTVSPost2010PropOp45
 70
     1
102
RTVSPost2010Prop46
 90
       50
102
RTVSPost2010PropOp46
 70
     1
102
RTVSPost2010Prop47
 90
       50
102
RTVSPost2010PropOp47
 70
     1
102
RTVSPost2010Prop48
 90
       50
102
RTVSPost2010PropOp48
 70
     1
102
RTVSPost2010Prop49
280
     0
102
RTVSPost2010PropOp49
 70
     1
102
RTVSPost2010Prop50
 90
       50
102
RTVSPost2010PropOp50
 70
     1
102
RTVSPost2010Prop51ColorIndex
 90
      256
102
RTVSPost2010Prop51ColorRGB
 90
-16777216
102
RTVSPost2010PropOp51
 70
     0
102
RTVSPost2010Prop52
140
1.0
102
RTVSPost2010PropOp52
 70
     0
102
RTVSPost2010Prop53
 90
        2
102
RTVSPost2010PropOp53
 70
     1
102
RTVSPost2010Prop54
  1
strokes_ogs.tif
102
RTVSPost2010PropOp54
 70
     1
102
RTVSPost2010Prop55
280
     0
102
RTVSPost2010PropOp55
 70
     1
102
RTVSPost2010Prop56
140
1.0
102
RTVSPost2010PropOp56
 70
     1
102
RTVSPost2010Prop57
140
1.0
102
RTVSPost2010PropOp57
 70
     1
102
RTVSPropertyOp0
 70
     1
102
RTVSPropertyOp1
 70
     1
102
RTVSPropertyOp2
 70
     1
102
RTVSPropertyOp3
 70
     1
102
RTVSPropertyOp4
 70
     1
102
RTVSPropertyOp5
 70
     1
102
RTVSPropertyOp6
 70
     1
102
RTVSPropertyOp7
 70
     1
102
RTVSPropertyOp8
 70
     1
102
RTVSPropertyOp9
 70
     1
102
RTVSPropertyOp10
 70
     1
102
RTVSPropertyOp11
 70
     1
102
RTVSPropertyOp12
 70
     1
102
RTVSPropertyOp13
 70
     1
102
RTVSPropertyOp14
 70
     1
102
RTVSPropertyOp15
 70
     1
102
RTVSPropertyOp16
 70
     1
102
RTVSPropertyOp17
 70
     1
102
RTVSPropertyOp18
 70
     1
102
RTVSPropertyOp19
 70
     1
102
RTVSPropertyOp20
 70
     1
102
RTVSPropertyOp21
 70
     1
102
RTVSPropertyOp22
 70
     1
102
RTVSPropertyOp23
 70
     1
102
RTVSPropertyOp24
 70
     1
102
RTVSPropertyOp25
 70
     1
102
RTVSPropertyOp26
 70
     1
102
RTVSPropertyOp27
 70
     1
102
RTVSPropertyOp28
 70
     1
102
RTVSPropertyOp29
 70
     1
102
RTVSPropertyOp30
 70
     1
102
RTVSPropertyOp31
 70
     1
102
RTVSPropertyOp32
 70
     1
102
RTVSPropertyOp33
 70
     1
102
RTVSPropertyOp34
 70
     1
102
RTVSPropertyOp35
 70
     1
102
RTVSPropertyOp36
 70
     1
102
RTVSPropertyOp37
 70
     1
102
RTVSPropertyOp38
 70
     1
102
RTVSPropertyOp39
 70
     1
102
RTVSPropertyOp40
 70
     1
102
RTVSPropertyOp41
 70
     1
102
RTVSPropertyOp42
 70
     1
102
RTVSPropertyOp43
 70
     1
102
RTVSPropertyOp44
 70
     1
102
RTVSPropertyOp45
 70
     1
102
RTVSPropertyOp46
 70
     1
102
RTVSPropertyOp47
 70
     1
102
RTVSPropertyOp48
 70
     1
102
RTVSPropertyOp49
 70
     1
102
RTVSPropertyOp50
 70
     1
102
RTVSPropertyOp51
 70
     0
102
RTVSPropertyOp52
 70
     0
102
RTVSPropertyOp53
 70
     1
102
RTVSPropertyOp54
 70
     1
102
RTVSPropertyOp55
 70
     1
102
RTVSPropertyOp56
 70
     1
102
RTVSPropertyOp57
 70
     1
102
RTVSPropertyOp58
 70
     1
102
RTVSPropertyOp59
 70
     1
102
RTVSPropertyOp60
 70
     1
102
RTVSPropertyOp61
 70
     1
102
RTVSPropertyOp62
 70
     1
  0
XRECORD
  5
8A6A
102
{ACAD_REACTORS
330
8A69
102
}
330
8A69
100
AcDbXrecord
280
     1
102
RTVSPost2010Prop28
280
     0
102
RTVSPost2010PropOp28
 70
     1
102
RTVSPost2010Prop29
280
     1
102
RTVSPost2010PropOp29
 70
     1
102
RTVSPost2010Prop30
280
     1
102
RTVSPost2010PropOp30
 70
     1
102
RTVSPost2010Prop31
280
     0
102
RTVSPost2010PropOp31
 70
     1
102
RTVSPost2010Prop32
280
     0
102
RTVSPost2010PropOp32
 70
     1
102
RTVSPost2010Prop33
280
     0
102
RTVSPost2010PropOp33
 70
     1
102
RTVSPost2010Prop34
280
     0
102
RTVSPost2010PropOp34
 70
     1
102
RTVSPost2010Prop35
280
     0
102
RTVSPost2010PropOp35
 70
     1
102
RTVSPost2010Prop36
280
     0
102
RTVSPost2010PropOp36
 70
     1
102
RTVSPost2010Prop37
 90
       50
102
RTVSPost2010PropOp37
 70
     1
102
RTVSPost2010Prop38
140
0.0
102
RTVSPost2010PropOp38
 70
     1
102
RTVSPost2010Prop39
140
1.0
102
RTVSPost2010PropOp39
 70
     1
102
RTVSPost2010Prop40
 90
        0
102
RTVSPost2010PropOp40
 70
     1
102
RTVSPost2010Prop41ColorIndex
 90
       18
102
RTVSPost2010Prop41ColorRGB
 90
        0
102
RTVSPost2010PropOp41
 70
     1
102
RTVSPost2010Prop42
 90
       50
102
RTVSPost2010PropOp42
 70
     1
102
RTVSPost2010Prop43
 90
        3
102
RTVSPost2010PropOp43
 70
     1
102
RTVSPost2010Prop44ColorIndex
 90
        5
102
RTVSPost2010Prop44ColorRGB
 90
      255
102
RTVSPost2010PropOp44
 70
     1
102
RTVSPost2010Prop45
280
     0
102
RTVSPost2010PropOp45
 70
     1
102
RTVSPost2010Prop46
 90
       50
102
RTVSPost2010PropOp46
 70
     1
102
RTVSPost2010Prop47
 90
       50
102
RTVSPost2010PropOp47
 70
     1
102
RTVSPost2010Prop48
 90
       50
102
RTVSPost2010PropOp48
 70
     1
102
RTVSPost2010Prop49
280
     0
102
RTVSPost2010PropOp49
 70
     1
102
RTVSPost2010Prop50
 90
       50
102
RTVSPost2010PropOp50
 70
     1
102
RTVSPost2010Prop51ColorIndex
 90
      256
102
RTVSPost2010Prop51ColorRGB
 90
-16777216
102
RTVSPost2010PropOp51
 70
     0
102
RTVSPost2010Prop52
140
1.0
102
RTVSPost2010PropOp52
 70
     0
102
RTVSPost2010Prop53
 90
        2
102
RTVSPost2010PropOp53
 70
     1
102
RTVSPost2010Prop54
  1
strokes_ogs.tif
102
RTVSPost2010PropOp54
 70
     1
102
RTVSPost2010Prop55
280
     0
102
RTVSPost2010PropOp55
 70
     1
102
RTVSPost2010Prop56
140
1.0
102
RTVSPost2010PropOp56
 70
     1
102
RTVSPost2010Prop57
140
1.0
102
RTVSPost2010PropOp57
 70
     1
102
RTVSPropertyOp0
 70
     1
102
RTVSPropertyOp1
 70
     1
102
RTVSPropertyOp2
 70
     1
102
RTVSPropertyOp3
 70
     1
102
RTVSPropertyOp4
 70
     1
102
RTVSPropertyOp5
 70
     1
102
RTVSPropertyOp6
 70
     1
102
RTVSPropertyOp7
 70
     1
102
RTVSPropertyOp8
 70
     1
102
RTVSPropertyOp9
 70
     1
102
RTVSPropertyOp10
 70
     1
102
RTVSPropertyOp11
 70
     1
102
RTVSPropertyOp12
 70
     1
102
RTVSPropertyOp13
 70
     1
102
RTVSPropertyOp14
 70
     1
102
RTVSPropertyOp15
 70
     1
102
RTVSPropertyOp16
 70
     1
102
RTVSPropertyOp17
 70
     1
102
RTVSPropertyOp18
 70
     1
102
RTVSPropertyOp19
 70
     1
102
RTVSPropertyOp20
 70
     1
102
RTVSPropertyOp21
 70
     1
102
RTVSPropertyOp22
 70
     1
102
RTVSPropertyOp23
 70
     1
102
RTVSPropertyOp24
 70
     1
102
RTVSPropertyOp25
 70
     1
102
RTVSPropertyOp26
 70
     1
102
RTVSPropertyOp27
 70
     1
102
RTVSPropertyOp28
 70
     1
102
RTVSPropertyOp29
 70
     1
102
RTVSPropertyOp30
 70
     1
102
RTVSPropertyOp31
 70
     1
102
RTVSPropertyOp32
 70
     1
102
RTVSPropertyOp33
 70
     1
102
RTVSPropertyOp34
 70
     1
102
RTVSPropertyOp35
 70
     1
102
RTVSPropertyOp36
 70
     1
102
RTVSPropertyOp37
 70
     1
102
RTVSPropertyOp38
 70
     1
102
RTVSPropertyOp39
 70
     1
102
RTVSPropertyOp40
 70
     1
102
RTVSPropertyOp41
 70
     1
102
RTVSPropertyOp42
 70
     1
102
RTVSPropertyOp43
 70
     1
102
RTVSPropertyOp44
 70
     1
102
RTVSPropertyOp45
 70
     1
102
RTVSPropertyOp46
 70
     1
102
RTVSPropertyOp47
 70
     1
102
RTVSPropertyOp48
 70
     1
102
RTVSPropertyOp49
 70
     1
102
RTVSPropertyOp50
 70
     1
102
RTVSPropertyOp51
 70
     0
102
RTVSPropertyOp52
 70
     0
102
RTVSPropertyOp53
 70
     1
102
RTVSPropertyOp54
 70
     1
102
RTVSPropertyOp55
 70
     1
102
RTVSPropertyOp56
 70
     1
102
RTVSPropertyOp57
 70
     1
102
RTVSPropertyOp58
 70
     1
102
RTVSPropertyOp59
 70
     1
102
RTVSPropertyOp60
 70
     1
102
RTVSPropertyOp61
 70
     1
102
RTVSPropertyOp62
 70
     1
  0
XRECORD
  5
8A6C
102
{ACAD_REACTORS
330
8A6B
102
}
330
8A6B
100
AcDbXrecord
280
     1
102
RTVSPost2010Prop28
280
     0
102
RTVSPost2010PropOp28
 70
     1
102
RTVSPost2010Prop29
280
     1
102
RTVSPost2010PropOp29
 70
     1
102
RTVSPost2010Prop30
280
     1
102
RTVSPost2010PropOp30
 70
     1
102
RTVSPost2010Prop31
280
     0
102
RTVSPost2010PropOp31
 70
     1
102
RTVSPost2010Prop32
280
     0
102
RTVSPost2010PropOp32
 70
     1
102
RTVSPost2010Prop33
280
     0
102
RTVSPost2010PropOp33
 70
     1
102
RTVSPost2010Prop34
280
     0
102
RTVSPost2010PropOp34
 70
     1
102
RTVSPost2010Prop35
280
     0
102
RTVSPost2010PropOp35
 70
     1
102
RTVSPost2010Prop36
280
     0
102
RTVSPost2010PropOp36
 70
     1
102
RTVSPost2010Prop37
 90
       50
102
RTVSPost2010PropOp37
 70
     1
102
RTVSPost2010Prop38
140
0.0
102
RTVSPost2010PropOp38
 70
     1
102
RTVSPost2010Prop39
140
1.0
102
RTVSPost2010PropOp39
 70
     1
102
RTVSPost2010Prop40
 90
        0
102
RTVSPost2010PropOp40
 70
     1
102
RTVSPost2010Prop41ColorIndex
 90
       18
102
RTVSPost2010Prop41ColorRGB
 90
        0
102
RTVSPost2010PropOp41
 70
     1
102
RTVSPost2010Prop42
 90
       50
102
RTVSPost2010PropOp42
 70
     1
102
RTVSPost2010Prop43
 90
        3
102
RTVSPost2010PropOp43
 70
     1
102
RTVSPost2010Prop44ColorIndex
 90
        5
102
RTVSPost2010Prop44ColorRGB
 90
      255
102
RTVSPost2010PropOp44
 70
     1
102
RTVSPost2010Prop45
280
     0
102
RTVSPost2010PropOp45
 70
     1
102
RTVSPost2010Prop46
 90
       50
102
RTVSPost2010PropOp46
 70
     1
102
RTVSPost2010Prop47
 90
       50
102
RTVSPost2010PropOp47
 70
     1
102
RTVSPost2010Prop48
 90
       50
102
RTVSPost2010PropOp48
 70
     1
102
RTVSPost2010Prop49
280
     0
102
RTVSPost2010PropOp49
 70
     1
102
RTVSPost2010Prop50
 90
       50
102
RTVSPost2010PropOp50
 70
     1
102
RTVSPost2010Prop51ColorIndex
 90
      256
102
RTVSPost2010Prop51ColorRGB
 90
-16777216
102
RTVSPost2010PropOp51
 70
     0
102
RTVSPost2010Prop52
140
1.0
102
RTVSPost2010PropOp52
 70
     0
102
RTVSPost2010Prop53
 90
        2
102
RTVSPost2010PropOp53
 70
     1
102
RTVSPost2010Prop54
  1
strokes_ogs.tif
102
RTVSPost2010PropOp54
 70
     1
102
RTVSPost2010Prop55
280
     0
102
RTVSPost2010PropOp55
 70
     1
102
RTVSPost2010Prop56
140
1.0
102
RTVSPost2010PropOp56
 70
     1
102
RTVSPost2010Prop57
140
1.0
102
RTVSPost2010PropOp57
 70
     1
102
RTVSPropertyOp0
 70
     1
102
RTVSPropertyOp1
 70
     1
102
RTVSPropertyOp2
 70
     1
102
RTVSPropertyOp3
 70
     1
102
RTVSPropertyOp4
 70
     1
102
RTVSPropertyOp5
 70
     1
102
RTVSPropertyOp6
 70
     1
102
RTVSPropertyOp7
 70
     1
102
RTVSPropertyOp8
 70
     1
102
RTVSPropertyOp9
 70
     1
102
RTVSPropertyOp10
 70
     1
102
RTVSPropertyOp11
 70
     1
102
RTVSPropertyOp12
 70
     1
102
RTVSPropertyOp13
 70
     1
102
RTVSPropertyOp14
 70
     1
102
RTVSPropertyOp15
 70
     1
102
RTVSPropertyOp16
 70
     1
102
RTVSPropertyOp17
 70
     1
102
RTVSPropertyOp18
 70
     1
102
RTVSPropertyOp19
 70
     1
102
RTVSPropertyOp20
 70
     1
102
RTVSPropertyOp21
 70
     1
102
RTVSPropertyOp22
 70
     1
102
RTVSPropertyOp23
 70
     1
102
RTVSPropertyOp24
 70
     1
102
RTVSPropertyOp25
 70
     1
102
RTVSPropertyOp26
 70
     1
102
RTVSPropertyOp27
 70
     1
102
RTVSPropertyOp28
 70
     1
102
RTVSPropertyOp29
 70
     1
102
RTVSPropertyOp30
 70
     1
102
RTVSPropertyOp31
 70
     1
102
RTVSPropertyOp32
 70
     1
102
RTVSPropertyOp33
 70
     1
102
RTVSPropertyOp34
 70
     1
102
RTVSPropertyOp35
 70
     1
102
RTVSPropertyOp36
 70
     1
102
RTVSPropertyOp37
 70
     1
102
RTVSPropertyOp38
 70
     1
102
RTVSPropertyOp39
 70
     1
102
RTVSPropertyOp40
 70
     1
102
RTVSPropertyOp41
 70
     1
102
RTVSPropertyOp42
 70
     1
102
RTVSPropertyOp43
 70
     1
102
RTVSPropertyOp44
 70
     1
102
RTVSPropertyOp45
 70
     1
102
RTVSPropertyOp46
 70
     1
102
RTVSPropertyOp47
 70
     1
102
RTVSPropertyOp48
 70
     1
102
RTVSPropertyOp49
 70
     1
102
RTVSPropertyOp50
 70
     1
102
RTVSPropertyOp51
 70
     0
102
RTVSPropertyOp52
 70
     0
102
RTVSPropertyOp53
 70
     1
102
RTVSPropertyOp54
 70
     1
102
RTVSPropertyOp55
 70
     1
102
RTVSPropertyOp56
 70
     1
102
RTVSPropertyOp57
 70
     1
102
RTVSPropertyOp58
 70
     1
102
RTVSPropertyOp59
 70
     1
102
RTVSPropertyOp60
 70
     1
102
RTVSPropertyOp61
 70
     1
102
RTVSPropertyOp62
 70
     1
  0
XRECORD
  5
8A6E
102
{ACAD_REACTORS
330
8A6D
102
}
330
8A6D
100
AcDbXrecord
280
     1
102
RTVSPost2010Prop28
280
     0
102
RTVSPost2010PropOp28
 70
     1
102
RTVSPost2010Prop29
280
     1
102
RTVSPost2010PropOp29
 70
     1
102
RTVSPost2010Prop30
280
     1
102
RTVSPost2010PropOp30
 70
     1
102
RTVSPost2010Prop31
280
     0
102
RTVSPost2010PropOp31
 70
     1
102
RTVSPost2010Prop32
280
     0
102
RTVSPost2010PropOp32
 70
     1
102
RTVSPost2010Prop33
280
     0
102
RTVSPost2010PropOp33
 70
     1
102
RTVSPost2010Prop34
280
     0
102
RTVSPost2010PropOp34
 70
     1
102
RTVSPost2010Prop35
280
     0
102
RTVSPost2010PropOp35
 70
     1
102
RTVSPost2010Prop36
280
     0
102
RTVSPost2010PropOp36
 70
     1
102
RTVSPost2010Prop37
 90
       50
102
RTVSPost2010PropOp37
 70
     1
102
RTVSPost2010Prop38
140
0.0
102
RTVSPost2010PropOp38
 70
     1
102
RTVSPost2010Prop39
140
1.0
102
RTVSPost2010PropOp39
 70
     1
102
RTVSPost2010Prop40
 90
        0
102
RTVSPost2010PropOp40
 70
     1
102
RTVSPost2010Prop41ColorIndex
 90
       18
102
RTVSPost2010Prop41ColorRGB
 90
        0
102
RTVSPost2010PropOp41
 70
     1
102
RTVSPost2010Prop42
 90
       50
102
RTVSPost2010PropOp42
 70
     1
102
RTVSPost2010Prop43
 90
        3
102
RTVSPost2010PropOp43
 70
     1
102
RTVSPost2010Prop44ColorIndex
 90
        5
102
RTVSPost2010Prop44ColorRGB
 90
      255
102
RTVSPost2010PropOp44
 70
     1
102
RTVSPost2010Prop45
280
     0
102
RTVSPost2010PropOp45
 70
     1
102
RTVSPost2010Prop46
 90
       50
102
RTVSPost2010PropOp46
 70
     1
102
RTVSPost2010Prop47
 90
       50
102
RTVSPost2010PropOp47
 70
     1
102
RTVSPost2010Prop48
 90
       50
102
RTVSPost2010PropOp48
 70
     1
102
RTVSPost2010Prop49
280
     0
102
RTVSPost2010PropOp49
 70
     1
102
RTVSPost2010Prop50
 90
       50
102
RTVSPost2010PropOp50
 70
     1
102
RTVSPost2010Prop51ColorIndex
 90
      256
102
RTVSPost2010Prop51ColorRGB
 90
-16777216
102
RTVSPost2010PropOp51
 70
     0
102
RTVSPost2010Prop52
140
1.0
102
RTVSPost2010PropOp52
 70
     0
102
RTVSPost2010Prop53
 90
        2
102
RTVSPost2010PropOp53
 70
     1
102
RTVSPost2010Prop54
  1
strokes_ogs.tif
102
RTVSPost2010PropOp54
 70
     1
102
RTVSPost2010Prop55
280
     0
102
RTVSPost2010PropOp55
 70
     1
102
RTVSPost2010Prop56
140
1.0
102
RTVSPost2010PropOp56
 70
     1
102
RTVSPost2010Prop57
140
1.0
102
RTVSPost2010PropOp57
 70
     1
102
RTVSPropertyOp0
 70
     1
102
RTVSPropertyOp1
 70
     1
102
RTVSPropertyOp2
 70
     1
102
RTVSPropertyOp3
 70
     1
102
RTVSPropertyOp4
 70
     1
102
RTVSPropertyOp5
 70
     1
102
RTVSPropertyOp6
 70
     1
102
RTVSPropertyOp7
 70
     1
102
RTVSPropertyOp8
 70
     1
102
RTVSPropertyOp9
 70
     1
102
RTVSPropertyOp10
 70
     1
102
RTVSPropertyOp11
 70
     1
102
RTVSPropertyOp12
 70
     1
102
RTVSPropertyOp13
 70
     1
102
RTVSPropertyOp14
 70
     1
102
RTVSPropertyOp15
 70
     1
102
RTVSPropertyOp16
 70
     1
102
RTVSPropertyOp17
 70
     1
102
RTVSPropertyOp18
 70
     1
102
RTVSPropertyOp19
 70
     1
102
RTVSPropertyOp20
 70
     1
102
RTVSPropertyOp21
 70
     1
102
RTVSPropertyOp22
 70
     1
102
RTVSPropertyOp23
 70
     1
102
RTVSPropertyOp24
 70
     1
102
RTVSPropertyOp25
 70
     1
102
RTVSPropertyOp26
 70
     1
102
RTVSPropertyOp27
 70
     1
102
RTVSPropertyOp28
 70
     1
102
RTVSPropertyOp29
 70
     1
102
RTVSPropertyOp30
 70
     1
102
RTVSPropertyOp31
 70
     1
102
RTVSPropertyOp32
 70
     1
102
RTVSPropertyOp33
 70
     1
102
RTVSPropertyOp34
 70
     1
102
RTVSPropertyOp35
 70
     1
102
RTVSPropertyOp36
 70
     1
102
RTVSPropertyOp37
 70
     1
102
RTVSPropertyOp38
 70
     1
102
RTVSPropertyOp39
 70
     1
102
RTVSPropertyOp40
 70
     1
102
RTVSPropertyOp41
 70
     1
102
RTVSPropertyOp42
 70
     1
102
RTVSPropertyOp43
 70
     1
102
RTVSPropertyOp44
 70
     1
102
RTVSPropertyOp45
 70
     1
102
RTVSPropertyOp46
 70
     1
102
RTVSPropertyOp47
 70
     1
102
RTVSPropertyOp48
 70
     1
102
RTVSPropertyOp49
 70
     1
102
RTVSPropertyOp50
 70
     1
102
RTVSPropertyOp51
 70
     0
102
RTVSPropertyOp52
 70
     0
102
RTVSPropertyOp53
 70
     1
102
RTVSPropertyOp54
 70
     1
102
RTVSPropertyOp55
 70
     1
102
RTVSPropertyOp56
 70
     1
102
RTVSPropertyOp57
 70
     1
102
RTVSPropertyOp58
 70
     1
102
RTVSPropertyOp59
 70
     1
102
RTVSPropertyOp60
 70
     1
102
RTVSPropertyOp61
 70
     1
102
RTVSPropertyOp62
 70
     1
  0
XRECORD
  5
8A70
102
{ACAD_REACTORS
330
8A6F
102
}
330
8A6F
100
AcDbXrecord
280
     1
102
RTVSPost2010Prop28
280
     0
102
RTVSPost2010PropOp28
 70
     1
102
RTVSPost2010Prop29
280
     1
102
RTVSPost2010PropOp29
 70
     1
102
RTVSPost2010Prop30
280
     1
102
RTVSPost2010PropOp30
 70
     1
102
RTVSPost2010Prop31
280
     0
102
RTVSPost2010PropOp31
 70
     1
102
RTVSPost2010Prop32
280
     0
102
RTVSPost2010PropOp32
 70
     1
102
RTVSPost2010Prop33
280
     0
102
RTVSPost2010PropOp33
 70
     1
102
RTVSPost2010Prop34
280
     0
102
RTVSPost2010PropOp34
 70
     1
102
RTVSPost2010Prop35
280
     0
102
RTVSPost2010PropOp35
 70
     1
102
RTVSPost2010Prop36
280
     0
102
RTVSPost2010PropOp36
 70
     1
102
RTVSPost2010Prop37
 90
       50
102
RTVSPost2010PropOp37
 70
     1
102
RTVSPost2010Prop38
140
0.0
102
RTVSPost2010PropOp38
 70
     1
102
RTVSPost2010Prop39
140
1.0
102
RTVSPost2010PropOp39
 70
     1
102
RTVSPost2010Prop40
 90
        0
102
RTVSPost2010PropOp40
 70
     1
102
RTVSPost2010Prop41ColorIndex
 90
       18
102
RTVSPost2010Prop41ColorRGB
 90
        0
102
RTVSPost2010PropOp41
 70
     1
102
RTVSPost2010Prop42
 90
       50
102
RTVSPost2010PropOp42
 70
     1
102
RTVSPost2010Prop43
 90
        3
102
RTVSPost2010PropOp43
 70
     1
102
RTVSPost2010Prop44ColorIndex
 90
        5
102
RTVSPost2010Prop44ColorRGB
 90
      255
102
RTVSPost2010PropOp44
 70
     1
102
RTVSPost2010Prop45
280
     0
102
RTVSPost2010PropOp45
 70
     1
102
RTVSPost2010Prop46
 90
       50
102
RTVSPost2010PropOp46
 70
     1
102
RTVSPost2010Prop47
 90
       50
102
RTVSPost2010PropOp47
 70
     1
102
RTVSPost2010Prop48
 90
       50
102
RTVSPost2010PropOp48
 70
     1
102
RTVSPost2010Prop49
280
     0
102
RTVSPost2010PropOp49
 70
     1
102
RTVSPost2010Prop50
 90
       50
102
RTVSPost2010PropOp50
 70
     1
102
RTVSPost2010Prop51ColorIndex
 90
      256
102
RTVSPost2010Prop51ColorRGB
 90
-16777216
102
RTVSPost2010PropOp51
 70
     0
102
RTVSPost2010Prop52
140
1.0
102
RTVSPost2010PropOp52
 70
     0
102
RTVSPost2010Prop53
 90
        2
102
RTVSPost2010PropOp53
 70
     1
102
RTVSPost2010Prop54
  1
strokes_ogs.tif
102
RTVSPost2010PropOp54
 70
     1
102
RTVSPost2010Prop55
280
     0
102
RTVSPost2010PropOp55
 70
     1
102
RTVSPost2010Prop56
140
1.0
102
RTVSPost2010PropOp56
 70
     1
102
RTVSPost2010Prop57
140
1.0
102
RTVSPost2010PropOp57
 70
     1
102
RTVSPropertyOp0
 70
     1
102
RTVSPropertyOp1
 70
     1
102
RTVSPropertyOp2
 70
     1
102
RTVSPropertyOp3
 70
     1
102
RTVSPropertyOp4
 70
     1
102
RTVSPropertyOp5
 70
     1
102
RTVSPropertyOp6
 70
     1
102
RTVSPropertyOp7
 70
     1
102
RTVSPropertyOp8
 70
     1
102
RTVSPropertyOp9
 70
     1
102
RTVSPropertyOp10
 70
     1
102
RTVSPropertyOp11
 70
     1
102
RTVSPropertyOp12
 70
     1
102
RTVSPropertyOp13
 70
     1
102
RTVSPropertyOp14
 70
     1
102
RTVSPropertyOp15
 70
     1
102
RTVSPropertyOp16
 70
     1
102
RTVSPropertyOp17
 70
     1
102
RTVSPropertyOp18
 70
     1
102
RTVSPropertyOp19
 70
     1
102
RTVSPropertyOp20
 70
     1
102
RTVSPropertyOp21
 70
     1
102
RTVSPropertyOp22
 70
     1
102
RTVSPropertyOp23
 70
     1
102
RTVSPropertyOp24
 70
     1
102
RTVSPropertyOp25
 70
     1
102
RTVSPropertyOp26
 70
     1
102
RTVSPropertyOp27
 70
     1
102
RTVSPropertyOp28
 70
     1
102
RTVSPropertyOp29
 70
     1
102
RTVSPropertyOp30
 70
     1
102
RTVSPropertyOp31
 70
     1
102
RTVSPropertyOp32
 70
     1
102
RTVSPropertyOp33
 70
     1
102
RTVSPropertyOp34
 70
     1
102
RTVSPropertyOp35
 70
     1
102
RTVSPropertyOp36
 70
     1
102
RTVSPropertyOp37
 70
     1
102
RTVSPropertyOp38
 70
     1
102
RTVSPropertyOp39
 70
     1
102
RTVSPropertyOp40
 70
     1
102
RTVSPropertyOp41
 70
     1
102
RTVSPropertyOp42
 70
     1
102
RTVSPropertyOp43
 70
     1
102
RTVSPropertyOp44
 70
     1
102
RTVSPropertyOp45
 70
     1
102
RTVSPropertyOp46
 70
     1
102
RTVSPropertyOp47
 70
     1
102
RTVSPropertyOp48
 70
     1
102
RTVSPropertyOp49
 70
     1
102
RTVSPropertyOp50
 70
     1
102
RTVSPropertyOp51
 70
     0
102
RTVSPropertyOp52
 70
     0
102
RTVSPropertyOp53
 70
     1
102
RTVSPropertyOp54
 70
     1
102
RTVSPropertyOp55
 70
     1
102
RTVSPropertyOp56
 70
     1
102
RTVSPropertyOp57
 70
     1
102
RTVSPropertyOp58
 70
     1
102
RTVSPropertyOp59
 70
     1
102
RTVSPropertyOp60
 70
     1
102
RTVSPropertyOp61
 70
     1
102
RTVSPropertyOp62
 70
     1
  0
XRECORD
  5
8A78
102
{ACAD_REACTORS
330
8A77
102
}
330
8A77
100
AcDbXrecord
280
     1
102
RTVSPost2010Prop28
280
     0
102
RTVSPost2010PropOp28
 70
     1
102
RTVSPost2010Prop29
280
     1
102
RTVSPost2010PropOp29
 70
     1
102
RTVSPost2010Prop30
280
     1
102
RTVSPost2010PropOp30
 70
     1
102
RTVSPost2010Prop31
280
     0
102
RTVSPost2010PropOp31
 70
     1
102
RTVSPost2010Prop32
280
     0
102
RTVSPost2010PropOp32
 70
     1
102
RTVSPost2010Prop33
280
     0
102
RTVSPost2010PropOp33
 70
     1
102
RTVSPost2010Prop34
280
     0
102
RTVSPost2010PropOp34
 70
     1
102
RTVSPost2010Prop35
280
     0
102
RTVSPost2010PropOp35
 70
     1
102
RTVSPost2010Prop36
280
     0
102
RTVSPost2010PropOp36
 70
     1
102
RTVSPost2010Prop37
 90
       50
102
RTVSPost2010PropOp37
 70
     1
102
RTVSPost2010Prop38
140
0.0
102
RTVSPost2010PropOp38
 70
     1
102
RTVSPost2010Prop39
140
1.0
102
RTVSPost2010PropOp39
 70
     1
102
RTVSPost2010Prop40
 90
        0
102
RTVSPost2010PropOp40
 70
     1
102
RTVSPost2010Prop41ColorIndex
 90
       18
102
RTVSPost2010Prop41ColorRGB
 90
        0
102
RTVSPost2010PropOp41
 70
     1
102
RTVSPost2010Prop42
 90
       50
102
RTVSPost2010PropOp42
 70
     1
102
RTVSPost2010Prop43
 90
        3
102
RTVSPost2010PropOp43
 70
     1
102
RTVSPost2010Prop44ColorIndex
 90
        5
102
RTVSPost2010Prop44ColorRGB
 90
      255
102
RTVSPost2010PropOp44
 70
     1
102
RTVSPost2010Prop45
280
     0
102
RTVSPost2010PropOp45
 70
     1
102
RTVSPost2010Prop46
 90
       50
102
RTVSPost2010PropOp46
 70
     1
102
RTVSPost2010Prop47
 90
       50
102
RTVSPost2010PropOp47
 70
     1
102
RTVSPost2010Prop48
 90
       50
102
RTVSPost2010PropOp48
 70
     1
102
RTVSPost2010Prop49
280
     0
102
RTVSPost2010PropOp49
 70
     1
102
RTVSPost2010Prop50
 90
       50
102
RTVSPost2010PropOp50
 70
     1
102
RTVSPost2010Prop51ColorIndex
 90
      256
102
RTVSPost2010Prop51ColorRGB
 90
-16777216
102
RTVSPost2010PropOp51
 70
     0
102
RTVSPost2010Prop52
140
1.0
102
RTVSPost2010PropOp52
 70
     0
102
RTVSPost2010Prop53
 90
        2
102
RTVSPost2010PropOp53
 70
     1
102
RTVSPost2010Prop54
  1
strokes_ogs.tif
102
RTVSPost2010PropOp54
 70
     1
102
RTVSPost2010Prop55
280
     0
102
RTVSPost2010PropOp55
 70
     1
102
RTVSPost2010Prop56
140
1.0
102
RTVSPost2010PropOp56
 70
     1
102
RTVSPost2010Prop57
140
1.0
102
RTVSPost2010PropOp57
 70
     1
102
RTVSPropertyOp0
 70
     1
102
RTVSPropertyOp1
 70
     1
102
RTVSPropertyOp2
 70
     1
102
RTVSPropertyOp3
 70
     1
102
RTVSPropertyOp4
 70
     1
102
RTVSPropertyOp5
 70
     1
102
RTVSPropertyOp6
 70
     1
102
RTVSPropertyOp7
 70
     1
102
RTVSPropertyOp8
 70
     1
102
RTVSPropertyOp9
 70
     1
102
RTVSPropertyOp10
 70
     1
102
RTVSPropertyOp11
 70
     1
102
RTVSPropertyOp12
 70
     1
102
RTVSPropertyOp13
 70
     1
102
RTVSPropertyOp14
 70
     1
102
RTVSPropertyOp15
 70
     1
102
RTVSPropertyOp16
 70
     1
102
RTVSPropertyOp17
 70
     1
102
RTVSPropertyOp18
 70
     1
102
RTVSPropertyOp19
 70
     1
102
RTVSPropertyOp20
 70
     1
102
RTVSPropertyOp21
 70
     1
102
RTVSPropertyOp22
 70
     1
102
RTVSPropertyOp23
 70
     1
102
RTVSPropertyOp24
 70
     1
102
RTVSPropertyOp25
 70
     1
102
RTVSPropertyOp26
 70
     1
102
RTVSPropertyOp27
 70
     1
102
RTVSPropertyOp28
 70
     1
102
RTVSPropertyOp29
 70
     1
102
RTVSPropertyOp30
 70
     1
102
RTVSPropertyOp31
 70
     1
102
RTVSPropertyOp32
 70
     1
102
RTVSPropertyOp33
 70
     1
102
RTVSPropertyOp34
 70
     1
102
RTVSPropertyOp35
 70
     1
102
RTVSPropertyOp36
 70
     1
102
RTVSPropertyOp37
 70
     1
102
RTVSPropertyOp38
 70
     1
102
RTVSPropertyOp39
 70
     1
102
RTVSPropertyOp40
 70
     1
102
RTVSPropertyOp41
 70
     1
102
RTVSPropertyOp42
 70
     1
102
RTVSPropertyOp43
 70
     1
102
RTVSPropertyOp44
 70
     1
102
RTVSPropertyOp45
 70
     1
102
RTVSPropertyOp46
 70
     1
102
RTVSPropertyOp47
 70
     1
102
RTVSPropertyOp48
 70
     1
102
RTVSPropertyOp49
 70
     1
102
RTVSPropertyOp50
 70
     1
102
RTVSPropertyOp51
 70
     0
102
RTVSPropertyOp52
 70
     0
102
RTVSPropertyOp53
 70
     1
102
RTVSPropertyOp54
 70
     1
102
RTVSPropertyOp55
 70
     1
102
RTVSPropertyOp56
 70
     1
102
RTVSPropertyOp57
 70
     1
102
RTVSPropertyOp58
 70
     1
102
RTVSPropertyOp59
 70
     1
102
RTVSPropertyOp60
 70
     1
102
RTVSPropertyOp61
 70
     1
102
RTVSPropertyOp62
 70
     1
  0
XRECORD
  5
8A8C
102
{ACAD_REACTORS
330
8A8B
102
}
330
8A8B
100
AcDbXrecord
280
     1
102
RTVSPost2010Prop28
280
     0
102
RTVSPost2010PropOp28
 70
     1
102
RTVSPost2010Prop29
280
     1
102
RTVSPost2010PropOp29
 70
     1
102
RTVSPost2010Prop30
280
     1
102
RTVSPost2010PropOp30
 70
     1
102
RTVSPost2010Prop31
280
     0
102
RTVSPost2010PropOp31
 70
     1
102
RTVSPost2010Prop32
280
     0
102
RTVSPost2010PropOp32
 70
     1
102
RTVSPost2010Prop33
280
     0
102
RTVSPost2010PropOp33
 70
     1
102
RTVSPost2010Prop34
280
     0
102
RTVSPost2010PropOp34
 70
     1
102
RTVSPost2010Prop35
280
     0
102
RTVSPost2010PropOp35
 70
     1
102
RTVSPost2010Prop36
280
     0
102
RTVSPost2010PropOp36
 70
     1
102
RTVSPost2010Prop37
 90
       50
102
RTVSPost2010PropOp37
 70
     1
102
RTVSPost2010Prop38
140
0.0
102
RTVSPost2010PropOp38
 70
     1
102
RTVSPost2010Prop39
140
1.0
102
RTVSPost2010PropOp39
 70
     1
102
RTVSPost2010Prop40
 90
        0
102
RTVSPost2010PropOp40
 70
     1
102
RTVSPost2010Prop41ColorIndex
 90
       18
102
RTVSPost2010Prop41ColorRGB
 90
        0
102
RTVSPost2010PropOp41
 70
     1
102
RTVSPost2010Prop42
 90
       50
102
RTVSPost2010PropOp42
 70
     1
102
RTVSPost2010Prop43
 90
        3
102
RTVSPost2010PropOp43
 70
     1
102
RTVSPost2010Prop44ColorIndex
 90
        5
102
RTVSPost2010Prop44ColorRGB
 90
      255
102
RTVSPost2010PropOp44
 70
     1
102
RTVSPost2010Prop45
280
     0
102
RTVSPost2010PropOp45
 70
     1
102
RTVSPost2010Prop46
 90
       50
102
RTVSPost2010PropOp46
 70
     1
102
RTVSPost2010Prop47
 90
       50
102
RTVSPost2010PropOp47
 70
     1
102
RTVSPost2010Prop48
 90
       50
102
RTVSPost2010PropOp48
 70
     1
102
RTVSPost2010Prop49
280
     0
102
RTVSPost2010PropOp49
 70
     1
102
RTVSPost2010Prop50
 90
       50
102
RTVSPost2010PropOp50
 70
     1
102
RTVSPost2010Prop51ColorIndex
 90
      256
102
RTVSPost2010Prop51ColorRGB
 90
-16777216
102
RTVSPost2010PropOp51
 70
     0
102
RTVSPost2010Prop52
140
1.0
102
RTVSPost2010PropOp52
 70
     0
102
RTVSPost2010Prop53
 90
        2
102
RTVSPost2010PropOp53
 70
     1
102
RTVSPost2010Prop54
  1
strokes_ogs.tif
102
RTVSPost2010PropOp54
 70
     1
102
RTVSPost2010Prop55
280
     0
102
RTVSPost2010PropOp55
 70
     1
102
RTVSPost2010Prop56
140
1.0
102
RTVSPost2010PropOp56
 70
     1
102
RTVSPost2010Prop57
140
1.0
102
RTVSPost2010PropOp57
 70
     1
102
RTVSPropertyOp0
 70
     0
102
RTVSPropertyOp1
 70
     0
102
RTVSPropertyOp2
 70
     0
102
RTVSPropertyOp3
 70
     0
102
RTVSPropertyOp4
 70
     0
102
RTVSPropertyOp5
 70
     0
102
RTVSPropertyOp6
 70
     0
102
RTVSPropertyOp7
 70
     0
102
RTVSPropertyOp8
 70
     0
102
RTVSPropertyOp9
 70
     0
102
RTVSPropertyOp10
 70
     0
102
RTVSPropertyOp11
 70
     0
102
RTVSPropertyOp12
 70
     0
102
RTVSPropertyOp13
 70
     0
102
RTVSPropertyOp14
 70
     2
102
RTVSPropertyOp15
 70
     0
102
RTVSPropertyOp16
 70
     0
102
RTVSPropertyOp17
 70
     0
102
RTVSPropertyOp18
 70
     0
102
RTVSPropertyOp19
 70
     0
102
RTVSPropertyOp20
 70
     0
102
RTVSPropertyOp21
 70
     0
102
RTVSPropertyOp22
 70
     0
102
RTVSPropertyOp23
 70
     0
102
RTVSPropertyOp24
 70
     0
102
RTVSPropertyOp25
 70
     0
102
RTVSPropertyOp26
 70
     0
102
RTVSPropertyOp27
 70
     0
102
RTVSPropertyOp28
 70
     1
102
RTVSPropertyOp29
 70
     1
102
RTVSPropertyOp30
 70
     1
102
RTVSPropertyOp31
 70
     1
102
RTVSPropertyOp32
 70
     1
102
RTVSPropertyOp33
 70
     1
102
RTVSPropertyOp34
 70
     1
102
RTVSPropertyOp35
 70
     1
102
RTVSPropertyOp36
 70
     1
102
RTVSPropertyOp37
 70
     1
102
RTVSPropertyOp38
 70
     1
102
RTVSPropertyOp39
 70
     1
102
RTVSPropertyOp40
 70
     1
102
RTVSPropertyOp41
 70
     1
102
RTVSPropertyOp42
 70
     1
102
RTVSPropertyOp43
 70
     1
102
RTVSPropertyOp44
 70
     1
102
RTVSPropertyOp45
 70
     1
102
RTVSPropertyOp46
 70
     1
102
RTVSPropertyOp47
 70
     1
102
RTVSPropertyOp48
 70
     1
102
RTVSPropertyOp49
 70
     1
102
RTVSPropertyOp50
 70
     1
102
RTVSPropertyOp51
 70
     0
102
RTVSPropertyOp52
 70
     0
102
RTVSPropertyOp53
 70
     1
102
RTVSPropertyOp54
 70
     1
102
RTVSPropertyOp55
 70
     1
102
RTVSPropertyOp56
 70
     1
102
RTVSPropertyOp57
 70
     1
102
RTVSPropertyOp58
 70
     1
102
RTVSPropertyOp59
 70
     1
102
RTVSPropertyOp60
 70
     1
102
RTVSPropertyOp61
 70
     1
102
RTVSPropertyOp62
 70
     1
  0
XRECORD
  5
8A84
102
{ACAD_REACTORS
330
8A83
102
}
330
8A83
100
AcDbXrecord
280
     1
102
RTVSPost2010Prop28
280
     0
102
RTVSPost2010PropOp28
 70
     1
102
RTVSPost2010Prop29
280
     1
102
RTVSPost2010PropOp29
 70
     1
102
RTVSPost2010Prop30
280
     1
102
RTVSPost2010PropOp30
 70
     1
102
RTVSPost2010Prop31
280
     0
102
RTVSPost2010PropOp31
 70
     1
102
RTVSPost2010Prop32
280
     0
102
RTVSPost2010PropOp32
 70
     1
102
RTVSPost2010Prop33
280
     0
102
RTVSPost2010PropOp33
 70
     1
102
RTVSPost2010Prop34
280
     0
102
RTVSPost2010PropOp34
 70
     1
102
RTVSPost2010Prop35
280
     0
102
RTVSPost2010PropOp35
 70
     1
102
RTVSPost2010Prop36
280
     0
102
RTVSPost2010PropOp36
 70
     1
102
RTVSPost2010Prop37
 90
       50
102
RTVSPost2010PropOp37
 70
     1
102
RTVSPost2010Prop38
140
0.0
102
RTVSPost2010PropOp38
 70
     1
102
RTVSPost2010Prop39
140
1.0
102
RTVSPost2010PropOp39
 70
     1
102
RTVSPost2010Prop40
 90
        0
102
RTVSPost2010PropOp40
 70
     1
102
RTVSPost2010Prop41ColorIndex
 90
       18
102
RTVSPost2010Prop41ColorRGB
 90
        0
102
RTVSPost2010PropOp41
 70
     1
102
RTVSPost2010Prop42
 90
       50
102
RTVSPost2010PropOp42
 70
     1
102
RTVSPost2010Prop43
 90
        3
102
RTVSPost2010PropOp43
 70
     1
102
RTVSPost2010Prop44ColorIndex
 90
        5
102
RTVSPost2010Prop44ColorRGB
 90
      255
102
RTVSPost2010PropOp44
 70
     1
102
RTVSPost2010Prop45
280
     0
102
RTVSPost2010PropOp45
 70
     1
102
RTVSPost2010Prop46
 90
       50
102
RTVSPost2010PropOp46
 70
     1
102
RTVSPost2010Prop47
 90
       50
102
RTVSPost2010PropOp47
 70
     1
102
RTVSPost2010Prop48
 90
       50
102
RTVSPost2010PropOp48
 70
     1
102
RTVSPost2010Prop49
280
     0
102
RTVSPost2010PropOp49
 70
     1
102
RTVSPost2010Prop50
 90
       50
102
RTVSPost2010PropOp50
 70
     1
102
RTVSPost2010Prop51ColorIndex
 90
      256
102
RTVSPost2010Prop51ColorRGB
 90
-16777216
102
RTVSPost2010PropOp51
 70
     0
102
RTVSPost2010Prop52
140
1.0
102
RTVSPost2010PropOp52
 70
     0
102
RTVSPost2010Prop53
 90
        2
102
RTVSPost2010PropOp53
 70
     1
102
RTVSPost2010Prop54
  1
strokes_ogs.tif
102
RTVSPost2010PropOp54
 70
     1
102
RTVSPost2010Prop55
280
     0
102
RTVSPost2010PropOp55
 70
     1
102
RTVSPost2010Prop56
140
1.0
102
RTVSPost2010PropOp56
 70
     1
102
RTVSPost2010Prop57
140
1.0
102
RTVSPost2010PropOp57
 70
     1
102
RTVSPropertyOp0
 70
     1
102
RTVSPropertyOp1
 70
     1
102
RTVSPropertyOp2
 70
     1
102
RTVSPropertyOp3
 70
     1
102
RTVSPropertyOp4
 70
     1
102
RTVSPropertyOp5
 70
     1
102
RTVSPropertyOp6
 70
     1
102
RTVSPropertyOp7
 70
     1
102
RTVSPropertyOp8
 70
     1
102
RTVSPropertyOp9
 70
     1
102
RTVSPropertyOp10
 70
     1
102
RTVSPropertyOp11
 70
     1
102
RTVSPropertyOp12
 70
     1
102
RTVSPropertyOp13
 70
     1
102
RTVSPropertyOp14
 70
     1
102
RTVSPropertyOp15
 70
     1
102
RTVSPropertyOp16
 70
     1
102
RTVSPropertyOp17
 70
     1
102
RTVSPropertyOp18
 70
     1
102
RTVSPropertyOp19
 70
     1
102
RTVSPropertyOp20
 70
     1
102
RTVSPropertyOp21
 70
     1
102
RTVSPropertyOp22
 70
     1
102
RTVSPropertyOp23
 70
     1
102
RTVSPropertyOp24
 70
     1
102
RTVSPropertyOp25
 70
     1
102
RTVSPropertyOp26
 70
     1
102
RTVSPropertyOp27
 70
     1
102
RTVSPropertyOp28
 70
     1
102
RTVSPropertyOp29
 70
     1
102
RTVSPropertyOp30
 70
     1
102
RTVSPropertyOp31
 70
     1
102
RTVSPropertyOp32
 70
     1
102
RTVSPropertyOp33
 70
     1
102
RTVSPropertyOp34
 70
     1
102
RTVSPropertyOp35
 70
     1
102
RTVSPropertyOp36
 70
     1
102
RTVSPropertyOp37
 70
     1
102
RTVSPropertyOp38
 70
     1
102
RTVSPropertyOp39
 70
     1
102
RTVSPropertyOp40
 70
     1
102
RTVSPropertyOp41
 70
     1
102
RTVSPropertyOp42
 70
     1
102
RTVSPropertyOp43
 70
     1
102
RTVSPropertyOp44
 70
     1
102
RTVSPropertyOp45
 70
     1
102
RTVSPropertyOp46
 70
     1
102
RTVSPropertyOp47
 70
     1
102
RTVSPropertyOp48
 70
     1
102
RTVSPropertyOp49
 70
     1
102
RTVSPropertyOp50
 70
     1
102
RTVSPropertyOp51
 70
     0
102
RTVSPropertyOp52
 70
     0
102
RTVSPropertyOp53
 70
     1
102
RTVSPropertyOp54
 70
     1
102
RTVSPropertyOp55
 70
     1
102
RTVSPropertyOp56
 70
     1
102
RTVSPropertyOp57
 70
     1
102
RTVSPropertyOp58
 70
     1
102
RTVSPropertyOp59
 70
     1
102
RTVSPropertyOp60
 70
     1
102
RTVSPropertyOp61
 70
     1
102
RTVSPropertyOp62
 70
     1
  0
XRECORD
  5
8A8E
102
{ACAD_REACTORS
330
8A8D
102
}
330
8A8D
100
AcDbXrecord
280
     1
102
RTVSPost2010Prop28
280
     0
102
RTVSPost2010PropOp28
 70
     1
102
RTVSPost2010Prop29
280
     1
102
RTVSPost2010PropOp29
 70
     1
102
RTVSPost2010Prop30
280
     1
102
RTVSPost2010PropOp30
 70
     1
102
RTVSPost2010Prop31
280
     0
102
RTVSPost2010PropOp31
 70
     1
102
RTVSPost2010Prop32
280
     0
102
RTVSPost2010PropOp32
 70
     1
102
RTVSPost2010Prop33
280
     0
102
RTVSPost2010PropOp33
 70
     1
102
RTVSPost2010Prop34
280
     0
102
RTVSPost2010PropOp34
 70
     1
102
RTVSPost2010Prop35
280
     0
102
RTVSPost2010PropOp35
 70
     1
102
RTVSPost2010Prop36
280
     0
102
RTVSPost2010PropOp36
 70
     1
102
RTVSPost2010Prop37
 90
       50
102
RTVSPost2010PropOp37
 70
     1
102
RTVSPost2010Prop38
140
0.0
102
RTVSPost2010PropOp38
 70
     1
102
RTVSPost2010Prop39
140
1.0
102
RTVSPost2010PropOp39
 70
     1
102
RTVSPost2010Prop40
 90
        0
102
RTVSPost2010PropOp40
 70
     1
102
RTVSPost2010Prop41ColorIndex
 90
       18
102
RTVSPost2010Prop41ColorRGB
 90
        0
102
RTVSPost2010PropOp41
 70
     1
102
RTVSPost2010Prop42
 90
       50
102
RTVSPost2010PropOp42
 70
     1
102
RTVSPost2010Prop43
 90
        3
102
RTVSPost2010PropOp43
 70
     1
102
RTVSPost2010Prop44ColorIndex
 90
        5
102
RTVSPost2010Prop44ColorRGB
 90
      255
102
RTVSPost2010PropOp44
 70
     1
102
RTVSPost2010Prop45
280
     0
102
RTVSPost2010PropOp45
 70
     1
102
RTVSPost2010Prop46
 90
       50
102
RTVSPost2010PropOp46
 70
     1
102
RTVSPost2010Prop47
 90
       50
102
RTVSPost2010PropOp47
 70
     1
102
RTVSPost2010Prop48
 90
       50
102
RTVSPost2010PropOp48
 70
     1
102
RTVSPost2010Prop49
280
     0
102
RTVSPost2010PropOp49
 70
     1
102
RTVSPost2010Prop50
 90
       50
102
RTVSPost2010PropOp50
 70
     1
102
RTVSPost2010Prop51ColorIndex
 90
      256
102
RTVSPost2010Prop51ColorRGB
 90
-16777216
102
RTVSPost2010PropOp51
 70
     0
102
RTVSPost2010Prop52
140
1.0
102
RTVSPost2010PropOp52
 70
     0
102
RTVSPost2010Prop53
 90
        2
102
RTVSPost2010PropOp53
 70
     1
102
RTVSPost2010Prop54
  1
strokes_ogs.tif
102
RTVSPost2010PropOp54
 70
     1
102
RTVSPost2010Prop55
280
     0
102
RTVSPost2010PropOp55
 70
     1
102
RTVSPost2010Prop56
140
1.0
102
RTVSPost2010PropOp56
 70
     1
102
RTVSPost2010Prop57
140
1.0
102
RTVSPost2010PropOp57
 70
     1
102
RTVSPropertyOp0
 70
     0
102
RTVSPropertyOp1
 70
     0
102
RTVSPropertyOp2
 70
     0
102
RTVSPropertyOp3
 70
     0
102
RTVSPropertyOp4
 70
     0
102
RTVSPropertyOp5
 70
     0
102
RTVSPropertyOp6
 70
     0
102
RTVSPropertyOp7
 70
     0
102
RTVSPropertyOp8
 70
     0
102
RTVSPropertyOp9
 70
     0
102
RTVSPropertyOp10
 70
     0
102
RTVSPropertyOp11
 70
     0
102
RTVSPropertyOp12
 70
     0
102
RTVSPropertyOp13
 70
     0
102
RTVSPropertyOp14
 70
     2
102
RTVSPropertyOp15
 70
     0
102
RTVSPropertyOp16
 70
     0
102
RTVSPropertyOp17
 70
     0
102
RTVSPropertyOp18
 70
     0
102
RTVSPropertyOp19
 70
     0
102
RTVSPropertyOp20
 70
     0
102
RTVSPropertyOp21
 70
     0
102
RTVSPropertyOp22
 70
     0
102
RTVSPropertyOp23
 70
     0
102
RTVSPropertyOp24
 70
     0
102
RTVSPropertyOp25
 70
     0
102
RTVSPropertyOp26
 70
     0
102
RTVSPropertyOp27
 70
     0
102
RTVSPropertyOp28
 70
     1
102
RTVSPropertyOp29
 70
     1
102
RTVSPropertyOp30
 70
     1
102
RTVSPropertyOp31
 70
     1
102
RTVSPropertyOp32
 70
     1
102
RTVSPropertyOp33
 70
     1
102
RTVSPropertyOp34
 70
     1
102
RTVSPropertyOp35
 70
     1
102
RTVSPropertyOp36
 70
     1
102
RTVSPropertyOp37
 70
     1
102
RTVSPropertyOp38
 70
     1
102
RTVSPropertyOp39
 70
     1
102
RTVSPropertyOp40
 70
     1
102
RTVSPropertyOp41
 70
     1
102
RTVSPropertyOp42
 70
     1
102
RTVSPropertyOp43
 70
     1
102
RTVSPropertyOp44
 70
     1
102
RTVSPropertyOp45
 70
     1
102
RTVSPropertyOp46
 70
     1
102
RTVSPropertyOp47
 70
     1
102
RTVSPropertyOp48
 70
     1
102
RTVSPropertyOp49
 70
     1
102
RTVSPropertyOp50
 70
     1
102
RTVSPropertyOp51
 70
     0
102
RTVSPropertyOp52
 70
     0
102
RTVSPropertyOp53
 70
     1
102
RTVSPropertyOp54
 70
     1
102
RTVSPropertyOp55
 70
     1
102
RTVSPropertyOp56
 70
     1
102
RTVSPropertyOp57
 70
     1
102
RTVSPropertyOp58
 70
     1
102
RTVSPropertyOp59
 70
     1
102
RTVSPropertyOp60
 70
     1
102
RTVSPropertyOp61
 70
     1
102
RTVSPropertyOp62
 70
     1
  0
XRECORD
  5
8A7C
102
{ACAD_REACTORS
330
8A7B
102
}
330
8A7B
100
AcDbXrecord
280
     1
102
RTVSPost2010Prop28
280
     0
102
RTVSPost2010PropOp28
 70
     1
102
RTVSPost2010Prop29
280
     1
102
RTVSPost2010PropOp29
 70
     1
102
RTVSPost2010Prop30
280
     1
102
RTVSPost2010PropOp30
 70
     1
102
RTVSPost2010Prop31
280
     0
102
RTVSPost2010PropOp31
 70
     1
102
RTVSPost2010Prop32
280
     0
102
RTVSPost2010PropOp32
 70
     1
102
RTVSPost2010Prop33
280
     0
102
RTVSPost2010PropOp33
 70
     1
102
RTVSPost2010Prop34
280
     0
102
RTVSPost2010PropOp34
 70
     1
102
RTVSPost2010Prop35
280
     0
102
RTVSPost2010PropOp35
 70
     1
102
RTVSPost2010Prop36
280
     0
102
RTVSPost2010PropOp36
 70
     1
102
RTVSPost2010Prop37
 90
       50
102
RTVSPost2010PropOp37
 70
     1
102
RTVSPost2010Prop38
140
0.0
102
RTVSPost2010PropOp38
 70
     1
102
RTVSPost2010Prop39
140
1.0
102
RTVSPost2010PropOp39
 70
     1
102
RTVSPost2010Prop40
 90
        0
102
RTVSPost2010PropOp40
 70
     1
102
RTVSPost2010Prop41ColorIndex
 90
       18
102
RTVSPost2010Prop41ColorRGB
 90
        0
102
RTVSPost2010PropOp41
 70
     1
102
RTVSPost2010Prop42
 90
       50
102
RTVSPost2010PropOp42
 70
     1
102
RTVSPost2010Prop43
 90
        3
102
RTVSPost2010PropOp43
 70
     1
102
RTVSPost2010Prop44ColorIndex
 90
        5
102
RTVSPost2010Prop44ColorRGB
 90
      255
102
RTVSPost2010PropOp44
 70
     1
102
RTVSPost2010Prop45
280
     0
102
RTVSPost2010PropOp45
 70
     1
102
RTVSPost2010Prop46
 90
       50
102
RTVSPost2010PropOp46
 70
     1
102
RTVSPost2010Prop47
 90
       50
102
RTVSPost2010PropOp47
 70
     1
102
RTVSPost2010Prop48
 90
       50
102
RTVSPost2010PropOp48
 70
     1
102
RTVSPost2010Prop49
280
     0
102
RTVSPost2010PropOp49
 70
     1
102
RTVSPost2010Prop50
 90
       50
102
RTVSPost2010PropOp50
 70
     1
102
RTVSPost2010Prop51ColorIndex
 90
      256
102
RTVSPost2010Prop51ColorRGB
 90
-16777216
102
RTVSPost2010PropOp51
 70
     0
102
RTVSPost2010Prop52
140
1.0
102
RTVSPost2010PropOp52
 70
     0
102
RTVSPost2010Prop53
 90
        2
102
RTVSPost2010PropOp53
 70
     1
102
RTVSPost2010Prop54
  1
strokes_ogs.tif
102
RTVSPost2010PropOp54
 70
     1
102
RTVSPost2010Prop55
280
     0
102
RTVSPost2010PropOp55
 70
     1
102
RTVSPost2010Prop56
140
1.0
102
RTVSPost2010PropOp56
 70
     1
102
RTVSPost2010Prop57
140
1.0
102
RTVSPost2010PropOp57
 70
     1
102
RTVSPropertyOp0
 70
     1
102
RTVSPropertyOp1
 70
     1
102
RTVSPropertyOp2
 70
     1
102
RTVSPropertyOp3
 70
     1
102
RTVSPropertyOp4
 70
     1
102
RTVSPropertyOp5
 70
     1
102
RTVSPropertyOp6
 70
     1
102
RTVSPropertyOp7
 70
     1
102
RTVSPropertyOp8
 70
     1
102
RTVSPropertyOp9
 70
     1
102
RTVSPropertyOp10
 70
     1
102
RTVSPropertyOp11
 70
     1
102
RTVSPropertyOp12
 70
     1
102
RTVSPropertyOp13
 70
     1
102
RTVSPropertyOp14
 70
     1
102
RTVSPropertyOp15
 70
     1
102
RTVSPropertyOp16
 70
     1
102
RTVSPropertyOp17
 70
     1
102
RTVSPropertyOp18
 70
     1
102
RTVSPropertyOp19
 70
     1
102
RTVSPropertyOp20
 70
     1
102
RTVSPropertyOp21
 70
     1
102
RTVSPropertyOp22
 70
     1
102
RTVSPropertyOp23
 70
     1
102
RTVSPropertyOp24
 70
     1
102
RTVSPropertyOp25
 70
     1
102
RTVSPropertyOp26
 70
     1
102
RTVSPropertyOp27
 70
     1
102
RTVSPropertyOp28
 70
     1
102
RTVSPropertyOp29
 70
     1
102
RTVSPropertyOp30
 70
     1
102
RTVSPropertyOp31
 70
     1
102
RTVSPropertyOp32
 70
     1
102
RTVSPropertyOp33
 70
     1
102
RTVSPropertyOp34
 70
     1
102
RTVSPropertyOp35
 70
     1
102
RTVSPropertyOp36
 70
     1
102
RTVSPropertyOp37
 70
     1
102
RTVSPropertyOp38
 70
     1
102
RTVSPropertyOp39
 70
     1
102
RTVSPropertyOp40
 70
     1
102
RTVSPropertyOp41
 70
     1
102
RTVSPropertyOp42
 70
     1
102
RTVSPropertyOp43
 70
     1
102
RTVSPropertyOp44
 70
     1
102
RTVSPropertyOp45
 70
     1
102
RTVSPropertyOp46
 70
     1
102
RTVSPropertyOp47
 70
     1
102
RTVSPropertyOp48
 70
     1
102
RTVSPropertyOp49
 70
     1
102
RTVSPropertyOp50
 70
     1
102
RTVSPropertyOp51
 70
     0
102
RTVSPropertyOp52
 70
     0
102
RTVSPropertyOp53
 70
     1
102
RTVSPropertyOp54
 70
     1
102
RTVSPropertyOp55
 70
     1
102
RTVSPropertyOp56
 70
     1
102
RTVSPropertyOp57
 70
     1
102
RTVSPropertyOp58
 70
     1
102
RTVSPropertyOp59
 70
     1
102
RTVSPropertyOp60
 70
     1
102
RTVSPropertyOp61
 70
     1
102
RTVSPropertyOp62
 70
     1
  0
XRECORD
  5
8A9A
102
{ACAD_REACTORS
330
8A99
102
}
330
8A99
100
AcDbXrecord
280
     1
102
RTVSPost2010Prop28
280
     0
102
RTVSPost2010PropOp28
 70
     1
102
RTVSPost2010Prop29
280
     1
102
RTVSPost2010PropOp29
 70
     1
102
RTVSPost2010Prop30
280
     1
102
RTVSPost2010PropOp30
 70
     1
102
RTVSPost2010Prop31
280
     0
102
RTVSPost2010PropOp31
 70
     1
102
RTVSPost2010Prop32
280
     0
102
RTVSPost2010PropOp32
 70
     1
102
RTVSPost2010Prop33
280
     0
102
RTVSPost2010PropOp33
 70
     1
102
RTVSPost2010Prop34
280
     0
102
RTVSPost2010PropOp34
 70
     1
102
RTVSPost2010Prop35
280
     0
102
RTVSPost2010PropOp35
 70
     1
102
RTVSPost2010Prop36
280
     0
102
RTVSPost2010PropOp36
 70
     1
102
RTVSPost2010Prop37
 90
       50
102
RTVSPost2010PropOp37
 70
     1
102
RTVSPost2010Prop38
140
0.0
102
RTVSPost2010PropOp38
 70
     1
102
RTVSPost2010Prop39
140
1.0
102
RTVSPost2010PropOp39
 70
     1
102
RTVSPost2010Prop40
 90
        0
102
RTVSPost2010PropOp40
 70
     1
102
RTVSPost2010Prop41ColorIndex
 90
       18
102
RTVSPost2010Prop41ColorRGB
 90
        0
102
RTVSPost2010PropOp41
 70
     1
102
RTVSPost2010Prop42
 90
       50
102
RTVSPost2010PropOp42
 70
     1
102
RTVSPost2010Prop43
 90
        3
102
RTVSPost2010PropOp43
 70
     1
102
RTVSPost2010Prop44ColorIndex
 90
        5
102
RTVSPost2010Prop44ColorRGB
 90
      255
102
RTVSPost2010PropOp44
 70
     1
102
RTVSPost2010Prop45
280
     0
102
RTVSPost2010PropOp45
 70
     1
102
RTVSPost2010Prop46
 90
       50
102
RTVSPost2010PropOp46
 70
     1
102
RTVSPost2010Prop47
 90
       50
102
RTVSPost2010PropOp47
 70
     1
102
RTVSPost2010Prop48
 90
       50
102
RTVSPost2010PropOp48
 70
     1
102
RTVSPost2010Prop49
280
     0
102
RTVSPost2010PropOp49
 70
     1
102
RTVSPost2010Prop50
 90
       50
102
RTVSPost2010PropOp50
 70
     1
102
RTVSPost2010Prop51ColorIndex
 90
      256
102
RTVSPost2010Prop51ColorRGB
 90
-16777216
102
RTVSPost2010PropOp51
 70
     0
102
RTVSPost2010Prop52
140
1.0
102
RTVSPost2010PropOp52
 70
     0
102
RTVSPost2010Prop53
 90
        2
102
RTVSPost2010PropOp53
 70
     1
102
RTVSPost2010Prop54
  1
strokes_ogs.tif
102
RTVSPost2010PropOp54
 70
     1
102
RTVSPost2010Prop55
280
     0
102
RTVSPost2010PropOp55
 70
     1
102
RTVSPost2010Prop56
140
1.0
102
RTVSPost2010PropOp56
 70
     1
102
RTVSPost2010Prop57
140
1.0
102
RTVSPost2010PropOp57
 70
     1
102
RTVSPropertyOp0
 70
     1
102
RTVSPropertyOp1
 70
     1
102
RTVSPropertyOp2
 70
     1
102
RTVSPropertyOp3
 70
     1
102
RTVSPropertyOp4
 70
     1
102
RTVSPropertyOp5
 70
     1
102
RTVSPropertyOp6
 70
     1
102
RTVSPropertyOp7
 70
     1
102
RTVSPropertyOp8
 70
     1
102
RTVSPropertyOp9
 70
     1
102
RTVSPropertyOp10
 70
     1
102
RTVSPropertyOp11
 70
     1
102
RTVSPropertyOp12
 70
     1
102
RTVSPropertyOp13
 70
     1
102
RTVSPropertyOp14
 70
     1
102
RTVSPropertyOp15
 70
     1
102
RTVSPropertyOp16
 70
     1
102
RTVSPropertyOp17
 70
     1
102
RTVSPropertyOp18
 70
     1
102
RTVSPropertyOp19
 70
     1
102
RTVSPropertyOp20
 70
     1
102
RTVSPropertyOp21
 70
     1
102
RTVSPropertyOp22
 70
     1
102
RTVSPropertyOp23
 70
     1
102
RTVSPropertyOp24
 70
     1
102
RTVSPropertyOp25
 70
     1
102
RTVSPropertyOp26
 70
     1
102
RTVSPropertyOp27
 70
     1
102
RTVSPropertyOp28
 70
     1
102
RTVSPropertyOp29
 70
     1
102
RTVSPropertyOp30
 70
     1
102
RTVSPropertyOp31
 70
     1
102
RTVSPropertyOp32
 70
     1
102
RTVSPropertyOp33
 70
     1
102
RTVSPropertyOp34
 70
     1
102
RTVSPropertyOp35
 70
     1
102
RTVSPropertyOp36
 70
     1
102
RTVSPropertyOp37
 70
     1
102
RTVSPropertyOp38
 70
     1
102
RTVSPropertyOp39
 70
     1
102
RTVSPropertyOp40
 70
     1
102
RTVSPropertyOp41
 70
     1
102
RTVSPropertyOp42
 70
     1
102
RTVSPropertyOp43
 70
     1
102
RTVSPropertyOp44
 70
     1
102
RTVSPropertyOp45
 70
     1
102
RTVSPropertyOp46
 70
     1
102
RTVSPropertyOp47
 70
     1
102
RTVSPropertyOp48
 70
     1
102
RTVSPropertyOp49
 70
     1
102
RTVSPropertyOp50
 70
     1
102
RTVSPropertyOp51
 70
     0
102
RTVSPropertyOp52
 70
     0
102
RTVSPropertyOp53
 70
     1
102
RTVSPropertyOp54
 70
     1
102
RTVSPropertyOp55
 70
     1
102
RTVSPropertyOp56
 70
     1
102
RTVSPropertyOp57
 70
     1
102
RTVSPropertyOp58
 70
     1
102
RTVSPropertyOp59
 70
     1
102
RTVSPropertyOp60
 70
     1
102
RTVSPropertyOp61
 70
     1
102
RTVSPropertyOp62
 70
     1
  0
XRECORD
  5
8A98
102
{ACAD_REACTORS
330
8A97
102
}
330
8A97
100
AcDbXrecord
280
     1
102
RTVSPost2010Prop28
280
     0
102
RTVSPost2010PropOp28
 70
     1
102
RTVSPost2010Prop29
280
     1
102
RTVSPost2010PropOp29
 70
     1
102
RTVSPost2010Prop30
280
     1
102
RTVSPost2010PropOp30
 70
     1
102
RTVSPost2010Prop31
280
     0
102
RTVSPost2010PropOp31
 70
     1
102
RTVSPost2010Prop32
280
     0
102
RTVSPost2010PropOp32
 70
     1
102
RTVSPost2010Prop33
280
     0
102
RTVSPost2010PropOp33
 70
     1
102
RTVSPost2010Prop34
280
     0
102
RTVSPost2010PropOp34
 70
     1
102
RTVSPost2010Prop35
280
     0
102
RTVSPost2010PropOp35
 70
     1
102
RTVSPost2010Prop36
280
     0
102
RTVSPost2010PropOp36
 70
     1
102
RTVSPost2010Prop37
 90
       50
102
RTVSPost2010PropOp37
 70
     1
102
RTVSPost2010Prop38
140
0.0
102
RTVSPost2010PropOp38
 70
     1
102
RTVSPost2010Prop39
140
1.0
102
RTVSPost2010PropOp39
 70
     1
102
RTVSPost2010Prop40
 90
        0
102
RTVSPost2010PropOp40
 70
     1
102
RTVSPost2010Prop41ColorIndex
 90
       18
102
RTVSPost2010Prop41ColorRGB
 90
        0
102
RTVSPost2010PropOp41
 70
     1
102
RTVSPost2010Prop42
 90
       50
102
RTVSPost2010PropOp42
 70
     1
102
RTVSPost2010Prop43
 90
        3
102
RTVSPost2010PropOp43
 70
     1
102
RTVSPost2010Prop44ColorIndex
 90
        5
102
RTVSPost2010Prop44ColorRGB
 90
      255
102
RTVSPost2010PropOp44
 70
     1
102
RTVSPost2010Prop45
280
     0
102
RTVSPost2010PropOp45
 70
     1
102
RTVSPost2010Prop46
 90
       50
102
RTVSPost2010PropOp46
 70
     1
102
RTVSPost2010Prop47
 90
       50
102
RTVSPost2010PropOp47
 70
     1
102
RTVSPost2010Prop48
 90
       50
102
RTVSPost2010PropOp48
 70
     1
102
RTVSPost2010Prop49
280
     0
102
RTVSPost2010PropOp49
 70
     1
102
RTVSPost2010Prop50
 90
       50
102
RTVSPost2010PropOp50
 70
     1
102
RTVSPost2010Prop51ColorIndex
 90
      256
102
RTVSPost2010Prop51ColorRGB
 90
-16777216
102
RTVSPost2010PropOp51
 70
     0
102
RTVSPost2010Prop52
140
1.0
102
RTVSPost2010PropOp52
 70
     0
102
RTVSPost2010Prop53
 90
        2
102
RTVSPost2010PropOp53
 70
     1
102
RTVSPost2010Prop54
  1
strokes_ogs.tif
102
RTVSPost2010PropOp54
 70
     1
102
RTVSPost2010Prop55
280
     0
102
RTVSPost2010PropOp55
 70
     1
102
RTVSPost2010Prop56
140
1.0
102
RTVSPost2010PropOp56
 70
     1
102
RTVSPost2010Prop57
140
1.0
102
RTVSPost2010PropOp57
 70
     1
102
RTVSPropertyOp0
 70
     1
102
RTVSPropertyOp1
 70
     1
102
RTVSPropertyOp2
 70
     1
102
RTVSPropertyOp3
 70
     1
102
RTVSPropertyOp4
 70
     1
102
RTVSPropertyOp5
 70
     1
102
RTVSPropertyOp6
 70
     1
102
RTVSPropertyOp7
 70
     1
102
RTVSPropertyOp8
 70
     1
102
RTVSPropertyOp9
 70
     1
102
RTVSPropertyOp10
 70
     1
102
RTVSPropertyOp11
 70
     1
102
RTVSPropertyOp12
 70
     1
102
RTVSPropertyOp13
 70
     1
102
RTVSPropertyOp14
 70
     1
102
RTVSPropertyOp15
 70
     1
102
RTVSPropertyOp16
 70
     1
102
RTVSPropertyOp17
 70
     1
102
RTVSPropertyOp18
 70
     1
102
RTVSPropertyOp19
 70
     1
102
RTVSPropertyOp20
 70
     1
102
RTVSPropertyOp21
 70
     1
102
RTVSPropertyOp22
 70
     1
102
RTVSPropertyOp23
 70
     1
102
RTVSPropertyOp24
 70
     1
102
RTVSPropertyOp25
 70
     1
102
RTVSPropertyOp26
 70
     1
102
RTVSPropertyOp27
 70
     1
102
RTVSPropertyOp28
 70
     1
102
RTVSPropertyOp29
 70
     1
102
RTVSPropertyOp30
 70
     1
102
RTVSPropertyOp31
 70
     1
102
RTVSPropertyOp32
 70
     1
102
RTVSPropertyOp33
 70
     1
102
RTVSPropertyOp34
 70
     1
102
RTVSPropertyOp35
 70
     1
102
RTVSPropertyOp36
 70
     1
102
RTVSPropertyOp37
 70
     1
102
RTVSPropertyOp38
 70
     1
102
RTVSPropertyOp39
 70
     1
102
RTVSPropertyOp40
 70
     1
102
RTVSPropertyOp41
 70
     1
102
RTVSPropertyOp42
 70
     1
102
RTVSPropertyOp43
 70
     1
102
RTVSPropertyOp44
 70
     1
102
RTVSPropertyOp45
 70
     1
102
RTVSPropertyOp46
 70
     1
102
RTVSPropertyOp47
 70
     1
102
RTVSPropertyOp48
 70
     1
102
RTVSPropertyOp49
 70
     1
102
RTVSPropertyOp50
 70
     1
102
RTVSPropertyOp51
 70
     0
102
RTVSPropertyOp52
 70
     0
102
RTVSPropertyOp53
 70
     1
102
RTVSPropertyOp54
 70
     1
102
RTVSPropertyOp55
 70
     1
102
RTVSPropertyOp56
 70
     1
102
RTVSPropertyOp57
 70
     1
102
RTVSPropertyOp58
 70
     1
102
RTVSPropertyOp59
 70
     1
102
RTVSPropertyOp60
 70
     1
102
RTVSPropertyOp61
 70
     1
102
RTVSPropertyOp62
 70
     1
  0
XRECORD
  5
8A92
102
{ACAD_REACTORS
330
8A91
102
}
330
8A91
100
AcDbXrecord
280
     1
102
RTVSPost2010Prop28
280
     0
102
RTVSPost2010PropOp28
 70
     1
102
RTVSPost2010Prop29
280
     1
102
RTVSPost2010PropOp29
 70
     1
102
RTVSPost2010Prop30
280
     1
102
RTVSPost2010PropOp30
 70
     1
102
RTVSPost2010Prop31
280
     0
102
RTVSPost2010PropOp31
 70
     1
102
RTVSPost2010Prop32
280
     0
102
RTVSPost2010PropOp32
 70
     1
102
RTVSPost2010Prop33
280
     0
102
RTVSPost2010PropOp33
 70
     1
102
RTVSPost2010Prop34
280
     0
102
RTVSPost2010PropOp34
 70
     1
102
RTVSPost2010Prop35
280
     0
102
RTVSPost2010PropOp35
 70
     1
102
RTVSPost2010Prop36
280
     0
102
RTVSPost2010PropOp36
 70
     1
102
RTVSPost2010Prop37
 90
       50
102
RTVSPost2010PropOp37
 70
     1
102
RTVSPost2010Prop38
140
0.0
102
RTVSPost2010PropOp38
 70
     1
102
RTVSPost2010Prop39
140
1.0
102
RTVSPost2010PropOp39
 70
     1
102
RTVSPost2010Prop40
 90
        0
102
RTVSPost2010PropOp40
 70
     1
102
RTVSPost2010Prop41ColorIndex
 90
       18
102
RTVSPost2010Prop41ColorRGB
 90
        0
102
RTVSPost2010PropOp41
 70
     1
102
RTVSPost2010Prop42
 90
       50
102
RTVSPost2010PropOp42
 70
     1
102
RTVSPost2010Prop43
 90
        3
102
RTVSPost2010PropOp43
 70
     1
102
RTVSPost2010Prop44ColorIndex
 90
        5
102
RTVSPost2010Prop44ColorRGB
 90
      255
102
RTVSPost2010PropOp44
 70
     1
102
RTVSPost2010Prop45
280
     0
102
RTVSPost2010PropOp45
 70
     1
102
RTVSPost2010Prop46
 90
       50
102
RTVSPost2010PropOp46
 70
     1
102
RTVSPost2010Prop47
 90
       50
102
RTVSPost2010PropOp47
 70
     1
102
RTVSPost2010Prop48
 90
       50
102
RTVSPost2010PropOp48
 70
     1
102
RTVSPost2010Prop49
280
     0
102
RTVSPost2010PropOp49
 70
     1
102
RTVSPost2010Prop50
 90
       50
102
RTVSPost2010PropOp50
 70
     1
102
RTVSPost2010Prop51ColorIndex
 90
      256
102
RTVSPost2010Prop51ColorRGB
 90
-16777216
102
RTVSPost2010PropOp51
 70
     0
102
RTVSPost2010Prop52
140
1.0
102
RTVSPost2010PropOp52
 70
     0
102
RTVSPost2010Prop53
 90
        2
102
RTVSPost2010PropOp53
 70
     1
102
RTVSPost2010Prop54
  1
strokes_ogs.tif
102
RTVSPost2010PropOp54
 70
     1
102
RTVSPost2010Prop55
280
     0
102
RTVSPost2010PropOp55
 70
     1
102
RTVSPost2010Prop56
140
1.0
102
RTVSPost2010PropOp56
 70
     1
102
RTVSPost2010Prop57
140
1.0
102
RTVSPost2010PropOp57
 70
     1
102
RTVSPropertyOp0
 70
     1
102
RTVSPropertyOp1
 70
     1
102
RTVSPropertyOp2
 70
     1
102
RTVSPropertyOp3
 70
     1
102
RTVSPropertyOp4
 70
     1
102
RTVSPropertyOp5
 70
     1
102
RTVSPropertyOp6
 70
     1
102
RTVSPropertyOp7
 70
     1
102
RTVSPropertyOp8
 70
     1
102
RTVSPropertyOp9
 70
     1
102
RTVSPropertyOp10
 70
     1
102
RTVSPropertyOp11
 70
     1
102
RTVSPropertyOp12
 70
     1
102
RTVSPropertyOp13
 70
     1
102
RTVSPropertyOp14
 70
     1
102
RTVSPropertyOp15
 70
     1
102
RTVSPropertyOp16
 70
     1
102
RTVSPropertyOp17
 70
     1
102
RTVSPropertyOp18
 70
     1
102
RTVSPropertyOp19
 70
     1
102
RTVSPropertyOp20
 70
     1
102
RTVSPropertyOp21
 70
     1
102
RTVSPropertyOp22
 70
     1
102
RTVSPropertyOp23
 70
     1
102
RTVSPropertyOp24
 70
     1
102
RTVSPropertyOp25
 70
     1
102
RTVSPropertyOp26
 70
     1
102
RTVSPropertyOp27
 70
     1
102
RTVSPropertyOp28
 70
     1
102
RTVSPropertyOp29
 70
     1
102
RTVSPropertyOp30
 70
     1
102
RTVSPropertyOp31
 70
     1
102
RTVSPropertyOp32
 70
     1
102
RTVSPropertyOp33
 70
     1
102
RTVSPropertyOp34
 70
     1
102
RTVSPropertyOp35
 70
     1
102
RTVSPropertyOp36
 70
     1
102
RTVSPropertyOp37
 70
     1
102
RTVSPropertyOp38
 70
     1
102
RTVSPropertyOp39
 70
     1
102
RTVSPropertyOp40
 70
     1
102
RTVSPropertyOp41
 70
     1
102
RTVSPropertyOp42
 70
     1
102
RTVSPropertyOp43
 70
     1
102
RTVSPropertyOp44
 70
     1
102
RTVSPropertyOp45
 70
     1
102
RTVSPropertyOp46
 70
     1
102
RTVSPropertyOp47
 70
     1
102
RTVSPropertyOp48
 70
     1
102
RTVSPropertyOp49
 70
     1
102
RTVSPropertyOp50
 70
     1
102
RTVSPropertyOp51
 70
     0
102
RTVSPropertyOp52
 70
     0
102
RTVSPropertyOp53
 70
     1
102
RTVSPropertyOp54
 70
     1
102
RTVSPropertyOp55
 70
     1
102
RTVSPropertyOp56
 70
     1
102
RTVSPropertyOp57
 70
     1
102
RTVSPropertyOp58
 70
     1
102
RTVSPropertyOp59
 70
     1
102
RTVSPropertyOp60
 70
     1
102
RTVSPropertyOp61
 70
     1
102
RTVSPropertyOp62
 70
     1
  0
XRECORD
  5
8A94
102
{ACAD_REACTORS
330
8A93
102
}
330
8A93
100
AcDbXrecord
280
     1
102
RTVSPost2010Prop28
280
     0
102
RTVSPost2010PropOp28
 70
     1
102
RTVSPost2010Prop29
280
     1
102
RTVSPost2010PropOp29
 70
     1
102
RTVSPost2010Prop30
280
     1
102
RTVSPost2010PropOp30
 70
     1
102
RTVSPost2010Prop31
280
     0
102
RTVSPost2010PropOp31
 70
     1
102
RTVSPost2010Prop32
280
     0
102
RTVSPost2010PropOp32
 70
     1
102
RTVSPost2010Prop33
280
     0
102
RTVSPost2010PropOp33
 70
     1
102
RTVSPost2010Prop34
280
     0
102
RTVSPost2010PropOp34
 70
     1
102
RTVSPost2010Prop35
280
     0
102
RTVSPost2010PropOp35
 70
     1
102
RTVSPost2010Prop36
280
     0
102
RTVSPost2010PropOp36
 70
     1
102
RTVSPost2010Prop37
 90
       50
102
RTVSPost2010PropOp37
 70
     1
102
RTVSPost2010Prop38
140
0.0
102
RTVSPost2010PropOp38
 70
     1
102
RTVSPost2010Prop39
140
1.0
102
RTVSPost2010PropOp39
 70
     1
102
RTVSPost2010Prop40
 90
        0
102
RTVSPost2010PropOp40
 70
     1
102
RTVSPost2010Prop41ColorIndex
 90
       18
102
RTVSPost2010Prop41ColorRGB
 90
        0
102
RTVSPost2010PropOp41
 70
     1
102
RTVSPost2010Prop42
 90
       50
102
RTVSPost2010PropOp42
 70
     1
102
RTVSPost2010Prop43
 90
        3
102
RTVSPost2010PropOp43
 70
     1
102
RTVSPost2010Prop44ColorIndex
 90
        5
102
RTVSPost2010Prop44ColorRGB
 90
      255
102
RTVSPost2010PropOp44
 70
     1
102
RTVSPost2010Prop45
280
     0
102
RTVSPost2010PropOp45
 70
     1
102
RTVSPost2010Prop46
 90
       50
102
RTVSPost2010PropOp46
 70
     1
102
RTVSPost2010Prop47
 90
       50
102
RTVSPost2010PropOp47
 70
     1
102
RTVSPost2010Prop48
 90
       50
102
RTVSPost2010PropOp48
 70
     1
102
RTVSPost2010Prop49
280
     0
102
RTVSPost2010PropOp49
 70
     1
102
RTVSPost2010Prop50
 90
       50
102
RTVSPost2010PropOp50
 70
     1
102
RTVSPost2010Prop51ColorIndex
 90
      256
102
RTVSPost2010Prop51ColorRGB
 90
-16777216
102
RTVSPost2010PropOp51
 70
     0
102
RTVSPost2010Prop52
140
1.0
102
RTVSPost2010PropOp52
 70
     0
102
RTVSPost2010Prop53
 90
        2
102
RTVSPost2010PropOp53
 70
     1
102
RTVSPost2010Prop54
  1
strokes_ogs.tif
102
RTVSPost2010PropOp54
 70
     1
102
RTVSPost2010Prop55
280
     0
102
RTVSPost2010PropOp55
 70
     1
102
RTVSPost2010Prop56
140
1.0
102
RTVSPost2010PropOp56
 70
     1
102
RTVSPost2010Prop57
140
1.0
102
RTVSPost2010PropOp57
 70
     1
102
RTVSPropertyOp0
 70
     1
102
RTVSPropertyOp1
 70
     1
102
RTVSPropertyOp2
 70
     1
102
RTVSPropertyOp3
 70
     1
102
RTVSPropertyOp4
 70
     1
102
RTVSPropertyOp5
 70
     1
102
RTVSPropertyOp6
 70
     1
102
RTVSPropertyOp7
 70
     1
102
RTVSPropertyOp8
 70
     1
102
RTVSPropertyOp9
 70
     1
102
RTVSPropertyOp10
 70
     1
102
RTVSPropertyOp11
 70
     1
102
RTVSPropertyOp12
 70
     1
102
RTVSPropertyOp13
 70
     1
102
RTVSPropertyOp14
 70
     1
102
RTVSPropertyOp15
 70
     1
102
RTVSPropertyOp16
 70
     1
102
RTVSPropertyOp17
 70
     1
102
RTVSPropertyOp18
 70
     1
102
RTVSPropertyOp19
 70
     1
102
RTVSPropertyOp20
 70
     1
102
RTVSPropertyOp21
 70
     1
102
RTVSPropertyOp22
 70
     1
102
RTVSPropertyOp23
 70
     1
102
RTVSPropertyOp24
 70
     1
102
RTVSPropertyOp25
 70
     1
102
RTVSPropertyOp26
 70
     1
102
RTVSPropertyOp27
 70
     1
102
RTVSPropertyOp28
 70
     1
102
RTVSPropertyOp29
 70
     1
102
RTVSPropertyOp30
 70
     1
102
RTVSPropertyOp31
 70
     1
102
RTVSPropertyOp32
 70
     1
102
RTVSPropertyOp33
 70
     1
102
RTVSPropertyOp34
 70
     1
102
RTVSPropertyOp35
 70
     1
102
RTVSPropertyOp36
 70
     1
102
RTVSPropertyOp37
 70
     1
102
RTVSPropertyOp38
 70
     1
102
RTVSPropertyOp39
 70
     1
102
RTVSPropertyOp40
 70
     1
102
RTVSPropertyOp41
 70
     1
102
RTVSPropertyOp42
 70
     1
102
RTVSPropertyOp43
 70
     1
102
RTVSPropertyOp44
 70
     1
102
RTVSPropertyOp45
 70
     1
102
RTVSPropertyOp46
 70
     1
102
RTVSPropertyOp47
 70
     1
102
RTVSPropertyOp48
 70
     1
102
RTVSPropertyOp49
 70
     1
102
RTVSPropertyOp50
 70
     1
102
RTVSPropertyOp51
 70
     0
102
RTVSPropertyOp52
 70
     0
102
RTVSPropertyOp53
 70
     1
102
RTVSPropertyOp54
 70
     1
102
RTVSPropertyOp55
 70
     1
102
RTVSPropertyOp56
 70
     1
102
RTVSPropertyOp57
 70
     1
102
RTVSPropertyOp58
 70
     1
102
RTVSPropertyOp59
 70
     1
102
RTVSPropertyOp60
 70
     1
102
RTVSPropertyOp61
 70
     1
102
RTVSPropertyOp62
 70
     1
  0
XRECORD
  5
8A82
102
{ACAD_REACTORS
330
8A81
102
}
330
8A81
100
AcDbXrecord
280
     1
102
RTVSPost2010Prop28
280
     0
102
RTVSPost2010PropOp28
 70
     1
102
RTVSPost2010Prop29
280
     1
102
RTVSPost2010PropOp29
 70
     1
102
RTVSPost2010Prop30
280
     1
102
RTVSPost2010PropOp30
 70
     1
102
RTVSPost2010Prop31
280
     0
102
RTVSPost2010PropOp31
 70
     1
102
RTVSPost2010Prop32
280
     0
102
RTVSPost2010PropOp32
 70
     1
102
RTVSPost2010Prop33
280
     0
102
RTVSPost2010PropOp33
 70
     1
102
RTVSPost2010Prop34
280
     0
102
RTVSPost2010PropOp34
 70
     1
102
RTVSPost2010Prop35
280
     0
102
RTVSPost2010PropOp35
 70
     1
102
RTVSPost2010Prop36
280
     0
102
RTVSPost2010PropOp36
 70
     1
102
RTVSPost2010Prop37
 90
       50
102
RTVSPost2010PropOp37
 70
     1
102
RTVSPost2010Prop38
140
0.0
102
RTVSPost2010PropOp38
 70
     1
102
RTVSPost2010Prop39
140
1.0
102
RTVSPost2010PropOp39
 70
     1
102
RTVSPost2010Prop40
 90
        0
102
RTVSPost2010PropOp40
 70
     1
102
RTVSPost2010Prop41ColorIndex
 90
       18
102
RTVSPost2010Prop41ColorRGB
 90
        0
102
RTVSPost2010PropOp41
 70
     1
102
RTVSPost2010Prop42
 90
       50
102
RTVSPost2010PropOp42
 70
     1
102
RTVSPost2010Prop43
 90
        3
102
RTVSPost2010PropOp43
 70
     1
102
RTVSPost2010Prop44ColorIndex
 90
        5
102
RTVSPost2010Prop44ColorRGB
 90
      255
102
RTVSPost2010PropOp44
 70
     1
102
RTVSPost2010Prop45
280
     0
102
RTVSPost2010PropOp45
 70
     1
102
RTVSPost2010Prop46
 90
       50
102
RTVSPost2010PropOp46
 70
     1
102
RTVSPost2010Prop47
 90
       50
102
RTVSPost2010PropOp47
 70
     1
102
RTVSPost2010Prop48
 90
       50
102
RTVSPost2010PropOp48
 70
     1
102
RTVSPost2010Prop49
280
     0
102
RTVSPost2010PropOp49
 70
     1
102
RTVSPost2010Prop50
 90
       50
102
RTVSPost2010PropOp50
 70
     1
102
RTVSPost2010Prop51ColorIndex
 90
      256
102
RTVSPost2010Prop51ColorRGB
 90
-16777216
102
RTVSPost2010PropOp51
 70
     0
102
RTVSPost2010Prop52
140
1.0
102
RTVSPost2010PropOp52
 70
     0
102
RTVSPost2010Prop53
 90
        2
102
RTVSPost2010PropOp53
 70
     1
102
RTVSPost2010Prop54
  1
strokes_ogs.tif
102
RTVSPost2010PropOp54
 70
     1
102
RTVSPost2010Prop55
280
     0
102
RTVSPost2010PropOp55
 70
     1
102
RTVSPost2010Prop56
140
1.0
102
RTVSPost2010PropOp56
 70
     1
102
RTVSPost2010Prop57
140
1.0
102
RTVSPost2010PropOp57
 70
     1
102
RTVSPropertyOp0
 70
     1
102
RTVSPropertyOp1
 70
     1
102
RTVSPropertyOp2
 70
     1
102
RTVSPropertyOp3
 70
     1
102
RTVSPropertyOp4
 70
     1
102
RTVSPropertyOp5
 70
     1
102
RTVSPropertyOp6
 70
     1
102
RTVSPropertyOp7
 70
     1
102
RTVSPropertyOp8
 70
     1
102
RTVSPropertyOp9
 70
     1
102
RTVSPropertyOp10
 70
     1
102
RTVSPropertyOp11
 70
     1
102
RTVSPropertyOp12
 70
     1
102
RTVSPropertyOp13
 70
     1
102
RTVSPropertyOp14
 70
     1
102
RTVSPropertyOp15
 70
     1
102
RTVSPropertyOp16
 70
     1
102
RTVSPropertyOp17
 70
     1
102
RTVSPropertyOp18
 70
     1
102
RTVSPropertyOp19
 70
     1
102
RTVSPropertyOp20
 70
     1
102
RTVSPropertyOp21
 70
     1
102
RTVSPropertyOp22
 70
     1
102
RTVSPropertyOp23
 70
     1
102
RTVSPropertyOp24
 70
     1
102
RTVSPropertyOp25
 70
     1
102
RTVSPropertyOp26
 70
     1
102
RTVSPropertyOp27
 70
     1
102
RTVSPropertyOp28
 70
     1
102
RTVSPropertyOp29
 70
     1
102
RTVSPropertyOp30
 70
     1
102
RTVSPropertyOp31
 70
     1
102
RTVSPropertyOp32
 70
     1
102
RTVSPropertyOp33
 70
     1
102
RTVSPropertyOp34
 70
     1
102
RTVSPropertyOp35
 70
     1
102
RTVSPropertyOp36
 70
     1
102
RTVSPropertyOp37
 70
     1
102
RTVSPropertyOp38
 70
     1
102
RTVSPropertyOp39
 70
     1
102
RTVSPropertyOp40
 70
     1
102
RTVSPropertyOp41
 70
     1
102
RTVSPropertyOp42
 70
     1
102
RTVSPropertyOp43
 70
     1
102
RTVSPropertyOp44
 70
     1
102
RTVSPropertyOp45
 70
     1
102
RTVSPropertyOp46
 70
     1
102
RTVSPropertyOp47
 70
     1
102
RTVSPropertyOp48
 70
     1
102
RTVSPropertyOp49
 70
     1
102
RTVSPropertyOp50
 70
     1
102
RTVSPropertyOp51
 70
     0
102
RTVSPropertyOp52
 70
     0
102
RTVSPropertyOp53
 70
     1
102
RTVSPropertyOp54
 70
     1
102
RTVSPropertyOp55
 70
     1
102
RTVSPropertyOp56
 70
     1
102
RTVSPropertyOp57
 70
     1
102
RTVSPropertyOp58
 70
     1
102
RTVSPropertyOp59
 70
     1
102
RTVSPropertyOp60
 70
     1
102
RTVSPropertyOp61
 70
     1
102
RTVSPropertyOp62
 70
     1
  0
XRECORD
  5
8A76
102
{ACAD_REACTORS
330
8A75
102
}
330
8A75
100
AcDbXrecord
280
     1
102
RTVSPost2010Prop28
280
     0
102
RTVSPost2010PropOp28
 70
     1
102
RTVSPost2010Prop29
280
     1
102
RTVSPost2010PropOp29
 70
     1
102
RTVSPost2010Prop30
280
     1
102
RTVSPost2010PropOp30
 70
     1
102
RTVSPost2010Prop31
280
     0
102
RTVSPost2010PropOp31
 70
     1
102
RTVSPost2010Prop32
280
     0
102
RTVSPost2010PropOp32
 70
     1
102
RTVSPost2010Prop33
280
     0
102
RTVSPost2010PropOp33
 70
     1
102
RTVSPost2010Prop34
280
     0
102
RTVSPost2010PropOp34
 70
     1
102
RTVSPost2010Prop35
280
     0
102
RTVSPost2010PropOp35
 70
     1
102
RTVSPost2010Prop36
280
     0
102
RTVSPost2010PropOp36
 70
     1
102
RTVSPost2010Prop37
 90
       50
102
RTVSPost2010PropOp37
 70
     1
102
RTVSPost2010Prop38
140
0.0
102
RTVSPost2010PropOp38
 70
     1
102
RTVSPost2010Prop39
140
1.0
102
RTVSPost2010PropOp39
 70
     1
102
RTVSPost2010Prop40
 90
        0
102
RTVSPost2010PropOp40
 70
     1
102
RTVSPost2010Prop41ColorIndex
 90
       18
102
RTVSPost2010Prop41ColorRGB
 90
        0
102
RTVSPost2010PropOp41
 70
     1
102
RTVSPost2010Prop42
 90
       50
102
RTVSPost2010PropOp42
 70
     1
102
RTVSPost2010Prop43
 90
        3
102
RTVSPost2010PropOp43
 70
     1
102
RTVSPost2010Prop44ColorIndex
 90
        5
102
RTVSPost2010Prop44ColorRGB
 90
      255
102
RTVSPost2010PropOp44
 70
     1
102
RTVSPost2010Prop45
280
     0
102
RTVSPost2010PropOp45
 70
     1
102
RTVSPost2010Prop46
 90
       50
102
RTVSPost2010PropOp46
 70
     1
102
RTVSPost2010Prop47
 90
       50
102
RTVSPost2010PropOp47
 70
     1
102
RTVSPost2010Prop48
 90
       50
102
RTVSPost2010PropOp48
 70
     1
102
RTVSPost2010Prop49
280
     0
102
RTVSPost2010PropOp49
 70
     1
102
RTVSPost2010Prop50
 90
       50
102
RTVSPost2010PropOp50
 70
     1
102
RTVSPost2010Prop51ColorIndex
 90
      256
102
RTVSPost2010Prop51ColorRGB
 90
-16777216
102
RTVSPost2010PropOp51
 70
     0
102
RTVSPost2010Prop52
140
1.0
102
RTVSPost2010PropOp52
 70
     0
102
RTVSPost2010Prop53
 90
        2
102
RTVSPost2010PropOp53
 70
     1
102
RTVSPost2010Prop54
  1
strokes_ogs.tif
102
RTVSPost2010PropOp54
 70
     1
102
RTVSPost2010Prop55
280
     0
102
RTVSPost2010PropOp55
 70
     1
102
RTVSPost2010Prop56
140
1.0
102
RTVSPost2010PropOp56
 70
     1
102
RTVSPost2010Prop57
140
1.0
102
RTVSPost2010PropOp57
 70
     1
102
RTVSPropertyOp0
 70
     1
102
RTVSPropertyOp1
 70
     1
102
RTVSPropertyOp2
 70
     1
102
RTVSPropertyOp3
 70
     1
102
RTVSPropertyOp4
 70
     1
102
RTVSPropertyOp5
 70
     1
102
RTVSPropertyOp6
 70
     1
102
RTVSPropertyOp7
 70
     1
102
RTVSPropertyOp8
 70
     1
102
RTVSPropertyOp9
 70
     1
102
RTVSPropertyOp10
 70
     1
102
RTVSPropertyOp11
 70
     1
102
RTVSPropertyOp12
 70
     1
102
RTVSPropertyOp13
 70
     1
102
RTVSPropertyOp14
 70
     1
102
RTVSPropertyOp15
 70
     1
102
RTVSPropertyOp16
 70
     1
102
RTVSPropertyOp17
 70
     1
102
RTVSPropertyOp18
 70
     1
102
RTVSPropertyOp19
 70
     1
102
RTVSPropertyOp20
 70
     1
102
RTVSPropertyOp21
 70
     1
102
RTVSPropertyOp22
 70
     1
102
RTVSPropertyOp23
 70
     1
102
RTVSPropertyOp24
 70
     1
102
RTVSPropertyOp25
 70
     1
102
RTVSPropertyOp26
 70
     1
102
RTVSPropertyOp27
 70
     1
102
RTVSPropertyOp28
 70
     1
102
RTVSPropertyOp29
 70
     1
102
RTVSPropertyOp30
 70
     1
102
RTVSPropertyOp31
 70
     1
102
RTVSPropertyOp32
 70
     1
102
RTVSPropertyOp33
 70
     1
102
RTVSPropertyOp34
 70
     1
102
RTVSPropertyOp35
 70
     1
102
RTVSPropertyOp36
 70
     1
102
RTVSPropertyOp37
 70
     1
102
RTVSPropertyOp38
 70
     1
102
RTVSPropertyOp39
 70
     1
102
RTVSPropertyOp40
 70
     1
102
RTVSPropertyOp41
 70
     1
102
RTVSPropertyOp42
 70
     1
102
RTVSPropertyOp43
 70
     1
102
RTVSPropertyOp44
 70
     1
102
RTVSPropertyOp45
 70
     1
102
RTVSPropertyOp46
 70
     1
102
RTVSPropertyOp47
 70
     1
102
RTVSPropertyOp48
 70
     1
102
RTVSPropertyOp49
 70
     1
102
RTVSPropertyOp50
 70
     1
102
RTVSPropertyOp51
 70
     0
102
RTVSPropertyOp52
 70
     0
102
RTVSPropertyOp53
 70
     1
102
RTVSPropertyOp54
 70
     1
102
RTVSPropertyOp55
 70
     1
102
RTVSPropertyOp56
 70
     1
102
RTVSPropertyOp57
 70
     1
102
RTVSPropertyOp58
 70
     1
102
RTVSPropertyOp59
 70
     1
102
RTVSPropertyOp60
 70
     1
102
RTVSPropertyOp61
 70
     1
102
RTVSPropertyOp62
 70
     1
  0
XRECORD
  5
8A96
102
{ACAD_REACTORS
330
8A95
102
}
330
8A95
100
AcDbXrecord
280
     1
102
RTVSPost2010Prop28
280
     0
102
RTVSPost2010PropOp28
 70
     1
102
RTVSPost2010Prop29
280
     1
102
RTVSPost2010PropOp29
 70
     1
102
RTVSPost2010Prop30
280
     1
102
RTVSPost2010PropOp30
 70
     1
102
RTVSPost2010Prop31
280
     0
102
RTVSPost2010PropOp31
 70
     1
102
RTVSPost2010Prop32
280
     0
102
RTVSPost2010PropOp32
 70
     1
102
RTVSPost2010Prop33
280
     0
102
RTVSPost2010PropOp33
 70
     1
102
RTVSPost2010Prop34
280
     0
102
RTVSPost2010PropOp34
 70
     1
102
RTVSPost2010Prop35
280
     0
102
RTVSPost2010PropOp35
 70
     1
102
RTVSPost2010Prop36
280
     0
102
RTVSPost2010PropOp36
 70
     1
102
RTVSPost2010Prop37
 90
       50
102
RTVSPost2010PropOp37
 70
     1
102
RTVSPost2010Prop38
140
0.0
102
RTVSPost2010PropOp38
 70
     1
102
RTVSPost2010Prop39
140
1.0
102
RTVSPost2010PropOp39
 70
     1
102
RTVSPost2010Prop40
 90
        0
102
RTVSPost2010PropOp40
 70
     1
102
RTVSPost2010Prop41ColorIndex
 90
       18
102
RTVSPost2010Prop41ColorRGB
 90
        0
102
RTVSPost2010PropOp41
 70
     1
102
RTVSPost2010Prop42
 90
       50
102
RTVSPost2010PropOp42
 70
     1
102
RTVSPost2010Prop43
 90
        3
102
RTVSPost2010PropOp43
 70
     1
102
RTVSPost2010Prop44ColorIndex
 90
        5
102
RTVSPost2010Prop44ColorRGB
 90
      255
102
RTVSPost2010PropOp44
 70
     1
102
RTVSPost2010Prop45
280
     0
102
RTVSPost2010PropOp45
 70
     1
102
RTVSPost2010Prop46
 90
       50
102
RTVSPost2010PropOp46
 70
     1
102
RTVSPost2010Prop47
 90
       50
102
RTVSPost2010PropOp47
 70
     1
102
RTVSPost2010Prop48
 90
       50
102
RTVSPost2010PropOp48
 70
     1
102
RTVSPost2010Prop49
280
     0
102
RTVSPost2010PropOp49
 70
     1
102
RTVSPost2010Prop50
 90
       50
102
RTVSPost2010PropOp50
 70
     1
102
RTVSPost2010Prop51ColorIndex
 90
      256
102
RTVSPost2010Prop51ColorRGB
 90
-16777216
102
RTVSPost2010PropOp51
 70
     0
102
RTVSPost2010Prop52
140
1.0
102
RTVSPost2010PropOp52
 70
     0
102
RTVSPost2010Prop53
 90
        2
102
RTVSPost2010PropOp53
 70
     1
102
RTVSPost2010Prop54
  1
strokes_ogs.tif
102
RTVSPost2010PropOp54
 70
     1
102
RTVSPost2010Prop55
280
     0
102
RTVSPost2010PropOp55
 70
     1
102
RTVSPost2010Prop56
140
1.0
102
RTVSPost2010PropOp56
 70
     1
102
RTVSPost2010Prop57
140
1.0
102
RTVSPost2010PropOp57
 70
     1
102
RTVSPropertyOp0
 70
     1
102
RTVSPropertyOp1
 70
     1
102
RTVSPropertyOp2
 70
     1
102
RTVSPropertyOp3
 70
     1
102
RTVSPropertyOp4
 70
     1
102
RTVSPropertyOp5
 70
     1
102
RTVSPropertyOp6
 70
     1
102
RTVSPropertyOp7
 70
     1
102
RTVSPropertyOp8
 70
     1
102
RTVSPropertyOp9
 70
     1
102
RTVSPropertyOp10
 70
     1
102
RTVSPropertyOp11
 70
     1
102
RTVSPropertyOp12
 70
     1
102
RTVSPropertyOp13
 70
     1
102
RTVSPropertyOp14
 70
     1
102
RTVSPropertyOp15
 70
     1
102
RTVSPropertyOp16
 70
     1
102
RTVSPropertyOp17
 70
     1
102
RTVSPropertyOp18
 70
     1
102
RTVSPropertyOp19
 70
     1
102
RTVSPropertyOp20
 70
     1
102
RTVSPropertyOp21
 70
     1
102
RTVSPropertyOp22
 70
     1
102
RTVSPropertyOp23
 70
     1
102
RTVSPropertyOp24
 70
     1
102
RTVSPropertyOp25
 70
     1
102
RTVSPropertyOp26
 70
     1
102
RTVSPropertyOp27
 70
     1
102
RTVSPropertyOp28
 70
     1
102
RTVSPropertyOp29
 70
     1
102
RTVSPropertyOp30
 70
     1
102
RTVSPropertyOp31
 70
     1
102
RTVSPropertyOp32
 70
     1
102
RTVSPropertyOp33
 70
     1
102
RTVSPropertyOp34
 70
     1
102
RTVSPropertyOp35
 70
     1
102
RTVSPropertyOp36
 70
     1
102
RTVSPropertyOp37
 70
     1
102
RTVSPropertyOp38
 70
     1
102
RTVSPropertyOp39
 70
     1
102
RTVSPropertyOp40
 70
     1
102
RTVSPropertyOp41
 70
     1
102
RTVSPropertyOp42
 70
     1
102
RTVSPropertyOp43
 70
     1
102
RTVSPropertyOp44
 70
     1
102
RTVSPropertyOp45
 70
     1
102
RTVSPropertyOp46
 70
     1
102
RTVSPropertyOp47
 70
     1
102
RTVSPropertyOp48
 70
     1
102
RTVSPropertyOp49
 70
     1
102
RTVSPropertyOp50
 70
     1
102
RTVSPropertyOp51
 70
     0
102
RTVSPropertyOp52
 70
     0
102
RTVSPropertyOp53
 70
     1
102
RTVSPropertyOp54
 70
     1
102
RTVSPropertyOp55
 70
     1
102
RTVSPropertyOp56
 70
     1
102
RTVSPropertyOp57
 70
     1
102
RTVSPropertyOp58
 70
     1
102
RTVSPropertyOp59
 70
     1
102
RTVSPropertyOp60
 70
     1
102
RTVSPropertyOp61
 70
     1
102
RTVSPropertyOp62
 70
     1
  0
ENDSEC
  0
EOF
