  0
SECTION
  2
HEADER
  9
$ACADVER
  1
AC1015
  9
$ACADMAINTVER
 70
    18
  9
$DWGCODEPAGE
  3
ANSI_1252
  9
$INSBASE
 10
0.0
 20
0.0
 30
0.0
  9
$EXTMIN
 10
-203.6169426185276
 20
-235.167296945545
 30
-0.0015258207003583
  9
$EXTMAX
 10
258.6740120205493
 20
262.113739664566
 30
0.0000000349246037
  9
$LIMMIN
 10
0.0
 20
0.0
  9
$LIMMAX
 10
420.0
 20
297.0
  9
$ORTHOMODE
 70
     0
  9
$REGENMODE
 70
     1
  9
$FILLMODE
 70
     1
  9
$QTEXTMODE
 70
     0
  9
$MIRRTEXT
 70
     0
  9
$LTSCALE
 40
1.0
  9
$ATTMODE
 70
     1
  9
$TEXTSIZE
 40
2.5
  9
$TRACEWID
 40
1.0
  9
$TEXTSTYLE
  7
Standard
  9
$CLAYER
  8
0
  9
$CELTYPE
  6
ByLayer
  9
$CECOLOR
 62
   256
  9
$CELTSCALE
 40
1.0
  9
$DISPSILH
 70
     0
  9
$DIMSCALE
 40
1.0
  9
$DIMASZ
 40
2.5
  9
$DIMEXO
 40
0.625
  9
$DIMDLI
 40
3.75
  9
$DIMRND
 40
0.0
  9
$DIMDLE
 40
0.0
  9
$DIMEXE
 40
1.25
  9
$DIMTP
 40
0.0
  9
$DIMTM
 40
0.0
  9
$DIMTXT
 40
2.5
  9
$DIMCEN
 40
2.5
  9
$DIMTSZ
 40
0.0
  9
$DIMTOL
 70
     0
  9
$DIMLIM
 70
     0
  9
$DIMTIH
 70
     0
  9
$DIMTOH
 70
     0
  9
$DIMSE1
 70
     0
  9
$DIMSE2
 70
     0
  9
$DIMTAD
 70
     1
  9
$DIMZIN
 70
     8
  9
$DIMBLK
  1

  9
$DIMASO
 70
     1
  9
$DIMSHO
 70
     1
  9
$DIMPOST
  1

  9
$DIMAPOST
  1

  9
$DIMALT
 70
     0
  9
$DIMALTD
 70
     3
  9
$DIMALTF
 40
0.03937007874016
  9
$DIMLFAC
 40
1.0
  9
$DIMTOFL
 70
     1
  9
$DIMTVP
 40
0.0
  9
$DIMTIX
 70
     0
  9
$DIMSOXD
 70
     0
  9
$DIMSAH
 70
     0
  9
$DIMBLK1
  1

  9
$DIMBLK2
  1

  9
$DIMSTYLE
  2
ISO-25
  9
$DIMCLRD
 70
     0
  9
$DIMCLRE
 70
     0
  9
$DIMCLRT
 70
     0
  9
$DIMTFAC
 40
1.0
  9
$DIMGAP
 40
0.625
  9
$DIMJUST
 70
     0
  9
$DIMSD1
 70
     0
  9
$DIMSD2
 70
     0
  9
$DIMTOLJ
 70
     0
  9
$DIMTZIN
 70
     8
  9
$DIMALTZ
 70
     0
  9
$DIMALTTZ
 70
     0
  9
$DIMUPT
 70
     0
  9
$DIMDEC
 70
     2
  9
$DIMTDEC
 70
     2
  9
$DIMALTU
 70
     2
  9
$DIMALTTD
 70
     3
  9
$DIMTXSTY
  7
Standard
  9
$DIMAUNIT
 70
     0
  9
$DIMADEC
 70
     0
  9
$DIMALTRND
 40
0.0
  9
$DIMAZIN
 70
     0
  9
$DIMDSEP
 70
    44
  9
$DIMATFIT
 70
     3
  9
$DIMFRAC
 70
     0
  9
$DIMLDRBLK
  1

  9
$DIMLUNIT
 70
     2
  9
$DIMLWD
 70
    -2
  9
$DIMLWE
 70
    -2
  9
$DIMTMOVE
 70
     0
  9
$LUNITS
 70
     2
  9
$LUPREC
 70
     4
  9
$SKETCHINC
 40
1.0
  9
$FILLETRAD
 40
0.0
  9
$AUNITS
 70
     0
  9
$AUPREC
 70
     0
  9
$MENU
  1
.
  9
$ELEVATION
 40
0.0
  9
$PELEVATION
 40
0.0
  9
$THICKNESS
 40
0.0
  9
$LIMCHECK
 70
     0
  9
$CHAMFERA
 40
0.0
  9
$CHAMFERB
 40
0.0
  9
$CHAMFERC
 40
0.0
  9
$CHAMFERD
 40
0.0
  9
$SKPOLY
 70
     0
  9
$TDCREATE
 40
2460398.356956019
  9
$TDUCREATE
 40
2460398.065289352
  9
$TDUPDATE
 40
2460398.374618056
  9
$TDUUPDATE
 40
2460398.082951389
  9
$TDINDWG
 40
0.0077430556
  9
$TDUSRTIMER
 40
0.0077430556
  9
$USRTIMER
 70
     1
  9
$ANGBASE
 50
0.0
  9
$ANGDIR
 70
     0
  9
$PDMODE
 70
     0
  9
$PDSIZE
 40
0.0
  9
$PLINEWID
 40
0.0
  9
$SPLFRAME
 70
     0
  9
$SPLINETYPE
 70
     6
  9
$SPLINESEGS
 70
     8
  9
$HANDSEED
  5
8F02
  9
$SURFTAB1
 70
     6
  9
$SURFTAB2
 70
     6
  9
$SURFTYPE
 70
     6
  9
$SURFU
 70
     6
  9
$SURFV
 70
     6
  9
$UCSBASE
  2

  9
$UCSNAME
  2

  9
$UCSORG
 10
0.0
 20
0.0
 30
0.0
  9
$UCSXDIR
 10
1.0
 20
0.0
 30
0.0
  9
$UCSYDIR
 10
0.0
 20
1.0
 30
0.0
  9
$UCSORTHOREF
  2

  9
$UCSORTHOVIEW
 70
     0
  9
$UCSORGTOP
 10
0.0
 20
0.0
 30
0.0
  9
$UCSORGBOTTOM
 10
0.0
 20
0.0
 30
0.0
  9
$UCSORGLEFT
 10
0.0
 20
0.0
 30
0.0
  9
$UCSORGRIGHT
 10
0.0
 20
0.0
 30
0.0
  9
$UCSORGFRONT
 10
0.0
 20
0.0
 30
0.0
  9
$UCSORGBACK
 10
0.0
 20
0.0
 30
0.0
  9
$PUCSBASE
  2

  9
$PUCSNAME
  2

  9
$PUCSORG
 10
0.0
 20
0.0
 30
0.0
  9
$PUCSXDIR
 10
1.0
 20
0.0
 30
0.0
  9
$PUCSYDIR
 10
0.0
 20
1.0
 30
0.0
  9
$PUCSORTHOREF
  2

  9
$PUCSORTHOVIEW
 70
     0
  9
$PUCSORGTOP
 10
0.0
 20
0.0
 30
0.0
  9
$PUCSORGBOTTOM
 10
0.0
 20
0.0
 30
0.0
  9
$PUCSORGLEFT
 10
0.0
 20
0.0
 30
0.0
  9
$PUCSORGRIGHT
 10
0.0
 20
0.0
 30
0.0
  9
$PUCSORGFRONT
 10
0.0
 20
0.0
 30
0.0
  9
$PUCSORGBACK
 10
0.0
 20
0.0
 30
0.0
  9
$USERI1
 70
     0
  9
$USERI2
 70
     0
  9
$USERI3
 70
     0
  9
$USERI4
 70
     0
  9
$USERI5
 70
     0
  9
$USERR1
 40
0.0
  9
$USERR2
 40
0.0
  9
$USERR3
 40
0.0
  9
$USERR4
 40
0.0
  9
$USERR5
 40
0.0
  9
$WORLDVIEW
 70
     1
  9
$SHADEDGE
 70
     3
  9
$SHADEDIF
 70
    70
  9
$TILEMODE
 70
     1
  9
$MAXACTVP
 70
    48
  9
$PINSBASE
 10
0.0
 20
0.0
 30
0.0
  9
$PLIMCHECK
 70
     0
  9
$PEXTMIN
 10
0.0
 20
0.0
 30
0.0
  9
$PEXTMAX
 10
0.0
 20
0.0
 30
0.0
  9
$PLIMMIN
 10
0.0
 20
0.0
  9
$PLIMMAX
 10
12.0
 20
9.0
  9
$UNITMODE
 70
     0
  9
$VISRETAIN
 70
     1
  9
$PLINEGEN
 70
     0
  9
$PSLTSCALE
 70
     1
  9
$TREEDEPTH
 70
  3020
  9
$CMLSTYLE
  2
Standard
  9
$CMLJUST
 70
     0
  9
$CMLSCALE
 40
20.0
  9
$PROXYGRAPHICS
 70
     1
  9
$MEASUREMENT
 70
     1
  9
$CELWEIGHT
370
    -1
  9
$ENDCAPS
280
     0
  9
$JOINSTYLE
280
     0
  9
$LWDISPLAY
290
     0
  9
$INSUNITS
 70
     4
  9
$HYPERLINKBASE
  1

  9
$STYLESHEET
  1

  9
$XEDIT
290
     1
  9
$CEPSNTYPE
380
     0
  9
$PSTYLEMODE
290
     1
  9
$FINGERPRINTGUID
  2
{6C1266EE-7BC1-BF4A-B059-A6E7702B10CE}
  9
$VERSIONGUID
  2
{56089157-9337-B443-8D97-16316C66CF38}
  9
$EXTNAMES
290
     1
  9
$PSVPSCALE
 40
0.0
  9
$OLESTARTUP
290
     0
  0
ENDSEC
  0
SECTION
  2
CLASSES
  0
CLASS
  1
ACDBDICTIONARYWDFLT
  2
AcDbDictionaryWithDefault
  3
ObjectDBX Classes
 90
        0
280
     0
281
     0
  0
CLASS
  1
ACDBPLACEHOLDER
  2
AcDbPlaceHolder
  3
ObjectDBX Classes
 90
        0
280
     0
281
     0
  0
CLASS
  1
LAYOUT
  2
AcDbLayout
  3
ObjectDBX Classes
 90
        0
280
     0
281
     0
  0
CLASS
  1
DICTIONARYVAR
  2
AcDbDictionaryVar
  3
ObjectDBX Classes
 90
        0
280
     0
281
     0
  0
CLASS
  1
TABLESTYLE
  2
AcDbTableStyle
  3
ObjectDBX Classes
 90
     4095
280
     0
281
     0
  0
CLASS
  1
MATERIAL
  2
AcDbMaterial
  3
ObjectDBX Classes
 90
     1153
280
     0
281
     0
  0
CLASS
  1
VISUALSTYLE
  2
AcDbVisualStyle
  3
ObjectDBX Classes
 90
     4095
280
     0
281
     0
  0
CLASS
  1
SCALE
  2
AcDbScale
  3
ObjectDBX Classes
 90
     1153
280
     0
281
     0
  0
CLASS
  1
MLEADERSTYLE
  2
AcDbMLeaderStyle
  3
ACDB_MLEADERSTYLE_CLASS
 90
     4095
280
     0
281
     0
  0
CLASS
  1
CELLSTYLEMAP
  2
AcDbCellStyleMap
  3
ObjectDBX Classes
 90
     1152
280
     0
281
     0
  0
CLASS
  1
EXACXREFPANELOBJECT
  2
ExAcXREFPanelObject
  3
EXAC_ESW
 90
    33793
280
     0
281
     0
  0
CLASS
  1
NPOCOLLECTION
  2
AcDbImpNonPersistentObjectsCollection
  3
ObjectDBX Classes
 90
    33921
280
     0
281
     0
  0
CLASS
  1
LAYER_INDEX
  2
AcDbLayerIndex
  3
ObjectDBX Classes
 90
    32768
280
     0
281
     0
  0
CLASS
  1
SPATIAL_INDEX
  2
AcDbSpatialIndex
  3
ObjectDBX Classes
 90
    32768
280
     0
281
     0
  0
CLASS
  1
IDBUFFER
  2
AcDbIdBuffer
  3
ObjectDBX Classes
 90
    32768
280
     0
281
     0
  0
CLASS
  1
ACDBSECTIONVIEWSTYLE
  2
AcDbSectionViewStyle
  3
ObjectDBX Classes
 90
     1025
280
     0
281
     0
  0
CLASS
  1
ACDBDETAILVIEWSTYLE
  2
AcDbDetailViewStyle
  3
ObjectDBX Classes
 90
     1025
280
     0
281
     0
  0
CLASS
  1
XRECORD
  2
AcDbXrecord
  3
ObjectDBX Classes
 90
        0
280
     0
281
     0
  0
ENDSEC
  0
SECTION
  2
TABLES
  0
TABLE
  2
VPORT
  5
8
102
{ACAD_XDICTIONARY
360
8E10
102
}
330
0
100
AcDbSymbolTable
 70
     1
  0
VPORT
  5
EA
330
8
100
AcDbSymbolTableRecord
100
AcDbViewportTableRecord
  2
*Active
 70
     0
 10
0.0
 20
0.0
 11
1.0
 21
1.0
 12
27.52853470101082
 22
13.47322135951046
 13
0.0
 23
0.0
 14
10.0
 24
10.0
 15
10.0
 25
10.0
 16
0.0
 26
0.0
 36
1.0
 17
0.0
 27
0.0
 37
0.0
 40
528.8133171783467
 41
0.9846153846153846
 42
50.0
 43
0.0
 44
0.0
 50
0.0
 51
0.0
 71
     0
 72
  1000
 73
     1
 74
     3
 75
     0
 76
     1
 77
     0
 78
     0
281
     0
 65
     1
110
0.0
120
0.0
130
0.0
111
1.0
121
0.0
131
0.0
112
0.0
122
1.0
132
0.0
 79
     0
146
0.0
1001
ACAD_NAV_VCDISPLAY
1070
     3
  0
ENDTAB
  0
TABLE
  2
LTYPE
  5
5
330
0
100
AcDbSymbolTable
 70
     1
  0
LTYPE
  5
14
330
5
100
AcDbSymbolTableRecord
100
AcDbLinetypeTableRecord
  2
ByBlock
 70
     0
  3

 72
    65
 73
     0
 40
0.0
  0
LTYPE
  5
15
330
5
100
AcDbSymbolTableRecord
100
AcDbLinetypeTableRecord
  2
ByLayer
 70
     0
  3

 72
    65
 73
     0
 40
0.0
  0
LTYPE
  5
16
330
5
100
AcDbSymbolTableRecord
100
AcDbLinetypeTableRecord
  2
Continuous
 70
     0
  3
Solid line
 72
    65
 73
     0
 40
0.0
  0
ENDTAB
  0
TABLE
  2
LAYER
  5
2
102
{ACAD_XDICTIONARY
360
1FF
102
}
330
0
100
AcDbSymbolTable
 70
     1
  0
LAYER
  5
10
102
{ACAD_XDICTIONARY
360
13C
102
}
330
2
100
AcDbSymbolTableRecord
100
AcDbLayerTableRecord
  2
0
 70
     0
 62
     7
  6
Continuous
370
    -3
390
F
  0
ENDTAB
  0
TABLE
  2
STYLE
  5
3
330
0
100
AcDbSymbolTable
 70
     1
  0
STYLE
  5
11
330
3
100
AcDbSymbolTableRecord
100
AcDbTextStyleTableRecord
  2
Standard
 70
     0
 40
0.0
 41
1.0
 50
0.0
 71
     0
 42
2.5
  3
arial.ttf
  4

1001
ACAD
1000
Arial
1071
       34
  0
ENDTAB
  0
TABLE
  2
VIEW
  5
6
330
0
100
AcDbSymbolTable
 70
     0
  0
ENDTAB
  0
TABLE
  2
UCS
  5
7
330
0
100
AcDbSymbolTable
 70
     0
  0
ENDTAB
  0
TABLE
  2
APPID
  5
9
330
0
100
AcDbSymbolTable
 70
     8
  0
APPID
  5
12
330
9
100
AcDbSymbolTableRecord
100
AcDbRegAppTableRecord
  2
ACAD
 70
     0
  0
APPID
  5
9E
330
9
100
AcDbSymbolTableRecord
100
AcDbRegAppTableRecord
  2
ACAD_PSEXT
 70
     0
  0
APPID
  5
133
330
9
100
AcDbSymbolTableRecord
100
AcDbRegAppTableRecord
  2
AcadAnnoPO
 70
     0
  0
APPID
  5
134
330
9
100
AcDbSymbolTableRecord
100
AcDbRegAppTableRecord
  2
AcadAnnotative
 70
     0
  0
APPID
  5
135
330
9
100
AcDbSymbolTableRecord
100
AcDbRegAppTableRecord
  2
ACAD_DSTYLE_DIMJAG
 70
     0
  0
APPID
  5
136
330
9
100
AcDbSymbolTableRecord
100
AcDbRegAppTableRecord
  2
ACAD_DSTYLE_DIMTALN
 70
     0
  0
APPID
  5
165
330
9
100
AcDbSymbolTableRecord
100
AcDbRegAppTableRecord
  2
ACAD_MLEADERVER
 70
     0
  0
APPID
  5
217
330
9
100
AcDbSymbolTableRecord
100
AcDbRegAppTableRecord
  2
ACAD_NAV_VCDISPLAY
 70
     0
  0
ENDTAB
  0
TABLE
  2
DIMSTYLE
  5
A
330
0
100
AcDbSymbolTable
 70
     1
100
AcDbDimStyleTable
 71
     0
  0
DIMSTYLE
105
27
330
A
100
AcDbSymbolTableRecord
100
AcDbDimStyleTableRecord
  2
ISO-25
 70
     0
 41
2.5
 42
0.625
 43
3.75
 44
1.25
 73
     0
 74
     0
 77
     1
 78
     8
140
2.5
141
2.5
143
0.03937007874016
147
0.625
171
     3
172
     1
271
     2
272
     2
274
     3
278
    44
283
     0
284
     8
340
11
  0
ENDTAB
  0
TABLE
  2
BLOCK_RECORD
  5
1
330
0
100
AcDbSymbolTable
 70
     7
  0
BLOCK_RECORD
  5
1F
102
{ACAD_XDICTIONARY
360
1CE
102
}
330
1
100
AcDbSymbolTableRecord
100
AcDbBlockTableRecord
  2
*Model_Space
340
22
  0
BLOCK_RECORD
  5
D2
102
{ACAD_XDICTIONARY
360
8DC3
102
}
330
1
100
AcDbSymbolTableRecord
100
AcDbBlockTableRecord
  2
*Paper_Space
340
D3
  0
BLOCK_RECORD
  5
D6
102
{ACAD_XDICTIONARY
360
8DC5
102
}
330
1
100
AcDbSymbolTableRecord
100
AcDbBlockTableRecord
  2
*Paper_Space0
340
D7
  0
BLOCK_RECORD
  5
8C3E
330
1
100
AcDbSymbolTableRecord
100
AcDbBlockTableRecord
  2
SAE340_70_2-Front
340
0
102
{BLKREFS
331
8DB9
102
}
  0
BLOCK_RECORD
  5
8C90
330
1
100
AcDbSymbolTableRecord
100
AcDbBlockTableRecord
  2
SAE340_70_2-Left
340
0
102
{BLKREFS
331
8DBA
102
}
  0
BLOCK_RECORD
  5
8CAF
330
1
100
AcDbSymbolTableRecord
100
AcDbBlockTableRecord
  2
SAE340_70_2-Right
340
0
102
{BLKREFS
331
8DBB
102
}
  0
BLOCK_RECORD
  5
8CCE
330
1
100
AcDbSymbolTableRecord
100
AcDbBlockTableRecord
  2
SAE340_70_2-Top
340
0
102
{BLKREFS
331
8DBC
102
}
  0
BLOCK_RECORD
  5
8CFD
330
1
100
AcDbSymbolTableRecord
100
AcDbBlockTableRecord
  2
SAE340_70_2-Bottom
340
0
102
{BLKREFS
331
8DBD
102
}
  0
BLOCK_RECORD
  5
8D2A
330
1
100
AcDbSymbolTableRecord
100
AcDbBlockTableRecord
  2
SAE340_70_2-ISO
340
0
102
{BLKREFS
331
8DBE
102
}
  0
ENDTAB
  0
ENDSEC
  0
SECTION
  2
BLOCKS
  0
BLOCK
  5
20
330
1F
100
AcDbEntity
  8
0
100
AcDbBlockBegin
  2
*Model_Space
 70
     0
 10
0.0
 20
0.0
 30
0.0
  3
*Model_Space
  1

  0
ENDBLK
  5
21
330
1F
100
AcDbEntity
  8
0
100
AcDbBlockEnd
  0
BLOCK
  5
D4
330
D2
100
AcDbEntity
 67
     1
  8
0
100
AcDbBlockBegin
  2
*Paper_Space
 70
     0
 10
0.0
 20
0.0
 30
0.0
  3
*Paper_Space
  1

  0
ENDBLK
  5
D5
330
D2
100
AcDbEntity
 67
     1
  8
0
100
AcDbBlockEnd
  0
BLOCK
  5
D8
330
D6
100
AcDbEntity
 67
     1
  8
0
100
AcDbBlockBegin
  2
*Paper_Space0
 70
     0
 10
0.0
 20
0.0
 30
0.0
  3
*Paper_Space0
  1

  0
ENDBLK
  5
D9
330
D6
100
AcDbEntity
 67
     1
  8
0
100
AcDbBlockEnd
  0
BLOCK
  5
8C3F
330
8C3E
100
AcDbEntity
  8
0
100
AcDbBlockBegin
  2
SAE340_70_2-Front
 70
     0
 10
0.0
 20
0.0
 30
0.0
  3
SAE340_70_2-Front
  1

  0
SPLINE
  5
8C41
330
8C3E
100
AcDbEntity
  8
0
100
AcDbSpline
210
0.0
220
0.0
230
1.0
 70
     8
 71
     3
 72
    14
 73
    10
 74
     0
 42
0.000000001
 43
0.0000000001
 40
0.0
 40
0.0
 40
0.0
 40
0.0
 40
0.3435165591371065
 40
0.3435165591371065
 40
0.3435165591371065
 40
0.7569936138416016
 40
0.7569936138416016
 40
0.7569936138416016
 40
0.9986518567685395
 40
0.9986518567685395
 40
0.9986518567685395
 40
0.9986518567685395
 10
39.6060606060606
 20
7.562499999999911
 30
0.0
 10
39.28490249291094
 20
7.302491937350175
 30
0.0
 10
38.87245901694529
 20
7.075290373262083
 30
0.0
 10
38.47646762711374
 20
6.844078101680958
 30
0.0
 10
37.9998287309651
 20
6.565777197337238
 30
0.0
 10
37.53730090290267
 20
6.2713945021897
 30
0.0
 10
37.26243107016593
 20
5.857928778821682
 30
0.0
 10
37.10178234720293
 20
5.616277158537602
 30
0.0
 10
37.00111706667305
 20
5.361077270355998
 30
0.0
 10
37.00000923809762
 20
5.005952764838168
 30
0.0
  0
LINE
  5
8C42
330
8C3E
100
AcDbEntity
  8
0
100
AcDbLine
 10
37.0
 20
7.562499999999916
 30
0.0
 11
39.0
 21
7.562499999999916
 31
0.0
  0
SPLINE
  5
8C43
330
8C3E
100
AcDbEntity
  8
0
100
AcDbSpline
210
0.0
220
0.0
230
1.0
 70
     8
 71
     3
 72
    20
 73
    16
 74
     0
 42
0.000000001
 43
0.0000000001
 40
0.0120731921712787
 40
0.0120731921712787
 40
0.0120731921712787
 40
0.0120731921712787
 40
0.0124289663045976
 40
0.0124289663045976
 40
0.0135304508237261
 40
0.0135304508237261
 40
0.0142264320362482
 40
0.0142264320362482
 40
0.0153097346210721
 40
0.0153097346210721
 40
0.0162528438697127
 40
0.0162528438697127
 40
0.0174018563022449
 40
0.0174018563022449
 40
0.0202450227752773
 40
0.0202450227752773
 40
0.0202450227752773
 40
0.0202450227752773
 10
37.00029164702554
 20
5.058649023348311
 30
0.0
 10
37.00029164702524
 20
5.058649023322735
 30
0.0
 10
37.00029123435249
 20
5.058612999632864
 30
0.0
 10
37.0002877289836
 20
5.058301613301977
 30
0.0
 10
37.00028065867357
 20
5.057676182647776
 30
0.0
 10
37.00026146651631
 20
5.055809335378408
 30
0.0
 10
37.000252102869
 20
5.054870688354302
 30
0.0
 10
37.00022447614379
 20
5.051898848812232
 30
0.0
 10
37.00020363024994
 20
5.049475219861775
 30
0.0
 10
37.00016555221883
 20
5.044227158740457
 30
0.0
 10
37.00014801097065
 20
5.041461905457554
 30
0.0
 10
37.00011447314165
 20
5.035094593843334
 30
0.0
 10
37.00009957036627
 20
5.03145232388075
 30
0.0
 10
37.00006174290861
 20
5.018680406937243
 30
0.0
 10
37.00005914540228
 20
5.009315562135653
 30
0.0
 10
37.00007431648748
 20
4.999999174272108
 30
0.0
  0
SPLINE
  5
8C44
330
8C3E
100
AcDbEntity
  8
0
100
AcDbSpline
210
0.0
220
0.0
230
1.0
 70
     8
 71
     3
 72
    20
 73
    16
 74
     0
 42
0.000000001
 43
0.0000000001
 40
0.0053330810398051
 40
0.0053330810398051
 40
0.0053330810398051
 40
0.0053330810398051
 40
0.0056477943649157
 40
0.0056477943649157
 40
0.0060465553907583
 40
0.0060465553907583
 40
0.0065309062928796
 40
0.0065309062928796
 40
0.0071941963116435
 40
0.0071941963116435
 40
0.0085675416531447
 40
0.0085675416531447
 40
0.0106391875014886
 40
0.0106391875014886
 40
0.0111028704847469
 40
0.0111028704847469
 40
0.0111028704847469
 40
0.0111028704847469
 10
37.00010883933664
 20
5.045463134230804
 30
0.0
 10
37.00010883931806
 20
5.045463131240309
 30
0.0
 10
37.00010796015183
 20
5.045322294333179
 30
0.0
 10
37.00010437321006
 20
5.044734657763529
 30
0.0
 10
37.00010121321522
 20
5.044211002824487
 30
0.0
 10
37.00009286763164
 20
5.042767126406544
 30
0.0
 10
37.00008734573059
 20
5.041776044739071
 30
0.0
 10
37.00007384221559
 20
5.039180972018098
 30
0.0
 10
37.00006571105155
 20
5.037482898090159
 30
0.0
 10
37.00004297942805
 20
5.032163604247816
 30
0.0
 10
37.00002983006574
 20
5.028232111050479
 30
0.0
 10
37.00000644270553
 20
5.017931583007174
 30
0.0
 10
37.00000107512
 20
5.011262134987257
 30
0.0
 10
37.00000622988104
 20
5.003026467830713
 30
0.0
 10
37.00000763415996
 20
5.001513887922117
 30
0.0
 10
37.00000948701013
 20
4.999997311338136
 30
0.0
  0
SPLINE
  5
8C45
330
8C3E
100
AcDbEntity
  8
0
100
AcDbSpline
210
0.0
220
0.0
230
1.0
 70
     8
 71
     3
 72
     8
 73
     4
 74
     0
 42
0.000000001
 43
0.0000000001
 40
0.0
 40
0.0
 40
0.0
 40
0.0
 40
0.0015511722934276
 40
0.0015511722934276
 40
0.0015511722934276
 40
0.0015511722934276
 10
34.99955984654373
 20
5.00000111615405
 30
0.0
 10
34.9995656532777
 20
5.004468810974876
 30
0.0
 10
34.99957076641538
 20
5.008847082574074
 30
0.0
 10
34.99957512909041
 20
5.013075913217527
 30
0.0
  0
SPLINE
  5
8C46
330
8C3E
100
AcDbEntity
  8
0
100
AcDbSpline
210
0.0
220
0.0
230
1.0
 70
     8
 71
     3
 72
    16
 73
    12
 74
     0
 42
0.000000001
 43
0.0000000001
 40
0.0
 40
0.0
 40
0.0
 40
0.0
 40
0.0021186811707483
 40
0.0021186811707483
 40
0.0037963488502293
 40
0.0037963488502293
 40
0.0060490110206748
 40
0.0060490110206748
 40
0.0082160740759699
 40
0.0082160740759699
 40
0.0100715168783473
 40
0.0100715168783473
 40
0.0100715168783473
 40
0.0100715168783473
 10
34.99977770285749
 20
4.999996711300775
 30
0.0
 10
34.99967060184418
 20
5.006962620955555
 30
0.0
 10
34.99956026411852
 20
5.014064376953724
 30
0.0
 10
34.99936153534831
 20
5.026708140805054
 30
0.0
 10
34.9992727194895
 20
5.032305707944887
 30
0.0
 10
34.99907108313877
 20
5.044902488078033
 30
0.0
 10
34.99895813016995
 20
5.051872739362584
 30
0.0
 10
34.9987608366634
 20
5.063950031876171
 30
0.0
 10
34.99867338960554
 20
5.069253598408751
 30
0.0
 10
34.99853375467184
 20
5.077668221285051
 30
0.0
 10
34.99847718644841
 20
5.081052338148463
 30
0.0
 10
34.99842789893614
 20
5.083983497774359
 30
0.0
  0
SPLINE
  5
8C47
330
8C3E
100
AcDbEntity
  8
0
100
AcDbSpline
210
0.0
220
0.0
230
1.0
 70
     8
 71
     3
 72
    34
 73
    30
 74
     0
 42
0.000000001
 43
0.0000000001
 40
0.001882691006279
 40
0.001882691006279
 40
0.001882691006279
 40
0.001882691006279
 40
0.0067931669797085
 40
0.0067931669797085
 40
0.0148581762483927
 40
0.0148581762483927
 40
0.0216571624394343
 40
0.0216571624394343
 40
0.0241181605677777
 40
0.0241181605677777
 40
0.026272135114964
 40
0.026272135114964
 40
0.0291183974741004
 40
0.0291183974741004
 40
0.0315307617323527
 40
0.0315307617323527
 40
0.0346506209156632
 40
0.0346506209156632
 40
0.0395925192815828
 40
0.0395925192815828
 40
0.048904704019482
 40
0.048904704019482
 40
0.0719038371678898
 40
0.0719038371678898
 40
0.1414749572439161
 40
0.1414749572439161
 40
0.2235343185579383
 40
0.2235343185579383
 40
0.266217635104246
 40
0.266217635104246
 40
0.266217635104246
 40
0.266217635104246
 10
34.99993408575557
 20
5.003821542999156
 30
0.0
 10
34.99986408235918
 20
5.007840102602854
 30
0.0
 10
34.99976229507163
 20
5.013587988950733
 30
0.0
 10
34.99943617609388
 20
5.031500952416889
 30
0.0
 10
34.99917379097336
 20
5.045479057486613
 30
0.0
 10
34.99862147508532
 20
5.074128516406347
 30
0.0
 10
34.99834195422877
 20
5.088369787639551
 30
0.0
 10
34.99789287056888
 20
5.111299852090477
 30
0.0
 10
34.99776556978883
 20
5.117807838389963
 30
0.0
 10
34.99751102761448
 20
5.13092137168835
 30
0.0
 10
34.99738418372083
 20
5.137495994984639
 30
0.0
 10
34.99708160721189
 20
5.153391724956715
 30
0.0
 10
34.99689912594569
 20
5.163147597977855
 30
0.0
 10
34.99658164289056
 20
5.180631640667108
 30
0.0
 10
34.996440540797
 20
5.188607623473444
 30
0.0
 10
34.99613963834521
 20
5.206133284852665
 30
0.0
 10
34.99598354352677
 20
5.215623066403285
 30
0.0
 10
34.9956157557272
 20
5.238972558162348
 30
0.0
 10
34.9954213308453
 20
5.252352929306289
 30
0.0
 10
34.99492632778016
 20
5.289080360222707
 30
0.0
 10
34.99467887913523
 20
5.311076628934277
 30
0.0
 10
34.99397377071428
 20
5.384835454106998
 30
0.0
 10
34.99373075802843
 20
5.433251286527157
 30
0.0
 10
34.99330496971727
 20
5.635245132959524
 30
0.0
 10
34.99455225585909
 20
5.811577144082146
 30
0.0
 10
34.99793365449279
 20
6.233028518919238
 30
0.0
 10
34.99943798483157
 20
6.488416499519294
 30
0.0
 10
34.99998708512251
 20
6.892407449628528
 30
0.0
 10
34.9999819111609
 20
7.034078412001743
 30
0.0
 10
34.999989370187
 20
7.175862721525062
 30
0.0
  0
SPLINE
  5
8C48
330
8C3E
100
AcDbEntity
  8
0
100
AcDbSpline
210
0.0
220
0.0
230
1.0
 70
     8
 71
     3
 72
    12
 73
     8
 74
     0
 42
0.000000001
 43
0.0000000001
 40
0.0
 40
0.0
 40
0.0
 40
0.0
 40
0.0030437042993916
 40
0.0030437042993916
 40
0.0059481041541362
 40
0.0059481041541362
 40
0.0077014641317377
 40
0.0077014641317377
 40
0.0077014641317377
 40
0.0077014641317377
 10
34.99994095221153
 20
4.999999879470821
 30
0.0
 10
34.99992879819971
 20
5.006961280069841
 30
0.0
 10
34.9999175186259
 20
5.012749014293085
 30
0.0
 10
34.99989988569938
 20
5.020868019044525
 30
0.0
 10
34.99989321745711
 20
5.023454764369358
 30
0.0
 10
34.99988738789276
 20
5.025581684054864
 30
0.0
 10
34.99988625762898
 20
5.025943676559043
 30
0.0
 10
34.99988625762902
 20
5.025943676541851
 30
0.0
  0
SPLINE
  5
8C49
330
8C3E
100
AcDbEntity
  8
0
100
AcDbSpline
210
0.0
220
0.0
230
1.0
 70
     8
 71
     3
 72
     8
 73
     4
 74
     0
 42
0.000000001
 43
0.0000000001
 40
0.0
 40
0.0
 40
0.0
 40
0.0
 40
0.0007119892741112
 40
0.0007119892741112
 40
0.0007119892741112
 40
0.0007119892741112
 10
39.60611379963712
 20
7.562431609146379
 30
0.0
 10
39.60533819829019
 20
7.561828688137026
 30
0.0
 10
39.60453872058467
 20
7.561207589700745
 30
0.0
 10
39.60373327049749
 20
7.560581717118743
 30
0.0
  0
SPLINE
  5
8C4A
330
8C3E
100
AcDbEntity
  8
0
100
AcDbSpline
210
0.0
220
0.0
230
1.0
 70
     8
 71
     3
 72
     8
 73
     4
 74
     0
 42
0.000000001
 43
0.0000000001
 40
0.0001369350459421
 40
0.0001369350459421
 40
0.0001369350459421
 40
0.0001369350459421
 40
0.000673044057041
 40
0.000673044057041
 40
0.000673044057041
 40
0.000673044057041
 10
39.60523147098648
 20
7.561745780099063
 30
0.0
 10
39.60408446586946
 20
7.560822732470694
 30
0.0
 10
39.6029010162191
 20
7.559871279613775
 30
0.0
 10
39.60168845289306
 20
7.558897339180877
 30
0.0
  0
LINE
  5
8C4B
330
8C3E
100
AcDbEntity
  8
0
100
AcDbLine
 10
32.99999999999999
 20
-2.0
 30
0.0
 11
-32.99999999999999
 21
-2.000000000000003
 31
0.0
  0
LINE
  5
8C4C
330
8C3E
100
AcDbEntity
  8
0
100
AcDbLine
 10
-32.99999999999999
 20
0.0
 30
0.0
 11
32.99999999999999
 21
0.0
 31
0.0
  0
LINE
  5
8C4D
330
8C3E
100
AcDbEntity
  8
0
100
AcDbLine
 10
-39.0
 20
7.562499999999916
 30
0.0
 11
-37.0
 21
7.562499999999916
 31
0.0
  0
SPLINE
  5
8C4E
330
8C3E
100
AcDbEntity
  8
0
100
AcDbSpline
210
0.0
220
0.0
230
1.0
 70
     8
 71
     3
 72
    14
 73
    10
 74
     0
 42
0.000000001
 43
0.0000000001
 40
0.0
 40
0.0
 40
0.0
 40
0.0
 40
0.3435165591371065
 40
0.3435165591371065
 40
0.3435165591371065
 40
0.7569936138416016
 40
0.7569936138416016
 40
0.7569936138416016
 40
0.9986524957871871
 40
0.9986524957871871
 40
0.9986524957871871
 40
0.9986524957871871
 10
-39.6060606060606
 20
7.562499999999911
 30
0.0
 10
-39.28490249291094
 20
7.302491937350175
 30
0.0
 10
-38.87245901694529
 20
7.075290373262083
 30
0.0
 10
-38.47646762711374
 20
6.844078101680958
 30
0.0
 10
-37.9998287309651
 20
6.565777197337238
 30
0.0
 10
-37.53730090290267
 20
6.2713945021897
 30
0.0
 10
-37.26243107016593
 20
5.857928778821682
 30
0.0
 10
-37.10178192239834
 20
5.616276519536467
 30
0.0
 10
-37.00111653429361
 20
5.361075920702065
 30
0.0
 10
-37.00000922931139
 20
5.005949947661142
 30
0.0
  0
SPLINE
  5
8C4F
330
8C3E
100
AcDbEntity
  8
0
100
AcDbSpline
210
0.0
220
0.0
230
1.0
 70
     8
 71
     3
 72
    30
 73
    26
 74
     0
 42
0.000000001
 43
0.0000000001
 40
0.0
 40
0.0
 40
0.0
 40
0.0
 40
0.065551342959539
 40
0.065551342959539
 40
0.1471084880246727
 40
0.1471084880246727
 40
0.1864915416065144
 40
0.1864915416065144
 40
0.2244287006967847
 40
0.2244287006967847
 40
0.2339025228676271
 40
0.2339025228676271
 40
0.2360478139160467
 40
0.2360478139160467
 40
0.237681799226347
 40
0.237681799226347
 40
0.2393184066641076
 40
0.2393184066641076
 40
0.2426422771717521
 40
0.2426422771717521
 40
0.2492709696269002
 40
0.2492709696269002
 40
0.2559206221728502
 40
0.2559206221728502
 40
0.264371803881946
 40
0.264371803881946
 40
0.264371803881946
 40
0.264371803881946
 10
-34.999989370187
 20
7.175862721521721
 30
0.0
 10
-34.99997791491085
 20
6.958116008007543
 30
0.0
 10
-34.99997499580915
 20
6.739551192638369
 30
0.0
 10
-34.99847087262118
 20
6.277660627364292
 30
0.0
 10
-34.99618388742022
 20
6.036330664227572
 30
0.0
 10
-34.99399786143317
 20
5.720348861201543
 30
0.0
 10
-34.99356181606317
 20
5.624108143082848
 30
0.0
 10
-34.99357524463094
 20
5.451203032775486
 30
0.0
 10
-34.99385398907037
 20
5.376438550425357
 30
0.0
 10
-34.99531495667058
 20
5.259127745576944
 30
0.0
 10
-34.99568020989413
 20
5.233633285334382
 30
0.0
 10
-34.99628323559909
 20
5.19771133918227
 30
0.0
 10
-34.99640193877385
 20
5.19083376337297
 30
0.0
 10
-34.99662079997875
 20
5.178479130806832
 30
0.0
 10
-34.99671935863291
 20
5.173018320340368
 30
0.0
 10
-34.9969192758277
 20
5.162118425602701
 30
0.0
 10
-34.99702160490529
 20
5.156626782115028
 30
0.0
 10
-34.99732644919576
 20
5.14045849103783
 30
0.0
 10
-34.99752713317018
 20
5.130072734240584
 30
0.0
 10
-34.99806275349012
 20
5.102551071526293
 30
0.0
 10
-34.99835960842044
 20
5.087518315913817
 30
0.0
 10
-34.9988907516086
 20
5.060225067479349
 30
0.0
 10
-34.99912909557004
 20
5.047794283289763
 30
0.0
 10
-34.9995987413961
 20
5.022729928527418
 30
0.0
 10
-34.99981365266308
 20
5.010727455860166
 30
0.0
 10
-34.9999340854484
 20
5.003813986644444
 30
0.0
  0
SPLINE
  5
8C50
330
8C3E
100
AcDbEntity
  8
0
100
AcDbSpline
210
0.0
220
0.0
230
1.0
 70
     8
 71
     3
 72
     8
 73
     4
 74
     0
 42
0.000000001
 43
0.0000000001
 40
0.0195591544667267
 40
0.0195591544667267
 40
0.0195591544667267
 40
0.0195591544667267
 40
0.0211163010454061
 40
0.0211163010454061
 40
0.0211163010454061
 40
0.0211163010454061
 10
-34.99957522640356
 20
5.013077780473153
 30
0.0
 10
-34.99957087693732
 20
5.008861753386649
 30
0.0
 10
-34.99956567564212
 20
5.004486018143511
 30
0.0
 10
-34.99955984654373
 20
5.00000111615405
 30
0.0
  0
SPLINE
  5
8C51
330
8C3E
100
AcDbEntity
  8
0
100
AcDbSpline
210
0.0
220
0.0
230
1.0
 70
     8
 71
     3
 72
    16
 73
    12
 74
     0
 42
0.000000001
 43
0.0000000001
 40
0.0328453658102891
 40
0.0328453658102891
 40
0.0328453658102891
 40
0.0328453658102891
 40
0.0346121739223454
 40
0.0346121739223454
 40
0.036294390757339
 40
0.036294390757339
 40
0.0388726343107443
 40
0.0388726343107443
 40
0.0410449475483268
 40
0.0410449475483268
 40
0.0429128452287721
 40
0.0429128452287721
 40
0.0429128452287721
 40
0.0429128452287721
 10
-34.99842789914727
 20
5.083983495080084
 30
0.0
 10
-34.99847484522208
 20
5.08119158222615
 30
0.0
 10
-34.99852835649514
 20
5.077991095359832
 30
0.0
 10
-34.99864665535153
 20
5.070866625257517
 30
0.0
 10
-34.99871142262066
 20
5.066945863508175
 30
0.0
 10
-34.99889097016838
 20
5.056002932232578
 30
0.0
 10
-34.99901757415447
 20
5.048221821940929
 30
0.0
 10
-34.99925928465367
 20
5.033159349392769
 30
0.0
 10
-34.99937543020067
 20
5.025840267010629
 30
0.0
 10
-34.99958650226653
 20
5.012374774098296
 30
0.0
 10
-34.99968327914848
 20
5.006138082011027
 30
0.0
 10
-34.99977770285747
 20
4.999996711300777
 30
0.0
  0
SPLINE
  5
8C52
330
8C3E
100
AcDbEntity
  8
0
100
AcDbSpline
210
0.0
220
0.0
230
1.0
 70
     8
 71
     3
 72
    12
 73
     8
 74
     0
 42
0.000000001
 43
0.0000000001
 40
0.0138054908169522
 40
0.0138054908169522
 40
0.0138054908169522
 40
0.0138054908169522
 40
0.0169840789837489
 40
0.0169840789837489
 40
0.0189304805820869
 40
0.0189304805820869
 40
0.021508139168017
 40
0.021508139168017
 40
0.021508139168017
 40
0.021508139168017
 10
-34.99988625762903
 20
5.025943676544104
 30
0.0
 10
-34.99988625767154
 20
5.025943662844517
 30
0.0
 10
-34.99989009445457
 20
5.02472368733351
 30
0.0
 10
-34.99990126115655
 20
5.020165309630193
 30
0.0
 10
-34.99990666457456
 20
5.017817797902824
 30
0.0
 10
-34.99992101923488
 20
5.010952288210239
 30
0.0
 10
-34.9999306591969
 20
5.005895364793738
 30
0.0
 10
-34.99994095221153
 20
4.99999987947082
 30
0.0
  0
SPLINE
  5
8C53
330
8C3E
100
AcDbEntity
  8
0
100
AcDbSpline
210
0.0
220
0.0
230
1.0
 70
     8
 71
     3
 72
    16
 73
    12
 74
     0
 42
0.000000001
 43
0.0000000001
 40
0.0
 40
0.0
 40
0.0
 40
0.0
 40
0.0041155302864384
 40
0.0041155302864384
 40
0.0050670545142674
 40
0.0050670545142674
 40
0.0058961082104638
 40
0.0058961082104638
 40
0.006723902953203
 40
0.006723902953203
 40
0.0081602309614736
 40
0.0081602309614736
 40
0.0081602309614736
 40
0.0081602309614736
 10
-37.00007431648746
 20
4.999999174272107
 30
0.0
 10
-37.00005235609182
 20
5.013484799111983
 30
0.0
 10
-37.0000708990101
 20
5.027440931543917
 30
0.0
 10
-37.000155212863
 20
5.042647299018463
 30
0.0
 10
-37.00017335750598
 20
5.045375936538673
 30
0.0
 10
-37.00020680984262
 20
5.049809888850375
 30
0.0
 10
-37.00022232777435
 20
5.051631026022035
 30
0.0
 10
-37.0002491568008
 20
5.054577948747419
 30
0.0
 10
-37.00026067843624
 20
5.055734235458011
 30
0.0
 10
-37.0002845742255
 20
5.058054220905786
 30
0.0
 10
-37.00029164702564
 20
5.058649023357979
 30
0.0
 10
-37.00029164702554
 20
5.058649023349061
 30
0.0
  0
SPLINE
  5
8C54
330
8C3E
100
AcDbEntity
  8
0
100
AcDbSpline
210
0.0
220
0.0
230
1.0
 70
     8
 71
     3
 72
    18
 73
    14
 74
     0
 42
0.000000001
 43
0.0000000001
 40
0.0
 40
0.0
 40
0.0
 40
0.0
 40
0.0020459368685376
 40
0.0020459368685376
 40
0.0037107200257667
 40
0.0037107200257667
 40
0.0047889947679671
 40
0.0047889947679671
 40
0.0054061503916504
 40
0.0054061503916504
 40
0.0056716446537858
 40
0.0056716446537858
 40
0.0057661326313556
 40
0.0057661326313556
 40
0.0057661326313556
 40
0.0057661326313556
 10
-37.00000948701013
 20
4.999997311338136
 30
0.0
 10
-37.00000131156568
 20
5.0066889952238
 30
0.0
 10
-37.00000211538593
 20
5.013349874545508
 30
0.0
 10
-37.0000199570441
 20
5.024783593909805
 30
0.0
 10
-37.00003405150272
 20
5.029724981203327
 30
0.0
 10
-37.00006334484471
 20
5.037069180784824
 30
0.0
 10
-37.00007727568559
 20
5.039919826268088
 30
0.0
 10
-37.00009604435241
 20
5.043342981496231
 30
0.0
 10
-37.00010218026506
 20
5.044372616357517
 30
0.0
 10
-37.00010716111957
 20
5.045192216514436
 30
0.0
 10
-37.00010818427917
 20
5.045357436463487
 30
0.0
 10
-37.00010876161478
 20
5.045450627745012
 30
0.0
 10
-37.00010883935325
 20
5.045463136909795
 30
0.0
 10
-37.00010883933656
 20
5.045463134223439
 30
0.0
  0
SPLINE
  5
8C55
330
8C3E
100
AcDbEntity
  8
0
100
AcDbSpline
210
0.0
220
0.0
230
1.0
 70
     8
 71
     3
 72
     8
 73
     4
 74
     0
 42
0.000000001
 43
0.0000000001
 40
0.0
 40
0.0
 40
0.0
 40
0.0
 40
0.0007418607989956
 40
0.0007418607989956
 40
0.0007418607989956
 40
0.0007418607989956
 10
-37.00001228471722
 20
5.000000000124753
 30
0.0
 10
-37.00000823586235
 20
5.001543443019366
 30
0.0
 10
-37.00000413094276
 20
5.003157374890908
 30
0.0
 10
-36.99999999999998
 20
5.004838204609445
 30
0.0
  0
SPLINE
  5
8C56
330
8C3E
100
AcDbEntity
  8
0
100
AcDbSpline
210
0.0
220
0.0
230
1.0
 70
     8
 71
     3
 72
     8
 73
     4
 74
     0
 42
0.000000001
 43
0.0000000001
 40
0.282115086382692
 40
0.282115086382692
 40
0.282115086382692
 40
0.282115086382692
 40
0.2826513748657326
 40
0.2826513748657326
 40
0.2826513748657326
 40
0.2826513748657326
 10
-39.60168994580832
 20
7.558898680325603
 30
0.0
 10
-39.60290278743201
 20
7.559872844289376
 30
0.0
 10
-39.6040844474848
 20
7.560822724580763
 30
0.0
 10
-39.60523157670323
 20
7.561745872079232
 30
0.0
  0
SPLINE
  5
8C57
330
8C3E
100
AcDbEntity
  8
0
100
AcDbSpline
210
0.0
220
0.0
230
1.0
 70
     8
 71
     3
 72
     8
 73
     4
 74
     0
 42
0.000000001
 43
0.0000000001
 40
0.0169267140176427
 40
0.0169267140176427
 40
0.0169267140176427
 40
0.0169267140176427
 40
0.0176395326814971
 40
0.0176395326814971
 40
0.0176395326814971
 40
0.0176395326814971
 10
-39.60373962997691
 20
7.560586390965655
 30
0.0
 10
-39.60454420320134
 20
7.561211582184069
 30
0.0
 10
-39.60533729479934
 20
7.561827985799903
 30
0.0
 10
-39.60611379963712
 20
7.562431609146374
 30
0.0
  0
ARC
  5
8C58
330
8C3E
100
AcDbEntity
  8
0
100
AcDbCircle
 10
-32.99999999999999
 20
2.0
 30
0.0
 40
4.000000000000003
100
AcDbArc
 50
180.0
 51
270.0
  0
ARC
  5
8C59
330
8C3E
100
AcDbEntity
  8
0
100
AcDbCircle
 10
-32.99999999999999
 20
2.0
 30
0.0
 40
2.000000000000001
100
AcDbArc
 50
180.0
 51
270.0
  0
ARC
  5
8C5A
330
8C3E
100
AcDbEntity
  8
0
100
AcDbCircle
 10
32.99999999999999
 20
2.0
 30
0.0
 40
4.000000000000003
100
AcDbArc
 50
270.0
 51
0.0
  0
LINE
  5
8C5B
330
8C3E
100
AcDbEntity
  8
0
100
AcDbLine
 10
39.6060606060606
 20
7.562499999999912
 30
0.0
 11
76.50000000000004
 21
37.99999999999997
 31
0.0
  0
LINE
  5
8C5C
330
8C3E
100
AcDbEntity
  8
0
100
AcDbLine
 10
34.99999999999999
 20
5.0
 30
0.0
 11
35.0
 21
37.99999999999997
 31
0.0
  0
LINE
  5
8C5D
330
8C3E
100
AcDbEntity
  8
0
100
AcDbLine
 10
36.99999999999999
 20
5.0
 30
0.0
 11
34.99999999999999
 21
5.0
 31
0.0
  0
LINE
  5
8C5E
330
8C3E
100
AcDbEntity
  8
0
100
AcDbLine
 10
36.99999999999999
 20
37.99999999999997
 30
0.0
 11
36.99999999999999
 21
5.0
 31
0.0
  0
LINE
  5
8C5F
330
8C3E
100
AcDbEntity
  8
0
100
AcDbLine
 10
36.99999999999999
 20
37.99999999999997
 30
0.0
 11
35.0
 21
37.99999999999997
 31
0.0
  0
LINE
  5
8C60
330
8C3E
100
AcDbEntity
  8
0
100
AcDbLine
 10
35.0
 20
37.99999999999997
 30
0.0
 11
35.0
 21
134.9999999999999
 31
0.0
  0
LINE
  5
8C61
330
8C3E
100
AcDbEntity
  8
0
100
AcDbLine
 10
36.99999999999999
 20
134.9999999999999
 30
0.0
 11
36.99999999999999
 21
37.99999999999997
 31
0.0
  0
LINE
  5
8C62
330
8C3E
100
AcDbEntity
  8
0
100
AcDbLine
 10
35.0
 20
134.9999999999999
 30
0.0
 11
36.99999999999999
 21
134.9999999999999
 31
0.0
  0
LINE
  5
8C63
330
8C3E
100
AcDbEntity
  8
0
100
AcDbLine
 10
36.99999999999999
 20
5.0
 30
0.0
 11
36.99999999999999
 21
2.0
 31
0.0
  0
LINE
  5
8C64
330
8C3E
100
AcDbEntity
  8
0
100
AcDbLine
 10
34.99999999999999
 20
2.0
 30
0.0
 11
34.99999999999999
 21
5.0
 31
0.0
  0
ARC
  5
8C65
330
8C3E
100
AcDbEntity
  8
0
100
AcDbCircle
 10
32.99999999999999
 20
2.0
 30
0.0
 40
2.000000000000001
100
AcDbArc
 50
270.0
 51
0.0
  0
LINE
  5
8C66
330
8C3E
100
AcDbEntity
  8
0
100
AcDbLine
 10
39.0
 20
135.0
 30
0.0
 11
37.0
 21
135.0
 31
0.0
  0
LINE
  5
8C67
330
8C3E
100
AcDbEntity
  8
0
100
AcDbLine
 10
76.50000000000004
 20
37.99999999999997
 30
0.0
 11
76.5
 21
135.0
 31
0.0
  0
LINE
  5
8C68
330
8C3E
100
AcDbEntity
  8
0
100
AcDbLine
 10
76.5
 20
135.0
 30
0.0
 11
39.0
 21
135.0
 31
0.0
  0
CIRCLE
  5
8C69
330
8C3E
100
AcDbEntity
  8
0
100
AcDbCircle
 10
57.0
 20
115.0
 30
0.0
 40
6.5
  0
CIRCLE
  5
8C6A
330
8C3E
100
AcDbEntity
  8
0
100
AcDbCircle
 10
68.0
 20
120.0
 30
0.0
 40
2.5
  0
LINE
  5
8C6B
330
8C3E
100
AcDbEntity
  8
0
100
AcDbLine
 10
-76.50000000000004
 20
37.99999999999997
 30
0.0
 11
-39.6060606060606
 21
7.562499999999912
 31
0.0
  0
LINE
  5
8C6C
330
8C3E
100
AcDbEntity
  8
0
100
AcDbLine
 10
-35.0
 20
37.99999999999997
 30
0.0
 11
-34.99999999999999
 21
5.0
 31
0.0
  0
LINE
  5
8C6D
330
8C3E
100
AcDbEntity
  8
0
100
AcDbLine
 10
-36.99999999999999
 20
37.99999999999997
 30
0.0
 11
-35.0
 21
37.99999999999997
 31
0.0
  0
LINE
  5
8C6E
330
8C3E
100
AcDbEntity
  8
0
100
AcDbLine
 10
-36.99999999999999
 20
5.0
 30
0.0
 11
-36.99999999999999
 21
37.99999999999997
 31
0.0
  0
LINE
  5
8C6F
330
8C3E
100
AcDbEntity
  8
0
100
AcDbLine
 10
-34.99999999999999
 20
5.0
 30
0.0
 11
-36.99999999999999
 21
5.0
 31
0.0
  0
LINE
  5
8C70
330
8C3E
100
AcDbEntity
  8
0
100
AcDbLine
 10
-35.0
 20
134.9999999999999
 30
0.0
 11
-35.0
 21
37.99999999999997
 31
0.0
  0
LINE
  5
8C71
330
8C3E
100
AcDbEntity
  8
0
100
AcDbLine
 10
-36.99999999999999
 20
134.9999999999999
 30
0.0
 11
-35.0
 21
134.9999999999999
 31
0.0
  0
LINE
  5
8C72
330
8C3E
100
AcDbEntity
  8
0
100
AcDbLine
 10
-36.99999999999999
 20
37.99999999999997
 30
0.0
 11
-36.99999999999999
 21
134.9999999999999
 31
0.0
  0
CIRCLE
  5
8C73
330
8C3E
100
AcDbEntity
  8
0
100
AcDbCircle
 10
-57.0
 20
45.0
 30
0.0
 40
6.5
  0
CIRCLE
  5
8C74
330
8C3E
100
AcDbEntity
  8
0
100
AcDbCircle
 10
57.0
 20
45.0
 30
0.0
 40
6.5
  0
CIRCLE
  5
8C75
330
8C3E
100
AcDbEntity
  8
0
100
AcDbCircle
 10
-57.0
 20
115.0
 30
0.0
 40
6.5
  0
CIRCLE
  5
8C76
330
8C3E
100
AcDbEntity
  8
0
100
AcDbCircle
 10
-46.0
 20
30.0
 30
0.0
 40
2.5
  0
CIRCLE
  5
8C77
330
8C3E
100
AcDbEntity
  8
0
100
AcDbCircle
 10
-46.0
 20
50.0
 30
0.0
 40
2.5
  0
CIRCLE
  5
8C78
330
8C3E
100
AcDbEntity
  8
0
100
AcDbCircle
 10
-46.0
 20
70.0
 30
0.0
 40
2.5
  0
CIRCLE
  5
8C79
330
8C3E
100
AcDbEntity
  8
0
100
AcDbCircle
 10
-46.0
 20
90.0
 30
0.0
 40
2.5
  0
CIRCLE
  5
8C7A
330
8C3E
100
AcDbEntity
  8
0
100
AcDbCircle
 10
-46.0
 20
110.0
 30
0.0
 40
2.5
  0
CIRCLE
  5
8C7B
330
8C3E
100
AcDbEntity
  8
0
100
AcDbCircle
 10
46.0
 20
30.0
 30
0.0
 40
2.5
  0
CIRCLE
  5
8C7C
330
8C3E
100
AcDbEntity
  8
0
100
AcDbCircle
 10
46.0
 20
50.0
 30
0.0
 40
2.5
  0
CIRCLE
  5
8C7D
330
8C3E
100
AcDbEntity
  8
0
100
AcDbCircle
 10
46.0
 20
70.0
 30
0.0
 40
2.5
  0
CIRCLE
  5
8C7E
330
8C3E
100
AcDbEntity
  8
0
100
AcDbCircle
 10
46.0
 20
90.0
 30
0.0
 40
2.5
  0
CIRCLE
  5
8C7F
330
8C3E
100
AcDbEntity
  8
0
100
AcDbCircle
 10
46.0
 20
110.0
 30
0.0
 40
2.5
  0
CIRCLE
  5
8C80
330
8C3E
100
AcDbEntity
  8
0
100
AcDbCircle
 10
-46.0
 20
130.0
 30
0.0
 40
2.5
  0
CIRCLE
  5
8C81
330
8C3E
100
AcDbEntity
  8
0
100
AcDbCircle
 10
46.0
 20
130.0
 30
0.0
 40
2.5
  0
CIRCLE
  5
8C82
330
8C3E
100
AcDbEntity
  8
0
100
AcDbCircle
 10
-68.0
 20
40.0
 30
0.0
 40
2.5
  0
CIRCLE
  5
8C83
330
8C3E
100
AcDbEntity
  8
0
100
AcDbCircle
 10
-68.0
 20
60.0
 30
0.0
 40
2.5
  0
CIRCLE
  5
8C84
330
8C3E
100
AcDbEntity
  8
0
100
AcDbCircle
 10
-68.0
 20
80.0
 30
0.0
 40
2.5
  0
CIRCLE
  5
8C85
330
8C3E
100
AcDbEntity
  8
0
100
AcDbCircle
 10
-68.0
 20
100.0
 30
0.0
 40
2.5
  0
CIRCLE
  5
8C86
330
8C3E
100
AcDbEntity
  8
0
100
AcDbCircle
 10
68.0
 20
40.0
 30
0.0
 40
2.5
  0
CIRCLE
  5
8C87
330
8C3E
100
AcDbEntity
  8
0
100
AcDbCircle
 10
68.0
 20
60.0
 30
0.0
 40
2.5
  0
CIRCLE
  5
8C88
330
8C3E
100
AcDbEntity
  8
0
100
AcDbCircle
 10
68.0
 20
80.0
 30
0.0
 40
2.5
  0
CIRCLE
  5
8C89
330
8C3E
100
AcDbEntity
  8
0
100
AcDbCircle
 10
68.0
 20
100.0
 30
0.0
 40
2.5
  0
CIRCLE
  5
8C8A
330
8C3E
100
AcDbEntity
  8
0
100
AcDbCircle
 10
-68.0
 20
120.0
 30
0.0
 40
2.5
  0
LINE
  5
8C8B
330
8C3E
100
AcDbEntity
  8
0
100
AcDbLine
 10
-76.5
 20
135.0
 30
0.0
 11
-39.0
 21
135.0
 31
0.0
  0
LINE
  5
8C8C
330
8C3E
100
AcDbEntity
  8
0
100
AcDbLine
 10
-76.50000000000004
 20
37.99999999999997
 30
0.0
 11
-76.5
 21
135.0
 31
0.0
  0
LINE
  5
8C8D
330
8C3E
100
AcDbEntity
  8
0
100
AcDbLine
 10
-34.99999999999999
 20
2.0
 30
0.0
 11
-34.99999999999999
 21
5.0
 31
0.0
  0
LINE
  5
8C8E
330
8C3E
100
AcDbEntity
  8
0
100
AcDbLine
 10
-36.99999999999999
 20
5.0
 30
0.0
 11
-36.99999999999999
 21
2.0
 31
0.0
  0
LINE
  5
8C8F
330
8C3E
100
AcDbEntity
  8
0
100
AcDbLine
 10
-39.0
 20
135.0
 30
0.0
 11
-37.0
 21
135.0
 31
0.0
  0
ENDBLK
  5
8C40
330
8C3E
100
AcDbEntity
  8
0
100
AcDbBlockEnd
  0
BLOCK
  5
8C91
330
8C90
100
AcDbEntity
  8
0
100
AcDbBlockBegin
  2
SAE340_70_2-Left
 70
     0
 10
0.0
 20
0.0
 30
0.0
  3
SAE340_70_2-Left
  1

  0
LINE
  5
8C93
330
8C90
100
AcDbEntity
  8
0
100
AcDbLine
 10
2.000000000000004
 20
-2.0
 30
0.0
 11
86.00000000000001
 21
-2.000000000000003
 31
0.0
  0
LINE
  5
8C94
330
8C90
100
AcDbEntity
  8
0
100
AcDbLine
 10
2.00000000000001
 20
2.000000000000004
 30
0.0
 11
2.000000000000004
 21
-1.999999999999999
 31
0.0
  0
LINE
  5
8C95
330
8C90
100
AcDbEntity
  8
0
100
AcDbLine
 10
86.00000000000001
 20
-2.000000000000003
 30
0.0
 11
86.00000000000001
 21
2.0
 31
0.0
  0
SPLINE
  5
8C96
330
8C90
100
AcDbEntity
  8
0
100
AcDbSpline
210
0.0
220
0.0
230
1.0
 70
     8
 71
     3
 72
    14
 73
    10
 74
     0
 42
0.000000001
 43
0.0000000001
 40
-0.4813026532988845
 40
-0.4813026532988845
 40
-0.4813026532988845
 40
-0.4813026532988845
 40
-0.3760960080957858
 40
-0.3760960080957858
 40
-0.3760960080957858
 40
-0.0765284972631262
 40
-0.0765284972631262
 40
-0.0765284972631262
 40
0.0
 40
0.0
 40
0.0
 40
0.0
 10
0.9454120927498856
 20
6.73176011522316
 30
0.0
 10
0.8408297879971977
 20
6.768676186082485
 30
0.0
 10
0.7371129357507117
 20
6.800540904833648
 30
0.0
 10
0.6388614064292933
 20
6.83423666321489
 30
0.0
 10
0.3590980320008069
 20
6.93018264119376
 30
0.0
 10
0.1217220476492346
 20
7.040016129683626
 30
0.0
 10
0.0342615816105237
 20
7.314433869570903
 30
0.0
 10
0.0119186445634749
 20
7.38453752399439
 30
0.0
 10
0.0000045452574074
 20
7.467696651049484
 30
0.0
 10
0.00000000011521
 20
7.562500000040014
 30
0.0
  0
SPLINE
  5
8C97
330
8C90
100
AcDbEntity
  8
0
100
AcDbSpline
210
0.0
220
0.0
230
1.0
 70
     8
 71
     3
 72
    14
 73
    10
 74
     0
 42
0.000000001
 43
0.0000000001
 40
0.0
 40
0.0
 40
0.0
 40
0.0
 40
0.3435165591371065
 40
0.3435165591371065
 40
0.3435165591371065
 40
0.7569936138416016
 40
0.7569936138416016
 40
0.7569936138416016
 40
1.0
 40
1.0
 40
1.0
 40
1.0
 10
2.000000000000007
 20
7.562499999999911
 30
0.0
 10
2.000036880260042
 20
7.302491937350175
 30
0.0
 10
1.996833903329484
 20
7.075290373262083
 30
0.0
 10
1.998675521250083
 20
6.844078101680958
 30
0.0
 10
2.000892202610694
 20
6.565777197337238
 30
0.0
 10
2.001068608701189
 20
6.2713945021897
 30
0.0
 10
2.001123034011691
 20
5.857928778821682
 30
0.0
 10
2.001155020546058
 20
5.614929052252
 30
0.0
 10
2.000250549241847
 20
5.35822947219763
 30
0.0
 10
1.99999999999248
 20
5.000000001652869
 30
0.0
  0
LINE
  5
8C98
330
8C90
100
AcDbEntity
  8
0
100
AcDbLine
 10
0.0
 20
7.562499999999914
 30
0.0
 11
2.000000000000005
 21
7.562499999999914
 31
0.0
  0
SPLINE
  5
8C99
330
8C90
100
AcDbEntity
  8
0
100
AcDbSpline
210
0.0
220
0.0
230
1.0
 70
     8
 71
     3
 72
    18
 73
    14
 74
     0
 42
0.000000001
 43
0.0000000001
 40
0.0
 40
0.0
 40
0.0
 40
0.0
 40
0.0045852969200505
 40
0.0045852969200505
 40
0.0065400840529848
 40
0.0065400840529848
 40
0.0081563835272187
 40
0.0081563835272187
 40
0.0096016089291528
 40
0.0096016089291528
 40
0.0108226891098111
 40
0.0108226891098111
 40
0.0118646457915405
 40
0.0118646457915405
 40
0.0118646457915405
 40
0.0118646457915405
 10
1.999557272902098
 20
4.99999849939593
 30
0.0
 10
1.999513512458608
 20
5.014758380794286
 30
0.0
 10
1.999424163679364
 20
5.029190755732605
 30
0.0
 10
1.999253402731562
 20
5.046755702743363
 30
0.0
 10
1.99919685048693
 20
5.051669876493454
 30
0.0
 10
1.999091149901832
 20
5.059727332790035
 30
0.0
 10
1.999042050549964
 20
5.063059249240296
 30
0.0
 10
1.998954621960038
 20
5.068519133175271
 30
0.0
 10
1.998915397044829
 20
5.070757002773428
 30
0.0
 10
1.998855183908597
 20
5.074013635807511
 30
0.0
 10
1.998832157097596
 20
5.075177814661139
 30
0.0
 10
1.998803973819231
 20
5.076564602693037
 30
0.0
 10
1.99879657275535
 20
5.076907239655295
 30
0.0
 10
1.99879657280714
 20
5.076907237252767
 30
0.0
  0
SPLINE
  5
8C9A
330
8C90
100
AcDbEntity
  8
0
100
AcDbSpline
210
0.0
220
0.0
230
1.0
 70
     8
 71
     3
 72
    12
 73
     8
 74
     0
 42
0.000000001
 43
0.0000000001
 40
0.0059633252747279
 40
0.0059633252747279
 40
0.0059633252747279
 40
0.0059633252747279
 40
0.0066536742782287
 40
0.0066536742782287
 40
0.0086398635140052
 40
0.0086398635140052
 40
0.0087253466680976
 40
0.0087253466680976
 40
0.0087253466680976
 40
0.0087253466680976
 10
1.999420479339228
 20
5.027655359939455
 30
0.0
 10
1.999406074172402
 20
5.02827987373762
 30
0.0
 10
1.999393029418422
 20
5.028836447283893
 30
0.0
 10
1.999348675823806
 20
5.03070956782158
 30
0.0
 10
1.999329089674726
 20
5.03149445620572
 30
0.0
 10
1.999327499326619
 20
5.03155858686053
 30
0.0
 10
1.999327466375846
 20
5.031559914274197
 30
0.0
 10
1.99932746638996
 20
5.031559913705619
 30
0.0
  0
SPLINE
  5
8C9B
330
8C90
100
AcDbEntity
  8
0
100
AcDbSpline
210
0.0
220
0.0
230
1.0
 70
     8
 71
     3
 72
    32
 73
    28
 74
     0
 42
0.000000001
 43
0.0000000001
 40
0.0044269611893497
 40
0.0044269611893497
 40
0.0044269611893497
 40
0.0044269611893497
 40
0.0070666150351698
 40
0.0070666150351698
 40
0.0097359241793899
 40
0.0097359241793899
 40
0.0112195603034576
 40
0.0112195603034576
 40
0.0132974512326055
 40
0.0132974512326055
 40
0.0162697048249515
 40
0.0162697048249515
 40
0.0233581018211235
 40
0.0233581018211235
 40
0.0446188969682595
 40
0.0446188969682595
 40
0.0765645807222294
 40
0.0765645807222294
 40
0.1066779008134235
 40
0.1066779008134235
 40
0.1471724919927648
 40
0.1471724919927648
 40
0.1805118331064206
 40
0.1805118331064206
 40
0.2202828906042251
 40
0.2202828906042251
 40
0.2444799756957022
 40
0.2444799756957022
 40
0.2444799756957022
 40
0.2444799756957022
 10
1.999453047720125
 20
5.022795421660054
 30
0.0
 10
1.99934312780347
 20
5.026925276701533
 30
0.0
 10
1.999228376886286
 20
5.030997391481484
 30
0.0
 10
1.998950736159313
 20
5.0402108995354
 30
0.0
 10
1.998783229283695
 20
5.045517514914543
 30
0.0
 10
1.998427362271493
 20
5.055778529895544
 30
0.0
 10
1.998279948734456
 20
5.0598647234515
 30
0.0
 10
1.997885574296017
 20
5.070238152545604
 30
0.0
 10
1.997620188678673
 20
5.076799584646632
 30
0.0
 10
1.996919491636687
 20
5.092944241791368
 30
0.0
 10
1.996456080831288
 20
5.102725347451441
 30
0.0
 10
1.994744210983858
 20
5.135838145830068
 30
0.0
 10
1.993288976673485
 20
5.159383652066028
 30
0.0
 10
1.986467949089858
 20
5.25325816064144
 30
0.0
 10
1.979100551561731
 20
5.323357333099218
 30
0.0
 10
1.954117793249776
 20
5.497525779011028
 30
0.0
 10
1.933095164923219
 20
5.601916935595914
 30
0.0
 10
1.87694375403239
 20
5.800895093835556
 30
0.0
 10
1.842238041691769
 20
5.89654333831835
 30
0.0
 10
1.742828773017024
 20
6.107265109781988
 30
0.0
 10
1.669688386587227
 20
6.220046120020032
 30
0.0
 10
1.52266636483585
 20
6.389429105279509
 30
0.0
 10
1.450190933691671
 20
6.454676124723571
 30
0.0
 10
1.289829444771214
 20
6.573265263152351
 30
0.0
 10
1.200070169708944
 20
6.623718702744504
 30
0.0
 10
1.054254701941572
 20
6.690648000031071
 30
0.0
 10
0.998580839594711
 20
6.712738220990476
 30
0.0
 10
0.9420912521208968
 20
6.7325971296409
 30
0.0
  0
LINE
  5
8C9C
330
8C90
100
AcDbEntity
  8
0
100
AcDbLine
 10
2.00000000000001
 20
2.000000000000003
 30
0.0
 11
2.00000000000001
 21
5.0
 31
0.0
  0
LINE
  5
8C9D
330
8C90
100
AcDbEntity
  8
0
100
AcDbLine
 10
1.999999999999997
 20
37.99999999999997
 30
0.0
 11
2.000000000000005
 21
7.562499999999912
 31
0.0
  0
LINE
  5
8C9E
330
8C90
100
AcDbEntity
  8
0
100
AcDbLine
 10
0.0
 20
37.99999999999997
 30
0.0
 11
1.999999999999997
 21
37.99999999999997
 31
0.0
  0
LINE
  5
8C9F
330
8C90
100
AcDbEntity
  8
0
100
AcDbLine
 10
0.0
 20
7.562499999999912
 30
0.0
 11
0.0
 21
37.99999999999997
 31
0.0
  0
LINE
  5
8CA0
330
8C90
100
AcDbEntity
  8
0
100
AcDbLine
 10
86.00000000000003
 20
5.0
 30
0.0
 11
46.00000000000003
 21
37.99999999999997
 31
0.0
  0
LINE
  5
8CA1
330
8C90
100
AcDbEntity
  8
0
100
AcDbLine
 10
46.00000000000003
 20
37.99999999999997
 30
0.0
 11
46.00000000000001
 21
134.9999999999999
 31
0.0
  0
LINE
  5
8CA2
330
8C90
100
AcDbEntity
  8
0
100
AcDbLine
 10
1.999999999999997
 20
37.99999999999997
 30
0.0
 11
2.00000000000001
 21
135.0
 31
0.0
  0
LINE
  5
8CA3
330
8C90
100
AcDbEntity
  8
0
100
AcDbLine
 10
86.00000000000003
 20
5.0
 30
0.0
 11
86.00000000000001
 21
2.0
 31
0.0
  0
LINE
  5
8CA4
330
8C90
100
AcDbEntity
  8
0
100
AcDbLine
 10
4.000000000000003
 20
135.0
 30
0.0
 11
46.00000000000001
 21
134.9999999999999
 31
0.0
  0
LINE
  5
8CA5
330
8C90
100
AcDbEntity
  8
0
100
AcDbLine
 10
0.0
 20
135.0
 30
0.0
 11
2.00000000000001
 21
135.0
 31
0.0
  0
LINE
  5
8CA6
330
8C90
100
AcDbEntity
  8
0
100
AcDbLine
 10
0.0
 20
37.99999999999997
 30
0.0
 11
0.0
 21
135.0
 31
0.0
  0
LINE
  5
8CA7
330
8C90
100
AcDbEntity
  8
0
100
AcDbLine
 10
2.000000000000006
 20
135.0
 30
0.0
 11
4.000000000000003
 21
135.0
 31
0.0
  0
CIRCLE
  5
8CA8
330
8C90
100
AcDbEntity
  8
0
100
AcDbCircle
 10
38.50000000000001
 20
30.0
 30
0.0
 40
2.5
  0
CIRCLE
  5
8CA9
330
8C90
100
AcDbEntity
  8
0
100
AcDbCircle
 10
38.50000000000001
 20
50.0
 30
0.0
 40
2.5
  0
CIRCLE
  5
8CAA
330
8C90
100
AcDbEntity
  8
0
100
AcDbCircle
 10
38.50000000000001
 20
70.0
 30
0.0
 40
2.5
  0
CIRCLE
  5
8CAB
330
8C90
100
AcDbEntity
  8
0
100
AcDbCircle
 10
38.50000000000001
 20
90.0
 30
0.0
 40
2.5
  0
CIRCLE
  5
8CAC
330
8C90
100
AcDbEntity
  8
0
100
AcDbCircle
 10
38.50000000000001
 20
110.0
 30
0.0
 40
2.5
  0
CIRCLE
  5
8CAD
330
8C90
100
AcDbEntity
  8
0
100
AcDbCircle
 10
38.50000000000001
 20
130.0
 30
0.0
 40
2.5
  0
SPLINE
  5
8CAE
330
8C90
100
AcDbEntity
  8
0
100
AcDbSpline
210
0.0
220
0.0
230
1.0
 70
     8
 71
     3
 72
     8
 73
     4
 74
     0
 42
0.000000001
 43
0.0000000001
 40
0.0
 40
0.0
 40
0.0
 40
0.0
 40
0.0024158823056535
 40
0.0024158823056535
 40
0.0024158823056535
 40
0.0024158823056535
 10
1.999557272902098
 20
4.99999849939593
 30
0.0
 10
1.999534216580347
 20
5.007775124754237
 30
0.0
 10
1.99949921423162
 20
5.01546439077942
 30
0.0
 10
1.999453047720132
 20
5.022795421659211
 30
0.0
  0
ENDBLK
  5
8C92
330
8C90
100
AcDbEntity
  8
0
100
AcDbBlockEnd
  0
BLOCK
  5
8CB0
330
8CAF
100
AcDbEntity
  8
0
100
AcDbBlockBegin
  2
SAE340_70_2-Right
 70
     0
 10
0.0
 20
0.0
 30
0.0
  3
SAE340_70_2-Right
  1

  0
SPLINE
  5
8CB2
330
8CAF
100
AcDbEntity
  8
0
100
AcDbSpline
210
0.0
220
0.0
230
1.0
 70
     8
 71
     3
 72
    14
 73
    10
 74
     0
 42
0.000000001
 43
0.0000000001
 40
0.0
 40
0.0
 40
0.0
 40
0.0
 40
0.3435165591371065
 40
0.3435165591371065
 40
0.3435165591371065
 40
0.7569936138416016
 40
0.7569936138416016
 40
0.7569936138416016
 40
1.0
 40
1.0
 40
1.0
 40
1.0
 10
-2.000000000000007
 20
7.562499999999911
 30
0.0
 10
-2.000036880260042
 20
7.302491937350175
 30
0.0
 10
-1.996833903329484
 20
7.075290373262083
 30
0.0
 10
-1.998675521250083
 20
6.844078101680958
 30
0.0
 10
-2.000892202610694
 20
6.565777197337238
 30
0.0
 10
-2.001068608701189
 20
6.2713945021897
 30
0.0
 10
-2.001123034011691
 20
5.857928778821682
 30
0.0
 10
-2.001155020546058
 20
5.614929052252
 30
0.0
 10
-2.000250549241847
 20
5.35822947219763
 30
0.0
 10
-1.99999999999248
 20
5.000000001652869
 30
0.0
  0
SPLINE
  5
8CB3
330
8CAF
100
AcDbEntity
  8
0
100
AcDbSpline
210
0.0
220
0.0
230
1.0
 70
     8
 71
     3
 72
    14
 73
    10
 74
     0
 42
0.000000001
 43
0.0000000001
 40
-0.4813026532988798
 40
-0.4813026532988798
 40
-0.4813026532988798
 40
-0.4813026532988798
 40
-0.3760960080957858
 40
-0.3760960080957858
 40
-0.3760960080957858
 40
-0.0765284972631262
 40
-0.0765284972631262
 40
-0.0765284972631262
 40
0.0
 40
0.0
 40
0.0
 40
0.0
 10
-0.9454120927498719
 20
6.731760115223166
 30
0.0
 10
-0.8408297879971886
 20
6.768676186082489
 30
0.0
 10
-0.7371129357507074
 20
6.80054090483365
 30
0.0
 10
-0.6388614064292933
 20
6.83423666321489
 30
0.0
 10
-0.3590980320008069
 20
6.93018264119376
 30
0.0
 10
-0.1217220476492346
 20
7.040016129683626
 30
0.0
 10
-0.0342615816105237
 20
7.314433869570903
 30
0.0
 10
-0.0119186445634749
 20
7.38453752399439
 30
0.0
 10
-0.0000045452574074
 20
7.467696651049484
 30
0.0
 10
-0.00000000011521
 20
7.562500000040014
 30
0.0
  0
LINE
  5
8CB4
330
8CAF
100
AcDbEntity
  8
0
100
AcDbLine
 10
-2.000000000000005
 20
7.562499999999914
 30
0.0
 11
0.0
 21
7.562499999999914
 31
0.0
  0
SPLINE
  5
8CB5
330
8CAF
100
AcDbEntity
  8
0
100
AcDbSpline
210
0.0
220
0.0
230
1.0
 70
     8
 71
     3
 72
    16
 73
    12
 74
     0
 42
0.000000001
 43
0.0000000001
 40
0.0119733517144846
 40
0.0119733517144846
 40
0.0119733517144846
 40
0.0119733517144846
 40
0.0132101283118335
 40
0.0132101283118335
 40
0.014792145599342
 40
0.014792145599342
 40
0.0179906735768801
 40
0.0179906735768801
 40
0.0208195517177387
 40
0.0208195517177387
 40
0.0238392197901433
 40
0.0238392197901433
 40
0.0238392197901433
 40
0.0238392197901433
 10
-1.998796572807086
 20
5.076907237255287
 30
0.0
 10
-1.998796572804549
 20
5.076907237373021
 30
0.0
 10
-1.998806931014218
 20
5.076428115492782
 30
0.0
 10
-1.998847483382128
 20
5.074406279056528
 30
0.0
 10
-1.998882572419628
 20
5.072590416451822
 30
0.0
 10
-1.99900482870236
 20
5.06563013967826
 30
0.0
 10
-1.999108828347257
 20
5.058879213842094
 30
0.0
 10
-1.999282360816471
 20
5.044257830558732
 30
0.0
 10
-1.999357578438838
 20
5.036406215325995
 30
0.0
 10
-1.999481031818415
 20
5.01923591430291
 30
0.0
 10
-1.999528454263666
 20
5.009718686199144
 30
0.0
 10
-1.999557272902097
 20
4.99999849939593
 30
0.0
  0
SPLINE
  5
8CB6
330
8CAF
100
AcDbEntity
  8
0
100
AcDbSpline
210
0.0
220
0.0
230
1.0
 70
     8
 71
     3
 72
    12
 73
     8
 74
     0
 42
0.000000001
 43
0.0000000001
 40
0.0086744412320822
 40
0.0086744412320822
 40
0.0086744412320822
 40
0.0086744412320822
 40
0.0108228418473919
 40
0.0108228418473919
 40
0.013886814803828
 40
0.013886814803828
 40
0.0173947674114476
 40
0.0173947674114476
 40
0.0173947674114476
 40
0.0173947674114476
 10
-1.999327466389836
 20
5.031559913710609
 30
0.0
 10
-1.999327466386446
 20
5.03155991384721
 30
0.0
 10
-1.999348975124044
 20
5.03070111135038
 30
0.0
 10
-1.999438185388537
 20
5.026922866601513
 30
0.0
 10
-1.999521954743515
 20
5.023252879066152
 30
0.0
 10
-1.999719011798858
 20
5.013478748628299
 30
0.0
 10
-1.99983526385305
 20
5.007056344341375
 30
0.0
 10
-1.99993928047177
 20
4.999998685725622
 30
0.0
  0
SPLINE
  5
8CB7
330
8CAF
100
AcDbEntity
  8
0
100
AcDbSpline
210
0.0
220
0.0
230
1.0
 70
     8
 71
     3
 72
    28
 73
    24
 74
     0
 42
0.000000001
 43
0.0000000001
 40
0.0
 40
0.0
 40
0.0
 40
0.0
 40
0.0650016965074278
 40
0.0650016965074278
 40
0.1023228294592135
 40
0.1023228294592135
 40
0.1414747326697505
 40
0.1414747326697505
 40
0.1748987385438468
 40
0.1748987385438468
 40
0.2169239990938046
 40
0.2169239990938046
 40
0.2285713936655312
 40
0.2285713936655312
 40
0.2316497790349928
 40
0.2316497790349928
 40
0.2332712167201325
 40
0.2332712167201325
 40
0.2348988842774226
 40
0.2348988842774226
 40
0.2381770016330961
 40
0.2381770016330961
 40
0.2398093120502471
 40
0.2398093120502471
 40
0.2398093120502471
 40
0.2398093120502471
 10
-0.9420912521208835
 20
6.732597129640903
 30
0.0
 10
-1.093841721523324
 20
6.6792492677731
 30
0.0
 10
-1.242353898730206
 20
6.609887993425903
 30
0.0
 10
-1.466451771008156
 20
6.441716173715943
 30
0.0
 10
-1.547407943200276
 20
6.365941461107631
 30
0.0
 10
-1.695446554657707
 20
6.18241413825897
 30
0.0
 10
-1.763061289546481
 20
6.070407411170607
 30
0.0
 10
-1.860492149630406
 20
5.85077461310604
 30
0.0
 10
-1.89580963277363
 20
5.7432152103004
 30
0.0
 10
-1.955911122104192
 20
5.499569025545675
 30
0.0
 10
-1.976606287619713
 20
5.361743260387086
 30
0.0
 10
-1.991712579948274
 20
5.184278268160927
 30
0.0
 10
-1.994301896793064
 20
5.145447913624017
 30
0.0
 10
-1.99672781740741
 20
5.097091095927153
 30
0.0
 10
-1.997190140005569
 20
5.086970880007548
 30
0.0
 10
-1.997805613578522
 20
5.072202061943262
 30
0.0
 10
-1.998002494732841
 20
5.067208274029813
 30
0.0
 10
-1.998352537520063
 20
5.057890305665029
 30
0.0
 10
-1.998506821223661
 20
5.053537727507385
 30
0.0
 10
-1.99890000550969
 20
5.041979610571192
 30
0.0
 10
-1.999076487666187
 20
5.036165536788606
 30
0.0
 10
-1.999306259647678
 20
5.028196030514841
 30
0.0
 10
-1.99938080089287
 20
5.025504505431182
 30
0.0
 10
-1.999453071716029
 20
5.022785010064917
 30
0.0
  0
LINE
  5
8CB8
330
8CAF
100
AcDbEntity
  8
0
100
AcDbLine
 10
-2.000000000000004
 20
-2.0
 30
0.0
 11
-86.00000000000001
 21
-2.0
 31
0.0
  0
LINE
  5
8CB9
330
8CAF
100
AcDbEntity
  8
0
100
AcDbLine
 10
-2.00000000000001
 20
2.000000000000003
 30
0.0
 11
-2.00000000000001
 21
5.0
 31
0.0
  0
LINE
  5
8CBA
330
8CAF
100
AcDbEntity
  8
0
100
AcDbLine
 10
-2.00000000000001
 20
2.000000000000004
 30
0.0
 11
-2.000000000000004
 21
-1.999999999999999
 31
0.0
  0
LINE
  5
8CBB
330
8CAF
100
AcDbEntity
  8
0
100
AcDbLine
 10
-86.00000000000001
 20
-2.000000000000003
 30
0.0
 11
-86.00000000000001
 21
2.0
 31
0.0
  0
LINE
  5
8CBC
330
8CAF
100
AcDbEntity
  8
0
100
AcDbLine
 10
0.0
 20
37.99999999999997
 30
0.0
 11
0.0
 21
7.562499999999912
 31
0.0
  0
LINE
  5
8CBD
330
8CAF
100
AcDbEntity
  8
0
100
AcDbLine
 10
-1.999999999999997
 20
37.99999999999997
 30
0.0
 11
0.0
 21
37.99999999999997
 31
0.0
  0
LINE
  5
8CBE
330
8CAF
100
AcDbEntity
  8
0
100
AcDbLine
 10
-2.000000000000005
 20
7.562499999999912
 30
0.0
 11
-1.999999999999997
 21
37.99999999999997
 31
0.0
  0
LINE
  5
8CBF
330
8CAF
100
AcDbEntity
  8
0
100
AcDbLine
 10
0.0
 20
37.99999999999997
 30
0.0
 11
0.0
 21
135.0
 31
0.0
  0
CIRCLE
  5
8CC0
330
8CAF
100
AcDbEntity
  8
0
100
AcDbCircle
 10
-38.50000000000002
 20
120.0
 30
0.0
 40
2.5
  0
LINE
  5
8CC1
330
8CAF
100
AcDbEntity
  8
0
100
AcDbLine
 10
-46.00000000000003
 20
37.99999999999997
 30
0.0
 11
-86.00000000000003
 21
5.0
 31
0.0
  0
LINE
  5
8CC2
330
8CAF
100
AcDbEntity
  8
0
100
AcDbLine
 10
-46.00000000000001
 20
134.9999999999999
 30
0.0
 11
-46.00000000000003
 21
37.99999999999997
 31
0.0
  0
LINE
  5
8CC3
330
8CAF
100
AcDbEntity
  8
0
100
AcDbLine
 10
-86.00000000000003
 20
5.0
 30
0.0
 11
-86.00000000000001
 21
2.0
 31
0.0
  0
LINE
  5
8CC4
330
8CAF
100
AcDbEntity
  8
0
100
AcDbLine
 10
-4.000000000000003
 20
135.0
 30
0.0
 11
-46.00000000000001
 21
134.9999999999999
 31
0.0
  0
LINE
  5
8CC5
330
8CAF
100
AcDbEntity
  8
0
100
AcDbLine
 10
-2.000000000000006
 20
135.0
 30
0.0
 11
-4.000000000000003
 21
135.0
 31
0.0
  0
LINE
  5
8CC6
330
8CAF
100
AcDbEntity
  8
0
100
AcDbLine
 10
0.0
 20
135.0
 30
0.0
 11
-2.00000000000001
 21
135.0
 31
0.0
  0
LINE
  5
8CC7
330
8CAF
100
AcDbEntity
  8
0
100
AcDbLine
 10
-1.999999999999997
 20
37.99999999999997
 30
0.0
 11
-2.00000000000001
 21
135.0
 31
0.0
  0
CIRCLE
  5
8CC8
330
8CAF
100
AcDbEntity
  8
0
100
AcDbCircle
 10
-38.50000000000002
 20
19.99999999999998
 30
0.0
 40
2.5
  0
CIRCLE
  5
8CC9
330
8CAF
100
AcDbEntity
  8
0
100
AcDbCircle
 10
-38.50000000000002
 20
39.99999999999999
 30
0.0
 40
2.5
  0
CIRCLE
  5
8CCA
330
8CAF
100
AcDbEntity
  8
0
100
AcDbCircle
 10
-38.50000000000002
 20
59.99999999999999
 30
0.0
 40
2.5
  0
CIRCLE
  5
8CCB
330
8CAF
100
AcDbEntity
  8
0
100
AcDbCircle
 10
-38.50000000000002
 20
79.99999999999999
 30
0.0
 40
2.5
  0
CIRCLE
  5
8CCC
330
8CAF
100
AcDbEntity
  8
0
100
AcDbCircle
 10
-38.50000000000002
 20
100.0
 30
0.0
 40
2.5
  0
SPLINE
  5
8CCD
330
8CAF
100
AcDbEntity
  8
0
100
AcDbSpline
210
0.0
220
0.0
230
1.0
 70
     8
 71
     3
 72
     8
 73
     4
 74
     0
 42
0.000000001
 43
0.0000000001
 40
0.0214149014347484
 40
0.0214149014347484
 40
0.0214149014347484
 40
0.0214149014347484
 40
0.0238392197901433
 40
0.0238392197901433
 40
0.0238392197901433
 40
0.0238392197901433
 10
-1.999453071716029
 20
5.022785010064908
 30
0.0
 10
-1.999499008035627
 20
5.015475242387243
 30
0.0
 10
-1.999534136069687
 20
5.00780228004992
 30
0.0
 10
-1.999557272902097
 20
4.99999849939593
 30
0.0
  0
ENDBLK
  5
8CB1
330
8CAF
100
AcDbEntity
  8
0
100
AcDbBlockEnd
  0
BLOCK
  5
8CCF
330
8CCE
100
AcDbEntity
  8
0
100
AcDbBlockBegin
  2
SAE340_70_2-Top
 70
     0
 10
0.0
 20
0.0
 30
0.0
  3
SAE340_70_2-Top
  1

  0
LINE
  5
8CD1
330
8CCE
100
AcDbEntity
  8
0
100
AcDbLine
 10
35.00000000000002
 20
-2.000000000000007
 30
0.0
 11
35.00000000000002
 21
-2.069004766160428
 31
0.0
  0
SPLINE
  5
8CD2
330
8CCE
100
AcDbEntity
  8
0
100
AcDbSpline
210
0.0
220
0.0
230
1.0
 70
     8
 71
     3
 72
    11
 73
     7
 74
     0
 42
0.000000001
 43
0.0000000001
 40
-1.0
 40
-1.0
 40
-1.0
 40
-1.0
 40
-0.799428689071439
 40
-0.799428689071439
 40
-0.799428689071439
 40
-0.6533573777220422
 40
-0.6533573777220422
 40
-0.6533573777220422
 40
-0.6533573777220422
 10
35.00000000000002
 20
-2.000000000000014
 30
0.0
 10
34.9999996127034
 20
-1.999093543230953
 30
0.0
 10
35.12633150600829
 20
-1.919863896632898
 30
0.0
 10
35.33607694564123
 20
-1.790687786199578
 30
0.0
 10
35.48882955654504
 20
-1.696611899879374
 30
0.0
 10
35.68837056420805
 20
-1.577391377849933
 30
0.0
 10
35.91982716790697
 20
-1.445337717163086
 30
0.0
  0
SPLINE
  5
8CD3
330
8CCE
100
AcDbEntity
  8
0
100
AcDbSpline
210
0.0
220
0.0
230
1.0
 70
     8
 71
     3
 72
    24
 73
    20
 74
     0
 42
0.000000001
 43
0.0000000001
 40
0.0
 40
0.0
 40
0.0
 40
0.0
 40
0.0070452398644187
 40
0.0070452398644187
 40
0.0166405949446589
 40
0.0166405949446589
 40
0.0367140943138427
 40
0.0367140943138427
 40
0.0488284900287569
 40
0.0488284900287569
 40
0.0619891281573438
 40
0.0619891281573438
 40
0.070521367860484
 40
0.070521367860484
 40
0.0770085532345044
 40
0.0770085532345044
 40
0.082490560663471
 40
0.082490560663471
 40
0.0857779388106788
 40
0.0857779388106788
 40
0.0857779388106788
 40
0.0857779388106788
 10
39.56202985675346
 20
-2.000020061973661
 30
0.0
 10
39.54510572272513
 20
-2.000020928437329
 30
0.0
 10
39.52555210335715
 20
-2.000028134291595
 30
0.0
 10
39.47775545385634
 20
-2.000061132070957
 30
0.0
 10
39.44841962886027
 20
-2.000093689688331
 30
0.0
 10
39.35657224027094
 20
-2.000268440251015
 30
0.0
 10
39.29198494435433
 20
-2.000513808509507
 30
0.0
 10
39.19633422765875
 20
-2.000879055390127
 30
0.0
 10
39.16273081631608
 20
-2.000996414976831
 30
0.0
 10
39.09183574198691
 20
-2.001409809831277
 30
0.0
 10
39.05253731415894
 20
-2.001731207546596
 30
0.0
 10
38.98400779114521
 20
-2.002903978517188
 30
0.0
 10
38.95599554229328
 20
-2.003538353528146
 30
0.0
 10
38.90628512950233
 20
-2.00513492580221
 30
0.0
 10
38.88449296388726
 20
-2.005989885758238
 30
0.0
 10
38.84475199503176
 20
-2.007923221085442
 30
0.0
 10
38.82655876652213
 20
-2.008956309541627
 30
0.0
 10
38.79849245312213
 20
-2.010813887606605
 30
0.0
 10
38.78811330070922
 20
-2.011562273300923
 30
0.0
 10
38.77819285511382
 20
-2.012337656824632
 30
0.0
  0
LINE
  5
8CD4
330
8CCE
100
AcDbEntity
  8
0
100
AcDbLine
 10
37.00002745113645
 20
-3.989521269529725
 30
0.0
 11
37.00002762966383
 21
-3.989575013473587
 31
0.0
  0
SPLINE
  5
8CD5
330
8CCE
100
AcDbEntity
  8
0
100
AcDbSpline
210
0.0
220
0.0
230
1.0
 70
     8
 71
     3
 72
    10
 73
     6
 74
     0
 42
0.000000001
 43
0.0000000001
 40
0.1085577666313982
 40
0.1085577666313982
 40
0.1085577666313982
 40
0.1085577666313982
 40
0.1101517731499553
 40
0.1101517731499553
 40
0.1184305525844023
 40
0.1184305525844023
 40
0.1184305525844023
 40
0.1184305525844023
 10
37.00193324000137
 20
-3.912084002651479
 30
0.0
 10
37.00180762576565
 20
-3.916567290204837
 30
0.0
 10
37.00168915795114
 20
-3.921130305307704
 30
0.0
 10
37.00100689649105
 20
-3.949637828613967
 30
0.0
 10
37.00066597101329
 20
-3.974616802291271
 30
0.0
 10
37.00049093598416
 20
-4.00000333331221
 30
0.0
  0
SPLINE
  5
8CD6
330
8CCE
100
AcDbEntity
  8
0
100
AcDbSpline
210
0.0
220
0.0
230
1.0
 70
     8
 71
     3
 72
    28
 73
    24
 74
     0
 42
0.000000001
 43
0.0000000001
 40
0.0059924003545842
 40
0.0059924003545842
 40
0.0059924003545842
 40
0.0059924003545842
 40
0.006001837747205
 40
0.006001837747205
 40
0.006034373394552
 40
0.006034373394552
 40
0.0061001213839993
 40
0.0061001213839993
 40
0.0063665713868852
 40
0.0063665713868852
 40
0.0733612691764533
 40
0.0733612691764533
 40
0.1461778286174482
 40
0.1461778286174482
 40
0.1822197369275664
 40
0.1822197369275664
 40
0.2005090992466844
 40
0.2005090992466844
 40
0.2098937743561149
 40
0.2098937743561149
 40
0.2150065180395293
 40
0.2150065180395293
 40
0.2204217694788048
 40
0.2204217694788048
 40
0.2204217694788048
 40
0.2204217694788048
 10
34.99996683550278
 20
-3.998262424359488
 30
0.0
 10
34.99996641647142
 20
-3.998238321030859
 30
0.0
 10
34.99996598683968
 20
-3.998213606810039
 30
0.0
 10
34.99996402959812
 20
-3.998101012396336
 30
0.0
 10
34.99996237757925
 20
-3.998005961096238
 30
0.0
 10
34.99995717505314
 20
-3.997706563538756
 30
0.0
 10
34.99995334639322
 20
-3.99748614433073
 30
0.0
 10
34.99993419751397
 20
-3.996383221489999
 30
0.0
 10
34.99991873393979
 20
-3.995490952346711
 30
0.0
 10
34.9961817945063
 20
-3.779497884365676
 30
0.0
 10
34.99444382437963
 20
-3.585309733922645
 30
0.0
 10
34.99316940785508
 20
-3.164116385273734
 30
0.0
 10
34.9937551996283
 20
-2.938044169627114
 30
0.0
 10
34.99572386956472
 20
-2.597038170611563
 30
0.0
 10
34.99651060911455
 20
-2.485243116774675
 30
0.0
 10
34.99791998715302
 20
-2.319629580544367
 30
0.0
 10
34.99852173211535
 20
-2.262940782462996
 30
0.0
 10
34.99923838943942
 20
-2.180972680463652
 30
0.0
 10
34.99942028520131
 20
-2.153992658249406
 30
0.0
 10
34.99955633683537
 20
-2.117588827604789
 30
0.0
 10
34.99957946482541
 20
-2.105610785763722
 30
0.0
 10
34.99959432352938
 20
-2.084188225414945
 30
0.0
 10
34.99958391144057
 20
-2.074632502467999
 30
0.0
 10
34.99957228829786
 20
-2.069004766160427
 30
0.0
  0
SPLINE
  5
8CD7
330
8CCE
100
AcDbEntity
  8
0
100
AcDbSpline
210
0.0
220
0.0
230
1.0
 70
     8
 71
     3
 72
    12
 73
     8
 74
     0
 42
0.000000001
 43
0.0000000001
 40
0.0
 40
0.0
 40
0.0
 40
0.0
 40
0.007368063860724
 40
0.007368063860724
 40
0.0094714794544103
 40
0.0094714794544103
 40
0.0106892344313744
 40
0.0106892344313744
 40
0.0106892344313744
 40
0.0106892344313744
 10
34.99996053853819
 20
-3.999985503002884
 30
0.0
 10
35.00000120689108
 20
-3.988738678363748
 30
0.0
 10
35.00005705426693
 20
-3.976817397481331
 30
0.0
 10
35.00011475911477
 20
-3.966829073044399
 30
0.0
 10
35.00012596496205
 20
-3.965004429905494
 30
0.0
 10
35.00013624741447
 20
-3.963340749423584
 30
0.0
 10
35.0001384322759
 20
-3.962989239745078
 30
0.0
 10
35.00013843227585
 20
-3.962989239752754
 30
0.0
  0
LINE
  5
8CD8
330
8CCE
100
AcDbEntity
  8
0
100
AcDbLine
 10
-35.00000000000002
 20
-2.000000000000007
 30
0.0
 11
-35.00000000000002
 21
-2.069004766160239
 31
0.0
  0
SPLINE
  5
8CD9
330
8CCE
100
AcDbEntity
  8
0
100
AcDbSpline
210
0.0
220
0.0
230
1.0
 70
     8
 71
     3
 72
    11
 73
     7
 74
     0
 42
0.000000001
 43
0.0000000001
 40
-1.0
 40
-1.0
 40
-1.0
 40
-1.0
 40
-0.799428689071439
 40
-0.799428689071439
 40
-0.799428689071439
 40
-0.6533573777220422
 40
-0.6533573777220422
 40
-0.6533573777220422
 40
-0.6533573777220422
 10
-35.00000000000002
 20
-2.000000000000014
 30
0.0
 10
-34.9999996127034
 20
-1.999093543230953
 30
0.0
 10
-35.12633150600829
 20
-1.919863896632898
 30
0.0
 10
-35.33607694564123
 20
-1.790687786199578
 30
0.0
 10
-35.48882955654504
 20
-1.696611899879374
 30
0.0
 10
-35.68837056420805
 20
-1.577391377849933
 30
0.0
 10
-35.91982716790697
 20
-1.445337717163086
 30
0.0
  0
SPLINE
  5
8CDA
330
8CCE
100
AcDbEntity
  8
0
100
AcDbSpline
210
0.0
220
0.0
230
1.0
 70
     8
 71
     3
 72
    40
 73
    36
 74
     0
 42
0.000000001
 43
0.0000000001
 40
0.0
 40
0.0
 40
0.0
 40
0.0
 40
0.0038040598012445
 40
0.0038040598012445
 40
0.0084789254192369
 40
0.0084789254192369
 40
0.0158054478218809
 40
0.0158054478218809
 40
0.0260000339570112
 40
0.0260000339570112
 40
0.0495206343472109
 40
0.0495206343472109
 40
0.1201103982791555
 40
0.1201103982791555
 40
0.1773337569841138
 40
0.1773337569841138
 40
0.1996793210484455
 40
0.1996793210484455
 40
0.2080576298188762
 40
0.2080576298188762
 40
0.2111994536829993
 40
0.2111994536829993
 40
0.2135558718985716
 40
0.2135558718985716
 40
0.2139977582266249
 40
0.2139977582266249
 40
0.2143300852684734
 40
0.2143300852684734
 40
0.2143843565792896
 40
0.2143843565792896
 40
0.2144316606082993
 40
0.2144316606082993
 40
0.2144792391384989
 40
0.2144792391384989
 40
0.2144971596354137
 40
0.2144971596354137
 40
0.2144971596354137
 40
0.2144971596354137
 10
-34.99957228829785
 20
-2.069004766160239
 30
0.0
 10
-34.99958045322435
 20
-2.072958090525355
 30
0.0
 10
-34.99958825487937
 20
-2.078881092813348
 30
0.0
 10
-34.99959053786111
 20
-2.094285445132945
 30
0.0
 10
-34.99958182785663
 20
-2.104402911789476
 30
0.0
 10
-34.99951287324392
 20
-2.132562809664388
 30
0.0
 10
-34.99942216624692
 20
-2.152170789635816
 30
0.0
 10
-34.99908018252367
 20
-2.201629641867416
 30
0.0
 10
-34.99878019265944
 20
-2.232656804540313
 30
0.0
 10
-34.99777927585036
 20
-2.335149022670827
 30
0.0
 10
-34.99716324841656
 20
-2.406783096758882
 30
0.0
 10
-34.99498744669217
 20
-2.695965523917109
 30
0.0
 10
-34.99378539073759
 20
-2.921302549532103
 30
0.0
 10
-34.99344334744718
 20
-3.312943751387749
 30
0.0
 10
-34.9938795518292
 20
-3.483506428460273
 30
0.0
 10
-34.99604610983694
 20
-3.724044489001951
 30
0.0
 10
-34.99683120511573
 20
-3.792158759239276
 30
0.0
 10
-34.9981633132286
 20
-3.886565431753017
 30
0.0
 10
-34.99855192429608
 20
-3.91237381050977
 30
0.0
 10
-34.99912013925355
 20
-3.947930085580089
 30
0.0
 10
-34.99927855679636
 20
-3.957633753340084
 30
0.0
 10
-34.99956197418227
 20
-3.974638554730682
 30
0.0
 10
-34.99968506336287
 20
-3.981912972031469
 30
0.0
 10
-34.99983522418856
 20
-3.990654827109775
 30
0.0
 10
-34.99985906984041
 20
-3.992039214412408
 30
0.0
 10
-34.99990152979985
 20
-3.994497293043377
 30
0.0
 10
-34.99992010930348
 20
-3.995570677167827
 30
0.0
 10
-34.9999424012077
 20
-3.996855640550659
 30
0.0
 10
-34.99994555608643
 20
-3.997037430432502
 30
0.0
 10
-34.99995141898068
 20
-3.99737513943771
 30
0.0
 10
-34.99995415573249
 20
-3.997532728745221
 30
0.0
 10
-34.99995943838788
 20
-3.997836827201356
 30
0.0
 10
-34.99996202136372
 20
-3.997985469006654
 30
0.0
 10
-34.99996520049239
 20
-3.998168371930166
 30
0.0
 10
-34.99996603703987
 20
-3.998216495509639
 30
0.0
 10
-34.9999668355031
 20
-3.998262424271756
 30
0.0
  0
SPLINE
  5
8CDB
330
8CCE
100
AcDbEntity
  8
0
100
AcDbSpline
210
0.0
220
0.0
230
1.0
 70
     8
 71
     3
 72
    14
 73
    10
 74
     0
 42
0.000000001
 43
0.0000000001
 40
0.0077867807815044
 40
0.0077867807815044
 40
0.0077867807815044
 40
0.0077867807815044
 40
0.0083979033146458
 40
0.0083979033146458
 40
0.0105249654890534
 40
0.0105249654890534
 40
0.0138644923289383
 40
0.0138644923289383
 40
0.0184801346823753
 40
0.0184801346823753
 40
0.0184801346823753
 40
0.0184801346823753
 10
-35.00013843227583
 20
-3.962989239755941
 30
0.0
 10
-35.0001384322758
 20
-3.962989239761078
 30
0.0
 10
-35.00013788506623
 20
-3.963077842488308
 30
0.0
 10
-35.00013331027571
 20
-3.963815700305956
 30
0.0
 10
-35.00012394049667
 20
-3.965314845109503
 30
0.0
 10
-35.00009364632222
 20
-3.970424767374098
 30
0.0
 10
-35.00006960355311
 20
-3.974738183214344
 30
0.0
 10
-35.0000154337414
 20
-3.985811780815215
 30
0.0
 10
-34.9999860147794
 20
-3.992940053733262
 30
0.0
 10
-34.9999605385382
 20
-3.999985503002886
 30
0.0
  0
LINE
  5
8CDC
330
8CCE
100
AcDbEntity
  8
0
100
AcDbLine
 10
-37.00002767570558
 20
-3.989596155787411
 30
0.0
 11
-37.00002743644378
 21
-3.9895240741536
 31
0.0
  0
SPLINE
  5
8CDD
330
8CCE
100
AcDbEntity
  8
0
100
AcDbSpline
210
0.0
220
0.0
230
1.0
 70
     8
 71
     3
 72
     8
 73
     4
 74
     0
 42
0.000000001
 43
0.0000000001
 40
0.0
 40
0.0
 40
0.0
 40
0.0
 40
0.0098328856566648
 40
0.0098328856566648
 40
0.0098328856566648
 40
0.0098328856566648
 10
-37.00049093598414
 20
-4.000003333312211
 30
0.0
 10
-37.00069882887959
 20
-3.969851200534193
 30
0.0
 10
-37.00115981056337
 20
-3.93968841005125
 30
0.0
 10
-37.00193324002662
 20
-3.912084001750115
 30
0.0
  0
SPLINE
  5
8CDE
330
8CCE
100
AcDbEntity
  8
0
100
AcDbSpline
210
0.0
220
0.0
230
1.0
 70
     8
 71
     3
 72
    22
 73
    18
 74
     0
 42
0.000000001
 43
0.0000000001
 40
0.048239519423093
 40
0.048239519423093
 40
0.048239519423093
 40
0.048239519423093
 40
0.0514008632841127
 40
0.0514008632841127
 40
0.057562220133237
 40
0.057562220133237
 40
0.0663109200890177
 40
0.0663109200890177
 40
0.0777691571422249
 40
0.0777691571422249
 40
0.0915297989383555
 40
0.0915297989383555
 40
0.109126159249012
 40
0.109126159249012
 40
0.1213991482351007
 40
0.1213991482351007
 40
0.1339581148699644
 40
0.1339581148699644
 40
0.1339581148699644
 40
0.1339581148699644
 10
-38.77819285511387
 20
-2.012337656824628
 30
0.0
 10
-38.78773306863094
 20
-2.011591992297499
 30
0.0
 10
-38.79769709889572
 20
-2.010871256516204
 30
0.0
 10
-38.82748728064884
 20
-2.008886430641547
 30
0.0
 10
-38.84801708776543
 20
-2.007736132903087
 30
0.0
 10
-38.89758371080797
 20
-2.005403899074376
 30
0.0
 10
-38.92707244659732
 20
-2.004384349540114
 30
0.0
 10
-38.99322601940834
 20
-2.002642063161784
 30
0.0
 10
-39.02998670647389
 20
-2.002078095688893
 30
0.0
 10
-39.10559934790419
 20
-2.00126903408583
 30
0.0
 10
-39.14300972129152
 20
-2.001099275458719
 30
0.0
 10
-39.23196538477269
 20
-2.000732926069952
 30
0.0
 10
-39.28654452180236
 20
-2.000520687818745
 30
0.0
 10
-39.38006146482189
 20
-2.000225594795455
 30
0.0
 10
-39.41875901630439
 20
-2.000139373615712
 30
0.0
 10
-39.49405116614007
 20
-2.000040768467266
 30
0.0
 10
-39.53186060223899
 20
-2.000021606546806
 30
0.0
 10
-39.56202985675351
 20
-2.000020061973661
 30
0.0
  0
LINE
  5
8CDF
330
8CCE
100
AcDbEntity
  8
0
100
AcDbLine
 10
-35.0
 20
-2.000000000000007
 30
0.0
 11
-33.0
 21
-2.000000000000004
 31
0.0
  0
LINE
  5
8CE0
330
8CCE
100
AcDbEntity
  8
0
100
AcDbLine
 10
-35.0
 20
-86.00000000000001
 30
0.0
 11
-32.99999999999999
 21
-86.00000000000001
 31
0.0
  0
LINE
  5
8CE1
330
8CCE
100
AcDbEntity
  8
0
100
AcDbLine
 10
33.00000000000001
 20
-2.000000000000004
 30
0.0
 11
-33.00000000000001
 21
-2.000000000000004
 31
0.0
  0
LINE
  5
8CE2
330
8CCE
100
AcDbEntity
  8
0
100
AcDbLine
 10
-32.99999999999999
 20
-86.00000000000001
 30
0.0
 11
32.99999999999999
 21
-86.00000000000001
 31
0.0
  0
CIRCLE
  5
8CE3
330
8CCE
100
AcDbEntity
  8
0
100
AcDbCircle
 10
0.0
 20
-47.99999999999998
 30
0.0
 40
2.5
  0
CIRCLE
  5
8CE4
330
8CCE
100
AcDbEntity
  8
0
100
AcDbCircle
 10
0.0
 20
-67.99999999999998
 30
0.0
 40
2.5
  0
LINE
  5
8CE5
330
8CCE
100
AcDbEntity
  8
0
100
AcDbLine
 10
35.0
 20
-2.000000000000007
 30
0.0
 11
33.0
 21
-2.000000000000004
 31
0.0
  0
LINE
  5
8CE6
330
8CCE
100
AcDbEntity
  8
0
100
AcDbLine
 10
39.0
 20
0.0
 30
0.0
 11
76.5
 21
0.0
 31
0.0
  0
ARC
  5
8CE7
330
8CCE
100
AcDbEntity
  8
0
100
AcDbCircle
 10
39.0
 20
-4.000000000000004
 30
0.0
 40
3.999999999999999
100
AcDbArc
 50
90.00000000000012
 51
180.0
  0
LINE
  5
8CE8
330
8CCE
100
AcDbEntity
  8
0
100
AcDbLine
 10
34.99999999999999
 20
-86.00000000000003
 30
0.0
 11
35.0
 21
-46.00000000000003
 31
0.0
  0
LINE
  5
8CE9
330
8CCE
100
AcDbEntity
  8
0
100
AcDbLine
 10
36.99999999999999
 20
-86.00000000000003
 30
0.0
 11
34.99999999999999
 21
-86.00000000000003
 31
0.0
  0
LINE
  5
8CEA
330
8CCE
100
AcDbEntity
  8
0
100
AcDbLine
 10
36.99999999999999
 20
-46.00000000000003
 30
0.0
 11
36.99999999999999
 21
-86.00000000000003
 31
0.0
  0
LINE
  5
8CEB
330
8CCE
100
AcDbEntity
  8
0
100
AcDbLine
 10
35.0
 20
-46.00000000000001
 30
0.0
 11
36.99999999999999
 21
-46.00000000000001
 31
0.0
  0
LINE
  5
8CEC
330
8CCE
100
AcDbEntity
  8
0
100
AcDbLine
 10
37.0
 20
-4.000000000000003
 30
0.0
 11
36.99999999999999
 21
-46.00000000000001
 31
0.0
  0
LINE
  5
8CED
330
8CCE
100
AcDbEntity
  8
0
100
AcDbLine
 10
35.0
 20
-46.00000000000001
 30
0.0
 11
35.0
 21
-4.000000000000003
 31
0.0
  0
LINE
  5
8CEE
330
8CCE
100
AcDbEntity
  8
0
100
AcDbLine
 10
35.0
 20
-86.00000000000001
 30
0.0
 11
32.99999999999999
 21
-86.00000000000001
 31
0.0
  0
ARC
  5
8CEF
330
8CCE
100
AcDbEntity
  8
0
100
AcDbCircle
 10
39.0
 20
-4.000000000000004
 30
0.0
 40
1.999999999999997
100
AcDbArc
 50
90.00000000000012
 51
180.0
  0
LINE
  5
8CF0
330
8CCE
100
AcDbEntity
  8
0
100
AcDbLine
 10
76.5
 20
0.0
 30
0.0
 11
76.5
 21
-2.00000000000001
 31
0.0
  0
LINE
  5
8CF1
330
8CCE
100
AcDbEntity
  8
0
100
AcDbLine
 10
76.5
 20
-2.00000000000001
 30
0.0
 11
39.0
 21
-2.000000000000006
 31
0.0
  0
LINE
  5
8CF2
330
8CCE
100
AcDbEntity
  8
0
100
AcDbLine
 10
-76.5
 20
-2.00000000000001
 30
0.0
 11
-39.0
 21
-2.000000000000006
 31
0.0
  0
LINE
  5
8CF3
330
8CCE
100
AcDbEntity
  8
0
100
AcDbLine
 10
-35.0
 20
-46.00000000000001
 30
0.0
 11
-35.0
 21
-4.000000000000003
 31
0.0
  0
LINE
  5
8CF4
330
8CCE
100
AcDbEntity
  8
0
100
AcDbLine
 10
-37.0
 20
-4.000000000000003
 30
0.0
 11
-36.99999999999999
 21
-46.00000000000001
 31
0.0
  0
LINE
  5
8CF5
330
8CCE
100
AcDbEntity
  8
0
100
AcDbLine
 10
-39.0
 20
0.0
 30
0.0
 11
-76.5
 21
0.0
 31
0.0
  0
LINE
  5
8CF6
330
8CCE
100
AcDbEntity
  8
0
100
AcDbLine
 10
-76.5
 20
0.0
 30
0.0
 11
-76.5
 21
-2.00000000000001
 31
0.0
  0
ARC
  5
8CF7
330
8CCE
100
AcDbEntity
  8
0
100
AcDbCircle
 10
-39.0
 20
-4.000000000000004
 30
0.0
 40
1.999999999999997
100
AcDbArc
 50
0.0
 51
89.99999999999987
  0
ARC
  5
8CF8
330
8CCE
100
AcDbEntity
  8
0
100
AcDbCircle
 10
-39.0
 20
-4.000000000000004
 30
0.0
 40
3.999999999999999
100
AcDbArc
 50
0.0
 51
89.99999999999987
  0
LINE
  5
8CF9
330
8CCE
100
AcDbEntity
  8
0
100
AcDbLine
 10
-35.0
 20
-46.00000000000003
 30
0.0
 11
-34.99999999999999
 21
-86.00000000000003
 31
0.0
  0
LINE
  5
8CFA
330
8CCE
100
AcDbEntity
  8
0
100
AcDbLine
 10
-36.99999999999999
 20
-86.00000000000003
 30
0.0
 11
-36.99999999999999
 21
-46.00000000000003
 31
0.0
  0
LINE
  5
8CFB
330
8CCE
100
AcDbEntity
  8
0
100
AcDbLine
 10
-34.99999999999999
 20
-86.00000000000003
 30
0.0
 11
-36.99999999999999
 21
-86.00000000000003
 31
0.0
  0
LINE
  5
8CFC
330
8CCE
100
AcDbEntity
  8
0
100
AcDbLine
 10
-36.99999999999999
 20
-46.00000000000001
 30
0.0
 11
-35.0
 21
-46.00000000000001
 31
0.0
  0
ENDBLK
  5
8CD0
330
8CCE
100
AcDbEntity
  8
0
100
AcDbBlockEnd
  0
BLOCK
  5
8CFE
330
8CFD
100
AcDbEntity
  8
0
100
AcDbBlockBegin
  2
SAE340_70_2-Bottom
 70
     0
 10
0.0
 20
0.0
 30
0.0
  3
SAE340_70_2-Bottom
  1

  0
SPLINE
  5
8D00
330
8CFD
100
AcDbEntity
  8
0
100
AcDbSpline
210
0.0
220
0.0
230
1.0
 70
     8
 71
     3
 72
    14
 73
    10
 74
     0
 42
0.000000001
 43
0.0000000001
 40
0.0
 40
0.0
 40
0.0
 40
0.0
 40
0.3435165591371065
 40
0.3435165591371065
 40
0.3435165591371065
 40
0.7569936138416016
 40
0.7569936138416016
 40
0.7569936138416016
 40
1.0
 40
1.0
 40
1.0
 40
1.0
 10
39.6060606060606
 20
2.000000000000007
 30
0.0
 10
39.28490249291094
 20
2.000036880260042
 30
0.0
 10
38.87245901694529
 20
1.996833903329484
 30
0.0
 10
38.47646762711374
 20
1.998675521250083
 30
0.0
 10
37.9998287309651
 20
2.000892202610694
 30
0.0
 10
37.53730090290267
 20
2.001068608701189
 30
0.0
 10
37.26243107016593
 20
2.001123034011691
 30
0.0
 10
37.10088613325267
 20
2.001155020546058
 30
0.0
 10
36.99999576702378
 20
2.000250549241847
 30
0.0
 10
36.99999999948816
 20
1.99999999999248
 30
0.0
  0
LINE
  5
8D01
330
8CFD
100
AcDbEntity
  8
0
100
AcDbLine
 10
39.000086881459
 20
2.000000000000005
 30
0.0
 11
39.00619229290327
 21
2.000000000000005
 31
0.0
  0
LINE
  5
8D02
330
8CFD
100
AcDbEntity
  8
0
100
AcDbLine
 10
39.56202985675343
 20
2.000000000000005
 30
0.0
 11
39.6060606060606
 21
2.000000000000005
 31
0.0
  0
ARC
  5
8D03
330
8CFD
100
AcDbEntity
  8
0
100
AcDbCircle
 10
39.0
 20
4.000000000000004
 30
0.0
 40
1.999999999999996
100
AcDbArc
 50
182.445522056104
 51
263.596049381387
  0
ARC
  5
8D04
330
8CFD
100
AcDbEntity
  8
0
100
AcDbCircle
 10
39.0
 20
4.000000000000004
 30
0.0
 40
3.999999999999998
100
AcDbArc
 50
219.6927749101275
 51
270.0
  0
LINE
  5
8D05
330
8CFD
100
AcDbEntity
  8
0
100
AcDbLine
 10
39.60606060606061
 20
0.0
 30
0.0
 11
39.0
 21
0.0
 31
0.0
  0
SPLINE
  5
8D06
330
8CFD
100
AcDbEntity
  8
0
100
AcDbSpline
210
0.0
220
0.0
230
1.0
 70
     8
 71
     3
 72
    17
 73
    13
 74
     0
 42
0.000000001
 43
0.0000000001
 40
-1.0
 40
-1.0
 40
-1.0
 40
-1.0
 40
-0.799428689071439
 40
-0.799428689071439
 40
-0.799428689071439
 40
-0.3760960080957858
 40
-0.3760960080957858
 40
-0.3760960080957858
 40
-0.0765284972631262
 40
-0.0765284972631262
 40
-0.0765284972631262
 40
0.0
 40
0.0
 40
0.0
 40
0.0
 10
35.00000000000002
 20
2.000000000000014
 30
0.0
 10
34.9999996127034
 20
1.999093543230953
 30
0.0
 10
35.12633150600829
 20
1.919863896632898
 30
0.0
 10
35.33607694564123
 20
1.790687786199578
 30
0.0
 10
35.77877285699145
 20
1.51804426158692
 30
0.0
 10
36.6144500834647
 20
1.03420794786971
 30
0.0
 10
37.48107962104072
 20
0.6388614064292933
 30
0.0
 10
38.09434210951048
 20
0.3590980320008069
 30
0.0
 10
38.71765761687902
 20
0.1217220476492346
 30
0.0
 10
39.23393420696391
 20
0.0342615816105237
 30
0.0
 10
39.36582391523537
 20
0.0119186445634749
 30
0.0
 10
39.4883202610581
 20
0.0000045452574074
 30
0.0
 10
39.60606060611082
 20
0.00000000011521
 30
0.0
  0
LINE
  5
8D07
330
8CFD
100
AcDbEntity
  8
0
100
AcDbLine
 10
39.6060606060606
 20
2.000000000000005
 30
0.0
 11
39.6060606060606
 21
0.0
 31
0.0
  0
SPLINE
  5
8D08
330
8CFD
100
AcDbEntity
  8
0
100
AcDbSpline
210
0.0
220
0.0
230
1.0
 70
     8
 71
     3
 72
    30
 73
    26
 74
     0
 42
0.000000001
 43
0.0000000001
 40
0.0371765707899586
 40
0.0371765707899586
 40
0.0371765707899586
 40
0.0371765707899586
 40
0.0391841751754748
 40
0.0391841751754748
 40
0.0416275644399591
 40
0.0416275644399591
 40
0.0440778641158844
 40
0.0440778641158844
 40
0.047169740069673
 40
0.047169740069673
 40
0.0514008632843216
 40
0.0514008632843216
 40
0.057562220133438
 40
0.057562220133438
 40
0.0663109200893202
 40
0.0663109200893202
 40
0.0777691571425688
 40
0.0777691571425688
 40
0.0915297989387608
 40
0.0915297989387608
 40
0.1091261592491502
 40
0.1091261592491502
 40
0.1213991482351655
 40
0.1213991482351655
 40
0.1339581148699608
 40
0.1339581148699608
 40
0.1339581148699608
 40
0.1339581148699608
 10
38.71468571207106
 20
2.018273760988892
 30
0.0
 10
38.71468571046919
 20
2.018273761172594
 30
0.0
 10
38.71557405734041
 20
2.018171464543283
 30
0.0
 10
38.71945229441424
 20
2.017742450508302
 30
0.0
 10
38.72295666860198
 20
2.017361611537636
 30
0.0
 10
38.73190006415364
 20
2.01643871063197
 30
0.0
 10
38.73739183438241
 20
2.015892004508618
 30
0.0
 10
38.75105072884152
 20
2.014605630623747
 30
0.0
 10
38.75965459354429
 20
2.013842527006078
 30
0.0
 10
38.78100011014391
 20
2.012087267023271
 30
0.0
 10
38.79427867730814
 20
2.011099015167475
 30
0.0
 10
38.82748728065086
 20
2.008886430641427
 30
0.0
 10
38.84801708776745
 20
2.00773613290298
 30
0.0
 10
38.89758371081031
 20
2.005403899074282
 30
0.0
 10
38.92707244659998
 20
2.004384349540029
 30
0.0
 10
38.9932260194114
 20
2.002642063161728
 30
0.0
 10
39.02998670647697
 20
2.00207809568885
 30
0.0
 10
39.1055993479073
 20
2.001269034085809
 30
0.0
 10
39.14300972129468
 20
2.001099275458704
 30
0.0
 10
39.23196538477549
 20
2.000732926069943
 30
0.0
 10
39.28654452180444
 20
2.000520687818737
 30
0.0
 10
39.38006146482294
 20
2.000225594795452
 30
0.0
 10
39.41875901630519
 20
2.000139373615711
 30
0.0
 10
39.4940511661404
 20
2.000040768467266
 30
0.0
 10
39.53186060223907
 20
2.000021606546806
 30
0.0
 10
39.56202985675343
 20
2.00002006197366
 30
0.0
  0
SPLINE
  5
8D09
330
8CFD
100
AcDbEntity
  8
0
100
AcDbSpline
210
0.0
220
0.0
230
1.0
 70
     8
 71
     3
 72
     8
 73
     4
 74
     0
 42
0.000000001
 43
0.0000000001
 40
0.0
 40
0.0
 40
0.0
 40
0.0
 40
0.0034296926668794
 40
0.0034296926668794
 40
0.0034296926668794
 40
0.0034296926668794
 10
37.00006462073215
 20
3.999999788630923
 30
0.0
 10
37.00004298618831
 20
3.994303243782675
 30
0.0
 10
37.00002047255579
 20
3.987666427723976
 30
0.0
 10
37.0
 20
3.980806637241013
 30
0.0
  0
SPLINE
  5
8D0A
330
8CFD
100
AcDbEntity
  8
0
100
AcDbSpline
210
0.0
220
0.0
230
1.0
 70
     8
 71
     3
 72
     8
 73
     4
 74
     0
 42
0.000000001
 43
0.0000000001
 40
0.0
 40
0.0
 40
0.0
 40
0.0
 40
0.0103048173409474
 40
0.0103048173409474
 40
0.0103048173409474
 40
0.0103048173409474
 10
37.00049093598414
 20
4.000003333312208
 30
0.0
 10
37.00070880674852
 20
3.968404041754731
 30
0.0
 10
37.0012101083025
 20
3.936727390285459
 30
0.0
 10
37.00204599474758
 20
3.908145685375844
 30
0.0
  0
SPLINE
  5
8D0B
330
8CFD
100
AcDbEntity
  8
0
100
AcDbSpline
210
0.0
220
0.0
230
1.0
 70
     8
 71
     3
 72
    34
 73
    30
 74
     0
 42
0.000000001
 43
0.0000000001
 40
0.0436321583613666
 40
0.0436321583613666
 40
0.0436321583613666
 40
0.0436321583613666
 40
0.0436980541398265
 40
0.0436980541398265
 40
0.0440065165618009
 40
0.0440065165618009
 40
0.0441606038622628
 40
0.0441606038622628
 40
0.0443152228008825
 40
0.0443152228008825
 40
0.0444703595288377
 40
0.0444703595288377
 40
0.0446253067069088
 40
0.0446253067069088
 40
0.044937807484101
 40
0.044937807484101
 40
0.0462042925937212
 40
0.0462042925937212
 40
0.0474351593106559
 40
0.0474351593106559
 40
0.0507824822423308
 40
0.0507824822423308
 40
0.0563242414504376
 40
0.0563242414504376
 40
0.0632429959613989
 40
0.0632429959613989
 40
0.0673654341106766
 40
0.0673654341106766
 40
0.0708018302281916
 40
0.0708018302281916
 40
0.0708018302281916
 40
0.0708018302281916
 10
37.00049915074487
 20
3.969233897265914
 30
0.0
 10
37.00049915074487
 20
3.969233897265946
 30
0.0
 10
37.00049920958784
 20
3.969230806065289
 30
0.0
 10
37.0004999245156
 20
3.969193256671159
 30
0.0
 10
37.00050191664057
 20
3.969088408014852
 30
0.0
 10
37.00050905278569
 20
3.968715139718707
 30
0.0
 10
37.00051215750974
 20
3.968552935852391
 30
0.0
 10
37.00052029786821
 20
3.96812930131078
 30
0.0
 10
37.00052541276082
 20
3.967863751856985
 30
0.0
 10
37.00053786098686
 20
3.967221120031137
 30
0.0
 10
37.00054532775526
 20
3.966837247138141
 30
0.0
 10
37.00056192132783
 20
3.965990194490784
 30
0.0
 10
37.00057116903343
 20
3.965520905046826
 30
0.0
 10
37.00060023348706
 20
3.96405724493234
 30
0.0
 10
37.00062164588331
 20
3.962994035944851
 30
0.0
 10
37.00072929470733
 20
3.95773248096563
 30
0.0
 10
37.00081996732131
 20
3.953563978255706
 30
0.0
 10
37.00099797826627
 20
3.945799563510625
 30
0.0
 10
37.00108766410368
 20
3.942082793721015
 30
0.0
 10
37.00142826742197
 20
3.928595405171952
 30
0.0
 10
37.00169395623864
 20
3.919306410297703
 30
0.0
 10
37.00241873116251
 20
3.896280813724173
 30
0.0
 10
37.00289603030782
 20
3.883466094474588
 30
0.0
 10
37.00390972931874
 20
3.85887392256808
 30
0.0
 10
37.00444328619246
 20
3.84780991658734
 30
0.0
 10
37.00512191947439
 20
3.834606708649977
 30
0.0
 10
37.00534093092904
 20
3.830597305528707
 30
0.0
 10
37.00561879386157
 20
3.825619134907658
 30
0.0
 10
37.00569879693014
 20
3.82424055510202
 30
0.0
 10
37.00569879692859
 20
3.824240555129017
 30
0.0
  0
SPLINE
  5
8D0C
330
8CFD
100
AcDbEntity
  8
0
100
AcDbSpline
210
0.0
220
0.0
230
1.0
 70
     8
 71
     3
 72
    14
 73
    10
 74
     0
 42
0.000000001
 43
0.0000000001
 40
0.0819810300430963
 40
0.0819810300430963
 40
0.0819810300430963
 40
0.0819810300430963
 40
0.0829074642973418
 40
0.0829074642973418
 40
0.0849120880642954
 40
0.0849120880642954
 40
0.0909248823368522
 40
0.0909248823368522
 40
0.0933596266391447
 40
0.0933596266391447
 40
0.0933596266391447
 40
0.0933596266391447
 10
37.00373023006527
 20
3.862416143816247
 30
0.0
 10
37.00373023005786
 20
3.862416143981564
 30
0.0
 10
37.00374288814759
 20
3.862133516895801
 30
0.0
 10
37.0037963763814
 20
3.860948261972791
 30
0.0
 10
37.00385203498607
 20
3.859727871526005
 30
0.0
 10
37.00407202865459
 20
3.85500327205234
 30
0.0
 10
37.00424238422497
 20
3.851586664825916
 30
0.0
 10
37.00435987793341
 20
3.849307698215469
 30
0.0
 10
37.00438009977053
 20
3.848926802782246
 30
0.0
 10
37.00438009976962
 20
3.848926802799385
 30
0.0
  0
CIRCLE
  5
8D0D
330
8CFD
100
AcDbEntity
  8
0
100
AcDbCircle
 10
0.0
 20
67.99999999999998
 30
0.0
 40
2.5
  0
CIRCLE
  5
8D0E
330
8CFD
100
AcDbEntity
  8
0
100
AcDbCircle
 10
0.0
 20
47.99999999999998
 30
0.0
 40
2.5
  0
LINE
  5
8D0F
330
8CFD
100
AcDbEntity
  8
0
100
AcDbLine
 10
33.00000000000001
 20
2.000000000000004
 30
0.0
 11
-33.00000000000001
 21
2.000000000000004
 31
0.0
  0
LINE
  5
8D10
330
8CFD
100
AcDbEntity
  8
0
100
AcDbLine
 10
32.99999999999999
 20
86.00000000000001
 30
0.0
 11
-32.99999999999999
 21
86.00000000000001
 31
0.0
  0
SPLINE
  5
8D11
330
8CFD
100
AcDbEntity
  8
0
100
AcDbSpline
210
0.0
220
0.0
230
1.0
 70
     8
 71
     3
 72
    17
 73
    13
 74
     0
 42
0.000000001
 43
0.0000000001
 40
-1.0
 40
-1.0
 40
-1.0
 40
-1.0
 40
-0.799428689071439
 40
-0.799428689071439
 40
-0.799428689071439
 40
-0.3760960080957858
 40
-0.3760960080957858
 40
-0.3760960080957858
 40
-0.0765284972631262
 40
-0.0765284972631262
 40
-0.0765284972631262
 40
0.0
 40
0.0
 40
0.0
 40
0.0
 10
-35.00000000000002
 20
2.000000000000014
 30
0.0
 10
-34.9999996127034
 20
1.999093543230953
 30
0.0
 10
-35.12633150600829
 20
1.919863896632898
 30
0.0
 10
-35.33607694564123
 20
1.790687786199578
 30
0.0
 10
-35.77877285699145
 20
1.51804426158692
 30
0.0
 10
-36.6144500834647
 20
1.03420794786971
 30
0.0
 10
-37.48107962104072
 20
0.6388614064292933
 30
0.0
 10
-38.09434210951048
 20
0.3590980320008069
 30
0.0
 10
-38.71765761687902
 20
0.1217220476492346
 30
0.0
 10
-39.23393420696391
 20
0.0342615816105237
 30
0.0
 10
-39.36582391523537
 20
0.0119186445634749
 30
0.0
 10
-39.4883202610581
 20
0.0000045452574074
 30
0.0
 10
-39.60606060611082
 20
0.00000000011521
 30
0.0
  0
LINE
  5
8D12
330
8CFD
100
AcDbEntity
  8
0
100
AcDbLine
 10
-39.0
 20
0.0
 30
0.0
 11
-39.60606060606061
 21
0.0
 31
0.0
  0
ARC
  5
8D13
330
8CFD
100
AcDbEntity
  8
0
100
AcDbCircle
 10
-39.0
 20
4.000000000000004
 30
0.0
 40
3.999999999999998
100
AcDbArc
 50
270.0000000000001
 51
320.3072250898725
  0
ARC
  5
8D14
330
8CFD
100
AcDbEntity
  8
0
100
AcDbCircle
 10
-39.0
 20
4.000000000000004
 30
0.0
 40
1.999999999999996
100
AcDbArc
 50
276.4039506186119
 51
357.5544779439401
  0
LINE
  5
8D15
330
8CFD
100
AcDbEntity
  8
0
100
AcDbLine
 10
-39.6060606060606
 20
2.000000000000005
 30
0.0
 11
-39.56202985675354
 21
2.000000000000005
 31
0.0
  0
LINE
  5
8D16
330
8CFD
100
AcDbEntity
  8
0
100
AcDbLine
 10
-39.00619229290322
 20
2.000000000000005
 30
0.0
 11
-39.00008688145899
 21
2.000000000000005
 31
0.0
  0
SPLINE
  5
8D17
330
8CFD
100
AcDbEntity
  8
0
100
AcDbSpline
210
0.0
220
0.0
230
1.0
 70
     8
 71
     3
 72
    14
 73
    10
 74
     0
 42
0.000000001
 43
0.0000000001
 40
0.0
 40
0.0
 40
0.0
 40
0.0
 40
0.3435165591371065
 40
0.3435165591371065
 40
0.3435165591371065
 40
0.7569936138416016
 40
0.7569936138416016
 40
0.7569936138416016
 40
1.0
 40
1.0
 40
1.0
 40
1.0
 10
-39.6060606060606
 20
2.000000000000007
 30
0.0
 10
-39.28490249291094
 20
2.000036880260042
 30
0.0
 10
-38.87245901694529
 20
1.996833903329484
 30
0.0
 10
-38.47646762711374
 20
1.998675521250083
 30
0.0
 10
-37.9998287309651
 20
2.000892202610694
 30
0.0
 10
-37.53730090290267
 20
2.001068608701189
 30
0.0
 10
-37.26243107016593
 20
2.001123034011691
 30
0.0
 10
-37.10088613325267
 20
2.001155020546058
 30
0.0
 10
-36.99999576702378
 20
2.000250549241847
 30
0.0
 10
-36.99999999948816
 20
1.99999999999248
 30
0.0
  0
LINE
  5
8D18
330
8CFD
100
AcDbEntity
  8
0
100
AcDbLine
 10
-39.6060606060606
 20
0.0
 30
0.0
 11
-39.6060606060606
 21
2.000000000000005
 31
0.0
  0
SPLINE
  5
8D19
330
8CFD
100
AcDbEntity
  8
0
100
AcDbSpline
210
0.0
220
0.0
230
1.0
 70
     8
 71
     3
 72
    10
 73
     6
 74
     0
 42
0.000000001
 43
0.0000000001
 40
0.0192480441212286
 40
0.0192480441212286
 40
0.0192480441212286
 40
0.0192480441212286
 40
0.0195090936494152
 40
0.0195090936494152
 40
0.0226780135055043
 40
0.0226780135055043
 40
0.0226780135055043
 40
0.0226780135055043
 10
-37.00000000000001
 20
3.980806637244756
 30
0.0
 10
-37.00000155886877
 20
3.981328971299742
 30
0.0
 10
-37.00000312970367
 20
3.981850394261758
 30
0.0
 10
-37.00002390984065
 20
3.988683519138758
 30
0.0
 10
-37.00004463114644
 20
3.994736374140245
 30
0.0
 10
-37.00006462073215
 20
3.999999788630921
 30
0.0
  0
SPLINE
  5
8D1A
330
8CFD
100
AcDbEntity
  8
0
100
AcDbSpline
210
0.0
220
0.0
230
1.0
 70
     8
 71
     3
 72
    14
 73
    10
 74
     0
 42
0.000000001
 43
0.0000000001
 40
0.0250699603092289
 40
0.0250699603092289
 40
0.0250699603092289
 40
0.0250699603092289
 40
0.0257267444570812
 40
0.0257267444570812
 40
0.0325076244544301
 40
0.0325076244544301
 40
0.0360900121537638
 40
0.0360900121537638
 40
0.0364460967312195
 40
0.0364460967312195
 40
0.0364460967312195
 40
0.0364460967312195
 10
-37.00438009976957
 20
3.848926802800067
 30
0.0
 10
-37.00438009976136
 20
3.848926802954876
 30
0.0
 10
-37.00437862515494
 20
3.84895458848806
 30
0.0
 10
-37.00434682764232
 20
3.849557755665588
 30
0.0
 10
-37.00417716436327
 20
3.852833233564749
 30
0.0
 10
-37.00389200757585
 20
3.858847545985757
 30
0.0
 10
-37.00376855911014
 20
3.86156215507412
 30
0.0
 10
-37.00373220869837
 20
3.862371985935762
 30
0.0
 10
-37.0037302301016
 20
3.862416143005873
 30
0.0
 10
-37.00373023006536
 20
3.862416143814245
 30
0.0
  0
SPLINE
  5
8D1B
330
8CFD
100
AcDbEntity
  8
0
100
AcDbSpline
210
0.0
220
0.0
230
1.0
 70
     8
 71
     3
 72
    36
 73
    32
 74
     0
 42
0.000000001
 43
0.0000000001
 40
0.047607231265648
 40
0.047607231265648
 40
0.047607231265648
 40
0.047607231265648
 40
0.04820175997639
 40
0.04820175997639
 40
0.0520303090535357
 40
0.0520303090535357
 40
0.0580614711771782
 40
0.0580614711771782
 40
0.0664782444738083
 40
0.0664782444738083
 40
0.0701802498924053
 40
0.0701802498924053
 40
0.0716763236901018
 40
0.0716763236901018
 40
0.0727360593666374
 40
0.0727360593666374
 40
0.073298263071849
 40
0.073298263071849
 40
0.0735333344835269
 40
0.0735333344835269
 40
0.0737708210806376
 40
0.0737708210806376
 40
0.0739324977982142
 40
0.0739324977982142
 40
0.0740946449685661
 40
0.0740946449685661
 40
0.0742563300607663
 40
0.0742563300607663
 40
0.0745815931818295
 40
0.0745815931818295
 40
0.0747632695593268
 40
0.0747632695593268
 40
0.0747632695593268
 40
0.0747632695593268
 10
-37.00569879692854
 20
3.824240555129605
 30
0.0
 10
-37.00569879692584
 20
3.824240555176307
 30
0.0
 10
-37.00569638180911
 20
3.824282390578598
 30
0.0
 10
-37.0056620609366
 20
3.824878703075064
 30
0.0
 10
-37.00554153428767
 20
3.826971541079938
 30
0.0
 10
-37.00510634102385
 20
3.834895402288866
 30
0.0
 10
-37.00471953461877
 20
3.842193903351911
 30
0.0
 10
-37.00367510816388
 20
3.864192466114218
 30
0.0
 10
-37.00294278905938
 20
3.88126978402229
 30
0.0
 10
-37.001939251193
 20
3.911194814947226
 30
0.0
 10
-37.00163736924905
 20
3.921117204823127
 30
0.0
 10
-37.00124031507683
 20
3.935985292765675
 30
0.0
 10
-37.00112871219962
 20
3.940387783356736
 30
0.0
 10
-37.00094336685669
 20
3.948144708150953
 30
0.0
 10
-37.0008677769583
 20
3.951442526198461
 30
0.0
 10
-37.00075399582342
 20
3.956645050170497
 30
0.0
 10
-37.00071460527141
 20
3.958491275571902
 30
0.0
 10
-37.00065960338096
 20
3.961139028983036
 30
0.0
 10
-37.00064341154841
 20
3.961927276806261
 30
0.0
 10
-37.00061151530745
 20
3.963497636576255
 30
0.0
 10
-37.0005955780799
 20
3.964291690162182
 30
0.0
 10
-37.00057075865525
 20
3.965541569248588
 30
0.0
 10
-37.00056112233087
 20
3.966030757164278
 30
0.0
 10
-37.00054395479823
 20
3.966907587004813
 30
0.0
 10
-37.00053629311638
 20
3.967301819612947
 30
0.0
 10
-37.00052369534706
 20
3.967952724182507
 30
0.0
 10
-37.00051860992976
 20
3.968217003020916
 30
0.0
 10
-37.00050658711246
 20
3.968843215876225
 30
0.0
 10
-37.00050261290304
 20
3.96905216794507
 30
0.0
 10
-37.0004995927138
 20
3.969210666781031
 30
0.0
 10
-37.00049915073486
 20
3.969233897791335
 30
0.0
 10
-37.00049915074424
 20
3.969233897298693
 30
0.0
  0
SPLINE
  5
8D1C
330
8CFD
100
AcDbEntity
  8
0
100
AcDbSpline
210
0.0
220
0.0
230
1.0
 70
     8
 71
     3
 72
    20
 73
    16
 74
     0
 42
0.000000001
 43
0.0000000001
 40
0.1034042842986982
 40
0.1034042842986982
 40
0.1034042842986982
 40
0.1034042842986982
 40
0.1036986932724069
 40
0.1036986932724069
 40
0.1041718184271274
 40
0.1041718184271274
 40
0.1049673828335356
 40
0.1049673828335356
 40
0.1057328113971724
 40
0.1057328113971724
 40
0.1070743659115343
 40
0.1070743659115343
 40
0.1101517733871078
 40
0.1101517733871078
 40
0.1184305525815131
 40
0.1184305525815131
 40
0.1184305525815131
 40
0.1184305525815131
 10
-37.00299632666407
 20
3.880049798443028
 30
0.0
 10
-37.00299632663989
 20
3.880049799069744
 30
0.0
 10
-37.00299484426778
 20
3.880088181502312
 30
0.0
 10
-37.00298595180779
 20
3.880318943395817
 30
0.0
 10
-37.0029753058666
 20
3.880595166653674
 30
0.0
 10
-37.00293023641253
 20
3.881774261188425
 30
0.0
 10
-37.00288310677122
 20
3.883014767923338
 30
0.0
 10
-37.00277253862902
 20
3.886002354010451
 30
0.0
 10
-37.00270996782943
 20
3.887724841318437
 30
0.0
 10
-37.00253318066565
 20
3.892731912952974
 30
0.0
 10
-37.00241468238202
 20
3.896240824539503
 30
0.0
 10
-37.00203716724974
 20
3.908074384147834
 30
0.0
 10
-37.00179166870835
 20
3.916847009056854
 30
0.0
 10
-37.00100689647036
 20
3.949637830079983
 30
0.0
 10
-37.00066597100821
 20
3.974616803027454
 30
0.0
 10
-37.00049093598415
 20
4.000003333312209
 30
0.0
  0
SPLINE
  5
8D1D
330
8CFD
100
AcDbEntity
  8
0
100
AcDbSpline
210
0.0
220
0.0
230
1.0
 70
     8
 71
     3
 72
    34
 73
    30
 74
     0
 42
0.000000001
 43
0.0000000001
 40
0.0
 40
0.0
 40
0.0
 40
0.0
 40
0.0070452398646194
 40
0.0070452398646194
 40
0.0166405949449307
 40
0.0166405949449307
 40
0.0367140943145825
 40
0.0367140943145825
 40
0.0488284900294355
 40
0.0488284900294355
 40
0.0619891281552935
 40
0.0619891281552935
 40
0.0705213678586784
 40
0.0705213678586784
 40
0.0770085532328964
 40
0.0770085532328964
 40
0.0824905606621526
 40
0.0824905606621526
 40
0.08682891926849
 40
0.08682891926849
 40
0.0899294289345418
 40
0.0899294289345418
 40
0.0920481882064922
 40
0.0920481882064922
 40
0.0936272396421626
 40
0.0936272396421626
 40
0.0962577966337453
 40
0.0962577966337453
 40
0.0968493192593792
 40
0.0968493192593792
 40
0.0968493192593792
 40
0.0968493192593792
 10
-39.56202985675354
 20
2.00002006197366
 30
0.0
 10
-39.54510572272474
 20
2.000020928437328
 30
0.0
 10
-39.52555210335609
 20
2.000028134291595
 30
0.0
 10
-39.47775545385436
 20
2.000061132070958
 30
0.0
 10
-39.44841962885804
 20
2.000093689688332
 30
0.0
 10
-39.35657224026697
 20
2.000268440251024
 30
0.0
 10
-39.29198494434882
 20
2.000513808509528
 30
0.0
 10
-39.19633422765257
 20
2.000879055390151
 30
0.0
 10
-39.16273081631043
 20
2.000996414976856
 30
0.0
 10
-39.09183574198868
 20
2.001409809831278
 30
0.0
 10
-39.05253731416934
 20
2.001731207546534
 30
0.0
 10
-38.98400779116457
 20
2.002903978516781
 30
0.0
 10
-38.95599554231212
 20
2.003538353527654
 30
0.0
 10
-38.90628512951997
 20
2.005134925801557
 30
0.0
 10
-38.88449296390429
 20
2.00598988575751
 30
0.0
 10
-38.84475199504701
 20
2.007923221084613
 30
0.0
 10
-38.82655876653625
 20
2.008956309540774
 30
0.0
 10
-38.79512880277562
 20
2.011036511896837
 30
0.0
 10
-38.78148569545757
 20
2.012048255334512
 30
0.0
 10
-38.75978816468379
 20
2.013830897160971
 30
0.0
 10
-38.75115339650006
 20
2.014596259810811
 30
0.0
 10
-38.73827976313013
 20
2.015808179359302
 30
0.0
 10
-38.73346793491709
 20
2.016283006381249
 30
0.0
 10
-38.72630853383995
 20
2.017013227010119
 30
0.0
 10
-38.72361988377794
 20
2.017296128101004
 30
0.0
 10
-38.71781348316968
 20
2.017918712675348
 30
0.0
 10
-38.71557832696843
 20
2.01817218328369
 30
0.0
 10
-38.71476046657695
 20
2.018265184443936
 30
0.0
 10
-38.71468570911485
 20
2.018273761327911
 30
0.0
 10
-38.71468571207269
 20
2.018273760988706
 30
0.0
  0
LINE
  5
8D1E
330
8CFD
100
AcDbEntity
  8
0
100
AcDbLine
 10
-37.0
 20
2.00000000000001
 30
0.0
 11
-33.0
 21
2.000000000000004
 31
0.0
  0
LINE
  5
8D1F
330
8CFD
100
AcDbEntity
  8
0
100
AcDbLine
 10
-32.99999999999999
 20
86.00000000000001
 30
0.0
 11
-36.99999999999999
 21
86.00000000000001
 31
0.0
  0
LINE
  5
8D20
330
8CFD
100
AcDbEntity
  8
0
100
AcDbLine
 10
-36.99999999999999
 20
2.00000000000001
 30
0.0
 11
-36.99999999999999
 21
86.00000000000001
 31
0.0
  0
LINE
  5
8D21
330
8CFD
100
AcDbEntity
  8
0
100
AcDbLine
 10
37.0
 20
2.00000000000001
 30
0.0
 11
33.0
 21
2.000000000000004
 31
0.0
  0
LINE
  5
8D22
330
8CFD
100
AcDbEntity
  8
0
100
AcDbLine
 10
36.99999999999999
 20
2.00000000000001
 30
0.0
 11
36.99999999999999
 21
86.00000000000001
 31
0.0
  0
LINE
  5
8D23
330
8CFD
100
AcDbEntity
  8
0
100
AcDbLine
 10
32.99999999999999
 20
86.00000000000001
 30
0.0
 11
36.99999999999999
 21
86.00000000000001
 31
0.0
  0
LINE
  5
8D24
330
8CFD
100
AcDbEntity
  8
0
100
AcDbLine
 10
76.50000000000004
 20
0.0
 30
0.0
 11
39.6060606060606
 21
0.0
 31
0.0
  0
LINE
  5
8D25
330
8CFD
100
AcDbEntity
  8
0
100
AcDbLine
 10
76.50000000000004
 20
1.999999999999997
 30
0.0
 11
76.50000000000004
 21
0.0
 31
0.0
  0
LINE
  5
8D26
330
8CFD
100
AcDbEntity
  8
0
100
AcDbLine
 10
39.6060606060606
 20
2.000000000000005
 30
0.0
 11
76.50000000000004
 21
1.999999999999997
 31
0.0
  0
LINE
  5
8D27
330
8CFD
100
AcDbEntity
  8
0
100
AcDbLine
 10
-76.50000000000004
 20
1.999999999999997
 30
0.0
 11
-39.6060606060606
 21
2.000000000000005
 31
0.0
  0
LINE
  5
8D28
330
8CFD
100
AcDbEntity
  8
0
100
AcDbLine
 10
-76.50000000000004
 20
0.0
 30
0.0
 11
-76.50000000000004
 21
1.999999999999997
 31
0.0
  0
LINE
  5
8D29
330
8CFD
100
AcDbEntity
  8
0
100
AcDbLine
 10
-39.6060606060606
 20
0.0
 30
0.0
 11
-76.50000000000004
 21
0.0
 31
0.0
  0
ENDBLK
  5
8CFF
330
8CFD
100
AcDbEntity
  8
0
100
AcDbBlockEnd
  0
BLOCK
  5
8D2B
330
8D2A
100
AcDbEntity
  8
0
100
AcDbBlockBegin
  2
SAE340_70_2-ISO
 70
     0
 10
0.0
 20
0.0
 30
0.0
  3
SAE340_70_2-ISO
  1

  0
LINE
  5
8D2D
330
8D2A
100
AcDbEntity
  8
0
100
AcDbLine
 10
54.9268700613965
 20
-48.71287000569016
 30
0.0
 11
53.51265649902339
 21
-49.5293665866179
 31
0.0
  0
SPLINE
  5
8D2E
330
8D2A
100
AcDbEntity
  8
0
100
AcDbSpline
210
0.0
220
0.0
230
1.0
 70
     8
 71
     3
 72
    14
 73
    10
 74
     0
 42
0.000000001
 43
0.0000000001
 40
0.0
 40
0.0
 40
0.0
 40
0.0
 40
0.3435165591371065
 40
0.3435165591371065
 40
0.3435165591371065
 40
0.7569936138416016
 40
0.7569936138416016
 40
0.7569936138416016
 40
1.0
 40
1.0
 40
1.0
 40
1.0
 10
56.76963318812505
 20
-47.6845173043324
 30
0.0
 10
56.5425140302019
 20
-47.76571580414071
 30
0.0
 10
56.25313729819801
 20
-47.78153815056782
 30
0.0
 10
55.97182688063663
 20
-47.80941120921298
 30
0.0
 10
55.63322485457084
 20
-47.84296088793342
 30
0.0
 10
55.30604355291758
 20
-47.8945691743921
 30
0.0
 10
55.1116427457397
 20
-48.11996960357801
 30
0.0
 10
54.99739060748661
 20
-48.25244066360856
 30
0.0
 10
54.92668990316237
 20
-48.4204774246476
 30
0.0
 10
54.92687006103988
 20
-48.71287000412857
 30
0.0
  0
LINE
  5
8D2F
330
8D2A
100
AcDbEntity
  8
0
100
AcDbLine
 10
56.34108362376959
 20
-47.43709409799065
 30
0.0
 11
56.76963318812505
 21
-47.68451730433238
 31
0.0
  0
ELLIPSE
  5
8D30
330
8D2A
100
AcDbEntity
  8
0
100
AcDbEllipse
 10
54.92687006139648
 20
-48.25359067891838
 30
0.0
 11
1.999999999999997
 21
-0.0000000000001193
 31
0.0
210
0.0
220
0.0
230
1.0
 40
0.5773502691896258
 41
0.7853981633976899
 42
2.356194490192603
  0
LINE
  5
8D31
330
8D2A
100
AcDbEntity
  8
0
100
AcDbLine
 10
53.51265649902339
 20
-49.5293665866179
 30
0.0
 11
53.51265649902339
 21
-47.43709409799065
 31
0.0
  0
ELLIPSE
  5
8D32
330
8D2A
100
AcDbEntity
  8
0
100
AcDbEllipse
 10
-17.90512840081788
 20
-66.26754649563626
 30
0.0
 11
-2.5
 21
-0.000000000000149
 31
0.0
210
0.0
220
0.0
230
1.0
 40
0.577350269189626
 41
3.742856870268582
 42
5.681921090500122
  0
ELLIPSE
  5
8D33
330
8D2A
100
AcDbEntity
  8
0
100
AcDbEllipse
 10
-3.762992777086937
 20
-58.10258068635899
 30
0.0
 11
-2.5
 21
-0.000000000000149
 31
0.0
210
0.0
220
0.0
230
1.0
 40
0.577350269189626
 41
3.742856870268582
 42
5.681921090500122
  0
LINE
  5
8D34
330
8D2A
100
AcDbEntity
  8
0
100
AcDbLine
 10
-7.298526683019712
 20
-87.08820930929329
 30
0.0
 11
-53.96757424133184
 21
-60.14382213867834
 31
0.0
  0
LINE
  5
8D35
330
8D2A
100
AcDbEntity
  8
0
100
AcDbLine
 10
4.015181815965052
 20
-19.31899309229201
 30
0.0
 11
4.015181815965065
 21
-21.76848283507521
 31
0.0
  0
LINE
  5
8D36
330
8D2A
100
AcDbEntity
  8
0
100
AcDbLine
 10
22.39995812681527
 20
-34.01593154899109
 30
0.0
 11
5.429395378338157
 21
-24.21797257785838
 31
0.0
  0
LINE
  5
8D37
330
8D2A
100
AcDbEntity
  8
0
100
AcDbLine
 10
-53.96757424133184
 20
-58.51082897682289
 30
0.0
 11
-7.298526683019703
 21
-85.45521614743783
 31
0.0
  0
ELLIPSE
  5
8D38
330
8D2A
100
AcDbEntity
  8
0
100
AcDbEllipse
 10
-3.762992777086937
 20
-56.46958752450355
 30
0.0
 11
-2.5
 21
0.0000000000001493
 31
0.0
210
0.0
220
0.0
230
1.0
 40
0.5773502691896259
 41
0.0
 42
6.283185307179586
  0
ELLIPSE
  5
8D39
330
8D2A
100
AcDbEntity
  8
0
100
AcDbEllipse
 10
-17.90512840081788
 20
-64.63455333378082
 30
0.0
 11
-2.5
 21
0.0000000000001493
 31
0.0
210
0.0
220
0.0
230
1.0
 40
0.5773502691896259
 41
0.0
 42
6.283185307179586
  0
LINE
  5
8D3A
330
8D2A
100
AcDbEntity
  8
0
100
AcDbLine
 10
4.015181815965052
 20
-19.31899309229201
 30
0.0
 11
3.929939909963571
 21
-19.36820752966821
 31
0.0
  0
SPLINE
  5
8D3B
330
8D2A
100
AcDbEntity
  8
0
100
AcDbSpline
210
0.0
220
0.0
230
1.0
 70
     8
 71
     3
 72
    11
 73
     7
 74
     0
 42
0.000000001
 43
0.0000000001
 40
-1.0
 40
-1.0
 40
-1.0
 40
-1.0
 40
-0.799428689071439
 40
-0.799428689071439
 40
-0.799428689071439
 40
-0.6581427519642387
 40
-0.6581427519642387
 40
-0.6581427519642387
 40
-0.6581427519642387
 10
4.015181815965047
 20
-19.31899309229202
 30
0.0
 10
4.015823051553368
 20
-18.92438100568322
 30
0.0
 10
3.982516733497849
 20
-18.56563271722921
 30
0.0
 10
3.925545614465146
 20
-18.22429598673223
 30
0.0
 10
3.885414162447826
 20
-17.98385242771022
 30
0.0
 10
3.83096459862001
 20
-17.75401835803419
 30
0.0
 10
3.763835806543744
 20
-17.53122624791438
 30
0.0
  0
ELLIPSE
  5
8D3C
330
8D2A
100
AcDbEntity
  8
0
100
AcDbEllipse
 10
-0.2274588711542202
 20
-16.41022402273706
 30
0.0
 11
3.999999999999999
 21
0.0000000000000001
 31
0.0
210
0.0
220
0.0
230
1.0
 40
0.5773502691896259
 41
6.05874703689045
 42
6.283185307179587
  0
ELLIPSE
  5
8D3D
330
8D2A
100
AcDbEntity
  8
0
100
AcDbEllipse
 10
-0.2274588711542202
 20
-16.41022402273706
 30
0.0
 11
3.999999999999999
 21
0.0
 31
0.0
210
0.0
220
0.0
230
1.0
 40
0.5773502691896258
 41
5.49778714378213
 42
6.05874703689045
  0
LINE
  5
8D3E
330
8D2A
100
AcDbEntity
  8
0
100
AcDbLine
 10
2.600968253591973
 20
-18.04321718459252
 30
0.0
 11
2.600968253591973
 21
-18.23764360014647
 31
0.0
  0
LINE
  5
8D3F
330
8D2A
100
AcDbEntity
  8
0
100
AcDbLine
 10
2.600968253591973
 20
-18.23764360014647
 30
0.0
 11
2.600968253591973
 21
-20.13548967321975
 31
0.0
  0
LINE
  5
8D40
330
8D2A
100
AcDbEntity
  8
0
100
AcDbLine
 10
3.929939909963571
 20
-19.36820752966821
 30
0.0
 11
2.600968253591964
 21
-20.13548967321974
 31
0.0
  0
SPLINE
  5
8D41
330
8D2A
100
AcDbEntity
  8
0
100
AcDbSpline
210
0.0
220
0.0
230
1.0
 70
     8
 71
     3
 72
    16
 73
    12
 74
     0
 42
0.000000001
 43
0.0000000001
 40
0.0
 40
0.0
 40
0.0
 40
0.0
 40
0.0351246664952407
 40
0.0351246664952407
 40
0.05533782528395
 40
0.05533782528395
 40
0.0803966055265851
 40
0.0803966055265851
 40
0.1060254014725013
 40
0.1060254014725013
 40
0.1164304058504803
 40
0.1164304058504803
 40
0.1164304058504803
 40
0.1164304058504803
 10
3.76116845921159
 20
-16.58425176516016
 30
0.0
 10
3.745973833830258
 20
-16.70034000608836
 30
0.0
 10
3.731043959379531
 20
-16.81856827968808
 30
0.0
 10
3.716191322260118
 20
-16.99593343941571
 30
0.0
 10
3.712615348016905
 20
-17.05944638483236
 30
0.0
 10
3.710371575640225
 20
-17.19054059594939
 30
0.0
 10
3.713105603860089
 20
-17.25639376134683
 30
0.0
 10
3.724970702899219
 20
-17.37183468485938
 30
0.0
 10
3.734027272337168
 20
-17.42246098266558
 30
0.0
 10
3.750862192722888
 20
-17.49127244796869
 30
0.0
 10
3.756254013506938
 20
-17.51100365097627
 30
0.0
 10
3.76236903887356
 20
-17.53132559851972
 30
0.0
  0
ELLIPSE
  5
8D42
330
8D2A
100
AcDbEntity
  8
0
100
AcDbEllipse
 10
5.429395378338166
 20
-22.58497941600293
 30
0.0
 11
1.000000000000105
 21
-1.732050807568816
 31
0.0
210
0.0
220
0.0
230
1.0
 40
0.5773502691896267
 41
3.926990816987002
 42
5.497787143781897
  0
LINE
  5
8D43
330
8D2A
100
AcDbEntity
  8
0
100
AcDbLine
 10
5.429395378338157
 20
-24.21797257785838
 30
0.0
 11
-53.96757424133184
 21
-58.51082897682289
 31
0.0
  0
ELLIPSE
  5
8D44
330
8D2A
100
AcDbEntity
  8
0
100
AcDbEllipse
 10
-53.96757424133184
 20
-56.87783581496744
 30
0.0
 11
2.000000000000209
 21
-3.464101615137639
 31
0.0
210
0.0
220
0.0
230
1.0
 40
0.5773502691896258
 41
3.926990816986997
 42
5.497787143781893
  0
LINE
  5
8D45
330
8D2A
100
AcDbEntity
  8
0
100
AcDbLine
 10
-55.38178780370493
 20
-56.0613392340397
 30
0.0
 11
4.015181815965069
 21
-21.76848283507521
 31
0.0
  0
LINE
  5
8D46
330
8D2A
100
AcDbEntity
  8
0
100
AcDbLine
 10
-56.79600136607803
 20
-55.24484265311198
 30
0.0
 11
-55.38178780370493
 21
-56.0613392340397
 31
0.0
  0
LINE
  5
8D47
330
8D2A
100
AcDbEntity
  8
0
100
AcDbLine
 10
-53.96757424133184
 20
-60.14382213867834
 30
0.0
 11
-53.96757424133184
 21
-58.51082897682289
 31
0.0
  0
ELLIPSE
  5
8D48
330
8D2A
100
AcDbEntity
  8
0
100
AcDbEllipse
 10
-53.96757424133184
 20
-56.87783581496744
 30
0.0
 11
1.000000000000104
 21
-1.732050807568819
 31
0.0
210
0.0
220
0.0
230
1.0
 40
0.5773502691896258
 41
3.926990816987
 42
5.497787143781896
  0
LINE
  5
8D49
330
8D2A
100
AcDbEntity
  8
0
100
AcDbLine
 10
54.92687006139648
 20
-51.16235974847334
 30
0.0
 11
54.9268700613965
 21
-48.71287000569016
 31
0.0
  0
ELLIPSE
  5
8D4A
330
8D2A
100
AcDbEntity
  8
0
100
AcDbEllipse
 10
52.0984429366503
 20
-49.5293665866179
 30
0.0
 11
1.999999999999999
 21
-3.464101615137756
 31
0.0
210
0.0
220
0.0
230
1.0
 40
0.577350269189625
 41
0.0
 42
0.7853981633974448
  0
LINE
  5
8D4B
330
8D2A
100
AcDbEntity
  8
0
100
AcDbLine
 10
-7.298526683019712
 20
-85.45521614743783
 30
0.0
 11
-5.88431312064662
 21
-84.63871956651011
 31
0.0
  0
LINE
  5
8D4C
330
8D2A
100
AcDbEntity
  8
0
100
AcDbLine
 10
54.92687006139648
 20
-51.16235974847334
 30
0.0
 11
-4.47009955827351
 21
-85.45521614743783
 31
0.0
  0
ELLIPSE
  5
8D4D
330
8D2A
100
AcDbEntity
  8
0
100
AcDbEllipse
 10
-7.298526683019708
 20
-83.82222298558238
 30
0.0
 11
2.000000000000002
 21
-3.464101615137758
 31
0.0
210
0.0
220
0.0
230
1.0
 40
0.5773502691896258
 41
5.497787143782137
 42
7.068583470577033
  0
LINE
  5
8D4E
330
8D2A
100
AcDbEntity
  8
0
100
AcDbLine
 10
82.85758791826516
 20
-37.89429030839783
 30
0.0
 11
84.27180148063825
 21
-37.0777937274701
 31
0.0
  0
LINE
  5
8D4F
330
8D2A
100
AcDbEntity
  8
0
100
AcDbLine
 10
56.76963318812507
 20
-47.6845173043324
 30
0.0
 11
82.85758791826516
 21
-37.89429030839783
 31
0.0
  0
ELLIPSE
  5
8D50
330
8D2A
100
AcDbEntity
  8
0
100
AcDbEllipse
 10
70.48321924750054
 20
33.75328466801018
 30
0.0
 11
-3.249999999999998
 21
5.629165124598853
 31
0.0
210
0.0
220
0.0
230
1.0
 40
0.5773502691896258
 41
0.219325486300592
 42
2.9222671672892
  0
ELLIPSE
  5
8D51
330
8D2A
100
AcDbEntity
  8
0
100
AcDbEllipse
 10
78.26139384055257
 20
33.34503637754631
 30
0.0
 11
1.250000000000128
 21
-2.165063509461022
 31
0.0
210
0.0
220
0.0
230
0.9999999999999998
 40
0.5773502691896259
 41
3.742856870268576
 42
5.681921090500122
  0
LINE
  5
8D52
330
8D2A
100
AcDbEntity
  8
0
100
AcDbLine
 10
57.75529718614267
 20
57.43168551491423
 30
0.0
 11
84.2718014806382
 21
42.12237462251937
 31
0.0
  0
LINE
  5
8D53
330
8D2A
100
AcDbEntity
  8
0
100
AcDbLine
 10
84.27180148063825
 20
-37.0777937274701
 30
0.0
 11
84.2718014806382
 21
42.12237462251936
 31
0.0
  0
ELLIPSE
  5
8D54
330
8D2A
100
AcDbEntity
  8
0
100
AcDbEllipse
 10
54.92687006139648
 20
55.79869235305878
 30
0.0
 11
4.0
 21
-0.000000000000238
 31
0.0
210
0.0
220
0.0
230
1.0
 40
0.5773502691896258
 41
0.7853981633976881
 42
2.356194490192583
  0
ELLIPSE
  5
8D55
330
8D2A
100
AcDbEntity
  8
0
100
AcDbEllipse
 10
27.70325898571439
 20
31.09967077999504
 30
0.0
 11
1.24999999999987
 21
2.165063509461171
 31
0.0
210
0.0
220
0.0
230
1.0
 40
0.577350269189626
 41
3.742856870268578
 42
5.681921090500118
  0
ELLIPSE
  5
8D56
330
8D2A
100
AcDbEntity
  8
0
100
AcDbEllipse
 10
29.11747254808749
 20
30.28317419906732
 30
0.0
 11
-1.25
 21
-2.165063509461096
 31
0.0
210
0.0
220
0.0
230
1.0
 40
0.5773502691896259
 41
0.0
 42
6.283185307179586
  0
LINE
  5
8D57
330
8D2A
100
AcDbEntity
  8
0
100
AcDbLine
 10
-5.884313120646633
 20
-82.18922982372694
 30
0.0
 11
22.39995812681528
 21
-38.91491103455748
 31
0.0
  0
LINE
  5
8D58
330
8D2A
100
AcDbEntity
  8
0
100
AcDbLine
 10
-4.470099558273541
 20
-83.00572640465466
 30
0.0
 11
-5.884313120646633
 21
-82.18922982372694
 31
0.0
  0
LINE
  5
8D59
330
8D2A
100
AcDbEntity
  8
0
100
AcDbLine
 10
23.81417168918837
 20
-39.73140761548521
 30
0.0
 11
-4.470099558273541
 21
-83.00572640465466
 31
0.0
  0
LINE
  5
8D5A
330
8D2A
100
AcDbEntity
  8
0
100
AcDbLine
 10
23.81417168918837
 20
-39.73140761548521
 30
0.0
 11
22.39995812681528
 21
-38.91491103455748
 31
0.0
  0
LINE
  5
8D5B
330
8D2A
100
AcDbEntity
  8
0
100
AcDbLine
 10
22.39995812681528
 20
-38.91491103455748
 30
0.0
 11
22.3999581268153
 21
40.28525731543197
 31
0.0
  0
LINE
  5
8D5C
330
8D2A
100
AcDbEntity
  8
0
100
AcDbLine
 10
23.81417168918839
 20
39.46876073450424
 30
0.0
 11
23.81417168918837
 21
-39.73140761548521
 31
0.0
  0
LINE
  5
8D5D
330
8D2A
100
AcDbEntity
  8
0
100
AcDbLine
 10
22.3999581268153
 20
40.28525731543196
 30
0.0
 11
23.81417168918839
 21
39.46876073450424
 31
0.0
  0
LINE
  5
8D5E
330
8D2A
100
AcDbEntity
  8
0
100
AcDbLine
 10
-4.470099558273541
 20
-83.00572640465466
 30
0.0
 11
-4.470099558273514
 21
-85.45521614743783
 31
0.0
  0
LINE
  5
8D5F
330
8D2A
100
AcDbEntity
  8
0
100
AcDbLine
 10
53.51265649902339
 20
-47.43709409799065
 30
0.0
 11
53.51265649902339
 21
56.61518893398651
 31
0.0
  0
LINE
  5
8D60
330
8D2A
100
AcDbEntity
  8
0
100
AcDbLine
 10
53.51265649902339
 20
56.61518893398651
 30
0.0
 11
23.81417168918839
 21
39.46876073450424
 31
0.0
  0
LINE
  5
8D61
330
8D2A
100
AcDbEntity
  8
0
100
AcDbLine
 10
22.3999581268153
 20
40.28525731543196
 30
0.0
 11
52.0984429366503
 21
57.43168551491423
 31
0.0
  0
LINE
  5
8D62
330
8D2A
100
AcDbEntity
  8
0
100
AcDbLine
 10
-5.884313120646615
 20
-84.63871956651011
 30
0.0
 11
-5.884313120646633
 21
-82.18922982372694
 31
0.0
  0
LINE
  5
8D63
330
8D2A
100
AcDbEntity
  8
0
100
AcDbLine
 10
-7.298526683019712
 20
-85.45521614743783
 30
0.0
 11
-7.298526683019712
 21
-87.08820930929329
 31
0.0
  0
LINE
  5
8D64
330
8D2A
100
AcDbEntity
  8
0
100
AcDbLine
 10
-5.884313120646615
 20
-84.63871956651011
 30
0.0
 11
-4.470099558273514
 21
-85.45521614743783
 31
0.0
  0
ELLIPSE
  5
8D65
330
8D2A
100
AcDbEntity
  8
0
100
AcDbEllipse
 10
-7.298526683019708
 20
-83.82222298558238
 30
0.0
 11
1.000000000000001
 21
-1.732050807568879
 31
0.0
210
0.0
220
0.0
230
1.0
 40
0.5773502691896258
 41
5.497787143782142
 42
7.068583470577038
  0
LINE
  5
8D66
330
8D2A
100
AcDbEntity
  8
0
100
AcDbLine
 10
56.34108362376958
 20
-47.43709409799065
 30
0.0
 11
56.34108362376958
 21
56.61518893398651
 31
0.0
  0
ELLIPSE
  5
8D67
330
8D2A
100
AcDbEntity
  8
0
100
AcDbEllipse
 10
54.92687006139648
 20
55.79869235305878
 30
0.0
 11
-1.999999999999997
 21
-0.0000000000001193
 31
0.0
210
0.0
220
0.0
230
1.0
 40
0.5773502691896258
 41
3.926990816986998
 42
5.497787143781891
  0
LINE
  5
8D68
330
8D2A
100
AcDbEntity
  8
0
100
AcDbLine
 10
84.2718014806382
 20
42.12237462251937
 30
0.0
 11
82.85758791826513
 21
41.30587804159163
 31
0.0
  0
LINE
  5
8D69
330
8D2A
100
AcDbEntity
  8
0
100
AcDbLine
 10
82.85758791826516
 20
-37.89429030839783
 30
0.0
 11
82.85758791826513
 21
41.30587804159164
 31
0.0
  0
LINE
  5
8D6A
330
8D2A
100
AcDbEntity
  8
0
100
AcDbLine
 10
53.51265649902339
 20
56.61518893398651
 30
0.0
 11
52.0984429366503
 21
57.43168551491423
 31
0.0
  0
LINE
  5
8D6B
330
8D2A
100
AcDbEntity
  8
0
100
AcDbLine
 10
56.34108362376958
 20
56.61518893398651
 30
0.0
 11
57.75529718614267
 21
57.43168551491423
 31
0.0
  0
LINE
  5
8D6C
330
8D2A
100
AcDbEntity
  8
0
100
AcDbLine
 10
82.85758791826513
 20
41.30587804159163
 30
0.0
 11
56.34108362376958
 21
56.61518893398651
 31
0.0
  0
ELLIPSE
  5
8D6D
330
8D2A
100
AcDbEntity
  8
0
100
AcDbEllipse
 10
69.06900568512745
 20
32.93678808708245
 30
0.0
 11
-3.25
 21
5.629165124598853
 31
0.0
210
0.0
220
0.0
230
1.0
 40
0.5773502691896258
 41
0.0
 42
6.283185307179586
  0
ELLIPSE
  5
8D6E
330
8D2A
100
AcDbEntity
  8
0
100
AcDbEllipse
 10
76.84718027817948
 20
32.52853979661858
 30
0.0
 11
-1.249999999999999
 21
2.165063509461097
 31
0.0
210
0.0
220
0.0
230
0.9999999999999998
 40
0.5773502691896258
 41
0.0
 42
6.283185307179586
  0
LINE
  5
8D6F
330
8D2A
100
AcDbEntity
  8
0
100
AcDbLine
 10
-5.298526683019706
 20
-87.28632460072013
 30
0.0
 11
54.09844293665031
 21
-52.99346820175564
 31
0.0
  0
ELLIPSE
  5
8D70
330
8D2A
100
AcDbEntity
  8
0
100
AcDbEllipse
 10
70.48321924750054
 20
-23.40147599693065
 30
0.0
 11
-3.25
 21
5.629165124598853
 31
0.0
210
0.0
220
0.0
230
1.0
 40
0.5773502691896258
 41
0.2193254863005922
 42
2.9222671672892
  0
ELLIPSE
  5
8D71
330
8D2A
100
AcDbEntity
  8
0
100
AcDbEllipse
 10
69.06900568512745
 20
-24.21797257785837
 30
0.0
 11
-3.25
 21
5.629165124598853
 31
0.0
210
0.0
220
0.0
230
1.0
 40
0.5773502691896258
 41
0.0
 42
6.283185307179586
  0
ELLIPSE
  5
8D72
330
8D2A
100
AcDbEntity
  8
0
100
AcDbEllipse
 10
62.70504465444851
 20
-31.15819351574405
 30
0.0
 11
1.250000000000128
 21
-2.165063509461022
 31
0.0
210
0.0
220
0.0
230
0.9999999999999998
 40
0.5773502691896259
 41
3.742856870268576
 42
5.681921090500122
  0
ELLIPSE
  5
8D73
330
8D2A
100
AcDbEntity
  8
0
100
AcDbEllipse
 10
62.70504465444851
 20
-14.82826189718952
 30
0.0
 11
1.250000000000128
 21
-2.165063509461022
 31
0.0
210
0.0
220
0.0
230
0.9999999999999998
 40
0.5773502691896259
 41
3.742856870268578
 42
5.681921090500122
  0
ELLIPSE
  5
8D74
330
8D2A
100
AcDbEntity
  8
0
100
AcDbEllipse
 10
62.70504465444851
 20
1.501669721364997
 30
0.0
 11
1.250000000000128
 21
-2.165063509461022
 31
0.0
210
0.0
220
0.0
230
0.9999999999999998
 40
0.5773502691896259
 41
3.742856870268578
 42
5.681921090500122
  0
ELLIPSE
  5
8D75
330
8D2A
100
AcDbEntity
  8
0
100
AcDbEllipse
 10
62.70504465444851
 20
17.83160133991952
 30
0.0
 11
1.250000000000128
 21
-2.165063509461022
 31
0.0
210
0.0
220
0.0
230
0.9999999999999998
 40
0.5773502691896259
 41
3.742856870268578
 42
5.681921090500122
  0
ELLIPSE
  5
8D76
330
8D2A
100
AcDbEntity
  8
0
100
AcDbEllipse
 10
62.70504465444851
 20
34.16153295847404
 30
0.0
 11
1.250000000000128
 21
-2.165063509461022
 31
0.0
210
0.0
220
0.0
230
0.9999999999999998
 40
0.5773502691896259
 41
3.742856870268576
 42
5.681921090500122
  0
ELLIPSE
  5
8D77
330
8D2A
100
AcDbEntity
  8
0
100
AcDbEllipse
 10
61.29083109207542
 20
-31.97469009667177
 30
0.0
 11
-1.249999999999999
 21
2.165063509461097
 31
0.0
210
0.0
220
0.0
230
0.9999999999999998
 40
0.5773502691896258
 41
0.0
 42
6.283185307179586
  0
ELLIPSE
  5
8D78
330
8D2A
100
AcDbEntity
  8
0
100
AcDbEllipse
 10
61.29083109207542
 20
-15.64475847811725
 30
0.0
 11
-1.249999999999999
 21
2.165063509461097
 31
0.0
210
0.0
220
0.0
230
0.9999999999999998
 40
0.5773502691896258
 41
0.0
 42
6.283185307179586
  0
ELLIPSE
  5
8D79
330
8D2A
100
AcDbEntity
  8
0
100
AcDbEllipse
 10
61.29083109207542
 20
0.6851731404372741
 30
0.0
 11
-1.249999999999999
 21
2.165063509461097
 31
0.0
210
0.0
220
0.0
230
0.9999999999999998
 40
0.5773502691896258
 41
0.0
 42
6.283185307179586
  0
ELLIPSE
  5
8D7A
330
8D2A
100
AcDbEntity
  8
0
100
AcDbEllipse
 10
61.29083109207542
 20
17.01510475899179
 30
0.0
 11
-1.249999999999999
 21
2.165063509461097
 31
0.0
210
0.0
220
0.0
230
0.9999999999999998
 40
0.5773502691896258
 41
0.0
 42
6.283185307179586
  0
ELLIPSE
  5
8D7B
330
8D2A
100
AcDbEntity
  8
0
100
AcDbEllipse
 10
61.29083109207542
 20
33.34503637754632
 30
0.0
 11
-1.249999999999999
 21
2.165063509461097
 31
0.0
210
0.0
220
0.0
230
0.9999999999999998
 40
0.5773502691896258
 41
0.0
 42
6.283185307179586
  0
ELLIPSE
  5
8D7C
330
8D2A
100
AcDbEntity
  8
0
100
AcDbEllipse
 10
62.70504465444851
 20
50.49146457702857
 30
0.0
 11
1.250000000000128
 21
-2.165063509461022
 31
0.0
210
0.0
220
0.0
230
0.9999999999999998
 40
0.5773502691896259
 41
3.742856870268576
 42
5.681921090500122
  0
ELLIPSE
  5
8D7D
330
8D2A
100
AcDbEntity
  8
0
100
AcDbEllipse
 10
-3.762992777086946
 20
87.23381071877625
 30
0.0
 11
1.25
 21
-2.165063509461097
 31
0.0
210
0.0
220
0.0
230
1.0
 40
0.5773502691896259
 41
0.0
 42
6.283185307179586
  0
ELLIPSE
  5
8D7E
330
8D2A
100
AcDbEntity
  8
0
100
AcDbEllipse
 10
-2.348779214713854
 20
88.05030729970397
 30
0.0
 11
1.25000000000013
 21
-2.165063509461022
 31
0.0
210
0.0
220
0.0
230
1.0
 40
0.5773502691896259
 41
3.742856870268578
 42
5.681921090500117
  0
ELLIPSE
  5
8D7F
330
8D2A
100
AcDbEntity
  8
0
100
AcDbEllipse
 10
61.29083109207542
 20
49.67496799610085
 30
0.0
 11
-1.249999999999999
 21
2.165063509461097
 31
0.0
210
0.0
220
0.0
230
0.9999999999999998
 40
0.5773502691896258
 41
0.0
 42
6.283185307179586
  0
ELLIPSE
  5
8D80
330
8D2A
100
AcDbEntity
  8
0
100
AcDbEllipse
 10
78.26139384055257
 20
-31.97469009667178
 30
0.0
 11
1.250000000000128
 21
-2.165063509461022
 31
0.0
210
0.0
220
0.0
230
0.9999999999999998
 40
0.5773502691896259
 41
3.742856870268576
 42
5.681921090500122
  0
ELLIPSE
  5
8D81
330
8D2A
100
AcDbEntity
  8
0
100
AcDbEllipse
 10
78.26139384055257
 20
-15.64475847811725
 30
0.0
 11
1.250000000000128
 21
-2.165063509461022
 31
0.0
210
0.0
220
0.0
230
0.9999999999999998
 40
0.5773502691896259
 41
3.742856870268578
 42
5.681921090500122
  0
ELLIPSE
  5
8D82
330
8D2A
100
AcDbEntity
  8
0
100
AcDbEllipse
 10
78.26139384055257
 20
0.6851731404372697
 30
0.0
 11
1.250000000000128
 21
-2.165063509461022
 31
0.0
210
0.0
220
0.0
230
0.9999999999999998
 40
0.5773502691896259
 41
3.742856870268578
 42
5.681921090500122
  0
ELLIPSE
  5
8D83
330
8D2A
100
AcDbEntity
  8
0
100
AcDbEllipse
 10
78.26139384055257
 20
17.01510475899178
 30
0.0
 11
1.250000000000128
 21
-2.165063509461022
 31
0.0
210
0.0
220
0.0
230
0.9999999999999998
 40
0.5773502691896259
 41
3.742856870268578
 42
5.681921090500122
  0
ELLIPSE
  5
8D84
330
8D2A
100
AcDbEntity
  8
0
100
AcDbEllipse
 10
76.84718027817948
 20
-32.7911866775995
 30
0.0
 11
-1.249999999999999
 21
2.165063509461097
 31
0.0
210
0.0
220
0.0
230
0.9999999999999998
 40
0.5773502691896258
 41
0.0
 42
6.283185307179586
  0
ELLIPSE
  5
8D85
330
8D2A
100
AcDbEntity
  8
0
100
AcDbEllipse
 10
76.84718027817948
 20
-16.46125505904498
 30
0.0
 11
-1.249999999999999
 21
2.165063509461097
 31
0.0
210
0.0
220
0.0
230
0.9999999999999998
 40
0.5773502691896258
 41
0.0
 42
6.283185307179586
  0
ELLIPSE
  5
8D86
330
8D2A
100
AcDbEntity
  8
0
100
AcDbEllipse
 10
76.84718027817948
 20
-0.131323440490454
 30
0.0
 11
-1.249999999999999
 21
2.165063509461097
 31
0.0
210
0.0
220
0.0
230
0.9999999999999998
 40
0.5773502691896258
 41
0.0
 42
6.283185307179586
  0
ELLIPSE
  5
8D87
330
8D2A
100
AcDbEntity
  8
0
100
AcDbEllipse
 10
76.84718027817948
 20
16.19860817806405
 30
0.0
 11
-1.249999999999999
 21
2.165063509461097
 31
0.0
210
0.0
220
0.0
230
0.9999999999999998
 40
0.5773502691896258
 41
0.0
 42
6.283185307179586
  0
LINE
  5
8D88
330
8D2A
100
AcDbEntity
  8
0
100
AcDbLine
 10
-22.52973424012795
 20
20.2837356299034
 30
0.0
 11
-21.82252239613729
 21
19.20171691637283
 31
0.0
  0
LINE
  5
8D89
330
8D2A
100
AcDbEntity
  8
0
100
AcDbLine
 10
-27.09751655624305
 20
-10.33753070208707
 30
0.0
 11
-55.38178780370494
 21
-53.61184949125654
 31
0.0
  0
LINE
  5
8D8A
330
8D2A
100
AcDbEntity
  8
0
100
AcDbLine
 10
-28.51173011861614
 20
-9.521034121159344
 30
0.0
 11
-27.09751655624305
 21
-10.33753070208707
 31
0.0
  0
LINE
  5
8D8B
330
8D2A
100
AcDbEntity
  8
0
100
AcDbLine
 10
-56.79600136607803
 20
-52.79535291032882
 30
0.0
 11
-28.51173011861614
 21
-9.521034121159344
 31
0.0
  0
LINE
  5
8D8C
330
8D2A
100
AcDbEntity
  8
0
100
AcDbLine
 10
-55.38178780370494
 20
-53.61184949125654
 30
0.0
 11
-56.79600136607803
 21
-52.79535291032882
 31
0.0
  0
LINE
  5
8D8D
330
8D2A
100
AcDbEntity
  8
0
100
AcDbLine
 10
-27.09751655624303
 20
68.86263764790237
 30
0.0
 11
-27.09751655624305
 21
-10.33753070208706
 31
0.0
  0
LINE
  5
8D8E
330
8D2A
100
AcDbEntity
  8
0
100
AcDbLine
 10
-28.51173011861612
 20
69.67913422883011
 30
0.0
 11
-27.09751655624303
 21
68.86263764790237
 31
0.0
  0
LINE
  5
8D8F
330
8D2A
100
AcDbEntity
  8
0
100
AcDbLine
 10
-28.51173011861614
 20
-9.521034121159344
 30
0.0
 11
-28.51173011861612
 21
69.67913422883011
 31
0.0
  0
ELLIPSE
  5
8D90
330
8D2A
100
AcDbEntity
  8
0
100
AcDbEllipse
 10
-11.54116737013897
 20
79.47709319996284
 30
0.0
 11
-3.250000000000003
 21
5.629165124598848
 31
0.0
210
0.0
220
0.0
230
1.0
 40
0.577350269189626
 41
4.712388980384689
 42
7.853981633974484
  0
ELLIPSE
  5
8D91
330
8D2A
100
AcDbEntity
  8
0
100
AcDbEllipse
 10
-10.12695380776588
 20
80.29358978089057
 30
0.0
 11
-3.250000000000003
 21
5.629165124598854
 31
0.0
210
0.0
220
0.0
230
1.0
 40
0.5773502691896258
 41
0.219325486300592
 42
1.570796326794896
  0
ELLIPSE
  5
8D92
330
8D2A
100
AcDbEntity
  8
0
100
AcDbEllipse
 10
-19.31934196319101
 20
88.05030729970397
 30
0.0
 11
1.25
 21
-2.165063509461097
 31
0.0
210
0.0
220
0.0
230
1.0
 40
0.5773502691896259
 41
0.0
 42
6.283185307179586
  0
ELLIPSE
  5
8D93
330
8D2A
100
AcDbEntity
  8
0
100
AcDbEllipse
 10
-17.90512840081791
 20
88.86680388063169
 30
0.0
 11
1.25000000000013
 21
-2.165063509461022
 31
0.0
210
0.0
220
0.0
230
1.0
 40
0.5773502691896259
 41
3.742856870268578
 42
5.681921090500116
  0
LINE
  5
8D94
330
8D2A
100
AcDbEntity
  8
0
100
AcDbLine
 10
1.186754691218872
 20
86.82556242831239
 30
0.0
 11
1.186754691218876
 21
88.45855559016783
 31
0.0
  0
ELLIPSE
  5
8D95
330
8D2A
100
AcDbEntity
  8
0
100
AcDbEllipse
 10
-0.2274588711542202
 20
87.64205900924011
 30
0.0
 11
1.999999999999997
 21
0.0000000000000003
 31
0.0
210
0.0
220
0.0
230
1.0
 40
0.5773502691896258
 41
5.49778714378214
 42
7.068583470577028
  0
LINE
  5
8D96
330
8D2A
100
AcDbEntity
  8
0
100
AcDbLine
 10
2.600968253591973
 20
86.00906584738465
 30
0.0
 11
2.600968253591973
 21
-18.04321718459252
 31
0.0
  0
ELLIPSE
  5
8D97
330
8D2A
100
AcDbEntity
  8
0
100
AcDbEllipse
 10
-0.2274588711542202
 20
87.64205900924011
 30
0.0
 11
3.999999999999999
 21
-0.0000000000000001
 31
0.0
210
0.0
220
0.0
230
1.0
 40
0.5773502691896259
 41
5.497787143782137
 42
7.068583470577034
  0
LINE
  5
8D98
330
8D2A
100
AcDbEntity
  8
0
100
AcDbLine
 10
1.186754691218876
 20
88.45855559016783
 30
0.0
 11
2.600968253591977
 21
89.27505217109555
 31
0.0
  0
LINE
  5
8D99
330
8D2A
100
AcDbEntity
  8
0
100
AcDbLine
 10
1.186754691218876
 20
86.82556242831239
 30
0.0
 11
2.600968253591973
 21
86.00906584738465
 31
0.0
  0
LINE
  5
8D9A
330
8D2A
100
AcDbEntity
  8
0
100
AcDbLine
 10
3.772541128845783
 20
-16.41022402273707
 30
0.0
 11
3.772541128845783
 21
87.64205900924011
 31
0.0
  0
LINE
  5
8D9B
330
8D2A
100
AcDbEntity
  8
0
100
AcDbLine
 10
-25.32974960327667
 20
103.7678664825627
 30
0.0
 11
1.186754691218876
 21
88.45855559016783
 31
0.0
  0
LINE
  5
8D9C
330
8D2A
100
AcDbEntity
  8
0
100
AcDbLine
 10
-25.32974960327668
 20
71.51625153591753
 30
0.0
 11
-25.32974960327667
 21
103.7678664825627
 31
0.0
  0
LINE
  5
8D9D
330
8D2A
100
AcDbEntity
  8
0
100
AcDbLine
 10
-55.38178780370493
 20
-56.0613392340397
 30
0.0
 11
-55.38178780370494
 21
-53.61184949125654
 31
0.0
  0
LINE
  5
8D9E
330
8D2A
100
AcDbEntity
  8
0
100
AcDbLine
 10
-27.09751655624303
 20
68.86263764790237
 30
0.0
 11
2.600968253591973
 21
86.00906584738465
 31
0.0
  0
LINE
  5
8D9F
330
8D2A
100
AcDbEntity
  8
0
100
AcDbLine
 10
-56.79600136607803
 20
-52.79535291032882
 30
0.0
 11
-56.79600136607803
 21
-55.24484265311198
 31
0.0
  0
LINE
  5
8DA0
330
8D2A
100
AcDbEntity
  8
0
100
AcDbLine
 10
1.186754691218876
 20
86.82556242831239
 30
0.0
 11
-28.51173011861612
 21
69.67913422883011
 31
0.0
  0
LINE
  5
8DA1
330
8D2A
100
AcDbEntity
  8
0
100
AcDbLine
 10
2.600968253591977
 20
89.27505217109555
 30
0.0
 11
-23.91553604090356
 21
104.5843630634904
 31
0.0
  0
LINE
  5
8DA2
330
8D2A
100
AcDbEntity
  8
0
100
AcDbLine
 10
-23.91553604090356
 20
104.5843630634904
 30
0.0
 11
-25.32974960327667
 21
103.7678664825627
 31
0.0
  0
ELLIPSE
  5
8DA3
330
8D2A
100
AcDbEntity
  8
0
100
AcDbEllipse
 10
27.70325898571439
 20
-50.54998731277756
 30
0.0
 11
1.24999999999987
 21
2.165063509461171
 31
0.0
210
0.0
220
0.0
230
1.0
 40
0.577350269189626
 41
3.742856870268578
 42
5.681921090500114
  0
ELLIPSE
  5
8DA4
330
8D2A
100
AcDbEntity
  8
0
100
AcDbEllipse
 10
29.11747254808749
 20
-51.36648389370529
 30
0.0
 11
-1.25
 21
-2.165063509461096
 31
0.0
210
0.0
220
0.0
230
1.0
 40
0.5773502691896259
 41
0.0
 42
6.283185307179586
  0
ELLIPSE
  5
8DA5
330
8D2A
100
AcDbEntity
  8
0
100
AcDbEllipse
 10
27.70325898571439
 20
-34.22005569422304
 30
0.0
 11
1.24999999999987
 21
2.165063509461171
 31
0.0
210
0.0
220
0.0
230
1.0
 40
0.577350269189626
 41
3.742856870268578
 42
5.681921090500115
  0
ELLIPSE
  5
8DA6
330
8D2A
100
AcDbEntity
  8
0
100
AcDbEllipse
 10
29.11747254808749
 20
-35.03655227515077
 30
0.0
 11
-1.25
 21
-2.165063509461096
 31
0.0
210
0.0
220
0.0
230
1.0
 40
0.5773502691896259
 41
0.0
 42
6.283185307179586
  0
ELLIPSE
  5
8DA7
330
8D2A
100
AcDbEntity
  8
0
100
AcDbEllipse
 10
27.70325898571439
 20
-17.89012407566851
 30
0.0
 11
1.24999999999987
 21
2.165063509461171
 31
0.0
210
0.0
220
0.0
230
1.0
 40
0.577350269189626
 41
3.742856870268578
 42
5.681921090500118
  0
ELLIPSE
  5
8DA8
330
8D2A
100
AcDbEntity
  8
0
100
AcDbEllipse
 10
29.11747254808749
 20
-18.70662065659624
 30
0.0
 11
-1.25
 21
-2.165063509461096
 31
0.0
210
0.0
220
0.0
230
1.0
 40
0.5773502691896259
 41
0.0
 42
6.283185307179586
  0
ELLIPSE
  5
8DA9
330
8D2A
100
AcDbEntity
  8
0
100
AcDbEllipse
 10
27.70325898571439
 20
-1.560192457113998
 30
0.0
 11
1.24999999999987
 21
2.165063509461171
 31
0.0
210
0.0
220
0.0
230
1.0
 40
0.577350269189626
 41
3.742856870268578
 42
5.681921090500118
  0
ELLIPSE
  5
8DAA
330
8D2A
100
AcDbEntity
  8
0
100
AcDbEllipse
 10
29.11747254808749
 20
-2.376689038041726
 30
0.0
 11
-1.25
 21
-2.165063509461096
 31
0.0
210
0.0
220
0.0
230
1.0
 40
0.5773502691896259
 41
0.0
 42
6.283185307179586
  0
ELLIPSE
  5
8DAB
330
8D2A
100
AcDbEntity
  8
0
100
AcDbEllipse
 10
27.70325898571439
 20
14.76973916144053
 30
0.0
 11
1.24999999999987
 21
2.165063509461171
 31
0.0
210
0.0
220
0.0
230
1.0
 40
0.577350269189626
 41
3.742856870268578
 42
5.681921090500118
  0
ELLIPSE
  5
8DAC
330
8D2A
100
AcDbEntity
  8
0
100
AcDbEllipse
 10
29.11747254808749
 20
13.95324258051281
 30
0.0
 11
-1.25
 21
-2.165063509461096
 31
0.0
210
0.0
220
0.0
230
1.0
 40
0.5773502691896259
 41
0.0
 42
6.283185307179586
  0
ELLIPSE
  5
8DAD
330
8D2A
100
AcDbEntity
  8
0
100
AcDbEllipse
 10
-23.20842925971701
 20
-12.99114459010215
 30
0.0
 11
1.24999999999987
 21
2.165063509461171
 31
0.0
210
0.0
220
0.0
230
1.0
 40
0.5773502691896258
 41
3.742856870268578
 42
5.681921090500114
  0
ELLIPSE
  5
8DAE
330
8D2A
100
AcDbEntity
  8
0
100
AcDbEllipse
 10
-21.79421569734392
 20
-13.80764117102988
 30
0.0
 11
1.249999999999999
 21
2.165063509461097
 31
0.0
210
0.0
220
0.0
230
0.9999999999999998
 40
0.5773502691896258
 41
0.0
 42
6.283185307179586
  0
ELLIPSE
  5
8DAF
330
8D2A
100
AcDbEntity
  8
0
100
AcDbEllipse
 10
-23.20842925971701
 20
3.338787028452374
 30
0.0
 11
1.24999999999987
 21
2.165063509461171
 31
0.0
210
0.0
220
0.0
230
1.0
 40
0.5773502691896258
 41
3.742856870268578
 42
5.681921090500114
  0
ELLIPSE
  5
8DB0
330
8D2A
100
AcDbEntity
  8
0
100
AcDbEllipse
 10
-21.79421569734392
 20
2.522290447524646
 30
0.0
 11
1.249999999999999
 21
2.165063509461097
 31
0.0
210
0.0
220
0.0
230
0.9999999999999998
 40
0.5773502691896258
 41
0.0
 42
6.283185307179586
  0
ELLIPSE
  5
8DB1
330
8D2A
100
AcDbEntity
  8
0
100
AcDbEllipse
 10
-23.20842925971701
 20
19.6687186470069
 30
0.0
 11
1.24999999999987
 21
2.165063509461171
 31
0.0
210
0.0
220
0.0
230
1.0
 40
0.5773502691896258
 41
3.742856870268578
 42
5.681921090500115
  0
ELLIPSE
  5
8DB2
330
8D2A
100
AcDbEntity
  8
0
100
AcDbEllipse
 10
-21.79421569734392
 20
18.85222206607917
 30
0.0
 11
1.249999999999999
 21
2.165063509461097
 31
0.0
210
0.0
220
0.0
230
0.9999999999999998
 40
0.5773502691896258
 41
0.0
 42
6.283185307179586
  0
ELLIPSE
  5
8DB3
330
8D2A
100
AcDbEntity
  8
0
100
AcDbEllipse
 10
-23.20842925971701
 20
35.99865026556142
 30
0.0
 11
1.24999999999987
 21
2.165063509461171
 31
0.0
210
0.0
220
0.0
230
1.0
 40
0.5773502691896258
 41
3.742856870268578
 42
5.681921090500117
  0
ELLIPSE
  5
8DB4
330
8D2A
100
AcDbEntity
  8
0
100
AcDbEllipse
 10
-21.79421569734392
 20
35.1821536846337
 30
0.0
 11
1.249999999999999
 21
2.165063509461097
 31
0.0
210
0.0
220
0.0
230
0.9999999999999998
 40
0.5773502691896258
 41
0.0
 42
6.283185307179586
  0
ELLIPSE
  5
8DB5
330
8D2A
100
AcDbEntity
  8
0
100
AcDbEllipse
 10
-23.20842925971701
 20
52.32858188411594
 30
0.0
 11
1.24999999999987
 21
2.165063509461171
 31
0.0
210
0.0
220
0.0
230
1.0
 40
0.5773502691896258
 41
3.742856870268578
 42
5.681921090500117
  0
ELLIPSE
  5
8DB6
330
8D2A
100
AcDbEntity
  8
0
100
AcDbEllipse
 10
-21.79421569734392
 20
51.51208530318822
 30
0.0
 11
1.249999999999999
 21
2.165063509461097
 31
0.0
210
0.0
220
0.0
230
0.9999999999999998
 40
0.5773502691896258
 41
0.0
 42
6.283185307179586
  0
ELLIPSE
  5
8DB7
330
8D2A
100
AcDbEntity
  8
0
100
AcDbEllipse
 10
-23.20842925971701
 20
68.65851350267046
 30
0.0
 11
1.24999999999987
 21
2.165063509461171
 31
0.0
210
0.0
220
0.0
230
1.0
 40
0.5773502691896258
 41
3.742856870268578
 42
5.681921090500117
  0
ELLIPSE
  5
8DB8
330
8D2A
100
AcDbEntity
  8
0
100
AcDbEllipse
 10
-21.79421569734392
 20
67.84201692174274
 30
0.0
 11
1.249999999999999
 21
2.165063509461097
 31
0.0
210
0.0
220
0.0
230
0.9999999999999998
 40
0.5773502691896258
 41
0.0
 42
6.283185307179586
  0
ENDBLK
  5
8D2C
330
8D2A
100
AcDbEntity
  8
0
100
AcDbBlockEnd
  0
ENDSEC
  0
SECTION
  2
ENTITIES
  0
INSERT
  5
8DB9
330
1F
100
AcDbEntity
  8
0
100
AcDbBlockReference
  2
SAE340_70_2-Front
 10
0.0
 20
0.0
 30
0.0
  0
INSERT
  5
8DBA
330
1F
100
AcDbEntity
  8
0
100
AcDbBlockReference
  2
SAE340_70_2-Left
 10
117.6
 20
0.0
 30
0.0
  0
INSERT
  5
8DBB
330
1F
100
AcDbEntity
  8
0
100
AcDbBlockReference
  2
SAE340_70_2-Right
 10
-117.6
 20
0.0
 30
0.0
  0
INSERT
  5
8DBC
330
1F
100
AcDbEntity
  8
0
100
AcDbBlockReference
  2
SAE340_70_2-Top
 10
0.0
 20
-43.1
 30
0.0
  0
INSERT
  5
8DBD
330
1F
100
AcDbEntity
  8
0
100
AcDbBlockReference
  2
SAE340_70_2-Bottom
 10
0.0
 20
176.1
 30
0.0
  0
INSERT
  5
8DBE
330
1F
100
AcDbEntity
  8
0
100
AcDbBlockReference
  2
SAE340_70_2-ISO
 10
174.3960013660782
 20
-147.6843630634904
 30
0.0
  0
MTEXT
  5
8DBF
330
1F
100
AcDbEntity
  8
0
100
AcDbMText
 10
0.0
 20
-170.2
 30
0.0
 40
13.7
 41
0.0
 71
     5
 72
     5
  1
SAE340/70/2
 73
     1
 44
1.0
1001
ACAD
1000
MTEXTBEGIN
1070
    73
1070
     1
1070
    44
1040
1.0
1070
    74
1070
     0
1000
MTEXTEND
  0
ENDSEC
  0
SECTION
  2
OBJECTS
  0
DICTIONARY
  5
C
330
0
100
AcDbDictionary
281
     1
  3
ACAD_CIP_PREVIOUS_PRODUCT_INFO
350
216
  3
ACAD_COLOR
350
6B
  3
ACAD_DETAILVIEWSTYLE
350
21B
  3
ACAD_GROUP
350
D
  3
ACAD_LAYOUT
350
1A
  3
ACAD_MATERIAL
350
6A
  3
ACAD_MLEADERSTYLE
350
12D
  3
ACAD_MLINESTYLE
350
17
  3
ACAD_PLOTSETTINGS
350
19
  3
ACAD_PLOTSTYLENAME
350
E
  3
ACAD_SCALELIST
350
10C
  3
ACAD_SECTIONVIEWSTYLE
350
219
  3
ACAD_TABLESTYLE
350
7E
  3
ACAD_VISUALSTYLE
350
EF
  3
ACDB_RECOMPOSE_DATA
350
8EC0
  3
AcDbVariableDictionary
350
5E
  3
DWGPROPS
350
8EC1
  0
DICTIONARY
  5
8E10
330
8
100
AcDbDictionary
280
     1
281
     1
  0
DICTIONARY
  5
1FF
330
2
100
AcDbDictionary
280
     1
281
     1
  3
ACAD_LAYERSTATES
360
200
  0
DICTIONARY
  5
13C
330
10
100
AcDbDictionary
280
     1
281
     1
  0
DICTIONARY
  5
1CE
330
1F
100
AcDbDictionary
280
     1
281
     1
  3
ACAD_LAYOUTSELFREF
360
8E18
  0
DICTIONARY
  5
8DC3
330
D2
100
AcDbDictionary
280
     1
281
     1
  3
ACAD_LAYOUTSELFREF
360
8E21
  0
DICTIONARY
  5
8DC5
330
D6
100
AcDbDictionary
280
     1
281
     1
  3
ACAD_LAYOUTSELFREF
360
8E24
  0
XRECORD
  5
216
102
{ACAD_REACTORS
330
C
102
}
330
C
100
AcDbXrecord
280
     1
300
ACD
300
2021
300
87393ACD_2021_0F
  0
DICTIONARY
  5
6B
102
{ACAD_REACTORS
330
C
102
}
330
C
100
AcDbDictionary
281
     1
  0
DICTIONARY
  5
21B
102
{ACAD_REACTORS
330
C
102
}
330
C
100
AcDbDictionary
281
     1
  3
Metric50
350
21C
  0
DICTIONARY
  5
D
102
{ACAD_REACTORS
330
C
102
}
330
C
100
AcDbDictionary
281
     1
  0
DICTIONARY
  5
1A
102
{ACAD_REACTORS
330
C
102
}
330
C
100
AcDbDictionary
281
     1
  3
Layout1
350
D3
  3
Layout2
350
D7
  3
Model
350
22
  0
DICTIONARY
  5
6A
102
{ACAD_REACTORS
330
C
102
}
330
C
100
AcDbDictionary
281
     1
  3
ByBlock
350
ED
  3
ByLayer
350
EC
  3
Global
350
EE
  0
DICTIONARY
  5
12D
102
{ACAD_REACTORS
330
C
102
}
330
C
100
AcDbDictionary
281
     1
  3
Standard
350
12E
  0
DICTIONARY
  5
17
102
{ACAD_REACTORS
330
C
102
}
330
C
100
AcDbDictionary
281
     1
  3
Standard
350
18
  0
DICTIONARY
  5
19
102
{ACAD_REACTORS
330
C
102
}
330
C
100
AcDbDictionary
281
     1
  0
ACDBDICTIONARYWDFLT
  5
E
102
{ACAD_REACTORS
330
C
102
}
330
C
100
AcDbDictionary
281
     1
  3
Normal
350
F
100
AcDbDictionaryWithDefault
340
F
  0
DICTIONARY
  5
10C
102
{ACAD_REACTORS
330
C
102
}
330
C
100
AcDbDictionary
281
     1
  3
A0
350
10D
  3
A1
350
1BE
  3
A2
350
1BF
  3
A3
350
1C0
  3
A4
350
1C1
  3
A5
350
1C2
  3
A6
350
1C3
  3
A7
350
1C4
  3
A8
350
1C5
  3
A9
350
1C6
  3
B0
350
1C7
  3
B1
350
1C8
  3
B2
350
1C9
  3
B3
350
1CA
  3
B4
350
1CB
  3
B5
350
1CC
  3
B6
350
1CD
  0
DICTIONARY
  5
219
102
{ACAD_REACTORS
330
C
102
}
330
C
100
AcDbDictionary
281
     1
  3
Metric50
350
21A
  0
DICTIONARY
  5
7E
102
{ACAD_REACTORS
330
C
102
}
330
C
100
AcDbDictionary
281
     1
  3
Standard
350
7F
  0
DICTIONARY
  5
EF
102
{ACAD_REACTORS
330
C
102
}
330
C
100
AcDbDictionary
281
     1
  3
2dWireframe
350
F5
  3
Basic
350
F4
  3
Brighten
350
FB
  3
ColorChange
350
FF
  3
Conceptual
350
F8
  3
Dim
350
FA
  3
EdgeColorOff
350
1E6
  3
Facepattern
350
FE
  3
Flat
350
F0
  3
FlatWithEdges
350
F1
  3
Gouraud
350
F2
  3
GouraudWithEdges
350
F3
  3
Hidden
350
F7
  3
JitterOff
350
1E4
  3
Linepattern
350
FD
  3
OverhangOff
350
1E5
  3
Realistic
350
F9
  3
Shaded
350
1F3
  3
Shaded with edges
350
1F2
  3
Shades of Gray
350
1EF
  3
Sketchy
350
1F0
  3
Thicken
350
FC
  3
Wireframe
350
F6
  3
X-Ray
350
1F1
  0
XRECORD
  5
8EC0
102
{ACAD_REACTORS
330
C
102
}
330
C
100
AcDbXrecord
280
     1
 90
        1
330
7F
  0
DICTIONARY
  5
5E
102
{ACAD_REACTORS
330
C
102
}
330
C
100
AcDbDictionary
281
     1
  3
CANNOSCALE
350
146
  3
CENTEREXE
350
259
  3
CENTERLTYPEFILE
350
25A
  3
CMLEADERSTYLE
350
145
  3
CTABLESTYLE
350
84
  3
CVIEWDETAILSTYLE
350
227
  3
CVIEWSECTIONSTYLE
350
228
  3
DIMASSOC
350
5F
  3
HIDETEXT
350
63
  3
INDEXCTL
350
8E6D
  3
LAYEREVAL
350
1AE
  3
LAYERNOTIFY
350
1AF
  3
LIGHTINGUNITS
350
8E6B
  3
MSLTSCALE
350
8E6A
  3
PSOLHEIGHT
350
8EBD
  3
PSOLWIDTH
350
8EBC
  3
SORTENTS
350
8E6C
  3
XCLIPFRAME
350
8EBE
  0
XRECORD
  5
8EC1
102
{ACAD_REACTORS
330
C
102
}
330
C
100
AcDbXrecord
280
     1
  1
DWGPROPS COOKIE
  2

  3

  4

  6

  7

  8
truole
  9

300
=
301
=
302
=
303
=
304
=
305
=
306
=
307
=
308
=
309
=
 40
0.0077430555555556
 41
2460398.356956019
 42
2460398.374618056
  1

 90
        0
  0
DICTIONARY
  5
200
102
{ACAD_REACTORS
330
1FF
102
}
330
1FF
100
AcDbDictionary
281
     1
  0
XRECORD
  5
8E18
102
{ACAD_REACTORS
330
1CE
102
}
330
1CE
100
AcDbXrecord
280
     1
340
1F
  0
XRECORD
  5
8E21
102
{ACAD_REACTORS
330
8DC3
102
}
330
8DC3
100
AcDbXrecord
280
     1
340
D2
  0
XRECORD
  5
8E24
102
{ACAD_REACTORS
330
8DC5
102
}
330
8DC5
100
AcDbXrecord
280
     1
340
D6
  0
ACDBDETAILVIEWSTYLE
  5
21C
102
{ACAD_XDICTIONARY
360
8F00
102
}
102
{ACAD_REACTORS
330
21B
102
}
330
21B
100
AcDbModelDocViewStyle
 70
     0
  3
Metric50
290
     0
100
AcDbDetailViewStyle
 70
     0
 71
     0
 90
        3
 71
     1
340
11
 40
5.0
340
0
 40
5.0
300

 40
0.0
280
     1
 71
     2
340
16
 90
       25
 71
     3
340
11
 40
5.0
 90
        0
 40
15.0
 90
        1
300
%<\AcVar ViewDetailId>% (%<\AcVar ViewScale \f "%sn">%)
 71
     4
340
16
 90
       25
340
16
 90
       25
280
     0
  0
LAYOUT
  5
D3
102
{ACAD_XDICTIONARY
360
8EC5
102
}
102
{ACAD_REACTORS
330
1A
102
}
330
1A
100
AcDbPlotSettings
  1

  2
C:\Documents and Settings\basas\Application Data\Autodesk\AutoCAD 2005\R16.1\enu\plotters\Default Windows System Printer.pc3
  4

  6

 40
0.0
 41
0.0
 42
0.0
 43
0.0
 44
0.0
 45
0.0
 46
0.0
 47
0.0
 48
0.0
 49
0.0
140
0.0
141
0.0
142
1.0
143
1.0
 70
   688
 72
     0
 73
     0
 74
     5
  7

 75
    16
147
1.0
148
0.0
149
0.0
100
AcDbLayout
  1
Layout1
 70
     1
 71
     1
 10
0.0
 20
0.0
 11
12.0
 21
9.0
 12
0.0
 22
0.0
 32
0.0
 14
0.0
 24
0.0
 34
0.0
 15
0.0
 25
0.0
 35
0.0
146
0.0
 13
0.0
 23
0.0
 33
0.0
 16
1.0
 26
0.0
 36
0.0
 17
0.0
 27
1.0
 37
0.0
 76
     0
330
D2
  0
LAYOUT
  5
D7
102
{ACAD_XDICTIONARY
360
8EC7
102
}
102
{ACAD_REACTORS
330
1A
102
}
330
1A
100
AcDbPlotSettings
  1

  2
C:\Documents and Settings\basas\Application Data\Autodesk\AutoCAD 2005\R16.1\enu\plotters\Default Windows System Printer.pc3
  4

  6

 40
0.0
 41
0.0
 42
0.0
 43
0.0
 44
0.0
 45
0.0
 46
0.0
 47
0.0
 48
0.0
 49
0.0
140
0.0
141
0.0
142
1.0
143
1.0
 70
   688
 72
     0
 73
     0
 74
     5
  7

 75
    16
147
1.0
148
0.0
149
0.0
100
AcDbLayout
  1
Layout2
 70
     1
 71
     2
 10
0.0
 20
0.0
 11
12.0
 21
9.0
 12
0.0
 22
0.0
 32
0.0
 14
0.0
 24
0.0
 34
0.0
 15
0.0
 25
0.0
 35
0.0
146
0.0
 13
0.0
 23
0.0
 33
0.0
 16
1.0
 26
0.0
 36
0.0
 17
0.0
 27
1.0
 37
0.0
 76
     0
330
D6
  0
LAYOUT
  5
22
102
{ACAD_XDICTIONARY
360
8EC2
102
}
102
{ACAD_REACTORS
330
1A
102
}
330
1A
100
AcDbPlotSettings
  1

  2
none_device
  4
ISO_A4_(210.00_x_297.00_MM)
  6

 40
7.5
 41
20.0
 42
7.5
 43
20.0
 44
210.0
 45
297.0
 46
11.54999923706054
 47
-13.65000009536743
 48
0.0
 49
0.0
140
0.0
141
0.0
142
1.0
143
8.704084754739808
 70
 11952
 72
     1
 73
     0
 74
     0
  7

 75
     0
147
0.1148885871608098
148
0.0
149
0.0
100
AcDbLayout
  1
Model
 70
     1
 71
     0
 10
0.0
 20
0.0
 11
12.0
 21
9.0
 12
0.0
 22
0.0
 32
0.0
 14
0.0
 24
0.0
 34
0.0
 15
0.0
 25
0.0
 35
0.0
146
0.0
 13
0.0
 23
0.0
 33
0.0
 16
1.0
 26
0.0
 36
0.0
 17
0.0
 27
1.0
 37
0.0
 76
     0
330
1F
331
EA
1001
ACAD_PSEXT
1000
None
1000
None
1000
Not applicable
1000
The layout will not be plotted unless a new plotter configuration name is selected.
1070
     0
  0
MATERIAL
  5
ED
102
{ACAD_XDICTIONARY
360
1F9
102
}
102
{ACAD_REACTORS
330
6A
102
}
330
6A
100
AcDbMaterial
  1
ByBlock
  0
MATERIAL
  5
EC
102
{ACAD_XDICTIONARY
360
1F7
102
}
102
{ACAD_REACTORS
330
6A
102
}
330
6A
100
AcDbMaterial
  1
ByLayer
  0
MATERIAL
  5
EE
102
{ACAD_XDICTIONARY
360
173
102
}
102
{ACAD_REACTORS
330
6A
102
}
330
6A
100
AcDbMaterial
  1
Global
 43
0.0007999999797903
 43
0.0
 43
0.0
 43
0.0
 43
0.0
 43
0.0007999999797903
 43
0.0
 43
0.0
 43
0.0
 43
0.0
 43
1.0
 43
0.0
 43
0.0
 43
0.0
 43
0.0
 43
1.0
 49
0.0007999999797903
 49
0.0
 49
0.0
 49
0.0
 49
0.0
 49
0.0007999999797903
 49
0.0
 49
0.0
 49
0.0
 49
0.0
 49
1.0
 49
0.0
 49
0.0
 49
0.0
 49
0.0
 49
1.0
142
0.0007999999797903
142
0.0
142
0.0
142
0.0
142
0.0
142
0.0007999999797903
142
0.0
142
0.0
142
0.0
142
0.0
142
1.0
142
0.0
142
0.0
142
0.0
142
0.0
142
1.0
144
0.0007999999797903
144
0.0
144
0.0
144
0.0
144
0.0
144
0.0007999999797903
144
0.0
144
0.0
144
0.0
144
0.0
144
1.0
144
0.0
144
0.0
144
0.0
144
0.0
144
1.0
1001
ACAD
1070
    -1
1070
     3
1070
     0
1000

1071
        0
1070
     0
  0
MLEADERSTYLE
  5
12E
102
{ACAD_XDICTIONARY
360
8EEC
102
}
102
{ACAD_REACTORS
330
12D
102
}
330
12D
100
AcDbMLeaderStyle
170
     2
171
     1
172
     0
 90
        2
 40
0.0
 41
0.0
173
     1
 91
-1056964608
340
14
 92
       -2
290
     1
 42
2.0
291
     1
 43
8.0
  3
Standard
 44
4.0
300

342
11
174
     1
178
     1
175
     1
176
     0
 93
-1056964608
 45
4.0
292
     0
297
     0
 46
4.0
 94
-1056964608
 47
1.0
 49
1.0
140
1.0
293
     1
141
0.0
294
     1
177
     0
142
1.0
295
     0
296
     0
143
3.75
1001
ACAD_MLEADERVER
1070
     2
  0
MLINESTYLE
  5
18
102
{ACAD_REACTORS
330
17
102
}
330
17
100
AcDbMlineStyle
  2
STANDARD
 70
     0
  3

 62
   256
 51
90.0
 52
90.0
 71
     2
 49
0.5
 62
   256
  6
BYLAYER
 49
-0.5
 62
   256
  6
BYLAYER
  0
ACDBPLACEHOLDER
  5
F
102
{ACAD_REACTORS
330
E
102
}
330
E
  0
SCALE
  5
10D
102
{ACAD_REACTORS
330
10C
102
}
330
10C
100
AcDbScale
 70
     0
300
1:1
140
1.0
141
1.0
290
     1
  0
SCALE
  5
1BE
102
{ACAD_REACTORS
330
10C
102
}
330
10C
100
AcDbScale
 70
     0
300
1:2
140
1.0
141
2.0
290
     0
  0
SCALE
  5
1BF
102
{ACAD_REACTORS
330
10C
102
}
330
10C
100
AcDbScale
 70
     0
300
1:4
140
1.0
141
4.0
290
     0
  0
SCALE
  5
1C0
102
{ACAD_REACTORS
330
10C
102
}
330
10C
100
AcDbScale
 70
     0
300
1:5
140
1.0
141
5.0
290
     0
  0
SCALE
  5
1C1
102
{ACAD_REACTORS
330
10C
102
}
330
10C
100
AcDbScale
 70
     0
300
1:8
140
1.0
141
8.0
290
     0
  0
SCALE
  5
1C2
102
{ACAD_REACTORS
330
10C
102
}
330
10C
100
AcDbScale
 70
     0
300
1:10
140
1.0
141
10.0
290
     0
  0
SCALE
  5
1C3
102
{ACAD_REACTORS
330
10C
102
}
330
10C
100
AcDbScale
 70
     0
300
1:16
140
1.0
141
16.0
290
     0
  0
SCALE
  5
1C4
102
{ACAD_REACTORS
330
10C
102
}
330
10C
100
AcDbScale
 70
     0
300
1:20
140
1.0
141
20.0
290
     0
  0
SCALE
  5
1C5
102
{ACAD_REACTORS
330
10C
102
}
330
10C
100
AcDbScale
 70
     0
300
1:30
140
1.0
141
30.0
290
     0
  0
SCALE
  5
1C6
102
{ACAD_REACTORS
330
10C
102
}
330
10C
100
AcDbScale
 70
     0
300
1:40
140
1.0
141
40.0
290
     0
  0
SCALE
  5
1C7
102
{ACAD_REACTORS
330
10C
102
}
330
10C
100
AcDbScale
 70
     0
300
1:50
140
1.0
141
50.0
290
     0
  0
SCALE
  5
1C8
102
{ACAD_REACTORS
330
10C
102
}
330
10C
100
AcDbScale
 70
     0
300
1:100
140
1.0
141
100.0
290
     0
  0
SCALE
  5
1C9
102
{ACAD_REACTORS
330
10C
102
}
330
10C
100
AcDbScale
 70
     0
300
2:1
140
2.0
141
1.0
290
     0
  0
SCALE
  5
1CA
102
{ACAD_REACTORS
330
10C
102
}
330
10C
100
AcDbScale
 70
     0
300
4:1
140
4.0
141
1.0
290
     0
  0
SCALE
  5
1CB
102
{ACAD_REACTORS
330
10C
102
}
330
10C
100
AcDbScale
 70
     0
300
8:1
140
8.0
141
1.0
290
     0
  0
SCALE
  5
1CC
102
{ACAD_REACTORS
330
10C
102
}
330
10C
100
AcDbScale
 70
     0
300
10:1
140
10.0
141
1.0
290
     0
  0
SCALE
  5
1CD
102
{ACAD_REACTORS
330
10C
102
}
330
10C
100
AcDbScale
 70
     0
300
100:1
140
100.0
141
1.0
290
     0
  0
ACDBSECTIONVIEWSTYLE
  5
21A
102
{ACAD_XDICTIONARY
360
8EFE
102
}
102
{ACAD_REACTORS
330
219
102
}
330
219
100
AcDbModelDocViewStyle
 70
     0
  3
Metric50
290
     0
100
AcDbSectionViewStyle
 70
     0
 71
     0
 90
      102
 71
     1
340
11
 40
5.0
340
0
340
0
 40
5.0
300
I, O, Q, S, X, Z
 40
10.0
 90
        0
 40
2.5
 90
        0
 71
     2
340
16
 90
       25
340
16
 90
       50
 40
5.0
 40
2.5
 40
5.0
 71
     3
340
11
 40
5.0
 90
        0
 40
15.0
 90
        1
300
%<\AcVar ViewSectionStartId>%-%<\AcVar ViewSectionEndId>% (%<\AcVar ViewScale \f "%sn">%)
 71
     4
300
ANSI31
 40
1.0
 90
        0
290
     0
290
     0
 90
        6
 40
0.0
 40
1.570796326794896
 40
0.2617993877991494
 40
1.308996938995747
 40
-0.2617993877991494
 40
1.832595714594046
  0
TABLESTYLE
  5
7F
102
{ACAD_XDICTIONARY
360
162
102
}
102
{ACAD_REACTORS
330
7E
102
}
330
7E
100
AcDbTableStyle
  3
Standard
 70
     0
 71
     0
 40
1.5
 41
1.5
280
     0
281
     0
  7
Standard
140
4.5
170
     2
 62
     0
 63
     7
283
     0
274
    -2
284
     1
 64
     0
275
    -2
285
     1
 65
     0
276
    -2
286
     1
 66
     0
277
    -2
287
     1
 67
     0
278
    -2
288
     1
 68
     0
279
    -2
289
     1
 69
     0
  7
Standard
140
6.0
170
     5
 62
     0
 63
     7
283
     0
274
    -2
284
     1
 64
     0
275
    -2
285
     1
 65
     0
276
    -2
286
     1
 66
     0
277
    -2
287
     1
 67
     0
278
    -2
288
     1
 68
     0
279
    -2
289
     1
 69
     0
  7
Standard
140
4.5
170
     5
 62
     0
 63
     7
283
     0
274
    -2
284
     1
 64
     0
275
    -2
285
     1
 65
     0
276
    -2
286
     1
 66
     0
277
    -2
287
     1
 67
     0
278
    -2
288
     1
 68
     0
279
    -2
289
     1
 69
     0
  0
VISUALSTYLE
  5
F5
102
{ACAD_XDICTIONARY
360
8ED6
102
}
102
{ACAD_REACTORS
330
EF
102
}
330
EF
100
AcDbVisualStyle
  2
2dWireframe
 70
     4
 71
     0
 72
     2
 73
     1
 90
        0
 40
-0.6
 41
-30.0
 62
     5
 63
     7
 74
     1
 91
        4
 64
     7
 65
   257
 75
     1
175
     1
 42
1.0
 92
        0
 66
   257
 43
1.0
 76
     1
 77
     6
 78
     2
 67
     7
 79
     5
170
     0
171
     0
290
     0
174
     0
 93
        1
 44
0.0
173
     0
291
     0
 45
0.0
1001
ACAD
1000
AcDbSavedByObjectVersion
1070
     0
  0
VISUALSTYLE
  5
F4
102
{ACAD_XDICTIONARY
360
8ED4
102
}
102
{ACAD_REACTORS
330
EF
102
}
330
EF
100
AcDbVisualStyle
  2
Basic
 70
     7
 71
     1
 72
     0
 73
     1
 90
        0
 40
-0.6
 41
-30.0
 62
     5
 63
     7
 74
     0
 91
        4
 64
     7
 65
   257
 75
     1
175
     1
 42
1.0
 92
        8
 66
     7
 43
1.0
 76
     1
 77
     6
 78
     2
 67
     7
 79
     5
170
     0
171
     0
290
     0
174
     0
 93
        1
 44
0.0
173
     0
291
     1
 45
0.0
1001
ACAD
1000
AcDbSavedByObjectVersion
1070
     0
  0
VISUALSTYLE
  5
FB
102
{ACAD_XDICTIONARY
360
8EE2
102
}
102
{ACAD_REACTORS
330
EF
102
}
330
EF
100
AcDbVisualStyle
  2
Brighten
 70
    12
 71
     2
 72
     2
 73
     1
 90
        0
 40
-0.6
 41
-30.0
 62
     5
 63
     7
 74
     1
 91
        4
 64
     7
 65
   257
 75
     1
175
     1
 42
1.0
 92
        8
 66
     7
 43
1.0
 76
     1
 77
     6
 78
     2
 67
     7
 79
     5
170
     0
171
     0
290
     0
174
     0
 93
        1
 44
50.0
173
     0
291
     1
 45
0.0
1001
ACAD
1000
AcDbSavedByObjectVersion
1070
     0
  0
VISUALSTYLE
  5
FF
102
{ACAD_XDICTIONARY
360
8EEA
102
}
102
{ACAD_REACTORS
330
EF
102
}
330
EF
100
AcDbVisualStyle
  2
ColorChange
 70
    16
 71
     2
 72
     2
 73
     3
 90
        0
 40
-0.6
 41
-30.0
 62
     5
 63
     8
 74
     1
 91
        4
 64
     7
 65
   257
 75
     1
175
     1
 42
1.0
 92
        8
 66
     8
 43
1.0
 76
     1
 77
     6
 78
     2
 67
     7
 79
     5
170
     0
171
     0
290
     0
174
     0
 93
        1
 44
0.0
173
     0
291
     1
 45
0.0
1001
ACAD
1000
AcDbSavedByObjectVersion
1070
     0
  0
VISUALSTYLE
  5
F8
102
{ACAD_XDICTIONARY
360
8EDC
102
}
102
{ACAD_REACTORS
330
EF
102
}
330
EF
100
AcDbVisualStyle
  2
Conceptual
 70
     9
 71
     3
 72
     2
 73
     1
 90
        0
 40
-0.6
 41
-30.0
 62
     5
 63
     7
 74
     2
 91
        2
 64
     7
 65
   257
 75
     1
175
     1
 42
40.0
 92
        8
 66
     7
 43
1.0
 76
     1
 77
     6
 78
     2
 67
     7
 79
     3
170
     0
171
     0
290
     0
174
     0
 93
        1
 44
0.0
173
     0
291
     0
 45
0.0
1001
ACAD
1000
AcDbSavedByObjectVersion
1070
     0
  0
VISUALSTYLE
  5
FA
102
{ACAD_XDICTIONARY
360
8EE0
102
}
102
{ACAD_REACTORS
330
EF
102
}
330
EF
100
AcDbVisualStyle
  2
Dim
 70
    11
 71
     2
 72
     2
 73
     1
 90
        0
 40
-0.6
 41
-30.0
 62
     5
 63
     7
 74
     1
 91
        4
 64
     7
 65
   257
 75
     1
175
     1
 42
1.0
 92
        8
 66
     7
 43
1.0
 76
     1
 77
     6
 78
     2
 67
     7
 79
     5
170
     0
171
     0
290
     0
174
     0
 93
        1
 44
-50.0
173
     0
291
     1
 45
0.0
1001
ACAD
1000
AcDbSavedByObjectVersion
1070
     0
  0
VISUALSTYLE
  5
1E6
102
{ACAD_XDICTIONARY
360
8EF2
102
}
102
{ACAD_REACTORS
330
EF
102
}
330
EF
100
AcDbVisualStyle
  2
EdgeColorOff
 70
    22
 71
     2
 72
     2
 73
     0
 90
        0
 40
-0.6
 41
-30.0
 62
     5
 63
     7
 74
     1
 91
        4
 64
     7
 65
   257
 75
     1
175
     1
 42
1.0
 92
        8
 66
     7
 43
1.0
 76
     1
 77
     6
 78
     2
 67
     7
 79
     5
170
     0
171
     0
290
     0
174
     0
 93
        1
 44
0.0
173
     0
291
     1
 45
0.0
1001
ACAD
1000
AcDbSavedByObjectVersion
1070
     0
  0
VISUALSTYLE
  5
FE
102
{ACAD_XDICTIONARY
360
8EE8
102
}
102
{ACAD_REACTORS
330
EF
102
}
330
EF
100
AcDbVisualStyle
  2
Facepattern
 70
    15
 71
     2
 72
     2
 73
     1
 90
        0
 40
-0.6
 41
-30.0
 62
     5
 63
     7
 74
     1
 91
        4
 64
     7
 65
   257
 75
     1
175
     1
 42
1.0
 92
        8
 66
     7
 43
1.0
 76
     1
 77
     6
 78
     2
 67
     7
 79
     5
170
     0
171
     0
290
     0
174
     0
 93
        1
 44
0.0
173
     0
291
     1
 45
0.0
1001
ACAD
1000
AcDbSavedByObjectVersion
1070
     0
  0
VISUALSTYLE
  5
F0
102
{ACAD_XDICTIONARY
360
8ECC
102
}
102
{ACAD_REACTORS
330
EF
102
}
330
EF
100
AcDbVisualStyle
  2
Flat
 70
     0
 71
     2
 72
     1
 73
     1
 90
        2
 40
-0.6
 41
30.0
 62
     5
 63
     7
 74
     0
 91
        0
 64
     7
 65
   257
 75
     1
175
     1
 42
1.0
 92
        8
 66
     7
 43
1.0
 76
     1
 77
     6
 78
     2
 67
     7
 79
     5
170
     0
171
     0
290
     0
174
     0
 93
       13
 44
0.0
173
     0
291
     1
 45
0.0
1001
ACAD
1000
AcDbSavedByObjectVersion
1070
     0
  0
VISUALSTYLE
  5
F1
102
{ACAD_XDICTIONARY
360
8ECE
102
}
102
{ACAD_REACTORS
330
EF
102
}
330
EF
100
AcDbVisualStyle
  2
FlatWithEdges
 70
     1
 71
     2
 72
     1
 73
     1
 90
        2
 40
-0.6
 41
30.0
 62
     5
 63
     7
 74
     1
 91
        0
 64
     7
 65
   257
 75
     1
175
     1
 42
1.0
 92
        0
 66
   257
 43
1.0
 76
     1
 77
     6
 78
     2
 67
     7
 79
     5
170
     0
171
     0
290
     0
174
     0
 93
       13
 44
0.0
173
     0
291
     1
 45
0.0
1001
ACAD
1000
AcDbSavedByObjectVersion
1070
     0
  0
VISUALSTYLE
  5
F2
102
{ACAD_XDICTIONARY
360
8ED0
102
}
102
{ACAD_REACTORS
330
EF
102
}
330
EF
100
AcDbVisualStyle
  2
Gouraud
 70
     2
 71
     2
 72
     2
 73
     1
 90
        2
 40
-0.6
 41
30.0
 62
     5
 63
     7
 74
     0
 91
        0
 64
     7
 65
   257
 75
     1
175
     1
 42
1.0
 92
        0
 66
     7
 43
1.0
 76
     1
 77
     6
 78
     2
 67
     7
 79
     5
170
     0
171
     0
290
     0
174
     0
 93
       13
 44
0.0
173
     0
291
     1
 45
0.0
1001
ACAD
1000
AcDbSavedByObjectVersion
1070
     0
  0
VISUALSTYLE
  5
F3
102
{ACAD_XDICTIONARY
360
8ED2
102
}
102
{ACAD_REACTORS
330
EF
102
}
330
EF
100
AcDbVisualStyle
  2
GouraudWithEdges
 70
     3
 71
     2
 72
     2
 73
     1
 90
        2
 40
-0.6
 41
30.0
 62
     5
 63
     7
 74
     1
 91
        0
 64
     7
 65
   257
 75
     1
175
     1
 42
1.0
 92
        0
 66
   257
 43
1.0
 76
     1
 77
     6
 78
     2
 67
     7
 79
     5
170
     0
171
     0
290
     0
174
     0
 93
       13
 44
0.0
173
     0
291
     1
 45
0.0
1001
ACAD
1000
AcDbSavedByObjectVersion
1070
     0
  0
VISUALSTYLE
  5
F7
102
{ACAD_XDICTIONARY
360
8EDA
102
}
102
{ACAD_REACTORS
330
EF
102
}
330
EF
100
AcDbVisualStyle
  2
Hidden
 70
     6
 71
     1
 72
     2
 73
     2
 90
        0
 40
-0.6
 41
-30.0
 62
     5
 63
     7
 74
     2
 91
        2
 64
     7
 65
   257
 75
     2
175
     1
 42
40.0
 92
        0
 66
   257
 43
1.0
 76
     1
 77
     6
 78
     2
 67
     7
 79
     3
170
     0
171
     0
290
     0
174
     0
 93
        1
 44
0.0
173
     0
291
     0
 45
0.0
1001
ACAD
1000
AcDbSavedByObjectVersion
1070
     0
  0
VISUALSTYLE
  5
1E4
102
{ACAD_XDICTIONARY
360
8EEE
102
}
102
{ACAD_REACTORS
330
EF
102
}
330
EF
100
AcDbVisualStyle
  2
JitterOff
 70
    20
 71
     2
 72
     2
 73
     0
 90
        0
 40
-0.6
 41
-30.0
 62
     5
 63
     7
 74
     1
 91
        4
 64
     7
 65
   257
 75
     1
175
     1
 42
1.0
 92
       10
 66
     7
 43
1.0
 76
     1
 77
     6
 78
     2
 67
     7
 79
     5
170
     0
171
     0
290
     0
174
     0
 93
        1
 44
0.0
173
     0
291
     1
 45
0.0
1001
ACAD
1000
AcDbSavedByObjectVersion
1070
     0
  0
VISUALSTYLE
  5
FD
102
{ACAD_XDICTIONARY
360
8EE6
102
}
102
{ACAD_REACTORS
330
EF
102
}
330
EF
100
AcDbVisualStyle
  2
Linepattern
 70
    14
 71
     2
 72
     2
 73
     1
 90
        0
 40
-0.6
 41
-30.0
 62
     5
 63
     7
 74
     1
 91
        4
 64
     7
 65
   257
 75
     7
175
     7
 42
1.0
 92
        8
 66
     7
 43
1.0
 76
     1
 77
     6
 78
     2
 67
     7
 79
     5
170
     0
171
     0
290
     0
174
     0
 93
        1
 44
0.0
173
     0
291
     1
 45
0.0
1001
ACAD
1000
AcDbSavedByObjectVersion
1070
     0
  0
VISUALSTYLE
  5
1E5
102
{ACAD_XDICTIONARY
360
8EF0
102
}
102
{ACAD_REACTORS
330
EF
102
}
330
EF
100
AcDbVisualStyle
  2
OverhangOff
 70
    21
 71
     2
 72
     2
 73
     0
 90
        0
 40
-0.6
 41
-30.0
 62
     5
 63
     7
 74
     1
 91
        4
 64
     7
 65
   257
 75
     1
175
     1
 42
1.0
 92
        9
 66
     7
 43
1.0
 76
     1
 77
     6
 78
     2
 67
     7
 79
     5
170
     0
171
     0
290
     0
174
     0
 93
        1
 44
0.0
173
     0
291
     1
 45
0.0
1001
ACAD
1000
AcDbSavedByObjectVersion
1070
     0
  0
VISUALSTYLE
  5
F9
102
{ACAD_XDICTIONARY
360
8EDE
102
}
102
{ACAD_REACTORS
330
EF
102
}
330
EF
100
AcDbVisualStyle
  2
Realistic
 70
     8
 71
     2
 72
     2
 73
     0
 90
        2
 40
-0.6
 41
30.0
 62
     5
 63
     7
 74
     0
 91
        0
 64
     7
 65
   257
 75
     1
175
     1
 42
1.0
 92
        8
 66
   257
 43
1.0
 76
     1
 77
     6
 78
     2
 67
     7
 79
     3
170
     0
171
     0
290
     0
174
     0
 93
       13
 44
0.0
173
     0
291
     0
 45
0.0
1001
ACAD
1000
AcDbSavedByObjectVersion
1070
     0
  0
VISUALSTYLE
  5
1F3
102
{ACAD_XDICTIONARY
360
8EFC
102
}
102
{ACAD_REACTORS
330
EF
102
}
330
EF
100
AcDbVisualStyle
  2
Shaded
 70
    27
 71
     2
 72
     2
 73
     1
 90
        2
 40
-0.6
 41
30.0
 62
     5
 63
     7
 74
     0
 91
        4
 64
     7
 65
   257
 75
     1
175
     1
 42
1.0
 92
        8
 66
   257
 43
1.0
 76
     1
 77
     6
 78
     2
 67
     8
 79
     3
170
     0
171
     0
290
     0
174
     0
 93
        5
 44
0.0
173
     0
291
     0
 45
0.0
1001
ACAD
1000
AcDbSavedByObjectVersion
1070
     0
  0
VISUALSTYLE
  5
1F2
102
{ACAD_XDICTIONARY
360
8EFA
102
}
102
{ACAD_REACTORS
330
EF
102
}
330
EF
100
AcDbVisualStyle
  2
Shaded with edges
 70
    26
 71
     2
 72
     2
 73
     1
 90
        2
 40
-0.6
 41
30.0
 62
     5
 63
     7
 74
     1
 91
        2
 64
     7
 65
   257
 75
     2
175
     1
 42
1.0
 92
        8
 66
   257
 43
1.0
 76
     1
 77
     6
 78
     2
 67
     7
 79
     3
170
     0
171
     0
290
     0
174
     0
 93
        5
 44
0.0
173
     0
291
     0
 45
0.0
1001
ACAD
1000
AcDbSavedByObjectVersion
1070
     0
  0
VISUALSTYLE
  5
1EF
102
{ACAD_XDICTIONARY
360
8EF4
102
}
102
{ACAD_REACTORS
330
EF
102
}
330
EF
100
AcDbVisualStyle
  2
Shades of Gray
 70
    23
 71
     2
 72
     2
 73
     3
 90
        0
 40
-0.6
 41
-30.0
 62
     5
 63
     7
 74
     2
 91
        2
 64
     7
 65
     7
 75
     1
175
     1
 42
40.0
 92
        8
 66
     7
 43
1.0
 76
     1
 77
     6
 78
     2
 67
     7
 79
     3
170
     0
171
     0
290
     0
174
     0
 93
        1
 44
0.0
173
     0
291
     0
 45
0.0
1001
ACAD
1000
AcDbSavedByObjectVersion
1070
     0
  0
VISUALSTYLE
  5
1F0
102
{ACAD_XDICTIONARY
360
8EF6
102
}
102
{ACAD_REACTORS
330
EF
102
}
330
EF
100
AcDbVisualStyle
  2
Sketchy
 70
    24
 71
     1
 72
     2
 73
     2
 90
        0
 40
-0.6
 41
-30.0
 62
     5
 63
     7
 74
     2
 91
        2
 64
     7
 65
     7
 75
     1
175
     1
 42
40.0
 92
       11
 66
     7
 43
1.0
 76
     1
 77
     6
 78
     2
 67
     7
 79
     6
170
     0
171
     0
290
     0
174
     0
 93
        1
 44
0.0
173
     0
291
     0
 45
0.0
1001
ACAD
1000
AcDbSavedByObjectVersion
1070
     0
  0
VISUALSTYLE
  5
FC
102
{ACAD_XDICTIONARY
360
8EE4
102
}
102
{ACAD_REACTORS
330
EF
102
}
330
EF
100
AcDbVisualStyle
  2
Thicken
 70
    13
 71
     2
 72
     2
 73
     1
 90
        0
 40
-0.6
 41
-30.0
 62
     5
 63
     7
 74
     1
 91
        4
 64
     7
 65
   257
 75
     1
175
     1
 42
1.0
 92
       12
 66
     7
 43
1.0
 76
     1
 77
     6
 78
     2
 67
     7
 79
     5
170
     0
171
     0
290
     0
174
     0
 93
        1
 44
0.0
173
     0
291
     1
 45
0.0
1001
ACAD
1000
AcDbSavedByObjectVersion
1070
     0
  0
VISUALSTYLE
  5
F6
102
{ACAD_XDICTIONARY
360
8ED8
102
}
102
{ACAD_REACTORS
330
EF
102
}
330
EF
100
AcDbVisualStyle
  2
Wireframe
 70
     5
 71
     0
 72
     2
 73
     0
 90
        0
 40
-0.6
 41
-30.0
 62
     5
 63
     7
 74
     1
 91
        4
 64
     7
 65
   257
 75
     1
175
     1
 42
1.0
 92
        0
 66
   257
 43
1.0
 76
     1
 77
     6
 78
     2
 67
     7
 79
     3
170
     0
171
     0
290
     0
174
     0
 93
        1
 44
0.0
173
     0
291
     0
 45
0.0
1001
ACAD
1000
AcDbSavedByObjectVersion
1070
     0
  0
VISUALSTYLE
  5
1F1
102
{ACAD_XDICTIONARY
360
8EF8
102
}
102
{ACAD_REACTORS
330
EF
102
}
330
EF
100
AcDbVisualStyle
  2
X-Ray
 70
    25
 71
     2
 72
     2
 73
     1
 90
        1
 40
0.5
 41
-30.0
 62
     5
 63
     7
 74
     1
 91
        0
 64
     7
 65
   257
 75
     1
175
     1
 42
1.0
 92
        8
 66
     7
 43
1.0
 76
     1
 77
     6
 78
     2
 67
     7
 79
     3
170
     0
171
     0
290
     0
174
     0
 93
       13
 44
0.0
173
     0
291
     0
 45
0.0
1001
ACAD
1000
AcDbSavedByObjectVersion
1070
     0
  0
DICTIONARYVAR
  5
146
102
{ACAD_REACTORS
330
5E
102
}
330
5E
100
DictionaryVariables
280
     0
  1
1:1
  0
DICTIONARYVAR
  5
259
102
{ACAD_REACTORS
330
5E
102
}
330
5E
100
DictionaryVariables
280
     0
  1
3.500000
  0
DICTIONARYVAR
  5
25A
102
{ACAD_REACTORS
330
5E
102
}
330
5E
100
DictionaryVariables
280
     0
  1
acadiso.lin
  0
DICTIONARYVAR
  5
145
102
{ACAD_REACTORS
330
5E
102
}
330
5E
100
DictionaryVariables
280
     0
  1
STANDARD
  0
DICTIONARYVAR
  5
84
102
{ACAD_REACTORS
330
5E
102
}
330
5E
100
DictionaryVariables
280
     0
  1
STANDARD
  0
DICTIONARYVAR
  5
227
102
{ACAD_REACTORS
330
5E
102
}
330
5E
100
DictionaryVariables
280
     0
  1
Metric50
  0
DICTIONARYVAR
  5
228
102
{ACAD_REACTORS
330
5E
102
}
330
5E
100
DictionaryVariables
280
     0
  1
Metric50
  0
DICTIONARYVAR
  5
5F
102
{ACAD_REACTORS
330
5E
102
}
330
5E
100
DictionaryVariables
280
     0
  1
2
  0
DICTIONARYVAR
  5
63
102
{ACAD_REACTORS
330
5E
102
}
330
5E
100
DictionaryVariables
280
     0
  1
1
  0
DICTIONARYVAR
  5
8E6D
102
{ACAD_REACTORS
330
5E
102
}
330
5E
100
DictionaryVariables
280
     0
  1
0
  0
DICTIONARYVAR
  5
1AE
102
{ACAD_REACTORS
330
5E
102
}
330
5E
100
DictionaryVariables
280
     0
  1
0
  0
DICTIONARYVAR
  5
1AF
102
{ACAD_REACTORS
330
5E
102
}
330
5E
100
DictionaryVariables
280
     0
  1
0
  0
DICTIONARYVAR
  5
8E6B
102
{ACAD_REACTORS
330
5E
102
}
330
5E
100
DictionaryVariables
280
     0
  1
2
  0
DICTIONARYVAR
  5
8E6A
102
{ACAD_REACTORS
330
5E
102
}
330
5E
100
DictionaryVariables
280
     0
  1
1
  0
DICTIONARYVAR
  5
8EBD
102
{ACAD_REACTORS
330
5E
102
}
330
5E
100
DictionaryVariables
280
     0
  1
80.000000
  0
DICTIONARYVAR
  5
8EBC
102
{ACAD_REACTORS
330
5E
102
}
330
5E
100
DictionaryVariables
280
     0
  1
5.000000
  0
DICTIONARYVAR
  5
8E6C
102
{ACAD_REACTORS
330
5E
102
}
330
5E
100
DictionaryVariables
280
     0
  1
127
  0
DICTIONARYVAR
  5
8EBE
102
{ACAD_REACTORS
330
5E
102
}
330
5E
100
DictionaryVariables
280
     0
  1
2
  0
DICTIONARY
  5
8F00
330
21C
100
AcDbDictionary
280
     1
281
     1
  3
ACAD_XREC_ROUNDTRIP
360
8F01
  0
DICTIONARY
  5
8EC5
330
D3
100
AcDbDictionary
280
     1
281
     1
  3
ACAD_XREC_ROUNDTRIP
360
8EC6
  0
DICTIONARY
  5
8EC7
330
D7
100
AcDbDictionary
280
     1
281
     1
  3
ACAD_XREC_ROUNDTRIP
360
8EC8
  0
DICTIONARY
  5
8EC2
330
22
100
AcDbDictionary
280
     1
281
     1
  3
ACAD_XREC_ROUNDTRIP
360
8EC3
  0
DICTIONARY
  5
1F9
330
ED
100
AcDbDictionary
280
     1
281
     1
  3
ACAD_XREC_ROUNDTRIP
360
8ECA
  3
FBXASSET
360
1FA
  0
DICTIONARY
  5
1F7
330
EC
100
AcDbDictionary
280
     1
281
     1
  3
ACAD_XREC_ROUNDTRIP
360
8EC9
  3
FBXASSET
360
1F8
  0
DICTIONARY
  5
173
330
EE
100
AcDbDictionary
280
     1
281
     1
  3
ACAD_XREC_ROUNDTRIP
360
8ECB
  3
BUMPTILE
360
175
  3
DIFFUSETILE
360
174
  3
FBXASSET
360
1FB
  3
OPACITYTILE
360
176
  3
REFLECTIONTILE
360
177
  0
DICTIONARY
  5
8EEC
330
12E
100
AcDbDictionary
280
     1
281
     1
  3
ACAD_XREC_ROUNDTRIP
360
8EED
  0
DICTIONARY
  5
8EFE
330
21A
100
AcDbDictionary
280
     1
281
     1
  3
ACAD_XREC_ROUNDTRIP
360
8EFF
  0
DICTIONARY
  5
162
330
7F
100
AcDbDictionary
280
     1
281
     1
  3
ACAD_ROUNDTRIP_2008_TABLESTYLE_CELLSTYLEMAP
360
8EBF
  3
ACAD_XREC_ROUNDTRIP
360
8EC4
  0
DICTIONARY
  5
8ED6
330
F5
100
AcDbDictionary
280
     1
281
     1
  3
ACAD_XREC_ROUNDTRIP
360
8ED7
  0
DICTIONARY
  5
8ED4
330
F4
100
AcDbDictionary
280
     1
281
     1
  3
ACAD_XREC_ROUNDTRIP
360
8ED5
  0
DICTIONARY
  5
8EE2
330
FB
100
AcDbDictionary
280
     1
281
     1
  3
ACAD_XREC_ROUNDTRIP
360
8EE3
  0
DICTIONARY
  5
8EEA
330
FF
100
AcDbDictionary
280
     1
281
     1
  3
ACAD_XREC_ROUNDTRIP
360
8EEB
  0
DICTIONARY
  5
8EDC
330
F8
100
AcDbDictionary
280
     1
281
     1
  3
ACAD_XREC_ROUNDTRIP
360
8EDD
  0
DICTIONARY
  5
8EE0
330
FA
100
AcDbDictionary
280
     1
281
     1
  3
ACAD_XREC_ROUNDTRIP
360
8EE1
  0
DICTIONARY
  5
8EF2
330
1E6
100
AcDbDictionary
280
     1
281
     1
  3
ACAD_XREC_ROUNDTRIP
360
8EF3
  0
DICTIONARY
  5
8EE8
330
FE
100
AcDbDictionary
280
     1
281
     1
  3
ACAD_XREC_ROUNDTRIP
360
8EE9
  0
DICTIONARY
  5
8ECC
330
F0
100
AcDbDictionary
280
     1
281
     1
  3
ACAD_XREC_ROUNDTRIP
360
8ECD
  0
DICTIONARY
  5
8ECE
330
F1
100
AcDbDictionary
280
     1
281
     1
  3
ACAD_XREC_ROUNDTRIP
360
8ECF
  0
DICTIONARY
  5
8ED0
330
F2
100
AcDbDictionary
280
     1
281
     1
  3
ACAD_XREC_ROUNDTRIP
360
8ED1
  0
DICTIONARY
  5
8ED2
330
F3
100
AcDbDictionary
280
     1
281
     1
  3
ACAD_XREC_ROUNDTRIP
360
8ED3
  0
DICTIONARY
  5
8EDA
330
F7
100
AcDbDictionary
280
     1
281
     1
  3
ACAD_XREC_ROUNDTRIP
360
8EDB
  0
DICTIONARY
  5
8EEE
330
1E4
100
AcDbDictionary
280
     1
281
     1
  3
ACAD_XREC_ROUNDTRIP
360
8EEF
  0
DICTIONARY
  5
8EE6
330
FD
100
AcDbDictionary
280
     1
281
     1
  3
ACAD_XREC_ROUNDTRIP
360
8EE7
  0
DICTIONARY
  5
8EF0
330
1E5
100
AcDbDictionary
280
     1
281
     1
  3
ACAD_XREC_ROUNDTRIP
360
8EF1
  0
DICTIONARY
  5
8EDE
330
F9
100
AcDbDictionary
280
     1
281
     1
  3
ACAD_XREC_ROUNDTRIP
360
8EDF
  0
DICTIONARY
  5
8EFC
330
1F3
100
AcDbDictionary
280
     1
281
     1
  3
ACAD_XREC_ROUNDTRIP
360
8EFD
  0
DICTIONARY
  5
8EFA
330
1F2
100
AcDbDictionary
280
     1
281
     1
  3
ACAD_XREC_ROUNDTRIP
360
8EFB
  0
DICTIONARY
  5
8EF4
330
1EF
100
AcDbDictionary
280
     1
281
     1
  3
ACAD_XREC_ROUNDTRIP
360
8EF5
  0
DICTIONARY
  5
8EF6
330
1F0
100
AcDbDictionary
280
     1
281
     1
  3
ACAD_XREC_ROUNDTRIP
360
8EF7
  0
DICTIONARY
  5
8EE4
330
FC
100
AcDbDictionary
280
     1
281
     1
  3
ACAD_XREC_ROUNDTRIP
360
8EE5
  0
DICTIONARY
  5
8ED8
330
F6
100
AcDbDictionary
280
     1
281
     1
  3
ACAD_XREC_ROUNDTRIP
360
8ED9
  0
DICTIONARY
  5
8EF8
330
1F1
100
AcDbDictionary
280
     1
281
     1
  3
ACAD_XREC_ROUNDTRIP
360
8EF9
  0
XRECORD
  5
8F01
102
{ACAD_REACTORS
330
8F00
102
}
330
8F00
100
AcDbXrecord
280
     1
102
DISPLAYNAME
  1
Metric50
102
FLAGS
 90
        0
  0
XRECORD
  5
8EC6
102
{ACAD_REACTORS
330
8EC5
102
}
330
8EC5
100
AcDbXrecord
280
     1
102
SHADEPLOT
 70
     0
102
SHADEPLOTRESLEVEL
 70
     2
102
SHADEPLOTCUSTOMDPI
 70
   300
  0
XRECORD
  5
8EC8
102
{ACAD_REACTORS
330
8EC7
102
}
330
8EC7
100
AcDbXrecord
280
     1
102
SHADEPLOT
 70
     0
102
SHADEPLOTRESLEVEL
 70
     2
102
SHADEPLOTCUSTOMDPI
 70
   300
  0
XRECORD
  5
8EC3
102
{ACAD_REACTORS
330
8EC2
102
}
330
8EC2
100
AcDbXrecord
280
     1
102
SHADEPLOT
 70
     0
102
SHADEPLOTRESLEVEL
 70
     2
102
SHADEPLOTCUSTOMDPI
 70
   300
  0
XRECORD
  5
8ECA
102
{ACAD_REACTORS
330
1F9
102
}
330
1F9
100
AcDbXrecord
280
     1
102
MATERIAL
148
0.0
149
0.0
149
0.0
 93
        0
 94
       63
282
     0
 72
     1
 77
     1
171
     1
175
     1
179
     1
273
     0
  0
XRECORD
  5
1FA
102
{ACAD_REACTORS
330
1F9
102
}
330
1F9
100
AcDbXrecord
280
     1
 70
     1
 90
429727718
  1
D62C5603-E3A1-4AEA-B7FB-FE5D8D0755AF
310
504B03040A0000080000CC70623B3DEE336E79000000790000001B0000006175746F6465736B2D64657369676E2D7061636B6167652E786D6C3C3F786D6C2076657273696F6E3D22312E302220656E636F64696E673D227574662D3822203F3E3C666F726D6174733E3C666F726D61743E687474703A2F2F736368656D612E
310
6175746F6465736B2E636F6D2F64657369676E2D7061636B6167652F323030393C2F666F726D61743E3C2F666F726D6174733E504B0304140006080800CC70623BD486FD9CA0000000F4000000130000005B436F6E74656E745F54797065735D2E786D6C7D8EC10E82300C865F65E91D8A1E8C310C0EEA1BF002731658846E
310
D98AC1B77784ABF1D8FE5FBFBF75BBCE937A534CCEB38643598122B6FEE978D0B0485F9C41B54DDD7D022595594E1A469170414C76A4D9A4D207E29CF43ECE46F218070CC6BECC4078ACAA135ACF422C856C0E68EA1BF5669944DDD7BCDE7B1F8E415D77AECB980613C2E4AC91FC167A2B244592486606FC29C8FD7F045B9A
310
EF7053A7E60B504B0304140006080800CC70623B853B8169EB0000007C01000008000000636F72652E786D6C8D90416EC3201045AF62CDB6C206821CC7C244919D9CA01740401C94182C03558F5F9C3852BBEB6A467FFE9B197D7EFC9E1EC5975982F5AE035262288C535E5B377690E21535501C055FBC8FBF6C503839990E
310
5619041F179FE64D52DE45E362569DD7661365082642A11EB9E920A89B99642953CC8E702F67A9EE7234257977194EC9EAE275C4EABCCF5EAD5940D4AC6F0E35A568B8F43562CD7046CD199FD07E60174276A7BE677B5EADB0E0D14EEFFB6A31321A0D82627C4084204C3F096B71DD52F6819B16635EADF63F509AF53FA164
310
5DDCD1EDDD17164090FCC8732078B56691CB33A85CD7DCC40F504B0304140006080800CC70623B55019EA25F0000007C00000007000000636E782E786D6C4DCB3B0E80201045D1AD90E915ED2CF8AC45050C11660C8261F98AB1B07AC9C97D42D718D865D3E909258CFD00CCE24AC6E326A164D74DC0B4128928FF32603847
310
2BA13128B1252AC747C6BAB984FC68F0B87FE8960A5C09FE86CFB69FBA01504B0304140006080800CC70623BDBABAAF470010000D40300000C0000006662782F636F72652E786D6CC553D16E823014FD95A6AF4B694182CC941A83FA05FB810A9511A125A5257EFE2E82712ECEB8A7F100CD39F7F69E734AF9FADC366850B6
310
AF8DCE7018308C942E4C59EB2AC3DE1D498AD15A706B8CFB56869196ADCAF00863C12B6B7C374385D14E6907A836A59A41D9F7CA615434B0C8705F7CAA5606D23BA8E84F41278B93AC54100640439DE0BDB320004D43C63716C7C399D30917DCFBBA9CD9BA8469F5B156168B24CED3F7248AC8769F27244EB73B92EED8862C
310
B7F13E0C179B3C8F979C8ECD82BBBABDAA2BAC924E9558448CBD9330242CFA08E3154B5651FCC6D215639C8EE5774DBE2B5F6CF2B5768B68963BB5F5588420E442FC700B1139D4CB01F450C1E918227C2E09DF070D8140C84E1E9AAB8F1340832A9CB13130A5F1376A908D57309505ECF2A0DF179C4E9D30F5B239B87E3823
310
7A79C6F31DE1A8A5AEC08474B03C7837EAE4938639B44E5932B833D2C6B6B279CDC613877FA26EE21F4A2A4C63EC7F29A2F301D1F9F7A0E37D145F504B0304140006080800CC70623B9C113CC27E0000009D0000000B0000006662782F636E782E786D6C4DCCDF0A83201C86E15B91DFB94BFB330DD428C8FB886521330DA7
310
6397BF1A1DECE883878F57749FCDA1B7892F1BBC047A23808C7F84D9FA55424E0BE6803A256208E9EF06C84F9B91703228B1C690F78B66B34CD9A5439DF5CF0BFBF65E35BCA1B8D6A5C6F540381E886698B5741C695F9503EBA150A2F8958E3DC3EA0B504B0304140006080800CC70623B7DF2F77C2A010000120200003100
310
00006662782F41393633353835312D344632462D344230382D423046372D3739314545314133324237412F636F72652E786D6C8D51DB8EC22014FC15C2939B0D2DB4B45643319AE817EC0F6041255A68B86CFCFC856D4D76DF7CE190393373060EDB3DC707F856CE6B6B7A480A0C81328395DA5C7B18C3057510EC3873D686
310
3F34088C18550F330C39BB3A1BA7051AAC09CA84841A2BD5020AEF55806078A44B0FFD7053A328440C89E1EFC52486BBB8AA8214A99D789CF9E05200300FC927E4FB4D5B375D43103D5527440FB843077C5AA3F5861C8F645F5787F59E95B390B318B55CE45AA638FAA2957BD7248B390B7A7CC51F9C124149C82B8C378810
310
84AB2F42B7B8DD56F413775B8C5999E9FF4471926F8AA236A1AE96B8B3CC434E5839373893369E1FAF30EA395917409EB7F26AF8801C171837A4A6AC9C89E9F9C9B1A58BA30FD6A5EF5DDDCF894B9AD9B6A59C957943A9FCAE2FD5BC4DFE03504B0304140006080800CC70623BAD7543B64E01000033030000300000006662
310
782F41393633353835312D344632462D344230382D423046372D3739314545314133324237412F636E782E786D6CD593CD6EC32010845F0571AD6CE3D48AD20813A9873E410FBD12D82434182C7EAAE6EDBB2424CD25871E7B41D6EC30B3FA84F9E67BB2E40B4234DE8DB46F1925E094D7C6ED479AD3AE5951B2113C789FEE
310
6C943839C1488B4C05DF079FE72A69D8C96C13AAD6B8631503449F83828872B949AC57D26200B826A308D316B4064D6E46FCDA41C05550DC9E483A00797BFD207EFB092A45DE9514C1BBD22178396BD39D891265658C238DEA00936C654E5E433CB65A26D9F6EDB5EBC14EBF49A45CB856E66048291F6939A9A81BB5C89177
310
38143CA680F4AA299D66A042CEB3354A2684DC9D8D178FE0D9B8B41CAAD720F880EE7EF93C0C18769E099ECC04D5A102C8049A8A05632F4DDF376CF1DE0F6BB65C2F8627B65A33C6BB62177CEBBDAD973006829F89F22E814B54F4BC2BE347F8AA8F681390B50FA73F804400B5F542E796F19FF974E7F78DB802FE05E20750
310
4B0304140006080800CC70623BE75B7789680500003C100000340000006662782F41393633353835312D344632462D344230382D423046372D3739314545314133324237412F6F626A656374732E786D6CAD575B8F9B3818FD2B887D06C22499CB8AA1CA655245D5B455A356FB305264C061D8018C6C3393D95FBFC7600890
310
A4CD5EF210B0B1BFEBF98E3F7B1FF6596ABC522E1296DF9BAE3D320D9A872C4AF2F8DE2CE5CEBA358D0FBEC719939D65A691938CDE9B6ADAF4BD98B3B2D05311DD91329583D9D5FC0F438434A7A611A644887B5384CF34233629258BA878B12322891DEFF6B66BD70BFB62634E8AE781D082709A4B588AF91C528CDA28B73F
310
1C998EEF39EABBEFA97FBD6A7C7E9553F9D3D79FE442923C3C523610337627CB87ABE99D359D4CC6D6E4FACAB5E6ABF9D2726FC6A3C5F56271377BB88362213924694B38DD99FE47C48627A1E7D49F5A8BB5E1A74C0A599ED3B0F21F1E56366B89112D681E218F0915D0D6F17AD41FBA2A369DCF6335D62ABBD39779D5DDD1
310
11D4D8DE3CBB96B2E04FB8202E41051754A1AA8E8F76B4C6DFE810B580B1547F4B84911149794252234D024EF8BBE963A95AE27B3D310A9D5C215C7960FAEE415ED75694C6AFB17BCACA5D99A60A9AA65F217B0BFC53292ACB92BF283FAD0D3621576592CB5BED907C2FA8E9DF794E35E97BEA31BED21FEB401ABB94C44839
310
DCACBF0E1C5DA8DA5B2F4DFFD32AD86F543D9E565E7056502E157C00AD2671CD534549AB752FCA9CDA00677A313F04E51B22FF19E57B300579E3C97EB29F682D92935CEC18CF901B7B54FD8C51F362B56FC72FE0B3C1EAE335EDCCBF5AEC39ADB17DC238973F804BA5E6F6BFE7AF1FB32E523BE9F3BD571418E3631DCA4D48
310
5250CF639223210A9446CA30052EDF057BD35F8329C1ECD84552BF0DC8D18BE7BCE23BFE6BD960AB4A7DE79923A103BEBD80F911CBAA2C60DB19B01CF164A5583B772EE6D3FFA56666CBCDA74DC97724A48F9A58967497E489C4D979006FD7A05E227A1EBDD0F737C623387A9C844D3709995625106D157315F8B8392CD4E0
310
A0B9A720C4BE9829CEF37EA1E13111214D53925356365ADA634861B52519DD27A00AEB808EAF0628E6F435519D446F45CF2C9CF5214F0A15B2F6D06B79DA3EE3CBF7F56780D2F4E7EF73A0F5E5B02A38D07DC852C6B7C1FBB6664213E0C39E3EBA7FF4E1AD23EA2829407C85E586727488B751B2DB9502BC7B228A3FD68B6E
310
A65A22397E690AA8D158D7E404EC8CDA235CC3B7D1898680131CEC2CDF2638C65196279577750F15884AEE19F94199155B92B13297978469D4F8D358DF0AEF7631E28DC8F0D9F437D5D39A83B2231A1D52D543813A824EF8D44BCFF2FA6A31BD1E8DAD87F1CCB526B3879935BF59CDADD5C37479BB1CDD4CA7B3556B516589
310
EF352754B706114D9C885EC9131DE6EFEB43D99AFE2391C2F958179413D7CFEF6B1B6DB1E7600F00DE6E5C67454A339A4BA2E0FBA85ED26F045D454F463DBFCE484C2F90F2E5E3666003662ED8F755951A7D1BECD5B30B550B2785C8E7320B7292A4838DDA71BBC863ED7613CAF659337A3354231D4FF4A182A54904C2898C
310
98B28C4AD0CE056CCF332A80986E571EE9DBC305BB5FEB7E509220A58D25CF042D712A806AC0AD0C657FDEF80D2D9CEAA2EE4D1C76F60BFE74219A06527D6F82DF6412526107381E55E353090704D085B52408A8913C4ED159D79BDA71BB4BC506F4831350EB6F975CD22D69BF7AC49B91A2C0A9DDA3D5CA36AD20FC478E37
310
E61844E2352865EBCB61A275A65283CAAA9DD27703B4102F5AF51EF5F573B75CBB5AD38BC845F7A49F82A0966A49C2E3EA5EA0ECD326CD965F1DB402C6FA8B51A4658C5C5E2EC9E214602E55810345408596591009A82E7E7FFACA19EEA299B14A0081A705CB3296EBC14CDF658DCD336EA6D1136881AAEB87B81AB9EE53D5
310
F5EB8BC8362082DA24122F98680A4E7930C01A0079749CEA14382A0783E5EBA5A10F8C098456A03D6A4AEB6BB881E2513747552A5DB22C7EDAF83BD5528081A365F7FF06504B0304140006080000CC70623B000000000000000000000000350000006662782F41393633353835312D344632462D344230382D423046372D37
310
39314545314133324237412F76657274696365732E62696E504B0304140006080800CC70623BF270F1330600000004000000360000006662782F41393633353835312D344632462D344230382D423046372D3739314545314133324237412F747269616E676C65732E62696E636660600000504B0304140006080000CC7062
310
3B000000000000000000000000370000006662782F41393633353835312D344632462D344230382D423046372D3739314545314133324237412F617474726962757465732E62696E504B0304140006080800CC70623B08DA0BD19000000041010000360000006662782F41393633353835312D344632462D344230382D4230
310
46372D3739314545314133324237412F6469726563746F72792E786D6C858F410AC3201045AF22B36F53E9A60B35CBEEBAE80D244E44489C6234F4F835464A48035D0DF398FF9F8AF63D0E6CC63039F212F8F9020C7D47C6792B21C5FE7403D62A1188E2E60C98D7234A5830286103A55745067B9D86B8A3CF9C7F90C11DE6
310
07FB144396D7B6A82D282E9A152AD114D5EF2CB866EEE831B8EEA07A7BB5A8D7D61A2BAAEB7FD5F70921FF497D00504B0304140006080800CC70623BEDD1DC58FD000000A00100003B0000006662782F41393633353835312D344632462D344230382D423046372D3739314545314133324237412F7265736F75726365732F
310
636F72652E786D6C8D504B6E833010BD0A9A6D65B00922041947112427E8052C33A156828DFCA97AFC9A40A576D7CDCCE87D344F8F9FBFE667F689CE6B6B3A6039850C8DB2A336530731DC4903D95970676DF82583CCC8193B5861107C72362E3BA4AC096842428D1D7107A5F7182053CF7474E0D507CE32973124857FE48B
310
540F3961CEF244279DE03EB81420DB9EAC1384436FA353E879B1B182C7A8C75DA3C7F453DF353A1075D537A7BA6464B8F535A99AE14A9A2BBD90E350DD183B5CFABE3AF262350B1EF4FC9351399401471025A527C218A1E53BAB5A5AB765F5469B96525EACF23FA6B88CFF34456DC2A1DCE36E360F82A5202F42F062ED2BAD
310
579969AFDD8A6F504B010214000A0000080000CC70623B3DEE336E79000000790000001B00000000000000000000000000000000006175746F6465736B2D64657369676E2D7061636B6167652E786D6C504B01021400140006080800CC70623BD486FD9CA0000000F40000001300000000000000000000000000B20000005B
310
436F6E74656E745F54797065735D2E786D6C504B01021400140006080800CC70623B853B8169EB0000007C010000080000000000000000000000000083010000636F72652E786D6C504B01021400140006080800CC70623B55019EA25F0000007C000000070000000000000000000000000094020000636E782E786D6C504B
310
01021400140006080800CC70623BDBABAAF470010000D40300000C00000000000000000000000000180300006662782F636F72652E786D6C504B01021400140006080800CC70623B9C113CC27E0000009D0000000B00000000000000000000000000B20400006662782F636E782E786D6C504B01021400140006080800CC70
310
623B7DF2F77C2A010000120200003100000000000000000000000000590500006662782F41393633353835312D344632462D344230382D423046372D3739314545314133324237412F636F72652E786D6C504B01021400140006080800CC70623BAD7543B64E010000330300003000000000000000000000000000D2060000
310
6662782F41393633353835312D344632462D344230382D423046372D3739314545314133324237412F636E782E786D6C504B01021400140006080800CC70623BE75B7789680500003C10000034000000000000000000000000006E0800006662782F41393633353835312D344632462D344230382D423046372D3739314545
310
314133324237412F6F626A656374732E786D6C504B01021400140006080000CC70623B0000000000000000000000003500000000000000000000000000280E00006662782F41393633353835312D344632462D344230382D423046372D3739314545314133324237412F76657274696365732E62696E504B01021400140006
310
080800CC70623BF270F133060000000400000036000000000000000000000000007B0E00006662782F41393633353835312D344632462D344230382D423046372D3739314545314133324237412F747269616E676C65732E62696E504B01021400140006080000CC70623B0000000000000000000000003700000000000000
310
000000000000D50E00006662782F41393633353835312D344632462D344230382D423046372D3739314545314133324237412F617474726962757465732E62696E504B01021400140006080800CC70623B08DA0BD1900000004101000036000000000000000000000000002A0F00006662782F41393633353835312D344632
310
462D344230382D423046372D3739314545314133324237412F6469726563746F72792E786D6C504B01021400140006080800CC70623BEDD1DC58FD000000A00100003B000000000000000000000000000E1000006662782F41393633353835312D344632462D344230382D423046372D3739314545314133324237412F7265
310
736F75726365732F636F72652E786D6C504B0506000000000E000E0080040000641100000000
  0
XRECORD
  5
8EC9
102
{ACAD_REACTORS
330
1F7
102
}
330
1F7
100
AcDbXrecord
280
     1
102
MATERIAL
148
0.0
149
0.0
149
0.0
 93
        0
 94
       63
282
     0
 72
     1
 77
     1
171
     1
175
     1
179
     1
273
     0
  0
XRECORD
  5
1F8
102
{ACAD_REACTORS
330
1F7
102
}
330
1F7
100
AcDbXrecord
280
     1
 70
     1
 90
429727718
  1
30362254-06B7-45E0-A893-8CFA70E3D6BC
310
504B03040A0000080000CC70623B3DEE336E79000000790000001B0000006175746F6465736B2D64657369676E2D7061636B6167652E786D6C3C3F786D6C2076657273696F6E3D22312E302220656E636F64696E673D227574662D3822203F3E3C666F726D6174733E3C666F726D61743E687474703A2F2F736368656D612E
310
6175746F6465736B2E636F6D2F64657369676E2D7061636B6167652F323030393C2F666F726D61743E3C2F666F726D6174733E504B0304140006080800CC70623BD486FD9CA0000000F4000000130000005B436F6E74656E745F54797065735D2E786D6C7D8EC10E82300C865F65E91D8A1E8C310C0EEA1BF002731658846E
310
D98AC1B77784ABF1D8FE5FBFBF75BBCE937A534CCEB38643598122B6FEE978D0B0485F9C41B54DDD7D022595594E1A469170414C76A4D9A4D207E29CF43ECE46F218070CC6BECC4078ACAA135ACF422C856C0E68EA1BF5669944DDD7BCDE7B1F8E415D77AECB980613C2E4AC91FC167A2B244592486606FC29C8FD7F045B9A
310
EF7053A7E60B504B0304140006080800CC70623B1EC5D7A3EB0000007C01000008000000636F72652E786D6C8D90416EC3201045AF82665B6103C6756C6122AB4D4ED00B204C5C94182C03558F5F9C3852BBEB6A467FFE9B197D71FC9E6FE8CBACC17AD7032D0820E3B41FAD9B7A48F1820F808E52ACDEC75F36404ECDA687
310
4D0629A6D5A76597B477D1B89855E747B38B2A041301E95B6E7A08FAD3CCAA50296647B8168BD2573599823EBB0CA76447F43862C7BCCF5EAC59410E4DDD9C7973C2755553CCCFA4C603E3040F1565ED3B1FDE4E432BCA0D9622DAF9795FAF464533826484B498524CD807E51D79ED187F21878E10516EF63F505AC67F42C9
310
BA58B1FDDD071640D2FCC87D2045B96591CB3DA85CB7DCE40F504B0304140006080800CC70623B55019EA25F0000007C00000007000000636E782E786D6C4DCB3B0E80201045D1AD90E915ED2CF8AC45050C11660C8261F98AB1B07AC9C97D42D718D865D3E909258CFD00CCE24AC6E326A164D74DC0B4128928FF32603847
310
2BA13128B1252AC747C6BAB984FC68F0B87FE8960A5C09FE86CFB69FBA01504B0304140006080800CC70623B8C9102E971010000D40300000C0000006662782F636F72652E786D6CC5535B6E833010BC8AE5DF0A6C08340F1947A84D4ED00B38C6A128602363A31CBFCB234A53A551FA553EC09AD9F5CE8C31DB9E9B1AF5CA
310
7695D1198E428A91D2D214952E33ECDD315861B4E5CC1AE3BE9561A445A3323CC098B3D21ADFCE9034DA29ED00D5A6503328BA4E398C640D8B0C77F253352214DE4145770A5B214FA2546114020D759C75CE8200340D19DE981F0F6746269C33EFAB6266AB02A655C74A59CCF365BADC27CB5D902ED22848F6340DF238A141
310
BE88E2F57B92BFEDF23523433367AE6A2EEAA455C2A902F398D2751045018D3FA264435F3771F242571B4A1919CA6F9A7C5B3CD9E42BED16F12C776AEB308F40C848FC700B1139D4891EF410CEC810227CC6846F8386402064270EF5C5C709A05E49676C024C61FC95EA45ED154CA5211D1FF4FB8291A913A68E9B83EBBB33
310
E2A7673CDE118E5AE8124C0807CB8377834E366998436B950D7A7746DAD846D4CFD978E0F04FD455FC5D49D2D4C6FE9722321F10997F0F32DC47FE05504B0304140006080800CC70623BFFEA85907E0000009D0000000B0000006662782F636E782E786D6C4DCCD10A83201886E15B91FFDC95D95A811AB6F23E625948A6C3
310
E9D8E5AF46073BFAE0E1E365ED67B3E8ADC3CB78C7815C7240DA3DFC64DCC221C519D7805AC182F7F1EF06C88D9BE6703008B6049F9E274D7A1E938DBB5AE3D6131B2589BA0D3D965551E0B2EA732C9B9A624AAEB41E3A557677029960D9AFB4EF11165F504B0304140006080800CC70623B4FEEA4082C0100001202000031
310
0000006662782F39464131463745442D413632322D343644302D413938332D3331353338454246344243312F636F72652E786D6C8D515B6EC32010BC0AE2AB55850DD871ED0813254D72825EC00192A2C460F1A872FC42ED48ED5F7E00CDCECCCEB26C731F6FE05B39AFADE921293004CA082BB5B9F43086336A21D870E6AC
310
0D7F68109861543DCC30E4ECE26C9C164858139409093556AA051CBC570102714B8F1E7AF1A5C6A11862480C7F2DA6415C878B2A4891CA89C7990F2E050073937C42DE1DB7E4F87ED8A36D4329AA9B3D46DBAEAD504556557BD81DEBDD0761E52CE42C462D17B996298E3E6BE59E35C962CE821E1FF18553435012728A7187
310
0841987E927A8D9B35ADDF70BBC6989599FE4F1427F9A4286A132ABAC49D651EF234CD5CE04CDA78BA3DC2A8FB645D00B9DF8B57E215725C60BCA2A463E54C4CE327C7A65E1C7DB02E7DEFCBF594B864C5CA6CDBD49C957943E9FA5D5FBAF336F90F504B0304140006080800CC70623BAD7543B64E01000033030000300000
310
006662782F39464131463745442D413632322D343644302D413938332D3331353338454246344243312F636E782E786D6CD593CD6EC32010845F0571AD6CE3D48AD20813A9873E410FBD12D82434182C7EAAE6EDBB2424CD25871E7B41D6EC30B3FA84F9E67BB2E40B4234DE8DB46F1925E094D7C6ED479AD3AE5951B2113C
310
789FEE6C943839C1488B4C05DF079FE72A69D8C96C13AAD6B8631503449F83828872B949AC57D26200B826A308D316B4064D6E46FCDA41C05550DC9E483A00797BFD207EFB092A45DE9514C1BBD22178396BD39D891265658C238DEA00936C654E5E433CB65A26D9F6EDB5EBC14EBF49A45CB856E66048291F6939A9A81BB5
310
C8917738143CA680F4AA299D66A042CEB3354A2684DC9D8D178FE0D9B8B41CAAD720F880EE7EF93C0C18769E099ECC04D5A102C8049A8A05632F4DDF376CF1DE0F6BB65C2F8627B65A33C6BB62177CEBBDAD973006829F89F22E814B54F4BC2BE347F8AA8F681390B50FA73F804400B5F542E796F19FF974E7F78DB802FE05
310
E207504B0304140006080800CC70623B16AB87BA640500003C100000340000006662782F39464131463745442D413632322D343644302D413938332D3331353338454246344243312F6F626A656374732E786D6CAD575B6FA33818FD2B887DE6924B3BED8A326A92B68A663B534DD4D13E548A0C38942D60649B369D5FBFC7
310
600890A493BDE42160637FD7F31D7FF63E6FB3D478A55C242CBF3247B66B1A340F5994E4F19559CA8D75611A9F7D8F33263BCB4C232719BD32D5B4E97B316765A1A722BA21652A07B3B7B33F0D11D29C9A46981221AE4C113ED38CD8A4942CA2E2C58E882476BCD9DA23BB5ED8171B73523C0F841684D35CC252CCE79062D4
310
468DFA43D7747CCF51DF7D4FFDEB5593E3AB9CCA9FBEFE241792E4E19EB28198C968BAB8199F5D5A67D3E9C49A9E8F47D6EC76B6B0469F26EEFC7C3EBFBCBEB98462213924694B38DD98FE1D62C393D073EA4FADC5DAF04326852CCF6958F90F0F2B9BB5C48816348F90C7840A68EB78EDF68723159BCEE7891A6B95DDE9D3
310
BCEAEEE8086A6C6F9E5D4B59F0175C10A7A0820BAA5055C7473B5AE3CFDD452D602CD5DF12616444529E90D448938013FE6EFA58AA96F85E4F8C42275708571E98FE6827AF6B2B4AE3D7D83D64E5A64C53054DD3AF90BD06FEA9149565C94FCA0F6B834DC85599E4F2423B24DF0B6AFA979E534DFA9E7A4CC6FA631D486393
310
921829879BF5D781A373557BCB85E97FB90DB62B558F8795179C15944B051F40AB495CF35451D26A4727654E6D8033BD98EF82F21D91FF8AF2DD9982BCF1643BDD4EB516C9492E368C67C88DED563FC36D5EACF66DFF057C3658BDBFA69DF9578B3DA735B64F18C7F20770A9D45CFCF7FCF563D6456A277DBEF78A02637CA2
310
43B90A490AEAB94F72244481D24819A6C0E59B606BFA4B3025981DBB48EAB701D97BF19C577CC77F2D1B6C55A9EF3C732474C0B727303F625995056C3B02963D9EAC146BE78EC5FCEC7FA999EBC5EACBAAE41B12D27B4D2C0BBA49F244E2ECDC81B76B502F113D8F5EE8FB1BE3111CDD4FC2AA9B844CAB1288B68AB90A7CDC
310
1C166AB0D3DC5310625FCC14E779BFD0709F8890A629C9292B1B2DED31A4B0DA928CEE135085754027E3018A397D4D5427D15BD1330B677DC8934285AC3DF45A9EB68FF8F2B8FC0A509AFEECFD0FF2DE25CC6047F7214B195F07EFEB9A094D800F7BFAE8FED187B78EA8A3A400F115961BCAD1215E47C966530AF0EE8128FE
310
58CEBB996A8964FFA529A046635D9353B0336A8F700DDF46271A024E70B0B37C9DE01847591E54DED53D54202AB947E4076556AC49C6CA5C9E1226B7F1A7B1BE15DEED62C41B91E1B3E9AFAAA735036547343A925075041DF0A9979E893B391F8FCFA6967B3EFB644DCF6E5CEBFAE272625DCC6FAF3FB93793C5F90CE1EF57
310
407342756B10D1C489E8953CD1617E5CEECAD6F4EF8914CE5D5D504E5C3F1F9736DA62CFC11E00BCDDB8CC8A9466349744C1F75EBDA4DF09BA8A9E8C7A7E9991989E20E5DBDD6A6003664ED8F7A04A8DBE0DF6EAD9B9AA858342E47399053949D2C146EDB85DE4B176BB0965FBAC19BD19AA918E27FA50C1D22402E144464C
310
59462568E704B6E71915404CB72B8FF4EDE184DDAF753F284990D2C6926782963815403548A70C657FDEF80D2D9CEAA2AE4C1C76F60BFE74219A06527D6582DF6412526107381E55E353090704D085B52408D0933C4ED159D79BDA71BB4BC506F4831350EB6F979CD22D69BF7AC49B91A2C0A9DDA3D5CA36AD20FC478E37E6
310
1844E2352865EBCB6EA275A652E3836BE04EFB400BF1A2556F515F1FBB35B2AB35BD889C744FFA1004B5544B121E57F70215746DD2F5E2C1412B602CBF19455AC6C8E5E9922C4E01E65215385004546899059180EAFCF7A707CE7017CD8CDB0410789AB32C63B91E5CEBBBACB17AC6CD347A022D5075FD106377347AAABA7E
310
7D11590744509B44E205134DC1290F06580320F78E537D3D73540E06CB970B431F185308AD40BBD794D6D77003C5A36E8EAA54BA64597CD8F83BD552A080A365F7FF06504B0304140006080000CC70623B000000000000000000000000350000006662782F39464131463745442D413632322D343644302D413938332D3331
310
353338454246344243312F76657274696365732E62696E504B0304140006080800CC70623BF270F1330600000004000000360000006662782F39464131463745442D413632322D343644302D413938332D3331353338454246344243312F747269616E676C65732E62696E636660600000504B0304140006080000CC70623B
310
000000000000000000000000370000006662782F39464131463745442D413632322D343644302D413938332D3331353338454246344243312F617474726962757465732E62696E504B0304140006080800CC70623B08DA0BD19000000041010000360000006662782F39464131463745442D413632322D343644302D413938
310
332D3331353338454246344243312F6469726563746F72792E786D6C858F410AC3201045AF22B36F53E9A60B35CBEEBAE80D244E44489C6234F4F835464A48035D0DF398FF9F8AF63D0E6CC63039F212F8F9020C7D47C6792B21C5FE7403D62A1188E2E60C98D7234A5830286103A55745067B9D86B8A3CF9C7F90C11DE607
310
FB144396D7B6A82D282E9A152AD114D5EF2CB866EEE831B8EEA07A7BB5A8D7D61A2BAAEB7FD5F70921FF497D00504B0304140006080800CC70623B0D6EF93BFE000000A00100003B0000006662782F39464131463745442D413632322D343644302D413938332D3331353338454246344243312F7265736F75726365732F63
310
6F72652E786D6C8D50596E833010BD0A9ADFCA60B334011947A8694ED00B586642AC041B79A97AFC9A40A5F6AF3F33A3B7689E1E3F7DCD8FEC139DD7D6F4C0720A191A65476DA61E62B892236427C19DB5E1970C322367EC618541F0C9D9B8EC90B226A009093576C41D94DE63804C3DD2D18357379C652E63480A7FCF17A9
310
EE72C29CE5894E3AC17D702940B63D59270887DE46A7D0F36263058F518FBB468FE9A7BE6A7420864373B8D4873369AA8691FA421B3294352543C5CAF65C0F6FEF43CB8BD52C78D0F34F46E550061C419494B6843142CB0F5677F4B52BEB177AEC28E5C52AFF638ACBF84F53D42654E51E77B379102C05791282176B5F693D
310
CB4C7BED567C03504B010214000A0000080000CC70623B3DEE336E79000000790000001B00000000000000000000000000000000006175746F6465736B2D64657369676E2D7061636B6167652E786D6C504B01021400140006080800CC70623BD486FD9CA0000000F40000001300000000000000000000000000B20000005B
310
436F6E74656E745F54797065735D2E786D6C504B01021400140006080800CC70623B1EC5D7A3EB0000007C010000080000000000000000000000000083010000636F72652E786D6C504B01021400140006080800CC70623B55019EA25F0000007C000000070000000000000000000000000094020000636E782E786D6C504B
310
01021400140006080800CC70623B8C9102E971010000D40300000C00000000000000000000000000180300006662782F636F72652E786D6C504B01021400140006080800CC70623BFFEA85907E0000009D0000000B00000000000000000000000000B30400006662782F636E782E786D6C504B01021400140006080800CC70
310
623B4FEEA4082C0100001202000031000000000000000000000000005A0500006662782F39464131463745442D413632322D343644302D413938332D3331353338454246344243312F636F72652E786D6C504B01021400140006080800CC70623BAD7543B64E010000330300003000000000000000000000000000D5060000
310
6662782F39464131463745442D413632322D343644302D413938332D3331353338454246344243312F636E782E786D6C504B01021400140006080800CC70623B16AB87BA640500003C1000003400000000000000000000000000710800006662782F39464131463745442D413632322D343644302D413938332D3331353338
310
454246344243312F6F626A656374732E786D6C504B01021400140006080000CC70623B0000000000000000000000003500000000000000000000000000270E00006662782F39464131463745442D413632322D343644302D413938332D3331353338454246344243312F76657274696365732E62696E504B01021400140006
310
080800CC70623BF270F133060000000400000036000000000000000000000000007A0E00006662782F39464131463745442D413632322D343644302D413938332D3331353338454246344243312F747269616E676C65732E62696E504B01021400140006080000CC70623B0000000000000000000000003700000000000000
310
000000000000D40E00006662782F39464131463745442D413632322D343644302D413938332D3331353338454246344243312F617474726962757465732E62696E504B01021400140006080800CC70623B08DA0BD190000000410100003600000000000000000000000000290F00006662782F39464131463745442D413632
310
322D343644302D413938332D3331353338454246344243312F6469726563746F72792E786D6C504B01021400140006080800CC70623B0D6EF93BFE000000A00100003B000000000000000000000000000D1000006662782F39464131463745442D413632322D343644302D413938332D3331353338454246344243312F7265
310
736F75726365732F636F72652E786D6C504B0506000000000E000E0080040000641100000000
  0
XRECORD
  5
8ECB
102
{ACAD_REACTORS
330
173
102
}
330
173
100
AcDbXrecord
280
     1
102
MATERIAL
148
0.0
149
0.0
149
0.0
 93
        0
 94
       63
282
     0
 72
     1
 77
     1
171
     1
175
     1
179
     1
273
     0
  0
XRECORD
  5
175
102
{ACAD_REACTORS
330
173
102
}
330
173
100
AcDbXrecord
280
     1
270
     1
271
     1
  0
XRECORD
  5
174
102
{ACAD_REACTORS
330
173
102
}
330
173
100
AcDbXrecord
280
     1
270
     1
271
     1
  0
XRECORD
  5
1FB
102
{ACAD_REACTORS
330
173
102
}
330
173
100
AcDbXrecord
280
     1
 70
     0
 90
1673772943
  1
ECE7A1D2-D628-4531-984C-D00F80459256
310
504B03040A0000080000CC70623B3DEE336E79000000790000001B0000006175746F6465736B2D64657369676E2D7061636B6167652E786D6C3C3F786D6C2076657273696F6E3D22312E302220656E636F64696E673D227574662D3822203F3E3C666F726D6174733E3C666F726D61743E687474703A2F2F736368656D612E
310
6175746F6465736B2E636F6D2F64657369676E2D7061636B6167652F323030393C2F666F726D61743E3C2F666F726D6174733E504B0304140006080800CC70623BD486FD9CA0000000F4000000130000005B436F6E74656E745F54797065735D2E786D6C7D8EC10E82300C865F65E91D8A1E8C310C0EEA1BF002731658846E
310
D98AC1B77784ABF1D8FE5FBFBF75BBCE937A534CCEB38643598122B6FEE978D0B0485F9C41B54DDD7D022595594E1A469170414C76A4D9A4D207E29CF43ECE46F218070CC6BECC4078ACAA135ACF422C856C0E68EA1BF5669944DDD7BCDE7B1F8E415D77AECB980613C2E4AC91FC167A2B244592486606FC29C8FD7F045B9A
310
EF7053A7E60B504B0304140006080800CC70623BD9DDAED0EC0000007C01000008000000636F72652E786D6C8D90416EC3201045AF82665B61836D9CD8C2444DD39CA01740405C94182C03558F5F9C3852BBEB6A467FFE9B197D7EF89E6EE8CB2CC17A37002D0820E394D7D68D03A478C17B4007C117EFE32F1B20272733C0
310
2A83E0E3E2D3BC49CABB685CCCAAF3DA6CA20CC14440EA969B0182FA34932C648AD911AEC52CD5558EA6A0CF2EC329598D1E47ACCEFBECC59A050463A7EA5833865FEBDD0E37353BE3EE8DBDE3F6786A48D375FBF6CC78B9C282473B3DEFABC5C86834888A900E538A49F5419B9EB47DD5BC907D4F082F57FB1F28CDFA9F50
310
B22ED6D5F6EE030B20687EE43E10BC5CB3C8E51E54AE6B6EE207504B0304140006080800CC70623B55019EA25F0000007C00000007000000636E782E786D6C4DCB3B0E80201045D1AD90E915ED2CF8AC45050C11660C8261F98AB1B07AC9C97D42D718D865D3E909258CFD00CCE24AC6E326A164D74DC0B4128928FF326038
310
472BA13128B1252AC747C6BAB984FC68F0B87FE8960A5C09FE86CFB69FBA01504B0304140006080800CC70623BA24EB22D72010000D40300000C0000006662782F636F72652E786D6CC5535B6E833010BC8AE5DF0A6C5E49888CA3A6694ED00B38E05014B091B1518EDFE511A5A9D228FD2A1F60CDEC7A67C6986DCE4D8D7A
310
69BA4AAB0C073EC548AA5C17952A33ECECD15B61B4E1CC686DBF9561A44423333CC098B3D268D7CE50AE9595CA02AA74216750749DB418E5352C32DCE59FB211BE70162ABA93DF8AFC244AE9073ED050C759670D0840D390E18DF9F1706664C23973AE2A66B62A605A75ACA4C13C4976E1364A12EF355A2EBD384AF65EFA96
310
BC7B8BED2EA6719AAE16FB8491A199335B351775B991C2CA02F390D2D40B028F861F41BCA68B7518BFD0D59A524686F29B26D7164F36B94AD9289CE54E6D1DE6010819891F6E21228B3AD1831EC219194284CF98F06DD01008846CC5A1BEF83801D4CBDC6A1303536877A57A513B0953A94FC707FDBE6064EA84A9E3E6E0FA
310
EE8CF0E9198F7784A316AA0413C2C2F2E0ECA0934D1AE6D05A69BCDE9E91D2A611F573361E38FC1375157F5752AE6B6DFE4B11990F88CCBF0719EE23FF02504B0304140006080800CC70623B408A7D3B7C0000009D0000000B0000006662782F636E782E786D6C4DCCD10A83201886E15B91FFDC552A92A0064DBC8F581632
310
D3703A76F9ABD1C18E3E78F878E5F0D9027ABBFCF2292AE86E2D20171F69F6715550CB827B40839639A5F2770314A7CD293819B45C73AAFB45B35BA61ACAA1C1C7E7855C58C15BC331339661262CC762340413D68D77DA5B42298546CBE6573AF60CEB2F504B0304140006080800CC70623B449FB9BD290100001202000031
310
0000006662782F36394639363044362D344446342D343946362D394244322D3234314243333846323333332F636F72652E786D6C8D515B6EC32010BC0AE22B55850D98B871848994463E412FE002495162B07854397EA176A4F62F3F2C9A9D991D587EB84F37F0AD7D30CEF6905418026DA553C65E7A98E219ED203808EE9D
310
8B7F6810D871D23D2C3014FCE25D9A57483A1BB58D19B54EE9151C43D0110279CB971E06F9A5A7B11A53CC8C70ADE6515EC78BAE4895DB992778883E0700CB907242D17643D7E2538BD869608875438BBAE38922CAC8F1BDD90DB4691A5E2F42C153326A951B95E398B3D1FE599322163C9AE9115F7A3D46ADA0A018778810
310
84E907617BDCEE297BC5BB3DC6BC2EF47FA234AB2745C9D8D8D035EE220B50105E2F0DC1954B9FB747187D9F9D8FA0CCDB042D5FA0C015C65B42DF78BD10F3F3B363CB56C7109DCFDFBBB97E662ED92EB62D13BC2E1BCAE5777DB9966D8A1F504B0304140006080800CC70623BAD7543B64E01000033030000300000006662
310
782F36394639363044362D344446342D343946362D394244322D3234314243333846323333332F636E782E786D6CD593CD6EC32010845F0571AD6CE3D48AD20813A9873E410FBD12D82434182C7EAAE6EDBB2424CD25871E7B41D6EC30B3FA84F9E67BB2E40B4234DE8DB46F1925E094D7C6ED479AD3AE5951B2113C789FEE
310
6C943839C1488B4C05DF079FE72A69D8C96C13AAD6B8631503449F83828872B949AC57D26200B826A308D316B4064D6E46FCDA41C05550DC9E483A00797BFD207EFB092A45DE9514C1BBD22178396BD39D891265658C238DEA00936C654E5E433CB65A26D9F6EDB5EBC14EBF49A45CB856E66048291F6939A9A81BB5C89177
310
38143CA680F4AA299D66A042CEB3354A2684DC9D8D178FE0D9B8B41CAAD720F880EE7EF93C0C18769E099ECC04D5A102C8049A8A05632F4DDF376CF1DE0F6BB65C2F8627B65A33C6BB62177CEBBDAD973006829F89F22E814B54F4BC2BE347F8AA8F681390B50FA73F804400B5F542E796F19FF974E7F78DB802FE05E20750
310
4B0304140006080800CC70623B8D05915C650500003B100000340000006662782F36394639363044362D344446342D343946362D394244322D3234314243333846323333332F6F626A656374732E786D6CAD575B6FA33814FE2B887D06429276DA1565D4266D158D3A339A6846FB502932E050B66023DB74D2FDF5FB190C01
310
9276B2973C046C8ECFF53B17071F77456EBD502133CEAE6CDF9DD81665314F32965ED995DA3A17B6F5310C04E7AA47665B8C14F4CAD6DB7618A48257A5D94AE89654B91AEDDEDDFC61C998326A5B714EA4BCB265FC440BE2924AF184CA6737218AB8E976E7FA6E4338649B0A523E8D98964450A6A029F619B8588D52FE7039
310
B1BD30F0F4F730D0FF866AF6369557DB33949F31A9088B0F848DD8CCFCF9F2767A76E99CCDE733677E3EF59D9BBB9BA5E37F984D16E78BC5E5F5ED25044B25C0C96822E8D60EEFE11B91C581D77CEA34368A1F5329E68CD1B8B61F16D63A1B8E092D294B10C78C4A48EB593D192E7DED9BDEE7995E1B91FDEDD3ACEA9FE831
310
6A756F9F7D4D79F4274C90A7A04248AA51D5F8C718DAE06FB2F75AC4796EBE65D22A88A22223B995679120E2D50E41AA49C260C046A35368846B0BECD0DFF3EBEB8AD4F835768F69B9ADF25C43D30E6B646F807FAA64AD59F61715C7A54127C4AACA98BA3006A9D792DAE165E0D59B61A01FB3A9F9D838D2DAE62445C86166
310
F37564E842E7DE6A69879FEEA2DD5AE7E371E1A5E025154AC307D06A03D73EB5978C58FFA4C8E9033066E0F3BD53BEC1F39F91BE7B55103791EDE6BBB991A2046172CB4581D8B893FA674DDA17A77B3B7C413D1B511FD2743BFF8A38F03A658705E3ADF8015C3A3417FF3D7E439FF591DA0B5F18BC20C1B8981957AE6392A3
310
F43C640C01D1A0B4728E2DD4F26DB4B3C3152A252A3B4E913CEC1C72F012782FF88EFF8637AA552DBEF76408E8A8DE9E50F9E1CB3A2DA0DB1B6039A893B56063DC5B3E3FFB5F72E67AB9FEB4AEC496C4F4C1149625DD662C53E89D7BF0F6151A046260D1337DFDC94502430F83B0EE07A130A224BCAD7DAE1D9FB6CD422FF6
310
920702629C4BB9AE79C12F243C6432A6794E18E5552BA56B431AAB5D91317302B2B071E86C3A42B1A02F999E24061403B5D0EB639195DA655DD3EBEAB4FB862DDF579F014AD0E73C22F99E28DA57FB98E75C6CA2D74D53086D600F4786E0FE3144B771A8A7B900F03594DB8A633CBC49B2EDB69228BB479CF863B5E807AAAB
310
23872F6DFEB4129B949CA33823F58830E86D65621E10047D9DB34D862E8EAC3C2ABC2F7B2C40D67CDFE01F5545B92105AF983AC54D93D69E56FB8E797F88913F898A9FEC705D3F9D1B54EC8426FB500D40A03BD0119B06E1B95DDC7EB8F6975367793EBD70E66733DFB9BC982F9CE564727731999F5D4ECFCE3B8D6A4DC2A0
310
6D50FD148437D110834A64C6CDDF57FBACB5C307A2A477DFE4939736CFEF2B175371E0E10CF0DD1D5C15654E0BCA14D1E87DD02FF93782A162C0A3D95F1524A52770F972BF1EE9809D13CE7DD599467F8ECE9ADD85CE85A34CD45355448C64F9E8A031DC2D596ACC6E5DD93D9B82DE2EF5CAF81363A8E47996A0DE24564A79
310
4115AACE09C55E14540231FDA13C319787134EBF34E3A022514E5B4D9E0826E25C02D5805B15ABE1BEF51B26383D445DD9E875EE33FE4C22DA16427D65A3BCA92CA6D28DD01DF5DC53330704308475351050232CCD31583787BA75774AFB06E5070DD0C8EF484E19968C5D83BA5B90B244D31E54D55A372320FE4786B7EA58
310
44E135AA5467CB7EA333A61683CC6A8C3257034C10CF46F40EF9F5BE59BE5BD30C3C72D235E95D10345C1D45445A5F0BB47E46A5EBE5570F9380B5FA629579952296A773720405982B9DE04011506178964401AA8BDF1FBF0A8EAB6861DD6580C0E38217056766716DAEB2D6FA0917D3E4116581EADB879C4E7CFFB11EFACD
310
3D641311495D92C8676CB409A72D18610D803CE8A626049E8EC1887CB5B44CC39883690DDA8399B4B9855B481E7D71D4A9D22F96E5BB73BF5793020C02137BF837504B0304140006080000CC70623B000000000000000000000000350000006662782F36394639363044362D344446342D343946362D394244322D32343142
310
43333846323333332F76657274696365732E62696E504B0304140006080800CC70623BF270F1330600000004000000360000006662782F36394639363044362D344446342D343946362D394244322D3234314243333846323333332F747269616E676C65732E62696E636660600000504B0304140006080000CC70623B0000
310
00000000000000000000370000006662782F36394639363044362D344446342D343946362D394244322D3234314243333846323333332F617474726962757465732E62696E504B0304140006080800CC70623B08DA0BD19000000041010000360000006662782F36394639363044362D344446342D343946362D394244322D
310
3234314243333846323333332F6469726563746F72792E786D6C858F410AC3201045AF22B36F53E9A60B35CBEEBAE80D244E44489C6234F4F835464A48035D0DF398FF9F8AF63D0E6CC63039F212F8F9020C7D47C6792B21C5FE7403D62A1188E2E60C98D7234A5830286103A55745067B9D86B8A3CF9C7F90C11DE607FB14
310
4396D7B6A82D282E9A152AD114D5EF2CB866EEE831B8EEA07A7BB5A8D7D61A2BAAEB7FD5F70921FF497D00504B0304140006080800CC70623BCA768048FE000000A00100003B0000006662782F36394639363044362D344446342D343946362D394244322D3234314243333846323333332F7265736F75726365732F636F72
310
652E786D6C8D50596E833010BD0A9ADFCA60D600328E9AA639412F609909B1126CE4A5EAF16B0295DABFFECC8CDEA2797AECF8353F924FB44E193D409E5248504B332A3D0D10FC95B4901C39B3C6F85F3248B49871801506CE266BC2B243D2688FDA47549B11775038871E12F988C7004EDE7016A9083E2ADC3D5D84BC8B09
310
D33C8D74D471E6BC8D0192EDC93A815B742658898E651BCB59086ADC356A8C3FD555A1055ED7E7E254D615792D0F075295F585746FF53B694EE78A565DD736979A65AB9933AFE69F8CD2A2F038022F28ED489E135A7CE4554F9BBEA85E68DB53CAB255FEC71496F19FA6A0B42F8B3DEE6673C0F318E4497096AD7DC5F52C33
310
EEB55BFE0D504B010214000A0000080000CC70623B3DEE336E79000000790000001B00000000000000000000000000000000006175746F6465736B2D64657369676E2D7061636B6167652E786D6C504B01021400140006080800CC70623BD486FD9CA0000000F40000001300000000000000000000000000B20000005B436F
310
6E74656E745F54797065735D2E786D6C504B01021400140006080800CC70623BD9DDAED0EC0000007C010000080000000000000000000000000083010000636F72652E786D6C504B01021400140006080800CC70623B55019EA25F0000007C000000070000000000000000000000000095020000636E782E786D6C504B0102
310
1400140006080800CC70623BA24EB22D72010000D40300000C00000000000000000000000000190300006662782F636F72652E786D6C504B01021400140006080800CC70623B408A7D3B7C0000009D0000000B00000000000000000000000000B50400006662782F636E782E786D6C504B01021400140006080800CC70623B
310
449FB9BD290100001202000031000000000000000000000000005A0500006662782F36394639363044362D344446342D343946362D394244322D3234314243333846323333332F636F72652E786D6C504B01021400140006080800CC70623BAD7543B64E010000330300003000000000000000000000000000D20600006662
310
782F36394639363044362D344446342D343946362D394244322D3234314243333846323333332F636E782E786D6C504B01021400140006080800CC70623B8D05915C650500003B10000034000000000000000000000000006E0800006662782F36394639363044362D344446342D343946362D394244322D32343142433338
310
46323333332F6F626A656374732E786D6C504B01021400140006080000CC70623B0000000000000000000000003500000000000000000000000000250E00006662782F36394639363044362D344446342D343946362D394244322D3234314243333846323333332F76657274696365732E62696E504B010214001400060808
310
00CC70623BF270F13306000000040000003600000000000000000000000000780E00006662782F36394639363044362D344446342D343946362D394244322D3234314243333846323333332F747269616E676C65732E62696E504B01021400140006080000CC70623B00000000000000000000000037000000000000000000
310
00000000D20E00006662782F36394639363044362D344446342D343946362D394244322D3234314243333846323333332F617474726962757465732E62696E504B01021400140006080800CC70623B08DA0BD190000000410100003600000000000000000000000000270F00006662782F36394639363044362D344446342D
310
343946362D394244322D3234314243333846323333332F6469726563746F72792E786D6C504B01021400140006080800CC70623BCA768048FE000000A00100003B000000000000000000000000000B1000006662782F36394639363044362D344446342D343946362D394244322D3234314243333846323333332F7265736F
310
75726365732F636F72652E786D6C504B0506000000000E000E0080040000621100000000
  0
XRECORD
  5
176
102
{ACAD_REACTORS
330
173
102
}
330
173
100
AcDbXrecord
280
     1
270
     1
271
     1
  0
XRECORD
  5
177
102
{ACAD_REACTORS
330
173
102
}
330
173
100
AcDbXrecord
280
     1
270
     1
271
     1
  0
XRECORD
  5
8EED
102
{ACAD_REACTORS
330
8EEC
102
}
330
8EEC
100
AcDbXrecord
280
     1
102
ACAD_ROUNDTRIP_2012_MLEADER_STYLE
298
     1
  0
XRECORD
  5
8EFF
102
{ACAD_REACTORS
330
8EFE
102
}
330
8EFE
100
AcDbXrecord
280
     1
102
DISPLAYNAME
  1
Metric50
102
FLAGS
 90
        0
  0
CELLSTYLEMAP
  5
8EBF
102
{ACAD_REACTORS
330
162
102
}
330
162
100
AcDbCellStyleMap
 90
        3
300
CELLSTYLE
  1
TABLEFORMAT_BEGIN
 90
        5
170
     1
 91
        0
 92
    32768
 62
   257
 93
        1
300
CONTENTFORMAT
  1
CONTENTFORMAT_BEGIN
 90
        0
 91
        0
 92
      512
 93
        0
300

 40
0.0
140
1.0
 94
        5
 62
     0
340
11
144
6.0
309
CONTENTFORMAT_END
171
     1
301
MARGIN
  1
CELLMARGIN_BEGIN
 40
1.5
 40
1.5
 40
1.5
 40
1.5
 40
4.5
 40
4.5
309
CELLMARGIN_END
 94
        6
 95
        1
302
GRIDFORMAT
  1
GRIDFORMAT_BEGIN
 90
        0
 91
        1
 62
     0
 92
       -2
340
14
 93
        0
 40
1.125
309
GRIDFORMAT_END
 95
        2
302
GRIDFORMAT
  1
GRIDFORMAT_BEGIN
 90
        0
 91
        1
 62
     0
 92
       -2
340
14
 93
        0
 40
1.125
309
GRIDFORMAT_END
 95
        4
302
GRIDFORMAT
  1
GRIDFORMAT_BEGIN
 90
        0
 91
        1
 62
     0
 92
       -2
340
14
 93
        0
 40
1.125
309
GRIDFORMAT_END
 95
        8
302
GRIDFORMAT
  1
GRIDFORMAT_BEGIN
 90
        0
 91
        1
 62
     0
 92
       -2
340
14
 93
        0
 40
1.125
309
GRIDFORMAT_END
 95
       16
302
GRIDFORMAT
  1
GRIDFORMAT_BEGIN
 90
        0
 91
        1
 62
     0
 92
       -2
340
14
 93
        0
 40
1.125
309
GRIDFORMAT_END
 95
       32
302
GRIDFORMAT
  1
GRIDFORMAT_BEGIN
 90
        0
 91
        1
 62
     0
 92
       -2
340
14
 93
        0
 40
1.125
309
GRIDFORMAT_END
309
TABLEFORMAT_END
  1
CELLSTYLE_BEGIN
 90
        1
 91
        1
300
_TITLE
309
CELLSTYLE_END
300
CELLSTYLE
  1
TABLEFORMAT_BEGIN
 90
        5
170
     1
 91
        0
 92
        0
 62
   257
 93
        1
300
CONTENTFORMAT
  1
CONTENTFORMAT_BEGIN
 90
        0
 91
        0
 92
      512
 93
        0
300

 40
0.0
140
1.0
 94
        5
 62
     0
340
11
144
4.5
309
CONTENTFORMAT_END
171
     1
301
MARGIN
  1
CELLMARGIN_BEGIN
 40
1.5
 40
1.5
 40
1.5
 40
1.5
 40
4.5
 40
4.5
309
CELLMARGIN_END
 94
        6
 95
        1
302
GRIDFORMAT
  1
GRIDFORMAT_BEGIN
 90
        0
 91
        1
 62
     0
 92
       -2
340
14
 93
        0
 40
1.125
309
GRIDFORMAT_END
 95
        2
302
GRIDFORMAT
  1
GRIDFORMAT_BEGIN
 90
        0
 91
        1
 62
     0
 92
       -2
340
14
 93
        0
 40
1.125
309
GRIDFORMAT_END
 95
        4
302
GRIDFORMAT
  1
GRIDFORMAT_BEGIN
 90
        0
 91
        1
 62
     0
 92
       -2
340
14
 93
        0
 40
1.125
309
GRIDFORMAT_END
 95
        8
302
GRIDFORMAT
  1
GRIDFORMAT_BEGIN
 90
        0
 91
        1
 62
     0
 92
       -2
340
14
 93
        0
 40
1.125
309
GRIDFORMAT_END
 95
       16
302
GRIDFORMAT
  1
GRIDFORMAT_BEGIN
 90
        0
 91
        1
 62
     0
 92
       -2
340
14
 93
        0
 40
1.125
309
GRIDFORMAT_END
 95
       32
302
GRIDFORMAT
  1
GRIDFORMAT_BEGIN
 90
        0
 91
        1
 62
     0
 92
       -2
340
14
 93
        0
 40
1.125
309
GRIDFORMAT_END
309
TABLEFORMAT_END
  1
CELLSTYLE_BEGIN
 90
        2
 91
        1
300
_HEADER
309
CELLSTYLE_END
300
CELLSTYLE
  1
TABLEFORMAT_BEGIN
 90
        5
170
     1
 91
        0
 92
        0
 62
   257
 93
        1
300
CONTENTFORMAT
  1
CONTENTFORMAT_BEGIN
 90
        0
 91
        0
 92
      512
 93
        0
300

 40
0.0
140
1.0
 94
        2
 62
     0
340
11
144
4.5
309
CONTENTFORMAT_END
171
     1
301
MARGIN
  1
CELLMARGIN_BEGIN
 40
1.5
 40
1.5
 40
1.5
 40
1.5
 40
4.5
 40
4.5
309
CELLMARGIN_END
 94
        6
 95
        1
302
GRIDFORMAT
  1
GRIDFORMAT_BEGIN
 90
        0
 91
        1
 62
     0
 92
       -2
340
14
 93
        0
 40
1.125
309
GRIDFORMAT_END
 95
        2
302
GRIDFORMAT
  1
GRIDFORMAT_BEGIN
 90
        0
 91
        1
 62
     0
 92
       -2
340
14
 93
        0
 40
1.125
309
GRIDFORMAT_END
 95
        4
302
GRIDFORMAT
  1
GRIDFORMAT_BEGIN
 90
        0
 91
        1
 62
     0
 92
       -2
340
14
 93
        0
 40
1.125
309
GRIDFORMAT_END
 95
        8
302
GRIDFORMAT
  1
GRIDFORMAT_BEGIN
 90
        0
 91
        1
 62
     0
 92
       -2
340
14
 93
        0
 40
1.125
309
GRIDFORMAT_END
 95
       16
302
GRIDFORMAT
  1
GRIDFORMAT_BEGIN
 90
        0
 91
        1
 62
     0
 92
       -2
340
14
 93
        0
 40
1.125
309
GRIDFORMAT_END
 95
       32
302
GRIDFORMAT
  1
GRIDFORMAT_BEGIN
 90
        0
 91
        1
 62
     0
 92
       -2
340
14
 93
        0
 40
1.125
309
GRIDFORMAT_END
309
TABLEFORMAT_END
  1
CELLSTYLE_BEGIN
 90
        3
 91
        2
300
_DATA
309
CELLSTYLE_END
  0
XRECORD
  5
8EC4
102
{ACAD_REACTORS
330
162
102
}
330
162
100
AcDbXrecord
280
     1
102
ACAD_ROUNDTRIP_PRE2007_TABLESTYLE
 90
      512
 91
        0
  1

 92
      512
 93
        0
  2

 94
      512
 95
        0
  3

  0
XRECORD
  5
8ED7
102
{ACAD_REACTORS
330
8ED6
102
}
330
8ED6
100
AcDbXrecord
280
     1
102
RTVSPost2010Prop28
280
     1
102
RTVSPost2010PropOp28
 70
     1
102
RTVSPost2010Prop29
280
     1
102
RTVSPost2010PropOp29
 70
     1
102
RTVSPost2010Prop30
280
     0
102
RTVSPost2010PropOp30
 70
     1
102
RTVSPost2010Prop31
280
     0
102
RTVSPost2010PropOp31
 70
     1
102
RTVSPost2010Prop32
280
     0
102
RTVSPost2010PropOp32
 70
     1
102
RTVSPost2010Prop33
280
     0
102
RTVSPost2010PropOp33
 70
     1
102
RTVSPost2010Prop34
280
     0
102
RTVSPost2010PropOp34
 70
     1
102
RTVSPost2010Prop35
280
     0
102
RTVSPost2010PropOp35
 70
     1
102
RTVSPost2010Prop36
280
     0
102
RTVSPost2010PropOp36
 70
     1
102
RTVSPost2010Prop37
 90
       50
102
RTVSPost2010PropOp37
 70
     1
102
RTVSPost2010Prop38
140
0.0
102
RTVSPost2010PropOp38
 70
     1
102
RTVSPost2010Prop39
140
1.0
102
RTVSPost2010PropOp39
 70
     1
102
RTVSPost2010Prop40
 90
        0
102
RTVSPost2010PropOp40
 70
     1
102
RTVSPost2010Prop41ColorIndex
 90
       18
102
RTVSPost2010Prop41ColorRGB
 90
        0
102
RTVSPost2010PropOp41
 70
     1
102
RTVSPost2010Prop42
 90
       50
102
RTVSPost2010PropOp42
 70
     1
102
RTVSPost2010Prop43
 90
        3
102
RTVSPost2010PropOp43
 70
     1
102
RTVSPost2010Prop44ColorIndex
 90
        5
102
RTVSPost2010Prop44ColorRGB
 90
      255
102
RTVSPost2010PropOp44
 70
     1
102
RTVSPost2010Prop45
280
     0
102
RTVSPost2010PropOp45
 70
     1
102
RTVSPost2010Prop46
 90
       50
102
RTVSPost2010PropOp46
 70
     1
102
RTVSPost2010Prop47
 90
       50
102
RTVSPost2010PropOp47
 70
     1
102
RTVSPost2010Prop48
 90
       50
102
RTVSPost2010PropOp48
 70
     1
102
RTVSPost2010Prop49
280
     0
102
RTVSPost2010PropOp49
 70
     1
102
RTVSPost2010Prop50
 90
       50
102
RTVSPost2010PropOp50
 70
     1
102
RTVSPost2010Prop51ColorIndex
 90
      256
102
RTVSPost2010Prop51ColorRGB
 90
-16777216
102
RTVSPost2010PropOp51
 70
     0
102
RTVSPost2010Prop52
140
1.0
102
RTVSPost2010PropOp52
 70
     0
102
RTVSPost2010Prop53
 90
        2
102
RTVSPost2010PropOp53
 70
     1
102
RTVSPost2010Prop54
  1
strokes_ogs.tif
102
RTVSPost2010PropOp54
 70
     1
102
RTVSPost2010Prop55
280
     0
102
RTVSPost2010PropOp55
 70
     1
102
RTVSPost2010Prop56
140
1.0
102
RTVSPost2010PropOp56
 70
     1
102
RTVSPost2010Prop57
140
1.0
102
RTVSPost2010PropOp57
 70
     1
102
RTVSPropertyOp0
 70
     1
102
RTVSPropertyOp1
 70
     1
102
RTVSPropertyOp2
 70
     1
102
RTVSPropertyOp3
 70
     1
102
RTVSPropertyOp4
 70
     1
102
RTVSPropertyOp5
 70
     1
102
RTVSPropertyOp6
 70
     1
102
RTVSPropertyOp7
 70
     1
102
RTVSPropertyOp8
 70
     1
102
RTVSPropertyOp9
 70
     1
102
RTVSPropertyOp10
 70
     1
102
RTVSPropertyOp11
 70
     1
102
RTVSPropertyOp12
 70
     1
102
RTVSPropertyOp13
 70
     1
102
RTVSPropertyOp14
 70
     1
102
RTVSPropertyOp15
 70
     1
102
RTVSPropertyOp16
 70
     1
102
RTVSPropertyOp17
 70
     1
102
RTVSPropertyOp18
 70
     1
102
RTVSPropertyOp19
 70
     1
102
RTVSPropertyOp20
 70
     1
102
RTVSPropertyOp21
 70
     1
102
RTVSPropertyOp22
 70
     1
102
RTVSPropertyOp23
 70
     1
102
RTVSPropertyOp24
 70
     1
102
RTVSPropertyOp25
 70
     1
102
RTVSPropertyOp26
 70
     1
102
RTVSPropertyOp27
 70
     1
102
RTVSPropertyOp28
 70
     1
102
RTVSPropertyOp29
 70
     1
102
RTVSPropertyOp30
 70
     1
102
RTVSPropertyOp31
 70
     1
102
RTVSPropertyOp32
 70
     1
102
RTVSPropertyOp33
 70
     1
102
RTVSPropertyOp34
 70
     1
102
RTVSPropertyOp35
 70
     1
102
RTVSPropertyOp36
 70
     1
102
RTVSPropertyOp37
 70
     1
102
RTVSPropertyOp38
 70
     1
102
RTVSPropertyOp39
 70
     1
102
RTVSPropertyOp40
 70
     1
102
RTVSPropertyOp41
 70
     1
102
RTVSPropertyOp42
 70
     1
102
RTVSPropertyOp43
 70
     1
102
RTVSPropertyOp44
 70
     1
102
RTVSPropertyOp45
 70
     1
102
RTVSPropertyOp46
 70
     1
102
RTVSPropertyOp47
 70
     1
102
RTVSPropertyOp48
 70
     1
102
RTVSPropertyOp49
 70
     1
102
RTVSPropertyOp50
 70
     1
102
RTVSPropertyOp51
 70
     0
102
RTVSPropertyOp52
 70
     0
102
RTVSPropertyOp53
 70
     1
102
RTVSPropertyOp54
 70
     1
102
RTVSPropertyOp55
 70
     1
102
RTVSPropertyOp56
 70
     1
102
RTVSPropertyOp57
 70
     1
102
RTVSPropertyOp58
 70
     1
102
RTVSPropertyOp59
 70
     1
102
RTVSPropertyOp60
 70
     1
102
RTVSPropertyOp61
 70
     1
102
RTVSPropertyOp62
 70
     1
  0
XRECORD
  5
8ED5
102
{ACAD_REACTORS
330
8ED4
102
}
330
8ED4
100
AcDbXrecord
280
     1
102
RTVSPost2010Prop28
280
     0
102
RTVSPost2010PropOp28
 70
     1
102
RTVSPost2010Prop29
280
     1
102
RTVSPost2010PropOp29
 70
     1
102
RTVSPost2010Prop30
280
     1
102
RTVSPost2010PropOp30
 70
     1
102
RTVSPost2010Prop31
280
     0
102
RTVSPost2010PropOp31
 70
     1
102
RTVSPost2010Prop32
280
     0
102
RTVSPost2010PropOp32
 70
     1
102
RTVSPost2010Prop33
280
     0
102
RTVSPost2010PropOp33
 70
     1
102
RTVSPost2010Prop34
280
     0
102
RTVSPost2010PropOp34
 70
     1
102
RTVSPost2010Prop35
280
     0
102
RTVSPost2010PropOp35
 70
     1
102
RTVSPost2010Prop36
280
     0
102
RTVSPost2010PropOp36
 70
     1
102
RTVSPost2010Prop37
 90
       50
102
RTVSPost2010PropOp37
 70
     1
102
RTVSPost2010Prop38
140
0.0
102
RTVSPost2010PropOp38
 70
     1
102
RTVSPost2010Prop39
140
1.0
102
RTVSPost2010PropOp39
 70
     1
102
RTVSPost2010Prop40
 90
        0
102
RTVSPost2010PropOp40
 70
     1
102
RTVSPost2010Prop41ColorIndex
 90
       18
102
RTVSPost2010Prop41ColorRGB
 90
        0
102
RTVSPost2010PropOp41
 70
     1
102
RTVSPost2010Prop42
 90
       50
102
RTVSPost2010PropOp42
 70
     1
102
RTVSPost2010Prop43
 90
        3
102
RTVSPost2010PropOp43
 70
     1
102
RTVSPost2010Prop44ColorIndex
 90
        5
102
RTVSPost2010Prop44ColorRGB
 90
      255
102
RTVSPost2010PropOp44
 70
     1
102
RTVSPost2010Prop45
280
     0
102
RTVSPost2010PropOp45
 70
     1
102
RTVSPost2010Prop46
 90
       50
102
RTVSPost2010PropOp46
 70
     1
102
RTVSPost2010Prop47
 90
       50
102
RTVSPost2010PropOp47
 70
     1
102
RTVSPost2010Prop48
 90
       50
102
RTVSPost2010PropOp48
 70
     1
102
RTVSPost2010Prop49
280
     0
102
RTVSPost2010PropOp49
 70
     1
102
RTVSPost2010Prop50
 90
       50
102
RTVSPost2010PropOp50
 70
     1
102
RTVSPost2010Prop51ColorIndex
 90
      256
102
RTVSPost2010Prop51ColorRGB
 90
-16777216
102
RTVSPost2010PropOp51
 70
     0
102
RTVSPost2010Prop52
140
1.0
102
RTVSPost2010PropOp52
 70
     0
102
RTVSPost2010Prop53
 90
        2
102
RTVSPost2010PropOp53
 70
     1
102
RTVSPost2010Prop54
  1
strokes_ogs.tif
102
RTVSPost2010PropOp54
 70
     1
102
RTVSPost2010Prop55
280
     0
102
RTVSPost2010PropOp55
 70
     1
102
RTVSPost2010Prop56
140
1.0
102
RTVSPost2010PropOp56
 70
     1
102
RTVSPost2010Prop57
140
1.0
102
RTVSPost2010PropOp57
 70
     1
102
RTVSPropertyOp0
 70
     1
102
RTVSPropertyOp1
 70
     1
102
RTVSPropertyOp2
 70
     1
102
RTVSPropertyOp3
 70
     1
102
RTVSPropertyOp4
 70
     1
102
RTVSPropertyOp5
 70
     1
102
RTVSPropertyOp6
 70
     1
102
RTVSPropertyOp7
 70
     1
102
RTVSPropertyOp8
 70
     1
102
RTVSPropertyOp9
 70
     1
102
RTVSPropertyOp10
 70
     1
102
RTVSPropertyOp11
 70
     1
102
RTVSPropertyOp12
 70
     1
102
RTVSPropertyOp13
 70
     1
102
RTVSPropertyOp14
 70
     1
102
RTVSPropertyOp15
 70
     1
102
RTVSPropertyOp16
 70
     1
102
RTVSPropertyOp17
 70
     1
102
RTVSPropertyOp18
 70
     1
102
RTVSPropertyOp19
 70
     1
102
RTVSPropertyOp20
 70
     1
102
RTVSPropertyOp21
 70
     1
102
RTVSPropertyOp22
 70
     1
102
RTVSPropertyOp23
 70
     1
102
RTVSPropertyOp24
 70
     1
102
RTVSPropertyOp25
 70
     1
102
RTVSPropertyOp26
 70
     1
102
RTVSPropertyOp27
 70
     1
102
RTVSPropertyOp28
 70
     1
102
RTVSPropertyOp29
 70
     1
102
RTVSPropertyOp30
 70
     1
102
RTVSPropertyOp31
 70
     1
102
RTVSPropertyOp32
 70
     1
102
RTVSPropertyOp33
 70
     1
102
RTVSPropertyOp34
 70
     1
102
RTVSPropertyOp35
 70
     1
102
RTVSPropertyOp36
 70
     1
102
RTVSPropertyOp37
 70
     1
102
RTVSPropertyOp38
 70
     1
102
RTVSPropertyOp39
 70
     1
102
RTVSPropertyOp40
 70
     1
102
RTVSPropertyOp41
 70
     1
102
RTVSPropertyOp42
 70
     1
102
RTVSPropertyOp43
 70
     1
102
RTVSPropertyOp44
 70
     1
102
RTVSPropertyOp45
 70
     1
102
RTVSPropertyOp46
 70
     1
102
RTVSPropertyOp47
 70
     1
102
RTVSPropertyOp48
 70
     1
102
RTVSPropertyOp49
 70
     1
102
RTVSPropertyOp50
 70
     1
102
RTVSPropertyOp51
 70
     0
102
RTVSPropertyOp52
 70
     0
102
RTVSPropertyOp53
 70
     1
102
RTVSPropertyOp54
 70
     1
102
RTVSPropertyOp55
 70
     1
102
RTVSPropertyOp56
 70
     1
102
RTVSPropertyOp57
 70
     1
102
RTVSPropertyOp58
 70
     1
102
RTVSPropertyOp59
 70
     1
102
RTVSPropertyOp60
 70
     1
102
RTVSPropertyOp61
 70
     1
102
RTVSPropertyOp62
 70
     1
  0
XRECORD
  5
8EE3
102
{ACAD_REACTORS
330
8EE2
102
}
330
8EE2
100
AcDbXrecord
280
     1
102
RTVSPost2010Prop28
280
     0
102
RTVSPost2010PropOp28
 70
     1
102
RTVSPost2010Prop29
280
     1
102
RTVSPost2010PropOp29
 70
     1
102
RTVSPost2010Prop30
280
     1
102
RTVSPost2010PropOp30
 70
     1
102
RTVSPost2010Prop31
280
     0
102
RTVSPost2010PropOp31
 70
     1
102
RTVSPost2010Prop32
280
     0
102
RTVSPost2010PropOp32
 70
     1
102
RTVSPost2010Prop33
280
     0
102
RTVSPost2010PropOp33
 70
     1
102
RTVSPost2010Prop34
280
     0
102
RTVSPost2010PropOp34
 70
     1
102
RTVSPost2010Prop35
280
     0
102
RTVSPost2010PropOp35
 70
     1
102
RTVSPost2010Prop36
280
     0
102
RTVSPost2010PropOp36
 70
     1
102
RTVSPost2010Prop37
 90
       50
102
RTVSPost2010PropOp37
 70
     1
102
RTVSPost2010Prop38
140
0.0
102
RTVSPost2010PropOp38
 70
     1
102
RTVSPost2010Prop39
140
1.0
102
RTVSPost2010PropOp39
 70
     1
102
RTVSPost2010Prop40
 90
        0
102
RTVSPost2010PropOp40
 70
     1
102
RTVSPost2010Prop41ColorIndex
 90
       18
102
RTVSPost2010Prop41ColorRGB
 90
        0
102
RTVSPost2010PropOp41
 70
     1
102
RTVSPost2010Prop42
 90
       50
102
RTVSPost2010PropOp42
 70
     1
102
RTVSPost2010Prop43
 90
        3
102
RTVSPost2010PropOp43
 70
     1
102
RTVSPost2010Prop44ColorIndex
 90
        5
102
RTVSPost2010Prop44ColorRGB
 90
      255
102
RTVSPost2010PropOp44
 70
     1
102
RTVSPost2010Prop45
280
     0
102
RTVSPost2010PropOp45
 70
     1
102
RTVSPost2010Prop46
 90
       50
102
RTVSPost2010PropOp46
 70
     1
102
RTVSPost2010Prop47
 90
       50
102
RTVSPost2010PropOp47
 70
     1
102
RTVSPost2010Prop48
 90
       50
102
RTVSPost2010PropOp48
 70
     1
102
RTVSPost2010Prop49
280
     0
102
RTVSPost2010PropOp49
 70
     1
102
RTVSPost2010Prop50
 90
       50
102
RTVSPost2010PropOp50
 70
     1
102
RTVSPost2010Prop51ColorIndex
 90
      256
102
RTVSPost2010Prop51ColorRGB
 90
-16777216
102
RTVSPost2010PropOp51
 70
     0
102
RTVSPost2010Prop52
140
1.0
102
RTVSPost2010PropOp52
 70
     0
102
RTVSPost2010Prop53
 90
        2
102
RTVSPost2010PropOp53
 70
     1
102
RTVSPost2010Prop54
  1
strokes_ogs.tif
102
RTVSPost2010PropOp54
 70
     1
102
RTVSPost2010Prop55
280
     0
102
RTVSPost2010PropOp55
 70
     1
102
RTVSPost2010Prop56
140
1.0
102
RTVSPost2010PropOp56
 70
     1
102
RTVSPost2010Prop57
140
1.0
102
RTVSPost2010PropOp57
 70
     1
102
RTVSPropertyOp0
 70
     1
102
RTVSPropertyOp1
 70
     1
102
RTVSPropertyOp2
 70
     1
102
RTVSPropertyOp3
 70
     1
102
RTVSPropertyOp4
 70
     1
102
RTVSPropertyOp5
 70
     1
102
RTVSPropertyOp6
 70
     1
102
RTVSPropertyOp7
 70
     1
102
RTVSPropertyOp8
 70
     1
102
RTVSPropertyOp9
 70
     1
102
RTVSPropertyOp10
 70
     1
102
RTVSPropertyOp11
 70
     1
102
RTVSPropertyOp12
 70
     1
102
RTVSPropertyOp13
 70
     1
102
RTVSPropertyOp14
 70
     1
102
RTVSPropertyOp15
 70
     1
102
RTVSPropertyOp16
 70
     1
102
RTVSPropertyOp17
 70
     1
102
RTVSPropertyOp18
 70
     1
102
RTVSPropertyOp19
 70
     1
102
RTVSPropertyOp20
 70
     1
102
RTVSPropertyOp21
 70
     1
102
RTVSPropertyOp22
 70
     1
102
RTVSPropertyOp23
 70
     1
102
RTVSPropertyOp24
 70
     1
102
RTVSPropertyOp25
 70
     1
102
RTVSPropertyOp26
 70
     1
102
RTVSPropertyOp27
 70
     1
102
RTVSPropertyOp28
 70
     1
102
RTVSPropertyOp29
 70
     1
102
RTVSPropertyOp30
 70
     1
102
RTVSPropertyOp31
 70
     1
102
RTVSPropertyOp32
 70
     1
102
RTVSPropertyOp33
 70
     1
102
RTVSPropertyOp34
 70
     1
102
RTVSPropertyOp35
 70
     1
102
RTVSPropertyOp36
 70
     1
102
RTVSPropertyOp37
 70
     1
102
RTVSPropertyOp38
 70
     1
102
RTVSPropertyOp39
 70
     1
102
RTVSPropertyOp40
 70
     1
102
RTVSPropertyOp41
 70
     1
102
RTVSPropertyOp42
 70
     1
102
RTVSPropertyOp43
 70
     1
102
RTVSPropertyOp44
 70
     1
102
RTVSPropertyOp45
 70
     1
102
RTVSPropertyOp46
 70
     1
102
RTVSPropertyOp47
 70
     1
102
RTVSPropertyOp48
 70
     1
102
RTVSPropertyOp49
 70
     1
102
RTVSPropertyOp50
 70
     1
102
RTVSPropertyOp51
 70
     0
102
RTVSPropertyOp52
 70
     0
102
RTVSPropertyOp53
 70
     1
102
RTVSPropertyOp54
 70
     1
102
RTVSPropertyOp55
 70
     1
102
RTVSPropertyOp56
 70
     1
102
RTVSPropertyOp57
 70
     1
102
RTVSPropertyOp58
 70
     1
102
RTVSPropertyOp59
 70
     1
102
RTVSPropertyOp60
 70
     1
102
RTVSPropertyOp61
 70
     1
102
RTVSPropertyOp62
 70
     1
  0
XRECORD
  5
8EEB
102
{ACAD_REACTORS
330
8EEA
102
}
330
8EEA
100
AcDbXrecord
280
     1
102
RTVSPost2010Prop28
280
     0
102
RTVSPost2010PropOp28
 70
     1
102
RTVSPost2010Prop29
280
     1
102
RTVSPost2010PropOp29
 70
     1
102
RTVSPost2010Prop30
280
     1
102
RTVSPost2010PropOp30
 70
     1
102
RTVSPost2010Prop31
280
     0
102
RTVSPost2010PropOp31
 70
     1
102
RTVSPost2010Prop32
280
     0
102
RTVSPost2010PropOp32
 70
     1
102
RTVSPost2010Prop33
280
     0
102
RTVSPost2010PropOp33
 70
     1
102
RTVSPost2010Prop34
280
     0
102
RTVSPost2010PropOp34
 70
     1
102
RTVSPost2010Prop35
280
     0
102
RTVSPost2010PropOp35
 70
     1
102
RTVSPost2010Prop36
280
     0
102
RTVSPost2010PropOp36
 70
     1
102
RTVSPost2010Prop37
 90
       50
102
RTVSPost2010PropOp37
 70
     1
102
RTVSPost2010Prop38
140
0.0
102
RTVSPost2010PropOp38
 70
     1
102
RTVSPost2010Prop39
140
1.0
102
RTVSPost2010PropOp39
 70
     1
102
RTVSPost2010Prop40
 90
        0
102
RTVSPost2010PropOp40
 70
     1
102
RTVSPost2010Prop41ColorIndex
 90
       18
102
RTVSPost2010Prop41ColorRGB
 90
        0
102
RTVSPost2010PropOp41
 70
     1
102
RTVSPost2010Prop42
 90
       50
102
RTVSPost2010PropOp42
 70
     1
102
RTVSPost2010Prop43
 90
        3
102
RTVSPost2010PropOp43
 70
     1
102
RTVSPost2010Prop44ColorIndex
 90
        5
102
RTVSPost2010Prop44ColorRGB
 90
      255
102
RTVSPost2010PropOp44
 70
     1
102
RTVSPost2010Prop45
280
     0
102
RTVSPost2010PropOp45
 70
     1
102
RTVSPost2010Prop46
 90
       50
102
RTVSPost2010PropOp46
 70
     1
102
RTVSPost2010Prop47
 90
       50
102
RTVSPost2010PropOp47
 70
     1
102
RTVSPost2010Prop48
 90
       50
102
RTVSPost2010PropOp48
 70
     1
102
RTVSPost2010Prop49
280
     0
102
RTVSPost2010PropOp49
 70
     1
102
RTVSPost2010Prop50
 90
       50
102
RTVSPost2010PropOp50
 70
     1
102
RTVSPost2010Prop51ColorIndex
 90
      256
102
RTVSPost2010Prop51ColorRGB
 90
-16777216
102
RTVSPost2010PropOp51
 70
     0
102
RTVSPost2010Prop52
140
1.0
102
RTVSPost2010PropOp52
 70
     0
102
RTVSPost2010Prop53
 90
        2
102
RTVSPost2010PropOp53
 70
     1
102
RTVSPost2010Prop54
  1
strokes_ogs.tif
102
RTVSPost2010PropOp54
 70
     1
102
RTVSPost2010Prop55
280
     0
102
RTVSPost2010PropOp55
 70
     1
102
RTVSPost2010Prop56
140
1.0
102
RTVSPost2010PropOp56
 70
     1
102
RTVSPost2010Prop57
140
1.0
102
RTVSPost2010PropOp57
 70
     1
102
RTVSPropertyOp0
 70
     1
102
RTVSPropertyOp1
 70
     1
102
RTVSPropertyOp2
 70
     1
102
RTVSPropertyOp3
 70
     1
102
RTVSPropertyOp4
 70
     1
102
RTVSPropertyOp5
 70
     1
102
RTVSPropertyOp6
 70
     1
102
RTVSPropertyOp7
 70
     1
102
RTVSPropertyOp8
 70
     1
102
RTVSPropertyOp9
 70
     1
102
RTVSPropertyOp10
 70
     1
102
RTVSPropertyOp11
 70
     1
102
RTVSPropertyOp12
 70
     1
102
RTVSPropertyOp13
 70
     1
102
RTVSPropertyOp14
 70
     1
102
RTVSPropertyOp15
 70
     1
102
RTVSPropertyOp16
 70
     1
102
RTVSPropertyOp17
 70
     1
102
RTVSPropertyOp18
 70
     1
102
RTVSPropertyOp19
 70
     1
102
RTVSPropertyOp20
 70
     1
102
RTVSPropertyOp21
 70
     1
102
RTVSPropertyOp22
 70
     1
102
RTVSPropertyOp23
 70
     1
102
RTVSPropertyOp24
 70
     1
102
RTVSPropertyOp25
 70
     1
102
RTVSPropertyOp26
 70
     1
102
RTVSPropertyOp27
 70
     1
102
RTVSPropertyOp28
 70
     1
102
RTVSPropertyOp29
 70
     1
102
RTVSPropertyOp30
 70
     1
102
RTVSPropertyOp31
 70
     1
102
RTVSPropertyOp32
 70
     1
102
RTVSPropertyOp33
 70
     1
102
RTVSPropertyOp34
 70
     1
102
RTVSPropertyOp35
 70
     1
102
RTVSPropertyOp36
 70
     1
102
RTVSPropertyOp37
 70
     1
102
RTVSPropertyOp38
 70
     1
102
RTVSPropertyOp39
 70
     1
102
RTVSPropertyOp40
 70
     1
102
RTVSPropertyOp41
 70
     1
102
RTVSPropertyOp42
 70
     1
102
RTVSPropertyOp43
 70
     1
102
RTVSPropertyOp44
 70
     1
102
RTVSPropertyOp45
 70
     1
102
RTVSPropertyOp46
 70
     1
102
RTVSPropertyOp47
 70
     1
102
RTVSPropertyOp48
 70
     1
102
RTVSPropertyOp49
 70
     1
102
RTVSPropertyOp50
 70
     1
102
RTVSPropertyOp51
 70
     0
102
RTVSPropertyOp52
 70
     0
102
RTVSPropertyOp53
 70
     1
102
RTVSPropertyOp54
 70
     1
102
RTVSPropertyOp55
 70
     1
102
RTVSPropertyOp56
 70
     1
102
RTVSPropertyOp57
 70
     1
102
RTVSPropertyOp58
 70
     1
102
RTVSPropertyOp59
 70
     1
102
RTVSPropertyOp60
 70
     1
102
RTVSPropertyOp61
 70
     1
102
RTVSPropertyOp62
 70
     1
  0
XRECORD
  5
8EDD
102
{ACAD_REACTORS
330
8EDC
102
}
330
8EDC
100
AcDbXrecord
280
     1
102
RTVSPost2010Prop28
280
     0
102
RTVSPost2010PropOp28
 70
     1
102
RTVSPost2010Prop29
280
     1
102
RTVSPost2010PropOp29
 70
     1
102
RTVSPost2010Prop30
280
     1
102
RTVSPost2010PropOp30
 70
     1
102
RTVSPost2010Prop31
280
     0
102
RTVSPost2010PropOp31
 70
     1
102
RTVSPost2010Prop32
280
     0
102
RTVSPost2010PropOp32
 70
     1
102
RTVSPost2010Prop33
280
     0
102
RTVSPost2010PropOp33
 70
     1
102
RTVSPost2010Prop34
280
     0
102
RTVSPost2010PropOp34
 70
     1
102
RTVSPost2010Prop35
280
     0
102
RTVSPost2010PropOp35
 70
     1
102
RTVSPost2010Prop36
280
     0
102
RTVSPost2010PropOp36
 70
     1
102
RTVSPost2010Prop37
 90
       50
102
RTVSPost2010PropOp37
 70
     1
102
RTVSPost2010Prop38
140
0.0
102
RTVSPost2010PropOp38
 70
     1
102
RTVSPost2010Prop39
140
1.0
102
RTVSPost2010PropOp39
 70
     1
102
RTVSPost2010Prop40
 90
        0
102
RTVSPost2010PropOp40
 70
     1
102
RTVSPost2010Prop41ColorIndex
 90
       18
102
RTVSPost2010Prop41ColorRGB
 90
        0
102
RTVSPost2010PropOp41
 70
     1
102
RTVSPost2010Prop42
 90
       50
102
RTVSPost2010PropOp42
 70
     1
102
RTVSPost2010Prop43
 90
        3
102
RTVSPost2010PropOp43
 70
     1
102
RTVSPost2010Prop44ColorIndex
 90
        5
102
RTVSPost2010Prop44ColorRGB
 90
      255
102
RTVSPost2010PropOp44
 70
     1
102
RTVSPost2010Prop45
280
     0
102
RTVSPost2010PropOp45
 70
     1
102
RTVSPost2010Prop46
 90
       50
102
RTVSPost2010PropOp46
 70
     1
102
RTVSPost2010Prop47
 90
       50
102
RTVSPost2010PropOp47
 70
     1
102
RTVSPost2010Prop48
 90
       50
102
RTVSPost2010PropOp48
 70
     1
102
RTVSPost2010Prop49
280
     0
102
RTVSPost2010PropOp49
 70
     1
102
RTVSPost2010Prop50
 90
       50
102
RTVSPost2010PropOp50
 70
     1
102
RTVSPost2010Prop51ColorIndex
 90
      256
102
RTVSPost2010Prop51ColorRGB
 90
-16777216
102
RTVSPost2010PropOp51
 70
     0
102
RTVSPost2010Prop52
140
1.0
102
RTVSPost2010PropOp52
 70
     0
102
RTVSPost2010Prop53
 90
        2
102
RTVSPost2010PropOp53
 70
     1
102
RTVSPost2010Prop54
  1
strokes_ogs.tif
102
RTVSPost2010PropOp54
 70
     1
102
RTVSPost2010Prop55
280
     0
102
RTVSPost2010PropOp55
 70
     1
102
RTVSPost2010Prop56
140
1.0
102
RTVSPost2010PropOp56
 70
     1
102
RTVSPost2010Prop57
140
1.0
102
RTVSPost2010PropOp57
 70
     1
102
RTVSPropertyOp0
 70
     1
102
RTVSPropertyOp1
 70
     1
102
RTVSPropertyOp2
 70
     1
102
RTVSPropertyOp3
 70
     1
102
RTVSPropertyOp4
 70
     1
102
RTVSPropertyOp5
 70
     1
102
RTVSPropertyOp6
 70
     1
102
RTVSPropertyOp7
 70
     1
102
RTVSPropertyOp8
 70
     1
102
RTVSPropertyOp9
 70
     1
102
RTVSPropertyOp10
 70
     1
102
RTVSPropertyOp11
 70
     1
102
RTVSPropertyOp12
 70
     1
102
RTVSPropertyOp13
 70
     1
102
RTVSPropertyOp14
 70
     1
102
RTVSPropertyOp15
 70
     1
102
RTVSPropertyOp16
 70
     1
102
RTVSPropertyOp17
 70
     1
102
RTVSPropertyOp18
 70
     1
102
RTVSPropertyOp19
 70
     1
102
RTVSPropertyOp20
 70
     1
102
RTVSPropertyOp21
 70
     1
102
RTVSPropertyOp22
 70
     1
102
RTVSPropertyOp23
 70
     1
102
RTVSPropertyOp24
 70
     1
102
RTVSPropertyOp25
 70
     1
102
RTVSPropertyOp26
 70
     1
102
RTVSPropertyOp27
 70
     1
102
RTVSPropertyOp28
 70
     1
102
RTVSPropertyOp29
 70
     1
102
RTVSPropertyOp30
 70
     1
102
RTVSPropertyOp31
 70
     1
102
RTVSPropertyOp32
 70
     1
102
RTVSPropertyOp33
 70
     1
102
RTVSPropertyOp34
 70
     1
102
RTVSPropertyOp35
 70
     1
102
RTVSPropertyOp36
 70
     1
102
RTVSPropertyOp37
 70
     1
102
RTVSPropertyOp38
 70
     1
102
RTVSPropertyOp39
 70
     1
102
RTVSPropertyOp40
 70
     1
102
RTVSPropertyOp41
 70
     1
102
RTVSPropertyOp42
 70
     1
102
RTVSPropertyOp43
 70
     1
102
RTVSPropertyOp44
 70
     1
102
RTVSPropertyOp45
 70
     1
102
RTVSPropertyOp46
 70
     1
102
RTVSPropertyOp47
 70
     1
102
RTVSPropertyOp48
 70
     1
102
RTVSPropertyOp49
 70
     1
102
RTVSPropertyOp50
 70
     1
102
RTVSPropertyOp51
 70
     0
102
RTVSPropertyOp52
 70
     0
102
RTVSPropertyOp53
 70
     1
102
RTVSPropertyOp54
 70
     1
102
RTVSPropertyOp55
 70
     1
102
RTVSPropertyOp56
 70
     1
102
RTVSPropertyOp57
 70
     1
102
RTVSPropertyOp58
 70
     1
102
RTVSPropertyOp59
 70
     1
102
RTVSPropertyOp60
 70
     1
102
RTVSPropertyOp61
 70
     1
102
RTVSPropertyOp62
 70
     1
  0
XRECORD
  5
8EE1
102
{ACAD_REACTORS
330
8EE0
102
}
330
8EE0
100
AcDbXrecord
280
     1
102
RTVSPost2010Prop28
280
     0
102
RTVSPost2010PropOp28
 70
     1
102
RTVSPost2010Prop29
280
     1
102
RTVSPost2010PropOp29
 70
     1
102
RTVSPost2010Prop30
280
     1
102
RTVSPost2010PropOp30
 70
     1
102
RTVSPost2010Prop31
280
     0
102
RTVSPost2010PropOp31
 70
     1
102
RTVSPost2010Prop32
280
     0
102
RTVSPost2010PropOp32
 70
     1
102
RTVSPost2010Prop33
280
     0
102
RTVSPost2010PropOp33
 70
     1
102
RTVSPost2010Prop34
280
     0
102
RTVSPost2010PropOp34
 70
     1
102
RTVSPost2010Prop35
280
     0
102
RTVSPost2010PropOp35
 70
     1
102
RTVSPost2010Prop36
280
     0
102
RTVSPost2010PropOp36
 70
     1
102
RTVSPost2010Prop37
 90
       50
102
RTVSPost2010PropOp37
 70
     1
102
RTVSPost2010Prop38
140
0.0
102
RTVSPost2010PropOp38
 70
     1
102
RTVSPost2010Prop39
140
1.0
102
RTVSPost2010PropOp39
 70
     1
102
RTVSPost2010Prop40
 90
        0
102
RTVSPost2010PropOp40
 70
     1
102
RTVSPost2010Prop41ColorIndex
 90
       18
102
RTVSPost2010Prop41ColorRGB
 90
        0
102
RTVSPost2010PropOp41
 70
     1
102
RTVSPost2010Prop42
 90
       50
102
RTVSPost2010PropOp42
 70
     1
102
RTVSPost2010Prop43
 90
        3
102
RTVSPost2010PropOp43
 70
     1
102
RTVSPost2010Prop44ColorIndex
 90
        5
102
RTVSPost2010Prop44ColorRGB
 90
      255
102
RTVSPost2010PropOp44
 70
     1
102
RTVSPost2010Prop45
280
     0
102
RTVSPost2010PropOp45
 70
     1
102
RTVSPost2010Prop46
 90
       50
102
RTVSPost2010PropOp46
 70
     1
102
RTVSPost2010Prop47
 90
       50
102
RTVSPost2010PropOp47
 70
     1
102
RTVSPost2010Prop48
 90
       50
102
RTVSPost2010PropOp48
 70
     1
102
RTVSPost2010Prop49
280
     0
102
RTVSPost2010PropOp49
 70
     1
102
RTVSPost2010Prop50
 90
       50
102
RTVSPost2010PropOp50
 70
     1
102
RTVSPost2010Prop51ColorIndex
 90
      256
102
RTVSPost2010Prop51ColorRGB
 90
-16777216
102
RTVSPost2010PropOp51
 70
     0
102
RTVSPost2010Prop52
140
1.0
102
RTVSPost2010PropOp52
 70
     0
102
RTVSPost2010Prop53
 90
        2
102
RTVSPost2010PropOp53
 70
     1
102
RTVSPost2010Prop54
  1
strokes_ogs.tif
102
RTVSPost2010PropOp54
 70
     1
102
RTVSPost2010Prop55
280
     0
102
RTVSPost2010PropOp55
 70
     1
102
RTVSPost2010Prop56
140
1.0
102
RTVSPost2010PropOp56
 70
     1
102
RTVSPost2010Prop57
140
1.0
102
RTVSPost2010PropOp57
 70
     1
102
RTVSPropertyOp0
 70
     1
102
RTVSPropertyOp1
 70
     1
102
RTVSPropertyOp2
 70
     1
102
RTVSPropertyOp3
 70
     1
102
RTVSPropertyOp4
 70
     1
102
RTVSPropertyOp5
 70
     1
102
RTVSPropertyOp6
 70
     1
102
RTVSPropertyOp7
 70
     1
102
RTVSPropertyOp8
 70
     1
102
RTVSPropertyOp9
 70
     1
102
RTVSPropertyOp10
 70
     1
102
RTVSPropertyOp11
 70
     1
102
RTVSPropertyOp12
 70
     1
102
RTVSPropertyOp13
 70
     1
102
RTVSPropertyOp14
 70
     1
102
RTVSPropertyOp15
 70
     1
102
RTVSPropertyOp16
 70
     1
102
RTVSPropertyOp17
 70
     1
102
RTVSPropertyOp18
 70
     1
102
RTVSPropertyOp19
 70
     1
102
RTVSPropertyOp20
 70
     1
102
RTVSPropertyOp21
 70
     1
102
RTVSPropertyOp22
 70
     1
102
RTVSPropertyOp23
 70
     1
102
RTVSPropertyOp24
 70
     1
102
RTVSPropertyOp25
 70
     1
102
RTVSPropertyOp26
 70
     1
102
RTVSPropertyOp27
 70
     1
102
RTVSPropertyOp28
 70
     1
102
RTVSPropertyOp29
 70
     1
102
RTVSPropertyOp30
 70
     1
102
RTVSPropertyOp31
 70
     1
102
RTVSPropertyOp32
 70
     1
102
RTVSPropertyOp33
 70
     1
102
RTVSPropertyOp34
 70
     1
102
RTVSPropertyOp35
 70
     1
102
RTVSPropertyOp36
 70
     1
102
RTVSPropertyOp37
 70
     1
102
RTVSPropertyOp38
 70
     1
102
RTVSPropertyOp39
 70
     1
102
RTVSPropertyOp40
 70
     1
102
RTVSPropertyOp41
 70
     1
102
RTVSPropertyOp42
 70
     1
102
RTVSPropertyOp43
 70
     1
102
RTVSPropertyOp44
 70
     1
102
RTVSPropertyOp45
 70
     1
102
RTVSPropertyOp46
 70
     1
102
RTVSPropertyOp47
 70
     1
102
RTVSPropertyOp48
 70
     1
102
RTVSPropertyOp49
 70
     1
102
RTVSPropertyOp50
 70
     1
102
RTVSPropertyOp51
 70
     0
102
RTVSPropertyOp52
 70
     0
102
RTVSPropertyOp53
 70
     1
102
RTVSPropertyOp54
 70
     1
102
RTVSPropertyOp55
 70
     1
102
RTVSPropertyOp56
 70
     1
102
RTVSPropertyOp57
 70
     1
102
RTVSPropertyOp58
 70
     1
102
RTVSPropertyOp59
 70
     1
102
RTVSPropertyOp60
 70
     1
102
RTVSPropertyOp61
 70
     1
102
RTVSPropertyOp62
 70
     1
  0
XRECORD
  5
8EF3
102
{ACAD_REACTORS
330
8EF2
102
}
330
8EF2
100
AcDbXrecord
280
     1
102
RTVSPost2010Prop28
280
     0
102
RTVSPost2010PropOp28
 70
     1
102
RTVSPost2010Prop29
280
     1
102
RTVSPost2010PropOp29
 70
     1
102
RTVSPost2010Prop30
280
     1
102
RTVSPost2010PropOp30
 70
     1
102
RTVSPost2010Prop31
280
     0
102
RTVSPost2010PropOp31
 70
     1
102
RTVSPost2010Prop32
280
     0
102
RTVSPost2010PropOp32
 70
     1
102
RTVSPost2010Prop33
280
     0
102
RTVSPost2010PropOp33
 70
     1
102
RTVSPost2010Prop34
280
     0
102
RTVSPost2010PropOp34
 70
     1
102
RTVSPost2010Prop35
280
     0
102
RTVSPost2010PropOp35
 70
     1
102
RTVSPost2010Prop36
280
     0
102
RTVSPost2010PropOp36
 70
     1
102
RTVSPost2010Prop37
 90
       50
102
RTVSPost2010PropOp37
 70
     1
102
RTVSPost2010Prop38
140
0.0
102
RTVSPost2010PropOp38
 70
     1
102
RTVSPost2010Prop39
140
1.0
102
RTVSPost2010PropOp39
 70
     1
102
RTVSPost2010Prop40
 90
        0
102
RTVSPost2010PropOp40
 70
     1
102
RTVSPost2010Prop41ColorIndex
 90
       18
102
RTVSPost2010Prop41ColorRGB
 90
        0
102
RTVSPost2010PropOp41
 70
     1
102
RTVSPost2010Prop42
 90
       50
102
RTVSPost2010PropOp42
 70
     1
102
RTVSPost2010Prop43
 90
        3
102
RTVSPost2010PropOp43
 70
     1
102
RTVSPost2010Prop44ColorIndex
 90
        5
102
RTVSPost2010Prop44ColorRGB
 90
      255
102
RTVSPost2010PropOp44
 70
     1
102
RTVSPost2010Prop45
280
     0
102
RTVSPost2010PropOp45
 70
     1
102
RTVSPost2010Prop46
 90
       50
102
RTVSPost2010PropOp46
 70
     1
102
RTVSPost2010Prop47
 90
       50
102
RTVSPost2010PropOp47
 70
     1
102
RTVSPost2010Prop48
 90
       50
102
RTVSPost2010PropOp48
 70
     1
102
RTVSPost2010Prop49
280
     0
102
RTVSPost2010PropOp49
 70
     1
102
RTVSPost2010Prop50
 90
       50
102
RTVSPost2010PropOp50
 70
     1
102
RTVSPost2010Prop51ColorIndex
 90
      256
102
RTVSPost2010Prop51ColorRGB
 90
-16777216
102
RTVSPost2010PropOp51
 70
     0
102
RTVSPost2010Prop52
140
1.0
102
RTVSPost2010PropOp52
 70
     0
102
RTVSPost2010Prop53
 90
        2
102
RTVSPost2010PropOp53
 70
     1
102
RTVSPost2010Prop54
  1
strokes_ogs.tif
102
RTVSPost2010PropOp54
 70
     1
102
RTVSPost2010Prop55
280
     0
102
RTVSPost2010PropOp55
 70
     1
102
RTVSPost2010Prop56
140
1.0
102
RTVSPost2010PropOp56
 70
     1
102
RTVSPost2010Prop57
140
1.0
102
RTVSPost2010PropOp57
 70
     1
102
RTVSPropertyOp0
 70
     0
102
RTVSPropertyOp1
 70
     0
102
RTVSPropertyOp2
 70
     0
102
RTVSPropertyOp3
 70
     0
102
RTVSPropertyOp4
 70
     0
102
RTVSPropertyOp5
 70
     0
102
RTVSPropertyOp6
 70
     0
102
RTVSPropertyOp7
 70
     0
102
RTVSPropertyOp8
 70
     0
102
RTVSPropertyOp9
 70
     0
102
RTVSPropertyOp10
 70
     0
102
RTVSPropertyOp11
 70
     0
102
RTVSPropertyOp12
 70
     0
102
RTVSPropertyOp13
 70
     0
102
RTVSPropertyOp14
 70
     2
102
RTVSPropertyOp15
 70
     0
102
RTVSPropertyOp16
 70
     0
102
RTVSPropertyOp17
 70
     0
102
RTVSPropertyOp18
 70
     0
102
RTVSPropertyOp19
 70
     0
102
RTVSPropertyOp20
 70
     0
102
RTVSPropertyOp21
 70
     0
102
RTVSPropertyOp22
 70
     0
102
RTVSPropertyOp23
 70
     0
102
RTVSPropertyOp24
 70
     0
102
RTVSPropertyOp25
 70
     0
102
RTVSPropertyOp26
 70
     0
102
RTVSPropertyOp27
 70
     0
102
RTVSPropertyOp28
 70
     1
102
RTVSPropertyOp29
 70
     1
102
RTVSPropertyOp30
 70
     1
102
RTVSPropertyOp31
 70
     1
102
RTVSPropertyOp32
 70
     1
102
RTVSPropertyOp33
 70
     1
102
RTVSPropertyOp34
 70
     1
102
RTVSPropertyOp35
 70
     1
102
RTVSPropertyOp36
 70
     1
102
RTVSPropertyOp37
 70
     1
102
RTVSPropertyOp38
 70
     1
102
RTVSPropertyOp39
 70
     1
102
RTVSPropertyOp40
 70
     1
102
RTVSPropertyOp41
 70
     1
102
RTVSPropertyOp42
 70
     1
102
RTVSPropertyOp43
 70
     1
102
RTVSPropertyOp44
 70
     1
102
RTVSPropertyOp45
 70
     1
102
RTVSPropertyOp46
 70
     1
102
RTVSPropertyOp47
 70
     1
102
RTVSPropertyOp48
 70
     1
102
RTVSPropertyOp49
 70
     1
102
RTVSPropertyOp50
 70
     1
102
RTVSPropertyOp51
 70
     0
102
RTVSPropertyOp52
 70
     0
102
RTVSPropertyOp53
 70
     1
102
RTVSPropertyOp54
 70
     1
102
RTVSPropertyOp55
 70
     1
102
RTVSPropertyOp56
 70
     1
102
RTVSPropertyOp57
 70
     1
102
RTVSPropertyOp58
 70
     1
102
RTVSPropertyOp59
 70
     1
102
RTVSPropertyOp60
 70
     1
102
RTVSPropertyOp61
 70
     1
102
RTVSPropertyOp62
 70
     1
  0
XRECORD
  5
8EE9
102
{ACAD_REACTORS
330
8EE8
102
}
330
8EE8
100
AcDbXrecord
280
     1
102
RTVSPost2010Prop28
280
     0
102
RTVSPost2010PropOp28
 70
     1
102
RTVSPost2010Prop29
280
     1
102
RTVSPost2010PropOp29
 70
     1
102
RTVSPost2010Prop30
280
     1
102
RTVSPost2010PropOp30
 70
     1
102
RTVSPost2010Prop31
280
     0
102
RTVSPost2010PropOp31
 70
     1
102
RTVSPost2010Prop32
280
     0
102
RTVSPost2010PropOp32
 70
     1
102
RTVSPost2010Prop33
280
     0
102
RTVSPost2010PropOp33
 70
     1
102
RTVSPost2010Prop34
280
     0
102
RTVSPost2010PropOp34
 70
     1
102
RTVSPost2010Prop35
280
     0
102
RTVSPost2010PropOp35
 70
     1
102
RTVSPost2010Prop36
280
     0
102
RTVSPost2010PropOp36
 70
     1
102
RTVSPost2010Prop37
 90
       50
102
RTVSPost2010PropOp37
 70
     1
102
RTVSPost2010Prop38
140
0.0
102
RTVSPost2010PropOp38
 70
     1
102
RTVSPost2010Prop39
140
1.0
102
RTVSPost2010PropOp39
 70
     1
102
RTVSPost2010Prop40
 90
        0
102
RTVSPost2010PropOp40
 70
     1
102
RTVSPost2010Prop41ColorIndex
 90
       18
102
RTVSPost2010Prop41ColorRGB
 90
        0
102
RTVSPost2010PropOp41
 70
     1
102
RTVSPost2010Prop42
 90
       50
102
RTVSPost2010PropOp42
 70
     1
102
RTVSPost2010Prop43
 90
        3
102
RTVSPost2010PropOp43
 70
     1
102
RTVSPost2010Prop44ColorIndex
 90
        5
102
RTVSPost2010Prop44ColorRGB
 90
      255
102
RTVSPost2010PropOp44
 70
     1
102
RTVSPost2010Prop45
280
     0
102
RTVSPost2010PropOp45
 70
     1
102
RTVSPost2010Prop46
 90
       50
102
RTVSPost2010PropOp46
 70
     1
102
RTVSPost2010Prop47
 90
       50
102
RTVSPost2010PropOp47
 70
     1
102
RTVSPost2010Prop48
 90
       50
102
RTVSPost2010PropOp48
 70
     1
102
RTVSPost2010Prop49
280
     0
102
RTVSPost2010PropOp49
 70
     1
102
RTVSPost2010Prop50
 90
       50
102
RTVSPost2010PropOp50
 70
     1
102
RTVSPost2010Prop51ColorIndex
 90
      256
102
RTVSPost2010Prop51ColorRGB
 90
-16777216
102
RTVSPost2010PropOp51
 70
     0
102
RTVSPost2010Prop52
140
1.0
102
RTVSPost2010PropOp52
 70
     0
102
RTVSPost2010Prop53
 90
        2
102
RTVSPost2010PropOp53
 70
     1
102
RTVSPost2010Prop54
  1
strokes_ogs.tif
102
RTVSPost2010PropOp54
 70
     1
102
RTVSPost2010Prop55
280
     0
102
RTVSPost2010PropOp55
 70
     1
102
RTVSPost2010Prop56
140
1.0
102
RTVSPost2010PropOp56
 70
     1
102
RTVSPost2010Prop57
140
1.0
102
RTVSPost2010PropOp57
 70
     1
102
RTVSPropertyOp0
 70
     1
102
RTVSPropertyOp1
 70
     1
102
RTVSPropertyOp2
 70
     1
102
RTVSPropertyOp3
 70
     1
102
RTVSPropertyOp4
 70
     1
102
RTVSPropertyOp5
 70
     1
102
RTVSPropertyOp6
 70
     1
102
RTVSPropertyOp7
 70
     1
102
RTVSPropertyOp8
 70
     1
102
RTVSPropertyOp9
 70
     1
102
RTVSPropertyOp10
 70
     1
102
RTVSPropertyOp11
 70
     1
102
RTVSPropertyOp12
 70
     1
102
RTVSPropertyOp13
 70
     1
102
RTVSPropertyOp14
 70
     1
102
RTVSPropertyOp15
 70
     1
102
RTVSPropertyOp16
 70
     1
102
RTVSPropertyOp17
 70
     1
102
RTVSPropertyOp18
 70
     1
102
RTVSPropertyOp19
 70
     1
102
RTVSPropertyOp20
 70
     1
102
RTVSPropertyOp21
 70
     1
102
RTVSPropertyOp22
 70
     1
102
RTVSPropertyOp23
 70
     1
102
RTVSPropertyOp24
 70
     1
102
RTVSPropertyOp25
 70
     1
102
RTVSPropertyOp26
 70
     1
102
RTVSPropertyOp27
 70
     1
102
RTVSPropertyOp28
 70
     1
102
RTVSPropertyOp29
 70
     1
102
RTVSPropertyOp30
 70
     1
102
RTVSPropertyOp31
 70
     1
102
RTVSPropertyOp32
 70
     1
102
RTVSPropertyOp33
 70
     1
102
RTVSPropertyOp34
 70
     1
102
RTVSPropertyOp35
 70
     1
102
RTVSPropertyOp36
 70
     1
102
RTVSPropertyOp37
 70
     1
102
RTVSPropertyOp38
 70
     1
102
RTVSPropertyOp39
 70
     1
102
RTVSPropertyOp40
 70
     1
102
RTVSPropertyOp41
 70
     1
102
RTVSPropertyOp42
 70
     1
102
RTVSPropertyOp43
 70
     1
102
RTVSPropertyOp44
 70
     1
102
RTVSPropertyOp45
 70
     1
102
RTVSPropertyOp46
 70
     1
102
RTVSPropertyOp47
 70
     1
102
RTVSPropertyOp48
 70
     1
102
RTVSPropertyOp49
 70
     1
102
RTVSPropertyOp50
 70
     1
102
RTVSPropertyOp51
 70
     0
102
RTVSPropertyOp52
 70
     0
102
RTVSPropertyOp53
 70
     1
102
RTVSPropertyOp54
 70
     1
102
RTVSPropertyOp55
 70
     1
102
RTVSPropertyOp56
 70
     1
102
RTVSPropertyOp57
 70
     1
102
RTVSPropertyOp58
 70
     1
102
RTVSPropertyOp59
 70
     1
102
RTVSPropertyOp60
 70
     1
102
RTVSPropertyOp61
 70
     1
102
RTVSPropertyOp62
 70
     1
  0
XRECORD
  5
8ECD
102
{ACAD_REACTORS
330
8ECC
102
}
330
8ECC
100
AcDbXrecord
280
     1
102
RTVSPost2010Prop28
280
     0
102
RTVSPost2010PropOp28
 70
     1
102
RTVSPost2010Prop29
280
     1
102
RTVSPost2010PropOp29
 70
     1
102
RTVSPost2010Prop30
280
     1
102
RTVSPost2010PropOp30
 70
     1
102
RTVSPost2010Prop31
280
     0
102
RTVSPost2010PropOp31
 70
     1
102
RTVSPost2010Prop32
280
     0
102
RTVSPost2010PropOp32
 70
     1
102
RTVSPost2010Prop33
280
     0
102
RTVSPost2010PropOp33
 70
     1
102
RTVSPost2010Prop34
280
     0
102
RTVSPost2010PropOp34
 70
     1
102
RTVSPost2010Prop35
280
     0
102
RTVSPost2010PropOp35
 70
     1
102
RTVSPost2010Prop36
280
     0
102
RTVSPost2010PropOp36
 70
     1
102
RTVSPost2010Prop37
 90
       50
102
RTVSPost2010PropOp37
 70
     1
102
RTVSPost2010Prop38
140
0.0
102
RTVSPost2010PropOp38
 70
     1
102
RTVSPost2010Prop39
140
1.0
102
RTVSPost2010PropOp39
 70
     1
102
RTVSPost2010Prop40
 90
        0
102
RTVSPost2010PropOp40
 70
     1
102
RTVSPost2010Prop41ColorIndex
 90
       18
102
RTVSPost2010Prop41ColorRGB
 90
        0
102
RTVSPost2010PropOp41
 70
     1
102
RTVSPost2010Prop42
 90
       50
102
RTVSPost2010PropOp42
 70
     1
102
RTVSPost2010Prop43
 90
        3
102
RTVSPost2010PropOp43
 70
     1
102
RTVSPost2010Prop44ColorIndex
 90
        5
102
RTVSPost2010Prop44ColorRGB
 90
      255
102
RTVSPost2010PropOp44
 70
     1
102
RTVSPost2010Prop45
280
     0
102
RTVSPost2010PropOp45
 70
     1
102
RTVSPost2010Prop46
 90
       50
102
RTVSPost2010PropOp46
 70
     1
102
RTVSPost2010Prop47
 90
       50
102
RTVSPost2010PropOp47
 70
     1
102
RTVSPost2010Prop48
 90
       50
102
RTVSPost2010PropOp48
 70
     1
102
RTVSPost2010Prop49
280
     0
102
RTVSPost2010PropOp49
 70
     1
102
RTVSPost2010Prop50
 90
       50
102
RTVSPost2010PropOp50
 70
     1
102
RTVSPost2010Prop51ColorIndex
 90
      256
102
RTVSPost2010Prop51ColorRGB
 90
-16777216
102
RTVSPost2010PropOp51
 70
     0
102
RTVSPost2010Prop52
140
1.0
102
RTVSPost2010PropOp52
 70
     0
102
RTVSPost2010Prop53
 90
        2
102
RTVSPost2010PropOp53
 70
     1
102
RTVSPost2010Prop54
  1
strokes_ogs.tif
102
RTVSPost2010PropOp54
 70
     1
102
RTVSPost2010Prop55
280
     0
102
RTVSPost2010PropOp55
 70
     1
102
RTVSPost2010Prop56
140
1.0
102
RTVSPost2010PropOp56
 70
     1
102
RTVSPost2010Prop57
140
1.0
102
RTVSPost2010PropOp57
 70
     1
102
RTVSPropertyOp0
 70
     1
102
RTVSPropertyOp1
 70
     1
102
RTVSPropertyOp2
 70
     1
102
RTVSPropertyOp3
 70
     1
102
RTVSPropertyOp4
 70
     1
102
RTVSPropertyOp5
 70
     1
102
RTVSPropertyOp6
 70
     1
102
RTVSPropertyOp7
 70
     1
102
RTVSPropertyOp8
 70
     1
102
RTVSPropertyOp9
 70
     1
102
RTVSPropertyOp10
 70
     1
102
RTVSPropertyOp11
 70
     1
102
RTVSPropertyOp12
 70
     1
102
RTVSPropertyOp13
 70
     1
102
RTVSPropertyOp14
 70
     1
102
RTVSPropertyOp15
 70
     1
102
RTVSPropertyOp16
 70
     1
102
RTVSPropertyOp17
 70
     1
102
RTVSPropertyOp18
 70
     1
102
RTVSPropertyOp19
 70
     1
102
RTVSPropertyOp20
 70
     1
102
RTVSPropertyOp21
 70
     1
102
RTVSPropertyOp22
 70
     1
102
RTVSPropertyOp23
 70
     1
102
RTVSPropertyOp24
 70
     1
102
RTVSPropertyOp25
 70
     1
102
RTVSPropertyOp26
 70
     1
102
RTVSPropertyOp27
 70
     1
102
RTVSPropertyOp28
 70
     1
102
RTVSPropertyOp29
 70
     1
102
RTVSPropertyOp30
 70
     1
102
RTVSPropertyOp31
 70
     1
102
RTVSPropertyOp32
 70
     1
102
RTVSPropertyOp33
 70
     1
102
RTVSPropertyOp34
 70
     1
102
RTVSPropertyOp35
 70
     1
102
RTVSPropertyOp36
 70
     1
102
RTVSPropertyOp37
 70
     1
102
RTVSPropertyOp38
 70
     1
102
RTVSPropertyOp39
 70
     1
102
RTVSPropertyOp40
 70
     1
102
RTVSPropertyOp41
 70
     1
102
RTVSPropertyOp42
 70
     1
102
RTVSPropertyOp43
 70
     1
102
RTVSPropertyOp44
 70
     1
102
RTVSPropertyOp45
 70
     1
102
RTVSPropertyOp46
 70
     1
102
RTVSPropertyOp47
 70
     1
102
RTVSPropertyOp48
 70
     1
102
RTVSPropertyOp49
 70
     1
102
RTVSPropertyOp50
 70
     1
102
RTVSPropertyOp51
 70
     0
102
RTVSPropertyOp52
 70
     0
102
RTVSPropertyOp53
 70
     1
102
RTVSPropertyOp54
 70
     1
102
RTVSPropertyOp55
 70
     1
102
RTVSPropertyOp56
 70
     1
102
RTVSPropertyOp57
 70
     1
102
RTVSPropertyOp58
 70
     1
102
RTVSPropertyOp59
 70
     1
102
RTVSPropertyOp60
 70
     1
102
RTVSPropertyOp61
 70
     1
102
RTVSPropertyOp62
 70
     1
  0
XRECORD
  5
8ECF
102
{ACAD_REACTORS
330
8ECE
102
}
330
8ECE
100
AcDbXrecord
280
     1
102
RTVSPost2010Prop28
280
     0
102
RTVSPost2010PropOp28
 70
     1
102
RTVSPost2010Prop29
280
     1
102
RTVSPost2010PropOp29
 70
     1
102
RTVSPost2010Prop30
280
     1
102
RTVSPost2010PropOp30
 70
     1
102
RTVSPost2010Prop31
280
     0
102
RTVSPost2010PropOp31
 70
     1
102
RTVSPost2010Prop32
280
     0
102
RTVSPost2010PropOp32
 70
     1
102
RTVSPost2010Prop33
280
     0
102
RTVSPost2010PropOp33
 70
     1
102
RTVSPost2010Prop34
280
     0
102
RTVSPost2010PropOp34
 70
     1
102
RTVSPost2010Prop35
280
     0
102
RTVSPost2010PropOp35
 70
     1
102
RTVSPost2010Prop36
280
     0
102
RTVSPost2010PropOp36
 70
     1
102
RTVSPost2010Prop37
 90
       50
102
RTVSPost2010PropOp37
 70
     1
102
RTVSPost2010Prop38
140
0.0
102
RTVSPost2010PropOp38
 70
     1
102
RTVSPost2010Prop39
140
1.0
102
RTVSPost2010PropOp39
 70
     1
102
RTVSPost2010Prop40
 90
        0
102
RTVSPost2010PropOp40
 70
     1
102
RTVSPost2010Prop41ColorIndex
 90
       18
102
RTVSPost2010Prop41ColorRGB
 90
        0
102
RTVSPost2010PropOp41
 70
     1
102
RTVSPost2010Prop42
 90
       50
102
RTVSPost2010PropOp42
 70
     1
102
RTVSPost2010Prop43
 90
        3
102
RTVSPost2010PropOp43
 70
     1
102
RTVSPost2010Prop44ColorIndex
 90
        5
102
RTVSPost2010Prop44ColorRGB
 90
      255
102
RTVSPost2010PropOp44
 70
     1
102
RTVSPost2010Prop45
280
     0
102
RTVSPost2010PropOp45
 70
     1
102
RTVSPost2010Prop46
 90
       50
102
RTVSPost2010PropOp46
 70
     1
102
RTVSPost2010Prop47
 90
       50
102
RTVSPost2010PropOp47
 70
     1
102
RTVSPost2010Prop48
 90
       50
102
RTVSPost2010PropOp48
 70
     1
102
RTVSPost2010Prop49
280
     0
102
RTVSPost2010PropOp49
 70
     1
102
RTVSPost2010Prop50
 90
       50
102
RTVSPost2010PropOp50
 70
     1
102
RTVSPost2010Prop51ColorIndex
 90
      256
102
RTVSPost2010Prop51ColorRGB
 90
-16777216
102
RTVSPost2010PropOp51
 70
     0
102
RTVSPost2010Prop52
140
1.0
102
RTVSPost2010PropOp52
 70
     0
102
RTVSPost2010Prop53
 90
        2
102
RTVSPost2010PropOp53
 70
     1
102
RTVSPost2010Prop54
  1
strokes_ogs.tif
102
RTVSPost2010PropOp54
 70
     1
102
RTVSPost2010Prop55
280
     0
102
RTVSPost2010PropOp55
 70
     1
102
RTVSPost2010Prop56
140
1.0
102
RTVSPost2010PropOp56
 70
     1
102
RTVSPost2010Prop57
140
1.0
102
RTVSPost2010PropOp57
 70
     1
102
RTVSPropertyOp0
 70
     1
102
RTVSPropertyOp1
 70
     1
102
RTVSPropertyOp2
 70
     1
102
RTVSPropertyOp3
 70
     1
102
RTVSPropertyOp4
 70
     1
102
RTVSPropertyOp5
 70
     1
102
RTVSPropertyOp6
 70
     1
102
RTVSPropertyOp7
 70
     1
102
RTVSPropertyOp8
 70
     1
102
RTVSPropertyOp9
 70
     1
102
RTVSPropertyOp10
 70
     1
102
RTVSPropertyOp11
 70
     1
102
RTVSPropertyOp12
 70
     1
102
RTVSPropertyOp13
 70
     1
102
RTVSPropertyOp14
 70
     1
102
RTVSPropertyOp15
 70
     1
102
RTVSPropertyOp16
 70
     1
102
RTVSPropertyOp17
 70
     1
102
RTVSPropertyOp18
 70
     1
102
RTVSPropertyOp19
 70
     1
102
RTVSPropertyOp20
 70
     1
102
RTVSPropertyOp21
 70
     1
102
RTVSPropertyOp22
 70
     1
102
RTVSPropertyOp23
 70
     1
102
RTVSPropertyOp24
 70
     1
102
RTVSPropertyOp25
 70
     1
102
RTVSPropertyOp26
 70
     1
102
RTVSPropertyOp27
 70
     1
102
RTVSPropertyOp28
 70
     1
102
RTVSPropertyOp29
 70
     1
102
RTVSPropertyOp30
 70
     1
102
RTVSPropertyOp31
 70
     1
102
RTVSPropertyOp32
 70
     1
102
RTVSPropertyOp33
 70
     1
102
RTVSPropertyOp34
 70
     1
102
RTVSPropertyOp35
 70
     1
102
RTVSPropertyOp36
 70
     1
102
RTVSPropertyOp37
 70
     1
102
RTVSPropertyOp38
 70
     1
102
RTVSPropertyOp39
 70
     1
102
RTVSPropertyOp40
 70
     1
102
RTVSPropertyOp41
 70
     1
102
RTVSPropertyOp42
 70
     1
102
RTVSPropertyOp43
 70
     1
102
RTVSPropertyOp44
 70
     1
102
RTVSPropertyOp45
 70
     1
102
RTVSPropertyOp46
 70
     1
102
RTVSPropertyOp47
 70
     1
102
RTVSPropertyOp48
 70
     1
102
RTVSPropertyOp49
 70
     1
102
RTVSPropertyOp50
 70
     1
102
RTVSPropertyOp51
 70
     0
102
RTVSPropertyOp52
 70
     0
102
RTVSPropertyOp53
 70
     1
102
RTVSPropertyOp54
 70
     1
102
RTVSPropertyOp55
 70
     1
102
RTVSPropertyOp56
 70
     1
102
RTVSPropertyOp57
 70
     1
102
RTVSPropertyOp58
 70
     1
102
RTVSPropertyOp59
 70
     1
102
RTVSPropertyOp60
 70
     1
102
RTVSPropertyOp61
 70
     1
102
RTVSPropertyOp62
 70
     1
  0
XRECORD
  5
8ED1
102
{ACAD_REACTORS
330
8ED0
102
}
330
8ED0
100
AcDbXrecord
280
     1
102
RTVSPost2010Prop28
280
     0
102
RTVSPost2010PropOp28
 70
     1
102
RTVSPost2010Prop29
280
     1
102
RTVSPost2010PropOp29
 70
     1
102
RTVSPost2010Prop30
280
     1
102
RTVSPost2010PropOp30
 70
     1
102
RTVSPost2010Prop31
280
     0
102
RTVSPost2010PropOp31
 70
     1
102
RTVSPost2010Prop32
280
     0
102
RTVSPost2010PropOp32
 70
     1
102
RTVSPost2010Prop33
280
     0
102
RTVSPost2010PropOp33
 70
     1
102
RTVSPost2010Prop34
280
     0
102
RTVSPost2010PropOp34
 70
     1
102
RTVSPost2010Prop35
280
     0
102
RTVSPost2010PropOp35
 70
     1
102
RTVSPost2010Prop36
280
     0
102
RTVSPost2010PropOp36
 70
     1
102
RTVSPost2010Prop37
 90
       50
102
RTVSPost2010PropOp37
 70
     1
102
RTVSPost2010Prop38
140
0.0
102
RTVSPost2010PropOp38
 70
     1
102
RTVSPost2010Prop39
140
1.0
102
RTVSPost2010PropOp39
 70
     1
102
RTVSPost2010Prop40
 90
        0
102
RTVSPost2010PropOp40
 70
     1
102
RTVSPost2010Prop41ColorIndex
 90
       18
102
RTVSPost2010Prop41ColorRGB
 90
        0
102
RTVSPost2010PropOp41
 70
     1
102
RTVSPost2010Prop42
 90
       50
102
RTVSPost2010PropOp42
 70
     1
102
RTVSPost2010Prop43
 90
        3
102
RTVSPost2010PropOp43
 70
     1
102
RTVSPost2010Prop44ColorIndex
 90
        5
102
RTVSPost2010Prop44ColorRGB
 90
      255
102
RTVSPost2010PropOp44
 70
     1
102
RTVSPost2010Prop45
280
     0
102
RTVSPost2010PropOp45
 70
     1
102
RTVSPost2010Prop46
 90
       50
102
RTVSPost2010PropOp46
 70
     1
102
RTVSPost2010Prop47
 90
       50
102
RTVSPost2010PropOp47
 70
     1
102
RTVSPost2010Prop48
 90
       50
102
RTVSPost2010PropOp48
 70
     1
102
RTVSPost2010Prop49
280
     0
102
RTVSPost2010PropOp49
 70
     1
102
RTVSPost2010Prop50
 90
       50
102
RTVSPost2010PropOp50
 70
     1
102
RTVSPost2010Prop51ColorIndex
 90
      256
102
RTVSPost2010Prop51ColorRGB
 90
-16777216
102
RTVSPost2010PropOp51
 70
     0
102
RTVSPost2010Prop52
140
1.0
102
RTVSPost2010PropOp52
 70
     0
102
RTVSPost2010Prop53
 90
        2
102
RTVSPost2010PropOp53
 70
     1
102
RTVSPost2010Prop54
  1
strokes_ogs.tif
102
RTVSPost2010PropOp54
 70
     1
102
RTVSPost2010Prop55
280
     0
102
RTVSPost2010PropOp55
 70
     1
102
RTVSPost2010Prop56
140
1.0
102
RTVSPost2010PropOp56
 70
     1
102
RTVSPost2010Prop57
140
1.0
102
RTVSPost2010PropOp57
 70
     1
102
RTVSPropertyOp0
 70
     1
102
RTVSPropertyOp1
 70
     1
102
RTVSPropertyOp2
 70
     1
102
RTVSPropertyOp3
 70
     1
102
RTVSPropertyOp4
 70
     1
102
RTVSPropertyOp5
 70
     1
102
RTVSPropertyOp6
 70
     1
102
RTVSPropertyOp7
 70
     1
102
RTVSPropertyOp8
 70
     1
102
RTVSPropertyOp9
 70
     1
102
RTVSPropertyOp10
 70
     1
102
RTVSPropertyOp11
 70
     1
102
RTVSPropertyOp12
 70
     1
102
RTVSPropertyOp13
 70
     1
102
RTVSPropertyOp14
 70
     1
102
RTVSPropertyOp15
 70
     1
102
RTVSPropertyOp16
 70
     1
102
RTVSPropertyOp17
 70
     1
102
RTVSPropertyOp18
 70
     1
102
RTVSPropertyOp19
 70
     1
102
RTVSPropertyOp20
 70
     1
102
RTVSPropertyOp21
 70
     1
102
RTVSPropertyOp22
 70
     1
102
RTVSPropertyOp23
 70
     1
102
RTVSPropertyOp24
 70
     1
102
RTVSPropertyOp25
 70
     1
102
RTVSPropertyOp26
 70
     1
102
RTVSPropertyOp27
 70
     1
102
RTVSPropertyOp28
 70
     1
102
RTVSPropertyOp29
 70
     1
102
RTVSPropertyOp30
 70
     1
102
RTVSPropertyOp31
 70
     1
102
RTVSPropertyOp32
 70
     1
102
RTVSPropertyOp33
 70
     1
102
RTVSPropertyOp34
 70
     1
102
RTVSPropertyOp35
 70
     1
102
RTVSPropertyOp36
 70
     1
102
RTVSPropertyOp37
 70
     1
102
RTVSPropertyOp38
 70
     1
102
RTVSPropertyOp39
 70
     1
102
RTVSPropertyOp40
 70
     1
102
RTVSPropertyOp41
 70
     1
102
RTVSPropertyOp42
 70
     1
102
RTVSPropertyOp43
 70
     1
102
RTVSPropertyOp44
 70
     1
102
RTVSPropertyOp45
 70
     1
102
RTVSPropertyOp46
 70
     1
102
RTVSPropertyOp47
 70
     1
102
RTVSPropertyOp48
 70
     1
102
RTVSPropertyOp49
 70
     1
102
RTVSPropertyOp50
 70
     1
102
RTVSPropertyOp51
 70
     0
102
RTVSPropertyOp52
 70
     0
102
RTVSPropertyOp53
 70
     1
102
RTVSPropertyOp54
 70
     1
102
RTVSPropertyOp55
 70
     1
102
RTVSPropertyOp56
 70
     1
102
RTVSPropertyOp57
 70
     1
102
RTVSPropertyOp58
 70
     1
102
RTVSPropertyOp59
 70
     1
102
RTVSPropertyOp60
 70
     1
102
RTVSPropertyOp61
 70
     1
102
RTVSPropertyOp62
 70
     1
  0
XRECORD
  5
8ED3
102
{ACAD_REACTORS
330
8ED2
102
}
330
8ED2
100
AcDbXrecord
280
     1
102
RTVSPost2010Prop28
280
     0
102
RTVSPost2010PropOp28
 70
     1
102
RTVSPost2010Prop29
280
     1
102
RTVSPost2010PropOp29
 70
     1
102
RTVSPost2010Prop30
280
     1
102
RTVSPost2010PropOp30
 70
     1
102
RTVSPost2010Prop31
280
     0
102
RTVSPost2010PropOp31
 70
     1
102
RTVSPost2010Prop32
280
     0
102
RTVSPost2010PropOp32
 70
     1
102
RTVSPost2010Prop33
280
     0
102
RTVSPost2010PropOp33
 70
     1
102
RTVSPost2010Prop34
280
     0
102
RTVSPost2010PropOp34
 70
     1
102
RTVSPost2010Prop35
280
     0
102
RTVSPost2010PropOp35
 70
     1
102
RTVSPost2010Prop36
280
     0
102
RTVSPost2010PropOp36
 70
     1
102
RTVSPost2010Prop37
 90
       50
102
RTVSPost2010PropOp37
 70
     1
102
RTVSPost2010Prop38
140
0.0
102
RTVSPost2010PropOp38
 70
     1
102
RTVSPost2010Prop39
140
1.0
102
RTVSPost2010PropOp39
 70
     1
102
RTVSPost2010Prop40
 90
        0
102
RTVSPost2010PropOp40
 70
     1
102
RTVSPost2010Prop41ColorIndex
 90
       18
102
RTVSPost2010Prop41ColorRGB
 90
        0
102
RTVSPost2010PropOp41
 70
     1
102
RTVSPost2010Prop42
 90
       50
102
RTVSPost2010PropOp42
 70
     1
102
RTVSPost2010Prop43
 90
        3
102
RTVSPost2010PropOp43
 70
     1
102
RTVSPost2010Prop44ColorIndex
 90
        5
102
RTVSPost2010Prop44ColorRGB
 90
      255
102
RTVSPost2010PropOp44
 70
     1
102
RTVSPost2010Prop45
280
     0
102
RTVSPost2010PropOp45
 70
     1
102
RTVSPost2010Prop46
 90
       50
102
RTVSPost2010PropOp46
 70
     1
102
RTVSPost2010Prop47
 90
       50
102
RTVSPost2010PropOp47
 70
     1
102
RTVSPost2010Prop48
 90
       50
102
RTVSPost2010PropOp48
 70
     1
102
RTVSPost2010Prop49
280
     0
102
RTVSPost2010PropOp49
 70
     1
102
RTVSPost2010Prop50
 90
       50
102
RTVSPost2010PropOp50
 70
     1
102
RTVSPost2010Prop51ColorIndex
 90
      256
102
RTVSPost2010Prop51ColorRGB
 90
-16777216
102
RTVSPost2010PropOp51
 70
     0
102
RTVSPost2010Prop52
140
1.0
102
RTVSPost2010PropOp52
 70
     0
102
RTVSPost2010Prop53
 90
        2
102
RTVSPost2010PropOp53
 70
     1
102
RTVSPost2010Prop54
  1
strokes_ogs.tif
102
RTVSPost2010PropOp54
 70
     1
102
RTVSPost2010Prop55
280
     0
102
RTVSPost2010PropOp55
 70
     1
102
RTVSPost2010Prop56
140
1.0
102
RTVSPost2010PropOp56
 70
     1
102
RTVSPost2010Prop57
140
1.0
102
RTVSPost2010PropOp57
 70
     1
102
RTVSPropertyOp0
 70
     1
102
RTVSPropertyOp1
 70
     1
102
RTVSPropertyOp2
 70
     1
102
RTVSPropertyOp3
 70
     1
102
RTVSPropertyOp4
 70
     1
102
RTVSPropertyOp5
 70
     1
102
RTVSPropertyOp6
 70
     1
102
RTVSPropertyOp7
 70
     1
102
RTVSPropertyOp8
 70
     1
102
RTVSPropertyOp9
 70
     1
102
RTVSPropertyOp10
 70
     1
102
RTVSPropertyOp11
 70
     1
102
RTVSPropertyOp12
 70
     1
102
RTVSPropertyOp13
 70
     1
102
RTVSPropertyOp14
 70
     1
102
RTVSPropertyOp15
 70
     1
102
RTVSPropertyOp16
 70
     1
102
RTVSPropertyOp17
 70
     1
102
RTVSPropertyOp18
 70
     1
102
RTVSPropertyOp19
 70
     1
102
RTVSPropertyOp20
 70
     1
102
RTVSPropertyOp21
 70
     1
102
RTVSPropertyOp22
 70
     1
102
RTVSPropertyOp23
 70
     1
102
RTVSPropertyOp24
 70
     1
102
RTVSPropertyOp25
 70
     1
102
RTVSPropertyOp26
 70
     1
102
RTVSPropertyOp27
 70
     1
102
RTVSPropertyOp28
 70
     1
102
RTVSPropertyOp29
 70
     1
102
RTVSPropertyOp30
 70
     1
102
RTVSPropertyOp31
 70
     1
102
RTVSPropertyOp32
 70
     1
102
RTVSPropertyOp33
 70
     1
102
RTVSPropertyOp34
 70
     1
102
RTVSPropertyOp35
 70
     1
102
RTVSPropertyOp36
 70
     1
102
RTVSPropertyOp37
 70
     1
102
RTVSPropertyOp38
 70
     1
102
RTVSPropertyOp39
 70
     1
102
RTVSPropertyOp40
 70
     1
102
RTVSPropertyOp41
 70
     1
102
RTVSPropertyOp42
 70
     1
102
RTVSPropertyOp43
 70
     1
102
RTVSPropertyOp44
 70
     1
102
RTVSPropertyOp45
 70
     1
102
RTVSPropertyOp46
 70
     1
102
RTVSPropertyOp47
 70
     1
102
RTVSPropertyOp48
 70
     1
102
RTVSPropertyOp49
 70
     1
102
RTVSPropertyOp50
 70
     1
102
RTVSPropertyOp51
 70
     0
102
RTVSPropertyOp52
 70
     0
102
RTVSPropertyOp53
 70
     1
102
RTVSPropertyOp54
 70
     1
102
RTVSPropertyOp55
 70
     1
102
RTVSPropertyOp56
 70
     1
102
RTVSPropertyOp57
 70
     1
102
RTVSPropertyOp58
 70
     1
102
RTVSPropertyOp59
 70
     1
102
RTVSPropertyOp60
 70
     1
102
RTVSPropertyOp61
 70
     1
102
RTVSPropertyOp62
 70
     1
  0
XRECORD
  5
8EDB
102
{ACAD_REACTORS
330
8EDA
102
}
330
8EDA
100
AcDbXrecord
280
     1
102
RTVSPost2010Prop28
280
     0
102
RTVSPost2010PropOp28
 70
     1
102
RTVSPost2010Prop29
280
     1
102
RTVSPost2010PropOp29
 70
     1
102
RTVSPost2010Prop30
280
     1
102
RTVSPost2010PropOp30
 70
     1
102
RTVSPost2010Prop31
280
     0
102
RTVSPost2010PropOp31
 70
     1
102
RTVSPost2010Prop32
280
     0
102
RTVSPost2010PropOp32
 70
     1
102
RTVSPost2010Prop33
280
     0
102
RTVSPost2010PropOp33
 70
     1
102
RTVSPost2010Prop34
280
     0
102
RTVSPost2010PropOp34
 70
     1
102
RTVSPost2010Prop35
280
     0
102
RTVSPost2010PropOp35
 70
     1
102
RTVSPost2010Prop36
280
     0
102
RTVSPost2010PropOp36
 70
     1
102
RTVSPost2010Prop37
 90
       50
102
RTVSPost2010PropOp37
 70
     1
102
RTVSPost2010Prop38
140
0.0
102
RTVSPost2010PropOp38
 70
     1
102
RTVSPost2010Prop39
140
1.0
102
RTVSPost2010PropOp39
 70
     1
102
RTVSPost2010Prop40
 90
        0
102
RTVSPost2010PropOp40
 70
     1
102
RTVSPost2010Prop41ColorIndex
 90
       18
102
RTVSPost2010Prop41ColorRGB
 90
        0
102
RTVSPost2010PropOp41
 70
     1
102
RTVSPost2010Prop42
 90
       50
102
RTVSPost2010PropOp42
 70
     1
102
RTVSPost2010Prop43
 90
        3
102
RTVSPost2010PropOp43
 70
     1
102
RTVSPost2010Prop44ColorIndex
 90
        5
102
RTVSPost2010Prop44ColorRGB
 90
      255
102
RTVSPost2010PropOp44
 70
     1
102
RTVSPost2010Prop45
280
     0
102
RTVSPost2010PropOp45
 70
     1
102
RTVSPost2010Prop46
 90
       50
102
RTVSPost2010PropOp46
 70
     1
102
RTVSPost2010Prop47
 90
       50
102
RTVSPost2010PropOp47
 70
     1
102
RTVSPost2010Prop48
 90
       50
102
RTVSPost2010PropOp48
 70
     1
102
RTVSPost2010Prop49
280
     0
102
RTVSPost2010PropOp49
 70
     1
102
RTVSPost2010Prop50
 90
       50
102
RTVSPost2010PropOp50
 70
     1
102
RTVSPost2010Prop51ColorIndex
 90
      256
102
RTVSPost2010Prop51ColorRGB
 90
-16777216
102
RTVSPost2010PropOp51
 70
     0
102
RTVSPost2010Prop52
140
1.0
102
RTVSPost2010PropOp52
 70
     0
102
RTVSPost2010Prop53
 90
        2
102
RTVSPost2010PropOp53
 70
     1
102
RTVSPost2010Prop54
  1
strokes_ogs.tif
102
RTVSPost2010PropOp54
 70
     1
102
RTVSPost2010Prop55
280
     0
102
RTVSPost2010PropOp55
 70
     1
102
RTVSPost2010Prop56
140
1.0
102
RTVSPost2010PropOp56
 70
     1
102
RTVSPost2010Prop57
140
1.0
102
RTVSPost2010PropOp57
 70
     1
102
RTVSPropertyOp0
 70
     1
102
RTVSPropertyOp1
 70
     1
102
RTVSPropertyOp2
 70
     1
102
RTVSPropertyOp3
 70
     1
102
RTVSPropertyOp4
 70
     1
102
RTVSPropertyOp5
 70
     1
102
RTVSPropertyOp6
 70
     1
102
RTVSPropertyOp7
 70
     1
102
RTVSPropertyOp8
 70
     1
102
RTVSPropertyOp9
 70
     1
102
RTVSPropertyOp10
 70
     1
102
RTVSPropertyOp11
 70
     1
102
RTVSPropertyOp12
 70
     1
102
RTVSPropertyOp13
 70
     1
102
RTVSPropertyOp14
 70
     1
102
RTVSPropertyOp15
 70
     1
102
RTVSPropertyOp16
 70
     1
102
RTVSPropertyOp17
 70
     1
102
RTVSPropertyOp18
 70
     1
102
RTVSPropertyOp19
 70
     1
102
RTVSPropertyOp20
 70
     1
102
RTVSPropertyOp21
 70
     1
102
RTVSPropertyOp22
 70
     1
102
RTVSPropertyOp23
 70
     1
102
RTVSPropertyOp24
 70
     1
102
RTVSPropertyOp25
 70
     1
102
RTVSPropertyOp26
 70
     1
102
RTVSPropertyOp27
 70
     1
102
RTVSPropertyOp28
 70
     1
102
RTVSPropertyOp29
 70
     1
102
RTVSPropertyOp30
 70
     1
102
RTVSPropertyOp31
 70
     1
102
RTVSPropertyOp32
 70
     1
102
RTVSPropertyOp33
 70
     1
102
RTVSPropertyOp34
 70
     1
102
RTVSPropertyOp35
 70
     1
102
RTVSPropertyOp36
 70
     1
102
RTVSPropertyOp37
 70
     1
102
RTVSPropertyOp38
 70
     1
102
RTVSPropertyOp39
 70
     1
102
RTVSPropertyOp40
 70
     1
102
RTVSPropertyOp41
 70
     1
102
RTVSPropertyOp42
 70
     1
102
RTVSPropertyOp43
 70
     1
102
RTVSPropertyOp44
 70
     1
102
RTVSPropertyOp45
 70
     1
102
RTVSPropertyOp46
 70
     1
102
RTVSPropertyOp47
 70
     1
102
RTVSPropertyOp48
 70
     1
102
RTVSPropertyOp49
 70
     1
102
RTVSPropertyOp50
 70
     1
102
RTVSPropertyOp51
 70
     0
102
RTVSPropertyOp52
 70
     0
102
RTVSPropertyOp53
 70
     1
102
RTVSPropertyOp54
 70
     1
102
RTVSPropertyOp55
 70
     1
102
RTVSPropertyOp56
 70
     1
102
RTVSPropertyOp57
 70
     1
102
RTVSPropertyOp58
 70
     1
102
RTVSPropertyOp59
 70
     1
102
RTVSPropertyOp60
 70
     1
102
RTVSPropertyOp61
 70
     1
102
RTVSPropertyOp62
 70
     1
  0
XRECORD
  5
8EEF
102
{ACAD_REACTORS
330
8EEE
102
}
330
8EEE
100
AcDbXrecord
280
     1
102
RTVSPost2010Prop28
280
     0
102
RTVSPost2010PropOp28
 70
     1
102
RTVSPost2010Prop29
280
     1
102
RTVSPost2010PropOp29
 70
     1
102
RTVSPost2010Prop30
280
     1
102
RTVSPost2010PropOp30
 70
     1
102
RTVSPost2010Prop31
280
     0
102
RTVSPost2010PropOp31
 70
     1
102
RTVSPost2010Prop32
280
     0
102
RTVSPost2010PropOp32
 70
     1
102
RTVSPost2010Prop33
280
     0
102
RTVSPost2010PropOp33
 70
     1
102
RTVSPost2010Prop34
280
     0
102
RTVSPost2010PropOp34
 70
     1
102
RTVSPost2010Prop35
280
     0
102
RTVSPost2010PropOp35
 70
     1
102
RTVSPost2010Prop36
280
     0
102
RTVSPost2010PropOp36
 70
     1
102
RTVSPost2010Prop37
 90
       50
102
RTVSPost2010PropOp37
 70
     1
102
RTVSPost2010Prop38
140
0.0
102
RTVSPost2010PropOp38
 70
     1
102
RTVSPost2010Prop39
140
1.0
102
RTVSPost2010PropOp39
 70
     1
102
RTVSPost2010Prop40
 90
        0
102
RTVSPost2010PropOp40
 70
     1
102
RTVSPost2010Prop41ColorIndex
 90
       18
102
RTVSPost2010Prop41ColorRGB
 90
        0
102
RTVSPost2010PropOp41
 70
     1
102
RTVSPost2010Prop42
 90
       50
102
RTVSPost2010PropOp42
 70
     1
102
RTVSPost2010Prop43
 90
        3
102
RTVSPost2010PropOp43
 70
     1
102
RTVSPost2010Prop44ColorIndex
 90
        5
102
RTVSPost2010Prop44ColorRGB
 90
      255
102
RTVSPost2010PropOp44
 70
     1
102
RTVSPost2010Prop45
280
     0
102
RTVSPost2010PropOp45
 70
     1
102
RTVSPost2010Prop46
 90
       50
102
RTVSPost2010PropOp46
 70
     1
102
RTVSPost2010Prop47
 90
       50
102
RTVSPost2010PropOp47
 70
     1
102
RTVSPost2010Prop48
 90
       50
102
RTVSPost2010PropOp48
 70
     1
102
RTVSPost2010Prop49
280
     0
102
RTVSPost2010PropOp49
 70
     1
102
RTVSPost2010Prop50
 90
       50
102
RTVSPost2010PropOp50
 70
     1
102
RTVSPost2010Prop51ColorIndex
 90
      256
102
RTVSPost2010Prop51ColorRGB
 90
-16777216
102
RTVSPost2010PropOp51
 70
     0
102
RTVSPost2010Prop52
140
1.0
102
RTVSPost2010PropOp52
 70
     0
102
RTVSPost2010Prop53
 90
        2
102
RTVSPost2010PropOp53
 70
     1
102
RTVSPost2010Prop54
  1
strokes_ogs.tif
102
RTVSPost2010PropOp54
 70
     1
102
RTVSPost2010Prop55
280
     0
102
RTVSPost2010PropOp55
 70
     1
102
RTVSPost2010Prop56
140
1.0
102
RTVSPost2010PropOp56
 70
     1
102
RTVSPost2010Prop57
140
1.0
102
RTVSPost2010PropOp57
 70
     1
102
RTVSPropertyOp0
 70
     0
102
RTVSPropertyOp1
 70
     0
102
RTVSPropertyOp2
 70
     0
102
RTVSPropertyOp3
 70
     0
102
RTVSPropertyOp4
 70
     0
102
RTVSPropertyOp5
 70
     0
102
RTVSPropertyOp6
 70
     0
102
RTVSPropertyOp7
 70
     0
102
RTVSPropertyOp8
 70
     0
102
RTVSPropertyOp9
 70
     0
102
RTVSPropertyOp10
 70
     0
102
RTVSPropertyOp11
 70
     0
102
RTVSPropertyOp12
 70
     0
102
RTVSPropertyOp13
 70
     0
102
RTVSPropertyOp14
 70
     2
102
RTVSPropertyOp15
 70
     0
102
RTVSPropertyOp16
 70
     0
102
RTVSPropertyOp17
 70
     0
102
RTVSPropertyOp18
 70
     0
102
RTVSPropertyOp19
 70
     0
102
RTVSPropertyOp20
 70
     0
102
RTVSPropertyOp21
 70
     0
102
RTVSPropertyOp22
 70
     0
102
RTVSPropertyOp23
 70
     0
102
RTVSPropertyOp24
 70
     0
102
RTVSPropertyOp25
 70
     0
102
RTVSPropertyOp26
 70
     0
102
RTVSPropertyOp27
 70
     0
102
RTVSPropertyOp28
 70
     1
102
RTVSPropertyOp29
 70
     1
102
RTVSPropertyOp30
 70
     1
102
RTVSPropertyOp31
 70
     1
102
RTVSPropertyOp32
 70
     1
102
RTVSPropertyOp33
 70
     1
102
RTVSPropertyOp34
 70
     1
102
RTVSPropertyOp35
 70
     1
102
RTVSPropertyOp36
 70
     1
102
RTVSPropertyOp37
 70
     1
102
RTVSPropertyOp38
 70
     1
102
RTVSPropertyOp39
 70
     1
102
RTVSPropertyOp40
 70
     1
102
RTVSPropertyOp41
 70
     1
102
RTVSPropertyOp42
 70
     1
102
RTVSPropertyOp43
 70
     1
102
RTVSPropertyOp44
 70
     1
102
RTVSPropertyOp45
 70
     1
102
RTVSPropertyOp46
 70
     1
102
RTVSPropertyOp47
 70
     1
102
RTVSPropertyOp48
 70
     1
102
RTVSPropertyOp49
 70
     1
102
RTVSPropertyOp50
 70
     1
102
RTVSPropertyOp51
 70
     0
102
RTVSPropertyOp52
 70
     0
102
RTVSPropertyOp53
 70
     1
102
RTVSPropertyOp54
 70
     1
102
RTVSPropertyOp55
 70
     1
102
RTVSPropertyOp56
 70
     1
102
RTVSPropertyOp57
 70
     1
102
RTVSPropertyOp58
 70
     1
102
RTVSPropertyOp59
 70
     1
102
RTVSPropertyOp60
 70
     1
102
RTVSPropertyOp61
 70
     1
102
RTVSPropertyOp62
 70
     1
  0
XRECORD
  5
8EE7
102
{ACAD_REACTORS
330
8EE6
102
}
330
8EE6
100
AcDbXrecord
280
     1
102
RTVSPost2010Prop28
280
     0
102
RTVSPost2010PropOp28
 70
     1
102
RTVSPost2010Prop29
280
     1
102
RTVSPost2010PropOp29
 70
     1
102
RTVSPost2010Prop30
280
     1
102
RTVSPost2010PropOp30
 70
     1
102
RTVSPost2010Prop31
280
     0
102
RTVSPost2010PropOp31
 70
     1
102
RTVSPost2010Prop32
280
     0
102
RTVSPost2010PropOp32
 70
     1
102
RTVSPost2010Prop33
280
     0
102
RTVSPost2010PropOp33
 70
     1
102
RTVSPost2010Prop34
280
     0
102
RTVSPost2010PropOp34
 70
     1
102
RTVSPost2010Prop35
280
     0
102
RTVSPost2010PropOp35
 70
     1
102
RTVSPost2010Prop36
280
     0
102
RTVSPost2010PropOp36
 70
     1
102
RTVSPost2010Prop37
 90
       50
102
RTVSPost2010PropOp37
 70
     1
102
RTVSPost2010Prop38
140
0.0
102
RTVSPost2010PropOp38
 70
     1
102
RTVSPost2010Prop39
140
1.0
102
RTVSPost2010PropOp39
 70
     1
102
RTVSPost2010Prop40
 90
        0
102
RTVSPost2010PropOp40
 70
     1
102
RTVSPost2010Prop41ColorIndex
 90
       18
102
RTVSPost2010Prop41ColorRGB
 90
        0
102
RTVSPost2010PropOp41
 70
     1
102
RTVSPost2010Prop42
 90
       50
102
RTVSPost2010PropOp42
 70
     1
102
RTVSPost2010Prop43
 90
        3
102
RTVSPost2010PropOp43
 70
     1
102
RTVSPost2010Prop44ColorIndex
 90
        5
102
RTVSPost2010Prop44ColorRGB
 90
      255
102
RTVSPost2010PropOp44
 70
     1
102
RTVSPost2010Prop45
280
     0
102
RTVSPost2010PropOp45
 70
     1
102
RTVSPost2010Prop46
 90
       50
102
RTVSPost2010PropOp46
 70
     1
102
RTVSPost2010Prop47
 90
       50
102
RTVSPost2010PropOp47
 70
     1
102
RTVSPost2010Prop48
 90
       50
102
RTVSPost2010PropOp48
 70
     1
102
RTVSPost2010Prop49
280
     0
102
RTVSPost2010PropOp49
 70
     1
102
RTVSPost2010Prop50
 90
       50
102
RTVSPost2010PropOp50
 70
     1
102
RTVSPost2010Prop51ColorIndex
 90
      256
102
RTVSPost2010Prop51ColorRGB
 90
-16777216
102
RTVSPost2010PropOp51
 70
     0
102
RTVSPost2010Prop52
140
1.0
102
RTVSPost2010PropOp52
 70
     0
102
RTVSPost2010Prop53
 90
        2
102
RTVSPost2010PropOp53
 70
     1
102
RTVSPost2010Prop54
  1
strokes_ogs.tif
102
RTVSPost2010PropOp54
 70
     1
102
RTVSPost2010Prop55
280
     0
102
RTVSPost2010PropOp55
 70
     1
102
RTVSPost2010Prop56
140
1.0
102
RTVSPost2010PropOp56
 70
     1
102
RTVSPost2010Prop57
140
1.0
102
RTVSPost2010PropOp57
 70
     1
102
RTVSPropertyOp0
 70
     1
102
RTVSPropertyOp1
 70
     1
102
RTVSPropertyOp2
 70
     1
102
RTVSPropertyOp3
 70
     1
102
RTVSPropertyOp4
 70
     1
102
RTVSPropertyOp5
 70
     1
102
RTVSPropertyOp6
 70
     1
102
RTVSPropertyOp7
 70
     1
102
RTVSPropertyOp8
 70
     1
102
RTVSPropertyOp9
 70
     1
102
RTVSPropertyOp10
 70
     1
102
RTVSPropertyOp11
 70
     1
102
RTVSPropertyOp12
 70
     1
102
RTVSPropertyOp13
 70
     1
102
RTVSPropertyOp14
 70
     1
102
RTVSPropertyOp15
 70
     1
102
RTVSPropertyOp16
 70
     1
102
RTVSPropertyOp17
 70
     1
102
RTVSPropertyOp18
 70
     1
102
RTVSPropertyOp19
 70
     1
102
RTVSPropertyOp20
 70
     1
102
RTVSPropertyOp21
 70
     1
102
RTVSPropertyOp22
 70
     1
102
RTVSPropertyOp23
 70
     1
102
RTVSPropertyOp24
 70
     1
102
RTVSPropertyOp25
 70
     1
102
RTVSPropertyOp26
 70
     1
102
RTVSPropertyOp27
 70
     1
102
RTVSPropertyOp28
 70
     1
102
RTVSPropertyOp29
 70
     1
102
RTVSPropertyOp30
 70
     1
102
RTVSPropertyOp31
 70
     1
102
RTVSPropertyOp32
 70
     1
102
RTVSPropertyOp33
 70
     1
102
RTVSPropertyOp34
 70
     1
102
RTVSPropertyOp35
 70
     1
102
RTVSPropertyOp36
 70
     1
102
RTVSPropertyOp37
 70
     1
102
RTVSPropertyOp38
 70
     1
102
RTVSPropertyOp39
 70
     1
102
RTVSPropertyOp40
 70
     1
102
RTVSPropertyOp41
 70
     1
102
RTVSPropertyOp42
 70
     1
102
RTVSPropertyOp43
 70
     1
102
RTVSPropertyOp44
 70
     1
102
RTVSPropertyOp45
 70
     1
102
RTVSPropertyOp46
 70
     1
102
RTVSPropertyOp47
 70
     1
102
RTVSPropertyOp48
 70
     1
102
RTVSPropertyOp49
 70
     1
102
RTVSPropertyOp50
 70
     1
102
RTVSPropertyOp51
 70
     0
102
RTVSPropertyOp52
 70
     0
102
RTVSPropertyOp53
 70
     1
102
RTVSPropertyOp54
 70
     1
102
RTVSPropertyOp55
 70
     1
102
RTVSPropertyOp56
 70
     1
102
RTVSPropertyOp57
 70
     1
102
RTVSPropertyOp58
 70
     1
102
RTVSPropertyOp59
 70
     1
102
RTVSPropertyOp60
 70
     1
102
RTVSPropertyOp61
 70
     1
102
RTVSPropertyOp62
 70
     1
  0
XRECORD
  5
8EF1
102
{ACAD_REACTORS
330
8EF0
102
}
330
8EF0
100
AcDbXrecord
280
     1
102
RTVSPost2010Prop28
280
     0
102
RTVSPost2010PropOp28
 70
     1
102
RTVSPost2010Prop29
280
     1
102
RTVSPost2010PropOp29
 70
     1
102
RTVSPost2010Prop30
280
     1
102
RTVSPost2010PropOp30
 70
     1
102
RTVSPost2010Prop31
280
     0
102
RTVSPost2010PropOp31
 70
     1
102
RTVSPost2010Prop32
280
     0
102
RTVSPost2010PropOp32
 70
     1
102
RTVSPost2010Prop33
280
     0
102
RTVSPost2010PropOp33
 70
     1
102
RTVSPost2010Prop34
280
     0
102
RTVSPost2010PropOp34
 70
     1
102
RTVSPost2010Prop35
280
     0
102
RTVSPost2010PropOp35
 70
     1
102
RTVSPost2010Prop36
280
     0
102
RTVSPost2010PropOp36
 70
     1
102
RTVSPost2010Prop37
 90
       50
102
RTVSPost2010PropOp37
 70
     1
102
RTVSPost2010Prop38
140
0.0
102
RTVSPost2010PropOp38
 70
     1
102
RTVSPost2010Prop39
140
1.0
102
RTVSPost2010PropOp39
 70
     1
102
RTVSPost2010Prop40
 90
        0
102
RTVSPost2010PropOp40
 70
     1
102
RTVSPost2010Prop41ColorIndex
 90
       18
102
RTVSPost2010Prop41ColorRGB
 90
        0
102
RTVSPost2010PropOp41
 70
     1
102
RTVSPost2010Prop42
 90
       50
102
RTVSPost2010PropOp42
 70
     1
102
RTVSPost2010Prop43
 90
        3
102
RTVSPost2010PropOp43
 70
     1
102
RTVSPost2010Prop44ColorIndex
 90
        5
102
RTVSPost2010Prop44ColorRGB
 90
      255
102
RTVSPost2010PropOp44
 70
     1
102
RTVSPost2010Prop45
280
     0
102
RTVSPost2010PropOp45
 70
     1
102
RTVSPost2010Prop46
 90
       50
102
RTVSPost2010PropOp46
 70
     1
102
RTVSPost2010Prop47
 90
       50
102
RTVSPost2010PropOp47
 70
     1
102
RTVSPost2010Prop48
 90
       50
102
RTVSPost2010PropOp48
 70
     1
102
RTVSPost2010Prop49
280
     0
102
RTVSPost2010PropOp49
 70
     1
102
RTVSPost2010Prop50
 90
       50
102
RTVSPost2010PropOp50
 70
     1
102
RTVSPost2010Prop51ColorIndex
 90
      256
102
RTVSPost2010Prop51ColorRGB
 90
-16777216
102
RTVSPost2010PropOp51
 70
     0
102
RTVSPost2010Prop52
140
1.0
102
RTVSPost2010PropOp52
 70
     0
102
RTVSPost2010Prop53
 90
        2
102
RTVSPost2010PropOp53
 70
     1
102
RTVSPost2010Prop54
  1
strokes_ogs.tif
102
RTVSPost2010PropOp54
 70
     1
102
RTVSPost2010Prop55
280
     0
102
RTVSPost2010PropOp55
 70
     1
102
RTVSPost2010Prop56
140
1.0
102
RTVSPost2010PropOp56
 70
     1
102
RTVSPost2010Prop57
140
1.0
102
RTVSPost2010PropOp57
 70
     1
102
RTVSPropertyOp0
 70
     0
102
RTVSPropertyOp1
 70
     0
102
RTVSPropertyOp2
 70
     0
102
RTVSPropertyOp3
 70
     0
102
RTVSPropertyOp4
 70
     0
102
RTVSPropertyOp5
 70
     0
102
RTVSPropertyOp6
 70
     0
102
RTVSPropertyOp7
 70
     0
102
RTVSPropertyOp8
 70
     0
102
RTVSPropertyOp9
 70
     0
102
RTVSPropertyOp10
 70
     0
102
RTVSPropertyOp11
 70
     0
102
RTVSPropertyOp12
 70
     0
102
RTVSPropertyOp13
 70
     0
102
RTVSPropertyOp14
 70
     2
102
RTVSPropertyOp15
 70
     0
102
RTVSPropertyOp16
 70
     0
102
RTVSPropertyOp17
 70
     0
102
RTVSPropertyOp18
 70
     0
102
RTVSPropertyOp19
 70
     0
102
RTVSPropertyOp20
 70
     0
102
RTVSPropertyOp21
 70
     0
102
RTVSPropertyOp22
 70
     0
102
RTVSPropertyOp23
 70
     0
102
RTVSPropertyOp24
 70
     0
102
RTVSPropertyOp25
 70
     0
102
RTVSPropertyOp26
 70
     0
102
RTVSPropertyOp27
 70
     0
102
RTVSPropertyOp28
 70
     1
102
RTVSPropertyOp29
 70
     1
102
RTVSPropertyOp30
 70
     1
102
RTVSPropertyOp31
 70
     1
102
RTVSPropertyOp32
 70
     1
102
RTVSPropertyOp33
 70
     1
102
RTVSPropertyOp34
 70
     1
102
RTVSPropertyOp35
 70
     1
102
RTVSPropertyOp36
 70
     1
102
RTVSPropertyOp37
 70
     1
102
RTVSPropertyOp38
 70
     1
102
RTVSPropertyOp39
 70
     1
102
RTVSPropertyOp40
 70
     1
102
RTVSPropertyOp41
 70
     1
102
RTVSPropertyOp42
 70
     1
102
RTVSPropertyOp43
 70
     1
102
RTVSPropertyOp44
 70
     1
102
RTVSPropertyOp45
 70
     1
102
RTVSPropertyOp46
 70
     1
102
RTVSPropertyOp47
 70
     1
102
RTVSPropertyOp48
 70
     1
102
RTVSPropertyOp49
 70
     1
102
RTVSPropertyOp50
 70
     1
102
RTVSPropertyOp51
 70
     0
102
RTVSPropertyOp52
 70
     0
102
RTVSPropertyOp53
 70
     1
102
RTVSPropertyOp54
 70
     1
102
RTVSPropertyOp55
 70
     1
102
RTVSPropertyOp56
 70
     1
102
RTVSPropertyOp57
 70
     1
102
RTVSPropertyOp58
 70
     1
102
RTVSPropertyOp59
 70
     1
102
RTVSPropertyOp60
 70
     1
102
RTVSPropertyOp61
 70
     1
102
RTVSPropertyOp62
 70
     1
  0
XRECORD
  5
8EDF
102
{ACAD_REACTORS
330
8EDE
102
}
330
8EDE
100
AcDbXrecord
280
     1
102
RTVSPost2010Prop28
280
     0
102
RTVSPost2010PropOp28
 70
     1
102
RTVSPost2010Prop29
280
     1
102
RTVSPost2010PropOp29
 70
     1
102
RTVSPost2010Prop30
280
     1
102
RTVSPost2010PropOp30
 70
     1
102
RTVSPost2010Prop31
280
     0
102
RTVSPost2010PropOp31
 70
     1
102
RTVSPost2010Prop32
280
     0
102
RTVSPost2010PropOp32
 70
     1
102
RTVSPost2010Prop33
280
     0
102
RTVSPost2010PropOp33
 70
     1
102
RTVSPost2010Prop34
280
     0
102
RTVSPost2010PropOp34
 70
     1
102
RTVSPost2010Prop35
280
     0
102
RTVSPost2010PropOp35
 70
     1
102
RTVSPost2010Prop36
280
     0
102
RTVSPost2010PropOp36
 70
     1
102
RTVSPost2010Prop37
 90
       50
102
RTVSPost2010PropOp37
 70
     1
102
RTVSPost2010Prop38
140
0.0
102
RTVSPost2010PropOp38
 70
     1
102
RTVSPost2010Prop39
140
1.0
102
RTVSPost2010PropOp39
 70
     1
102
RTVSPost2010Prop40
 90
        0
102
RTVSPost2010PropOp40
 70
     1
102
RTVSPost2010Prop41ColorIndex
 90
       18
102
RTVSPost2010Prop41ColorRGB
 90
        0
102
RTVSPost2010PropOp41
 70
     1
102
RTVSPost2010Prop42
 90
       50
102
RTVSPost2010PropOp42
 70
     1
102
RTVSPost2010Prop43
 90
        3
102
RTVSPost2010PropOp43
 70
     1
102
RTVSPost2010Prop44ColorIndex
 90
        5
102
RTVSPost2010Prop44ColorRGB
 90
      255
102
RTVSPost2010PropOp44
 70
     1
102
RTVSPost2010Prop45
280
     0
102
RTVSPost2010PropOp45
 70
     1
102
RTVSPost2010Prop46
 90
       50
102
RTVSPost2010PropOp46
 70
     1
102
RTVSPost2010Prop47
 90
       50
102
RTVSPost2010PropOp47
 70
     1
102
RTVSPost2010Prop48
 90
       50
102
RTVSPost2010PropOp48
 70
     1
102
RTVSPost2010Prop49
280
     0
102
RTVSPost2010PropOp49
 70
     1
102
RTVSPost2010Prop50
 90
       50
102
RTVSPost2010PropOp50
 70
     1
102
RTVSPost2010Prop51ColorIndex
 90
      256
102
RTVSPost2010Prop51ColorRGB
 90
-16777216
102
RTVSPost2010PropOp51
 70
     0
102
RTVSPost2010Prop52
140
1.0
102
RTVSPost2010PropOp52
 70
     0
102
RTVSPost2010Prop53
 90
        2
102
RTVSPost2010PropOp53
 70
     1
102
RTVSPost2010Prop54
  1
strokes_ogs.tif
102
RTVSPost2010PropOp54
 70
     1
102
RTVSPost2010Prop55
280
     0
102
RTVSPost2010PropOp55
 70
     1
102
RTVSPost2010Prop56
140
1.0
102
RTVSPost2010PropOp56
 70
     1
102
RTVSPost2010Prop57
140
1.0
102
RTVSPost2010PropOp57
 70
     1
102
RTVSPropertyOp0
 70
     1
102
RTVSPropertyOp1
 70
     1
102
RTVSPropertyOp2
 70
     1
102
RTVSPropertyOp3
 70
     1
102
RTVSPropertyOp4
 70
     1
102
RTVSPropertyOp5
 70
     1
102
RTVSPropertyOp6
 70
     1
102
RTVSPropertyOp7
 70
     1
102
RTVSPropertyOp8
 70
     1
102
RTVSPropertyOp9
 70
     1
102
RTVSPropertyOp10
 70
     1
102
RTVSPropertyOp11
 70
     1
102
RTVSPropertyOp12
 70
     1
102
RTVSPropertyOp13
 70
     1
102
RTVSPropertyOp14
 70
     1
102
RTVSPropertyOp15
 70
     1
102
RTVSPropertyOp16
 70
     1
102
RTVSPropertyOp17
 70
     1
102
RTVSPropertyOp18
 70
     1
102
RTVSPropertyOp19
 70
     1
102
RTVSPropertyOp20
 70
     1
102
RTVSPropertyOp21
 70
     1
102
RTVSPropertyOp22
 70
     1
102
RTVSPropertyOp23
 70
     1
102
RTVSPropertyOp24
 70
     1
102
RTVSPropertyOp25
 70
     1
102
RTVSPropertyOp26
 70
     1
102
RTVSPropertyOp27
 70
     1
102
RTVSPropertyOp28
 70
     1
102
RTVSPropertyOp29
 70
     1
102
RTVSPropertyOp30
 70
     1
102
RTVSPropertyOp31
 70
     1
102
RTVSPropertyOp32
 70
     1
102
RTVSPropertyOp33
 70
     1
102
RTVSPropertyOp34
 70
     1
102
RTVSPropertyOp35
 70
     1
102
RTVSPropertyOp36
 70
     1
102
RTVSPropertyOp37
 70
     1
102
RTVSPropertyOp38
 70
     1
102
RTVSPropertyOp39
 70
     1
102
RTVSPropertyOp40
 70
     1
102
RTVSPropertyOp41
 70
     1
102
RTVSPropertyOp42
 70
     1
102
RTVSPropertyOp43
 70
     1
102
RTVSPropertyOp44
 70
     1
102
RTVSPropertyOp45
 70
     1
102
RTVSPropertyOp46
 70
     1
102
RTVSPropertyOp47
 70
     1
102
RTVSPropertyOp48
 70
     1
102
RTVSPropertyOp49
 70
     1
102
RTVSPropertyOp50
 70
     1
102
RTVSPropertyOp51
 70
     0
102
RTVSPropertyOp52
 70
     0
102
RTVSPropertyOp53
 70
     1
102
RTVSPropertyOp54
 70
     1
102
RTVSPropertyOp55
 70
     1
102
RTVSPropertyOp56
 70
     1
102
RTVSPropertyOp57
 70
     1
102
RTVSPropertyOp58
 70
     1
102
RTVSPropertyOp59
 70
     1
102
RTVSPropertyOp60
 70
     1
102
RTVSPropertyOp61
 70
     1
102
RTVSPropertyOp62
 70
     1
  0
XRECORD
  5
8EFD
102
{ACAD_REACTORS
330
8EFC
102
}
330
8EFC
100
AcDbXrecord
280
     1
102
RTVSPost2010Prop28
280
     0
102
RTVSPost2010PropOp28
 70
     1
102
RTVSPost2010Prop29
280
     1
102
RTVSPost2010PropOp29
 70
     1
102
RTVSPost2010Prop30
280
     1
102
RTVSPost2010PropOp30
 70
     1
102
RTVSPost2010Prop31
280
     0
102
RTVSPost2010PropOp31
 70
     1
102
RTVSPost2010Prop32
280
     0
102
RTVSPost2010PropOp32
 70
     1
102
RTVSPost2010Prop33
280
     0
102
RTVSPost2010PropOp33
 70
     1
102
RTVSPost2010Prop34
280
     0
102
RTVSPost2010PropOp34
 70
     1
102
RTVSPost2010Prop35
280
     0
102
RTVSPost2010PropOp35
 70
     1
102
RTVSPost2010Prop36
280
     0
102
RTVSPost2010PropOp36
 70
     1
102
RTVSPost2010Prop37
 90
       50
102
RTVSPost2010PropOp37
 70
     1
102
RTVSPost2010Prop38
140
0.0
102
RTVSPost2010PropOp38
 70
     1
102
RTVSPost2010Prop39
140
1.0
102
RTVSPost2010PropOp39
 70
     1
102
RTVSPost2010Prop40
 90
        0
102
RTVSPost2010PropOp40
 70
     1
102
RTVSPost2010Prop41ColorIndex
 90
       18
102
RTVSPost2010Prop41ColorRGB
 90
        0
102
RTVSPost2010PropOp41
 70
     1
102
RTVSPost2010Prop42
 90
       50
102
RTVSPost2010PropOp42
 70
     1
102
RTVSPost2010Prop43
 90
        3
102
RTVSPost2010PropOp43
 70
     1
102
RTVSPost2010Prop44ColorIndex
 90
        5
102
RTVSPost2010Prop44ColorRGB
 90
      255
102
RTVSPost2010PropOp44
 70
     1
102
RTVSPost2010Prop45
280
     0
102
RTVSPost2010PropOp45
 70
     1
102
RTVSPost2010Prop46
 90
       50
102
RTVSPost2010PropOp46
 70
     1
102
RTVSPost2010Prop47
 90
       50
102
RTVSPost2010PropOp47
 70
     1
102
RTVSPost2010Prop48
 90
       50
102
RTVSPost2010PropOp48
 70
     1
102
RTVSPost2010Prop49
280
     0
102
RTVSPost2010PropOp49
 70
     1
102
RTVSPost2010Prop50
 90
       50
102
RTVSPost2010PropOp50
 70
     1
102
RTVSPost2010Prop51ColorIndex
 90
      256
102
RTVSPost2010Prop51ColorRGB
 90
-16777216
102
RTVSPost2010PropOp51
 70
     0
102
RTVSPost2010Prop52
140
1.0
102
RTVSPost2010PropOp52
 70
     0
102
RTVSPost2010Prop53
 90
        2
102
RTVSPost2010PropOp53
 70
     1
102
RTVSPost2010Prop54
  1
strokes_ogs.tif
102
RTVSPost2010PropOp54
 70
     1
102
RTVSPost2010Prop55
280
     0
102
RTVSPost2010PropOp55
 70
     1
102
RTVSPost2010Prop56
140
1.0
102
RTVSPost2010PropOp56
 70
     1
102
RTVSPost2010Prop57
140
1.0
102
RTVSPost2010PropOp57
 70
     1
102
RTVSPropertyOp0
 70
     1
102
RTVSPropertyOp1
 70
     1
102
RTVSPropertyOp2
 70
     1
102
RTVSPropertyOp3
 70
     1
102
RTVSPropertyOp4
 70
     1
102
RTVSPropertyOp5
 70
     1
102
RTVSPropertyOp6
 70
     1
102
RTVSPropertyOp7
 70
     1
102
RTVSPropertyOp8
 70
     1
102
RTVSPropertyOp9
 70
     1
102
RTVSPropertyOp10
 70
     1
102
RTVSPropertyOp11
 70
     1
102
RTVSPropertyOp12
 70
     1
102
RTVSPropertyOp13
 70
     1
102
RTVSPropertyOp14
 70
     1
102
RTVSPropertyOp15
 70
     1
102
RTVSPropertyOp16
 70
     1
102
RTVSPropertyOp17
 70
     1
102
RTVSPropertyOp18
 70
     1
102
RTVSPropertyOp19
 70
     1
102
RTVSPropertyOp20
 70
     1
102
RTVSPropertyOp21
 70
     1
102
RTVSPropertyOp22
 70
     1
102
RTVSPropertyOp23
 70
     1
102
RTVSPropertyOp24
 70
     1
102
RTVSPropertyOp25
 70
     1
102
RTVSPropertyOp26
 70
     1
102
RTVSPropertyOp27
 70
     1
102
RTVSPropertyOp28
 70
     1
102
RTVSPropertyOp29
 70
     1
102
RTVSPropertyOp30
 70
     1
102
RTVSPropertyOp31
 70
     1
102
RTVSPropertyOp32
 70
     1
102
RTVSPropertyOp33
 70
     1
102
RTVSPropertyOp34
 70
     1
102
RTVSPropertyOp35
 70
     1
102
RTVSPropertyOp36
 70
     1
102
RTVSPropertyOp37
 70
     1
102
RTVSPropertyOp38
 70
     1
102
RTVSPropertyOp39
 70
     1
102
RTVSPropertyOp40
 70
     1
102
RTVSPropertyOp41
 70
     1
102
RTVSPropertyOp42
 70
     1
102
RTVSPropertyOp43
 70
     1
102
RTVSPropertyOp44
 70
     1
102
RTVSPropertyOp45
 70
     1
102
RTVSPropertyOp46
 70
     1
102
RTVSPropertyOp47
 70
     1
102
RTVSPropertyOp48
 70
     1
102
RTVSPropertyOp49
 70
     1
102
RTVSPropertyOp50
 70
     1
102
RTVSPropertyOp51
 70
     0
102
RTVSPropertyOp52
 70
     0
102
RTVSPropertyOp53
 70
     1
102
RTVSPropertyOp54
 70
     1
102
RTVSPropertyOp55
 70
     1
102
RTVSPropertyOp56
 70
     1
102
RTVSPropertyOp57
 70
     1
102
RTVSPropertyOp58
 70
     1
102
RTVSPropertyOp59
 70
     1
102
RTVSPropertyOp60
 70
     1
102
RTVSPropertyOp61
 70
     1
102
RTVSPropertyOp62
 70
     1
  0
XRECORD
  5
8EFB
102
{ACAD_REACTORS
330
8EFA
102
}
330
8EFA
100
AcDbXrecord
280
     1
102
RTVSPost2010Prop28
280
     0
102
RTVSPost2010PropOp28
 70
     1
102
RTVSPost2010Prop29
280
     1
102
RTVSPost2010PropOp29
 70
     1
102
RTVSPost2010Prop30
280
     1
102
RTVSPost2010PropOp30
 70
     1
102
RTVSPost2010Prop31
280
     0
102
RTVSPost2010PropOp31
 70
     1
102
RTVSPost2010Prop32
280
     0
102
RTVSPost2010PropOp32
 70
     1
102
RTVSPost2010Prop33
280
     0
102
RTVSPost2010PropOp33
 70
     1
102
RTVSPost2010Prop34
280
     0
102
RTVSPost2010PropOp34
 70
     1
102
RTVSPost2010Prop35
280
     0
102
RTVSPost2010PropOp35
 70
     1
102
RTVSPost2010Prop36
280
     0
102
RTVSPost2010PropOp36
 70
     1
102
RTVSPost2010Prop37
 90
       50
102
RTVSPost2010PropOp37
 70
     1
102
RTVSPost2010Prop38
140
0.0
102
RTVSPost2010PropOp38
 70
     1
102
RTVSPost2010Prop39
140
1.0
102
RTVSPost2010PropOp39
 70
     1
102
RTVSPost2010Prop40
 90
        0
102
RTVSPost2010PropOp40
 70
     1
102
RTVSPost2010Prop41ColorIndex
 90
       18
102
RTVSPost2010Prop41ColorRGB
 90
        0
102
RTVSPost2010PropOp41
 70
     1
102
RTVSPost2010Prop42
 90
       50
102
RTVSPost2010PropOp42
 70
     1
102
RTVSPost2010Prop43
 90
        3
102
RTVSPost2010PropOp43
 70
     1
102
RTVSPost2010Prop44ColorIndex
 90
        5
102
RTVSPost2010Prop44ColorRGB
 90
      255
102
RTVSPost2010PropOp44
 70
     1
102
RTVSPost2010Prop45
280
     0
102
RTVSPost2010PropOp45
 70
     1
102
RTVSPost2010Prop46
 90
       50
102
RTVSPost2010PropOp46
 70
     1
102
RTVSPost2010Prop47
 90
       50
102
RTVSPost2010PropOp47
 70
     1
102
RTVSPost2010Prop48
 90
       50
102
RTVSPost2010PropOp48
 70
     1
102
RTVSPost2010Prop49
280
     0
102
RTVSPost2010PropOp49
 70
     1
102
RTVSPost2010Prop50
 90
       50
102
RTVSPost2010PropOp50
 70
     1
102
RTVSPost2010Prop51ColorIndex
 90
      256
102
RTVSPost2010Prop51ColorRGB
 90
-16777216
102
RTVSPost2010PropOp51
 70
     0
102
RTVSPost2010Prop52
140
1.0
102
RTVSPost2010PropOp52
 70
     0
102
RTVSPost2010Prop53
 90
        2
102
RTVSPost2010PropOp53
 70
     1
102
RTVSPost2010Prop54
  1
strokes_ogs.tif
102
RTVSPost2010PropOp54
 70
     1
102
RTVSPost2010Prop55
280
     0
102
RTVSPost2010PropOp55
 70
     1
102
RTVSPost2010Prop56
140
1.0
102
RTVSPost2010PropOp56
 70
     1
102
RTVSPost2010Prop57
140
1.0
102
RTVSPost2010PropOp57
 70
     1
102
RTVSPropertyOp0
 70
     1
102
RTVSPropertyOp1
 70
     1
102
RTVSPropertyOp2
 70
     1
102
RTVSPropertyOp3
 70
     1
102
RTVSPropertyOp4
 70
     1
102
RTVSPropertyOp5
 70
     1
102
RTVSPropertyOp6
 70
     1
102
RTVSPropertyOp7
 70
     1
102
RTVSPropertyOp8
 70
     1
102
RTVSPropertyOp9
 70
     1
102
RTVSPropertyOp10
 70
     1
102
RTVSPropertyOp11
 70
     1
102
RTVSPropertyOp12
 70
     1
102
RTVSPropertyOp13
 70
     1
102
RTVSPropertyOp14
 70
     1
102
RTVSPropertyOp15
 70
     1
102
RTVSPropertyOp16
 70
     1
102
RTVSPropertyOp17
 70
     1
102
RTVSPropertyOp18
 70
     1
102
RTVSPropertyOp19
 70
     1
102
RTVSPropertyOp20
 70
     1
102
RTVSPropertyOp21
 70
     1
102
RTVSPropertyOp22
 70
     1
102
RTVSPropertyOp23
 70
     1
102
RTVSPropertyOp24
 70
     1
102
RTVSPropertyOp25
 70
     1
102
RTVSPropertyOp26
 70
     1
102
RTVSPropertyOp27
 70
     1
102
RTVSPropertyOp28
 70
     1
102
RTVSPropertyOp29
 70
     1
102
RTVSPropertyOp30
 70
     1
102
RTVSPropertyOp31
 70
     1
102
RTVSPropertyOp32
 70
     1
102
RTVSPropertyOp33
 70
     1
102
RTVSPropertyOp34
 70
     1
102
RTVSPropertyOp35
 70
     1
102
RTVSPropertyOp36
 70
     1
102
RTVSPropertyOp37
 70
     1
102
RTVSPropertyOp38
 70
     1
102
RTVSPropertyOp39
 70
     1
102
RTVSPropertyOp40
 70
     1
102
RTVSPropertyOp41
 70
     1
102
RTVSPropertyOp42
 70
     1
102
RTVSPropertyOp43
 70
     1
102
RTVSPropertyOp44
 70
     1
102
RTVSPropertyOp45
 70
     1
102
RTVSPropertyOp46
 70
     1
102
RTVSPropertyOp47
 70
     1
102
RTVSPropertyOp48
 70
     1
102
RTVSPropertyOp49
 70
     1
102
RTVSPropertyOp50
 70
     1
102
RTVSPropertyOp51
 70
     0
102
RTVSPropertyOp52
 70
     0
102
RTVSPropertyOp53
 70
     1
102
RTVSPropertyOp54
 70
     1
102
RTVSPropertyOp55
 70
     1
102
RTVSPropertyOp56
 70
     1
102
RTVSPropertyOp57
 70
     1
102
RTVSPropertyOp58
 70
     1
102
RTVSPropertyOp59
 70
     1
102
RTVSPropertyOp60
 70
     1
102
RTVSPropertyOp61
 70
     1
102
RTVSPropertyOp62
 70
     1
  0
XRECORD
  5
8EF5
102
{ACAD_REACTORS
330
8EF4
102
}
330
8EF4
100
AcDbXrecord
280
     1
102
RTVSPost2010Prop28
280
     0
102
RTVSPost2010PropOp28
 70
     1
102
RTVSPost2010Prop29
280
     1
102
RTVSPost2010PropOp29
 70
     1
102
RTVSPost2010Prop30
280
     1
102
RTVSPost2010PropOp30
 70
     1
102
RTVSPost2010Prop31
280
     0
102
RTVSPost2010PropOp31
 70
     1
102
RTVSPost2010Prop32
280
     0
102
RTVSPost2010PropOp32
 70
     1
102
RTVSPost2010Prop33
280
     0
102
RTVSPost2010PropOp33
 70
     1
102
RTVSPost2010Prop34
280
     0
102
RTVSPost2010PropOp34
 70
     1
102
RTVSPost2010Prop35
280
     0
102
RTVSPost2010PropOp35
 70
     1
102
RTVSPost2010Prop36
280
     0
102
RTVSPost2010PropOp36
 70
     1
102
RTVSPost2010Prop37
 90
       50
102
RTVSPost2010PropOp37
 70
     1
102
RTVSPost2010Prop38
140
0.0
102
RTVSPost2010PropOp38
 70
     1
102
RTVSPost2010Prop39
140
1.0
102
RTVSPost2010PropOp39
 70
     1
102
RTVSPost2010Prop40
 90
        0
102
RTVSPost2010PropOp40
 70
     1
102
RTVSPost2010Prop41ColorIndex
 90
       18
102
RTVSPost2010Prop41ColorRGB
 90
        0
102
RTVSPost2010PropOp41
 70
     1
102
RTVSPost2010Prop42
 90
       50
102
RTVSPost2010PropOp42
 70
     1
102
RTVSPost2010Prop43
 90
        3
102
RTVSPost2010PropOp43
 70
     1
102
RTVSPost2010Prop44ColorIndex
 90
        5
102
RTVSPost2010Prop44ColorRGB
 90
      255
102
RTVSPost2010PropOp44
 70
     1
102
RTVSPost2010Prop45
280
     0
102
RTVSPost2010PropOp45
 70
     1
102
RTVSPost2010Prop46
 90
       50
102
RTVSPost2010PropOp46
 70
     1
102
RTVSPost2010Prop47
 90
       50
102
RTVSPost2010PropOp47
 70
     1
102
RTVSPost2010Prop48
 90
       50
102
RTVSPost2010PropOp48
 70
     1
102
RTVSPost2010Prop49
280
     0
102
RTVSPost2010PropOp49
 70
     1
102
RTVSPost2010Prop50
 90
       50
102
RTVSPost2010PropOp50
 70
     1
102
RTVSPost2010Prop51ColorIndex
 90
      256
102
RTVSPost2010Prop51ColorRGB
 90
-16777216
102
RTVSPost2010PropOp51
 70
     0
102
RTVSPost2010Prop52
140
1.0
102
RTVSPost2010PropOp52
 70
     0
102
RTVSPost2010Prop53
 90
        2
102
RTVSPost2010PropOp53
 70
     1
102
RTVSPost2010Prop54
  1
strokes_ogs.tif
102
RTVSPost2010PropOp54
 70
     1
102
RTVSPost2010Prop55
280
     0
102
RTVSPost2010PropOp55
 70
     1
102
RTVSPost2010Prop56
140
1.0
102
RTVSPost2010PropOp56
 70
     1
102
RTVSPost2010Prop57
140
1.0
102
RTVSPost2010PropOp57
 70
     1
102
RTVSPropertyOp0
 70
     1
102
RTVSPropertyOp1
 70
     1
102
RTVSPropertyOp2
 70
     1
102
RTVSPropertyOp3
 70
     1
102
RTVSPropertyOp4
 70
     1
102
RTVSPropertyOp5
 70
     1
102
RTVSPropertyOp6
 70
     1
102
RTVSPropertyOp7
 70
     1
102
RTVSPropertyOp8
 70
     1
102
RTVSPropertyOp9
 70
     1
102
RTVSPropertyOp10
 70
     1
102
RTVSPropertyOp11
 70
     1
102
RTVSPropertyOp12
 70
     1
102
RTVSPropertyOp13
 70
     1
102
RTVSPropertyOp14
 70
     1
102
RTVSPropertyOp15
 70
     1
102
RTVSPropertyOp16
 70
     1
102
RTVSPropertyOp17
 70
     1
102
RTVSPropertyOp18
 70
     1
102
RTVSPropertyOp19
 70
     1
102
RTVSPropertyOp20
 70
     1
102
RTVSPropertyOp21
 70
     1
102
RTVSPropertyOp22
 70
     1
102
RTVSPropertyOp23
 70
     1
102
RTVSPropertyOp24
 70
     1
102
RTVSPropertyOp25
 70
     1
102
RTVSPropertyOp26
 70
     1
102
RTVSPropertyOp27
 70
     1
102
RTVSPropertyOp28
 70
     1
102
RTVSPropertyOp29
 70
     1
102
RTVSPropertyOp30
 70
     1
102
RTVSPropertyOp31
 70
     1
102
RTVSPropertyOp32
 70
     1
102
RTVSPropertyOp33
 70
     1
102
RTVSPropertyOp34
 70
     1
102
RTVSPropertyOp35
 70
     1
102
RTVSPropertyOp36
 70
     1
102
RTVSPropertyOp37
 70
     1
102
RTVSPropertyOp38
 70
     1
102
RTVSPropertyOp39
 70
     1
102
RTVSPropertyOp40
 70
     1
102
RTVSPropertyOp41
 70
     1
102
RTVSPropertyOp42
 70
     1
102
RTVSPropertyOp43
 70
     1
102
RTVSPropertyOp44
 70
     1
102
RTVSPropertyOp45
 70
     1
102
RTVSPropertyOp46
 70
     1
102
RTVSPropertyOp47
 70
     1
102
RTVSPropertyOp48
 70
     1
102
RTVSPropertyOp49
 70
     1
102
RTVSPropertyOp50
 70
     1
102
RTVSPropertyOp51
 70
     0
102
RTVSPropertyOp52
 70
     0
102
RTVSPropertyOp53
 70
     1
102
RTVSPropertyOp54
 70
     1
102
RTVSPropertyOp55
 70
     1
102
RTVSPropertyOp56
 70
     1
102
RTVSPropertyOp57
 70
     1
102
RTVSPropertyOp58
 70
     1
102
RTVSPropertyOp59
 70
     1
102
RTVSPropertyOp60
 70
     1
102
RTVSPropertyOp61
 70
     1
102
RTVSPropertyOp62
 70
     1
  0
XRECORD
  5
8EF7
102
{ACAD_REACTORS
330
8EF6
102
}
330
8EF6
100
AcDbXrecord
280
     1
102
RTVSPost2010Prop28
280
     0
102
RTVSPost2010PropOp28
 70
     1
102
RTVSPost2010Prop29
280
     1
102
RTVSPost2010PropOp29
 70
     1
102
RTVSPost2010Prop30
280
     1
102
RTVSPost2010PropOp30
 70
     1
102
RTVSPost2010Prop31
280
     0
102
RTVSPost2010PropOp31
 70
     1
102
RTVSPost2010Prop32
280
     0
102
RTVSPost2010PropOp32
 70
     1
102
RTVSPost2010Prop33
280
     0
102
RTVSPost2010PropOp33
 70
     1
102
RTVSPost2010Prop34
280
     0
102
RTVSPost2010PropOp34
 70
     1
102
RTVSPost2010Prop35
280
     0
102
RTVSPost2010PropOp35
 70
     1
102
RTVSPost2010Prop36
280
     0
102
RTVSPost2010PropOp36
 70
     1
102
RTVSPost2010Prop37
 90
       50
102
RTVSPost2010PropOp37
 70
     1
102
RTVSPost2010Prop38
140
0.0
102
RTVSPost2010PropOp38
 70
     1
102
RTVSPost2010Prop39
140
1.0
102
RTVSPost2010PropOp39
 70
     1
102
RTVSPost2010Prop40
 90
        0
102
RTVSPost2010PropOp40
 70
     1
102
RTVSPost2010Prop41ColorIndex
 90
       18
102
RTVSPost2010Prop41ColorRGB
 90
        0
102
RTVSPost2010PropOp41
 70
     1
102
RTVSPost2010Prop42
 90
       50
102
RTVSPost2010PropOp42
 70
     1
102
RTVSPost2010Prop43
 90
        3
102
RTVSPost2010PropOp43
 70
     1
102
RTVSPost2010Prop44ColorIndex
 90
        5
102
RTVSPost2010Prop44ColorRGB
 90
      255
102
RTVSPost2010PropOp44
 70
     1
102
RTVSPost2010Prop45
280
     0
102
RTVSPost2010PropOp45
 70
     1
102
RTVSPost2010Prop46
 90
       50
102
RTVSPost2010PropOp46
 70
     1
102
RTVSPost2010Prop47
 90
       50
102
RTVSPost2010PropOp47
 70
     1
102
RTVSPost2010Prop48
 90
       50
102
RTVSPost2010PropOp48
 70
     1
102
RTVSPost2010Prop49
280
     0
102
RTVSPost2010PropOp49
 70
     1
102
RTVSPost2010Prop50
 90
       50
102
RTVSPost2010PropOp50
 70
     1
102
RTVSPost2010Prop51ColorIndex
 90
      256
102
RTVSPost2010Prop51ColorRGB
 90
-16777216
102
RTVSPost2010PropOp51
 70
     0
102
RTVSPost2010Prop52
140
1.0
102
RTVSPost2010PropOp52
 70
     0
102
RTVSPost2010Prop53
 90
        2
102
RTVSPost2010PropOp53
 70
     1
102
RTVSPost2010Prop54
  1
strokes_ogs.tif
102
RTVSPost2010PropOp54
 70
     1
102
RTVSPost2010Prop55
280
     0
102
RTVSPost2010PropOp55
 70
     1
102
RTVSPost2010Prop56
140
1.0
102
RTVSPost2010PropOp56
 70
     1
102
RTVSPost2010Prop57
140
1.0
102
RTVSPost2010PropOp57
 70
     1
102
RTVSPropertyOp0
 70
     1
102
RTVSPropertyOp1
 70
     1
102
RTVSPropertyOp2
 70
     1
102
RTVSPropertyOp3
 70
     1
102
RTVSPropertyOp4
 70
     1
102
RTVSPropertyOp5
 70
     1
102
RTVSPropertyOp6
 70
     1
102
RTVSPropertyOp7
 70
     1
102
RTVSPropertyOp8
 70
     1
102
RTVSPropertyOp9
 70
     1
102
RTVSPropertyOp10
 70
     1
102
RTVSPropertyOp11
 70
     1
102
RTVSPropertyOp12
 70
     1
102
RTVSPropertyOp13
 70
     1
102
RTVSPropertyOp14
 70
     1
102
RTVSPropertyOp15
 70
     1
102
RTVSPropertyOp16
 70
     1
102
RTVSPropertyOp17
 70
     1
102
RTVSPropertyOp18
 70
     1
102
RTVSPropertyOp19
 70
     1
102
RTVSPropertyOp20
 70
     1
102
RTVSPropertyOp21
 70
     1
102
RTVSPropertyOp22
 70
     1
102
RTVSPropertyOp23
 70
     1
102
RTVSPropertyOp24
 70
     1
102
RTVSPropertyOp25
 70
     1
102
RTVSPropertyOp26
 70
     1
102
RTVSPropertyOp27
 70
     1
102
RTVSPropertyOp28
 70
     1
102
RTVSPropertyOp29
 70
     1
102
RTVSPropertyOp30
 70
     1
102
RTVSPropertyOp31
 70
     1
102
RTVSPropertyOp32
 70
     1
102
RTVSPropertyOp33
 70
     1
102
RTVSPropertyOp34
 70
     1
102
RTVSPropertyOp35
 70
     1
102
RTVSPropertyOp36
 70
     1
102
RTVSPropertyOp37
 70
     1
102
RTVSPropertyOp38
 70
     1
102
RTVSPropertyOp39
 70
     1
102
RTVSPropertyOp40
 70
     1
102
RTVSPropertyOp41
 70
     1
102
RTVSPropertyOp42
 70
     1
102
RTVSPropertyOp43
 70
     1
102
RTVSPropertyOp44
 70
     1
102
RTVSPropertyOp45
 70
     1
102
RTVSPropertyOp46
 70
     1
102
RTVSPropertyOp47
 70
     1
102
RTVSPropertyOp48
 70
     1
102
RTVSPropertyOp49
 70
     1
102
RTVSPropertyOp50
 70
     1
102
RTVSPropertyOp51
 70
     0
102
RTVSPropertyOp52
 70
     0
102
RTVSPropertyOp53
 70
     1
102
RTVSPropertyOp54
 70
     1
102
RTVSPropertyOp55
 70
     1
102
RTVSPropertyOp56
 70
     1
102
RTVSPropertyOp57
 70
     1
102
RTVSPropertyOp58
 70
     1
102
RTVSPropertyOp59
 70
     1
102
RTVSPropertyOp60
 70
     1
102
RTVSPropertyOp61
 70
     1
102
RTVSPropertyOp62
 70
     1
  0
XRECORD
  5
8EE5
102
{ACAD_REACTORS
330
8EE4
102
}
330
8EE4
100
AcDbXrecord
280
     1
102
RTVSPost2010Prop28
280
     0
102
RTVSPost2010PropOp28
 70
     1
102
RTVSPost2010Prop29
280
     1
102
RTVSPost2010PropOp29
 70
     1
102
RTVSPost2010Prop30
280
     1
102
RTVSPost2010PropOp30
 70
     1
102
RTVSPost2010Prop31
280
     0
102
RTVSPost2010PropOp31
 70
     1
102
RTVSPost2010Prop32
280
     0
102
RTVSPost2010PropOp32
 70
     1
102
RTVSPost2010Prop33
280
     0
102
RTVSPost2010PropOp33
 70
     1
102
RTVSPost2010Prop34
280
     0
102
RTVSPost2010PropOp34
 70
     1
102
RTVSPost2010Prop35
280
     0
102
RTVSPost2010PropOp35
 70
     1
102
RTVSPost2010Prop36
280
     0
102
RTVSPost2010PropOp36
 70
     1
102
RTVSPost2010Prop37
 90
       50
102
RTVSPost2010PropOp37
 70
     1
102
RTVSPost2010Prop38
140
0.0
102
RTVSPost2010PropOp38
 70
     1
102
RTVSPost2010Prop39
140
1.0
102
RTVSPost2010PropOp39
 70
     1
102
RTVSPost2010Prop40
 90
        0
102
RTVSPost2010PropOp40
 70
     1
102
RTVSPost2010Prop41ColorIndex
 90
       18
102
RTVSPost2010Prop41ColorRGB
 90
        0
102
RTVSPost2010PropOp41
 70
     1
102
RTVSPost2010Prop42
 90
       50
102
RTVSPost2010PropOp42
 70
     1
102
RTVSPost2010Prop43
 90
        3
102
RTVSPost2010PropOp43
 70
     1
102
RTVSPost2010Prop44ColorIndex
 90
        5
102
RTVSPost2010Prop44ColorRGB
 90
      255
102
RTVSPost2010PropOp44
 70
     1
102
RTVSPost2010Prop45
280
     0
102
RTVSPost2010PropOp45
 70
     1
102
RTVSPost2010Prop46
 90
       50
102
RTVSPost2010PropOp46
 70
     1
102
RTVSPost2010Prop47
 90
       50
102
RTVSPost2010PropOp47
 70
     1
102
RTVSPost2010Prop48
 90
       50
102
RTVSPost2010PropOp48
 70
     1
102
RTVSPost2010Prop49
280
     0
102
RTVSPost2010PropOp49
 70
     1
102
RTVSPost2010Prop50
 90
       50
102
RTVSPost2010PropOp50
 70
     1
102
RTVSPost2010Prop51ColorIndex
 90
      256
102
RTVSPost2010Prop51ColorRGB
 90
-16777216
102
RTVSPost2010PropOp51
 70
     0
102
RTVSPost2010Prop52
140
1.0
102
RTVSPost2010PropOp52
 70
     0
102
RTVSPost2010Prop53
 90
        2
102
RTVSPost2010PropOp53
 70
     1
102
RTVSPost2010Prop54
  1
strokes_ogs.tif
102
RTVSPost2010PropOp54
 70
     1
102
RTVSPost2010Prop55
280
     0
102
RTVSPost2010PropOp55
 70
     1
102
RTVSPost2010Prop56
140
1.0
102
RTVSPost2010PropOp56
 70
     1
102
RTVSPost2010Prop57
140
1.0
102
RTVSPost2010PropOp57
 70
     1
102
RTVSPropertyOp0
 70
     1
102
RTVSPropertyOp1
 70
     1
102
RTVSPropertyOp2
 70
     1
102
RTVSPropertyOp3
 70
     1
102
RTVSPropertyOp4
 70
     1
102
RTVSPropertyOp5
 70
     1
102
RTVSPropertyOp6
 70
     1
102
RTVSPropertyOp7
 70
     1
102
RTVSPropertyOp8
 70
     1
102
RTVSPropertyOp9
 70
     1
102
RTVSPropertyOp10
 70
     1
102
RTVSPropertyOp11
 70
     1
102
RTVSPropertyOp12
 70
     1
102
RTVSPropertyOp13
 70
     1
102
RTVSPropertyOp14
 70
     1
102
RTVSPropertyOp15
 70
     1
102
RTVSPropertyOp16
 70
     1
102
RTVSPropertyOp17
 70
     1
102
RTVSPropertyOp18
 70
     1
102
RTVSPropertyOp19
 70
     1
102
RTVSPropertyOp20
 70
     1
102
RTVSPropertyOp21
 70
     1
102
RTVSPropertyOp22
 70
     1
102
RTVSPropertyOp23
 70
     1
102
RTVSPropertyOp24
 70
     1
102
RTVSPropertyOp25
 70
     1
102
RTVSPropertyOp26
 70
     1
102
RTVSPropertyOp27
 70
     1
102
RTVSPropertyOp28
 70
     1
102
RTVSPropertyOp29
 70
     1
102
RTVSPropertyOp30
 70
     1
102
RTVSPropertyOp31
 70
     1
102
RTVSPropertyOp32
 70
     1
102
RTVSPropertyOp33
 70
     1
102
RTVSPropertyOp34
 70
     1
102
RTVSPropertyOp35
 70
     1
102
RTVSPropertyOp36
 70
     1
102
RTVSPropertyOp37
 70
     1
102
RTVSPropertyOp38
 70
     1
102
RTVSPropertyOp39
 70
     1
102
RTVSPropertyOp40
 70
     1
102
RTVSPropertyOp41
 70
     1
102
RTVSPropertyOp42
 70
     1
102
RTVSPropertyOp43
 70
     1
102
RTVSPropertyOp44
 70
     1
102
RTVSPropertyOp45
 70
     1
102
RTVSPropertyOp46
 70
     1
102
RTVSPropertyOp47
 70
     1
102
RTVSPropertyOp48
 70
     1
102
RTVSPropertyOp49
 70
     1
102
RTVSPropertyOp50
 70
     1
102
RTVSPropertyOp51
 70
     0
102
RTVSPropertyOp52
 70
     0
102
RTVSPropertyOp53
 70
     1
102
RTVSPropertyOp54
 70
     1
102
RTVSPropertyOp55
 70
     1
102
RTVSPropertyOp56
 70
     1
102
RTVSPropertyOp57
 70
     1
102
RTVSPropertyOp58
 70
     1
102
RTVSPropertyOp59
 70
     1
102
RTVSPropertyOp60
 70
     1
102
RTVSPropertyOp61
 70
     1
102
RTVSPropertyOp62
 70
     1
  0
XRECORD
  5
8ED9
102
{ACAD_REACTORS
330
8ED8
102
}
330
8ED8
100
AcDbXrecord
280
     1
102
RTVSPost2010Prop28
280
     0
102
RTVSPost2010PropOp28
 70
     1
102
RTVSPost2010Prop29
280
     1
102
RTVSPost2010PropOp29
 70
     1
102
RTVSPost2010Prop30
280
     1
102
RTVSPost2010PropOp30
 70
     1
102
RTVSPost2010Prop31
280
     0
102
RTVSPost2010PropOp31
 70
     1
102
RTVSPost2010Prop32
280
     0
102
RTVSPost2010PropOp32
 70
     1
102
RTVSPost2010Prop33
280
     0
102
RTVSPost2010PropOp33
 70
     1
102
RTVSPost2010Prop34
280
     0
102
RTVSPost2010PropOp34
 70
     1
102
RTVSPost2010Prop35
280
     0
102
RTVSPost2010PropOp35
 70
     1
102
RTVSPost2010Prop36
280
     0
102
RTVSPost2010PropOp36
 70
     1
102
RTVSPost2010Prop37
 90
       50
102
RTVSPost2010PropOp37
 70
     1
102
RTVSPost2010Prop38
140
0.0
102
RTVSPost2010PropOp38
 70
     1
102
RTVSPost2010Prop39
140
1.0
102
RTVSPost2010PropOp39
 70
     1
102
RTVSPost2010Prop40
 90
        0
102
RTVSPost2010PropOp40
 70
     1
102
RTVSPost2010Prop41ColorIndex
 90
       18
102
RTVSPost2010Prop41ColorRGB
 90
        0
102
RTVSPost2010PropOp41
 70
     1
102
RTVSPost2010Prop42
 90
       50
102
RTVSPost2010PropOp42
 70
     1
102
RTVSPost2010Prop43
 90
        3
102
RTVSPost2010PropOp43
 70
     1
102
RTVSPost2010Prop44ColorIndex
 90
        5
102
RTVSPost2010Prop44ColorRGB
 90
      255
102
RTVSPost2010PropOp44
 70
     1
102
RTVSPost2010Prop45
280
     0
102
RTVSPost2010PropOp45
 70
     1
102
RTVSPost2010Prop46
 90
       50
102
RTVSPost2010PropOp46
 70
     1
102
RTVSPost2010Prop47
 90
       50
102
RTVSPost2010PropOp47
 70
     1
102
RTVSPost2010Prop48
 90
       50
102
RTVSPost2010PropOp48
 70
     1
102
RTVSPost2010Prop49
280
     0
102
RTVSPost2010PropOp49
 70
     1
102
RTVSPost2010Prop50
 90
       50
102
RTVSPost2010PropOp50
 70
     1
102
RTVSPost2010Prop51ColorIndex
 90
      256
102
RTVSPost2010Prop51ColorRGB
 90
-16777216
102
RTVSPost2010PropOp51
 70
     0
102
RTVSPost2010Prop52
140
1.0
102
RTVSPost2010PropOp52
 70
     0
102
RTVSPost2010Prop53
 90
        2
102
RTVSPost2010PropOp53
 70
     1
102
RTVSPost2010Prop54
  1
strokes_ogs.tif
102
RTVSPost2010PropOp54
 70
     1
102
RTVSPost2010Prop55
280
     0
102
RTVSPost2010PropOp55
 70
     1
102
RTVSPost2010Prop56
140
1.0
102
RTVSPost2010PropOp56
 70
     1
102
RTVSPost2010Prop57
140
1.0
102
RTVSPost2010PropOp57
 70
     1
102
RTVSPropertyOp0
 70
     1
102
RTVSPropertyOp1
 70
     1
102
RTVSPropertyOp2
 70
     1
102
RTVSPropertyOp3
 70
     1
102
RTVSPropertyOp4
 70
     1
102
RTVSPropertyOp5
 70
     1
102
RTVSPropertyOp6
 70
     1
102
RTVSPropertyOp7
 70
     1
102
RTVSPropertyOp8
 70
     1
102
RTVSPropertyOp9
 70
     1
102
RTVSPropertyOp10
 70
     1
102
RTVSPropertyOp11
 70
     1
102
RTVSPropertyOp12
 70
     1
102
RTVSPropertyOp13
 70
     1
102
RTVSPropertyOp14
 70
     1
102
RTVSPropertyOp15
 70
     1
102
RTVSPropertyOp16
 70
     1
102
RTVSPropertyOp17
 70
     1
102
RTVSPropertyOp18
 70
     1
102
RTVSPropertyOp19
 70
     1
102
RTVSPropertyOp20
 70
     1
102
RTVSPropertyOp21
 70
     1
102
RTVSPropertyOp22
 70
     1
102
RTVSPropertyOp23
 70
     1
102
RTVSPropertyOp24
 70
     1
102
RTVSPropertyOp25
 70
     1
102
RTVSPropertyOp26
 70
     1
102
RTVSPropertyOp27
 70
     1
102
RTVSPropertyOp28
 70
     1
102
RTVSPropertyOp29
 70
     1
102
RTVSPropertyOp30
 70
     1
102
RTVSPropertyOp31
 70
     1
102
RTVSPropertyOp32
 70
     1
102
RTVSPropertyOp33
 70
     1
102
RTVSPropertyOp34
 70
     1
102
RTVSPropertyOp35
 70
     1
102
RTVSPropertyOp36
 70
     1
102
RTVSPropertyOp37
 70
     1
102
RTVSPropertyOp38
 70
     1
102
RTVSPropertyOp39
 70
     1
102
RTVSPropertyOp40
 70
     1
102
RTVSPropertyOp41
 70
     1
102
RTVSPropertyOp42
 70
     1
102
RTVSPropertyOp43
 70
     1
102
RTVSPropertyOp44
 70
     1
102
RTVSPropertyOp45
 70
     1
102
RTVSPropertyOp46
 70
     1
102
RTVSPropertyOp47
 70
     1
102
RTVSPropertyOp48
 70
     1
102
RTVSPropertyOp49
 70
     1
102
RTVSPropertyOp50
 70
     1
102
RTVSPropertyOp51
 70
     0
102
RTVSPropertyOp52
 70
     0
102
RTVSPropertyOp53
 70
     1
102
RTVSPropertyOp54
 70
     1
102
RTVSPropertyOp55
 70
     1
102
RTVSPropertyOp56
 70
     1
102
RTVSPropertyOp57
 70
     1
102
RTVSPropertyOp58
 70
     1
102
RTVSPropertyOp59
 70
     1
102
RTVSPropertyOp60
 70
     1
102
RTVSPropertyOp61
 70
     1
102
RTVSPropertyOp62
 70
     1
  0
XRECORD
  5
8EF9
102
{ACAD_REACTORS
330
8EF8
102
}
330
8EF8
100
AcDbXrecord
280
     1
102
RTVSPost2010Prop28
280
     0
102
RTVSPost2010PropOp28
 70
     1
102
RTVSPost2010Prop29
280
     1
102
RTVSPost2010PropOp29
 70
     1
102
RTVSPost2010Prop30
280
     1
102
RTVSPost2010PropOp30
 70
     1
102
RTVSPost2010Prop31
280
     0
102
RTVSPost2010PropOp31
 70
     1
102
RTVSPost2010Prop32
280
     0
102
RTVSPost2010PropOp32
 70
     1
102
RTVSPost2010Prop33
280
     0
102
RTVSPost2010PropOp33
 70
     1
102
RTVSPost2010Prop34
280
     0
102
RTVSPost2010PropOp34
 70
     1
102
RTVSPost2010Prop35
280
     0
102
RTVSPost2010PropOp35
 70
     1
102
RTVSPost2010Prop36
280
     0
102
RTVSPost2010PropOp36
 70
     1
102
RTVSPost2010Prop37
 90
       50
102
RTVSPost2010PropOp37
 70
     1
102
RTVSPost2010Prop38
140
0.0
102
RTVSPost2010PropOp38
 70
     1
102
RTVSPost2010Prop39
140
1.0
102
RTVSPost2010PropOp39
 70
     1
102
RTVSPost2010Prop40
 90
        0
102
RTVSPost2010PropOp40
 70
     1
102
RTVSPost2010Prop41ColorIndex
 90
       18
102
RTVSPost2010Prop41ColorRGB
 90
        0
102
RTVSPost2010PropOp41
 70
     1
102
RTVSPost2010Prop42
 90
       50
102
RTVSPost2010PropOp42
 70
     1
102
RTVSPost2010Prop43
 90
        3
102
RTVSPost2010PropOp43
 70
     1
102
RTVSPost2010Prop44ColorIndex
 90
        5
102
RTVSPost2010Prop44ColorRGB
 90
      255
102
RTVSPost2010PropOp44
 70
     1
102
RTVSPost2010Prop45
280
     0
102
RTVSPost2010PropOp45
 70
     1
102
RTVSPost2010Prop46
 90
       50
102
RTVSPost2010PropOp46
 70
     1
102
RTVSPost2010Prop47
 90
       50
102
RTVSPost2010PropOp47
 70
     1
102
RTVSPost2010Prop48
 90
       50
102
RTVSPost2010PropOp48
 70
     1
102
RTVSPost2010Prop49
280
     0
102
RTVSPost2010PropOp49
 70
     1
102
RTVSPost2010Prop50
 90
       50
102
RTVSPost2010PropOp50
 70
     1
102
RTVSPost2010Prop51ColorIndex
 90
      256
102
RTVSPost2010Prop51ColorRGB
 90
-16777216
102
RTVSPost2010PropOp51
 70
     0
102
RTVSPost2010Prop52
140
1.0
102
RTVSPost2010PropOp52
 70
     0
102
RTVSPost2010Prop53
 90
        2
102
RTVSPost2010PropOp53
 70
     1
102
RTVSPost2010Prop54
  1
strokes_ogs.tif
102
RTVSPost2010PropOp54
 70
     1
102
RTVSPost2010Prop55
280
     0
102
RTVSPost2010PropOp55
 70
     1
102
RTVSPost2010Prop56
140
1.0
102
RTVSPost2010PropOp56
 70
     1
102
RTVSPost2010Prop57
140
1.0
102
RTVSPost2010PropOp57
 70
     1
102
RTVSPropertyOp0
 70
     1
102
RTVSPropertyOp1
 70
     1
102
RTVSPropertyOp2
 70
     1
102
RTVSPropertyOp3
 70
     1
102
RTVSPropertyOp4
 70
     1
102
RTVSPropertyOp5
 70
     1
102
RTVSPropertyOp6
 70
     1
102
RTVSPropertyOp7
 70
     1
102
RTVSPropertyOp8
 70
     1
102
RTVSPropertyOp9
 70
     1
102
RTVSPropertyOp10
 70
     1
102
RTVSPropertyOp11
 70
     1
102
RTVSPropertyOp12
 70
     1
102
RTVSPropertyOp13
 70
     1
102
RTVSPropertyOp14
 70
     1
102
RTVSPropertyOp15
 70
     1
102
RTVSPropertyOp16
 70
     1
102
RTVSPropertyOp17
 70
     1
102
RTVSPropertyOp18
 70
     1
102
RTVSPropertyOp19
 70
     1
102
RTVSPropertyOp20
 70
     1
102
RTVSPropertyOp21
 70
     1
102
RTVSPropertyOp22
 70
     1
102
RTVSPropertyOp23
 70
     1
102
RTVSPropertyOp24
 70
     1
102
RTVSPropertyOp25
 70
     1
102
RTVSPropertyOp26
 70
     1
102
RTVSPropertyOp27
 70
     1
102
RTVSPropertyOp28
 70
     1
102
RTVSPropertyOp29
 70
     1
102
RTVSPropertyOp30
 70
     1
102
RTVSPropertyOp31
 70
     1
102
RTVSPropertyOp32
 70
     1
102
RTVSPropertyOp33
 70
     1
102
RTVSPropertyOp34
 70
     1
102
RTVSPropertyOp35
 70
     1
102
RTVSPropertyOp36
 70
     1
102
RTVSPropertyOp37
 70
     1
102
RTVSPropertyOp38
 70
     1
102
RTVSPropertyOp39
 70
     1
102
RTVSPropertyOp40
 70
     1
102
RTVSPropertyOp41
 70
     1
102
RTVSPropertyOp42
 70
     1
102
RTVSPropertyOp43
 70
     1
102
RTVSPropertyOp44
 70
     1
102
RTVSPropertyOp45
 70
     1
102
RTVSPropertyOp46
 70
     1
102
RTVSPropertyOp47
 70
     1
102
RTVSPropertyOp48
 70
     1
102
RTVSPropertyOp49
 70
     1
102
RTVSPropertyOp50
 70
     1
102
RTVSPropertyOp51
 70
     0
102
RTVSPropertyOp52
 70
     0
102
RTVSPropertyOp53
 70
     1
102
RTVSPropertyOp54
 70
     1
102
RTVSPropertyOp55
 70
     1
102
RTVSPropertyOp56
 70
     1
102
RTVSPropertyOp57
 70
     1
102
RTVSPropertyOp58
 70
     1
102
RTVSPropertyOp59
 70
     1
102
RTVSPropertyOp60
 70
     1
102
RTVSPropertyOp61
 70
     1
102
RTVSPropertyOp62
 70
     1
  0
ENDSEC
  0
EOF
