  0
SECTION
  2
HEADER
  9
$ACADVER
  1
AC1015
  9
$ACADMAINTVER
 70
    18
  9
$DWGCODEPAGE
  3
ANSI_1252
  9
$INSBASE
 10
0.0
 20
0.0
 30
0.0
  9
$EXTMIN
 10
-207.526244380891
 20
-258.3930812743412
 30
-0.0015258207003583
  9
$EXTMAX
 10
258.3535774498639
 20
292.0013587179144
 30
0.0000000349246037
  9
$LIMMIN
 10
0.0
 20
0.0
  9
$LIMMAX
 10
420.0
 20
297.0
  9
$ORTHOMODE
 70
     0
  9
$REGENMODE
 70
     1
  9
$FILLMODE
 70
     1
  9
$QTEXTMODE
 70
     0
  9
$MIRRTEXT
 70
     0
  9
$LTSCALE
 40
1.0
  9
$ATTMODE
 70
     1
  9
$TEXTSIZE
 40
2.5
  9
$TRACEWID
 40
1.0
  9
$TEXTSTYLE
  7
Standard
  9
$CLAYER
  8
0
  9
$CELTYPE
  6
ByLayer
  9
$CECOLOR
 62
   256
  9
$CELTSCALE
 40
1.0
  9
$DISPSILH
 70
     0
  9
$DIMSCALE
 40
1.0
  9
$DIMASZ
 40
2.5
  9
$DIMEXO
 40
0.625
  9
$DIMDLI
 40
3.75
  9
$DIMRND
 40
0.0
  9
$DIMDLE
 40
0.0
  9
$DIMEXE
 40
1.25
  9
$DIMTP
 40
0.0
  9
$DIMTM
 40
0.0
  9
$DIMTXT
 40
2.5
  9
$DIMCEN
 40
2.5
  9
$DIMTSZ
 40
0.0
  9
$DIMTOL
 70
     0
  9
$DIMLIM
 70
     0
  9
$DIMTIH
 70
     0
  9
$DIMTOH
 70
     0
  9
$DIMSE1
 70
     0
  9
$DIMSE2
 70
     0
  9
$DIMTAD
 70
     1
  9
$DIMZIN
 70
     8
  9
$DIMBLK
  1

  9
$DIMASO
 70
     1
  9
$DIMSHO
 70
     1
  9
$DIMPOST
  1

  9
$DIMAPOST
  1

  9
$DIMALT
 70
     0
  9
$DIMALTD
 70
     3
  9
$DIMALTF
 40
0.03937007874016
  9
$DIMLFAC
 40
1.0
  9
$DIMTOFL
 70
     1
  9
$DIMTVP
 40
0.0
  9
$DIMTIX
 70
     0
  9
$DIMSOXD
 70
     0
  9
$DIMSAH
 70
     0
  9
$DIMBLK1
  1

  9
$DIMBLK2
  1

  9
$DIMSTYLE
  2
ISO-25
  9
$DIMCLRD
 70
     0
  9
$DIMCLRE
 70
     0
  9
$DIMCLRT
 70
     0
  9
$DIMTFAC
 40
1.0
  9
$DIMGAP
 40
0.625
  9
$DIMJUST
 70
     0
  9
$DIMSD1
 70
     0
  9
$DIMSD2
 70
     0
  9
$DIMTOLJ
 70
     0
  9
$DIMTZIN
 70
     8
  9
$DIMALTZ
 70
     0
  9
$DIMALTTZ
 70
     0
  9
$DIMUPT
 70
     0
  9
$DIMDEC
 70
     2
  9
$DIMTDEC
 70
     2
  9
$DIMALTU
 70
     2
  9
$DIMALTTD
 70
     3
  9
$DIMTXSTY
  7
Standard
  9
$DIMAUNIT
 70
     0
  9
$DIMADEC
 70
     0
  9
$DIMALTRND
 40
0.0
  9
$DIMAZIN
 70
     0
  9
$DIMDSEP
 70
    44
  9
$DIMATFIT
 70
     3
  9
$DIMFRAC
 70
     0
  9
$DIMLDRBLK
  1

  9
$DIMLUNIT
 70
     2
  9
$DIMLWD
 70
    -2
  9
$DIMLWE
 70
    -2
  9
$DIMTMOVE
 70
     0
  9
$LUNITS
 70
     2
  9
$LUPREC
 70
     4
  9
$SKETCHINC
 40
1.0
  9
$FILLETRAD
 40
0.0
  9
$AUNITS
 70
     0
  9
$AUPREC
 70
     0
  9
$MENU
  1
.
  9
$ELEVATION
 40
0.0
  9
$PELEVATION
 40
0.0
  9
$THICKNESS
 40
0.0
  9
$LIMCHECK
 70
     0
  9
$CHAMFERA
 40
0.0
  9
$CHAMFERB
 40
0.0
  9
$CHAMFERC
 40
0.0
  9
$CHAMFERD
 40
0.0
  9
$SKPOLY
 70
     0
  9
$TDCREATE
 40
2460398.356956019
  9
$TDUCREATE
 40
2460398.065289352
  9
$TDUPDATE
 40
2460398.374768518
  9
$TDUUPDATE
 40
2460398.083101852
  9
$TDINDWG
 40
0.0077777778
  9
$TDUSRTIMER
 40
0.0077777778
  9
$USRTIMER
 70
     1
  9
$ANGBASE
 50
0.0
  9
$ANGDIR
 70
     0
  9
$PDMODE
 70
     0
  9
$PDSIZE
 40
0.0
  9
$PLINEWID
 40
0.0
  9
$SPLFRAME
 70
     0
  9
$SPLINETYPE
 70
     6
  9
$SPLINESEGS
 70
     8
  9
$HANDSEED
  5
9365
  9
$SURFTAB1
 70
     6
  9
$SURFTAB2
 70
     6
  9
$SURFTYPE
 70
     6
  9
$SURFU
 70
     6
  9
$SURFV
 70
     6
  9
$UCSBASE
  2

  9
$UCSNAME
  2

  9
$UCSORG
 10
0.0
 20
0.0
 30
0.0
  9
$UCSXDIR
 10
1.0
 20
0.0
 30
0.0
  9
$UCSYDIR
 10
0.0
 20
1.0
 30
0.0
  9
$UCSORTHOREF
  2

  9
$UCSORTHOVIEW
 70
     0
  9
$UCSORGTOP
 10
0.0
 20
0.0
 30
0.0
  9
$UCSORGBOTTOM
 10
0.0
 20
0.0
 30
0.0
  9
$UCSORGLEFT
 10
0.0
 20
0.0
 30
0.0
  9
$UCSORGRIGHT
 10
0.0
 20
0.0
 30
0.0
  9
$UCSORGFRONT
 10
0.0
 20
0.0
 30
0.0
  9
$UCSORGBACK
 10
0.0
 20
0.0
 30
0.0
  9
$PUCSBASE
  2

  9
$PUCSNAME
  2

  9
$PUCSORG
 10
0.0
 20
0.0
 30
0.0
  9
$PUCSXDIR
 10
1.0
 20
0.0
 30
0.0
  9
$PUCSYDIR
 10
0.0
 20
1.0
 30
0.0
  9
$PUCSORTHOREF
  2

  9
$PUCSORTHOVIEW
 70
     0
  9
$PUCSORGTOP
 10
0.0
 20
0.0
 30
0.0
  9
$PUCSORGBOTTOM
 10
0.0
 20
0.0
 30
0.0
  9
$PUCSORGLEFT
 10
0.0
 20
0.0
 30
0.0
  9
$PUCSORGRIGHT
 10
0.0
 20
0.0
 30
0.0
  9
$PUCSORGFRONT
 10
0.0
 20
0.0
 30
0.0
  9
$PUCSORGBACK
 10
0.0
 20
0.0
 30
0.0
  9
$USERI1
 70
     0
  9
$USERI2
 70
     0
  9
$USERI3
 70
     0
  9
$USERI4
 70
     0
  9
$USERI5
 70
     0
  9
$USERR1
 40
0.0
  9
$USERR2
 40
0.0
  9
$USERR3
 40
0.0
  9
$USERR4
 40
0.0
  9
$USERR5
 40
0.0
  9
$WORLDVIEW
 70
     1
  9
$SHADEDGE
 70
     3
  9
$SHADEDIF
 70
    70
  9
$TILEMODE
 70
     1
  9
$MAXACTVP
 70
    48
  9
$PINSBASE
 10
0.0
 20
0.0
 30
0.0
  9
$PLIMCHECK
 70
     0
  9
$PEXTMIN
 10
0.0
 20
0.0
 30
0.0
  9
$PEXTMAX
 10
0.0
 20
0.0
 30
0.0
  9
$PLIMMIN
 10
0.0
 20
0.0
  9
$PLIMMAX
 10
12.0
 20
9.0
  9
$UNITMODE
 70
     0
  9
$VISRETAIN
 70
     1
  9
$PLINEGEN
 70
     0
  9
$PSLTSCALE
 70
     1
  9
$TREEDEPTH
 70
  3020
  9
$CMLSTYLE
  2
Standard
  9
$CMLJUST
 70
     0
  9
$CMLSCALE
 40
20.0
  9
$PROXYGRAPHICS
 70
     1
  9
$MEASUREMENT
 70
     1
  9
$CELWEIGHT
370
    -1
  9
$ENDCAPS
280
     0
  9
$JOINSTYLE
280
     0
  9
$LWDISPLAY
290
     0
  9
$INSUNITS
 70
     4
  9
$HYPERLINKBASE
  1

  9
$STYLESHEET
  1

  9
$XEDIT
290
     1
  9
$CEPSNTYPE
380
     0
  9
$PSTYLEMODE
290
     1
  9
$FINGERPRINTGUID
  2
{6C1266EE-7BC1-BF4A-B059-A6E7702B10CE}
  9
$VERSIONGUID
  2
{5D137B64-E682-E14A-9E90-BE05B638FE1A}
  9
$EXTNAMES
290
     1
  9
$PSVPSCALE
 40
0.0
  9
$OLESTARTUP
290
     0
  0
ENDSEC
  0
SECTION
  2
CLASSES
  0
CLASS
  1
ACDBDICTIONARYWDFLT
  2
AcDbDictionaryWithDefault
  3
ObjectDBX Classes
 90
        0
280
     0
281
     0
  0
CLASS
  1
ACDBPLACEHOLDER
  2
AcDbPlaceHolder
  3
ObjectDBX Classes
 90
        0
280
     0
281
     0
  0
CLASS
  1
LAYOUT
  2
AcDbLayout
  3
ObjectDBX Classes
 90
        0
280
     0
281
     0
  0
CLASS
  1
DICTIONARYVAR
  2
AcDbDictionaryVar
  3
ObjectDBX Classes
 90
        0
280
     0
281
     0
  0
CLASS
  1
TABLESTYLE
  2
AcDbTableStyle
  3
ObjectDBX Classes
 90
     4095
280
     0
281
     0
  0
CLASS
  1
MATERIAL
  2
AcDbMaterial
  3
ObjectDBX Classes
 90
     1153
280
     0
281
     0
  0
CLASS
  1
VISUALSTYLE
  2
AcDbVisualStyle
  3
ObjectDBX Classes
 90
     4095
280
     0
281
     0
  0
CLASS
  1
SCALE
  2
AcDbScale
  3
ObjectDBX Classes
 90
     1153
280
     0
281
     0
  0
CLASS
  1
MLEADERSTYLE
  2
AcDbMLeaderStyle
  3
ACDB_MLEADERSTYLE_CLASS
 90
     4095
280
     0
281
     0
  0
CLASS
  1
CELLSTYLEMAP
  2
AcDbCellStyleMap
  3
ObjectDBX Classes
 90
     1152
280
     0
281
     0
  0
CLASS
  1
EXACXREFPANELOBJECT
  2
ExAcXREFPanelObject
  3
EXAC_ESW
 90
    33793
280
     0
281
     0
  0
CLASS
  1
NPOCOLLECTION
  2
AcDbImpNonPersistentObjectsCollection
  3
ObjectDBX Classes
 90
    33921
280
     0
281
     0
  0
CLASS
  1
LAYER_INDEX
  2
AcDbLayerIndex
  3
ObjectDBX Classes
 90
    32768
280
     0
281
     0
  0
CLASS
  1
SPATIAL_INDEX
  2
AcDbSpatialIndex
  3
ObjectDBX Classes
 90
    32768
280
     0
281
     0
  0
CLASS
  1
IDBUFFER
  2
AcDbIdBuffer
  3
ObjectDBX Classes
 90
    32768
280
     0
281
     0
  0
CLASS
  1
ACDBSECTIONVIEWSTYLE
  2
AcDbSectionViewStyle
  3
ObjectDBX Classes
 90
     1025
280
     0
281
     0
  0
CLASS
  1
ACDBDETAILVIEWSTYLE
  2
AcDbDetailViewStyle
  3
ObjectDBX Classes
 90
     1025
280
     0
281
     0
  0
CLASS
  1
XRECORD
  2
AcDbXrecord
  3
ObjectDBX Classes
 90
        0
280
     0
281
     0
  0
ENDSEC
  0
SECTION
  2
TABLES
  0
TABLE
  2
VPORT
  5
8
102
{ACAD_XDICTIONARY
360
9273
102
}
330
0
100
AcDbSymbolTable
 70
     1
  0
VPORT
  5
EA
330
8
100
AcDbSymbolTableRecord
100
AcDbViewportTableRecord
  2
*Active
 70
     0
 10
0.0
 20
0.0
 11
1.0
 21
1.0
 12
25.41366653448643
 22
16.80413872178661
 13
0.0
 23
0.0
 14
10.0
 24
10.0
 15
10.0
 25
10.0
 16
0.0
 26
0.0
 36
1.0
 17
0.0
 27
0.0
 37
0.0
 40
585.2946083625207
 41
0.9846153846153844
 42
50.0
 43
0.0
 44
0.0
 50
0.0
 51
0.0
 71
     0
 72
  1000
 73
     1
 74
     3
 75
     0
 76
     1
 77
     0
 78
     0
281
     0
 65
     1
110
0.0
120
0.0
130
0.0
111
1.0
121
0.0
131
0.0
112
0.0
122
1.0
132
0.0
 79
     0
146
0.0
1001
ACAD_NAV_VCDISPLAY
1070
     3
  0
ENDTAB
  0
TABLE
  2
LTYPE
  5
5
330
0
100
AcDbSymbolTable
 70
     1
  0
LTYPE
  5
14
330
5
100
AcDbSymbolTableRecord
100
AcDbLinetypeTableRecord
  2
ByBlock
 70
     0
  3

 72
    65
 73
     0
 40
0.0
  0
LTYPE
  5
15
330
5
100
AcDbSymbolTableRecord
100
AcDbLinetypeTableRecord
  2
ByLayer
 70
     0
  3

 72
    65
 73
     0
 40
0.0
  0
LTYPE
  5
16
330
5
100
AcDbSymbolTableRecord
100
AcDbLinetypeTableRecord
  2
Continuous
 70
     0
  3
Solid line
 72
    65
 73
     0
 40
0.0
  0
ENDTAB
  0
TABLE
  2
LAYER
  5
2
102
{ACAD_XDICTIONARY
360
1FF
102
}
330
0
100
AcDbSymbolTable
 70
     1
  0
LAYER
  5
10
102
{ACAD_XDICTIONARY
360
13C
102
}
330
2
100
AcDbSymbolTableRecord
100
AcDbLayerTableRecord
  2
0
 70
     0
 62
     7
  6
Continuous
370
    -3
390
F
  0
ENDTAB
  0
TABLE
  2
STYLE
  5
3
330
0
100
AcDbSymbolTable
 70
     1
  0
STYLE
  5
11
330
3
100
AcDbSymbolTableRecord
100
AcDbTextStyleTableRecord
  2
Standard
 70
     0
 40
0.0
 41
1.0
 50
0.0
 71
     0
 42
2.5
  3
arial.ttf
  4

1001
ACAD
1000
Arial
1071
       34
  0
ENDTAB
  0
TABLE
  2
VIEW
  5
6
330
0
100
AcDbSymbolTable
 70
     0
  0
ENDTAB
  0
TABLE
  2
UCS
  5
7
330
0
100
AcDbSymbolTable
 70
     0
  0
ENDTAB
  0
TABLE
  2
APPID
  5
9
330
0
100
AcDbSymbolTable
 70
     8
  0
APPID
  5
12
330
9
100
AcDbSymbolTableRecord
100
AcDbRegAppTableRecord
  2
ACAD
 70
     0
  0
APPID
  5
9E
330
9
100
AcDbSymbolTableRecord
100
AcDbRegAppTableRecord
  2
ACAD_PSEXT
 70
     0
  0
APPID
  5
133
330
9
100
AcDbSymbolTableRecord
100
AcDbRegAppTableRecord
  2
AcadAnnoPO
 70
     0
  0
APPID
  5
134
330
9
100
AcDbSymbolTableRecord
100
AcDbRegAppTableRecord
  2
AcadAnnotative
 70
     0
  0
APPID
  5
135
330
9
100
AcDbSymbolTableRecord
100
AcDbRegAppTableRecord
  2
ACAD_DSTYLE_DIMJAG
 70
     0
  0
APPID
  5
136
330
9
100
AcDbSymbolTableRecord
100
AcDbRegAppTableRecord
  2
ACAD_DSTYLE_DIMTALN
 70
     0
  0
APPID
  5
165
330
9
100
AcDbSymbolTableRecord
100
AcDbRegAppTableRecord
  2
ACAD_MLEADERVER
 70
     0
  0
APPID
  5
217
330
9
100
AcDbSymbolTableRecord
100
AcDbRegAppTableRecord
  2
ACAD_NAV_VCDISPLAY
 70
     0
  0
ENDTAB
  0
TABLE
  2
DIMSTYLE
  5
A
330
0
100
AcDbSymbolTable
 70
     1
100
AcDbDimStyleTable
 71
     0
  0
DIMSTYLE
105
27
330
A
100
AcDbSymbolTableRecord
100
AcDbDimStyleTableRecord
  2
ISO-25
 70
     0
 41
2.5
 42
0.625
 43
3.75
 44
1.25
 73
     0
 74
     0
 77
     1
 78
     8
140
2.5
141
2.5
143
0.03937007874016
147
0.625
171
     3
172
     1
271
     2
272
     2
274
     3
278
    44
283
     0
284
     8
340
11
  0
ENDTAB
  0
TABLE
  2
BLOCK_RECORD
  5
1
330
0
100
AcDbSymbolTable
 70
     7
  0
BLOCK_RECORD
  5
1F
102
{ACAD_XDICTIONARY
360
1CE
102
}
330
1
100
AcDbSymbolTableRecord
100
AcDbBlockTableRecord
  2
*Model_Space
340
22
  0
BLOCK_RECORD
  5
D2
102
{ACAD_XDICTIONARY
360
9226
102
}
330
1
100
AcDbSymbolTableRecord
100
AcDbBlockTableRecord
  2
*Paper_Space
340
D3
  0
BLOCK_RECORD
  5
D6
102
{ACAD_XDICTIONARY
360
9228
102
}
330
1
100
AcDbSymbolTableRecord
100
AcDbBlockTableRecord
  2
*Paper_Space0
340
D7
  0
BLOCK_RECORD
  5
90A5
330
1
100
AcDbSymbolTableRecord
100
AcDbBlockTableRecord
  2
SAE380_64_2-Front
340
0
102
{BLKREFS
331
921C
102
}
  0
BLOCK_RECORD
  5
90F9
330
1
100
AcDbSymbolTableRecord
100
AcDbBlockTableRecord
  2
SAE380_64_2-Left
340
0
102
{BLKREFS
331
921D
102
}
  0
BLOCK_RECORD
  5
9119
330
1
100
AcDbSymbolTableRecord
100
AcDbBlockTableRecord
  2
SAE380_64_2-Right
340
0
102
{BLKREFS
331
921E
102
}
  0
BLOCK_RECORD
  5
913A
330
1
100
AcDbSymbolTableRecord
100
AcDbBlockTableRecord
  2
SAE380_64_2-Top
340
0
102
{BLKREFS
331
921F
102
}
  0
BLOCK_RECORD
  5
9167
330
1
100
AcDbSymbolTableRecord
100
AcDbBlockTableRecord
  2
SAE380_64_2-Bottom
340
0
102
{BLKREFS
331
9220
102
}
  0
BLOCK_RECORD
  5
918B
330
1
100
AcDbSymbolTableRecord
100
AcDbBlockTableRecord
  2
SAE380_64_2-ISO
340
0
102
{BLKREFS
331
9221
102
}
  0
ENDTAB
  0
ENDSEC
  0
SECTION
  2
BLOCKS
  0
BLOCK
  5
20
330
1F
100
AcDbEntity
  8
0
100
AcDbBlockBegin
  2
*Model_Space
 70
     0
 10
0.0
 20
0.0
 30
0.0
  3
*Model_Space
  1

  0
ENDBLK
  5
21
330
1F
100
AcDbEntity
  8
0
100
AcDbBlockEnd
  0
BLOCK
  5
D4
330
D2
100
AcDbEntity
 67
     1
  8
0
100
AcDbBlockBegin
  2
*Paper_Space
 70
     0
 10
0.0
 20
0.0
 30
0.0
  3
*Paper_Space
  1

  0
ENDBLK
  5
D5
330
D2
100
AcDbEntity
 67
     1
  8
0
100
AcDbBlockEnd
  0
BLOCK
  5
D8
330
D6
100
AcDbEntity
 67
     1
  8
0
100
AcDbBlockBegin
  2
*Paper_Space0
 70
     0
 10
0.0
 20
0.0
 30
0.0
  3
*Paper_Space0
  1

  0
ENDBLK
  5
D9
330
D6
100
AcDbEntity
 67
     1
  8
0
100
AcDbBlockEnd
  0
BLOCK
  5
90A6
330
90A5
100
AcDbEntity
  8
0
100
AcDbBlockBegin
  2
SAE380_64_2-Front
 70
     0
 10
0.0
 20
0.0
 30
0.0
  3
SAE380_64_2-Front
  1

  0
SPLINE
  5
90A8
330
90A5
100
AcDbEntity
  8
0
100
AcDbSpline
210
0.0
220
0.0
230
1.0
 70
     8
 71
     3
 72
    17
 73
    13
 74
     0
 42
0.000000001
 43
0.0000000001
 40
0.0
 40
0.0
 40
0.0
 40
0.0
 40
0.3704689058681779
 40
0.3704689058681779
 40
0.3704689058681779
 40
0.7029757053336599
 40
0.7029757053336599
 40
0.7029757053336599
 40
0.9335813790922051
 40
0.9335813790922051
 40
0.9335813790922051
 40
0.9938185929345603
 40
0.9938185929345603
 40
0.9938185929345603
 40
0.9938185929345603
 10
36.6060606060607
 20
30.56250000000003
 30
0.0
 10
36.25310981611569
 20
30.27455844103373
 30
0.0
 10
35.80994835339227
 20
30.04087523495621
 30
0.0
 10
35.38299606376912
 20
29.78869659270632
 30
0.0
 10
34.99979375691327
 20
29.56235880321881
 30
0.0
 10
34.63742190750345
 20
29.32332829807871
 30
0.0
 10
34.37998709143697
 20
29.01709169609553
 30
0.0
 10
34.20144659451075
 20
28.8047053688283
 30
0.0
 10
34.07197149374086
 20
28.55383081504909
 30
0.0
 10
34.02188707329876
 20
28.26575225714193
 30
0.0
 10
34.00880436854492
 20
28.19050237532757
 30
0.0
 10
34.00144745145651
 20
28.11446289992838
 30
0.0
 10
34.00019299677461
 20
28.02722238114148
 30
0.0
  0
LINE
  5
90A9
330
90A5
100
AcDbEntity
  8
0
100
AcDbLine
 10
36.0
 20
30.56249999999999
 30
0.0
 11
36.55691948256904
 21
30.56249999999999
 31
0.0
  0
LINE
  5
90AA
330
90A5
100
AcDbEntity
  8
0
100
AcDbLine
 10
35.9256608393647
 20
30.56249999999999
 30
0.0
 11
36.0
 21
30.56249999999999
 31
0.0
  0
LINE
  5
90AB
330
90A5
100
AcDbEntity
  8
0
100
AcDbLine
 10
34.00000000000002
 20
30.56249999999999
 30
0.0
 11
35.9256608393647
 21
30.56249999999999
 31
0.0
  0
SPLINE
  5
90AC
330
90A5
100
AcDbEntity
  8
0
100
AcDbSpline
210
0.0
220
0.0
230
1.0
 70
     8
 71
     3
 72
    34
 73
    30
 74
     0
 42
0.000000001
 43
0.0000000001
 40
0.0386753941500888
 40
0.0386753941500888
 40
0.0386753941500888
 40
0.0386753941500888
 40
0.0400690162946083
 40
0.0400690162946083
 40
0.0422300050457865
 40
0.0422300050457865
 40
0.0465822558210219
 40
0.0465822558210219
 40
0.0508891061635556
 40
0.0508891061635556
 40
0.0582937985501948
 40
0.0582937985501948
 40
0.0594557673513152
 40
0.0594557673513152
 40
0.0599928499160903
 40
0.0599928499160903
 40
0.0605321581857929
 40
0.0605321581857929
 40
0.0616267647883624
 40
0.0616267647883624
 40
0.0637733270085083
 40
0.0637733270085083
 40
0.0659690147422249
 40
0.0659690147422249
 40
0.0702746349365042
 40
0.0702746349365042
 40
0.0737829050752524
 40
0.0737829050752524
 40
0.0772943840619209
 40
0.0772943840619209
 40
0.0772943840619209
 40
0.0772943840619209
 10
34.01076237536289
 20
28.25193571330803
 30
0.0
 10
34.01076237543065
 20
28.251935714068
 30
0.0
 10
34.01071682912455
 20
28.25142605334153
 30
0.0
 10
34.01050739068876
 20
28.24903647915912
 30
0.0
 10
34.01029265003591
 20
28.24655930162423
 30
0.0
 10
34.00950362567717
 20
28.23710687225812
 30
0.0
 10
34.00878255809021
 20
28.22803078139676
 30
0.0
 10
34.00734070863736
 20
28.20794251177691
 30
0.0
 10
34.00660179381808
 20
28.196739691221
 30
0.0
 10
34.00471727263429
 20
28.16486605339418
 30
0.0
 10
34.00363714639232
 20
28.14252578982846
 30
0.0
 10
34.00268940909366
 20
28.11808580846736
 30
0.0
 10
34.00256714954962
 20
28.11480521063025
 30
0.0
 10
34.00240922933833
 20
28.11042564595839
 30
0.0
 10
34.0023623013831
 20
28.10910120602195
 30
0.0
 10
34.00227921121652
 20
28.10672538470168
 30
0.0
 10
34.00224294633488
 20
28.10567121840638
 30
0.0
 10
34.00215682788721
 20
28.10314707249997
 30
0.0
 10
34.00213183224499
 20
28.10239094419172
 30
0.0
 10
34.00207976889004
 20
28.10082551535272
 30
0.0
 10
34.00205407046752
 20
28.10006685470691
 30
0.0
 10
34.00188641140844
 20
28.09481375318928
 30
0.0
 10
34.00174065154221
 20
28.09010933655689
 30
0.0
 10
34.00132661143036
 20
28.07564535348433
 30
0.0
 10
34.00105203398896
 20
28.06471299023939
 30
0.0
 10
34.00062666271245
 20
28.04437438042297
 30
0.0
 10
34.00045955655198
 20
28.03496888488974
 30
0.0
 10
34.0001862756261
 20
28.01657962293216
 30
0.0
 10
34.00007911737041
 20
28.00740172868229
 30
0.0
 10
34.0000077639895
 20
28.00003765501664
 30
0.0
  0
SPLINE
  5
90AD
330
90A5
100
AcDbEntity
  8
0
100
AcDbSpline
210
0.0
220
0.0
230
1.0
 70
     8
 71
     3
 72
    10
 73
     6
 74
     0
 42
0.000000001
 43
0.0000000001
 40
0.0148011536304015
 40
0.0148011536304015
 40
0.0148011536304015
 40
0.0148011536304015
 40
0.0171749164460509
 40
0.0171749164460509
 40
0.0184199763971898
 40
0.0184199763971898
 40
0.0184199763971898
 40
0.0184199763971898
 10
34.00038548626416
 20
28.02985488743356
 30
0.0
 10
34.0002902321833
 20
28.02347908373095
 30
0.0
 10
34.00020711894025
 20
28.01694390791995
 30
0.0
 10
34.0001025407759
 20
28.00692295805554
 30
0.0
 10
34.00007042307382
 20
28.00346142804635
 30
0.0
 10
34.00004220846263
 20
27.99999966335057
 30
0.0
  0
SPLINE
  5
90AE
330
90A5
100
AcDbEntity
  8
0
100
AcDbSpline
210
0.0
220
0.0
230
1.0
 70
     8
 71
     3
 72
    10
 73
     6
 74
     0
 42
0.000000001
 43
0.0000000001
 40
0.0040569453643876
 40
0.0040569453643876
 40
0.0040569453643876
 40
0.0040569453643876
 40
0.007841314215375
 40
0.007841314215375
 40
0.0123972694087541
 40
0.0123972694087541
 40
0.0123972694087541
 40
0.0123972694087541
 10
34.00001991426271
 20
28.00287777053874
 30
0.0
 10
34.00001991426261
 20
28.00287777052702
 30
0.0
 10
34.00001418837515
 20
28.00209643527614
 30
0.0
 10
34.00000547994698
 20
28.00073579257619
 30
0.0
 10
34.00000316260089
 20
28.00028600655867
 30
0.0
 10
34.00000179639029
 20
27.99999999159892
 30
0.0
  0
SPLINE
  5
90AF
330
90A5
100
AcDbEntity
  8
0
100
AcDbSpline
210
0.0
220
0.0
230
1.0
 70
     8
 71
     3
 72
     8
 73
     4
 74
     0
 42
0.000000001
 43
0.0000000001
 40
0.0
 40
0.0
 40
0.0
 40
0.0
 40
0.0015511722921205
 40
0.0015511722921205
 40
0.0015511722921205
 40
0.0015511722921205
 10
31.99955984654371
 20
28.00000111615406
 30
0.0
 10
31.99956565327767
 20
28.0044688109712
 30
0.0
 10
31.99957076641535
 20
28.00884708256696
 30
0.0
 10
31.99957512909039
 20
28.01307591320713
 30
0.0
  0
SPLINE
  5
90B0
330
90A5
100
AcDbEntity
  8
0
100
AcDbSpline
210
0.0
220
0.0
230
1.0
 70
     8
 71
     3
 72
    16
 73
    12
 74
     0
 42
0.000000001
 43
0.0000000001
 40
0.0
 40
0.0
 40
0.0
 40
0.0
 40
0.0021186903221745
 40
0.0021186903221745
 40
0.0037963622482939
 40
0.0037963622482939
 40
0.006049024613815
 40
0.006049024613815
 40
0.0082160876469363
 40
0.0082160876469363
 40
0.0100715292732445
 40
0.0100715292732445
 40
0.0100715292732445
 40
0.0100715292732445
 10
31.99977770474499
 20
27.99999658852569
 30
0.0
 10
31.99967060329663
 20
28.00696252733948
 30
0.0
 10
31.99956026510847
 20
28.01406431371092
 30
0.0
 10
31.99936153564063
 20
28.0267081223946
 30
0.0
 10
31.99927271954911
 20
28.03230570426823
 30
0.0
 10
31.99907108297666
 20
28.04490249812195
 30
0.0
 10
31.99895813000549
 20
28.051872749481
 30
0.0
 10
31.99876083651326
 20
28.0639500410037
 30
0.0
 10
31.99867338946935
 20
28.06925360664572
 30
0.0
 10
31.99853375459944
 20
28.07766822560891
 30
0.0
 10
31.99847718641684
 20
28.08105234001909
 30
0.0
 10
31.99842789893563
 20
28.08398349779692
 30
0.0
  0
SPLINE
  5
90B1
330
90A5
100
AcDbEntity
  8
0
100
AcDbSpline
210
0.0
220
0.0
230
1.0
 70
     8
 71
     3
 72
    34
 73
    30
 74
     0
 42
0.000000001
 43
0.0000000001
 40
0.0018967486240401
 40
0.0018967486240401
 40
0.0018967486240401
 40
0.0018967486240401
 40
0.006793172735619
 40
0.006793172735619
 40
0.0148581913865597
 40
0.0148581913865597
 40
0.0216571849280523
 40
0.0216571849280523
 40
0.0241181698139595
 40
0.0241181698139595
 40
0.026272131301226
 40
0.026272131301226
 40
0.0291183871953699
 40
0.0291183871953699
 40
0.0315307517713683
 40
0.0315307517713683
 40
0.0346506122336049
 40
0.0346506122336049
 40
0.0395925135424581
 40
0.0395925135424581
 40
0.0489047057904544
 40
0.0489047057904544
 40
0.0719038675203017
 40
0.0719038675203017
 40
0.1414750767378353
 40
0.1414750767378353
 40
0.2235355591357762
 40
0.2235355591357762
 40
0.2666866390482321
 40
0.2666866390482321
 40
0.2666866390482321
 40
0.2666866390482321
 10
31.99993348246991
 20
28.0038561349663
 30
0.0
 10
31.99986349834618
 20
28.00787307648424
 30
0.0
 10
31.99976194066643
 20
28.01360745669148
 30
0.0
 10
31.99943617417356
 20
28.03150105611299
 30
0.0
 10
31.99917378848825
 20
28.04547918860594
 30
0.0
 10
31.99862147144646
 20
28.07412870328902
 30
0.0
 10
31.99834194999164
 20
28.08837000313209
 30
0.0
 10
31.99789286583046
 20
28.11130009433674
 30
0.0
 10
31.9977655655279
 20
28.11780805693644
 30
0.0
 10
31.99751102450907
 20
28.13092153251229
 30
0.0
 10
31.99738418130279
 20
28.13749612124825
 30
0.0
 10
31.99708160589661
 20
28.15339179505484
 30
0.0
 10
31.99689912507742
 20
28.16314764528975
 30
0.0
 10
31.9965816424169
 20
28.18063166716689
 30
0.0
 10
31.99644054032371
 20
28.18860765046957
 30
0.0
 10
31.99613963783083
 20
28.2061333155276
 30
0.0
 10
31.99598354298133
 20
28.21562309991435
 30
0.0
 10
31.99561575507673
 20
28.23897260119652
 30
0.0
 10
31.99542133014263
 20
28.25235297840499
 30
0.0
 10
31.99492632690002
 20
28.28908043120464
 30
0.0
 10
31.99467887819705
 20
28.31107671439406
 30
0.0
 10
31.99397376949168
 20
28.38483561324459
 30
0.0
 10
31.99373075698945
 20
28.43325150204224
 30
0.0
 10
31.99330497044769
 20
28.63524562481561
 30
0.0
 10
31.9945522623636
 20
28.81157794644853
 30
0.0
 10
31.99793368890092
 20
29.23303281741509
 30
0.0
 10
31.99943792246666
 20
29.48842737794453
 30
0.0
 10
31.99998946837764
 20
29.89397483759136
 30
0.0
 10
31.9999827896256
 20
30.03728082203863
 30
0.0
 10
31.99999053642925
 20
30.18062727214911
 30
0.0
  0
SPLINE
  5
90B2
330
90A5
100
AcDbEntity
  8
0
100
AcDbSpline
210
0.0
220
0.0
230
1.0
 70
     8
 71
     3
 72
    12
 73
     8
 74
     0
 42
0.000000001
 43
0.0000000001
 40
0.0
 40
0.0
 40
0.0
 40
0.0
 40
0.0029758243237343
 40
0.0029758243237343
 40
0.0058215256792511
 40
0.0058215256792511
 40
0.0072783704131022
 40
0.0072783704131022
 40
0.0072783704131022
 40
0.0072783704131022
 10
31.99994049721215
 20
27.99999988528013
 30
0.0
 10
31.99992880390216
 20
28.00662154037205
 30
0.0
 10
31.99991806857501
 20
28.01206107435151
 30
0.0
 10
31.99990164420351
 20
28.01957099871309
 30
0.0
 10
31.9998956546238
 20
28.02187994613702
 30
0.0
 10
31.99989113238839
 20
28.02353292890154
 30
0.0
 10
31.99989035560469
 20
28.02378814464443
 30
0.0
 10
31.99989035560478
 20
28.02378814461464
 30
0.0
  0
LINE
  5
90B3
330
90A5
100
AcDbEntity
  8
0
100
AcDbLine
 10
29.99999999999999
 20
-2.0
 30
0.0
 11
-29.99999999999998
 21
-2.000000000000002
 31
0.0
  0
LINE
  5
90B4
330
90A5
100
AcDbEntity
  8
0
100
AcDbLine
 10
-29.99999999999998
 20
0.0
 30
0.0
 11
29.99999999999998
 21
0.0
 31
0.0
  0
LINE
  5
90B5
330
90A5
100
AcDbEntity
  8
0
100
AcDbLine
 10
-35.9256608393647
 20
30.56249999999999
 30
0.0
 11
-34.00000000000002
 21
30.56249999999999
 31
0.0
  0
LINE
  5
90B6
330
90A5
100
AcDbEntity
  8
0
100
AcDbLine
 10
-36.0
 20
30.56249999999999
 30
0.0
 11
-35.9256608393647
 21
30.56249999999999
 31
0.0
  0
LINE
  5
90B7
330
90A5
100
AcDbEntity
  8
0
100
AcDbLine
 10
-36.55691948256904
 20
30.56249999999999
 30
0.0
 11
-36.0
 21
30.56249999999999
 31
0.0
  0
SPLINE
  5
90B8
330
90A5
100
AcDbEntity
  8
0
100
AcDbSpline
210
0.0
220
0.0
230
1.0
 70
     8
 71
     3
 72
    17
 73
    13
 74
     0
 42
0.000000001
 43
0.0000000001
 40
0.0
 40
0.0
 40
0.0
 40
0.0
 40
0.3704689058681779
 40
0.3704689058681779
 40
0.3704689058681779
 40
0.7029757053336599
 40
0.7029757053336599
 40
0.7029757053336599
 40
0.9335813790922051
 40
0.9335813790922051
 40
0.9335813790922051
 40
0.9938185929336199
 40
0.9938185929336199
 40
0.9938185929336199
 40
0.9938185929336199
 10
-36.6060606060607
 20
30.56250000000003
 30
0.0
 10
-36.25310981611569
 20
30.27455844103373
 30
0.0
 10
-35.80994835339227
 20
30.04087523495621
 30
0.0
 10
-35.38299606376912
 20
29.78869659270632
 30
0.0
 10
-34.99979375691327
 20
29.56235880321881
 30
0.0
 10
-34.63742190750345
 20
29.32332829807871
 30
0.0
 10
-34.37998709143697
 20
29.01709169609553
 30
0.0
 10
-34.20144659451075
 20
28.8047053688283
 30
0.0
 10
-34.07197149374086
 20
28.55383081504909
 30
0.0
 10
-34.02188707329876
 20
28.26575225714193
 30
0.0
 10
-34.00880436854514
 20
28.19050237532874
 30
0.0
 10
-34.00144745145674
 20
28.11446289993075
 30
0.0
 10
-34.00019299677467
 20
28.02722238114557
 30
0.0
  0
SPLINE
  5
90B9
330
90A5
100
AcDbEntity
  8
0
100
AcDbSpline
210
0.0
220
0.0
230
1.0
 70
     8
 71
     3
 72
     8
 73
     4
 74
     0
 42
0.000000001
 43
0.0000000001
 40
0.0195591670554559
 40
0.0195591670554559
 40
0.0195591670554559
 40
0.0195591670554559
 40
0.0211163846162572
 40
0.0211163846162572
 40
0.0211163846162572
 40
0.0211163846162572
 10
-31.9995752264965
 20
28.01307786955286
 30
0.0
 10
-31.99957087697382
 20
28.00886162931296
 30
0.0
 10
-31.99956567528444
 20
28.00448571439209
 30
0.0
 10
-31.99955984587091
 20
28.00000059851653
 30
0.0
  0
SPLINE
  5
90BA
330
90A5
100
AcDbEntity
  8
0
100
AcDbSpline
210
0.0
220
0.0
230
1.0
 70
     8
 71
     3
 72
    16
 73
    12
 74
     0
 42
0.000000001
 43
0.0000000001
 40
0.0328571687965464
 40
0.0328571687965464
 40
0.0328571687965464
 40
0.0328571687965464
 40
0.0346121739952889
 40
0.0346121739952889
 40
0.0362943908368509
 40
0.0362943908368509
 40
0.0388726343966419
 40
0.0388726343966419
 40
0.0410449476354814
 40
0.0410449476354814
 40
0.0429128557605181
 40
0.0429128557605181
 40
0.0429128557605181
 40
0.0429128557605181
 10
-31.99842884099217
 20
28.0839274814625
 30
0.0
 10
-31.99847556636632
 20
28.08114849837302
 30
0.0
 10
-31.99852876132347
 20
28.07796671483523
 30
0.0
 10
-31.99864665534904
 20
28.07086662540088
 30
0.0
 10
-31.99871142261825
 20
28.06694586364717
 30
0.0
 10
-31.99889097016623
 20
28.05600293235759
 30
0.0
 10
-31.99901757415251
 20
28.04822182205417
 30
0.0
 10
-31.999259284652
 20
28.03315934948874
 30
0.0
 10
-31.99937543019903
 20
28.02584026710368
 30
0.0
 10
-31.99958650281063
 20
28.0123747393768
 30
0.0
 10
-31.99968328022797
 20
28.00613801242973
 30
0.0
 10
-31.99977770444452
 20
27.99999660806824
 30
0.0
  0
SPLINE
  5
90BB
330
90A5
100
AcDbEntity
  8
0
100
AcDbSpline
210
0.0
220
0.0
230
1.0
 70
     8
 71
     3
 72
    12
 73
     8
 74
     0
 42
0.000000001
 43
0.0000000001
 40
0.0136369348412812
 40
0.0136369348412812
 40
0.0136369348412812
 40
0.0136369348412812
 40
0.0164694694737143
 40
0.0164694694737143
 40
0.0184311004435213
 40
0.0184311004435213
 40
0.0209172889920359
 40
0.0209172889920359
 40
0.0209172889920359
 40
0.0209172889920359
 10
-31.99989035560478
 20
28.02378814461708
 30
0.0
 10
-31.99989035560467
 20
28.02378814465335
 30
0.0
 10
-31.99989338796194
 20
28.02279922143993
 30
0.0
 10
-31.99990290153611
 20
28.01893262389408
 30
0.0
 10
-31.99990804541184
 20
28.01671389060936
 30
0.0
 10
-31.99992165032713
 20
28.01024278822236
 30
0.0
 10
-31.99993072789757
 20
28.00553202569091
 30
0.0
 10
-31.99994049721551
 20
27.9999998833844
 30
0.0
  0
SPLINE
  5
90BC
330
90A5
100
AcDbEntity
  8
0
100
AcDbSpline
210
0.0
220
0.0
230
1.0
 70
     8
 71
     3
 72
    32
 73
    28
 74
     0
 42
0.000000001
 43
0.0000000001
 40
0.0
 40
0.0
 40
0.0
 40
0.0
 40
0.0776272495670623
 40
0.0776272495670623
 40
0.1568375370568243
 40
0.1568375370568243
 40
0.1970113534536893
 40
0.1970113534536893
 40
0.2169380188303177
 40
0.2169380188303177
 40
0.2318872569662802
 40
0.2318872569662802
 40
0.235901766192172
 40
0.235901766192172
 40
0.2378323829924963
 40
0.2378323829924963
 40
0.2397683934583899
 40
0.2397683934583899
 40
0.2417039601126248
 40
0.2417039601126248
 40
0.2456025933226633
 40
0.2456025933226633
 40
0.2533492539895064
 40
0.2533492539895064
 40
0.2645733247975903
 40
0.2645733247975903
 40
0.2647523371262215
 40
0.2647523371262215
 40
0.2647523371262215
 40
0.2647523371262215
 10
-31.99999053642818
 20
30.18062725284484
 30
0.0
 10
-31.99997660020891
 20
29.92275211562344
 30
0.0
 10
-31.99994864798892
 20
29.66281406257202
 30
0.0
 10
-31.99779571009506
 20
29.18065863339347
 30
0.0
 10
-31.99540694681252
 20
28.95137856165831
 30
0.0
 10
-31.99366130176887
 20
28.64942481387542
 30
0.0
 10
-31.99342296782545
 20
28.55634266203175
 30
0.0
 10
-31.99377696198259
 20
28.42576147725772
 30
0.0
 10
-31.99400311733985
 20
28.38346333049347
 30
0.0
 10
-31.9947324355826
 20
28.30438432946192
 30
0.0
 10
-31.99514583869535
 20
28.26898216159857
 30
0.0
 10
-31.99600422919439
 20
28.21426550429628
 30
0.0
 10
-31.99620965837161
 20
28.20187758970164
 30
0.0
 10
-31.99654578998952
 20
28.18266796330292
 30
0.0
 10
-31.99666089553418
 20
28.17623865285742
 30
0.0
 10
-31.99689608121998
 20
28.16335983875499
 30
0.0
 10
-31.99701768736194
 20
28.15682799628364
 30
0.0
 10
-31.99725533592572
 20
28.14423759523111
 30
0.0
 10
-31.99737291446981
 20
28.13809510768044
 30
0.0
 10
-31.99770875669956
 20
28.12068474157922
 30
0.0
 10
-31.99791288192263
 20
28.11027405420197
 30
0.0
 10
-31.99846186467351
 20
28.0822594618688
 30
0.0
 10
-31.99876844221412
 20
28.06659054212212
 30
0.0
 10
-31.99943594623837
 20
28.031669475487
 30
0.0
 10
-31.99976062111103
 20
28.01376624969636
 30
0.0
 10
-31.99992841496698
 20
28.00415082166955
 30
0.0
 10
-31.9999310082192
 20
28.00400209137552
 30
0.0
 10
-31.99993356010099
 20
28.00385561636229
 30
0.0
  0
SPLINE
  5
90BD
330
90A5
100
AcDbEntity
  8
0
100
AcDbSpline
210
0.0
220
0.0
230
1.0
 70
     8
 71
     3
 72
    16
 73
    12
 74
     0
 42
0.000000001
 43
0.0000000001
 40
0.0004163505030594
 40
0.0004163505030594
 40
0.0004163505030594
 40
0.0004163505030594
 40
0.00351389103017
 40
0.00351389103017
 40
0.0059267044236167
 40
0.0059267044236167
 40
0.0066158865597602
 40
0.0066158865597602
 40
0.0070441724371041
 40
0.0070441724371041
 40
0.0073037898276774
 40
0.0073037898276774
 40
0.0073037898276774
 40
0.0073037898276774
 10
-34.00002338564621
 20
28.00389953428629
 30
0.0
 10
-34.00005233626583
 20
28.01355315664319
 30
0.0
 10
-34.00011399930551
 20
28.02311054153189
 30
0.0
 10
-34.0002805558497
 20
28.0394723729837
 30
0.0
 10
-34.00037745351894
 20
28.04665754181661
 30
0.0
 10
-34.00049894015237
 20
28.05420950557753
 30
0.0
 10
-34.00052569650752
 20
28.05578387488759
 30
0.0
 10
-34.00056042089552
 20
28.05776410530013
 30
0.0
 10
-34.0005717440572
 20
28.05839219632781
 30
0.0
 10
-34.00058222695002
 20
28.05896917705199
 30
0.0
 10
-34.00058444760333
 20
28.0590899533173
 30
0.0
 10
-34.00058444767478
 20
28.05908995721063
 30
0.0
  0
SPLINE
  5
90BE
330
90A5
100
AcDbEntity
  8
0
100
AcDbSpline
210
0.0
220
0.0
230
1.0
 70
     8
 71
     3
 72
    16
 73
    12
 74
     0
 42
0.000000001
 43
0.0000000001
 40
0.0
 40
0.0
 40
0.0
 40
0.0
 40
0.0048245588396314
 40
0.0048245588396314
 40
0.0084632886287721
 40
0.0084632886287721
 40
0.0094798805105141
 40
0.0094798805105141
 40
0.0099662894237132
 40
0.0099662894237132
 40
0.0100234587592267
 40
0.0100234587592267
 40
0.0100234587592267
 40
0.0100234587592267
 10
-34.00004220846267
 20
27.9999996633506
 30
0.0
 10
-34.00015153898261
 20
28.01341386677786
 30
0.0
 10
-34.00032268955752
 20
28.02687141576531
 30
0.0
 10
-34.00070285068383
 20
28.04890462788934
 30
0.0
 10
-34.00090173280161
 20
28.05824125733023
 30
0.0
 10
-34.00111304296622
 20
28.06712883749301
 30
0.0
 10
-34.00115674473368
 20
28.06889787801978
 30
0.0
 10
-34.00119778521357
 20
28.07053633809855
 30
0.0
 10
-34.00120726679516
 20
28.07091044378991
 30
0.0
 10
-34.0012093152836
 20
28.07099134027225
 30
0.0
 10
-34.0012094261487
 20
28.07099571705074
 30
0.0
 10
-34.00120942614617
 20
28.0709957169509
 30
0.0
  0
SPLINE
  5
90BF
330
90A5
100
AcDbEntity
  8
0
100
AcDbSpline
210
0.0
220
0.0
230
1.0
 70
     8
 71
     3
 72
    38
 73
    34
 74
     0
 42
0.000000001
 43
0.0000000001
 40
0.000005999186266
 40
0.000005999186266
 40
0.000005999186266
 40
0.000005999186266
 40
0.0029918282882923
 40
0.0029918282882923
 40
0.0074782332298542
 40
0.0074782332298542
 40
0.0106273982851456
 40
0.0106273982851456
 40
0.0128214365692744
 40
0.0128214365692744
 40
0.0142987307088193
 40
0.0142987307088193
 40
0.0158295088189217
 40
0.0158295088189217
 40
0.0169257867548891
 40
0.0169257867548891
 40
0.0178303058440724
 40
0.0178303058440724
 40
0.0187015938435076
 40
0.0187015938435076
 40
0.0209039604140072
 40
0.0209039604140072
 40
0.0275148204281079
 40
0.0275148204281079
 40
0.0309698962877852
 40
0.0309698962877852
 40
0.0344376975568901
 40
0.0344376975568901
 40
0.0366921532321602
 40
0.0366921532321602
 40
0.0382082661091472
 40
0.0382082661091472
 40
0.0386471327364205
 40
0.0386471327364205
 40
0.0386471327364205
 40
0.0386471327364205
 10
-34.00000776398824
 20
28.0000376553508
 30
0.0
 10
-34.00006843658323
 20
28.00629941132049
 30
0.0
 10
-34.00015500592646
 20
28.01391165339694
 30
0.0
 10
-34.00042636940345
 20
28.03328551683949
 30
0.0
 10
-34.00064071296865
 20
28.04542619454939
 30
0.0
 10
-34.00106908091395
 20
28.06514627043071
 30
0.0
 10
-34.00126489516571
 20
28.07306724195067
 30
0.0
 10
-34.00160491218225
 20
28.08548310391774
 30
0.0
 10
-34.00175754358173
 20
28.09063118562731
 30
0.0
 10
-34.00195012347889
 20
28.09683519358551
 30
0.0
 10
-34.00200684021285
 20
28.09858713506275
 30
0.0
 10
-34.00208009522028
 20
28.10083634412209
 30
0.0
 10
-34.00209397695827
 20
28.10125417516108
 30
0.0
 10
-34.00214119216306
 20
28.10267095377096
 30
0.0
 10
-34.00217347112235
 20
28.10364404106105
 30
0.0
 10
-34.002293427529
 20
28.10713940181309
 30
0.0
 10
-34.0023689792799
 20
28.10930597982872
 30
0.0
 10
-34.00253307967412
 20
28.11386339924623
 30
0.0
 10
-34.00262201822878
 20
28.11627299670789
 30
0.0
 10
-34.00295071960342
 20
28.12492041502917
 30
0.0
 10
-34.00321423065284
 20
28.13140529785557
 30
0.0
 10
-34.00433752764854
 20
28.15715206856692
 30
0.0
 10
-34.00535544995893
 20
28.17637144477325
 30
0.0
 10
-34.0070146773895
 20
28.20298760359525
 30
0.0
 10
-34.00760600740324
 20
28.21170784468331
 30
0.0
 10
-34.00875385402947
 20
28.22754508667483
 30
0.0
 10
-34.00931844539736
 20
28.23475535787162
 30
0.0
 10
-34.01008265341987
 20
28.24408355424273
 30
0.0
 10
-34.01034295449193
 20
28.24713259326045
 30
0.0
 10
-34.01063819359886
 20
28.25053596814382
 30
0.0
 10
-34.01071963532754
 20
28.2514546774364
 30
0.0
 10
-34.01075796693291
 20
28.25188628406707
 30
0.0
 10
-34.01076237535415
 20
28.25193571321015
 30
0.0
 10
-34.010762375363
 20
28.25193571330927
 30
0.0
  0
SPLINE
  5
90C0
330
90A5
100
AcDbEntity
  8
0
100
AcDbSpline
210
0.0
220
0.0
230
1.0
 70
     8
 71
     3
 72
     8
 73
     4
 74
     0
 42
0.000000001
 43
0.0000000001
 40
0.0
 40
0.0
 40
0.0
 40
0.0
 40
0.0083262334141534
 40
0.0083262334141534
 40
0.0083262334141534
 40
0.0083262334141534
 10
-34.00000179639029
 20
27.99999999159891
 30
0.0
 10
-34.00000429320773
 20
28.0005226980807
 30
0.0
 10
-34.00001991412032
 20
28.00287775196718
 30
0.0
 10
-34.00001991426273
 20
28.00287777053981
 30
0.0
  0
ARC
  5
90C1
330
90A5
100
AcDbEntity
  8
0
100
AcDbCircle
 10
-29.99999999999998
 20
2.0
 30
0.0
 40
4.000000000000003
100
AcDbArc
 50
180.0
 51
270.0
  0
ARC
  5
90C2
330
90A5
100
AcDbEntity
  8
0
100
AcDbCircle
 10
-29.99999999999998
 20
2.0
 30
0.0
 40
2.000000000000001
100
AcDbArc
 50
180.0
 51
270.0
  0
ARC
  5
90C3
330
90A5
100
AcDbEntity
  8
0
100
AcDbCircle
 10
29.99999999999998
 20
2.0
 30
0.0
 40
4.000000000000003
100
AcDbArc
 50
270.0
 51
0.0
  0
LINE
  5
90C4
330
90A5
100
AcDbEntity
  8
0
100
AcDbLine
 10
36.6060606060607
 20
30.56249999999999
 30
0.0
 11
73.50000000000007
 21
60.99999999999997
 31
0.0
  0
LINE
  5
90C5
330
90A5
100
AcDbEntity
  8
0
100
AcDbLine
 10
31.99999999999999
 20
28.00000000000001
 30
0.0
 11
32.0
 21
60.99999999999997
 31
0.0
  0
LINE
  5
90C6
330
90A5
100
AcDbEntity
  8
0
100
AcDbLine
 10
33.99999999999999
 20
28.00000000000001
 30
0.0
 11
31.99999999999999
 21
28.00000000000001
 31
0.0
  0
LINE
  5
90C7
330
90A5
100
AcDbEntity
  8
0
100
AcDbLine
 10
34.0
 20
60.99999999999997
 30
0.0
 11
33.99999999999999
 21
28.00000000000001
 31
0.0
  0
LINE
  5
90C8
330
90A5
100
AcDbEntity
  8
0
100
AcDbLine
 10
34.0
 20
60.99999999999997
 30
0.0
 11
32.0
 21
60.99999999999997
 31
0.0
  0
LINE
  5
90C9
330
90A5
100
AcDbEntity
  8
0
100
AcDbLine
 10
32.0
 20
60.99999999999997
 30
0.0
 11
32.0
 21
158.0
 31
0.0
  0
LINE
  5
90CA
330
90A5
100
AcDbEntity
  8
0
100
AcDbLine
 10
34.0
 20
158.0
 30
0.0
 11
34.0
 21
60.99999999999997
 31
0.0
  0
LINE
  5
90CB
330
90A5
100
AcDbEntity
  8
0
100
AcDbLine
 10
32.0
 20
158.0
 30
0.0
 11
34.0
 21
158.0
 31
0.0
  0
LINE
  5
90CC
330
90A5
100
AcDbEntity
  8
0
100
AcDbLine
 10
33.99999999999999
 20
28.00000000000001
 30
0.0
 11
33.99999999999999
 21
2.000000000000001
 31
0.0
  0
LINE
  5
90CD
330
90A5
100
AcDbEntity
  8
0
100
AcDbLine
 10
31.99999999999999
 20
2.0
 30
0.0
 11
31.99999999999999
 21
28.00000000000001
 31
0.0
  0
ARC
  5
90CE
330
90A5
100
AcDbEntity
  8
0
100
AcDbCircle
 10
29.99999999999998
 20
2.0
 30
0.0
 40
2.000000000000001
100
AcDbArc
 50
270.0
 51
0.0
  0
LINE
  5
90CF
330
90A5
100
AcDbEntity
  8
0
100
AcDbLine
 10
36.0
 20
158.0
 30
0.0
 11
34.0
 21
158.0
 31
0.0
  0
LINE
  5
90D0
330
90A5
100
AcDbEntity
  8
0
100
AcDbLine
 10
73.50000000000007
 20
60.99999999999997
 30
0.0
 11
73.5
 21
158.0
 31
0.0
  0
LINE
  5
90D1
330
90A5
100
AcDbEntity
  8
0
100
AcDbLine
 10
73.5
 20
158.0
 30
0.0
 11
36.0
 21
158.0
 31
0.0
  0
CIRCLE
  5
90D2
330
90A5
100
AcDbEntity
  8
0
100
AcDbCircle
 10
54.0
 20
138.0
 30
0.0
 40
6.5
  0
CIRCLE
  5
90D3
330
90A5
100
AcDbEntity
  8
0
100
AcDbCircle
 10
65.0
 20
143.0
 30
0.0
 40
2.5
  0
LINE
  5
90D4
330
90A5
100
AcDbEntity
  8
0
100
AcDbLine
 10
-73.50000000000007
 20
60.99999999999997
 30
0.0
 11
-36.6060606060607
 21
30.56249999999999
 31
0.0
  0
LINE
  5
90D5
330
90A5
100
AcDbEntity
  8
0
100
AcDbLine
 10
-32.0
 20
60.99999999999997
 30
0.0
 11
-31.99999999999999
 21
28.00000000000001
 31
0.0
  0
LINE
  5
90D6
330
90A5
100
AcDbEntity
  8
0
100
AcDbLine
 10
-34.0
 20
60.99999999999997
 30
0.0
 11
-32.0
 21
60.99999999999997
 31
0.0
  0
LINE
  5
90D7
330
90A5
100
AcDbEntity
  8
0
100
AcDbLine
 10
-33.99999999999999
 20
28.00000000000001
 30
0.0
 11
-34.0
 21
60.99999999999997
 31
0.0
  0
LINE
  5
90D8
330
90A5
100
AcDbEntity
  8
0
100
AcDbLine
 10
-31.99999999999999
 20
28.00000000000001
 30
0.0
 11
-33.99999999999999
 21
28.00000000000001
 31
0.0
  0
LINE
  5
90D9
330
90A5
100
AcDbEntity
  8
0
100
AcDbLine
 10
-32.0
 20
158.0
 30
0.0
 11
-32.0
 21
60.99999999999997
 31
0.0
  0
LINE
  5
90DA
330
90A5
100
AcDbEntity
  8
0
100
AcDbLine
 10
-34.0
 20
158.0
 30
0.0
 11
-32.0
 21
158.0
 31
0.0
  0
LINE
  5
90DB
330
90A5
100
AcDbEntity
  8
0
100
AcDbLine
 10
-34.0
 20
60.99999999999997
 30
0.0
 11
-34.0
 21
158.0
 31
0.0
  0
CIRCLE
  5
90DC
330
90A5
100
AcDbEntity
  8
0
100
AcDbCircle
 10
-54.0
 20
68.0
 30
0.0
 40
6.5
  0
CIRCLE
  5
90DD
330
90A5
100
AcDbEntity
  8
0
100
AcDbCircle
 10
54.0
 20
68.0
 30
0.0
 40
6.5
  0
CIRCLE
  5
90DE
330
90A5
100
AcDbEntity
  8
0
100
AcDbCircle
 10
-54.0
 20
138.0
 30
0.0
 40
6.5
  0
CIRCLE
  5
90DF
330
90A5
100
AcDbEntity
  8
0
100
AcDbCircle
 10
-43.0
 20
53.0
 30
0.0
 40
2.5
  0
CIRCLE
  5
90E0
330
90A5
100
AcDbEntity
  8
0
100
AcDbCircle
 10
-43.0
 20
73.0
 30
0.0
 40
2.5
  0
CIRCLE
  5
90E1
330
90A5
100
AcDbEntity
  8
0
100
AcDbCircle
 10
-43.0
 20
93.0
 30
0.0
 40
2.5
  0
CIRCLE
  5
90E2
330
90A5
100
AcDbEntity
  8
0
100
AcDbCircle
 10
-43.0
 20
113.0
 30
0.0
 40
2.5
  0
CIRCLE
  5
90E3
330
90A5
100
AcDbEntity
  8
0
100
AcDbCircle
 10
-43.0
 20
133.0
 30
0.0
 40
2.5
  0
CIRCLE
  5
90E4
330
90A5
100
AcDbEntity
  8
0
100
AcDbCircle
 10
43.0
 20
53.0
 30
0.0
 40
2.5
  0
CIRCLE
  5
90E5
330
90A5
100
AcDbEntity
  8
0
100
AcDbCircle
 10
43.0
 20
73.0
 30
0.0
 40
2.5
  0
CIRCLE
  5
90E6
330
90A5
100
AcDbEntity
  8
0
100
AcDbCircle
 10
43.0
 20
93.0
 30
0.0
 40
2.5
  0
CIRCLE
  5
90E7
330
90A5
100
AcDbEntity
  8
0
100
AcDbCircle
 10
43.0
 20
113.0
 30
0.0
 40
2.5
  0
CIRCLE
  5
90E8
330
90A5
100
AcDbEntity
  8
0
100
AcDbCircle
 10
43.0
 20
133.0
 30
0.0
 40
2.5
  0
CIRCLE
  5
90E9
330
90A5
100
AcDbEntity
  8
0
100
AcDbCircle
 10
-43.0
 20
153.0
 30
0.0
 40
2.5
  0
CIRCLE
  5
90EA
330
90A5
100
AcDbEntity
  8
0
100
AcDbCircle
 10
43.0
 20
153.0
 30
0.0
 40
2.5
  0
CIRCLE
  5
90EB
330
90A5
100
AcDbEntity
  8
0
100
AcDbCircle
 10
-65.0
 20
63.0
 30
0.0
 40
2.5
  0
CIRCLE
  5
90EC
330
90A5
100
AcDbEntity
  8
0
100
AcDbCircle
 10
-65.0
 20
83.0
 30
0.0
 40
2.5
  0
CIRCLE
  5
90ED
330
90A5
100
AcDbEntity
  8
0
100
AcDbCircle
 10
-65.0
 20
103.0
 30
0.0
 40
2.5
  0
CIRCLE
  5
90EE
330
90A5
100
AcDbEntity
  8
0
100
AcDbCircle
 10
-65.0
 20
123.0
 30
0.0
 40
2.5
  0
CIRCLE
  5
90EF
330
90A5
100
AcDbEntity
  8
0
100
AcDbCircle
 10
65.0
 20
63.0
 30
0.0
 40
2.5
  0
CIRCLE
  5
90F0
330
90A5
100
AcDbEntity
  8
0
100
AcDbCircle
 10
65.0
 20
83.0
 30
0.0
 40
2.5
  0
CIRCLE
  5
90F1
330
90A5
100
AcDbEntity
  8
0
100
AcDbCircle
 10
65.0
 20
103.0
 30
0.0
 40
2.5
  0
CIRCLE
  5
90F2
330
90A5
100
AcDbEntity
  8
0
100
AcDbCircle
 10
65.0
 20
123.0
 30
0.0
 40
2.5
  0
CIRCLE
  5
90F3
330
90A5
100
AcDbEntity
  8
0
100
AcDbCircle
 10
-65.0
 20
143.0
 30
0.0
 40
2.5
  0
LINE
  5
90F4
330
90A5
100
AcDbEntity
  8
0
100
AcDbLine
 10
-73.5
 20
158.0
 30
0.0
 11
-36.0
 21
158.0
 31
0.0
  0
LINE
  5
90F5
330
90A5
100
AcDbEntity
  8
0
100
AcDbLine
 10
-73.50000000000007
 20
60.99999999999997
 30
0.0
 11
-73.5
 21
158.0
 31
0.0
  0
LINE
  5
90F6
330
90A5
100
AcDbEntity
  8
0
100
AcDbLine
 10
-31.99999999999999
 20
2.0
 30
0.0
 11
-31.99999999999999
 21
28.00000000000001
 31
0.0
  0
LINE
  5
90F7
330
90A5
100
AcDbEntity
  8
0
100
AcDbLine
 10
-33.99999999999999
 20
28.00000000000001
 30
0.0
 11
-33.99999999999999
 21
2.000000000000001
 31
0.0
  0
LINE
  5
90F8
330
90A5
100
AcDbEntity
  8
0
100
AcDbLine
 10
-36.0
 20
158.0
 30
0.0
 11
-34.0
 21
158.0
 31
0.0
  0
ENDBLK
  5
90A7
330
90A5
100
AcDbEntity
  8
0
100
AcDbBlockEnd
  0
BLOCK
  5
90FA
330
90F9
100
AcDbEntity
  8
0
100
AcDbBlockBegin
  2
SAE380_64_2-Left
 70
     0
 10
0.0
 20
0.0
 30
0.0
  3
SAE380_64_2-Left
  1

  0
LINE
  5
90FC
330
90F9
100
AcDbEntity
  8
0
100
AcDbLine
 10
1.999999999999997
 20
-2.0
 30
0.0
 11
86.0
 21
-2.000000000000002
 31
0.0
  0
LINE
  5
90FD
330
90F9
100
AcDbEntity
  8
0
100
AcDbLine
 10
2.000000000000002
 20
2.000000000000004
 30
0.0
 11
1.999999999999997
 21
-1.999999999999999
 31
0.0
  0
LINE
  5
90FE
330
90F9
100
AcDbEntity
  8
0
100
AcDbLine
 10
86.0
 20
-2.000000000000002
 30
0.0
 11
86.0
 21
2.0
 31
0.0
  0
SPLINE
  5
90FF
330
90F9
100
AcDbEntity
  8
0
100
AcDbSpline
210
0.0
220
0.0
230
1.0
 70
     8
 71
     3
 72
    17
 73
    13
 74
     0
 42
0.000000001
 43
0.0000000001
 40
-0.9642391866721895
 40
-0.9642391866721895
 40
-0.9642391866721895
 40
-0.9642391866721895
 40
-0.7907552673943341
 40
-0.7907552673943341
 40
-0.7907552673943341
 40
-0.3883396848730589
 40
-0.3883396848730589
 40
-0.3883396848730589
 40
-0.1053184205983158
 40
-0.1053184205983158
 40
-0.1053184205983158
 40
0.0
 40
0.0
 40
0.0
 40
0.0
 10
1.99141825991938
 20
28.23869885963575
 30
0.0
 10
1.966312612901921
 20
28.60755087106248
 30
0.0
 10
1.887915385279817
 20
28.89349071917488
 30
0.0
 10
1.773393535467191
 20
29.10014472426088
 30
0.0
 10
1.50774714532569
 20
29.57950207440148
 30
0.0
 10
1.052077259773238
 20
29.69581939513465
 30
0.0
 10
0.6711423121597015
 20
29.82272340325174
 30
0.0
 10
0.4032285057297124
 20
29.91197574431121
 30
0.0
 10
0.1693290542135965
 20
30.01102292129573
 30
0.0
 10
0.0606817918137025
 20
30.23987558702061
 30
0.0
 10
0.020251762262355
 20
30.32503668389304
 30
0.0
 10
0.0000166268648454
 20
30.43287618703518
 30
0.0
 10
0.0000000000000017
 20
30.56249999999997
 30
0.0
  0
LINE
  5
9100
330
90F9
100
AcDbEntity
  8
0
100
AcDbLine
 10
2.000000000000015
 20
30.56249999999999
 30
0.0
 11
2.001382055220164
 21
30.56249999999999
 31
0.0
  0
SPLINE
  5
9101
330
90F9
100
AcDbEntity
  8
0
100
AcDbSpline
210
0.0
220
0.0
230
1.0
 70
     8
 71
     3
 72
    17
 73
    13
 74
     0
 42
0.000000001
 43
0.0000000001
 40
0.0
 40
0.0
 40
0.0
 40
0.0
 40
0.3704689058681779
 40
0.3704689058681779
 40
0.3704689058681779
 40
0.7029757053336599
 40
0.7029757053336599
 40
0.7029757053336599
 40
0.9335813790922051
 40
0.9335813790922051
 40
0.9335813790922051
 40
1.0
 40
1.0
 40
1.0
 40
1.0
 10
2.000000000000015
 20
30.56250000000003
 30
0.0
 10
2.000006377019319
 20
30.27455844103373
 30
0.0
 10
2.000465619612809
 20
30.04087523495621
 30
0.0
 10
1.999851137318937
 20
29.78869659270632
 30
0.0
 10
1.999299621287154
 20
29.56235880321881
 30
0.0
 10
2.00004388646215
 20
29.32332829807871
 30
0.0
 10
2.000290307240853
 20
29.01709169609553
 30
0.0
 10
2.000461209098476
 20
28.8047053688283
 30
0.0
 10
2.000344409457376
 20
28.55383081504909
 30
0.0
 10
2.000001688218373
 20
28.26575225714193
 30
0.0
 10
1.999902978279109
 20
28.18278040212446
 30
0.0
 10
2.000565701782129
 20
28.09884858615787
 30
0.0
 10
2.000000000000153
 20
28.00000000000801
 30
0.0
  0
LINE
  5
9102
330
90F9
100
AcDbEntity
  8
0
100
AcDbLine
 10
0.0
 20
30.56249999999999
 30
0.0
 11
2.000000000000015
 21
30.56249999999999
 31
0.0
  0
SPLINE
  5
9103
330
90F9
100
AcDbEntity
  8
0
100
AcDbSpline
210
0.0
220
0.0
230
1.0
 70
     8
 71
     3
 72
    10
 73
     6
 74
     0
 42
0.000000001
 43
0.0000000001
 40
0.0
 40
0.0
 40
0.0
 40
0.0
 40
0.005044702051088
 40
0.005044702051088
 40
0.0085295657029663
 40
0.0085295657029663
 40
0.0085295657029663
 40
0.0085295657029663
 10
1.999900822932385
 20
28.00000014430531
 30
0.0
 10
1.99991713080118
 20
28.00948967987477
 30
0.0
 10
1.999894675347503
 20
28.0167965562037
 30
0.0
 10
1.999860226914712
 20
28.02420102383261
 30
0.0
 10
1.999847236260134
 20
28.02589350043583
 30
0.0
 10
1.999847236395055
 20
28.02589348225724
 30
0.0
  0
SPLINE
  5
9104
330
90F9
100
AcDbEntity
  8
0
100
AcDbSpline
210
0.0
220
0.0
230
1.0
 70
     8
 71
     3
 72
    10
 73
     6
 74
     0
 42
0.000000001
 43
0.0000000001
 40
0.0024765850255924
 40
0.0024765850255924
 40
0.0024765850255924
 40
0.0024765850255924
 40
0.007295462864785
 40
0.007295462864785
 40
0.0088101849341226
 40
0.0088101849341226
 40
0.0088101849341226
 40
0.0088101849341226
 10
1.999904719041549
 20
28.00820337986489
 30
0.0
 10
1.999848531880522
 20
28.01335132531459
 30
0.0
 10
1.999790292868203
 20
28.01790245448854
 30
0.0
 10
1.999755200288411
 20
28.02050654383728
 30
0.0
 10
1.999750203301291
 20
28.02086783936138
 30
0.0
 10
1.999750203296047
 20
28.0208678397421
 30
0.0
  0
SPLINE
  5
9105
330
90F9
100
AcDbEntity
  8
0
100
AcDbSpline
210
0.0
220
0.0
230
1.0
 70
     8
 71
     3
 72
    32
 73
    28
 74
     0
 42
0.000000001
 43
0.0000000001
 40
0.0018001201186369
 40
0.0018001201186369
 40
0.0018001201186369
 40
0.0018001201186369
 40
0.004936220621155
 40
0.004936220621155
 40
0.0136075594252523
 40
0.0136075594252523
 40
0.0157017112637533
 40
0.0157017112637533
 40
0.0187307325015216
 40
0.0187307325015216
 40
0.0214823027492722
 40
0.0214823027492722
 40
0.0252519525181626
 40
0.0252519525181626
 40
0.0315875500842396
 40
0.0315875500842396
 40
0.0456644388100243
 40
0.0456644388100243
 40
0.0667732845198109
 40
0.0667732845198109
 40
0.0825165938793517
 40
0.0825165938793517
 40
0.0966738623204332
 40
0.0966738623204332
 40
0.102903070538147
 40
0.102903070538147
 40
0.1065920424915501
 40
0.1065920424915501
 40
0.1065920424915501
 40
0.1065920424915501
 10
1.999906247789075
 20
28.00798857116332
 30
0.0
 10
1.999844678006901
 20
28.01309147971802
 30
0.0
 10
1.999769518476178
 20
28.01880952440832
 30
0.0
 10
1.999447827966162
 20
28.04063930107334
 30
0.0
 10
1.999163919899557
 20
28.05694770230389
 30
0.0
 10
1.998493510376793
 20
28.08502075069024
 30
0.0
 10
1.998344335304782
 20
28.09095211880401
 30
0.0
 10
1.997931873205738
 20
28.10633451426666
 30
0.0
 10
1.997640547205377
 20
28.11638178983827
 30
0.0
 10
1.997035114439876
 20
28.1355460669969
 30
0.0
 10
1.996720978134456
 20
28.14483098413712
 30
0.0
 10
1.995945011099447
 20
28.16636021200981
 30
0.0
 10
1.995465608371912
 20
28.17861344189453
 30
0.0
 10
1.99412622975285
 20
28.21052016163984
 30
0.0
 10
1.993220586995022
 20
28.22978949523615
 30
0.0
 10
1.99008077611232
 20
28.29046225911513
 30
0.0
 10
1.987547894298233
 20
28.33076305566486
 30
0.0
 10
1.980028982413586
 20
28.43019760559983
 30
0.0
 10
1.974401001382114
 20
28.48869807788283
 30
0.0
 10
1.962499578880777
 20
28.58544611241641
 30
0.0
 10
1.956677309363215
 20
28.62534436060336
 30
0.0
 10
1.945515663111958
 20
28.69168015619973
 30
0.0
 10
1.940044350234647
 20
28.7196538169278
 30
0.0
 10
1.934901494566942
 20
28.74437191271795
 30
0.0
 10
1.933704219208786
 20
28.74987708863124
 30
0.0
 10
1.932673979022934
 20
28.75457717301712
 30
0.0
 10
1.932477075747016
 20
28.75545976092894
 30
0.0
 10
1.932477075745521
 20
28.75545976093566
 30
0.0
  0
LINE
  5
9106
330
90F9
100
AcDbEntity
  8
0
100
AcDbLine
 10
2.000000000000002
 20
2.000000000000003
 30
0.0
 11
2.000000000000002
 21
28.00000000000001
 31
0.0
  0
LINE
  5
9107
330
90F9
100
AcDbEntity
  8
0
100
AcDbLine
 10
2.000000000000001
 20
60.99999999999997
 30
0.0
 11
2.000000000000015
 21
30.56249999999999
 31
0.0
  0
LINE
  5
9108
330
90F9
100
AcDbEntity
  8
0
100
AcDbLine
 10
0.0
 20
60.99999999999997
 30
0.0
 11
2.000000000000001
 21
60.99999999999997
 31
0.0
  0
LINE
  5
9109
330
90F9
100
AcDbEntity
  8
0
100
AcDbLine
 10
0.0
 20
30.56249999999999
 30
0.0
 11
0.0
 21
60.99999999999997
 31
0.0
  0
LINE
  5
910A
330
90F9
100
AcDbEntity
  8
0
100
AcDbLine
 10
86.00000000000001
 20
28.00000000000001
 30
0.0
 11
46.00000000000001
 21
60.99999999999997
 31
0.0
  0
LINE
  5
910B
330
90F9
100
AcDbEntity
  8
0
100
AcDbLine
 10
46.00000000000001
 20
60.99999999999997
 30
0.0
 11
46.0
 21
158.0
 31
0.0
  0
LINE
  5
910C
330
90F9
100
AcDbEntity
  8
0
100
AcDbLine
 10
2.000000000000001
 20
60.99999999999997
 30
0.0
 11
2.000000000000028
 21
158.0
 31
0.0
  0
LINE
  5
910D
330
90F9
100
AcDbEntity
  8
0
100
AcDbLine
 10
86.00000000000001
 20
28.00000000000001
 30
0.0
 11
86.0
 21
2.000000000000001
 31
0.0
  0
LINE
  5
910E
330
90F9
100
AcDbEntity
  8
0
100
AcDbLine
 10
4.000000000000003
 20
158.0
 30
0.0
 11
46.0
 21
158.0
 31
0.0
  0
LINE
  5
910F
330
90F9
100
AcDbEntity
  8
0
100
AcDbLine
 10
0.0
 20
158.0
 30
0.0
 11
2.000000000000028
 21
158.0
 31
0.0
  0
LINE
  5
9110
330
90F9
100
AcDbEntity
  8
0
100
AcDbLine
 10
0.0
 20
60.99999999999997
 30
0.0
 11
0.0
 21
158.0
 31
0.0
  0
LINE
  5
9111
330
90F9
100
AcDbEntity
  8
0
100
AcDbLine
 10
2.000000000000006
 20
158.0
 30
0.0
 11
4.000000000000003
 21
158.0
 31
0.0
  0
CIRCLE
  5
9112
330
90F9
100
AcDbEntity
  8
0
100
AcDbCircle
 10
38.5
 20
53.0
 30
0.0
 40
2.5
  0
CIRCLE
  5
9113
330
90F9
100
AcDbEntity
  8
0
100
AcDbCircle
 10
38.5
 20
73.0
 30
0.0
 40
2.5
  0
CIRCLE
  5
9114
330
90F9
100
AcDbEntity
  8
0
100
AcDbCircle
 10
38.5
 20
93.0
 30
0.0
 40
2.5
  0
CIRCLE
  5
9115
330
90F9
100
AcDbEntity
  8
0
100
AcDbCircle
 10
38.5
 20
113.0
 30
0.0
 40
2.5
  0
CIRCLE
  5
9116
330
90F9
100
AcDbEntity
  8
0
100
AcDbCircle
 10
38.5
 20
133.0
 30
0.0
 40
2.5
  0
CIRCLE
  5
9117
330
90F9
100
AcDbEntity
  8
0
100
AcDbCircle
 10
38.5
 20
153.0
 30
0.0
 40
2.5
  0
SPLINE
  5
9118
330
90F9
100
AcDbEntity
  8
0
100
AcDbSpline
210
0.0
220
0.0
230
1.0
 70
     8
 71
     3
 72
    20
 73
    16
 74
     0
 42
0.000000001
 43
0.0000000001
 40
0.0017997288490609
 40
0.0017997288490609
 40
0.0017997288490609
 40
0.0017997288490609
 40
0.0049367401188863
 40
0.0049367401188863
 40
0.0136098043271543
 40
0.0136098043271543
 40
0.0157024876691382
 40
0.0157024876691382
 40
0.0187307473546025
 40
0.0187307473546025
 40
0.0214824226791875
 40
0.0214824226791875
 40
0.0252523478232447
 40
0.0252523478232447
 40
0.0305682323666201
 40
0.0305682323666201
 40
0.0305682323666201
 40
0.0305682323666201
 10
1.999906247913693
 20
28.00798856112095
 30
0.0
 10
1.999844660327845
 20
28.01309294524577
 30
0.0
 10
1.99976947525491
 20
28.01881278147939
 30
0.0
 10
1.999447688714528
 20
28.04064785405382
 30
0.0
 10
1.999163708894453
 20
28.05695986250515
 30
0.0
 10
1.998493054174849
 20
28.08503904983922
 30
0.0
 10
1.998343946146859
 20
28.09096705569163
 30
0.0
 10
1.997931607325498
 20
28.10634381614243
 30
0.0
 10
1.997640337078317
 20
28.11638866831529
 30
0.0
 10
1.997034956663805
 20
28.13555085472121
 30
0.0
 10
1.9967208016377
 20
28.14483610163244
 30
0.0
 10
1.995944774375051
 20
28.16636647756352
 30
0.0
 10
1.995465327962935
 20
28.17862048273989
 30
0.0
 10
1.994261044122687
 20
28.20730810023631
 30
0.0
 10
1.993510226834179
 20
28.22356751649611
 30
0.0
 10
1.99271089685309
 20
28.23950034952235
 30
0.0
  0
ENDBLK
  5
90FB
330
90F9
100
AcDbEntity
  8
0
100
AcDbBlockEnd
  0
BLOCK
  5
911A
330
9119
100
AcDbEntity
  8
0
100
AcDbBlockBegin
  2
SAE380_64_2-Right
 70
     0
 10
0.0
 20
0.0
 30
0.0
  3
SAE380_64_2-Right
  1

  0
SPLINE
  5
911C
330
9119
100
AcDbEntity
  8
0
100
AcDbSpline
210
0.0
220
0.0
230
1.0
 70
     8
 71
     3
 72
    17
 73
    13
 74
     0
 42
0.000000001
 43
0.0000000001
 40
0.0
 40
0.0
 40
0.0
 40
0.0
 40
0.3704689058681779
 40
0.3704689058681779
 40
0.3704689058681779
 40
0.7029757053336599
 40
0.7029757053336599
 40
0.7029757053336599
 40
0.9335813790922051
 40
0.9335813790922051
 40
0.9335813790922051
 40
1.0
 40
1.0
 40
1.0
 40
1.0
 10
-2.000000000000015
 20
30.56250000000003
 30
0.0
 10
-2.000006377019319
 20
30.27455844103373
 30
0.0
 10
-2.000465619612809
 20
30.04087523495621
 30
0.0
 10
-1.999851137318937
 20
29.78869659270632
 30
0.0
 10
-1.999299621287154
 20
29.56235880321881
 30
0.0
 10
-2.00004388646215
 20
29.32332829807871
 30
0.0
 10
-2.000290307240853
 20
29.01709169609553
 30
0.0
 10
-2.000461209098476
 20
28.8047053688283
 30
0.0
 10
-2.000344409457376
 20
28.55383081504909
 30
0.0
 10
-2.000001688218373
 20
28.26575225714193
 30
0.0
 10
-1.999902978279109
 20
28.18278040212446
 30
0.0
 10
-2.000565701782129
 20
28.09884858615787
 30
0.0
 10
-2.000000000000153
 20
28.00000000000801
 30
0.0
  0
LINE
  5
911D
330
9119
100
AcDbEntity
  8
0
100
AcDbLine
 10
-2.001382055220164
 20
30.56249999999999
 30
0.0
 11
-2.000000000000015
 21
30.56249999999999
 31
0.0
  0
SPLINE
  5
911E
330
9119
100
AcDbEntity
  8
0
100
AcDbSpline
210
0.0
220
0.0
230
1.0
 70
     8
 71
     3
 72
    17
 73
    13
 74
     0
 42
0.000000001
 43
0.0000000001
 40
-0.964239186672208
 40
-0.964239186672208
 40
-0.964239186672208
 40
-0.964239186672208
 40
-0.7907552673943341
 40
-0.7907552673943341
 40
-0.7907552673943341
 40
-0.3883396848730589
 40
-0.3883396848730589
 40
-0.3883396848730589
 40
-0.1053184205983158
 40
-0.1053184205983158
 40
-0.1053184205983158
 40
0.0
 40
0.0
 40
0.0
 40
0.0
 10
-1.991418259919388
 20
28.23869885963564
 30
0.0
 10
-1.966312612901938
 20
28.60755087106242
 30
0.0
 10
-1.887915385279829
 20
28.89349071917486
 30
0.0
 10
-1.773393535467191
 20
29.10014472426088
 30
0.0
 10
-1.50774714532569
 20
29.57950207440148
 30
0.0
 10
-1.052077259773238
 20
29.69581939513465
 30
0.0
 10
-0.6711423121597015
 20
29.82272340325174
 30
0.0
 10
-0.4032285057297124
 20
29.91197574431121
 30
0.0
 10
-0.1693290542135965
 20
30.01102292129573
 30
0.0
 10
-0.0606817918137025
 20
30.23987558702061
 30
0.0
 10
-0.020251762262355
 20
30.32503668389304
 30
0.0
 10
-0.0000166268648454
 20
30.43287618703518
 30
0.0
 10
-0.0000000000000017
 20
30.56249999999997
 30
0.0
  0
LINE
  5
911F
330
9119
100
AcDbEntity
  8
0
100
AcDbLine
 10
-2.000000000000015
 20
30.56249999999999
 30
0.0
 11
0.0
 21
30.56249999999999
 31
0.0
  0
SPLINE
  5
9120
330
9119
100
AcDbEntity
  8
0
100
AcDbSpline
210
0.0
220
0.0
230
1.0
 70
     8
 71
     3
 72
    12
 73
     8
 74
     0
 42
0.000000001
 43
0.0000000001
 40
0.008464183292648
 40
0.008464183292648
 40
0.008464183292648
 40
0.008464183292648
 40
0.0101930109121299
 40
0.0101930109121299
 40
0.0141763837961336
 40
0.0141763837961336
 40
0.0170057172625195
 40
0.0170057172625195
 40
0.0170057172625195
 40
0.0170057172625195
 10
-1.999847236395054
 20
28.02589348225737
 30
0.0
 10
-1.999847236383304
 20
28.02589348384055
 30
0.0
 10
-1.999850315353965
 20
28.02548329262746
 30
0.0
 10
-1.999866456171209
 20
28.02291117694649
 30
0.0
 10
-1.999887626994907
 20
28.01912850602358
 30
0.0
 10
-1.999906952061103
 20
28.01000721577822
 30
0.0
 10
-1.99990998503603
 20
28.00539344841027
 30
0.0
 10
-1.999900956415556
 20
28.00007826946443
 30
0.0
  0
SPLINE
  5
9121
330
9119
100
AcDbEntity
  8
0
100
AcDbSpline
210
0.0
220
0.0
230
1.0
 70
     8
 71
     3
 72
    10
 73
     6
 74
     0
 42
0.000000001
 43
0.0000000001
 40
0.0072545016017491
 40
0.0072545016017491
 40
0.0072545016017491
 40
0.0072545016017491
 40
0.0102247139975478
 40
0.0102247139975478
 40
0.0135879817834846
 40
0.0135879817834846
 40
0.0135879817834846
 40
0.0135879817834846
 10
-1.999750203296048
 20
28.02086783974201
 30
0.0
 10
-1.999750203293406
 20
28.02086783993386
 30
0.0
 10
-1.999769298053618
 20
28.01949532061511
 30
0.0
 10
-1.999826681320529
 20
28.01504976342818
 30
0.0
 10
-1.999866331412924
 20
28.01176999845955
 30
0.0
 10
-1.999905409028881
 20
28.00818965320687
 30
0.0
  0
SPLINE
  5
9122
330
9119
100
AcDbEntity
  8
0
100
AcDbSpline
210
0.0
220
0.0
230
1.0
 70
     8
 71
     3
 72
    32
 73
    28
 74
     0
 42
0.000000001
 43
0.0000000001
 40
0.1058692347961729
 40
0.1058692347961729
 40
0.1058692347961729
 40
0.1058692347961729
 40
0.1125569603770029
 40
0.1125569603770029
 40
0.1206919461994489
 40
0.1206919461994489
 40
0.1302132866246756
 40
0.1302132866246756
 40
0.1446938869772068
 40
0.1446938869772068
 40
0.1722968621287122
 40
0.1722968621287122
 40
0.1826486655183604
 40
0.1826486655183604
 40
0.1902631015122766
 40
0.1902631015122766
 40
0.1925883992179914
 40
0.1925883992179914
 40
0.1947802385733358
 40
0.1947802385733358
 40
0.1979781238174836
 40
0.1979781238174836
 40
0.2006913788331286
 40
0.2006913788331286
 40
0.2045562420328172
 40
0.2045562420328172
 40
0.2106783791004048
 40
0.2106783791004048
 40
0.2106783791004048
 40
0.2106783791004048
 10
-1.932477075745515
 20
28.75545976093569
 30
0.0
 10
-1.932477075748725
 20
28.75545976092126
 30
0.0
 10
-1.933145434611545
 20
28.752480122886
 30
0.0
 10
-1.935847494897897
 20
28.73988852610749
 30
0.0
 10
-1.938160741182173
 20
28.72886291236947
 30
0.0
 10
-1.943928513691332
 20
28.699369792377
 30
0.0
 10
-1.947525427894238
 20
28.67982718269047
 30
0.0
 10
-1.95648665726203
 20
28.62632894204111
 30
0.0
 10
-1.961840594130602
 20
28.58988762952002
 30
0.0
 10
-1.975645767497899
 20
28.4800707692841
 30
0.0
 10
-1.982644461436652
 20
28.40282434351215
 30
0.0
 10
-1.989798920623887
 20
28.29401592495184
 30
0.0
 10
-1.991514409903189
 20
28.26398355955343
 30
0.0
 10
-1.994166589259611
 20
28.20988296087871
 30
0.0
 10
-1.995205722660653
 20
28.18596529246658
 30
0.0
 10
-1.996417211541383
 20
28.15338856452548
 30
0.0
 10
-1.996691378953272
 20
28.1456331732479
 30
0.0
 10
-1.997194751090032
 20
28.13058514995709
 30
0.0
 10
-1.997427832132594
 20
28.12322018804716
 30
0.0
 10
-1.997952813250887
 20
28.10566634281379
 30
0.0
 10
-1.998227757345949
 20
28.09553461668588
 30
0.0
 10
-1.998639123738186
 20
28.0791202376184
 30
0.0
 10
-1.998796316735318
 20
28.07229278473121
 30
0.0
 10
-1.999123378803299
 20
28.05716764112873
 30
0.0
 10
-1.999275175216794
 20
28.04927910162698
 30
0.0
 10
-1.999618847148307
 20
28.0296996430051
 30
0.0
 10
-1.999787079064829
 20
28.01782480062025
 30
0.0
 10
-1.99990711902547
 20
28.00787587891808
 30
0.0
  0
LINE
  5
9123
330
9119
100
AcDbEntity
  8
0
100
AcDbLine
 10
-1.999999999999997
 20
-2.0
 30
0.0
 11
-86.0
 21
-2.0
 31
0.0
  0
LINE
  5
9124
330
9119
100
AcDbEntity
  8
0
100
AcDbLine
 10
-2.000000000000002
 20
2.000000000000003
 30
0.0
 11
-2.000000000000002
 21
28.00000000000001
 31
0.0
  0
LINE
  5
9125
330
9119
100
AcDbEntity
  8
0
100
AcDbLine
 10
-2.000000000000002
 20
2.000000000000004
 30
0.0
 11
-1.999999999999997
 21
-1.999999999999999
 31
0.0
  0
LINE
  5
9126
330
9119
100
AcDbEntity
  8
0
100
AcDbLine
 10
-86.0
 20
-2.000000000000002
 30
0.0
 11
-86.0
 21
2.0
 31
0.0
  0
LINE
  5
9127
330
9119
100
AcDbEntity
  8
0
100
AcDbLine
 10
0.0
 20
60.99999999999997
 30
0.0
 11
0.0
 21
30.56249999999999
 31
0.0
  0
LINE
  5
9128
330
9119
100
AcDbEntity
  8
0
100
AcDbLine
 10
-2.000000000000001
 20
60.99999999999997
 30
0.0
 11
0.0
 21
60.99999999999997
 31
0.0
  0
LINE
  5
9129
330
9119
100
AcDbEntity
  8
0
100
AcDbLine
 10
-2.000000000000015
 20
30.56249999999999
 30
0.0
 11
-2.000000000000001
 21
60.99999999999997
 31
0.0
  0
LINE
  5
912A
330
9119
100
AcDbEntity
  8
0
100
AcDbLine
 10
0.0
 20
60.99999999999997
 30
0.0
 11
0.0
 21
158.0
 31
0.0
  0
CIRCLE
  5
912B
330
9119
100
AcDbEntity
  8
0
100
AcDbCircle
 10
-38.50000000000001
 20
143.0
 30
0.0
 40
2.5
  0
LINE
  5
912C
330
9119
100
AcDbEntity
  8
0
100
AcDbLine
 10
-46.00000000000001
 20
60.99999999999997
 30
0.0
 11
-86.00000000000001
 21
28.00000000000001
 31
0.0
  0
LINE
  5
912D
330
9119
100
AcDbEntity
  8
0
100
AcDbLine
 10
-46.0
 20
158.0
 30
0.0
 11
-46.00000000000001
 21
60.99999999999997
 31
0.0
  0
LINE
  5
912E
330
9119
100
AcDbEntity
  8
0
100
AcDbLine
 10
-86.00000000000001
 20
28.00000000000001
 30
0.0
 11
-86.0
 21
2.000000000000001
 31
0.0
  0
LINE
  5
912F
330
9119
100
AcDbEntity
  8
0
100
AcDbLine
 10
-4.000000000000003
 20
158.0
 30
0.0
 11
-46.0
 21
158.0
 31
0.0
  0
LINE
  5
9130
330
9119
100
AcDbEntity
  8
0
100
AcDbLine
 10
-2.000000000000006
 20
158.0
 30
0.0
 11
-4.000000000000003
 21
158.0
 31
0.0
  0
LINE
  5
9131
330
9119
100
AcDbEntity
  8
0
100
AcDbLine
 10
0.0
 20
158.0
 30
0.0
 11
-2.000000000000028
 21
158.0
 31
0.0
  0
LINE
  5
9132
330
9119
100
AcDbEntity
  8
0
100
AcDbLine
 10
-2.000000000000001
 20
60.99999999999997
 30
0.0
 11
-2.000000000000028
 21
158.0
 31
0.0
  0
CIRCLE
  5
9133
330
9119
100
AcDbEntity
  8
0
100
AcDbCircle
 10
-38.50000000000001
 20
42.99999999999998
 30
0.0
 40
2.5
  0
CIRCLE
  5
9134
330
9119
100
AcDbEntity
  8
0
100
AcDbCircle
 10
-38.50000000000001
 20
62.99999999999998
 30
0.0
 40
2.5
  0
CIRCLE
  5
9135
330
9119
100
AcDbEntity
  8
0
100
AcDbCircle
 10
-38.50000000000001
 20
82.99999999999998
 30
0.0
 40
2.5
  0
CIRCLE
  5
9136
330
9119
100
AcDbEntity
  8
0
100
AcDbCircle
 10
-38.50000000000001
 20
103.0
 30
0.0
 40
2.5
  0
CIRCLE
  5
9137
330
9119
100
AcDbEntity
  8
0
100
AcDbCircle
 10
-38.50000000000001
 20
123.0
 30
0.0
 40
2.5
  0
LINE
  5
9138
330
9119
100
AcDbEntity
  8
0
100
AcDbLine
 10
-1.999900956408433
 20
28.00007826917161
 30
0.0
 11
-1.999900822932383
 21
28.00000014430529
 31
0.0
  0
SPLINE
  5
9139
330
9119
100
AcDbEntity
  8
0
100
AcDbSpline
210
0.0
220
0.0
230
1.0
 70
     8
 71
     3
 72
    22
 73
    18
 74
     0
 42
0.000000001
 43
0.0000000001
 40
0.1819060120226571
 40
0.1819060120226571
 40
0.1819060120226571
 40
0.1819060120226571
 40
0.1826498828437052
 40
0.1826498828437052
 40
0.1902643816282733
 40
0.1902643816282733
 40
0.192589056364366
 40
0.192589056364366
 40
0.1947804360715989
 40
0.1947804360715989
 40
0.1979780159888123
 40
0.1979780159888123
 40
0.2006912901156978
 40
0.2006912901156978
 40
0.204556355656387
 40
0.204556355656387
 40
0.2106780283756748
 40
0.2106780283756748
 40
0.2106780283756748
 40
0.2106780283756748
 10
-1.992710897361175
 20
28.23950035588721
 30
0.0
 10
-1.992822618034554
 20
28.23727345726382
 30
0.0
 10
-1.99293343025696
 20
28.2350377193154
 30
0.0
 10
-1.994167249455122
 20
28.20986836783433
 30
0.0
 10
-1.995206361587661
 20
28.18594985632438
 30
0.0
 10
-1.996417719234001
 20
28.15337437943671
 30
0.0
 10
-1.996691799271913
 20
28.14562098707243
 30
0.0
 10
-1.997195026569357
 20
28.13057655689959
 30
0.0
 10
-1.997428046979846
 20
28.12321321381403
 30
0.0
 10
-1.997952931095299
 20
28.1056620963518
 30
0.0
 10
-1.998227835298607
 20
28.09553162368077
 30
0.0
 10
-1.998639169453446
 20
28.0791183137825
 30
0.0
 10
-1.998796358319506
 20
28.07229094772117
 30
0.0
 10
-1.999123421689048
 20
28.05716553521853
 30
0.0
 10
-1.999275220655323
 20
28.04927670722915
 30
0.0
 10
-1.999618871003641
 20
28.02969797610773
 30
0.0
 10
-1.99978708820643
 20
28.01782400836671
 30
0.0
 10
-1.999907119099075
 20
28.00787583822074
 30
0.0
  0
ENDBLK
  5
911B
330
9119
100
AcDbEntity
  8
0
100
AcDbBlockEnd
  0
BLOCK
  5
913B
330
913A
100
AcDbEntity
  8
0
100
AcDbBlockBegin
  2
SAE380_64_2-Top
 70
     0
 10
0.0
 20
0.0
 30
0.0
  3
SAE380_64_2-Top
  1

  0
LINE
  5
913D
330
913A
100
AcDbEntity
  8
0
100
AcDbLine
 10
32.00000000000001
 20
-2.0
 30
0.0
 11
32.00000000000001
 21
-2.069004766162106
 31
0.0
  0
SPLINE
  5
913E
330
913A
100
AcDbEntity
  8
0
100
AcDbSpline
210
0.0
220
0.0
230
1.0
 70
     8
 71
     3
 72
    11
 73
     7
 74
     0
 42
0.000000001
 43
0.0000000001
 40
-1.0
 40
-1.0
 40
-1.0
 40
-1.0
 40
-0.7907552673943341
 40
-0.7907552673943341
 40
-0.7907552673943341
 40
-0.653503387546082
 40
-0.653503387546082
 40
-0.653503387546082
 40
-0.653503387546082
 10
32.00000000000002
 20
-1.999999999999756
 30
0.0
 10
32.0000172487742
 20
-1.997098202774122
 30
0.0
 10
32.13515725660804
 20
-1.911522152466956
 30
0.0
 10
32.3646372912603
 20
-1.773393535467191
 30
0.0
 10
32.51516230448979
 20
-1.682789523084307
 30
0.0
 10
32.70501487260073
 20
-1.57008031690717
 30
0.0
 10
32.92229672436937
 20
-1.4457705367475
 30
0.0
  0
SPLINE
  5
913F
330
913A
100
AcDbEntity
  8
0
100
AcDbSpline
210
0.0
220
0.0
230
1.0
 70
     8
 71
     3
 72
    10
 73
     6
 74
     0
 42
0.000000001
 43
0.0000000001
 40
0.0
 40
0.0
 40
0.0
 40
0.0
 40
0.0670584162408527
 40
0.0670584162408527
 40
0.1015857294879304
 40
0.1015857294879304
 40
0.1015857294879304
 40
0.1015857294879304
 10
36.58980804090733
 20
-2.000030232669504
 30
0.0
 10
36.39154521972126
 20
-2.000297119479846
 30
0.0
 10
36.18834991721499
 20
-2.001422490699177
 30
0.0
 10
35.87453551236622
 20
-2.013511332966771
 30
0.0
 10
35.76446343913291
 20
-2.019552871707358
 30
0.0
 10
35.65274930207879
 20
-2.030278825412262
 30
0.0
  0
SPLINE
  5
9140
330
913A
100
AcDbEntity
  8
0
100
AcDbSpline
210
0.0
220
0.0
230
1.0
 70
     8
 71
     3
 72
    10
 73
     6
 74
     0
 42
0.000000001
 43
0.0000000001
 40
0.0589313022339292
 40
0.0589313022339292
 40
0.0589313022339292
 40
0.0589313022339292
 40
0.0599779860559991
 40
0.0599779860559991
 40
0.0663268531986142
 40
0.0663268531986142
 40
0.0663268531986142
 40
0.0663268531986142
 10
34.00026149195241
 20
-3.967645940220906
 30
0.0
 10
34.00024336833443
 20
-3.969383514676068
 30
0.0
 10
34.00022834572097
 20
-3.970951905491806
 30
0.0
 10
34.0001258922763
 20
-3.981754123488816
 30
0.0
 10
34.00006999202746
 20
-3.989563038495474
 30
0.0
 10
34.00002531920669
 20
-4.000000108971984
 30
0.0
  0
SPLINE
  5
9141
330
913A
100
AcDbEntity
  8
0
100
AcDbSpline
210
0.0
220
0.0
230
1.0
 70
     8
 71
     3
 72
    34
 73
    30
 74
     0
 42
0.000000001
 43
0.0000000001
 40
0.0101706376939618
 40
0.0101706376939618
 40
0.0101706376939618
 40
0.0101706376939618
 40
0.0113032242041258
 40
0.0113032242041258
 40
0.0117452730041142
 40
0.0117452730041142
 40
0.0119671973095381
 40
0.0119671973095381
 40
0.0121912824908252
 40
0.0121912824908252
 40
0.0124134699156274
 40
0.0124134699156274
 40
0.0133139272939456
 40
0.0133139272939456
 40
0.0702378920184154
 40
0.0702378920184154
 40
0.1264916664289783
 40
0.1264916664289783
 40
0.1751658782661668
 40
0.1751658782661668
 40
0.1996211615680784
 40
0.1996211615680784
 40
0.211971240656122
 40
0.211971240656122
 40
0.2186278189370637
 40
0.2186278189370637
 40
0.2221807142771069
 40
0.2221807142771069
 40
0.225866633275285
 40
0.225866633275285
 40
0.225866633275285
 40
0.225866633275285
 10
31.99996698296276
 20
-3.998219693831161
 30
0.0
 10
31.99996230387116
 20
-3.997950181140617
 30
0.0
 10
31.99995706362969
 20
-3.997648663691507
 30
0.0
 10
31.99993617331297
 20
-3.996443925685908
 30
0.0
 10
31.99992863161125
 20
-3.996008971808651
 30
0.0
 10
31.99990995844537
 20
-3.994930140659644
 30
0.0
 10
31.99990223968297
 20
-3.994483968809405
 30
0.0
 10
31.99988342133307
 20
-3.993394858367411
 30
0.0
 10
31.99987196139498
 20
-3.992730979203797
 30
0.0
 10
31.99984791587559
 20
-3.991335840810065
 30
0.0
 10
31.99983512143802
 20
-3.990592489112842
 30
0.0
 10
31.999771001958
 20
-3.986861431854504
 30
0.0
 10
31.99971951691543
 20
-3.983847036929617
 30
0.0
 10
31.99655721471409
 20
-3.797606483685962
 30
0.0
 10
31.99490021673558
 20
-3.631657055962853
 30
0.0
 10
31.99335586194664
 20
-3.291344356453144
 30
0.0
 10
31.99342838966407
 20
-3.120450641863095
 30
0.0
 10
31.99449056688506
 20
-2.794093547796476
 30
0.0
 10
31.99542235845447
 20
-2.639749965823855
 30
0.0
 10
31.99709804463904
 20
-2.414735822164737
 30
0.0
 10
31.99772907328007
 20
-2.340295300573389
 30
0.0
 10
31.99882206305562
 20
-2.228366563411197
 30
0.0
 10
31.99918481763016
 20
-2.190556472373894
 30
0.0
 10
31.99948693969679
 20
-2.138734413432691
 30
0.0
 10
31.99954739735549
 20
-2.12167156517003
 30
0.0
 10
31.99958626686785
 20
-2.098890303251481
 30
0.0
 10
31.99959049249397
 20
-2.091538074512454
 30
0.0
 10
31.99958778637473
 20
-2.078516658040507
 30
0.0
 10
31.99958019965026
 20
-2.07283531408594
 30
0.0
 10
31.99957228829784
 20
-2.069004766162107
 30
0.0
  0
SPLINE
  5
9142
330
913A
100
AcDbEntity
  8
0
100
AcDbSpline
210
0.0
220
0.0
230
1.0
 70
     8
 71
     3
 72
    12
 73
     8
 74
     0
 42
0.000000001
 43
0.0000000001
 40
0.0
 40
0.0
 40
0.0
 40
0.0
 40
0.0073837082040762
 40
0.0073837082040762
 40
0.0094968776852175
 40
0.0094968776852175
 40
0.0106851798987105
 40
0.0106851798987105
 40
0.0106851798987105
 40
0.0106851798987105
 10
31.99996052260956
 20
-3.999985103458847
 30
0.0
 10
32.00000146855735
 20
-3.988676024697928
 30
0.0
 10
32.00005745707829
 20
-3.976740013352147
 30
0.0
 10
32.00011516119736
 20
-3.966761709144217
 30
0.0
 10
32.00012635319193
 20
-3.964941242420867
 30
0.0
 10
32.00013635879045
 20
-3.963322951678405
 30
0.0
 10
32.00013843235815
 20
-3.962989226396135
 30
0.0
 10
32.00013843227608
 20
-3.962989239721143
 30
0.0
  0
LINE
  5
9143
330
913A
100
AcDbEntity
  8
0
100
AcDbLine
 10
-32.00000000000001
 20
-2.0
 30
0.0
 11
-32.00000000000001
 21
-2.069004613543271
 31
0.0
  0
SPLINE
  5
9144
330
913A
100
AcDbEntity
  8
0
100
AcDbSpline
210
0.0
220
0.0
230
1.0
 70
     8
 71
     3
 72
    11
 73
     7
 74
     0
 42
0.000000001
 43
0.0000000001
 40
-1.0
 40
-1.0
 40
-1.0
 40
-1.0
 40
-0.7907552673943341
 40
-0.7907552673943341
 40
-0.7907552673943341
 40
-0.653503387546082
 40
-0.653503387546082
 40
-0.653503387546082
 40
-0.653503387546082
 10
-32.00000000000002
 20
-1.999999999999756
 30
0.0
 10
-32.0000172487742
 20
-1.997098202774122
 30
0.0
 10
-32.13515725660804
 20
-1.911522152466956
 30
0.0
 10
-32.3646372912603
 20
-1.773393535467191
 30
0.0
 10
-32.51516230448979
 20
-1.682789523084307
 30
0.0
 10
-32.70501487260073
 20
-1.57008031690717
 30
0.0
 10
-32.92229672436937
 20
-1.4457705367475
 30
0.0
  0
SPLINE
  5
9145
330
913A
100
AcDbEntity
  8
0
100
AcDbSpline
210
0.0
220
0.0
230
1.0
 70
     8
 71
     3
 72
    44
 73
    40
 74
     0
 42
0.000000001
 43
0.0000000001
 40
0.0
 40
0.0
 40
0.0
 40
0.0
 40
0.0038040348772262
 40
0.0038040348772262
 40
0.0084788654147294
 40
0.0084788654147294
 40
0.0158053346151769
 40
0.0158053346151769
 40
0.0259998532666887
 40
0.0259998532666887
 40
0.0495197304999686
 40
0.0495197304999686
 40
0.1201073318256927
 40
0.1201073318256927
 40
0.1773295340160142
 40
0.1773295340160142
 40
0.1997047462667506
 40
0.1997047462667506
 40
0.2080944190618058
 40
0.2080944190618058
 40
0.211240656574717
 40
0.211240656574717
 40
0.2124207489207396
 40
0.2124207489207396
 40
0.2133083392494914
 40
0.2133083392494914
 40
0.2136312817795841
 40
0.2136312817795841
 40
0.2138073635452312
 40
0.2138073635452312
 40
0.2140087100175766
 40
0.2140087100175766
 40
0.2141985739425918
 40
0.2141985739425918
 40
0.2144561819849774
 40
0.2144561819849774
 40
0.2149191867640283
 40
0.2149191867640283
 40
0.2157309491169152
 40
0.2157309491169152
 40
0.2157309491169152
 40
0.2157309491169152
 10
-31.99957228798263
 20
-2.06900461354327
 30
0.0
 10
-31.99958045285542
 20
-2.072957861398103
 30
0.0
 10
-31.99958825457611
 20
-2.078880777251987
 30
0.0
 10
-31.99959053809945
 20
-2.094284926802384
 30
0.0
 10
-31.99958182869718
 20
-2.104402270743679
 30
0.0
 10
-31.99951287674263
 20
-2.132561847521284
 30
0.0
 10
-31.99942217256045
 20
-2.152169617869687
 30
0.0
 10
-31.99908019635471
 20
-2.201628001501647
 30
0.0
 10
-31.99878021097469
 20
-2.232654927522454
 30
0.0
 10
-31.99777931805113
 20
-2.335144704988104
 30
0.0
 10
-31.99716330174975
 20
-2.406776612641831
 30
0.0
 10
-31.99498755087124
 20
-2.695949864065001
 30
0.0
 10
-31.9937854930789
 20
-2.921280001178931
 30
0.0
 10
-31.99344330820772
 20
-3.312911976632973
 30
0.0
 10
-31.99387940322131
 20
-3.483471594238149
 30
0.0
 10
-31.99604650213522
 20
-3.72409520990207
 30
0.0
 10
-31.99683211623938
 20
-3.792215028837535
 30
0.0
 10
-31.99816821098122
 20
-3.886828534906639
 30
0.0
 10
-31.99855792901483
 20
-3.91269714937332
 30
0.0
 10
-31.99913004525545
 20
-3.948473708445146
 30
0.0
 10
-31.99928963729438
 20
-3.958243960686944
 30
0.0
 10
-31.99951635843851
 20
-3.971834930189603
 30
0.0
 10
-31.99957897561559
 20
-3.975559954222119
 30
0.0
 10
-31.99969121768729
 20
-3.982184856292032
 30
0.0
 10
-31.99974064854164
 20
-3.985085810017201
 30
0.0
 10
-31.99980969818347
 20
-3.989113538702405
 30
0.0
 10
-31.9998286060984
 20
-3.990214011072641
 30
0.0
 10
-31.99985644977636
 20
-3.991831173794231
 30
0.0
 10
-31.99986611774272
 20
-3.992392011437686
 30
0.0
 10
-31.99988497974291
 20
-3.993485138310559
 30
0.0
 10
-31.99989407353882
 20
-3.994011473021724
 30
0.0
 10
-31.9999086550911
 20
-3.99485482720204
 30
0.0
 10
-31.99991454116335
 20
-3.995194950217798
 30
0.0
 10
-31.99992619540484
 20
-3.995868105636723
 30
0.0
 10
-31.99993132789517
 20
-3.996164305970369
 30
0.0
 10
-31.99994325371694
 20
-3.996852361656443
 30
0.0
 10
-31.99994827633144
 20
-3.997141858766986
 30
0.0
 10
-31.99995948331369
 20
-3.997787753634869
 30
0.0
 10
-31.99996362557473
 20
-3.998026310423152
 30
0.0
 10
-31.99996698296278
 20
-3.9982196938324
 30
0.0
  0
SPLINE
  5
9146
330
913A
100
AcDbEntity
  8
0
100
AcDbSpline
210
0.0
220
0.0
230
1.0
 70
     8
 71
     3
 72
    14
 73
    10
 74
     0
 42
0.000000001
 43
0.0000000001
 40
0.0078286890166994
 40
0.0078286890166994
 40
0.0078286890166994
 40
0.0078286890166994
 40
0.0081756997622206
 40
0.0081756997622206
 40
0.01023253690265
 40
0.01023253690265
 40
0.0133245865073732
 40
0.0133245865073732
 40
0.0185206293614179
 40
0.0185206293614179
 40
0.0185206293614179
 40
0.0185206293614179
 10
-32.00013843227606
 20
-3.962989239727451
 30
0.0
 10
-32.00013843227606
 20
-3.962989239727945
 30
0.0
 10
-32.00013825698725
 20
-3.963017673694061
 30
0.0
 10
-32.00013591722456
 20
-3.963395647858115
 30
0.0
 10
-32.00012809224495
 20
-3.964642737443909
 30
0.0
 10
-32.00010165109168
 20
-3.969046620681999
 30
0.0
 10
-32.00007995426688
 20
-3.972835993495915
 30
0.0
 10
-32.00002326049734
 20
-3.98397999062882
 30
0.0
 10
-31.99998928364131
 20
-3.992040166806541
 30
0.0
 10
-31.99996047355853
 20
-3.99999865220649
 30
0.0
  0
SPLINE
  5
9147
330
913A
100
AcDbEntity
  8
0
100
AcDbSpline
210
0.0
220
0.0
230
1.0
 70
     8
 71
     3
 72
    10
 73
     6
 74
     0
 42
0.000000001
 43
0.0000000001
 40
0.0
 40
0.0
 40
0.0
 40
0.0
 40
0.0049906877731433
 40
0.0049906877731433
 40
0.0073950153061255
 40
0.0073950153061255
 40
0.0073950153061255
 40
0.0073950153061255
 10
-34.00002531920667
 20
-4.000000108971982
 30
0.0
 10
-34.00006043540857
 20
-3.991795785452723
 30
0.0
 10
-34.00010543803884
 20
-3.985044489228396
 30
0.0
 10
-34.00019029816655
 20
-3.974913320033471
 30
0.0
 10
-34.00022128444373
 20
-3.971546284531336
 30
0.0
 10
-34.00026242521145
 20
-3.967601975675173
 30
0.0
  0
SPLINE
  5
9148
330
913A
100
AcDbEntity
  8
0
100
AcDbSpline
210
0.0
220
0.0
230
1.0
 70
     8
 71
     3
 72
    12
 73
     8
 74
     0
 42
0.000000001
 43
0.0000000001
 40
0.1006407255261001
 40
0.1006407255261001
 40
0.1006407255261001
 40
0.1006407255261001
 40
0.1211256635478971
 40
0.1211256635478971
 40
0.178406418952715
 40
0.178406418952715
 40
0.2023979344810843
 40
0.2023979344810843
 40
0.2023979344810843
 40
0.2023979344810843
 10
-35.6522535562397
 20
-2.030463909734715
 30
0.0
 10
-35.71837693380982
 20
-2.024115238887477
 30
0.0
 10
-35.78376124664797
 20
-2.019390814224062
 30
0.0
 10
-36.02830126557921
 20
-2.005407957726041
 30
0.0
 10
-36.20098786196022
 20
-2.002606029119271
 30
0.0
 10
-36.44720089235805
 20
-2.000365144870529
 30
0.0
 10
-36.51887547464733
 20
-2.000125716866922
 30
0.0
 10
-36.58980804090564
 20
-2.000030232669506
 30
0.0
  0
LINE
  5
9149
330
913A
100
AcDbEntity
  8
0
100
AcDbLine
 10
-32.00000000000001
 20
-2.0
 30
0.0
 11
-30.00000000000001
 21
-1.999999999999997
 31
0.0
  0
LINE
  5
914A
330
913A
100
AcDbEntity
  8
0
100
AcDbLine
 10
-31.99999999999999
 20
-86.0
 30
0.0
 11
-29.99999999999998
 21
-86.0
 31
0.0
  0
LINE
  5
914B
330
913A
100
AcDbEntity
  8
0
100
AcDbLine
 10
30.00000000000002
 20
-1.999999999999997
 30
0.0
 11
-30.00000000000002
 21
-1.999999999999997
 31
0.0
  0
LINE
  5
914C
330
913A
100
AcDbEntity
  8
0
100
AcDbLine
 10
-29.99999999999998
 20
-86.0
 30
0.0
 11
29.99999999999998
 21
-86.0
 31
0.0
  0
CIRCLE
  5
914D
330
913A
100
AcDbEntity
  8
0
100
AcDbCircle
 10
0.0
 20
-47.99999999999998
 30
0.0
 40
2.5
  0
CIRCLE
  5
914E
330
913A
100
AcDbEntity
  8
0
100
AcDbCircle
 10
0.0
 20
-67.99999999999998
 30
0.0
 40
2.5
  0
LINE
  5
914F
330
913A
100
AcDbEntity
  8
0
100
AcDbLine
 10
32.00000000000001
 20
-2.0
 30
0.0
 11
30.00000000000001
 21
-1.999999999999997
 31
0.0
  0
LINE
  5
9150
330
913A
100
AcDbEntity
  8
0
100
AcDbLine
 10
36.0
 20
0.0
 30
0.0
 11
73.5
 21
0.0
 31
0.0
  0
ARC
  5
9151
330
913A
100
AcDbEntity
  8
0
100
AcDbCircle
 10
36.0
 20
-4.000000000000004
 30
0.0
 40
3.999999999999999
100
AcDbArc
 50
90.00000000000012
 51
180.0
  0
LINE
  5
9152
330
913A
100
AcDbEntity
  8
0
100
AcDbLine
 10
31.99999999999999
 20
-86.00000000000001
 30
0.0
 11
32.0
 21
-46.00000000000001
 31
0.0
  0
LINE
  5
9153
330
913A
100
AcDbEntity
  8
0
100
AcDbLine
 10
33.99999999999999
 20
-86.00000000000001
 30
0.0
 11
31.99999999999999
 21
-86.00000000000001
 31
0.0
  0
LINE
  5
9154
330
913A
100
AcDbEntity
  8
0
100
AcDbLine
 10
34.0
 20
-46.00000000000001
 30
0.0
 11
33.99999999999999
 21
-86.00000000000001
 31
0.0
  0
LINE
  5
9155
330
913A
100
AcDbEntity
  8
0
100
AcDbLine
 10
32.0
 20
-46.0
 30
0.0
 11
34.0
 21
-46.0
 31
0.0
  0
LINE
  5
9156
330
913A
100
AcDbEntity
  8
0
100
AcDbLine
 10
34.0
 20
-4.000000000000003
 30
0.0
 11
34.0
 21
-46.0
 31
0.0
  0
LINE
  5
9157
330
913A
100
AcDbEntity
  8
0
100
AcDbLine
 10
32.0
 20
-46.0
 30
0.0
 11
32.0
 21
-4.000000000000003
 31
0.0
  0
LINE
  5
9158
330
913A
100
AcDbEntity
  8
0
100
AcDbLine
 10
31.99999999999999
 20
-86.0
 30
0.0
 11
29.99999999999998
 21
-86.0
 31
0.0
  0
ARC
  5
9159
330
913A
100
AcDbEntity
  8
0
100
AcDbCircle
 10
36.0
 20
-4.000000000000004
 30
0.0
 40
1.999999999999997
100
AcDbArc
 50
90.00000000000026
 51
180.0
  0
LINE
  5
915A
330
913A
100
AcDbEntity
  8
0
100
AcDbLine
 10
73.5
 20
0.0
 30
0.0
 11
73.5
 21
-2.000000000000028
 31
0.0
  0
LINE
  5
915B
330
913A
100
AcDbEntity
  8
0
100
AcDbLine
 10
73.5
 20
-2.000000000000028
 30
0.0
 11
36.0
 21
-2.000000000000006
 31
0.0
  0
LINE
  5
915C
330
913A
100
AcDbEntity
  8
0
100
AcDbLine
 10
-73.5
 20
-2.000000000000028
 30
0.0
 11
-36.0
 21
-2.000000000000006
 31
0.0
  0
LINE
  5
915D
330
913A
100
AcDbEntity
  8
0
100
AcDbLine
 10
-32.0
 20
-46.0
 30
0.0
 11
-32.0
 21
-4.000000000000003
 31
0.0
  0
LINE
  5
915E
330
913A
100
AcDbEntity
  8
0
100
AcDbLine
 10
-34.0
 20
-4.000000000000003
 30
0.0
 11
-34.0
 21
-46.0
 31
0.0
  0
LINE
  5
915F
330
913A
100
AcDbEntity
  8
0
100
AcDbLine
 10
-36.0
 20
0.0
 30
0.0
 11
-73.5
 21
0.0
 31
0.0
  0
LINE
  5
9160
330
913A
100
AcDbEntity
  8
0
100
AcDbLine
 10
-73.5
 20
0.0
 30
0.0
 11
-73.5
 21
-2.000000000000028
 31
0.0
  0
ARC
  5
9161
330
913A
100
AcDbEntity
  8
0
100
AcDbCircle
 10
-36.0
 20
-4.000000000000004
 30
0.0
 40
1.999999999999997
100
AcDbArc
 50
0.0
 51
89.99999999999975
  0
ARC
  5
9162
330
913A
100
AcDbEntity
  8
0
100
AcDbCircle
 10
-36.0
 20
-4.000000000000004
 30
0.0
 40
3.999999999999999
100
AcDbArc
 50
0.0
 51
89.99999999999987
  0
LINE
  5
9163
330
913A
100
AcDbEntity
  8
0
100
AcDbLine
 10
-32.0
 20
-46.00000000000001
 30
0.0
 11
-31.99999999999999
 21
-86.00000000000001
 31
0.0
  0
LINE
  5
9164
330
913A
100
AcDbEntity
  8
0
100
AcDbLine
 10
-33.99999999999999
 20
-86.00000000000001
 30
0.0
 11
-34.0
 21
-46.00000000000001
 31
0.0
  0
LINE
  5
9165
330
913A
100
AcDbEntity
  8
0
100
AcDbLine
 10
-31.99999999999999
 20
-86.00000000000001
 30
0.0
 11
-33.99999999999999
 21
-86.00000000000001
 31
0.0
  0
LINE
  5
9166
330
913A
100
AcDbEntity
  8
0
100
AcDbLine
 10
-34.0
 20
-46.0
 30
0.0
 11
-32.0
 21
-46.0
 31
0.0
  0
ENDBLK
  5
913C
330
913A
100
AcDbEntity
  8
0
100
AcDbBlockEnd
  0
BLOCK
  5
9168
330
9167
100
AcDbEntity
  8
0
100
AcDbBlockBegin
  2
SAE380_64_2-Bottom
 70
     0
 10
0.0
 20
0.0
 30
0.0
  3
SAE380_64_2-Bottom
  1

  0
SPLINE
  5
916A
330
9167
100
AcDbEntity
  8
0
100
AcDbSpline
210
0.0
220
0.0
230
1.0
 70
     8
 71
     3
 72
    17
 73
    13
 74
     0
 42
0.000000001
 43
0.0000000001
 40
0.0
 40
0.0
 40
0.0
 40
0.0
 40
0.3704689058681779
 40
0.3704689058681779
 40
0.3704689058681779
 40
0.7029757053336599
 40
0.7029757053336599
 40
0.7029757053336599
 40
0.9335813790922051
 40
0.9335813790922051
 40
0.9335813790922051
 40
1.0
 40
1.0
 40
1.0
 40
1.0
 10
36.6060606060607
 20
2.000000000000015
 30
0.0
 10
36.25310981611569
 20
2.000006377019319
 30
0.0
 10
35.80994835339227
 20
2.000465619612809
 30
0.0
 10
35.38299606376912
 20
1.999851137318937
 30
0.0
 10
34.99979375691327
 20
1.999299621287154
 30
0.0
 10
34.63742190750345
 20
2.00004388646215
 30
0.0
 10
34.37998709143697
 20
2.000290307240853
 30
0.0
 10
34.20144659451075
 20
2.000461209098476
 30
0.0
 10
34.07197149374086
 20
2.000344409457376
 30
0.0
 10
34.02188707329876
 20
2.000001688218373
 30
0.0
 10
34.00746185088114
 20
1.999902978279109
 30
0.0
 10
33.99999784581295
 20
2.000565701782129
 30
0.0
 10
34.00000000001911
 20
2.000000000000153
 30
0.0
  0
ARC
  5
916B
330
9167
100
AcDbEntity
  8
0
100
AcDbCircle
 10
36.0
 20
4.000000000000004
 30
0.0
 40
1.999999999999988
100
AcDbArc
 50
180.1766999794521
 51
259.9841049351031
  0
ARC
  5
916C
330
9167
100
AcDbEntity
  8
0
100
AcDbCircle
 10
36.0
 20
4.000000000000004
 30
0.0
 40
3.999999999999989
100
AcDbArc
 50
219.6735598722336
 51
270.0
  0
LINE
  5
916D
330
9167
100
AcDbEntity
  8
0
100
AcDbLine
 10
36.60606060606069
 20
0.0
 30
0.0
 11
36.0
 21
0.0
 31
0.0
  0
SPLINE
  5
916E
330
9167
100
AcDbEntity
  8
0
100
AcDbSpline
210
0.0
220
0.0
230
1.0
 70
     8
 71
     3
 72
    17
 73
    13
 74
     0
 42
0.000000001
 43
0.0000000001
 40
-1.0
 40
-1.0
 40
-1.0
 40
-1.0
 40
-0.7907552673943341
 40
-0.7907552673943341
 40
-0.7907552673943341
 40
-0.3883396848730589
 40
-0.3883396848730589
 40
-0.3883396848730589
 40
-0.1053184205983158
 40
-0.1053184205983158
 40
-0.1053184205983158
 40
0.0
 40
0.0
 40
0.0
 40
0.0
 10
32.00000000000002
 20
1.999999999999756
 30
0.0
 10
32.0000172487742
 20
1.997098202774122
 30
0.0
 10
32.13515725660804
 20
1.911522152466956
 30
0.0
 10
32.3646372912603
 20
1.773393535467191
 30
0.0
 10
32.80596903075804
 20
1.50774714532569
 30
0.0
 10
33.58537332976825
 20
1.052077259773238
 30
0.0
 10
34.4029661653336
 20
0.6711423121597015
 30
0.0
 10
34.97798405239926
 20
0.4032285057297124
 30
0.0
 10
35.57892350320307
 20
0.1693290542135965
 30
0.0
 10
36.08259362676903
 20
0.0606817918137025
 30
0.0
 10
36.27002032791271
 20
0.020251762262355
 30
0.0
 10
36.44467332044781
 20
0.0000166268648454
 30
0.0
 10
36.6060606060607
 20
0.0000000000000017
 30
0.0
  0
LINE
  5
916F
330
9167
100
AcDbEntity
  8
0
100
AcDbLine
 10
36.6060606060607
 20
2.000000000000015
 30
0.0
 11
36.6060606060607
 21
0.0
 31
0.0
  0
SPLINE
  5
9170
330
9167
100
AcDbEntity
  8
0
100
AcDbSpline
210
0.0
220
0.0
230
1.0
 70
     8
 71
     3
 72
    28
 73
    24
 74
     0
 42
0.000000001
 43
0.0000000001
 40
0.0690822590119721
 40
0.0690822590119721
 40
0.0690822590119721
 40
0.0690822590119721
 40
0.0695373376946267
 40
0.0695373376946267
 40
0.070559277577092
 40
0.070559277577092
 40
0.0715813611852012
 40
0.0715813611852012
 40
0.0725991042098194
 40
0.0725991042098194
 40
0.0746451822655347
 40
0.0746451822655347
 40
0.0787297326832623
 40
0.0787297326832623
 40
0.0838653754386271
 40
0.0838653754386271
 40
0.0955614324958398
 40
0.0955614324958398
 40
0.12112566354635
 40
0.12112566354635
 40
0.1784064189496175
 40
0.1784064189496175
 40
0.1798465075901411
 40
0.1798465075901411
 40
0.1798465075901411
 40
0.1798465075901411
 10
35.36371670695544
 20
2.070841470802826
 30
0.0
 10
35.3637167069634
 20
2.070841470801212
 30
0.0
 10
35.36380214744611
 20
2.070824147944722
 30
0.0
 10
35.3643836194599
 20
2.070706910031262
 30
0.0
 10
35.36528572235109
 20
2.070525432049207
 30
0.0
 10
35.36805655518943
 20
2.069975659406731
 30
0.0
 10
35.36994902274855
 20
2.069602926366527
 30
0.0
 10
35.37436619550451
 20
2.068744968898667
 30
0.0
 10
35.37691522268305
 20
2.068255027857918
 30
0.0
 10
35.38509412283128
 20
2.066704419210824
 30
0.0
 10
35.39131852210747
 20
2.065552216829819
 30
0.0
 10
35.41032146366676
 20
2.062130588048109
 30
0.0
 10
35.423816892075
 20
2.059823029340406
 30
0.0
 10
35.45405151580589
 20
2.054909058545801
 30
0.0
 10
35.47106069529288
 20
2.052318623663374
 30
0.0
 10
35.52650619138548
 20
2.044365323488444
 30
0.0
 10
35.5649245435617
 20
2.039625143307051
 30
0.0
 10
35.68595330091407
 20
2.026494701271698
 30
0.0
 10
35.76778903113996
 20
2.020304109309367
 30
0.0
 10
36.02830126556014
 20
2.005407957726709
 30
0.0
 10
36.20098786193652
 20
2.002606029119719
 30
0.0
 10
36.37888170929134
 20
2.000986945353519
 30
0.0
 10
36.38323776590038
 20
2.000948997469944
 30
0.0
 10
36.38759632900521
 20
2.00091203359562
 30
0.0
  0
SPLINE
  5
9171
330
9167
100
AcDbEntity
  8
0
100
AcDbSpline
210
0.0
220
0.0
230
1.0
 70
     8
 71
     3
 72
    30
 73
    26
 74
     0
 42
0.000000001
 43
0.0000000001
 40
0.0
 40
0.0
 40
0.0
 40
0.0
 40
0.0049906877817866
 40
0.0049906877817866
 40
0.008737235522151
 40
0.008737235522151
 40
0.0097952253184155
 40
0.0097952253184155
 40
0.0104899688828209
 40
0.0104899688828209
 40
0.0114835377041218
 40
0.0114835377041218
 40
0.0123917508431929
 40
0.0123917508431929
 40
0.0135259376970352
 40
0.0135259376970352
 40
0.0151743813741445
 40
0.0151743813741445
 40
0.0177233275399408
 40
0.0177233275399408
 40
0.0214777529405594
 40
0.0214777529405594
 40
0.0261198061939678
 40
0.0261198061939678
 40
0.0306018019772208
 40
0.0306018019772208
 40
0.0306018019772208
 40
0.0306018019772208
 10
34.00002531920668
 20
4.000000108971983
 30
0.0
 10
34.00006043540864
 20
3.991795785439662
 30
0.0
 10
34.000105438039
 20
3.985044489203617
 30
0.0
 10
34.00020570056616
 20
3.973074478633691
 30
0.0
 10
34.00025216704791
 20
3.96802020733759
 30
0.0
 10
34.0003708276648
 20
3.958018887609441
 30
0.0
 10
34.00040161076931
 20
3.955539561962251
 30
0.0
 10
34.00046347753863
 20
3.950898298965342
 30
0.0
 10
34.00049113794858
 20
3.948899178250934
 30
0.0
 10
34.00056545828304
 20
3.943776693970781
 30
0.0
 10
34.00061636412618
 20
3.940467859895338
 30
0.0
 10
34.00072033177145
 20
3.934149189514983
 30
0.0
 10
34.0007737234556
 20
3.931079683318898
 30
0.0
 10
34.00089659629301
 20
3.924378860399541
 30
0.0
 10
34.0009678668798
 20
3.920734150840263
 30
0.0
 10
34.00114460638129
 20
3.91218096694674
 30
0.0
 10
34.00125249029403
 20
3.907368438592602
 30
0.0
 10
34.00152755707265
 20
3.895853857915159
 30
0.0
 10
34.00169749324653
 20
3.88944630681032
 30
0.0
 10
34.00210476726439
 20
3.87514005563478
 30
0.0
 10
34.0023398550204
 20
3.867834575706258
 30
0.0
 10
34.00278976724014
 20
3.854669013276337
 30
0.0
 10
34.00298851216316
 20
3.849467629296678
 30
0.0
 10
34.00322997974519
 20
3.843272573732813
 30
0.0
 10
34.00328099785243
 20
3.84205725130697
 30
0.0
 10
34.00328099785186
 20
3.84205725132089
 30
0.0
  0
SPLINE
  5
9172
330
9167
100
AcDbEntity
  8
0
100
AcDbSpline
210
0.0
220
0.0
230
1.0
 70
     8
 71
     3
 72
     8
 73
     4
 74
     0
 42
0.000000001
 43
0.0000000001
 40
0.0
 40
0.0
 40
0.0
 40
0.0
 40
0.0004151367475037
 40
0.0004151367475037
 40
0.0004151367475037
 40
0.0004151367475037
 10
34.00002109558383
 20
4.000000267145735
 30
0.0
 10
34.0000141139383
 20
3.99922290366083
 30
0.0
 10
34.00000714111357
 20
3.99842897361635
 30
0.0
 10
34.00000008478674
 20
3.997615301490799
 30
0.0
  0
CIRCLE
  5
9173
330
9167
100
AcDbEntity
  8
0
100
AcDbCircle
 10
0.0
 20
67.99999999999998
 30
0.0
 40
2.5
  0
CIRCLE
  5
9174
330
9167
100
AcDbEntity
  8
0
100
AcDbCircle
 10
0.0
 20
47.99999999999998
 30
0.0
 40
2.5
  0
LINE
  5
9175
330
9167
100
AcDbEntity
  8
0
100
AcDbLine
 10
30.00000000000002
 20
1.999999999999997
 30
0.0
 11
-30.00000000000002
 21
1.999999999999997
 31
0.0
  0
LINE
  5
9176
330
9167
100
AcDbEntity
  8
0
100
AcDbLine
 10
29.99999999999999
 20
86.0
 30
0.0
 11
-29.99999999999998
 21
86.0
 31
0.0
  0
SPLINE
  5
9177
330
9167
100
AcDbEntity
  8
0
100
AcDbSpline
210
0.0
220
0.0
230
1.0
 70
     8
 71
     3
 72
    17
 73
    13
 74
     0
 42
0.000000001
 43
0.0000000001
 40
-1.0
 40
-1.0
 40
-1.0
 40
-1.0
 40
-0.7907552673943341
 40
-0.7907552673943341
 40
-0.7907552673943341
 40
-0.3883396848730589
 40
-0.3883396848730589
 40
-0.3883396848730589
 40
-0.1053184205983158
 40
-0.1053184205983158
 40
-0.1053184205983158
 40
0.0
 40
0.0
 40
0.0
 40
0.0
 10
-32.00000000000002
 20
1.999999999999756
 30
0.0
 10
-32.0000172487742
 20
1.997098202774122
 30
0.0
 10
-32.13515725660804
 20
1.911522152466956
 30
0.0
 10
-32.3646372912603
 20
1.773393535467191
 30
0.0
 10
-32.80596903075804
 20
1.50774714532569
 30
0.0
 10
-33.58537332976825
 20
1.052077259773238
 30
0.0
 10
-34.4029661653336
 20
0.6711423121597015
 30
0.0
 10
-34.97798405239926
 20
0.4032285057297124
 30
0.0
 10
-35.57892350320307
 20
0.1693290542135965
 30
0.0
 10
-36.08259362676903
 20
0.0606817918137025
 30
0.0
 10
-36.27002032791271
 20
0.020251762262355
 30
0.0
 10
-36.44467332044781
 20
0.0000166268648454
 30
0.0
 10
-36.6060606060607
 20
0.0000000000000017
 30
0.0
  0
LINE
  5
9178
330
9167
100
AcDbEntity
  8
0
100
AcDbLine
 10
-36.0
 20
0.0
 30
0.0
 11
-36.60606060606069
 21
0.0
 31
0.0
  0
ARC
  5
9179
330
9167
100
AcDbEntity
  8
0
100
AcDbCircle
 10
-36.0
 20
4.000000000000004
 30
0.0
 40
3.999999999999989
100
AcDbArc
 50
270.0
 51
320.3264401277664
  0
ARC
  5
917A
330
9167
100
AcDbEntity
  8
0
100
AcDbCircle
 10
-36.0
 20
4.000000000000004
 30
0.0
 40
1.999999999999987
100
AcDbArc
 50
280.0158950648971
 51
359.8269243560315
  0
SPLINE
  5
917B
330
9167
100
AcDbEntity
  8
0
100
AcDbSpline
210
0.0
220
0.0
230
1.0
 70
     8
 71
     3
 72
    17
 73
    13
 74
     0
 42
0.000000001
 43
0.0000000001
 40
0.0
 40
0.0
 40
0.0
 40
0.0
 40
0.3704689058681779
 40
0.3704689058681779
 40
0.3704689058681779
 40
0.7029757053336599
 40
0.7029757053336599
 40
0.7029757053336599
 40
0.9335813790922051
 40
0.9335813790922051
 40
0.9335813790922051
 40
1.0
 40
1.0
 40
1.0
 40
1.0
 10
-36.6060606060607
 20
2.000000000000015
 30
0.0
 10
-36.25310981611569
 20
2.000006377019319
 30
0.0
 10
-35.80994835339227
 20
2.000465619612809
 30
0.0
 10
-35.38299606376912
 20
1.999851137318937
 30
0.0
 10
-34.99979375691327
 20
1.999299621287154
 30
0.0
 10
-34.63742190750345
 20
2.00004388646215
 30
0.0
 10
-34.37998709143697
 20
2.000290307240853
 30
0.0
 10
-34.20144659451075
 20
2.000461209098476
 30
0.0
 10
-34.07197149374086
 20
2.000344409457376
 30
0.0
 10
-34.02188707329876
 20
2.000001688218373
 30
0.0
 10
-34.00746185088114
 20
1.999902978279109
 30
0.0
 10
-33.99999784581295
 20
2.000565701782129
 30
0.0
 10
-34.00000000001911
 20
2.000000000000153
 30
0.0
  0
LINE
  5
917C
330
9167
100
AcDbEntity
  8
0
100
AcDbLine
 10
-36.6060606060607
 20
0.0
 30
0.0
 11
-36.6060606060607
 21
2.000000000000015
 31
0.0
  0
SPLINE
  5
917D
330
9167
100
AcDbEntity
  8
0
100
AcDbSpline
210
0.0
220
0.0
230
1.0
 70
     8
 71
     3
 72
    28
 73
    24
 74
     0
 42
0.000000001
 43
0.0000000001
 40
0.0357732034754684
 40
0.0357732034754684
 40
0.0357732034754684
 40
0.0357732034754684
 40
0.0390422753534473
 40
0.0390422753534473
 40
0.0452611505310788
 40
0.0452611505310788
 40
0.0483374926786075
 40
0.0483374926786075
 40
0.0514208782582715
 40
0.0514208782582715
 40
0.0529575421213319
 40
0.0529575421213319
 40
0.0545062597811199
 40
0.0545062597811199
 40
0.0552768639531451
 40
0.0552768639531451
 40
0.0560490423843849
 40
0.0560490423843849
 40
0.0568196217591103
 40
0.0568196217591103
 40
0.0599779860225053
 40
0.0599779860225053
 40
0.0663268531975038
 40
0.0663268531975038
 40
0.0663268531975038
 40
0.0663268531975038
 10
-34.00328099785185
 20
3.842057251321333
 30
0.0
 10
-34.0032809978502
 20
3.842057251361497
 30
0.0
 10
-34.00325370308843
 20
3.84271512691144
 30
0.0
 10
-34.00307566836381
 20
3.847192838227612
 30
0.0
 10
-34.00281926781195
 20
3.853659085190086
 30
0.0
 10
-34.00230490581287
 20
3.868952895790897
 30
0.0
 10
-34.00211373393459
 20
3.874953169609002
 30
0.0
 10
-34.0017182415812
 20
3.888620143825755
 30
0.0
 10
-34.00151123847454
 20
3.896381733636168
 30
0.0
 10
-34.00120926593208
 20
3.909288426099089
 30
0.0
 10
-34.0011091443734
 20
3.913838539699275
 30
0.0
 10
-34.00091412426485
 20
3.923413604066277
 30
0.0
 10
-34.00081699725724
 20
3.928569998397768
 30
0.0
 10
-34.00068438693255
 20
3.936297115776837
 30
0.0
 10
-34.00064189434385
 20
3.938896184530838
 30
0.0
 10
-34.00056372807726
 20
3.943909393721792
 30
0.0
 10
-34.00052749020988
 20
3.946359798826604
 30
0.0
 10
-34.00046356992073
 20
3.950879019003752
 30
0.0
 10
-34.00043532219932
 20
3.952983957195711
 30
0.0
 10
-34.00030935107142
 20
3.962745419528138
 30
0.0
 10
-34.00025759965327
 20
3.967867505997998
 30
0.0
 10
-34.0001258922767
 20
3.981754123419333
 30
0.0
 10
-34.00006999202768
 20
3.989563038442592
 30
0.0
 10
-34.00002531920669
 20
4.000000108971981
 30
0.0
  0
SPLINE
  5
917E
330
9167
100
AcDbEntity
  8
0
100
AcDbSpline
210
0.0
220
0.0
230
1.0
 70
     8
 71
     3
 72
    24
 73
    20
 74
     0
 42
0.000000001
 43
0.0000000001
 40
0.0225455043786288
 40
0.0225455043786288
 40
0.0225455043786288
 40
0.0225455043786288
 40
0.0670584162438213
 40
0.0670584162438213
 40
0.1176569867117476
 40
0.1176569867117476
 40
0.1255739067228614
 40
0.1255739067228614
 40
0.1275474480932206
 40
0.1275474480932206
 40
0.1295305934896171
 40
0.1295305934896171
 40
0.1305201884584697
 40
0.1305201884584697
 40
0.1315137661915842
 40
0.1315137661915842
 40
0.1325098135097949
 40
0.1325098135097949
 40
0.1331618384304126
 40
0.1331618384304126
 40
0.1331618384304126
 40
0.1331618384304126
 10
-36.387601118447
 20
2.000911654799063
 30
0.0
 10
-36.25277437877034
 20
2.002055086370672
 30
0.0
 10
-36.11870328401086
 20
2.004105436893235
 30
0.0
 10
-35.8248888538422
 20
2.015423834798744
 30
0.0
 10
-35.66175508149104
 20
2.025387294097465
 30
0.0
 10
-35.46909929905115
 20
2.052544208645688
 30
0.0
 10
-35.44256094038178
 20
2.05664280004836
 30
0.0
 10
-35.41059037122625
 20
2.062112997946333
 30
0.0
 10
-35.40425431218725
 20
2.063224475983608
 30
0.0
 10
-35.39196875178907
 20
2.065433787587025
 30
0.0
 10
-35.38592496618961
 20
2.066549999758552
 30
0.0
 10
-35.37787000878279
 20
2.068072834415501
 30
0.0
 10
-35.37533669891823
 20
2.068558170085303
 30
0.0
 10
-35.37086743180724
 20
2.069423429447159
 30
0.0
 10
-35.36890766931195
 20
2.069807990225369
 30
0.0
 10
-35.36590446850889
 20
2.07040193670895
 30
0.0
 10
-35.36484122707584
 20
2.070615025997621
 30
0.0
 10
-35.36389298432512
 20
2.070805715064311
 30
0.0
 10
-35.36371671482617
 20
2.070841469207725
 30
0.0
 10
-35.36371670695575
 20
2.070841470802761
 30
0.0
  0
LINE
  5
917F
330
9167
100
AcDbEntity
  8
0
100
AcDbLine
 10
-34.00000000000001
 20
2.000000000000002
 30
0.0
 11
-30.00000000000001
 21
1.999999999999997
 31
0.0
  0
LINE
  5
9180
330
9167
100
AcDbEntity
  8
0
100
AcDbLine
 10
-29.99999999999998
 20
86.0
 30
0.0
 11
-33.99999999999999
 21
86.0
 31
0.0
  0
LINE
  5
9181
330
9167
100
AcDbEntity
  8
0
100
AcDbLine
 10
-34.0
 20
2.000000000000002
 30
0.0
 11
-33.99999999999999
 21
86.0
 31
0.0
  0
LINE
  5
9182
330
9167
100
AcDbEntity
  8
0
100
AcDbLine
 10
34.00000000000001
 20
2.000000000000002
 30
0.0
 11
30.00000000000001
 21
1.999999999999997
 31
0.0
  0
LINE
  5
9183
330
9167
100
AcDbEntity
  8
0
100
AcDbLine
 10
34.0
 20
2.000000000000002
 30
0.0
 11
33.99999999999999
 21
86.0
 31
0.0
  0
LINE
  5
9184
330
9167
100
AcDbEntity
  8
0
100
AcDbLine
 10
29.99999999999998
 20
86.0
 30
0.0
 11
33.99999999999999
 21
86.0
 31
0.0
  0
LINE
  5
9185
330
9167
100
AcDbEntity
  8
0
100
AcDbLine
 10
73.50000000000007
 20
0.0
 30
0.0
 11
36.60606060606069
 21
0.0
 31
0.0
  0
LINE
  5
9186
330
9167
100
AcDbEntity
  8
0
100
AcDbLine
 10
73.50000000000007
 20
2.000000000000001
 30
0.0
 11
73.50000000000007
 21
0.0
 31
0.0
  0
LINE
  5
9187
330
9167
100
AcDbEntity
  8
0
100
AcDbLine
 10
36.6060606060607
 20
2.000000000000015
 30
0.0
 11
73.50000000000007
 21
2.000000000000001
 31
0.0
  0
LINE
  5
9188
330
9167
100
AcDbEntity
  8
0
100
AcDbLine
 10
-73.50000000000007
 20
2.000000000000001
 30
0.0
 11
-36.6060606060607
 21
2.000000000000015
 31
0.0
  0
LINE
  5
9189
330
9167
100
AcDbEntity
  8
0
100
AcDbLine
 10
-73.50000000000007
 20
0.0
 30
0.0
 11
-73.50000000000007
 21
2.000000000000001
 31
0.0
  0
LINE
  5
918A
330
9167
100
AcDbEntity
  8
0
100
AcDbLine
 10
-36.60606060606069
 20
0.0
 30
0.0
 11
-73.50000000000007
 21
0.0
 31
0.0
  0
ENDBLK
  5
9169
330
9167
100
AcDbEntity
  8
0
100
AcDbBlockEnd
  0
BLOCK
  5
918C
330
918B
100
AcDbEntity
  8
0
100
AcDbBlockBegin
  2
SAE380_64_2-ISO
 70
     0
 10
0.0
 20
0.0
 30
0.0
  3
SAE380_64_2-ISO
  1

  0
LINE
  5
918E
330
918B
100
AcDbEntity
  8
0
100
AcDbLine
 10
53.02457658575639
 20
-37.97195923247661
 30
0.0
 11
52.89943318974142
 21
-38.04421080585316
 31
0.0
  0
SPLINE
  5
918F
330
918B
100
AcDbEntity
  8
0
100
AcDbSpline
210
0.0
220
0.0
230
1.0
 70
     8
 71
     3
 72
    17
 73
    13
 74
     0
 42
0.000000001
 43
0.0000000001
 40
0.0
 40
0.0
 40
0.0
 40
0.0
 40
0.3704689058681779
 40
0.3704689058681779
 40
0.3704689058681779
 40
0.7029757053336599
 40
0.7029757053336599
 40
0.7029757053336599
 40
0.9335813790922051
 40
0.9335813790922051
 40
0.9335813790922051
 40
1.0
 40
1.0
 40
1.0
 40
1.0
 10
54.86733971248503
 20
-36.9436065311188
 30
0.0
 10
54.61776130625615
 20
-37.03462087631609
 30
0.0
 10
54.3040740972518
 20
-37.04468999054601
 30
0.0
 10
54.00260774261308
 20
-37.07603958603176
 30
0.0
 10
53.73203277359499
 20
-37.1041767751302
 30
0.0
 10
53.47527090661394
 20
-37.15171052226608
 30
0.0
 10
53.29306275665619
 20
-37.29675493803689
 30
0.0
 10
53.16669471470079
 20
-37.3973485658289
 30
0.0
 10
53.07522458276985
 20
-37.54928110943064
 30
0.0
 10
53.0400518899556
 20
-37.76390947261614
 30
0.0
 10
53.0299215158314
 20
-37.82572633799563
 30
0.0
 10
53.02417505094985
 20
-37.89147976719145
 30
0.0
 10
53.02457658576978
 20
-37.97195923247793
 30
0.0
  0
LINE
  5
9190
330
918B
100
AcDbEntity
  8
0
100
AcDbLine
 10
54.83259169082893
 20
-36.92354475146188
 30
0.0
 11
54.86733971248502
 21
-36.94360653111883
 31
0.0
  0
LINE
  5
9191
330
918B
100
AcDbEntity
  8
0
100
AcDbLine
 10
54.43879014812947
 20
-36.69618332477706
 30
0.0
 11
54.83259169082893
 21
-36.92354475146188
 31
0.0
  0
ELLIPSE
  5
9192
330
918B
100
AcDbEntity
  8
0
100
AcDbEllipse
 10
53.02457658575639
 20
-37.51267990570477
 30
0.0
 11
1.999999999999987
 21
0.0000000000000002
 31
0.0
210
0.0
220
0.0
230
1.0
 40
0.577350269189626
 41
0.785398163397451
 42
0.8225763078177799
  0
ELLIPSE
  5
9193
330
918B
100
AcDbEntity
  8
0
100
AcDbEllipse
 10
53.02457658575639
 20
-37.51267990570477
 30
0.0
 11
1.999999999999987
 21
-0.0000000000001189
 31
0.0
210
0.0
220
0.0
230
1.0
 40
0.577350269189626
 41
0.8225763078180081
 42
2.356194490192596
  0
LINE
  5
9194
330
918B
100
AcDbEntity
  8
0
100
AcDbLine
 10
51.6103630233833
 20
-37.51929806783139
 30
0.0
 11
51.6103630233833
 21
-36.69618332477706
 31
0.0
  0
LINE
  5
9195
330
918B
100
AcDbEntity
  8
0
100
AcDbLine
 10
51.6103630233833
 20
-38.78845581340434
 30
0.0
 11
51.6103630233833
 21
-37.51929806790733
 31
0.0
  0
LINE
  5
9196
330
918B
100
AcDbEntity
  8
0
100
AcDbLine
 10
52.89943318965848
 20
-38.04421080590105
 30
0.0
 11
51.6103630233833
 21
-38.78845581340434
 31
0.0
  0
ELLIPSE
  5
9197
330
918B
100
AcDbEntity
  8
0
100
AcDbEllipse
 10
-17.68610153289835
 20
-75.53080195515201
 30
0.0
 11
-2.5
 21
-0.0000000000001492
 31
0.0
210
0.0
220
0.0
230
1.0
 40
0.577350269189626
 41
3.742856870268582
 42
5.681921090500122
  0
ELLIPSE
  5
9198
330
918B
100
AcDbEntity
  8
0
100
AcDbEllipse
 10
-3.543965909167394
 20
-67.36583614587475
 30
0.0
 11
-2.5
 21
0.0000000000000001
 31
0.0
210
0.0
220
0.0
230
1.0
 40
0.577350269189626
 41
4.981585984473984
 42
5.681921090500463
  0
LINE
  5
9199
330
918B
100
AcDbEntity
  8
0
100
AcDbLine
 10
-9.200820158659798
 20
-95.12671989741745
 30
0.0
 11
-51.62722702985262
 21
-70.63182246958567
 31
0.0
  0
LINE
  5
919A
330
918B
100
AcDbEntity
  8
0
100
AcDbLine
 10
6.355529027444246
 20
-11.02757206186163
 30
0.0
 11
6.355529027444246
 21
-32.25648316598253
 31
0.0
  0
LINE
  5
919B
330
918B
100
AcDbEntity
  8
0
100
AcDbLine
 10
13.91091655245119
 20
-38.25158134923269
 30
0.0
 11
7.769742589817338
 21
-34.7059729087657
 31
0.0
  0
LINE
  5
919C
330
918B
100
AcDbEntity
  8
0
100
AcDbLine
 10
-51.62722702985263
 20
-68.99882930773021
 30
0.0
 11
-9.200820158659803
 21
-93.49372673556198
 31
0.0
  0
ELLIPSE
  5
919D
330
918B
100
AcDbEntity
  8
0
100
AcDbEllipse
 10
-3.543965909167394
 20
-65.73284298401929
 30
0.0
 11
-2.5
 21
-0.0000000000000003
 31
0.0
210
0.0
220
0.0
230
1.0
 40
0.5773502691896259
 41
4.542442778862469
 42
7.302254269430522
  0
ELLIPSE
  5
919E
330
918B
100
AcDbEntity
  8
0
100
AcDbEllipse
 10
-17.68610153289835
 20
-73.89780879329656
 30
0.0
 11
-2.499999999999999
 21
0.0000000000001492
 31
0.0
210
0.0
220
0.0
230
1.0
 40
0.5773502691896261
 41
0.0
 42
6.283185307179586
  0
LINE
  5
919F
330
918B
100
AcDbEntity
  8
0
100
AcDbLine
 10
6.355529027444246
 20
-11.02757206186163
 30
0.0
 11
4.941315465071149
 21
-11.84406864278936
 31
0.0
  0
SPLINE
  5
91A0
330
918B
100
AcDbEntity
  8
0
100
AcDbSpline
210
0.0
220
0.0
230
1.0
 70
     8
 71
     3
 72
    11
 73
     7
 74
     0
 42
0.000000001
 43
0.0000000001
 40
-1.0
 40
-1.0
 40
-1.0
 40
-1.0
 40
-0.7907552673943341
 40
-0.7907552673943341
 40
-0.7907552673943341
 40
-0.6580591922542287
 40
-0.6580591922542287
 40
-0.6580591922542287
 40
-0.6580591922542287
 10
6.35552902744441
 20
-11.02757206186174
 30
0.0
 10
6.357568711215098
 20
-10.62931931162551
 30
0.0
 10
6.322521700745551
 20
-10.2415226396096
 30
0.0
 10
6.257926493852457
 20
-9.887933403426982
 30
0.0
 10
6.216962354297601
 20
-9.663698827631733
 30
0.0
 10
6.164615201398069
 20
-9.448252879267592
 30
0.0
 10
6.101775585526727
 20
-9.238922545031007
 30
0.0
  0
ELLIPSE
  5
91A1
330
918B
100
AcDbEntity
  8
0
100
AcDbEllipse
 10
2.112888340324965
 20
-8.118802992306628
 30
0.0
 11
3.999999999999988
 21
-0.0000000000000001
 31
0.0
210
0.0
220
0.0
230
1.0
 40
0.577350269189626
 41
6.068647301399348
 42
6.283185307179586
  0
ELLIPSE
  5
91A2
330
918B
100
AcDbEntity
  8
0
100
AcDbEllipse
 10
2.112888340324965
 20
-8.118802992306628
 30
0.0
 11
3.999999999999988
 21
0.0000000000000003
 31
0.0
210
0.0
220
0.0
230
1.0
 40
0.577350269189626
 41
5.497787143782132
 42
6.068647301399347
  0
LINE
  5
91A3
330
918B
100
AcDbEntity
  8
0
100
AcDbLine
 10
4.941315465071149
 20
-9.751796154162079
 30
0.0
 11
4.941315465071149
 21
-11.84406864278936
 31
0.0
  0
SPLINE
  5
91A4
330
918B
100
AcDbEntity
  8
0
100
AcDbSpline
210
0.0
220
0.0
230
1.0
 70
     8
 71
     3
 72
    16
 73
    12
 74
     0
 42
0.000000001
 43
0.0000000001
 40
0.0
 40
0.0
 40
0.0
 40
0.0
 40
0.0351246652639836
 40
0.0351246652639836
 40
0.0553378239314582
 40
0.0553378239314582
 40
0.0803966042753342
 40
0.0803966042753342
 40
0.1060254000832161
 40
0.1060254000832161
 40
0.116430052489036
 40
0.116430052489036
 40
0.116430052489036
 40
0.116430052489036
 10
6.10151566953589
 20
-8.292830743553448
 30
0.0
 10
6.086321044718507
 20
-8.408918980420176
 30
0.0
 10
6.071391170923901
 20
-8.527147249708622
 30
0.0
 10
6.056538533995823
 20
-8.704512405277977
 30
0.0
 10
6.052962559679873
 20
-8.768025350424872
 30
0.0
 10
6.050718787045585
 20
-8.899119561951351
 30
0.0
 10
6.05345281514972
 20
-8.964972727943996
 30
0.0
 10
6.065317913996324
 20
-9.080413651808566
 30
0.0
 10
6.074374483300108
 20
-9.131039949557662
 30
0.0
 10
6.091209239001091
 20
-9.199850742516515
 30
0.0
 10
6.096600859239988
 20
-9.219581280495523
 30
0.0
 10
6.102715628717931
 20
-9.239902502215695
 30
0.0
  0
ELLIPSE
  5
91A5
330
918B
100
AcDbEntity
  8
0
100
AcDbEllipse
 10
7.769742589817347
 20
-33.07297974691024
 30
0.0
 11
1.000000000000105
 21
-1.732050807568817
 31
0.0
210
0.0
220
0.0
230
1.0
 40
0.5773502691896266
 41
3.926990816987
 42
5.497787143781897
  0
LINE
  5
91A6
330
918B
100
AcDbEntity
  8
0
100
AcDbLine
 10
7.769742589817338
 20
-34.7059729087657
 30
0.0
 11
-51.62722702985263
 21
-68.99882930773021
 31
0.0
  0
ELLIPSE
  5
91A7
330
918B
100
AcDbEntity
  8
0
100
AcDbEllipse
 10
-51.62722702985263
 20
-67.36583614587475
 30
0.0
 11
2.000000000000208
 21
-3.464101615137639
 31
0.0
210
0.0
220
0.0
230
1.0
 40
0.5773502691896254
 41
3.926990816986997
 42
5.497787143781897
  0
LINE
  5
91A8
330
918B
100
AcDbEntity
  8
0
100
AcDbLine
 10
-53.04144059222572
 20
-66.54933956494703
 30
0.0
 11
6.355529027444255
 21
-32.25648316598253
 31
0.0
  0
LINE
  5
91A9
330
918B
100
AcDbEntity
  8
0
100
AcDbLine
 10
-54.45565415459881
 20
-65.73284298401929
 30
0.0
 11
-53.04144059222572
 21
-66.54933956494703
 31
0.0
  0
LINE
  5
91AA
330
918B
100
AcDbEntity
  8
0
100
AcDbLine
 10
-51.62722702985263
 20
-70.63182246958567
 30
0.0
 11
-51.62722702985263
 21
-68.99882930773021
 31
0.0
  0
ELLIPSE
  5
91AB
330
918B
100
AcDbEntity
  8
0
100
AcDbEllipse
 10
-51.62722702985263
 20
-67.36583614587475
 30
0.0
 11
1.000000000000104
 21
-1.732050807568819
 31
0.0
210
0.0
220
0.0
230
1.0
 40
0.5773502691896257
 41
3.926990816986997
 42
5.497787143781896
  0
LINE
  5
91AC
330
918B
100
AcDbEntity
  8
0
100
AcDbLine
 10
53.02457658575639
 20
-59.20087033659749
 30
0.0
 11
53.02457658575639
 21
-37.97195923247661
 31
0.0
  0
ELLIPSE
  5
91AD
330
918B
100
AcDbEntity
  8
0
100
AcDbEllipse
 10
50.19614946101021
 20
-57.56787717474203
 30
0.0
 11
1.999999999999993
 21
-3.464101615137758
 31
0.0
210
0.0
220
0.0
230
1.0
 40
0.577350269189625
 41
0.0000000000000012
 42
0.7853981633974529
  0
LINE
  5
91AE
330
918B
100
AcDbEntity
  8
0
100
AcDbLine
 10
-9.200820158659798
 20
-93.49372673556201
 30
0.0
 11
-7.786606596286715
 21
-92.67723015463429
 31
0.0
  0
LINE
  5
91AF
330
918B
100
AcDbEntity
  8
0
100
AcDbLine
 10
53.02457658575639
 20
-59.20087033659749
 30
0.0
 11
-6.37239303391361
 21
-93.49372673556198
 31
0.0
  0
ELLIPSE
  5
91B0
330
918B
100
AcDbEntity
  8
0
100
AcDbEllipse
 10
-9.200820158659803
 20
-91.86073357370652
 30
0.0
 11
2.000000000000001
 21
-3.46410161513776
 31
0.0
210
0.0
220
0.0
230
1.0
 40
0.5773502691896257
 41
5.497787143782137
 42
7.068583470577028
  0
LINE
  5
91B1
330
918B
100
AcDbEntity
  8
0
100
AcDbLine
 10
80.95529444262508
 20
-27.15337953518428
 30
0.0
 11
82.36950800499815
 21
-26.33688295425655
 31
0.0
  0
LINE
  5
91B2
330
918B
100
AcDbEntity
  8
0
100
AcDbLine
 10
54.86733971248502
 20
-36.94360653111883
 30
0.0
 11
80.95529444262508
 21
-27.15337953518428
 31
0.0
  0
ELLIPSE
  5
91B3
330
918B
100
AcDbEntity
  8
0
100
AcDbEllipse
 10
68.58092577186043
 20
44.49419544122375
 30
0.0
 11
-3.249999999999997
 21
5.629165124598853
 31
0.0
210
0.0
220
0.0
230
1.0
 40
0.5773502691896257
 41
0.2193254863005913
 42
2.9222671672892
  0
ELLIPSE
  5
91B4
330
918B
100
AcDbEntity
  8
0
100
AcDbEllipse
 10
76.35910036491242
 20
44.08594715075987
 30
0.0
 11
1.250000000000127
 21
-2.165063509461023
 31
0.0
210
0.0
220
0.0
230
1.0
 40
0.5773502691896255
 41
3.742856870268578
 42
5.681921090500122
  0
LINE
  5
91B5
330
918B
100
AcDbEntity
  8
0
100
AcDbLine
 10
55.85300371050258
 20
68.17259628812782
 30
0.0
 11
82.3695080049981
 21
52.86328539573294
 31
0.0
  0
LINE
  5
91B6
330
918B
100
AcDbEntity
  8
0
100
AcDbLine
 10
82.36950800499815
 20
-26.33688295425655
 30
0.0
 11
82.3695080049981
 21
52.86328539573296
 31
0.0
  0
ELLIPSE
  5
91B7
330
918B
100
AcDbEntity
  8
0
100
AcDbEllipse
 10
53.02457658575639
 20
66.53960312627237
 30
0.0
 11
3.999999999999998
 21
-0.0000000000002381
 31
0.0
210
0.0
220
0.0
230
1.0
 40
0.5773502691896261
 41
0.7853981633976872
 42
2.356194490192585
  0
ELLIPSE
  5
91B8
330
918B
100
AcDbEntity
  8
0
100
AcDbEllipse
 10
25.80096551007431
 20
41.84058155320861
 30
0.0
 11
1.24999999999987
 21
2.165063509461172
 31
0.0
210
0.0
220
0.0
230
1.0
 40
0.5773502691896259
 41
3.742856870268578
 42
5.681921090500117
  0
ELLIPSE
  5
91B9
330
918B
100
AcDbEntity
  8
0
100
AcDbEllipse
 10
27.21517907244741
 20
41.02408497228089
 30
0.0
 11
-1.25
 21
-2.165063509461097
 31
0.0
210
0.0
220
0.0
230
1.0
 40
0.5773502691896258
 41
0.0
 42
6.283185307179586
  0
LINE
  5
91BA
330
918B
100
AcDbEntity
  8
0
100
AcDbLine
 10
-7.786606596286711
 20
-71.44831905051337
 30
0.0
 11
20.49766465117519
 21
-28.17400026134392
 31
0.0
  0
LINE
  5
91BB
330
918B
100
AcDbEntity
  8
0
100
AcDbLine
 10
-6.372393033913614
 20
-72.26481563144111
 30
0.0
 11
-7.786606596286711
 21
-71.44831905051337
 31
0.0
  0
LINE
  5
91BC
330
918B
100
AcDbEntity
  8
0
100
AcDbLine
 10
21.91187821354829
 20
-28.99049684227165
 30
0.0
 11
-6.372393033913614
 21
-72.26481563144111
 31
0.0
  0
LINE
  5
91BD
330
918B
100
AcDbEntity
  8
0
100
AcDbLine
 10
21.91187821354829
 20
-28.99049684227165
 30
0.0
 11
20.49766465117519
 21
-28.17400026134392
 31
0.0
  0
LINE
  5
91BE
330
918B
100
AcDbEntity
  8
0
100
AcDbLine
 10
20.49766465117519
 20
-28.17400026134392
 30
0.0
 11
20.49766465117521
 21
51.02616808864556
 31
0.0
  0
LINE
  5
91BF
330
918B
100
AcDbEntity
  8
0
100
AcDbLine
 10
21.91187821354831
 20
50.20967150771782
 30
0.0
 11
21.91187821354829
 21
-28.99049684227165
 31
0.0
  0
LINE
  5
91C0
330
918B
100
AcDbEntity
  8
0
100
AcDbLine
 10
20.49766465117521
 20
51.02616808864556
 30
0.0
 11
21.91187821354831
 21
50.20967150771782
 31
0.0
  0
LINE
  5
91C1
330
918B
100
AcDbEntity
  8
0
100
AcDbLine
 10
-6.372393033913614
 20
-72.26481563144111
 30
0.0
 11
-6.37239303391361
 21
-93.49372673556198
 31
0.0
  0
LINE
  5
91C2
330
918B
100
AcDbEntity
  8
0
100
AcDbLine
 10
51.6103630233833
 20
-36.69618332477706
 30
0.0
 11
51.6103630233833
 21
67.35609970720007
 31
0.0
  0
LINE
  5
91C3
330
918B
100
AcDbEntity
  8
0
100
AcDbLine
 10
51.6103630233833
 20
67.35609970720009
 30
0.0
 11
21.91187821354831
 21
50.20967150771782
 31
0.0
  0
LINE
  5
91C4
330
918B
100
AcDbEntity
  8
0
100
AcDbLine
 10
20.49766465117521
 20
51.02616808864556
 30
0.0
 11
50.19614946101019
 21
68.17259628812782
 31
0.0
  0
LINE
  5
91C5
330
918B
100
AcDbEntity
  8
0
100
AcDbLine
 10
-7.786606596286707
 20
-92.67723015463424
 30
0.0
 11
-7.786606596286711
 21
-71.44831905051337
 31
0.0
  0
LINE
  5
91C6
330
918B
100
AcDbEntity
  8
0
100
AcDbLine
 10
-9.200820158659798
 20
-93.49372673556201
 30
0.0
 11
-9.200820158659798
 21
-95.12671989741745
 31
0.0
  0
LINE
  5
91C7
330
918B
100
AcDbEntity
  8
0
100
AcDbLine
 10
-7.786606596286707
 20
-92.67723015463424
 30
0.0
 11
-6.37239303391361
 21
-93.49372673556198
 31
0.0
  0
ELLIPSE
  5
91C8
330
918B
100
AcDbEntity
  8
0
100
AcDbEllipse
 10
-9.200820158659803
 20
-91.86073357370652
 30
0.0
 11
1.0
 21
-1.732050807568879
 31
0.0
210
0.0
220
0.0
230
1.0
 40
0.5773502691896257
 41
5.497787143782143
 42
7.068583470577039
  0
LINE
  5
91C9
330
918B
100
AcDbEntity
  8
0
100
AcDbLine
 10
54.43879014812947
 20
-36.69618332477706
 30
0.0
 11
54.43879014812947
 21
67.35609970720007
 31
0.0
  0
ELLIPSE
  5
91CA
330
918B
100
AcDbEntity
  8
0
100
AcDbEllipse
 10
53.02457658575639
 20
66.53960312627237
 30
0.0
 11
-1.999999999999996
 21
-0.0000000000001196
 31
0.0
210
0.0
220
0.0
230
1.0
 40
0.577350269189626
 41
3.926990816987004
 42
5.497787143781896
  0
LINE
  5
91CB
330
918B
100
AcDbEntity
  8
0
100
AcDbLine
 10
82.3695080049981
 20
52.86328539573294
 30
0.0
 11
80.95529444262499
 21
52.04678881480521
 31
0.0
  0
LINE
  5
91CC
330
918B
100
AcDbEntity
  8
0
100
AcDbLine
 10
80.95529444262508
 20
-27.15337953518428
 30
0.0
 11
80.95529444262499
 21
52.0467888148052
 31
0.0
  0
LINE
  5
91CD
330
918B
100
AcDbEntity
  8
0
100
AcDbLine
 10
51.6103630233833
 20
67.35609970720009
 30
0.0
 11
50.19614946101019
 21
68.17259628812782
 31
0.0
  0
LINE
  5
91CE
330
918B
100
AcDbEntity
  8
0
100
AcDbLine
 10
54.43879014812947
 20
67.35609970720009
 30
0.0
 11
55.85300371050258
 21
68.17259628812782
 31
0.0
  0
LINE
  5
91CF
330
918B
100
AcDbEntity
  8
0
100
AcDbLine
 10
80.95529444262499
 20
52.04678881480521
 30
0.0
 11
54.43879014812947
 21
67.35609970720009
 31
0.0
  0
ELLIPSE
  5
91D0
330
918B
100
AcDbEntity
  8
0
100
AcDbEllipse
 10
67.16671220948734
 20
43.67769886029603
 30
0.0
 11
-3.249999999999997
 21
5.629165124598855
 31
0.0
210
0.0
220
0.0
230
1.0
 40
0.5773502691896255
 41
0.0
 42
6.283185307179586
  0
ELLIPSE
  5
91D1
330
918B
100
AcDbEntity
  8
0
100
AcDbEllipse
 10
74.94488680253934
 20
43.26945056983215
 30
0.0
 11
-1.249999999999998
 21
2.165063509461097
 31
0.0
210
0.0
220
0.0
230
0.9999999999999998
 40
0.5773502691896255
 41
0.0
 42
6.283185307179586
  0
LINE
  5
91D2
330
918B
100
AcDbEntity
  8
0
100
AcDbLine
 10
-7.200820158659801
 20
-95.32483518884431
 30
0.0
 11
52.19614946101019
 21
-61.0319787898798
 31
0.0
  0
ELLIPSE
  5
91D3
330
918B
100
AcDbEntity
  8
0
100
AcDbEllipse
 10
68.58092577186043
 20
-12.66056522371709
 30
0.0
 11
-3.249999999999997
 21
5.629165124598853
 31
0.0
210
0.0
220
0.0
230
1.0
 40
0.5773502691896254
 41
0.2193254863005922
 42
2.9222671672892
  0
ELLIPSE
  5
91D4
330
918B
100
AcDbEntity
  8
0
100
AcDbEllipse
 10
67.16671220948734
 20
-13.47706180464481
 30
0.0
 11
-3.249999999999997
 21
5.629165124598855
 31
0.0
210
0.0
220
0.0
230
1.0
 40
0.5773502691896255
 41
0.0
 42
6.283185307179586
  0
ELLIPSE
  5
91D5
330
918B
100
AcDbEntity
  8
0
100
AcDbEllipse
 10
60.80275117880841
 20
-20.41728274253049
 30
0.0
 11
1.250000000000127
 21
-2.165063509461023
 31
0.0
210
0.0
220
0.0
230
1.0
 40
0.5773502691896255
 41
3.742856870268578
 42
5.681921090500122
  0
ELLIPSE
  5
91D6
330
918B
100
AcDbEntity
  8
0
100
AcDbEllipse
 10
60.80275117880841
 20
-4.087351123975961
 30
0.0
 11
1.250000000000127
 21
-2.165063509461023
 31
0.0
210
0.0
220
0.0
230
1.0
 40
0.5773502691896255
 41
3.742856870268578
 42
5.681921090500122
  0
ELLIPSE
  5
91D7
330
918B
100
AcDbEntity
  8
0
100
AcDbEllipse
 10
60.80275117880841
 20
12.24258049457856
 30
0.0
 11
1.250000000000127
 21
-2.165063509461023
 31
0.0
210
0.0
220
0.0
230
1.0
 40
0.5773502691896255
 41
3.742856870268578
 42
5.681921090500122
  0
ELLIPSE
  5
91D8
330
918B
100
AcDbEntity
  8
0
100
AcDbEllipse
 10
60.80275117880841
 20
28.5725121131331
 30
0.0
 11
1.250000000000127
 21
-2.165063509461023
 31
0.0
210
0.0
220
0.0
230
1.0
 40
0.5773502691896255
 41
3.742856870268578
 42
5.681921090500122
  0
ELLIPSE
  5
91D9
330
918B
100
AcDbEntity
  8
0
100
AcDbEllipse
 10
60.80275117880841
 20
44.90244373168763
 30
0.0
 11
1.250000000000127
 21
-2.165063509461023
 31
0.0
210
0.0
220
0.0
230
1.0
 40
0.5773502691896255
 41
3.742856870268578
 42
5.681921090500122
  0
ELLIPSE
  5
91DA
330
918B
100
AcDbEntity
  8
0
100
AcDbEllipse
 10
59.38853761643532
 20
-21.23377932345821
 30
0.0
 11
-1.249999999999998
 21
2.165063509461097
 31
0.0
210
0.0
220
0.0
230
0.9999999999999998
 40
0.5773502691896255
 41
0.0
 42
6.283185307179586
  0
ELLIPSE
  5
91DB
330
918B
100
AcDbEntity
  8
0
100
AcDbEllipse
 10
59.38853761643532
 20
-4.903847704903681
 30
0.0
 11
-1.249999999999998
 21
2.165063509461097
 31
0.0
210
0.0
220
0.0
230
0.9999999999999998
 40
0.5773502691896255
 41
0.0
 42
6.283185307179586
  0
ELLIPSE
  5
91DC
330
918B
100
AcDbEntity
  8
0
100
AcDbEllipse
 10
59.38853761643532
 20
11.42608391365084
 30
0.0
 11
-1.249999999999998
 21
2.165063509461097
 31
0.0
210
0.0
220
0.0
230
0.9999999999999998
 40
0.5773502691896255
 41
0.0
 42
6.283185307179586
  0
ELLIPSE
  5
91DD
330
918B
100
AcDbEntity
  8
0
100
AcDbEllipse
 10
59.38853761643532
 20
27.75601553220537
 30
0.0
 11
-1.249999999999998
 21
2.165063509461097
 31
0.0
210
0.0
220
0.0
230
0.9999999999999998
 40
0.5773502691896255
 41
0.0
 42
6.283185307179586
  0
ELLIPSE
  5
91DE
330
918B
100
AcDbEntity
  8
0
100
AcDbEllipse
 10
59.38853761643532
 20
44.08594715075989
 30
0.0
 11
-1.249999999999998
 21
2.165063509461097
 31
0.0
210
0.0
220
0.0
230
0.9999999999999998
 40
0.5773502691896255
 41
0.0
 42
6.283185307179586
  0
ELLIPSE
  5
91DF
330
918B
100
AcDbEntity
  8
0
100
AcDbEllipse
 10
60.80275117880841
 20
61.23237535024216
 30
0.0
 11
1.250000000000127
 21
-2.165063509461023
 31
0.0
210
0.0
220
0.0
230
1.0
 40
0.5773502691896255
 41
3.742856870268578
 42
5.681921090500122
  0
ELLIPSE
  5
91E0
330
918B
100
AcDbEntity
  8
0
100
AcDbEllipse
 10
-1.42264556560776
 20
95.52523174920665
 30
0.0
 11
1.25
 21
-2.165063509461097
 31
0.0
210
0.0
220
0.0
230
1.0
 40
0.5773502691896259
 41
0.0
 42
6.283185307179586
  0
ELLIPSE
  5
91E1
330
918B
100
AcDbEntity
  8
0
100
AcDbEllipse
 10
-0.008432003234673
 20
96.34172833013437
 30
0.0
 11
1.250000000000129
 21
-2.165063509461022
 31
0.0
210
0.0
220
0.0
230
1.0
 40
0.5773502691896259
 41
3.742856870268578
 42
5.681921090500118
  0
ELLIPSE
  5
91E2
330
918B
100
AcDbEntity
  8
0
100
AcDbEllipse
 10
59.38853761643532
 20
60.41587876931441
 30
0.0
 11
-1.249999999999998
 21
2.165063509461097
 31
0.0
210
0.0
220
0.0
230
0.9999999999999998
 40
0.5773502691896255
 41
0.0
 42
6.283185307179586
  0
ELLIPSE
  5
91E3
330
918B
100
AcDbEntity
  8
0
100
AcDbEllipse
 10
76.35910036491242
 20
-21.23377932345823
 30
0.0
 11
1.250000000000127
 21
-2.165063509461023
 31
0.0
210
0.0
220
0.0
230
1.0
 40
0.5773502691896255
 41
3.742856870268578
 42
5.681921090500122
  0
ELLIPSE
  5
91E4
330
918B
100
AcDbEntity
  8
0
100
AcDbEllipse
 10
76.35910036491242
 20
-4.903847704903698
 30
0.0
 11
1.250000000000127
 21
-2.165063509461023
 31
0.0
210
0.0
220
0.0
230
1.0
 40
0.5773502691896255
 41
3.742856870268578
 42
5.681921090500122
  0
ELLIPSE
  5
91E5
330
918B
100
AcDbEntity
  8
0
100
AcDbEllipse
 10
76.35910036491242
 20
11.42608391365082
 30
0.0
 11
1.250000000000127
 21
-2.165063509461023
 31
0.0
210
0.0
220
0.0
230
1.0
 40
0.5773502691896255
 41
3.742856870268578
 42
5.681921090500122
  0
ELLIPSE
  5
91E6
330
918B
100
AcDbEntity
  8
0
100
AcDbEllipse
 10
76.35910036491242
 20
27.75601553220536
 30
0.0
 11
1.250000000000127
 21
-2.165063509461023
 31
0.0
210
0.0
220
0.0
230
1.0
 40
0.5773502691896255
 41
3.742856870268578
 42
5.681921090500122
  0
ELLIPSE
  5
91E7
330
918B
100
AcDbEntity
  8
0
100
AcDbEllipse
 10
74.94488680253934
 20
-22.05027590438595
 30
0.0
 11
-1.249999999999998
 21
2.165063509461097
 31
0.0
210
0.0
220
0.0
230
0.9999999999999998
 40
0.5773502691896255
 41
0.0
 42
6.283185307179586
  0
ELLIPSE
  5
91E8
330
918B
100
AcDbEntity
  8
0
100
AcDbEllipse
 10
74.94488680253934
 20
-5.720344285831426
 30
0.0
 11
-1.249999999999998
 21
2.165063509461097
 31
0.0
210
0.0
220
0.0
230
0.9999999999999998
 40
0.5773502691896255
 41
0.0
 42
6.283185307179586
  0
ELLIPSE
  5
91E9
330
918B
100
AcDbEntity
  8
0
100
AcDbEllipse
 10
74.94488680253934
 20
10.6095873327231
 30
0.0
 11
-1.249999999999998
 21
2.165063509461097
 31
0.0
210
0.0
220
0.0
230
0.9999999999999998
 40
0.5773502691896255
 41
0.0
 42
6.283185307179586
  0
ELLIPSE
  5
91EA
330
918B
100
AcDbEntity
  8
0
100
AcDbEllipse
 10
74.94488680253934
 20
26.93951895127764
 30
0.0
 11
-1.249999999999998
 21
2.165063509461097
 31
0.0
210
0.0
220
0.0
230
0.9999999999999998
 40
0.5773502691896255
 41
0.0
 42
6.283185307179586
  0
LINE
  5
91EB
330
918B
100
AcDbEntity
  8
0
100
AcDbLine
 10
-20.18938702864877
 20
28.57515666033376
 30
0.0
 11
-19.4821751846581
 21
27.49313794680319
 31
0.0
  0
LINE
  5
91EC
330
918B
100
AcDbEntity
  8
0
100
AcDbLine
 10
-24.75716934476384
 20
-2.046109671656672
 30
0.0
 11
-53.04144059222573
 21
-45.32042846082615
 31
0.0
  0
LINE
  5
91ED
330
918B
100
AcDbEntity
  8
0
100
AcDbLine
 10
-26.17138290713695
 20
-1.229613090728944
 30
0.0
 11
-24.75716934476384
 21
-2.046109671656672
 31
0.0
  0
LINE
  5
91EE
330
918B
100
AcDbEntity
  8
0
100
AcDbLine
 10
-54.45565415459882
 20
-44.50393187989842
 30
0.0
 11
-26.17138290713695
 21
-1.229613090728944
 31
0.0
  0
LINE
  5
91EF
330
918B
100
AcDbEntity
  8
0
100
AcDbLine
 10
-53.04144059222573
 20
-45.32042846082615
 30
0.0
 11
-54.45565415459882
 21
-44.50393187989842
 31
0.0
  0
LINE
  5
91F0
330
918B
100
AcDbEntity
  8
0
100
AcDbLine
 10
-24.75716934476383
 20
77.15405867833279
 30
0.0
 11
-24.75716934476384
 21
-2.046109671656672
 31
0.0
  0
LINE
  5
91F1
330
918B
100
AcDbEntity
  8
0
100
AcDbLine
 10
-26.17138290713693
 20
77.97055525926052
 30
0.0
 11
-24.75716934476383
 21
77.15405867833279
 31
0.0
  0
LINE
  5
91F2
330
918B
100
AcDbEntity
  8
0
100
AcDbLine
 10
-26.17138290713695
 20
-1.229613090728944
 30
0.0
 11
-26.17138290713693
 21
77.97055525926052
 31
0.0
  0
ELLIPSE
  5
91F3
330
918B
100
AcDbEntity
  8
0
100
AcDbEllipse
 10
-9.200820158659785
 20
87.76851423039325
 30
0.0
 11
-3.250000000000007
 21
5.629165124598848
 31
0.0
210
0.0
220
0.0
230
1.0
 40
0.5773502691896259
 41
4.71238898038469
 42
7.853981633974483
  0
ELLIPSE
  5
91F4
330
918B
100
AcDbEntity
  8
0
100
AcDbEllipse
 10
-7.786606596286698
 20
88.58501081132096
 30
0.0
 11
-3.250000000000003
 21
5.629165124598854
 31
0.0
210
0.0
220
0.0
230
1.0
 40
0.5773502691896259
 41
0.2193254863005922
 42
1.5707963267949
  0
ELLIPSE
  5
91F5
330
918B
100
AcDbEntity
  8
0
100
AcDbEllipse
 10
-16.97899475171183
 20
96.34172833013437
 30
0.0
 11
1.25
 21
-2.165063509461097
 31
0.0
210
0.0
220
0.0
230
1.0
 40
0.5773502691896259
 41
0.0
 42
6.283185307179586
  0
ELLIPSE
  5
91F6
330
918B
100
AcDbEntity
  8
0
100
AcDbEllipse
 10
-15.56478118933874
 20
97.15822491106209
 30
0.0
 11
1.250000000000129
 21
-2.165063509461022
 31
0.0
210
0.0
220
0.0
230
1.0
 40
0.5773502691896259
 41
3.742856870268578
 42
5.681921090500118
  0
LINE
  5
91F7
330
918B
100
AcDbEntity
  8
0
100
AcDbLine
 10
3.527101902698053
 20
95.11698345874279
 30
0.0
 11
3.527101902698062
 21
96.74997662059823
 31
0.0
  0
ELLIPSE
  5
91F8
330
918B
100
AcDbEntity
  8
0
100
AcDbEllipse
 10
2.112888340324965
 20
95.93348003967051
 30
0.0
 11
1.999999999999997
 21
-0.0000000000000002
 31
0.0
210
0.0
220
0.0
230
1.0
 40
0.577350269189626
 41
5.49778714378214
 42
7.068583470577028
  0
LINE
  5
91F9
330
918B
100
AcDbEntity
  8
0
100
AcDbLine
 10
4.941315465071154
 20
94.30048687781507
 30
0.0
 11
4.941315465071149
 21
-9.751796154162075
 31
0.0
  0
ELLIPSE
  5
91FA
330
918B
100
AcDbEntity
  8
0
100
AcDbEllipse
 10
2.112888340324965
 20
95.93348003967051
 30
0.0
 11
3.999999999999999
 21
0.0000000000000001
 31
0.0
210
0.0
220
0.0
230
1.0
 40
0.577350269189626
 41
5.497787143782137
 42
7.068583470577028
  0
LINE
  5
91FB
330
918B
100
AcDbEntity
  8
0
100
AcDbLine
 10
3.527101902698062
 20
96.74997662059823
 30
0.0
 11
4.941315465071158
 21
97.56647320152595
 31
0.0
  0
LINE
  5
91FC
330
918B
100
AcDbEntity
  8
0
100
AcDbLine
 10
3.527101902698057
 20
95.11698345874279
 30
0.0
 11
4.941315465071154
 21
94.30048687781507
 31
0.0
  0
LINE
  5
91FD
330
918B
100
AcDbEntity
  8
0
100
AcDbLine
 10
6.11288834032496
 20
-8.118802992306623
 30
0.0
 11
6.11288834032496
 21
95.93348003967051
 31
0.0
  0
LINE
  5
91FE
330
918B
100
AcDbEntity
  8
0
100
AcDbLine
 10
-22.98940239179749
 20
112.0592875129931
 30
0.0
 11
3.527101902698062
 21
96.74997662059823
 31
0.0
  0
LINE
  5
91FF
330
918B
100
AcDbEntity
  8
0
100
AcDbLine
 10
-22.98940239179751
 20
79.80767256634796
 30
0.0
 11
-22.98940239179749
 21
112.0592875129931
 31
0.0
  0
LINE
  5
9200
330
918B
100
AcDbEntity
  8
0
100
AcDbLine
 10
-53.04144059222572
 20
-66.54933956494703
 30
0.0
 11
-53.04144059222573
 21
-45.32042846082615
 31
0.0
  0
LINE
  5
9201
330
918B
100
AcDbEntity
  8
0
100
AcDbLine
 10
-24.75716934476383
 20
77.15405867833279
 30
0.0
 11
4.941315465071154
 21
94.30048687781507
 31
0.0
  0
LINE
  5
9202
330
918B
100
AcDbEntity
  8
0
100
AcDbLine
 10
-54.45565415459882
 20
-44.50393187989842
 30
0.0
 11
-54.45565415459881
 21
-65.73284298401929
 31
0.0
  0
LINE
  5
9203
330
918B
100
AcDbEntity
  8
0
100
AcDbLine
 10
3.527101902698057
 20
95.11698345874279
 30
0.0
 11
-26.17138290713693
 21
77.97055525926052
 31
0.0
  0
LINE
  5
9204
330
918B
100
AcDbEntity
  8
0
100
AcDbLine
 10
4.941315465071158
 20
97.56647320152595
 30
0.0
 11
-21.57518882942438
 21
112.8757840939208
 31
0.0
  0
LINE
  5
9205
330
918B
100
AcDbEntity
  8
0
100
AcDbLine
 10
-21.57518882942438
 20
112.8757840939208
 30
0.0
 11
-22.98940239179749
 21
112.0592875129931
 31
0.0
  0
ELLIPSE
  5
9206
330
918B
100
AcDbEntity
  8
0
100
AcDbEllipse
 10
25.80096551007431
 20
-39.80907653956401
 30
0.0
 11
1.24999999999987
 21
2.165063509461172
 31
0.0
210
0.0
220
0.0
230
1.0
 40
0.5773502691896259
 41
3.742856870268578
 42
5.681921090500117
  0
ELLIPSE
  5
9207
330
918B
100
AcDbEntity
  8
0
100
AcDbEllipse
 10
27.21517907244741
 20
-40.62557312049173
 30
0.0
 11
-1.25
 21
-2.165063509461097
 31
0.0
210
0.0
220
0.0
230
1.0
 40
0.5773502691896258
 41
0.0
 42
6.283185307179586
  0
ELLIPSE
  5
9208
330
918B
100
AcDbEntity
  8
0
100
AcDbEllipse
 10
25.80096551007431
 20
-23.47914492100949
 30
0.0
 11
1.24999999999987
 21
2.165063509461172
 31
0.0
210
0.0
220
0.0
230
1.0
 40
0.5773502691896259
 41
3.742856870268578
 42
5.681921090500117
  0
ELLIPSE
  5
9209
330
918B
100
AcDbEntity
  8
0
100
AcDbEllipse
 10
27.21517907244741
 20
-24.29564150193721
 30
0.0
 11
-1.25
 21
-2.165063509461097
 31
0.0
210
0.0
220
0.0
230
1.0
 40
0.5773502691896258
 41
0.0
 42
6.283185307179586
  0
ELLIPSE
  5
920A
330
918B
100
AcDbEntity
  8
0
100
AcDbEllipse
 10
25.80096551007431
 20
-7.149213302454962
 30
0.0
 11
1.24999999999987
 21
2.165063509461172
 31
0.0
210
0.0
220
0.0
230
1.0
 40
0.5773502691896259
 41
3.742856870268578
 42
5.681921090500117
  0
ELLIPSE
  5
920B
330
918B
100
AcDbEntity
  8
0
100
AcDbEllipse
 10
27.21517907244741
 20
-7.965709883382685
 30
0.0
 11
-1.25
 21
-2.165063509461097
 31
0.0
210
0.0
220
0.0
230
1.0
 40
0.5773502691896258
 41
0.0
 42
6.283185307179586
  0
ELLIPSE
  5
920C
330
918B
100
AcDbEntity
  8
0
100
AcDbEllipse
 10
25.80096551007431
 20
9.180718316099572
 30
0.0
 11
1.24999999999987
 21
2.165063509461172
 31
0.0
210
0.0
220
0.0
230
1.0
 40
0.5773502691896259
 41
3.742856870268578
 42
5.681921090500117
  0
ELLIPSE
  5
920D
330
918B
100
AcDbEntity
  8
0
100
AcDbEllipse
 10
27.21517907244741
 20
8.364221735171843
 30
0.0
 11
-1.25
 21
-2.165063509461097
 31
0.0
210
0.0
220
0.0
230
1.0
 40
0.5773502691896258
 41
0.0
 42
6.283185307179586
  0
ELLIPSE
  5
920E
330
918B
100
AcDbEntity
  8
0
100
AcDbEllipse
 10
25.80096551007431
 20
25.5106499346541
 30
0.0
 11
1.24999999999987
 21
2.165063509461172
 31
0.0
210
0.0
220
0.0
230
1.0
 40
0.5773502691896259
 41
3.742856870268578
 42
5.681921090500117
  0
ELLIPSE
  5
920F
330
918B
100
AcDbEntity
  8
0
100
AcDbEllipse
 10
27.21517907244741
 20
24.69415335372637
 30
0.0
 11
-1.25
 21
-2.165063509461097
 31
0.0
210
0.0
220
0.0
230
1.0
 40
0.5773502691896258
 41
0.0
 42
6.283185307179586
  0
ELLIPSE
  5
9210
330
918B
100
AcDbEntity
  8
0
100
AcDbEllipse
 10
-20.86808204823782
 20
-4.699723559671751
 30
0.0
 11
1.24999999999987
 21
2.165063509461172
 31
0.0
210
0.0
220
0.0
230
1.0
 40
0.5773502691896255
 41
3.742856870268582
 42
5.681921090500114
  0
ELLIPSE
  5
9211
330
918B
100
AcDbEntity
  8
0
100
AcDbEllipse
 10
-19.45386848586472
 20
-5.516220140599479
 30
0.0
 11
1.249999999999999
 21
2.165063509461097
 31
0.0
210
0.0
220
0.0
230
1.0
 40
0.5773502691896257
 41
0.0
 42
6.283185307179586
  0
ELLIPSE
  5
9212
330
918B
100
AcDbEntity
  8
0
100
AcDbEllipse
 10
-20.86808204823782
 20
11.63020805888277
 30
0.0
 11
1.24999999999987
 21
2.165063509461172
 31
0.0
210
0.0
220
0.0
230
1.0
 40
0.5773502691896255
 41
3.742856870268582
 42
5.681921090500114
  0
ELLIPSE
  5
9213
330
918B
100
AcDbEntity
  8
0
100
AcDbEllipse
 10
-19.45386848586472
 20
10.81371147795504
 30
0.0
 11
1.249999999999999
 21
2.165063509461097
 31
0.0
210
0.0
220
0.0
230
1.0
 40
0.5773502691896257
 41
0.0
 42
6.283185307179586
  0
ELLIPSE
  5
9214
330
918B
100
AcDbEntity
  8
0
100
AcDbEllipse
 10
-20.86808204823782
 20
27.9601396774373
 30
0.0
 11
1.24999999999987
 21
2.165063509461172
 31
0.0
210
0.0
220
0.0
230
1.0
 40
0.5773502691896255
 41
3.742856870268582
 42
5.681921090500117
  0
ELLIPSE
  5
9215
330
918B
100
AcDbEntity
  8
0
100
AcDbEllipse
 10
-19.45386848586472
 20
27.14364309650957
 30
0.0
 11
1.249999999999999
 21
2.165063509461097
 31
0.0
210
0.0
220
0.0
230
1.0
 40
0.5773502691896257
 41
0.0
 42
6.283185307179586
  0
ELLIPSE
  5
9216
330
918B
100
AcDbEntity
  8
0
100
AcDbEllipse
 10
-20.86808204823782
 20
44.29007129599182
 30
0.0
 11
1.24999999999987
 21
2.165063509461172
 31
0.0
210
0.0
220
0.0
230
1.0
 40
0.5773502691896255
 41
3.742856870268582
 42
5.681921090500117
  0
ELLIPSE
  5
9217
330
918B
100
AcDbEntity
  8
0
100
AcDbEllipse
 10
-19.45386848586472
 20
43.4735747150641
 30
0.0
 11
1.249999999999999
 21
2.165063509461097
 31
0.0
210
0.0
220
0.0
230
1.0
 40
0.5773502691896257
 41
0.0
 42
6.283185307179586
  0
ELLIPSE
  5
9218
330
918B
100
AcDbEntity
  8
0
100
AcDbEllipse
 10
-20.86808204823782
 20
60.62000291454634
 30
0.0
 11
1.24999999999987
 21
2.165063509461172
 31
0.0
210
0.0
220
0.0
230
1.0
 40
0.5773502691896255
 41
3.742856870268582
 42
5.681921090500117
  0
ELLIPSE
  5
9219
330
918B
100
AcDbEntity
  8
0
100
AcDbEllipse
 10
-19.45386848586472
 20
59.80350633361863
 30
0.0
 11
1.249999999999999
 21
2.165063509461097
 31
0.0
210
0.0
220
0.0
230
1.0
 40
0.5773502691896257
 41
0.0
 42
6.283185307179586
  0
ELLIPSE
  5
921A
330
918B
100
AcDbEntity
  8
0
100
AcDbEllipse
 10
-20.86808204823782
 20
76.94993453310087
 30
0.0
 11
1.24999999999987
 21
2.165063509461172
 31
0.0
210
0.0
220
0.0
230
1.0
 40
0.5773502691896255
 41
3.742856870268582
 42
5.681921090500117
  0
ELLIPSE
  5
921B
330
918B
100
AcDbEntity
  8
0
100
AcDbEllipse
 10
-19.45386848586472
 20
76.13343795217315
 30
0.0
 11
1.249999999999999
 21
2.165063509461097
 31
0.0
210
0.0
220
0.0
230
1.0
 40
0.5773502691896257
 41
0.0
 42
6.283185307179586
  0
ENDBLK
  5
918D
330
918B
100
AcDbEntity
  8
0
100
AcDbBlockEnd
  0
ENDSEC
  0
SECTION
  2
ENTITIES
  0
INSERT
  5
921C
330
1F
100
AcDbEntity
  8
0
100
AcDbBlockReference
  2
SAE380_64_2-Front
 10
0.0
 20
0.0
 30
0.0
  0
INSERT
  5
921D
330
1F
100
AcDbEntity
  8
0
100
AcDbBlockReference
  2
SAE380_64_2-Left
 10
121.5
 20
0.0
 30
0.0
  0
INSERT
  5
921E
330
1F
100
AcDbEntity
  8
0
100
AcDbBlockReference
  2
SAE380_64_2-Right
 10
-121.5
 20
0.0
 30
0.0
  0
INSERT
  5
921F
330
1F
100
AcDbEntity
  8
0
100
AcDbBlockReference
  2
SAE380_64_2-Top
 10
0.0
 20
-50.0
 30
0.0
  0
INSERT
  5
9220
330
1F
100
AcDbEntity
  8
0
100
AcDbBlockReference
  2
SAE380_64_2-Bottom
 10
0.0
 20
206.0
 30
0.0
  0
INSERT
  5
9221
330
1F
100
AcDbEntity
  8
0
100
AcDbBlockReference
  2
SAE380_64_2-ISO
 10
175.955654154599
 20
-162.8757840939208
 30
0.0
  0
MTEXT
  5
9222
330
1F
100
AcDbEntity
  8
0
100
AcDbMText
 10
0.0
 20
-184.0
 30
0.0
 40
15.18750000000001
 41
0.0
 71
     5
 72
     5
  1
SAE380/64/2
 73
     1
 44
1.0
1001
ACAD
1000
MTEXTBEGIN
1070
    73
1070
     1
1070
    44
1040
1.0
1070
    74
1070
     0
1000
MTEXTEND
  0
ENDSEC
  0
SECTION
  2
OBJECTS
  0
DICTIONARY
  5
C
330
0
100
AcDbDictionary
281
     1
  3
ACAD_CIP_PREVIOUS_PRODUCT_INFO
350
216
  3
ACAD_COLOR
350
6B
  3
ACAD_DETAILVIEWSTYLE
350
21B
  3
ACAD_GROUP
350
D
  3
ACAD_LAYOUT
350
1A
  3
ACAD_MATERIAL
350
6A
  3
ACAD_MLEADERSTYLE
350
12D
  3
ACAD_MLINESTYLE
350
17
  3
ACAD_PLOTSETTINGS
350
19
  3
ACAD_PLOTSTYLENAME
350
E
  3
ACAD_SCALELIST
350
10C
  3
ACAD_SECTIONVIEWSTYLE
350
219
  3
ACAD_TABLESTYLE
350
7E
  3
ACAD_VISUALSTYLE
350
EF
  3
ACDB_RECOMPOSE_DATA
350
9323
  3
AcDbVariableDictionary
350
5E
  3
DWGPROPS
350
9324
  0
DICTIONARY
  5
9273
330
8
100
AcDbDictionary
280
     1
281
     1
  0
DICTIONARY
  5
1FF
330
2
100
AcDbDictionary
280
     1
281
     1
  3
ACAD_LAYERSTATES
360
200
  0
DICTIONARY
  5
13C
330
10
100
AcDbDictionary
280
     1
281
     1
  0
DICTIONARY
  5
1CE
330
1F
100
AcDbDictionary
280
     1
281
     1
  3
ACAD_LAYOUTSELFREF
360
927B
  0
DICTIONARY
  5
9226
330
D2
100
AcDbDictionary
280
     1
281
     1
  3
ACAD_LAYOUTSELFREF
360
9284
  0
DICTIONARY
  5
9228
330
D6
100
AcDbDictionary
280
     1
281
     1
  3
ACAD_LAYOUTSELFREF
360
9287
  0
XRECORD
  5
216
102
{ACAD_REACTORS
330
C
102
}
330
C
100
AcDbXrecord
280
     1
300
ACD
300
2021
300
87393ACD_2021_0F
  0
DICTIONARY
  5
6B
102
{ACAD_REACTORS
330
C
102
}
330
C
100
AcDbDictionary
281
     1
  0
DICTIONARY
  5
21B
102
{ACAD_REACTORS
330
C
102
}
330
C
100
AcDbDictionary
281
     1
  3
Metric50
350
21C
  0
DICTIONARY
  5
D
102
{ACAD_REACTORS
330
C
102
}
330
C
100
AcDbDictionary
281
     1
  0
DICTIONARY
  5
1A
102
{ACAD_REACTORS
330
C
102
}
330
C
100
AcDbDictionary
281
     1
  3
Layout1
350
D3
  3
Layout2
350
D7
  3
Model
350
22
  0
DICTIONARY
  5
6A
102
{ACAD_REACTORS
330
C
102
}
330
C
100
AcDbDictionary
281
     1
  3
ByBlock
350
ED
  3
ByLayer
350
EC
  3
Global
350
EE
  0
DICTIONARY
  5
12D
102
{ACAD_REACTORS
330
C
102
}
330
C
100
AcDbDictionary
281
     1
  3
Standard
350
12E
  0
DICTIONARY
  5
17
102
{ACAD_REACTORS
330
C
102
}
330
C
100
AcDbDictionary
281
     1
  3
Standard
350
18
  0
DICTIONARY
  5
19
102
{ACAD_REACTORS
330
C
102
}
330
C
100
AcDbDictionary
281
     1
  0
ACDBDICTIONARYWDFLT
  5
E
102
{ACAD_REACTORS
330
C
102
}
330
C
100
AcDbDictionary
281
     1
  3
Normal
350
F
100
AcDbDictionaryWithDefault
340
F
  0
DICTIONARY
  5
10C
102
{ACAD_REACTORS
330
C
102
}
330
C
100
AcDbDictionary
281
     1
  3
A0
350
10D
  3
A1
350
1BE
  3
A2
350
1BF
  3
A3
350
1C0
  3
A4
350
1C1
  3
A5
350
1C2
  3
A6
350
1C3
  3
A7
350
1C4
  3
A8
350
1C5
  3
A9
350
1C6
  3
B0
350
1C7
  3
B1
350
1C8
  3
B2
350
1C9
  3
B3
350
1CA
  3
B4
350
1CB
  3
B5
350
1CC
  3
B6
350
1CD
  0
DICTIONARY
  5
219
102
{ACAD_REACTORS
330
C
102
}
330
C
100
AcDbDictionary
281
     1
  3
Metric50
350
21A
  0
DICTIONARY
  5
7E
102
{ACAD_REACTORS
330
C
102
}
330
C
100
AcDbDictionary
281
     1
  3
Standard
350
7F
  0
DICTIONARY
  5
EF
102
{ACAD_REACTORS
330
C
102
}
330
C
100
AcDbDictionary
281
     1
  3
2dWireframe
350
F5
  3
Basic
350
F4
  3
Brighten
350
FB
  3
ColorChange
350
FF
  3
Conceptual
350
F8
  3
Dim
350
FA
  3
EdgeColorOff
350
1E6
  3
Facepattern
350
FE
  3
Flat
350
F0
  3
FlatWithEdges
350
F1
  3
Gouraud
350
F2
  3
GouraudWithEdges
350
F3
  3
Hidden
350
F7
  3
JitterOff
350
1E4
  3
Linepattern
350
FD
  3
OverhangOff
350
1E5
  3
Realistic
350
F9
  3
Shaded
350
1F3
  3
Shaded with edges
350
1F2
  3
Shades of Gray
350
1EF
  3
Sketchy
350
1F0
  3
Thicken
350
FC
  3
Wireframe
350
F6
  3
X-Ray
350
1F1
  0
XRECORD
  5
9323
102
{ACAD_REACTORS
330
C
102
}
330
C
100
AcDbXrecord
280
     1
 90
        1
330
7F
  0
DICTIONARY
  5
5E
102
{ACAD_REACTORS
330
C
102
}
330
C
100
AcDbDictionary
281
     1
  3
CANNOSCALE
350
146
  3
CENTEREXE
350
259
  3
CENTERLTYPEFILE
350
25A
  3
CMLEADERSTYLE
350
145
  3
CTABLESTYLE
350
84
  3
CVIEWDETAILSTYLE
350
227
  3
CVIEWSECTIONSTYLE
350
228
  3
DIMASSOC
350
5F
  3
HIDETEXT
350
63
  3
INDEXCTL
350
92D0
  3
LAYEREVAL
350
1AE
  3
LAYERNOTIFY
350
1AF
  3
LIGHTINGUNITS
350
92CE
  3
MSLTSCALE
350
92CD
  3
PSOLHEIGHT
350
9320
  3
PSOLWIDTH
350
931F
  3
SORTENTS
350
92CF
  3
XCLIPFRAME
350
9321
  0
XRECORD
  5
9324
102
{ACAD_REACTORS
330
C
102
}
330
C
100
AcDbXrecord
280
     1
  1
DWGPROPS COOKIE
  2

  3

  4

  6

  7

  8
truole
  9

300
=
301
=
302
=
303
=
304
=
305
=
306
=
307
=
308
=
309
=
 40
0.0077777777777778
 41
2460398.356956019
 42
2460398.374768518
  1

 90
        0
  0
DICTIONARY
  5
200
102
{ACAD_REACTORS
330
1FF
102
}
330
1FF
100
AcDbDictionary
281
     1
  0
XRECORD
  5
927B
102
{ACAD_REACTORS
330
1CE
102
}
330
1CE
100
AcDbXrecord
280
     1
340
1F
  0
XRECORD
  5
9284
102
{ACAD_REACTORS
330
9226
102
}
330
9226
100
AcDbXrecord
280
     1
340
D2
  0
XRECORD
  5
9287
102
{ACAD_REACTORS
330
9228
102
}
330
9228
100
AcDbXrecord
280
     1
340
D6
  0
ACDBDETAILVIEWSTYLE
  5
21C
102
{ACAD_XDICTIONARY
360
9363
102
}
102
{ACAD_REACTORS
330
21B
102
}
330
21B
100
AcDbModelDocViewStyle
 70
     0
  3
Metric50
290
     0
100
AcDbDetailViewStyle
 70
     0
 71
     0
 90
        3
 71
     1
340
11
 40
5.0
340
0
 40
5.0
300

 40
0.0
280
     1
 71
     2
340
16
 90
       25
 71
     3
340
11
 40
5.0
 90
        0
 40
15.0
 90
        1
300
%<\AcVar ViewDetailId>% (%<\AcVar ViewScale \f "%sn">%)
 71
     4
340
16
 90
       25
340
16
 90
       25
280
     0
  0
LAYOUT
  5
D3
102
{ACAD_XDICTIONARY
360
9328
102
}
102
{ACAD_REACTORS
330
1A
102
}
330
1A
100
AcDbPlotSettings
  1

  2
C:\Documents and Settings\basas\Application Data\Autodesk\AutoCAD 2005\R16.1\enu\plotters\Default Windows System Printer.pc3
  4

  6

 40
0.0
 41
0.0
 42
0.0
 43
0.0
 44
0.0
 45
0.0
 46
0.0
 47
0.0
 48
0.0
 49
0.0
140
0.0
141
0.0
142
1.0
143
1.0
 70
   688
 72
     0
 73
     0
 74
     5
  7

 75
    16
147
1.0
148
0.0
149
0.0
100
AcDbLayout
  1
Layout1
 70
     1
 71
     1
 10
0.0
 20
0.0
 11
12.0
 21
9.0
 12
0.0
 22
0.0
 32
0.0
 14
0.0
 24
0.0
 34
0.0
 15
0.0
 25
0.0
 35
0.0
146
0.0
 13
0.0
 23
0.0
 33
0.0
 16
1.0
 26
0.0
 36
0.0
 17
0.0
 27
1.0
 37
0.0
 76
     0
330
D2
  0
LAYOUT
  5
D7
102
{ACAD_XDICTIONARY
360
932A
102
}
102
{ACAD_REACTORS
330
1A
102
}
330
1A
100
AcDbPlotSettings
  1

  2
C:\Documents and Settings\basas\Application Data\Autodesk\AutoCAD 2005\R16.1\enu\plotters\Default Windows System Printer.pc3
  4

  6

 40
0.0
 41
0.0
 42
0.0
 43
0.0
 44
0.0
 45
0.0
 46
0.0
 47
0.0
 48
0.0
 49
0.0
140
0.0
141
0.0
142
1.0
143
1.0
 70
   688
 72
     0
 73
     0
 74
     5
  7

 75
    16
147
1.0
148
0.0
149
0.0
100
AcDbLayout
  1
Layout2
 70
     1
 71
     2
 10
0.0
 20
0.0
 11
12.0
 21
9.0
 12
0.0
 22
0.0
 32
0.0
 14
0.0
 24
0.0
 34
0.0
 15
0.0
 25
0.0
 35
0.0
146
0.0
 13
0.0
 23
0.0
 33
0.0
 16
1.0
 26
0.0
 36
0.0
 17
0.0
 27
1.0
 37
0.0
 76
     0
330
D6
  0
LAYOUT
  5
22
102
{ACAD_XDICTIONARY
360
9325
102
}
102
{ACAD_REACTORS
330
1A
102
}
330
1A
100
AcDbPlotSettings
  1

  2
none_device
  4
ISO_A4_(210.00_x_297.00_MM)
  6

 40
7.5
 41
20.0
 42
7.5
 43
20.0
 44
210.0
 45
297.0
 46
11.54999923706054
 47
-13.65000009536743
 48
0.0
 49
0.0
140
0.0
141
0.0
142
1.0
143
8.704084754739808
 70
 11952
 72
     1
 73
     0
 74
     0
  7

 75
     0
147
0.1148885871608098
148
0.0
149
0.0
100
AcDbLayout
  1
Model
 70
     1
 71
     0
 10
0.0
 20
0.0
 11
12.0
 21
9.0
 12
0.0
 22
0.0
 32
0.0
 14
0.0
 24
0.0
 34
0.0
 15
0.0
 25
0.0
 35
0.0
146
0.0
 13
0.0
 23
0.0
 33
0.0
 16
1.0
 26
0.0
 36
0.0
 17
0.0
 27
1.0
 37
0.0
 76
     0
330
1F
331
EA
1001
ACAD_PSEXT
1000
None
1000
None
1000
Not applicable
1000
The layout will not be plotted unless a new plotter configuration name is selected.
1070
     0
  0
MATERIAL
  5
ED
102
{ACAD_XDICTIONARY
360
1F9
102
}
102
{ACAD_REACTORS
330
6A
102
}
330
6A
100
AcDbMaterial
  1
ByBlock
  0
MATERIAL
  5
EC
102
{ACAD_XDICTIONARY
360
1F7
102
}
102
{ACAD_REACTORS
330
6A
102
}
330
6A
100
AcDbMaterial
  1
ByLayer
  0
MATERIAL
  5
EE
102
{ACAD_XDICTIONARY
360
173
102
}
102
{ACAD_REACTORS
330
6A
102
}
330
6A
100
AcDbMaterial
  1
Global
 43
0.0007999999797903
 43
0.0
 43
0.0
 43
0.0
 43
0.0
 43
0.0007999999797903
 43
0.0
 43
0.0
 43
0.0
 43
0.0
 43
1.0
 43
0.0
 43
0.0
 43
0.0
 43
0.0
 43
1.0
 49
0.0007999999797903
 49
0.0
 49
0.0
 49
0.0
 49
0.0
 49
0.0007999999797903
 49
0.0
 49
0.0
 49
0.0
 49
0.0
 49
1.0
 49
0.0
 49
0.0
 49
0.0
 49
0.0
 49
1.0
142
0.0007999999797903
142
0.0
142
0.0
142
0.0
142
0.0
142
0.0007999999797903
142
0.0
142
0.0
142
0.0
142
0.0
142
1.0
142
0.0
142
0.0
142
0.0
142
0.0
142
1.0
144
0.0007999999797903
144
0.0
144
0.0
144
0.0
144
0.0
144
0.0007999999797903
144
0.0
144
0.0
144
0.0
144
0.0
144
1.0
144
0.0
144
0.0
144
0.0
144
0.0
144
1.0
1001
ACAD
1070
    -1
1070
     3
1070
     0
1000

1071
        0
1070
     0
  0
MLEADERSTYLE
  5
12E
102
{ACAD_XDICTIONARY
360
934F
102
}
102
{ACAD_REACTORS
330
12D
102
}
330
12D
100
AcDbMLeaderStyle
170
     2
171
     1
172
     0
 90
        2
 40
0.0
 41
0.0
173
     1
 91
-1056964608
340
14
 92
       -2
290
     1
 42
2.0
291
     1
 43
8.0
  3
Standard
 44
4.0
300

342
11
174
     1
178
     1
175
     1
176
     0
 93
-1056964608
 45
4.0
292
     0
297
     0
 46
4.0
 94
-1056964608
 47
1.0
 49
1.0
140
1.0
293
     1
141
0.0
294
     1
177
     0
142
1.0
295
     0
296
     0
143
3.75
1001
ACAD_MLEADERVER
1070
     2
  0
MLINESTYLE
  5
18
102
{ACAD_REACTORS
330
17
102
}
330
17
100
AcDbMlineStyle
  2
STANDARD
 70
     0
  3

 62
   256
 51
90.0
 52
90.0
 71
     2
 49
0.5
 62
   256
  6
BYLAYER
 49
-0.5
 62
   256
  6
BYLAYER
  0
ACDBPLACEHOLDER
  5
F
102
{ACAD_REACTORS
330
E
102
}
330
E
  0
SCALE
  5
10D
102
{ACAD_REACTORS
330
10C
102
}
330
10C
100
AcDbScale
 70
     0
300
1:1
140
1.0
141
1.0
290
     1
  0
SCALE
  5
1BE
102
{ACAD_REACTORS
330
10C
102
}
330
10C
100
AcDbScale
 70
     0
300
1:2
140
1.0
141
2.0
290
     0
  0
SCALE
  5
1BF
102
{ACAD_REACTORS
330
10C
102
}
330
10C
100
AcDbScale
 70
     0
300
1:4
140
1.0
141
4.0
290
     0
  0
SCALE
  5
1C0
102
{ACAD_REACTORS
330
10C
102
}
330
10C
100
AcDbScale
 70
     0
300
1:5
140
1.0
141
5.0
290
     0
  0
SCALE
  5
1C1
102
{ACAD_REACTORS
330
10C
102
}
330
10C
100
AcDbScale
 70
     0
300
1:8
140
1.0
141
8.0
290
     0
  0
SCALE
  5
1C2
102
{ACAD_REACTORS
330
10C
102
}
330
10C
100
AcDbScale
 70
     0
300
1:10
140
1.0
141
10.0
290
     0
  0
SCALE
  5
1C3
102
{ACAD_REACTORS
330
10C
102
}
330
10C
100
AcDbScale
 70
     0
300
1:16
140
1.0
141
16.0
290
     0
  0
SCALE
  5
1C4
102
{ACAD_REACTORS
330
10C
102
}
330
10C
100
AcDbScale
 70
     0
300
1:20
140
1.0
141
20.0
290
     0
  0
SCALE
  5
1C5
102
{ACAD_REACTORS
330
10C
102
}
330
10C
100
AcDbScale
 70
     0
300
1:30
140
1.0
141
30.0
290
     0
  0
SCALE
  5
1C6
102
{ACAD_REACTORS
330
10C
102
}
330
10C
100
AcDbScale
 70
     0
300
1:40
140
1.0
141
40.0
290
     0
  0
SCALE
  5
1C7
102
{ACAD_REACTORS
330
10C
102
}
330
10C
100
AcDbScale
 70
     0
300
1:50
140
1.0
141
50.0
290
     0
  0
SCALE
  5
1C8
102
{ACAD_REACTORS
330
10C
102
}
330
10C
100
AcDbScale
 70
     0
300
1:100
140
1.0
141
100.0
290
     0
  0
SCALE
  5
1C9
102
{ACAD_REACTORS
330
10C
102
}
330
10C
100
AcDbScale
 70
     0
300
2:1
140
2.0
141
1.0
290
     0
  0
SCALE
  5
1CA
102
{ACAD_REACTORS
330
10C
102
}
330
10C
100
AcDbScale
 70
     0
300
4:1
140
4.0
141
1.0
290
     0
  0
SCALE
  5
1CB
102
{ACAD_REACTORS
330
10C
102
}
330
10C
100
AcDbScale
 70
     0
300
8:1
140
8.0
141
1.0
290
     0
  0
SCALE
  5
1CC
102
{ACAD_REACTORS
330
10C
102
}
330
10C
100
AcDbScale
 70
     0
300
10:1
140
10.0
141
1.0
290
     0
  0
SCALE
  5
1CD
102
{ACAD_REACTORS
330
10C
102
}
330
10C
100
AcDbScale
 70
     0
300
100:1
140
100.0
141
1.0
290
     0
  0
ACDBSECTIONVIEWSTYLE
  5
21A
102
{ACAD_XDICTIONARY
360
9361
102
}
102
{ACAD_REACTORS
330
219
102
}
330
219
100
AcDbModelDocViewStyle
 70
     0
  3
Metric50
290
     0
100
AcDbSectionViewStyle
 70
     0
 71
     0
 90
      102
 71
     1
340
11
 40
5.0
340
0
340
0
 40
5.0
300
I, O, Q, S, X, Z
 40
10.0
 90
        0
 40
2.5
 90
        0
 71
     2
340
16
 90
       25
340
16
 90
       50
 40
5.0
 40
2.5
 40
5.0
 71
     3
340
11
 40
5.0
 90
        0
 40
15.0
 90
        1
300
%<\AcVar ViewSectionStartId>%-%<\AcVar ViewSectionEndId>% (%<\AcVar ViewScale \f "%sn">%)
 71
     4
300
ANSI31
 40
1.0
 90
        0
290
     0
290
     0
 90
        6
 40
0.0
 40
1.570796326794896
 40
0.2617993877991494
 40
1.308996938995747
 40
-0.2617993877991494
 40
1.832595714594046
  0
TABLESTYLE
  5
7F
102
{ACAD_XDICTIONARY
360
162
102
}
102
{ACAD_REACTORS
330
7E
102
}
330
7E
100
AcDbTableStyle
  3
Standard
 70
     0
 71
     0
 40
1.5
 41
1.5
280
     0
281
     0
  7
Standard
140
4.5
170
     2
 62
     0
 63
     7
283
     0
274
    -2
284
     1
 64
     0
275
    -2
285
     1
 65
     0
276
    -2
286
     1
 66
     0
277
    -2
287
     1
 67
     0
278
    -2
288
     1
 68
     0
279
    -2
289
     1
 69
     0
  7
Standard
140
6.0
170
     5
 62
     0
 63
     7
283
     0
274
    -2
284
     1
 64
     0
275
    -2
285
     1
 65
     0
276
    -2
286
     1
 66
     0
277
    -2
287
     1
 67
     0
278
    -2
288
     1
 68
     0
279
    -2
289
     1
 69
     0
  7
Standard
140
4.5
170
     5
 62
     0
 63
     7
283
     0
274
    -2
284
     1
 64
     0
275
    -2
285
     1
 65
     0
276
    -2
286
     1
 66
     0
277
    -2
287
     1
 67
     0
278
    -2
288
     1
 68
     0
279
    -2
289
     1
 69
     0
  0
VISUALSTYLE
  5
F5
102
{ACAD_XDICTIONARY
360
9339
102
}
102
{ACAD_REACTORS
330
EF
102
}
330
EF
100
AcDbVisualStyle
  2
2dWireframe
 70
     4
 71
     0
 72
     2
 73
     1
 90
        0
 40
-0.6
 41
-30.0
 62
     5
 63
     7
 74
     1
 91
        4
 64
     7
 65
   257
 75
     1
175
     1
 42
1.0
 92
        0
 66
   257
 43
1.0
 76
     1
 77
     6
 78
     2
 67
     7
 79
     5
170
     0
171
     0
290
     0
174
     0
 93
        1
 44
0.0
173
     0
291
     0
 45
0.0
1001
ACAD
1000
AcDbSavedByObjectVersion
1070
     0
  0
VISUALSTYLE
  5
F4
102
{ACAD_XDICTIONARY
360
9337
102
}
102
{ACAD_REACTORS
330
EF
102
}
330
EF
100
AcDbVisualStyle
  2
Basic
 70
     7
 71
     1
 72
     0
 73
     1
 90
        0
 40
-0.6
 41
-30.0
 62
     5
 63
     7
 74
     0
 91
        4
 64
     7
 65
   257
 75
     1
175
     1
 42
1.0
 92
        8
 66
     7
 43
1.0
 76
     1
 77
     6
 78
     2
 67
     7
 79
     5
170
     0
171
     0
290
     0
174
     0
 93
        1
 44
0.0
173
     0
291
     1
 45
0.0
1001
ACAD
1000
AcDbSavedByObjectVersion
1070
     0
  0
VISUALSTYLE
  5
FB
102
{ACAD_XDICTIONARY
360
9345
102
}
102
{ACAD_REACTORS
330
EF
102
}
330
EF
100
AcDbVisualStyle
  2
Brighten
 70
    12
 71
     2
 72
     2
 73
     1
 90
        0
 40
-0.6
 41
-30.0
 62
     5
 63
     7
 74
     1
 91
        4
 64
     7
 65
   257
 75
     1
175
     1
 42
1.0
 92
        8
 66
     7
 43
1.0
 76
     1
 77
     6
 78
     2
 67
     7
 79
     5
170
     0
171
     0
290
     0
174
     0
 93
        1
 44
50.0
173
     0
291
     1
 45
0.0
1001
ACAD
1000
AcDbSavedByObjectVersion
1070
     0
  0
VISUALSTYLE
  5
FF
102
{ACAD_XDICTIONARY
360
934D
102
}
102
{ACAD_REACTORS
330
EF
102
}
330
EF
100
AcDbVisualStyle
  2
ColorChange
 70
    16
 71
     2
 72
     2
 73
     3
 90
        0
 40
-0.6
 41
-30.0
 62
     5
 63
     8
 74
     1
 91
        4
 64
     7
 65
   257
 75
     1
175
     1
 42
1.0
 92
        8
 66
     8
 43
1.0
 76
     1
 77
     6
 78
     2
 67
     7
 79
     5
170
     0
171
     0
290
     0
174
     0
 93
        1
 44
0.0
173
     0
291
     1
 45
0.0
1001
ACAD
1000
AcDbSavedByObjectVersion
1070
     0
  0
VISUALSTYLE
  5
F8
102
{ACAD_XDICTIONARY
360
933F
102
}
102
{ACAD_REACTORS
330
EF
102
}
330
EF
100
AcDbVisualStyle
  2
Conceptual
 70
     9
 71
     3
 72
     2
 73
     1
 90
        0
 40
-0.6
 41
-30.0
 62
     5
 63
     7
 74
     2
 91
        2
 64
     7
 65
   257
 75
     1
175
     1
 42
40.0
 92
        8
 66
     7
 43
1.0
 76
     1
 77
     6
 78
     2
 67
     7
 79
     3
170
     0
171
     0
290
     0
174
     0
 93
        1
 44
0.0
173
     0
291
     0
 45
0.0
1001
ACAD
1000
AcDbSavedByObjectVersion
1070
     0
  0
VISUALSTYLE
  5
FA
102
{ACAD_XDICTIONARY
360
9343
102
}
102
{ACAD_REACTORS
330
EF
102
}
330
EF
100
AcDbVisualStyle
  2
Dim
 70
    11
 71
     2
 72
     2
 73
     1
 90
        0
 40
-0.6
 41
-30.0
 62
     5
 63
     7
 74
     1
 91
        4
 64
     7
 65
   257
 75
     1
175
     1
 42
1.0
 92
        8
 66
     7
 43
1.0
 76
     1
 77
     6
 78
     2
 67
     7
 79
     5
170
     0
171
     0
290
     0
174
     0
 93
        1
 44
-50.0
173
     0
291
     1
 45
0.0
1001
ACAD
1000
AcDbSavedByObjectVersion
1070
     0
  0
VISUALSTYLE
  5
1E6
102
{ACAD_XDICTIONARY
360
9355
102
}
102
{ACAD_REACTORS
330
EF
102
}
330
EF
100
AcDbVisualStyle
  2
EdgeColorOff
 70
    22
 71
     2
 72
     2
 73
     0
 90
        0
 40
-0.6
 41
-30.0
 62
     5
 63
     7
 74
     1
 91
        4
 64
     7
 65
   257
 75
     1
175
     1
 42
1.0
 92
        8
 66
     7
 43
1.0
 76
     1
 77
     6
 78
     2
 67
     7
 79
     5
170
     0
171
     0
290
     0
174
     0
 93
        1
 44
0.0
173
     0
291
     1
 45
0.0
1001
ACAD
1000
AcDbSavedByObjectVersion
1070
     0
  0
VISUALSTYLE
  5
FE
102
{ACAD_XDICTIONARY
360
934B
102
}
102
{ACAD_REACTORS
330
EF
102
}
330
EF
100
AcDbVisualStyle
  2
Facepattern
 70
    15
 71
     2
 72
     2
 73
     1
 90
        0
 40
-0.6
 41
-30.0
 62
     5
 63
     7
 74
     1
 91
        4
 64
     7
 65
   257
 75
     1
175
     1
 42
1.0
 92
        8
 66
     7
 43
1.0
 76
     1
 77
     6
 78
     2
 67
     7
 79
     5
170
     0
171
     0
290
     0
174
     0
 93
        1
 44
0.0
173
     0
291
     1
 45
0.0
1001
ACAD
1000
AcDbSavedByObjectVersion
1070
     0
  0
VISUALSTYLE
  5
F0
102
{ACAD_XDICTIONARY
360
932F
102
}
102
{ACAD_REACTORS
330
EF
102
}
330
EF
100
AcDbVisualStyle
  2
Flat
 70
     0
 71
     2
 72
     1
 73
     1
 90
        2
 40
-0.6
 41
30.0
 62
     5
 63
     7
 74
     0
 91
        0
 64
     7
 65
   257
 75
     1
175
     1
 42
1.0
 92
        8
 66
     7
 43
1.0
 76
     1
 77
     6
 78
     2
 67
     7
 79
     5
170
     0
171
     0
290
     0
174
     0
 93
       13
 44
0.0
173
     0
291
     1
 45
0.0
1001
ACAD
1000
AcDbSavedByObjectVersion
1070
     0
  0
VISUALSTYLE
  5
F1
102
{ACAD_XDICTIONARY
360
9331
102
}
102
{ACAD_REACTORS
330
EF
102
}
330
EF
100
AcDbVisualStyle
  2
FlatWithEdges
 70
     1
 71
     2
 72
     1
 73
     1
 90
        2
 40
-0.6
 41
30.0
 62
     5
 63
     7
 74
     1
 91
        0
 64
     7
 65
   257
 75
     1
175
     1
 42
1.0
 92
        0
 66
   257
 43
1.0
 76
     1
 77
     6
 78
     2
 67
     7
 79
     5
170
     0
171
     0
290
     0
174
     0
 93
       13
 44
0.0
173
     0
291
     1
 45
0.0
1001
ACAD
1000
AcDbSavedByObjectVersion
1070
     0
  0
VISUALSTYLE
  5
F2
102
{ACAD_XDICTIONARY
360
9333
102
}
102
{ACAD_REACTORS
330
EF
102
}
330
EF
100
AcDbVisualStyle
  2
Gouraud
 70
     2
 71
     2
 72
     2
 73
     1
 90
        2
 40
-0.6
 41
30.0
 62
     5
 63
     7
 74
     0
 91
        0
 64
     7
 65
   257
 75
     1
175
     1
 42
1.0
 92
        0
 66
     7
 43
1.0
 76
     1
 77
     6
 78
     2
 67
     7
 79
     5
170
     0
171
     0
290
     0
174
     0
 93
       13
 44
0.0
173
     0
291
     1
 45
0.0
1001
ACAD
1000
AcDbSavedByObjectVersion
1070
     0
  0
VISUALSTYLE
  5
F3
102
{ACAD_XDICTIONARY
360
9335
102
}
102
{ACAD_REACTORS
330
EF
102
}
330
EF
100
AcDbVisualStyle
  2
GouraudWithEdges
 70
     3
 71
     2
 72
     2
 73
     1
 90
        2
 40
-0.6
 41
30.0
 62
     5
 63
     7
 74
     1
 91
        0
 64
     7
 65
   257
 75
     1
175
     1
 42
1.0
 92
        0
 66
   257
 43
1.0
 76
     1
 77
     6
 78
     2
 67
     7
 79
     5
170
     0
171
     0
290
     0
174
     0
 93
       13
 44
0.0
173
     0
291
     1
 45
0.0
1001
ACAD
1000
AcDbSavedByObjectVersion
1070
     0
  0
VISUALSTYLE
  5
F7
102
{ACAD_XDICTIONARY
360
933D
102
}
102
{ACAD_REACTORS
330
EF
102
}
330
EF
100
AcDbVisualStyle
  2
Hidden
 70
     6
 71
     1
 72
     2
 73
     2
 90
        0
 40
-0.6
 41
-30.0
 62
     5
 63
     7
 74
     2
 91
        2
 64
     7
 65
   257
 75
     2
175
     1
 42
40.0
 92
        0
 66
   257
 43
1.0
 76
     1
 77
     6
 78
     2
 67
     7
 79
     3
170
     0
171
     0
290
     0
174
     0
 93
        1
 44
0.0
173
     0
291
     0
 45
0.0
1001
ACAD
1000
AcDbSavedByObjectVersion
1070
     0
  0
VISUALSTYLE
  5
1E4
102
{ACAD_XDICTIONARY
360
9351
102
}
102
{ACAD_REACTORS
330
EF
102
}
330
EF
100
AcDbVisualStyle
  2
JitterOff
 70
    20
 71
     2
 72
     2
 73
     0
 90
        0
 40
-0.6
 41
-30.0
 62
     5
 63
     7
 74
     1
 91
        4
 64
     7
 65
   257
 75
     1
175
     1
 42
1.0
 92
       10
 66
     7
 43
1.0
 76
     1
 77
     6
 78
     2
 67
     7
 79
     5
170
     0
171
     0
290
     0
174
     0
 93
        1
 44
0.0
173
     0
291
     1
 45
0.0
1001
ACAD
1000
AcDbSavedByObjectVersion
1070
     0
  0
VISUALSTYLE
  5
FD
102
{ACAD_XDICTIONARY
360
9349
102
}
102
{ACAD_REACTORS
330
EF
102
}
330
EF
100
AcDbVisualStyle
  2
Linepattern
 70
    14
 71
     2
 72
     2
 73
     1
 90
        0
 40
-0.6
 41
-30.0
 62
     5
 63
     7
 74
     1
 91
        4
 64
     7
 65
   257
 75
     7
175
     7
 42
1.0
 92
        8
 66
     7
 43
1.0
 76
     1
 77
     6
 78
     2
 67
     7
 79
     5
170
     0
171
     0
290
     0
174
     0
 93
        1
 44
0.0
173
     0
291
     1
 45
0.0
1001
ACAD
1000
AcDbSavedByObjectVersion
1070
     0
  0
VISUALSTYLE
  5
1E5
102
{ACAD_XDICTIONARY
360
9353
102
}
102
{ACAD_REACTORS
330
EF
102
}
330
EF
100
AcDbVisualStyle
  2
OverhangOff
 70
    21
 71
     2
 72
     2
 73
     0
 90
        0
 40
-0.6
 41
-30.0
 62
     5
 63
     7
 74
     1
 91
        4
 64
     7
 65
   257
 75
     1
175
     1
 42
1.0
 92
        9
 66
     7
 43
1.0
 76
     1
 77
     6
 78
     2
 67
     7
 79
     5
170
     0
171
     0
290
     0
174
     0
 93
        1
 44
0.0
173
     0
291
     1
 45
0.0
1001
ACAD
1000
AcDbSavedByObjectVersion
1070
     0
  0
VISUALSTYLE
  5
F9
102
{ACAD_XDICTIONARY
360
9341
102
}
102
{ACAD_REACTORS
330
EF
102
}
330
EF
100
AcDbVisualStyle
  2
Realistic
 70
     8
 71
     2
 72
     2
 73
     0
 90
        2
 40
-0.6
 41
30.0
 62
     5
 63
     7
 74
     0
 91
        0
 64
     7
 65
   257
 75
     1
175
     1
 42
1.0
 92
        8
 66
   257
 43
1.0
 76
     1
 77
     6
 78
     2
 67
     7
 79
     3
170
     0
171
     0
290
     0
174
     0
 93
       13
 44
0.0
173
     0
291
     0
 45
0.0
1001
ACAD
1000
AcDbSavedByObjectVersion
1070
     0
  0
VISUALSTYLE
  5
1F3
102
{ACAD_XDICTIONARY
360
935F
102
}
102
{ACAD_REACTORS
330
EF
102
}
330
EF
100
AcDbVisualStyle
  2
Shaded
 70
    27
 71
     2
 72
     2
 73
     1
 90
        2
 40
-0.6
 41
30.0
 62
     5
 63
     7
 74
     0
 91
        4
 64
     7
 65
   257
 75
     1
175
     1
 42
1.0
 92
        8
 66
   257
 43
1.0
 76
     1
 77
     6
 78
     2
 67
     8
 79
     3
170
     0
171
     0
290
     0
174
     0
 93
        5
 44
0.0
173
     0
291
     0
 45
0.0
1001
ACAD
1000
AcDbSavedByObjectVersion
1070
     0
  0
VISUALSTYLE
  5
1F2
102
{ACAD_XDICTIONARY
360
935D
102
}
102
{ACAD_REACTORS
330
EF
102
}
330
EF
100
AcDbVisualStyle
  2
Shaded with edges
 70
    26
 71
     2
 72
     2
 73
     1
 90
        2
 40
-0.6
 41
30.0
 62
     5
 63
     7
 74
     1
 91
        2
 64
     7
 65
   257
 75
     2
175
     1
 42
1.0
 92
        8
 66
   257
 43
1.0
 76
     1
 77
     6
 78
     2
 67
     7
 79
     3
170
     0
171
     0
290
     0
174
     0
 93
        5
 44
0.0
173
     0
291
     0
 45
0.0
1001
ACAD
1000
AcDbSavedByObjectVersion
1070
     0
  0
VISUALSTYLE
  5
1EF
102
{ACAD_XDICTIONARY
360
9357
102
}
102
{ACAD_REACTORS
330
EF
102
}
330
EF
100
AcDbVisualStyle
  2
Shades of Gray
 70
    23
 71
     2
 72
     2
 73
     3
 90
        0
 40
-0.6
 41
-30.0
 62
     5
 63
     7
 74
     2
 91
        2
 64
     7
 65
     7
 75
     1
175
     1
 42
40.0
 92
        8
 66
     7
 43
1.0
 76
     1
 77
     6
 78
     2
 67
     7
 79
     3
170
     0
171
     0
290
     0
174
     0
 93
        1
 44
0.0
173
     0
291
     0
 45
0.0
1001
ACAD
1000
AcDbSavedByObjectVersion
1070
     0
  0
VISUALSTYLE
  5
1F0
102
{ACAD_XDICTIONARY
360
9359
102
}
102
{ACAD_REACTORS
330
EF
102
}
330
EF
100
AcDbVisualStyle
  2
Sketchy
 70
    24
 71
     1
 72
     2
 73
     2
 90
        0
 40
-0.6
 41
-30.0
 62
     5
 63
     7
 74
     2
 91
        2
 64
     7
 65
     7
 75
     1
175
     1
 42
40.0
 92
       11
 66
     7
 43
1.0
 76
     1
 77
     6
 78
     2
 67
     7
 79
     6
170
     0
171
     0
290
     0
174
     0
 93
        1
 44
0.0
173
     0
291
     0
 45
0.0
1001
ACAD
1000
AcDbSavedByObjectVersion
1070
     0
  0
VISUALSTYLE
  5
FC
102
{ACAD_XDICTIONARY
360
9347
102
}
102
{ACAD_REACTORS
330
EF
102
}
330
EF
100
AcDbVisualStyle
  2
Thicken
 70
    13
 71
     2
 72
     2
 73
     1
 90
        0
 40
-0.6
 41
-30.0
 62
     5
 63
     7
 74
     1
 91
        4
 64
     7
 65
   257
 75
     1
175
     1
 42
1.0
 92
       12
 66
     7
 43
1.0
 76
     1
 77
     6
 78
     2
 67
     7
 79
     5
170
     0
171
     0
290
     0
174
     0
 93
        1
 44
0.0
173
     0
291
     1
 45
0.0
1001
ACAD
1000
AcDbSavedByObjectVersion
1070
     0
  0
VISUALSTYLE
  5
F6
102
{ACAD_XDICTIONARY
360
933B
102
}
102
{ACAD_REACTORS
330
EF
102
}
330
EF
100
AcDbVisualStyle
  2
Wireframe
 70
     5
 71
     0
 72
     2
 73
     0
 90
        0
 40
-0.6
 41
-30.0
 62
     5
 63
     7
 74
     1
 91
        4
 64
     7
 65
   257
 75
     1
175
     1
 42
1.0
 92
        0
 66
   257
 43
1.0
 76
     1
 77
     6
 78
     2
 67
     7
 79
     3
170
     0
171
     0
290
     0
174
     0
 93
        1
 44
0.0
173
     0
291
     0
 45
0.0
1001
ACAD
1000
AcDbSavedByObjectVersion
1070
     0
  0
VISUALSTYLE
  5
1F1
102
{ACAD_XDICTIONARY
360
935B
102
}
102
{ACAD_REACTORS
330
EF
102
}
330
EF
100
AcDbVisualStyle
  2
X-Ray
 70
    25
 71
     2
 72
     2
 73
     1
 90
        1
 40
0.5
 41
-30.0
 62
     5
 63
     7
 74
     1
 91
        0
 64
     7
 65
   257
 75
     1
175
     1
 42
1.0
 92
        8
 66
     7
 43
1.0
 76
     1
 77
     6
 78
     2
 67
     7
 79
     3
170
     0
171
     0
290
     0
174
     0
 93
       13
 44
0.0
173
     0
291
     0
 45
0.0
1001
ACAD
1000
AcDbSavedByObjectVersion
1070
     0
  0
DICTIONARYVAR
  5
146
102
{ACAD_REACTORS
330
5E
102
}
330
5E
100
DictionaryVariables
280
     0
  1
1:1
  0
DICTIONARYVAR
  5
259
102
{ACAD_REACTORS
330
5E
102
}
330
5E
100
DictionaryVariables
280
     0
  1
3.500000
  0
DICTIONARYVAR
  5
25A
102
{ACAD_REACTORS
330
5E
102
}
330
5E
100
DictionaryVariables
280
     0
  1
acadiso.lin
  0
DICTIONARYVAR
  5
145
102
{ACAD_REACTORS
330
5E
102
}
330
5E
100
DictionaryVariables
280
     0
  1
STANDARD
  0
DICTIONARYVAR
  5
84
102
{ACAD_REACTORS
330
5E
102
}
330
5E
100
DictionaryVariables
280
     0
  1
STANDARD
  0
DICTIONARYVAR
  5
227
102
{ACAD_REACTORS
330
5E
102
}
330
5E
100
DictionaryVariables
280
     0
  1
Metric50
  0
DICTIONARYVAR
  5
228
102
{ACAD_REACTORS
330
5E
102
}
330
5E
100
DictionaryVariables
280
     0
  1
Metric50
  0
DICTIONARYVAR
  5
5F
102
{ACAD_REACTORS
330
5E
102
}
330
5E
100
DictionaryVariables
280
     0
  1
2
  0
DICTIONARYVAR
  5
63
102
{ACAD_REACTORS
330
5E
102
}
330
5E
100
DictionaryVariables
280
     0
  1
1
  0
DICTIONARYVAR
  5
92D0
102
{ACAD_REACTORS
330
5E
102
}
330
5E
100
DictionaryVariables
280
     0
  1
0
  0
DICTIONARYVAR
  5
1AE
102
{ACAD_REACTORS
330
5E
102
}
330
5E
100
DictionaryVariables
280
     0
  1
0
  0
DICTIONARYVAR
  5
1AF
102
{ACAD_REACTORS
330
5E
102
}
330
5E
100
DictionaryVariables
280
     0
  1
0
  0
DICTIONARYVAR
  5
92CE
102
{ACAD_REACTORS
330
5E
102
}
330
5E
100
DictionaryVariables
280
     0
  1
2
  0
DICTIONARYVAR
  5
92CD
102
{ACAD_REACTORS
330
5E
102
}
330
5E
100
DictionaryVariables
280
     0
  1
1
  0
DICTIONARYVAR
  5
9320
102
{ACAD_REACTORS
330
5E
102
}
330
5E
100
DictionaryVariables
280
     0
  1
80.000000
  0
DICTIONARYVAR
  5
931F
102
{ACAD_REACTORS
330
5E
102
}
330
5E
100
DictionaryVariables
280
     0
  1
5.000000
  0
DICTIONARYVAR
  5
92CF
102
{ACAD_REACTORS
330
5E
102
}
330
5E
100
DictionaryVariables
280
     0
  1
127
  0
DICTIONARYVAR
  5
9321
102
{ACAD_REACTORS
330
5E
102
}
330
5E
100
DictionaryVariables
280
     0
  1
2
  0
DICTIONARY
  5
9363
330
21C
100
AcDbDictionary
280
     1
281
     1
  3
ACAD_XREC_ROUNDTRIP
360
9364
  0
DICTIONARY
  5
9328
330
D3
100
AcDbDictionary
280
     1
281
     1
  3
ACAD_XREC_ROUNDTRIP
360
9329
  0
DICTIONARY
  5
932A
330
D7
100
AcDbDictionary
280
     1
281
     1
  3
ACAD_XREC_ROUNDTRIP
360
932B
  0
DICTIONARY
  5
9325
330
22
100
AcDbDictionary
280
     1
281
     1
  3
ACAD_XREC_ROUNDTRIP
360
9326
  0
DICTIONARY
  5
1F9
330
ED
100
AcDbDictionary
280
     1
281
     1
  3
ACAD_XREC_ROUNDTRIP
360
932D
  3
FBXASSET
360
1FA
  0
DICTIONARY
  5
1F7
330
EC
100
AcDbDictionary
280
     1
281
     1
  3
ACAD_XREC_ROUNDTRIP
360
932C
  3
FBXASSET
360
1F8
  0
DICTIONARY
  5
173
330
EE
100
AcDbDictionary
280
     1
281
     1
  3
ACAD_XREC_ROUNDTRIP
360
932E
  3
BUMPTILE
360
175
  3
DIFFUSETILE
360
174
  3
FBXASSET
360
1FB
  3
OPACITYTILE
360
176
  3
REFLECTIONTILE
360
177
  0
DICTIONARY
  5
934F
330
12E
100
AcDbDictionary
280
     1
281
     1
  3
ACAD_XREC_ROUNDTRIP
360
9350
  0
DICTIONARY
  5
9361
330
21A
100
AcDbDictionary
280
     1
281
     1
  3
ACAD_XREC_ROUNDTRIP
360
9362
  0
DICTIONARY
  5
162
330
7F
100
AcDbDictionary
280
     1
281
     1
  3
ACAD_ROUNDTRIP_2008_TABLESTYLE_CELLSTYLEMAP
360
9322
  3
ACAD_XREC_ROUNDTRIP
360
9327
  0
DICTIONARY
  5
9339
330
F5
100
AcDbDictionary
280
     1
281
     1
  3
ACAD_XREC_ROUNDTRIP
360
933A
  0
DICTIONARY
  5
9337
330
F4
100
AcDbDictionary
280
     1
281
     1
  3
ACAD_XREC_ROUNDTRIP
360
9338
  0
DICTIONARY
  5
9345
330
FB
100
AcDbDictionary
280
     1
281
     1
  3
ACAD_XREC_ROUNDTRIP
360
9346
  0
DICTIONARY
  5
934D
330
FF
100
AcDbDictionary
280
     1
281
     1
  3
ACAD_XREC_ROUNDTRIP
360
934E
  0
DICTIONARY
  5
933F
330
F8
100
AcDbDictionary
280
     1
281
     1
  3
ACAD_XREC_ROUNDTRIP
360
9340
  0
DICTIONARY
  5
9343
330
FA
100
AcDbDictionary
280
     1
281
     1
  3
ACAD_XREC_ROUNDTRIP
360
9344
  0
DICTIONARY
  5
9355
330
1E6
100
AcDbDictionary
280
     1
281
     1
  3
ACAD_XREC_ROUNDTRIP
360
9356
  0
DICTIONARY
  5
934B
330
FE
100
AcDbDictionary
280
     1
281
     1
  3
ACAD_XREC_ROUNDTRIP
360
934C
  0
DICTIONARY
  5
932F
330
F0
100
AcDbDictionary
280
     1
281
     1
  3
ACAD_XREC_ROUNDTRIP
360
9330
  0
DICTIONARY
  5
9331
330
F1
100
AcDbDictionary
280
     1
281
     1
  3
ACAD_XREC_ROUNDTRIP
360
9332
  0
DICTIONARY
  5
9333
330
F2
100
AcDbDictionary
280
     1
281
     1
  3
ACAD_XREC_ROUNDTRIP
360
9334
  0
DICTIONARY
  5
9335
330
F3
100
AcDbDictionary
280
     1
281
     1
  3
ACAD_XREC_ROUNDTRIP
360
9336
  0
DICTIONARY
  5
933D
330
F7
100
AcDbDictionary
280
     1
281
     1
  3
ACAD_XREC_ROUNDTRIP
360
933E
  0
DICTIONARY
  5
9351
330
1E4
100
AcDbDictionary
280
     1
281
     1
  3
ACAD_XREC_ROUNDTRIP
360
9352
  0
DICTIONARY
  5
9349
330
FD
100
AcDbDictionary
280
     1
281
     1
  3
ACAD_XREC_ROUNDTRIP
360
934A
  0
DICTIONARY
  5
9353
330
1E5
100
AcDbDictionary
280
     1
281
     1
  3
ACAD_XREC_ROUNDTRIP
360
9354
  0
DICTIONARY
  5
9341
330
F9
100
AcDbDictionary
280
     1
281
     1
  3
ACAD_XREC_ROUNDTRIP
360
9342
  0
DICTIONARY
  5
935F
330
1F3
100
AcDbDictionary
280
     1
281
     1
  3
ACAD_XREC_ROUNDTRIP
360
9360
  0
DICTIONARY
  5
935D
330
1F2
100
AcDbDictionary
280
     1
281
     1
  3
ACAD_XREC_ROUNDTRIP
360
935E
  0
DICTIONARY
  5
9357
330
1EF
100
AcDbDictionary
280
     1
281
     1
  3
ACAD_XREC_ROUNDTRIP
360
9358
  0
DICTIONARY
  5
9359
330
1F0
100
AcDbDictionary
280
     1
281
     1
  3
ACAD_XREC_ROUNDTRIP
360
935A
  0
DICTIONARY
  5
9347
330
FC
100
AcDbDictionary
280
     1
281
     1
  3
ACAD_XREC_ROUNDTRIP
360
9348
  0
DICTIONARY
  5
933B
330
F6
100
AcDbDictionary
280
     1
281
     1
  3
ACAD_XREC_ROUNDTRIP
360
933C
  0
DICTIONARY
  5
935B
330
1F1
100
AcDbDictionary
280
     1
281
     1
  3
ACAD_XREC_ROUNDTRIP
360
935C
  0
XRECORD
  5
9364
102
{ACAD_REACTORS
330
9363
102
}
330
9363
100
AcDbXrecord
280
     1
102
DISPLAYNAME
  1
Metric50
102
FLAGS
 90
        0
  0
XRECORD
  5
9329
102
{ACAD_REACTORS
330
9328
102
}
330
9328
100
AcDbXrecord
280
     1
102
SHADEPLOT
 70
     0
102
SHADEPLOTRESLEVEL
 70
     2
102
SHADEPLOTCUSTOMDPI
 70
   300
  0
XRECORD
  5
932B
102
{ACAD_REACTORS
330
932A
102
}
330
932A
100
AcDbXrecord
280
     1
102
SHADEPLOT
 70
     0
102
SHADEPLOTRESLEVEL
 70
     2
102
SHADEPLOTCUSTOMDPI
 70
   300
  0
XRECORD
  5
9326
102
{ACAD_REACTORS
330
9325
102
}
330
9325
100
AcDbXrecord
280
     1
102
SHADEPLOT
 70
     0
102
SHADEPLOTRESLEVEL
 70
     2
102
SHADEPLOTCUSTOMDPI
 70
   300
  0
XRECORD
  5
932D
102
{ACAD_REACTORS
330
1F9
102
}
330
1F9
100
AcDbXrecord
280
     1
102
MATERIAL
148
0.0
149
0.0
149
0.0
 93
        0
 94
       63
282
     0
 72
     1
 77
     1
171
     1
175
     1
179
     1
273
     0
  0
XRECORD
  5
1FA
102
{ACAD_REACTORS
330
1F9
102
}
330
1F9
100
AcDbXrecord
280
     1
 70
     1
 90
429727718
  1
D62C5603-E3A1-4AEA-B7FB-FE5D8D0755AF
310
504B03040A0000080000CC70623B3DEE336E79000000790000001B0000006175746F6465736B2D64657369676E2D7061636B6167652E786D6C3C3F786D6C2076657273696F6E3D22312E302220656E636F64696E673D227574662D3822203F3E3C666F726D6174733E3C666F726D61743E687474703A2F2F736368656D612E
310
6175746F6465736B2E636F6D2F64657369676E2D7061636B6167652F323030393C2F666F726D61743E3C2F666F726D6174733E504B0304140006080800CC70623BD486FD9CA0000000F4000000130000005B436F6E74656E745F54797065735D2E786D6C7D8EC10E82300C865F65E91D8A1E8C310C0EEA1BF002731658846E
310
D98AC1B77784ABF1D8FE5FBFBF75BBCE937A534CCEB38643598122B6FEE978D0B0485F9C41B54DDD7D022595594E1A469170414C76A4D9A4D207E29CF43ECE46F218070CC6BECC4078ACAA135ACF422C856C0E68EA1BF5669944DDD7BCDE7B1F8E415D77AECB980613C2E4AC91FC167A2B244592486606FC29C8FD7F045B9A
310
EF7053A7E60B504B0304140006080800CC70623B853B8169EB0000007C01000008000000636F72652E786D6C8D90416EC3201045AF62CDB6C206821CC7C244919D9CA01740401C94182C03558F5F9C3852BBEB6A467FFE9B197D7EFC9E1EC5975982F5AE035262288C535E5B377690E21535501C055FBC8FBF6C503839990E
310
5619041F179FE64D52DE45E362569DD7661365082642A11EB9E920A89B99642953CC8E702F67A9EE7234257977194EC9EAE275C4EABCCF5EAD5940D4AC6F0E35A568B8F43562CD7046CD199FD07E60174276A7BE677B5EADB0E0D14EEFFB6A31321A0D82627C4084204C3F096B71DD52F6819B16635EADF63F509AF53FA164
310
5DDCD1EDDD17164090FCC8732078B56691CB33A85CD7DCC40F504B0304140006080800CC70623B55019EA25F0000007C00000007000000636E782E786D6C4DCB3B0E80201045D1AD90E915ED2CF8AC45050C11660C8261F98AB1B07AC9C97D42D718D865D3E909258CFD00CCE24AC6E326A164D74DC0B4128928FF32603847
310
2BA13128B1252AC747C6BAB984FC68F0B87FE8960A5C09FE86CFB69FBA01504B0304140006080800CC70623BDBABAAF470010000D40300000C0000006662782F636F72652E786D6CC553D16E823014FD95A6AF4B694182CC941A83FA05FB810A9511A125A5257EFE2E82712ECEB8A7F100CD39F7F69E734AF9FADC366850B6
310
AF8DCE7018308C942E4C59EB2AC3DE1D498AD15A706B8CFB56869196ADCAF00863C12B6B7C374385D14E6907A836A59A41D9F7CA615434B0C8705F7CAA5606D23BA8E84F41278B93AC54100640439DE0BDB320004D43C63716C7C399D30917DCFBBA9CD9BA8469F5B156168B24CED3F7248AC8769F27244EB73B92EED8862C
310
B7F13E0C179B3C8F979C8ECD82BBBABDAA2BAC924E9558448CBD9330242CFA08E3154B5651FCC6D215639C8EE5774DBE2B5F6CF2B5768B68963BB5F5588420E442FC700B1139D4CB01F450C1E918227C2E09DF070D8140C84E1E9AAB8F1340832A9CB13130A5F1376A908D57309505ECF2A0DF179C4E9D30F5B239B87E3823
310
7A79C6F31DE1A8A5AEC08474B03C7837EAE4938639B44E5932B833D2C6B6B279CDC613877FA26EE21F4A2A4C63EC7F29A2F301D1F9F7A0E37D145F504B0304140006080800CC70623B9C113CC27E0000009D0000000B0000006662782F636E782E786D6C4DCCDF0A83201C86E15B91DFB94BFB330DD428C8FB886521330DA7
310
6397BF1A1DECE883878F57749FCDA1B7892F1BBC047A23808C7F84D9FA55424E0BE6803A256208E9EF06C84F9B91703228B1C690F78B66B34CD9A5439DF5CF0BFBF65E35BCA1B8D6A5C6F540381E886698B5741C695F9503EBA150A2F8958E3DC3EA0B504B0304140006080800CC70623B7DF2F77C2A010000120200003100
310
00006662782F41393633353835312D344632462D344230382D423046372D3739314545314133324237412F636F72652E786D6C8D51DB8EC22014FC15C2939B0D2DB4B45643319AE817EC0F6041255A68B86CFCFC856D4D76DF7CE190393373060EDB3DC707F856CE6B6B7A480A0C81328395DA5C7B18C3057510EC3873D686
310
3F34088C18550F330C39BB3A1BA7051AAC09CA84841A2BD5020AEF55806078A44B0FFD7053A328440C89E1EFC52486BBB8AA8214A99D789CF9E05200300FC927E4FB4D5B375D43103D5527440FB843077C5AA3F5861C8F645F5787F59E95B390B318B55CE45AA638FAA2957BD7248B390B7A7CC51F9C124149C82B8C378810
310
84AB2F42B7B8DD56F413775B8C5999E9FF4471926F8AA236A1AE96B8B3CC434E5839373893369E1FAF30EA395917409EB7F26AF8801C171837A4A6AC9C89E9F9C9B1A58BA30FD6A5EF5DDDCF894B9AD9B6A59C957943A9FCAE2FD5BC4DFE03504B0304140006080800CC70623BAD7543B64E01000033030000300000006662
310
782F41393633353835312D344632462D344230382D423046372D3739314545314133324237412F636E782E786D6CD593CD6EC32010845F0571AD6CE3D48AD20813A9873E410FBD12D82434182C7EAAE6EDBB2424CD25871E7B41D6EC30B3FA84F9E67BB2E40B4234DE8DB46F1925E094D7C6ED479AD3AE5951B2113C789FEE
310
6C943839C1488B4C05DF079FE72A69D8C96C13AAD6B8631503449F83828872B949AC57D26200B826A308D316B4064D6E46FCDA41C05550DC9E483A00797BFD207EFB092A45DE9514C1BBD22178396BD39D891265658C238DEA00936C654E5E433CB65A26D9F6EDB5EBC14EBF49A45CB856E66048291F6939A9A81BB5C89177
310
38143CA680F4AA299D66A042CEB3354A2684DC9D8D178FE0D9B8B41CAAD720F880EE7EF93C0C18769E099ECC04D5A102C8049A8A05632F4DDF376CF1DE0F6BB65C2F8627B65A33C6BB62177CEBBDAD973006829F89F22E814B54F4BC2BE347F8AA8F681390B50FA73F804400B5F542E796F19FF974E7F78DB802FE05E20750
310
4B0304140006080800CC70623BE75B7789680500003C100000340000006662782F41393633353835312D344632462D344230382D423046372D3739314545314133324237412F6F626A656374732E786D6CAD575B8F9B3818FD2B887D06C22499CB8AA1CA655245D5B455A356FB305264C061D8018C6C3393D95FBFC7600890
310
A4CD5EF210B0B1BFEBF98E3F7B1FF6596ABC522E1296DF9BAE3D320D9A872C4AF2F8DE2CE5CEBA358D0FBEC719939D65A691938CDE9B6ADAF4BD98B3B2D05311DD91329583D9D5FC0F438434A7A611A644887B5384CF34233629258BA878B12322891DEFF6B66BD70BFB62634E8AE781D082709A4B588AF91C528CDA28B73F
310
1C998EEF39EABBEFA97FBD6A7C7E9553F9D3D79FE442923C3C523610337627CB87ABE99D359D4CC6D6E4FACAB5E6ABF9D2726FC6A3C5F56271377BB88362213924694B38DD99FE47C48627A1E7D49F5A8BB5E1A74C0A599ED3B0F21F1E56366B89112D681E218F0915D0D6F17AD41FBA2A369DCF6335D62ABBD39779D5DDD1
310
11D4D8DE3CBB96B2E04FB8202E41051754A1AA8E8F76B4C6DFE810B580B1547F4B84911149794252234D024EF8BBE963A95AE27B3D310A9D5C215C7960FAEE415ED75694C6AFB17BCACA5D99A60A9AA65F217B0BFC53292ACB92BF283FAD0D3621576592CB5BED907C2FA8E9DF794E35E97BEA31BED21FEB401ABB94C44839
310
DCACBF0E1C5DA8DA5B2F4DFFD32AD86F543D9E565E7056502E157C00AD2671CD534549AB752FCA9CDA00677A313F04E51B22FF19E57B300579E3C97EB29F682D92935CEC18CF901B7B54FD8C51F362B56FC72FE0B3C1EAE335EDCCBF5AEC39ADB17DC238973F804BA5E6F6BFE7AF1FB32E523BE9F3BD571418E3631DCA4D48
310
5250CF639223210A9446CA30052EDF057BD35F8329C1ECD84552BF0DC8D18BE7BCE23BFE6BD960AB4A7DE79923A103BEBD80F911CBAA2C60DB19B01CF164A5583B772EE6D3FFA56666CBCDA74DC97724A48F9A58967497E489C4D979006FD7A05E227A1EBDD0F737C623387A9C844D3709995625106D157315F8B8392CD4E0
310
A0B9A720C4BE9829CEF37EA1E13111214D53925356365ADA634861B52519DD27A00AEB808EAF0628E6F435519D446F45CF2C9CF5214F0A15B2F6D06B79DA3EE3CBF7F56780D2F4E7EF73A0F5E5B02A38D07DC852C6B7C1FBB6664213E0C39E3EBA7FF4E1AD23EA2829407C85E586727488B751B2DB9502BC7B228A3FD68B6E
310
A65A22397E690AA8D158D7E404EC8CDA235CC3B7D1898680131CEC2CDF2638C65196279577750F15884AEE19F94199155B92B13297978469D4F8D358DF0AEF7631E28DC8F0D9F437D5D39A83B2231A1D52D543813A824EF8D44BCFF2FA6A31BD1E8DAD87F1CCB526B3879935BF59CDADD5C37479BB1CDD4CA7B3556B516589
310
EF352754B706114D9C885EC9131DE6EFEB43D99AFE2391C2F958179413D7CFEF6B1B6DB1E7600F00DE6E5C67454A339A4BA2E0FBA85ED26F045D454F463DBFCE484C2F90F2E5E3666003662ED8F755951A7D1BECD5B30B550B2785C8E7320B7292A4838DDA71BBC863ED7613CAF659337A3354231D4FF4A182A54904C2898C
310
98B28C4AD0CE056CCF332A80986E571EE9DBC305BB5FEB7E509220A58D25CF042D712A806AC0AD0C657FDEF80D2D9CEAA2EE4D1C76F60BFE74219A06527D6F82DF6412526107381E55E353090704D085B52408A8913C4ED159D79BDA71BB4BC506F4831350EB6F975CD22D69BF7AC49B91A2C0A9DDA3D5CA36AD20FC478E37
310
E61844E2352865EBCB61A275A65283CAAA9DD27703B4102F5AF51EF5F573B75CBB5AD38BC845F7A49F82A0966A49C2E3EA5EA0ECD326CD965F1DB402C6FA8B51A4658C5C5E2EC9E214602E55810345408596591009A82E7E7FFACA19EEA299B14A0081A705CB3296EBC14CDF658DCD336EA6D1136881AAEB87B81AB9EE53D5
310
F5EB8BC8362082DA24122F98680A4E7930C01A0079749CEA14382A0783E5EBA5A10F8C098456A03D6A4AEB6BB881E2513747552A5DB22C7EDAF83BD5528081A365F7FF06504B0304140006080000CC70623B000000000000000000000000350000006662782F41393633353835312D344632462D344230382D423046372D37
310
39314545314133324237412F76657274696365732E62696E504B0304140006080800CC70623BF270F1330600000004000000360000006662782F41393633353835312D344632462D344230382D423046372D3739314545314133324237412F747269616E676C65732E62696E636660600000504B0304140006080000CC7062
310
3B000000000000000000000000370000006662782F41393633353835312D344632462D344230382D423046372D3739314545314133324237412F617474726962757465732E62696E504B0304140006080800CC70623B08DA0BD19000000041010000360000006662782F41393633353835312D344632462D344230382D4230
310
46372D3739314545314133324237412F6469726563746F72792E786D6C858F410AC3201045AF22B36F53E9A60B35CBEEBAE80D244E44489C6234F4F835464A48035D0DF398FF9F8AF63D0E6CC63039F212F8F9020C7D47C6792B21C5FE7403D62A1188E2E60C98D7234A5830286103A55745067B9D86B8A3CF9C7F90C11DE6
310
07FB144396D7B6A82D282E9A152AD114D5EF2CB866EEE831B8EEA07A7BB5A8D7D61A2BAAEB7FD5F70921FF497D00504B0304140006080800CC70623BEDD1DC58FD000000A00100003B0000006662782F41393633353835312D344632462D344230382D423046372D3739314545314133324237412F7265736F75726365732F
310
636F72652E786D6C8D504B6E833010BD0A9A6D65B00922041947112427E8052C33A156828DFCA97AFC9A40A576D7CDCCE87D344F8F9FBFE667F689CE6B6B3A6039850C8DB2A336530731DC4903D95970676DF82583CCC8193B5861107C72362E3BA4AC096842428D1D7107A5F7182053CF7474E0D507CE32973124857FE48B
310
540F3961CEF244279DE03EB81420DB9EAC1384436FA353E879B1B182C7A8C75DA3C7F453DF353A1075D537A7BA6464B8F535A99AE14A9A2BBD90E350DD183B5CFABE3AF262350B1EF4FC9351399401471025A527C218A1E53BAB5A5AB765F5469B96525EACF23FA6B88CFF34456DC2A1DCE36E360F82A5202F42F062ED2BAD
310
579969AFDD8A6F504B010214000A0000080000CC70623B3DEE336E79000000790000001B00000000000000000000000000000000006175746F6465736B2D64657369676E2D7061636B6167652E786D6C504B01021400140006080800CC70623BD486FD9CA0000000F40000001300000000000000000000000000B20000005B
310
436F6E74656E745F54797065735D2E786D6C504B01021400140006080800CC70623B853B8169EB0000007C010000080000000000000000000000000083010000636F72652E786D6C504B01021400140006080800CC70623B55019EA25F0000007C000000070000000000000000000000000094020000636E782E786D6C504B
310
01021400140006080800CC70623BDBABAAF470010000D40300000C00000000000000000000000000180300006662782F636F72652E786D6C504B01021400140006080800CC70623B9C113CC27E0000009D0000000B00000000000000000000000000B20400006662782F636E782E786D6C504B01021400140006080800CC70
310
623B7DF2F77C2A010000120200003100000000000000000000000000590500006662782F41393633353835312D344632462D344230382D423046372D3739314545314133324237412F636F72652E786D6C504B01021400140006080800CC70623BAD7543B64E010000330300003000000000000000000000000000D2060000
310
6662782F41393633353835312D344632462D344230382D423046372D3739314545314133324237412F636E782E786D6C504B01021400140006080800CC70623BE75B7789680500003C10000034000000000000000000000000006E0800006662782F41393633353835312D344632462D344230382D423046372D3739314545
310
314133324237412F6F626A656374732E786D6C504B01021400140006080000CC70623B0000000000000000000000003500000000000000000000000000280E00006662782F41393633353835312D344632462D344230382D423046372D3739314545314133324237412F76657274696365732E62696E504B01021400140006
310
080800CC70623BF270F133060000000400000036000000000000000000000000007B0E00006662782F41393633353835312D344632462D344230382D423046372D3739314545314133324237412F747269616E676C65732E62696E504B01021400140006080000CC70623B0000000000000000000000003700000000000000
310
000000000000D50E00006662782F41393633353835312D344632462D344230382D423046372D3739314545314133324237412F617474726962757465732E62696E504B01021400140006080800CC70623B08DA0BD1900000004101000036000000000000000000000000002A0F00006662782F41393633353835312D344632
310
462D344230382D423046372D3739314545314133324237412F6469726563746F72792E786D6C504B01021400140006080800CC70623BEDD1DC58FD000000A00100003B000000000000000000000000000E1000006662782F41393633353835312D344632462D344230382D423046372D3739314545314133324237412F7265
310
736F75726365732F636F72652E786D6C504B0506000000000E000E0080040000641100000000
  0
XRECORD
  5
932C
102
{ACAD_REACTORS
330
1F7
102
}
330
1F7
100
AcDbXrecord
280
     1
102
MATERIAL
148
0.0
149
0.0
149
0.0
 93
        0
 94
       63
282
     0
 72
     1
 77
     1
171
     1
175
     1
179
     1
273
     0
  0
XRECORD
  5
1F8
102
{ACAD_REACTORS
330
1F7
102
}
330
1F7
100
AcDbXrecord
280
     1
 70
     1
 90
429727718
  1
30362254-06B7-45E0-A893-8CFA70E3D6BC
310
504B03040A0000080000CC70623B3DEE336E79000000790000001B0000006175746F6465736B2D64657369676E2D7061636B6167652E786D6C3C3F786D6C2076657273696F6E3D22312E302220656E636F64696E673D227574662D3822203F3E3C666F726D6174733E3C666F726D61743E687474703A2F2F736368656D612E
310
6175746F6465736B2E636F6D2F64657369676E2D7061636B6167652F323030393C2F666F726D61743E3C2F666F726D6174733E504B0304140006080800CC70623BD486FD9CA0000000F4000000130000005B436F6E74656E745F54797065735D2E786D6C7D8EC10E82300C865F65E91D8A1E8C310C0EEA1BF002731658846E
310
D98AC1B77784ABF1D8FE5FBFBF75BBCE937A534CCEB38643598122B6FEE978D0B0485F9C41B54DDD7D022595594E1A469170414C76A4D9A4D207E29CF43ECE46F218070CC6BECC4078ACAA135ACF422C856C0E68EA1BF5669944DDD7BCDE7B1F8E415D77AECB980613C2E4AC91FC167A2B244592486606FC29C8FD7F045B9A
310
EF7053A7E60B504B0304140006080800CC70623B1EC5D7A3EB0000007C01000008000000636F72652E786D6C8D90416EC3201045AF82665B6103C6756C6122AB4D4ED00B204C5C94182C03558F5F9C3852BBEB6A467FFE9B197D71FC9E6FE8CBACC17AD7032D0820E3B41FAD9B7A48F1820F808E52ACDEC75F36404ECDA687
310
4D0629A6D5A76597B477D1B89855E747B38B2A041301E95B6E7A08FAD3CCAA50296647B8168BD2573599823EBB0CA76447F43862C7BCCF5EAC59410E4DDD9C7973C2755553CCCFA4C603E3040F1565ED3B1FDE4E432BCA0D9622DAF9795FAF464533826484B498524CD807E51D79ED187F21878E10516EF63F505AC67F42C9
310
BA58B1FDDD071640D2FCC87D2045B96591CB3DA85CB7DCE40F504B0304140006080800CC70623B55019EA25F0000007C00000007000000636E782E786D6C4DCB3B0E80201045D1AD90E915ED2CF8AC45050C11660C8261F98AB1B07AC9C97D42D718D865D3E909258CFD00CCE24AC6E326A164D74DC0B4128928FF32603847
310
2BA13128B1252AC747C6BAB984FC68F0B87FE8960A5C09FE86CFB69FBA01504B0304140006080800CC70623B8C9102E971010000D40300000C0000006662782F636F72652E786D6CC5535B6E833010BC8AE5DF0A6C08340F1947A84D4ED00B38C6A128602363A31CBFCB234A53A551FA553EC09AD9F5CE8C31DB9E9B1AF5CA
310
7695D1198E428A91D2D214952E33ECDD315861B4E5CC1AE3BE9561A445A3323CC098B3D21ADFCE9034DA29ED00D5A6503328BA4E398C640D8B0C77F253352214DE4145770A5B214FA2546114020D759C75CE8200340D19DE981F0F6746269C33EFAB6266AB02A655C74A59CCF365BADC27CB5D902ED22848F6340DF238A141
310
BE88E2F57B92BFEDF23523433367AE6A2EEAA455C2A902F398D2751045018D3FA264435F3771F242571B4A1919CA6F9A7C5B3CD9E42BED16F12C776AEB308F40C848FC700B1139D4891EF410CEC810227CC6846F8386402064270EF5C5C709A05E49676C024C61FC95EA45ED154CA5211D1FF4FB8291A913A68E9B83EBBB33
310
E2A7673CDE118E5AE8124C0807CB8377834E366998436B950D7A7746DAD846D4CFD978E0F04FD455FC5D49D2D4C6FE9722321F10997F0F32DC47FE05504B0304140006080800CC70623BFFEA85907E0000009D0000000B0000006662782F636E782E786D6C4DCCD10A83201886E15B91FFDC95D95A811AB6F23E625948A6C3
310
E9D8E5AF46073BFAE0E1E365ED67B3E8ADC3CB78C7815C7240DA3DFC64DCC221C519D7805AC182F7F1EF06C88D9BE6703008B6049F9E274D7A1E938DBB5AE3D6131B2589BA0D3D965551E0B2EA732C9B9A624AAEB41E3A557677029960D9AFB4EF11165F504B0304140006080800CC70623B4FEEA4082C0100001202000031
310
0000006662782F39464131463745442D413632322D343644302D413938332D3331353338454246344243312F636F72652E786D6C8D515B6EC32010BC0AE2AB55850DD871ED0813254D72825EC00192A2C460F1A872FC42ED48ED5F7E00CDCECCCEB26C731F6FE05B39AFADE921293004CA082BB5B9F43086336A21D870E6AC
310
0D7F68109861543DCC30E4ECE26C9C164858139409093556AA051CBC570102714B8F1E7AF1A5C6A11862480C7F2DA6415C878B2A4891CA89C7990F2E050073937C42DE1DB7E4F87ED8A36D4329AA9B3D46DBAEAD504556557BD81DEBDD0761E52CE42C462D17B996298E3E6BE59E35C962CE821E1FF18553435012728A7187
310
0841987E927A8D9B35ADDF70BBC6989599FE4F1427F9A4286A132ABAC49D651EF234CD5CE04CDA78BA3DC2A8FB645D00B9DF8B57E215725C60BCA2A463E54C4CE327C7A65E1C7DB02E7DEFCBF594B864C5CA6CDBD49C957943E9FA5D5FBAF336F90F504B0304140006080800CC70623BAD7543B64E01000033030000300000
310
006662782F39464131463745442D413632322D343644302D413938332D3331353338454246344243312F636E782E786D6CD593CD6EC32010845F0571AD6CE3D48AD20813A9873E410FBD12D82434182C7EAAE6EDBB2424CD25871E7B41D6EC30B3FA84F9E67BB2E40B4234DE8DB46F1925E094D7C6ED479AD3AE5951B2113C
310
789FEE6C943839C1488B4C05DF079FE72A69D8C96C13AAD6B8631503449F83828872B949AC57D26200B826A308D316B4064D6E46FCDA41C05550DC9E483A00797BFD207EFB092A45DE9514C1BBD22178396BD39D891265658C238DEA00936C654E5E433CB65A26D9F6EDB5EBC14EBF49A45CB856E66048291F6939A9A81BB5
310
C8917738143CA680F4AA299D66A042CEB3354A2684DC9D8D178FE0D9B8B41CAAD720F880EE7EF93C0C18769E099ECC04D5A102C8049A8A05632F4DDF376CF1DE0F6BB65C2F8627B65A33C6BB62177CEBBDAD973006829F89F22E814B54F4BC2BE347F8AA8F681390B50FA73F804400B5F542E796F19FF974E7F78DB802FE05
310
E207504B0304140006080800CC70623B16AB87BA640500003C100000340000006662782F39464131463745442D413632322D343644302D413938332D3331353338454246344243312F6F626A656374732E786D6CAD575B6FA33818FD2B887DE6924B3BED8A326A92B68A663B534DD4D13E548A0C38942D60649B369D5FBFC7
310
600890A493BDE42160637FD7F31D7FF63E6FB3D478A55C242CBF3247B66B1A340F5994E4F19559CA8D75611A9F7D8F33263BCB4C232719BD32D5B4E97B316765A1A722BA21652A07B3B7B33F0D11D29C9A46981221AE4C113ED38CD8A4942CA2E2C58E882476BCD9DA23BB5ED8171B73523C0F841684D35CC252CCE79062D4
310
468DFA43D7747CCF51DF7D4FFDEB5593E3AB9CCA9FBEFE241792E4E19EB28198C968BAB8199F5D5A67D3E9C49A9E8F47D6EC76B6B0469F26EEFC7C3EBFBCBEB98462213924694B38DD98FE1D62C393D073EA4FADC5DAF04326852CCF6958F90F0F2B9BB5C48816348F90C7840A68EB78EDF68723159BCEE7891A6B95DDE9D3
310
BCEAEEE8086A6C6F9E5D4B59F0175C10A7A0820BAA5055C7473B5AE3CFDD452D602CD5DF12616444529E90D448938013FE6EFA58AA96F85E4F8C42275708571E98FE6827AF6B2B4AE3D7D83D64E5A64C53054DD3AF90BD06FEA9149565C94FCA0F6B834DC85599E4F2423B24DF0B6AFA979E534DFA9E7A4CC6FA631D486393
310
921829879BF5D781A373557BCB85E97FB90DB62B558F8795179C15944B051F40AB495CF35451D26A4727654E6D8033BD98EF82F21D91FF8AF2DD9982BCF1643BDD4EB516C9492E368C67C88DED563FC36D5EACF66DFF057C3658BDBFA69DF9578B3DA735B64F18C7F20770A9D45CFCF7FCF563D6456A277DBEF78A02637CA2
310
43B90A490AEAB94F72244481D24819A6C0E59B606BFA4B3025981DBB48EAB701D97BF19C577CC77F2D1B6C55A9EF3C732474C0B727303F625995056C3B02963D9EAC146BE78EC5FCEC7FA999EBC5EACBAAE41B12D27B4D2C0BBA49F244E2ECDC81B76B502F113D8F5EE8FB1BE3111CDD4FC2AA9B844CAB1288B68AB90A7CDC
310
1C166AB0D3DC5310625FCC14E779BFD0709F8890A629C9292B1B2DED31A4B0DA928CEE135085754027E3018A397D4D5427D15BD1330B677DC8934285AC3DF45A9EB68FF8F2B8FC0A509AFEECFD0FF2DE25CC6047F7214B195F07EFEB9A094D800F7BFAE8FED187B78EA8A3A400F115961BCAD1215E47C966530AF0EE8128FE
310
58CEBB996A8964FFA529A046635D9353B0336A8F700DDF46271A024E70B0B37C9DE01847591E54DED53D54202AB947E4076556AC49C6CA5C9E1226B7F1A7B1BE15DEED62C41B91E1B3E9AFAAA735036547343A925075041DF0A9979E893B391F8FCFA6967B3EFB644DCF6E5CEBFAE272625DCC6FAF3FB93793C5F90CE1EF57
310
407342756B10D1C489E8953CD1617E5CEECAD6F4EF8914CE5D5D504E5C3F1F9736DA62CFC11E00BCDDB8CC8A9466349744C1F75EBDA4DF09BA8A9E8C7A7E9991989E20E5DBDD6A6003664ED8F7A04A8DBE0DF6EAD9B9AA858342E47399053949D2C146EDB85DE4B176BB0965FBAC19BD19AA918E27FA50C1D22402E144464C
310
59462568E704B6E71915404CB72B8FF4EDE184DDAF753F284990D2C6926782963815403548A70C657FDEF80D2D9CEAA2AE4C1C76F60BFE74219A06527D6582DF6412526107381E55E353090704D085B52408D0933C4ED159D79BDA71BB4BC506F4831350EB6F979CD22D69BF7AC49B91A2C0A9DDA3D5CA36AD20FC478E37E6
310
1844E2352865EBCB6EA275A652E3836BE04EFB400BF1A2556F515F1FBB35B2AB35BD889C744FFA1004B5544B121E57F70215746DD2F5E2C1412B602CBF19455AC6C8E5E9922C4E01E65215385004546899059180EAFCF7A707CE7017CD8CDB0410789AB32C63B91E5CEBBBACB17AC6CD347A022D5075FD106377347AAABA7E
310
7D11590744509B44E205134DC1290F06580320F78E537D3D73540E06CB970B431F185308AD40BBD794D6D77003C5A36E8EAA54BA64597CD8F83BD552A080A365F7FF06504B0304140006080000CC70623B000000000000000000000000350000006662782F39464131463745442D413632322D343644302D413938332D3331
310
353338454246344243312F76657274696365732E62696E504B0304140006080800CC70623BF270F1330600000004000000360000006662782F39464131463745442D413632322D343644302D413938332D3331353338454246344243312F747269616E676C65732E62696E636660600000504B0304140006080000CC70623B
310
000000000000000000000000370000006662782F39464131463745442D413632322D343644302D413938332D3331353338454246344243312F617474726962757465732E62696E504B0304140006080800CC70623B08DA0BD19000000041010000360000006662782F39464131463745442D413632322D343644302D413938
310
332D3331353338454246344243312F6469726563746F72792E786D6C858F410AC3201045AF22B36F53E9A60B35CBEEBAE80D244E44489C6234F4F835464A48035D0DF398FF9F8AF63D0E6CC63039F212F8F9020C7D47C6792B21C5FE7403D62A1188E2E60C98D7234A5830286103A55745067B9D86B8A3CF9C7F90C11DE607
310
FB144396D7B6A82D282E9A152AD114D5EF2CB866EEE831B8EEA07A7BB5A8D7D61A2BAAEB7FD5F70921FF497D00504B0304140006080800CC70623B0D6EF93BFE000000A00100003B0000006662782F39464131463745442D413632322D343644302D413938332D3331353338454246344243312F7265736F75726365732F63
310
6F72652E786D6C8D50596E833010BD0A9ADFCA60B334011947A8694ED00B586642AC041B79A97AFC9A40A5F6AF3F33A3B7689E1E3F7DCD8FEC139DD7D6F4C0720A191A65476DA61E62B892236427C19DB5E1970C322367EC618541F0C9D9B8EC90B226A009093576C41D94DE63804C3DD2D18357379C652E63480A7FCF17A9
310
EE72C29CE5894E3AC17D702940B63D59270887DE46A7D0F36263058F518FBB468FE9A7BE6A7420864373B8D4873369AA8691FA421B3294352543C5CAF65C0F6FEF43CB8BD52C78D0F34F46E550061C419494B6843142CB0F5677F4B52BEB177AEC28E5C52AFF638ACBF84F53D42654E51E77B379102C05791282176B5F693D
310
CB4C7BED567C03504B010214000A0000080000CC70623B3DEE336E79000000790000001B00000000000000000000000000000000006175746F6465736B2D64657369676E2D7061636B6167652E786D6C504B01021400140006080800CC70623BD486FD9CA0000000F40000001300000000000000000000000000B20000005B
310
436F6E74656E745F54797065735D2E786D6C504B01021400140006080800CC70623B1EC5D7A3EB0000007C010000080000000000000000000000000083010000636F72652E786D6C504B01021400140006080800CC70623B55019EA25F0000007C000000070000000000000000000000000094020000636E782E786D6C504B
310
01021400140006080800CC70623B8C9102E971010000D40300000C00000000000000000000000000180300006662782F636F72652E786D6C504B01021400140006080800CC70623BFFEA85907E0000009D0000000B00000000000000000000000000B30400006662782F636E782E786D6C504B01021400140006080800CC70
310
623B4FEEA4082C0100001202000031000000000000000000000000005A0500006662782F39464131463745442D413632322D343644302D413938332D3331353338454246344243312F636F72652E786D6C504B01021400140006080800CC70623BAD7543B64E010000330300003000000000000000000000000000D5060000
310
6662782F39464131463745442D413632322D343644302D413938332D3331353338454246344243312F636E782E786D6C504B01021400140006080800CC70623B16AB87BA640500003C1000003400000000000000000000000000710800006662782F39464131463745442D413632322D343644302D413938332D3331353338
310
454246344243312F6F626A656374732E786D6C504B01021400140006080000CC70623B0000000000000000000000003500000000000000000000000000270E00006662782F39464131463745442D413632322D343644302D413938332D3331353338454246344243312F76657274696365732E62696E504B01021400140006
310
080800CC70623BF270F133060000000400000036000000000000000000000000007A0E00006662782F39464131463745442D413632322D343644302D413938332D3331353338454246344243312F747269616E676C65732E62696E504B01021400140006080000CC70623B0000000000000000000000003700000000000000
310
000000000000D40E00006662782F39464131463745442D413632322D343644302D413938332D3331353338454246344243312F617474726962757465732E62696E504B01021400140006080800CC70623B08DA0BD190000000410100003600000000000000000000000000290F00006662782F39464131463745442D413632
310
322D343644302D413938332D3331353338454246344243312F6469726563746F72792E786D6C504B01021400140006080800CC70623B0D6EF93BFE000000A00100003B000000000000000000000000000D1000006662782F39464131463745442D413632322D343644302D413938332D3331353338454246344243312F7265
310
736F75726365732F636F72652E786D6C504B0506000000000E000E0080040000641100000000
  0
XRECORD
  5
932E
102
{ACAD_REACTORS
330
173
102
}
330
173
100
AcDbXrecord
280
     1
102
MATERIAL
148
0.0
149
0.0
149
0.0
 93
        0
 94
       63
282
     0
 72
     1
 77
     1
171
     1
175
     1
179
     1
273
     0
  0
XRECORD
  5
175
102
{ACAD_REACTORS
330
173
102
}
330
173
100
AcDbXrecord
280
     1
270
     1
271
     1
  0
XRECORD
  5
174
102
{ACAD_REACTORS
330
173
102
}
330
173
100
AcDbXrecord
280
     1
270
     1
271
     1
  0
XRECORD
  5
1FB
102
{ACAD_REACTORS
330
173
102
}
330
173
100
AcDbXrecord
280
     1
 70
     0
 90
1673772943
  1
ECE7A1D2-D628-4531-984C-D00F80459256
310
504B03040A0000080000CC70623B3DEE336E79000000790000001B0000006175746F6465736B2D64657369676E2D7061636B6167652E786D6C3C3F786D6C2076657273696F6E3D22312E302220656E636F64696E673D227574662D3822203F3E3C666F726D6174733E3C666F726D61743E687474703A2F2F736368656D612E
310
6175746F6465736B2E636F6D2F64657369676E2D7061636B6167652F323030393C2F666F726D61743E3C2F666F726D6174733E504B0304140006080800CC70623BD486FD9CA0000000F4000000130000005B436F6E74656E745F54797065735D2E786D6C7D8EC10E82300C865F65E91D8A1E8C310C0EEA1BF002731658846E
310
D98AC1B77784ABF1D8FE5FBFBF75BBCE937A534CCEB38643598122B6FEE978D0B0485F9C41B54DDD7D022595594E1A469170414C76A4D9A4D207E29CF43ECE46F218070CC6BECC4078ACAA135ACF422C856C0E68EA1BF5669944DDD7BCDE7B1F8E415D77AECB980613C2E4AC91FC167A2B244592486606FC29C8FD7F045B9A
310
EF7053A7E60B504B0304140006080800CC70623BD9DDAED0EC0000007C01000008000000636F72652E786D6C8D90416EC3201045AF82665B61836D9CD8C2444DD39CA01740405C94182C03558F5F9C3852BBEB6A467FFE9B197D7EF89E6EE8CB2CC17A37002D0820E394D7D68D03A478C17B4007C117EFE32F1B20272733C0
310
2A83E0E3E2D3BC49CABB685CCCAAF3DA6CA20CC14440EA969B0182FA34932C648AD911AEC52CD5558EA6A0CF2EC329598D1E47ACCEFBECC59A050463A7EA5833865FEBDD0E37353BE3EE8DBDE3F6786A48D375FBF6CC78B9C282473B3DEFABC5C86834888A900E538A49F5419B9EB47DD5BC907D4F082F57FB1F28CDFA9F50
310
B22ED6D5F6EE030B20687EE43E10BC5CB3C8E51E54AE6B6EE207504B0304140006080800CC70623B55019EA25F0000007C00000007000000636E782E786D6C4DCB3B0E80201045D1AD90E915ED2CF8AC45050C11660C8261F98AB1B07AC9C97D42D718D865D3E909258CFD00CCE24AC6E326A164D74DC0B4128928FF326038
310
472BA13128B1252AC747C6BAB984FC68F0B87FE8960A5C09FE86CFB69FBA01504B0304140006080800CC70623BA24EB22D72010000D40300000C0000006662782F636F72652E786D6CC5535B6E833010BC8AE5DF0A6C5E49888CA3A6694ED00B38E05014B091B1518EDFE511A5A9D228FD2A1F60CDEC7A67C6986DCE4D8D7A
310
69BA4AAB0C073EC548AA5C17952A33ECECD15B61B4E1CC686DBF9561A44423333CC098B3D268D7CE50AE9595CA02AA74216750749DB418E5352C32DCE59FB211BE70162ABA93DF8AFC244AE9073ED050C759670D0840D390E18DF9F1706664C23973AE2A66B62A605A75ACA4C13C4976E1364A12EF355A2EBD384AF65EFA96
310
BC7B8BED2EA6719AAE16FB8491A199335B351775B991C2CA02F390D2D40B028F861F41BCA68B7518BFD0D59A524686F29B26D7164F36B94AD9289CE54E6D1DE6010819891F6E21228B3AD1831EC219194284CF98F06DD01008846CC5A1BEF83801D4CBDC6A1303536877A57A513B0953A94FC707FDBE6064EA84A9E3E6E0FA
310
EE8CF0E9198F7784A316AA0413C2C2F2E0ECA0934D1AE6D05A69BCDE9E91D2A611F573361E38FC1375157F5752AE6B6DFE4B11990F88CCBF0719EE23FF02504B0304140006080800CC70623B408A7D3B7C0000009D0000000B0000006662782F636E782E786D6C4DCCD10A83201886E15B91FFDC552A92A0064DBC8F581632
310
D3703A76F9ABD1C18E3E78F878E5F0D9027ABBFCF2292AE86E2D20171F69F6715550CB827B40839639A5F2770314A7CD293819B45C73AAFB45B35BA61ACAA1C1C7E7855C58C15BC331339661262CC762340413D68D77DA5B42298546CBE6573AF60CEB2F504B0304140006080800CC70623B449FB9BD290100001202000031
310
0000006662782F36394639363044362D344446342D343946362D394244322D3234314243333846323333332F636F72652E786D6C8D515B6EC32010BC0AE22B55850D98B871848994463E412FE002495162B07854397EA176A4F62F3F2C9A9D991D587EB84F37F0AD7D30CEF6905418026DA553C65E7A98E219ED203808EE9D
310
8B7F6810D871D23D2C3014FCE25D9A57483A1BB58D19B54EE9151C43D0110279CB971E06F9A5A7B11A53CC8C70ADE6515EC78BAE4895DB992778883E0700CB907242D17643D7E2538BD869608875438BBAE38922CAC8F1BDD90DB4691A5E2F42C153326A951B95E398B3D1FE599322163C9AE9115F7A3D46ADA0A018778810
310
84E907617BDCEE297BC5BB3DC6BC2EF47FA234AB2745C9D8D8D035EE220B50105E2F0DC1954B9FB747187D9F9D8FA0CCDB042D5FA0C015C65B42DF78BD10F3F3B363CB56C7109DCFDFBBB97E662ED92EB62D13BC2E1BCAE5777DB9966D8A1F504B0304140006080800CC70623BAD7543B64E01000033030000300000006662
310
782F36394639363044362D344446342D343946362D394244322D3234314243333846323333332F636E782E786D6CD593CD6EC32010845F0571AD6CE3D48AD20813A9873E410FBD12D82434182C7EAAE6EDBB2424CD25871E7B41D6EC30B3FA84F9E67BB2E40B4234DE8DB46F1925E094D7C6ED479AD3AE5951B2113C789FEE
310
6C943839C1488B4C05DF079FE72A69D8C96C13AAD6B8631503449F83828872B949AC57D26200B826A308D316B4064D6E46FCDA41C05550DC9E483A00797BFD207EFB092A45DE9514C1BBD22178396BD39D891265658C238DEA00936C654E5E433CB65A26D9F6EDB5EBC14EBF49A45CB856E66048291F6939A9A81BB5C89177
310
38143CA680F4AA299D66A042CEB3354A2684DC9D8D178FE0D9B8B41CAAD720F880EE7EF93C0C18769E099ECC04D5A102C8049A8A05632F4DDF376CF1DE0F6BB65C2F8627B65A33C6BB62177CEBBDAD973006829F89F22E814B54F4BC2BE347F8AA8F681390B50FA73F804400B5F542E796F19FF974E7F78DB802FE05E20750
310
4B0304140006080800CC70623B8D05915C650500003B100000340000006662782F36394639363044362D344446342D343946362D394244322D3234314243333846323333332F6F626A656374732E786D6CAD575B6FA33814FE2B887D06429276DA1565D4266D158D3A339A6846FB502932E050B66023DB74D2FDF5FB190C01
310
9276B2973C046C8ECFF53B17071F77456EBD502133CEAE6CDF9DD81665314F32965ED995DA3A17B6F5310C04E7AA47665B8C14F4CAD6DB7618A48257A5D94AE89654B91AEDDEDDFC61C998326A5B714EA4BCB265FC440BE2924AF184CA6737218AB8E976E7FA6E4338649B0A523E8D98964450A6A029F619B8588D52FE7039
310
B1BD30F0F4F730D0FF866AF6369557DB33949F31A9088B0F848DD8CCFCF9F2767A76E99CCDE733677E3EF59D9BBB9BA5E37F984D16E78BC5E5F5ED25044B25C0C96822E8D60EEFE11B91C581D77CEA34368A1F5329E68CD1B8B61F16D63A1B8E092D294B10C78C4A48EB593D192E7DED9BDEE7995E1B91FDEDD3ACEA9FE831
310
6A756F9F7D4D79F4274C90A7A04248AA51D5F8C718DAE06FB2F75AC4796EBE65D22A88A22223B995679120E2D50E41AA49C260C046A35368846B0BECD0DFF3EBEB8AD4F835768F69B9ADF25C43D30E6B646F807FAA64AD59F61715C7A54127C4AACA98BA3006A9D792DAE165E0D59B61A01FB3A9F9D838D2DAE62445C86166
310
F37564E842E7DE6A69879FEEA2DD5AE7E371E1A5E025154AC307D06A03D73EB5978C58FFA4C8E9033066E0F3BD53BEC1F39F91BE7B55103791EDE6BBB991A2046172CB4581D8B893FA674DDA17A77B3B7C413D1B511FD2743BFF8A38F03A658705E3ADF8015C3A3417FF3D7E439FF591DA0B5F18BC20C1B8981957AE6392A3
310
F43C640C01D1A0B4728E2DD4F26DB4B3C3152A252A3B4E913CEC1C72F012782FF88EFF8637AA552DBEF76408E8A8DE9E50F9E1CB3A2DA0DB1B6039A893B56063DC5B3E3FFB5F72E67AB9FEB4AEC496C4F4C1149625DD662C53E89D7BF0F6151A046260D1337DFDC94502430F83B0EE07A130A224BCAD7DAE1D9FB6CD422FF6
310
920702629C4BB9AE79C12F243C6432A6794E18E5552BA56B431AAB5D91317302B2B071E86C3A42B1A02F999E24061403B5D0EB639195DA655DD3EBEAB4FB862DDF579F014AD0E73C22F99E28DA57FB98E75C6CA2D74D53086D600F4786E0FE3144B771A8A7B900F03594DB8A633CBC49B2EDB69228BB479CF863B5E807AAAB
310
23872F6DFEB4129B949CA33823F58830E86D65621E10047D9DB34D862E8EAC3C2ABC2F7B2C40D67CDFE01F5545B92105AF983AC54D93D69E56FB8E797F88913F898A9FEC705D3F9D1B54EC8426FB500D40A03BD0119B06E1B95DDC7EB8F6975367793EBD70E66733DFB9BC982F9CE564727731999F5D4ECFCE3B8D6A4DC2A0
310
6D50FD148437D110834A64C6CDDF57FBACB5C307A2A477DFE4939736CFEF2B175371E0E10CF0DD1D5C15654E0BCA14D1E87DD02FF93782A162C0A3D95F1524A52770F972BF1EE9809D13CE7DD599467F8ECE9ADD85CE85A34CD45355448C64F9E8A031DC2D596ACC6E5DD93D9B82DE2EF5CAF81363A8E47996A0DE24564A79
310
4115AACE09C55E14540231FDA13C319787134EBF34E3A022514E5B4D9E0826E25C02D5805B15ABE1BEF51B26383D445DD9E875EE33FE4C22DA16427D65A3BCA92CA6D28DD01DF5DC53330704308475351050232CCD31583787BA75774AFB06E5070DD0C8EF484E19968C5D83BA5B90B244D31E54D55A372320FE4786B7EA58
310
44E135AA5467CB7EA333A61683CC6A8C3257034C10CF46F40EF9F5BE59BE5BD30C3C72D235E95D10345C1D45445A5F0BB47E46A5EBE5570F9380B5FA629579952296A773720405982B9DE04011506178964401AA8BDF1FBF0A8EAB6861DD6580C0E38217056766716DAEB2D6FA0917D3E4116581EADB879C4E7CFFB11EFACD
310
3D641311495D92C8676CB409A72D18610D803CE8A626049E8EC1887CB5B44CC39883690DDA8399B4B9855B481E7D71D4A9D22F96E5BB73BF5793020C02137BF837504B0304140006080000CC70623B000000000000000000000000350000006662782F36394639363044362D344446342D343946362D394244322D32343142
310
43333846323333332F76657274696365732E62696E504B0304140006080800CC70623BF270F1330600000004000000360000006662782F36394639363044362D344446342D343946362D394244322D3234314243333846323333332F747269616E676C65732E62696E636660600000504B0304140006080000CC70623B0000
310
00000000000000000000370000006662782F36394639363044362D344446342D343946362D394244322D3234314243333846323333332F617474726962757465732E62696E504B0304140006080800CC70623B08DA0BD19000000041010000360000006662782F36394639363044362D344446342D343946362D394244322D
310
3234314243333846323333332F6469726563746F72792E786D6C858F410AC3201045AF22B36F53E9A60B35CBEEBAE80D244E44489C6234F4F835464A48035D0DF398FF9F8AF63D0E6CC63039F212F8F9020C7D47C6792B21C5FE7403D62A1188E2E60C98D7234A5830286103A55745067B9D86B8A3CF9C7F90C11DE607FB14
310
4396D7B6A82D282E9A152AD114D5EF2CB866EEE831B8EEA07A7BB5A8D7D61A2BAAEB7FD5F70921FF497D00504B0304140006080800CC70623BCA768048FE000000A00100003B0000006662782F36394639363044362D344446342D343946362D394244322D3234314243333846323333332F7265736F75726365732F636F72
310
652E786D6C8D50596E833010BD0A9ADFCA60D600328E9AA639412F609909B1126CE4A5EAF16B0295DABFFECC8CDEA2797AECF8353F924FB44E193D409E5248504B332A3D0D10FC95B4901C39B3C6F85F3248B49871801506CE266BC2B243D2688FDA47549B11775038871E12F988C7004EDE7016A9083E2ADC3D5D84BC8B09
310
D33C8D74D471E6BC8D0192EDC93A815B742658898E651BCB59086ADC356A8C3FD555A1055ED7E7E254D615792D0F075295F585746FF53B694EE78A565DD736979A65AB9933AFE69F8CD2A2F038022F28ED489E135A7CE4554F9BBEA85E68DB53CAB255FEC71496F19FA6A0B42F8B3DEE6673C0F318E4497096AD7DC5F52C33
310
EEB55BFE0D504B010214000A0000080000CC70623B3DEE336E79000000790000001B00000000000000000000000000000000006175746F6465736B2D64657369676E2D7061636B6167652E786D6C504B01021400140006080800CC70623BD486FD9CA0000000F40000001300000000000000000000000000B20000005B436F
310
6E74656E745F54797065735D2E786D6C504B01021400140006080800CC70623BD9DDAED0EC0000007C010000080000000000000000000000000083010000636F72652E786D6C504B01021400140006080800CC70623B55019EA25F0000007C000000070000000000000000000000000095020000636E782E786D6C504B0102
310
1400140006080800CC70623BA24EB22D72010000D40300000C00000000000000000000000000190300006662782F636F72652E786D6C504B01021400140006080800CC70623B408A7D3B7C0000009D0000000B00000000000000000000000000B50400006662782F636E782E786D6C504B01021400140006080800CC70623B
310
449FB9BD290100001202000031000000000000000000000000005A0500006662782F36394639363044362D344446342D343946362D394244322D3234314243333846323333332F636F72652E786D6C504B01021400140006080800CC70623BAD7543B64E010000330300003000000000000000000000000000D20600006662
310
782F36394639363044362D344446342D343946362D394244322D3234314243333846323333332F636E782E786D6C504B01021400140006080800CC70623B8D05915C650500003B10000034000000000000000000000000006E0800006662782F36394639363044362D344446342D343946362D394244322D32343142433338
310
46323333332F6F626A656374732E786D6C504B01021400140006080000CC70623B0000000000000000000000003500000000000000000000000000250E00006662782F36394639363044362D344446342D343946362D394244322D3234314243333846323333332F76657274696365732E62696E504B010214001400060808
310
00CC70623BF270F13306000000040000003600000000000000000000000000780E00006662782F36394639363044362D344446342D343946362D394244322D3234314243333846323333332F747269616E676C65732E62696E504B01021400140006080000CC70623B00000000000000000000000037000000000000000000
310
00000000D20E00006662782F36394639363044362D344446342D343946362D394244322D3234314243333846323333332F617474726962757465732E62696E504B01021400140006080800CC70623B08DA0BD190000000410100003600000000000000000000000000270F00006662782F36394639363044362D344446342D
310
343946362D394244322D3234314243333846323333332F6469726563746F72792E786D6C504B01021400140006080800CC70623BCA768048FE000000A00100003B000000000000000000000000000B1000006662782F36394639363044362D344446342D343946362D394244322D3234314243333846323333332F7265736F
310
75726365732F636F72652E786D6C504B0506000000000E000E0080040000621100000000
  0
XRECORD
  5
176
102
{ACAD_REACTORS
330
173
102
}
330
173
100
AcDbXrecord
280
     1
270
     1
271
     1
  0
XRECORD
  5
177
102
{ACAD_REACTORS
330
173
102
}
330
173
100
AcDbXrecord
280
     1
270
     1
271
     1
  0
XRECORD
  5
9350
102
{ACAD_REACTORS
330
934F
102
}
330
934F
100
AcDbXrecord
280
     1
102
ACAD_ROUNDTRIP_2012_MLEADER_STYLE
298
     1
  0
XRECORD
  5
9362
102
{ACAD_REACTORS
330
9361
102
}
330
9361
100
AcDbXrecord
280
     1
102
DISPLAYNAME
  1
Metric50
102
FLAGS
 90
        0
  0
CELLSTYLEMAP
  5
9322
102
{ACAD_REACTORS
330
162
102
}
330
162
100
AcDbCellStyleMap
 90
        3
300
CELLSTYLE
  1
TABLEFORMAT_BEGIN
 90
        5
170
     1
 91
        0
 92
    32768
 62
   257
 93
        1
300
CONTENTFORMAT
  1
CONTENTFORMAT_BEGIN
 90
        0
 91
        0
 92
      512
 93
        0
300

 40
0.0
140
1.0
 94
        5
 62
     0
340
11
144
6.0
309
CONTENTFORMAT_END
171
     1
301
MARGIN
  1
CELLMARGIN_BEGIN
 40
1.5
 40
1.5
 40
1.5
 40
1.5
 40
4.5
 40
4.5
309
CELLMARGIN_END
 94
        6
 95
        1
302
GRIDFORMAT
  1
GRIDFORMAT_BEGIN
 90
        0
 91
        1
 62
     0
 92
       -2
340
14
 93
        0
 40
1.125
309
GRIDFORMAT_END
 95
        2
302
GRIDFORMAT
  1
GRIDFORMAT_BEGIN
 90
        0
 91
        1
 62
     0
 92
       -2
340
14
 93
        0
 40
1.125
309
GRIDFORMAT_END
 95
        4
302
GRIDFORMAT
  1
GRIDFORMAT_BEGIN
 90
        0
 91
        1
 62
     0
 92
       -2
340
14
 93
        0
 40
1.125
309
GRIDFORMAT_END
 95
        8
302
GRIDFORMAT
  1
GRIDFORMAT_BEGIN
 90
        0
 91
        1
 62
     0
 92
       -2
340
14
 93
        0
 40
1.125
309
GRIDFORMAT_END
 95
       16
302
GRIDFORMAT
  1
GRIDFORMAT_BEGIN
 90
        0
 91
        1
 62
     0
 92
       -2
340
14
 93
        0
 40
1.125
309
GRIDFORMAT_END
 95
       32
302
GRIDFORMAT
  1
GRIDFORMAT_BEGIN
 90
        0
 91
        1
 62
     0
 92
       -2
340
14
 93
        0
 40
1.125
309
GRIDFORMAT_END
309
TABLEFORMAT_END
  1
CELLSTYLE_BEGIN
 90
        1
 91
        1
300
_TITLE
309
CELLSTYLE_END
300
CELLSTYLE
  1
TABLEFORMAT_BEGIN
 90
        5
170
     1
 91
        0
 92
        0
 62
   257
 93
        1
300
CONTENTFORMAT
  1
CONTENTFORMAT_BEGIN
 90
        0
 91
        0
 92
      512
 93
        0
300

 40
0.0
140
1.0
 94
        5
 62
     0
340
11
144
4.5
309
CONTENTFORMAT_END
171
     1
301
MARGIN
  1
CELLMARGIN_BEGIN
 40
1.5
 40
1.5
 40
1.5
 40
1.5
 40
4.5
 40
4.5
309
CELLMARGIN_END
 94
        6
 95
        1
302
GRIDFORMAT
  1
GRIDFORMAT_BEGIN
 90
        0
 91
        1
 62
     0
 92
       -2
340
14
 93
        0
 40
1.125
309
GRIDFORMAT_END
 95
        2
302
GRIDFORMAT
  1
GRIDFORMAT_BEGIN
 90
        0
 91
        1
 62
     0
 92
       -2
340
14
 93
        0
 40
1.125
309
GRIDFORMAT_END
 95
        4
302
GRIDFORMAT
  1
GRIDFORMAT_BEGIN
 90
        0
 91
        1
 62
     0
 92
       -2
340
14
 93
        0
 40
1.125
309
GRIDFORMAT_END
 95
        8
302
GRIDFORMAT
  1
GRIDFORMAT_BEGIN
 90
        0
 91
        1
 62
     0
 92
       -2
340
14
 93
        0
 40
1.125
309
GRIDFORMAT_END
 95
       16
302
GRIDFORMAT
  1
GRIDFORMAT_BEGIN
 90
        0
 91
        1
 62
     0
 92
       -2
340
14
 93
        0
 40
1.125
309
GRIDFORMAT_END
 95
       32
302
GRIDFORMAT
  1
GRIDFORMAT_BEGIN
 90
        0
 91
        1
 62
     0
 92
       -2
340
14
 93
        0
 40
1.125
309
GRIDFORMAT_END
309
TABLEFORMAT_END
  1
CELLSTYLE_BEGIN
 90
        2
 91
        1
300
_HEADER
309
CELLSTYLE_END
300
CELLSTYLE
  1
TABLEFORMAT_BEGIN
 90
        5
170
     1
 91
        0
 92
        0
 62
   257
 93
        1
300
CONTENTFORMAT
  1
CONTENTFORMAT_BEGIN
 90
        0
 91
        0
 92
      512
 93
        0
300

 40
0.0
140
1.0
 94
        2
 62
     0
340
11
144
4.5
309
CONTENTFORMAT_END
171
     1
301
MARGIN
  1
CELLMARGIN_BEGIN
 40
1.5
 40
1.5
 40
1.5
 40
1.5
 40
4.5
 40
4.5
309
CELLMARGIN_END
 94
        6
 95
        1
302
GRIDFORMAT
  1
GRIDFORMAT_BEGIN
 90
        0
 91
        1
 62
     0
 92
       -2
340
14
 93
        0
 40
1.125
309
GRIDFORMAT_END
 95
        2
302
GRIDFORMAT
  1
GRIDFORMAT_BEGIN
 90
        0
 91
        1
 62
     0
 92
       -2
340
14
 93
        0
 40
1.125
309
GRIDFORMAT_END
 95
        4
302
GRIDFORMAT
  1
GRIDFORMAT_BEGIN
 90
        0
 91
        1
 62
     0
 92
       -2
340
14
 93
        0
 40
1.125
309
GRIDFORMAT_END
 95
        8
302
GRIDFORMAT
  1
GRIDFORMAT_BEGIN
 90
        0
 91
        1
 62
     0
 92
       -2
340
14
 93
        0
 40
1.125
309
GRIDFORMAT_END
 95
       16
302
GRIDFORMAT
  1
GRIDFORMAT_BEGIN
 90
        0
 91
        1
 62
     0
 92
       -2
340
14
 93
        0
 40
1.125
309
GRIDFORMAT_END
 95
       32
302
GRIDFORMAT
  1
GRIDFORMAT_BEGIN
 90
        0
 91
        1
 62
     0
 92
       -2
340
14
 93
        0
 40
1.125
309
GRIDFORMAT_END
309
TABLEFORMAT_END
  1
CELLSTYLE_BEGIN
 90
        3
 91
        2
300
_DATA
309
CELLSTYLE_END
  0
XRECORD
  5
9327
102
{ACAD_REACTORS
330
162
102
}
330
162
100
AcDbXrecord
280
     1
102
ACAD_ROUNDTRIP_PRE2007_TABLESTYLE
 90
      512
 91
        0
  1

 92
      512
 93
        0
  2

 94
      512
 95
        0
  3

  0
XRECORD
  5
933A
102
{ACAD_REACTORS
330
9339
102
}
330
9339
100
AcDbXrecord
280
     1
102
RTVSPost2010Prop28
280
     1
102
RTVSPost2010PropOp28
 70
     1
102
RTVSPost2010Prop29
280
     1
102
RTVSPost2010PropOp29
 70
     1
102
RTVSPost2010Prop30
280
     0
102
RTVSPost2010PropOp30
 70
     1
102
RTVSPost2010Prop31
280
     0
102
RTVSPost2010PropOp31
 70
     1
102
RTVSPost2010Prop32
280
     0
102
RTVSPost2010PropOp32
 70
     1
102
RTVSPost2010Prop33
280
     0
102
RTVSPost2010PropOp33
 70
     1
102
RTVSPost2010Prop34
280
     0
102
RTVSPost2010PropOp34
 70
     1
102
RTVSPost2010Prop35
280
     0
102
RTVSPost2010PropOp35
 70
     1
102
RTVSPost2010Prop36
280
     0
102
RTVSPost2010PropOp36
 70
     1
102
RTVSPost2010Prop37
 90
       50
102
RTVSPost2010PropOp37
 70
     1
102
RTVSPost2010Prop38
140
0.0
102
RTVSPost2010PropOp38
 70
     1
102
RTVSPost2010Prop39
140
1.0
102
RTVSPost2010PropOp39
 70
     1
102
RTVSPost2010Prop40
 90
        0
102
RTVSPost2010PropOp40
 70
     1
102
RTVSPost2010Prop41ColorIndex
 90
       18
102
RTVSPost2010Prop41ColorRGB
 90
        0
102
RTVSPost2010PropOp41
 70
     1
102
RTVSPost2010Prop42
 90
       50
102
RTVSPost2010PropOp42
 70
     1
102
RTVSPost2010Prop43
 90
        3
102
RTVSPost2010PropOp43
 70
     1
102
RTVSPost2010Prop44ColorIndex
 90
        5
102
RTVSPost2010Prop44ColorRGB
 90
      255
102
RTVSPost2010PropOp44
 70
     1
102
RTVSPost2010Prop45
280
     0
102
RTVSPost2010PropOp45
 70
     1
102
RTVSPost2010Prop46
 90
       50
102
RTVSPost2010PropOp46
 70
     1
102
RTVSPost2010Prop47
 90
       50
102
RTVSPost2010PropOp47
 70
     1
102
RTVSPost2010Prop48
 90
       50
102
RTVSPost2010PropOp48
 70
     1
102
RTVSPost2010Prop49
280
     0
102
RTVSPost2010PropOp49
 70
     1
102
RTVSPost2010Prop50
 90
       50
102
RTVSPost2010PropOp50
 70
     1
102
RTVSPost2010Prop51ColorIndex
 90
      256
102
RTVSPost2010Prop51ColorRGB
 90
-16777216
102
RTVSPost2010PropOp51
 70
     0
102
RTVSPost2010Prop52
140
1.0
102
RTVSPost2010PropOp52
 70
     0
102
RTVSPost2010Prop53
 90
        2
102
RTVSPost2010PropOp53
 70
     1
102
RTVSPost2010Prop54
  1
strokes_ogs.tif
102
RTVSPost2010PropOp54
 70
     1
102
RTVSPost2010Prop55
280
     0
102
RTVSPost2010PropOp55
 70
     1
102
RTVSPost2010Prop56
140
1.0
102
RTVSPost2010PropOp56
 70
     1
102
RTVSPost2010Prop57
140
1.0
102
RTVSPost2010PropOp57
 70
     1
102
RTVSPropertyOp0
 70
     1
102
RTVSPropertyOp1
 70
     1
102
RTVSPropertyOp2
 70
     1
102
RTVSPropertyOp3
 70
     1
102
RTVSPropertyOp4
 70
     1
102
RTVSPropertyOp5
 70
     1
102
RTVSPropertyOp6
 70
     1
102
RTVSPropertyOp7
 70
     1
102
RTVSPropertyOp8
 70
     1
102
RTVSPropertyOp9
 70
     1
102
RTVSPropertyOp10
 70
     1
102
RTVSPropertyOp11
 70
     1
102
RTVSPropertyOp12
 70
     1
102
RTVSPropertyOp13
 70
     1
102
RTVSPropertyOp14
 70
     1
102
RTVSPropertyOp15
 70
     1
102
RTVSPropertyOp16
 70
     1
102
RTVSPropertyOp17
 70
     1
102
RTVSPropertyOp18
 70
     1
102
RTVSPropertyOp19
 70
     1
102
RTVSPropertyOp20
 70
     1
102
RTVSPropertyOp21
 70
     1
102
RTVSPropertyOp22
 70
     1
102
RTVSPropertyOp23
 70
     1
102
RTVSPropertyOp24
 70
     1
102
RTVSPropertyOp25
 70
     1
102
RTVSPropertyOp26
 70
     1
102
RTVSPropertyOp27
 70
     1
102
RTVSPropertyOp28
 70
     1
102
RTVSPropertyOp29
 70
     1
102
RTVSPropertyOp30
 70
     1
102
RTVSPropertyOp31
 70
     1
102
RTVSPropertyOp32
 70
     1
102
RTVSPropertyOp33
 70
     1
102
RTVSPropertyOp34
 70
     1
102
RTVSPropertyOp35
 70
     1
102
RTVSPropertyOp36
 70
     1
102
RTVSPropertyOp37
 70
     1
102
RTVSPropertyOp38
 70
     1
102
RTVSPropertyOp39
 70
     1
102
RTVSPropertyOp40
 70
     1
102
RTVSPropertyOp41
 70
     1
102
RTVSPropertyOp42
 70
     1
102
RTVSPropertyOp43
 70
     1
102
RTVSPropertyOp44
 70
     1
102
RTVSPropertyOp45
 70
     1
102
RTVSPropertyOp46
 70
     1
102
RTVSPropertyOp47
 70
     1
102
RTVSPropertyOp48
 70
     1
102
RTVSPropertyOp49
 70
     1
102
RTVSPropertyOp50
 70
     1
102
RTVSPropertyOp51
 70
     0
102
RTVSPropertyOp52
 70
     0
102
RTVSPropertyOp53
 70
     1
102
RTVSPropertyOp54
 70
     1
102
RTVSPropertyOp55
 70
     1
102
RTVSPropertyOp56
 70
     1
102
RTVSPropertyOp57
 70
     1
102
RTVSPropertyOp58
 70
     1
102
RTVSPropertyOp59
 70
     1
102
RTVSPropertyOp60
 70
     1
102
RTVSPropertyOp61
 70
     1
102
RTVSPropertyOp62
 70
     1
  0
XRECORD
  5
9338
102
{ACAD_REACTORS
330
9337
102
}
330
9337
100
AcDbXrecord
280
     1
102
RTVSPost2010Prop28
280
     0
102
RTVSPost2010PropOp28
 70
     1
102
RTVSPost2010Prop29
280
     1
102
RTVSPost2010PropOp29
 70
     1
102
RTVSPost2010Prop30
280
     1
102
RTVSPost2010PropOp30
 70
     1
102
RTVSPost2010Prop31
280
     0
102
RTVSPost2010PropOp31
 70
     1
102
RTVSPost2010Prop32
280
     0
102
RTVSPost2010PropOp32
 70
     1
102
RTVSPost2010Prop33
280
     0
102
RTVSPost2010PropOp33
 70
     1
102
RTVSPost2010Prop34
280
     0
102
RTVSPost2010PropOp34
 70
     1
102
RTVSPost2010Prop35
280
     0
102
RTVSPost2010PropOp35
 70
     1
102
RTVSPost2010Prop36
280
     0
102
RTVSPost2010PropOp36
 70
     1
102
RTVSPost2010Prop37
 90
       50
102
RTVSPost2010PropOp37
 70
     1
102
RTVSPost2010Prop38
140
0.0
102
RTVSPost2010PropOp38
 70
     1
102
RTVSPost2010Prop39
140
1.0
102
RTVSPost2010PropOp39
 70
     1
102
RTVSPost2010Prop40
 90
        0
102
RTVSPost2010PropOp40
 70
     1
102
RTVSPost2010Prop41ColorIndex
 90
       18
102
RTVSPost2010Prop41ColorRGB
 90
        0
102
RTVSPost2010PropOp41
 70
     1
102
RTVSPost2010Prop42
 90
       50
102
RTVSPost2010PropOp42
 70
     1
102
RTVSPost2010Prop43
 90
        3
102
RTVSPost2010PropOp43
 70
     1
102
RTVSPost2010Prop44ColorIndex
 90
        5
102
RTVSPost2010Prop44ColorRGB
 90
      255
102
RTVSPost2010PropOp44
 70
     1
102
RTVSPost2010Prop45
280
     0
102
RTVSPost2010PropOp45
 70
     1
102
RTVSPost2010Prop46
 90
       50
102
RTVSPost2010PropOp46
 70
     1
102
RTVSPost2010Prop47
 90
       50
102
RTVSPost2010PropOp47
 70
     1
102
RTVSPost2010Prop48
 90
       50
102
RTVSPost2010PropOp48
 70
     1
102
RTVSPost2010Prop49
280
     0
102
RTVSPost2010PropOp49
 70
     1
102
RTVSPost2010Prop50
 90
       50
102
RTVSPost2010PropOp50
 70
     1
102
RTVSPost2010Prop51ColorIndex
 90
      256
102
RTVSPost2010Prop51ColorRGB
 90
-16777216
102
RTVSPost2010PropOp51
 70
     0
102
RTVSPost2010Prop52
140
1.0
102
RTVSPost2010PropOp52
 70
     0
102
RTVSPost2010Prop53
 90
        2
102
RTVSPost2010PropOp53
 70
     1
102
RTVSPost2010Prop54
  1
strokes_ogs.tif
102
RTVSPost2010PropOp54
 70
     1
102
RTVSPost2010Prop55
280
     0
102
RTVSPost2010PropOp55
 70
     1
102
RTVSPost2010Prop56
140
1.0
102
RTVSPost2010PropOp56
 70
     1
102
RTVSPost2010Prop57
140
1.0
102
RTVSPost2010PropOp57
 70
     1
102
RTVSPropertyOp0
 70
     1
102
RTVSPropertyOp1
 70
     1
102
RTVSPropertyOp2
 70
     1
102
RTVSPropertyOp3
 70
     1
102
RTVSPropertyOp4
 70
     1
102
RTVSPropertyOp5
 70
     1
102
RTVSPropertyOp6
 70
     1
102
RTVSPropertyOp7
 70
     1
102
RTVSPropertyOp8
 70
     1
102
RTVSPropertyOp9
 70
     1
102
RTVSPropertyOp10
 70
     1
102
RTVSPropertyOp11
 70
     1
102
RTVSPropertyOp12
 70
     1
102
RTVSPropertyOp13
 70
     1
102
RTVSPropertyOp14
 70
     1
102
RTVSPropertyOp15
 70
     1
102
RTVSPropertyOp16
 70
     1
102
RTVSPropertyOp17
 70
     1
102
RTVSPropertyOp18
 70
     1
102
RTVSPropertyOp19
 70
     1
102
RTVSPropertyOp20
 70
     1
102
RTVSPropertyOp21
 70
     1
102
RTVSPropertyOp22
 70
     1
102
RTVSPropertyOp23
 70
     1
102
RTVSPropertyOp24
 70
     1
102
RTVSPropertyOp25
 70
     1
102
RTVSPropertyOp26
 70
     1
102
RTVSPropertyOp27
 70
     1
102
RTVSPropertyOp28
 70
     1
102
RTVSPropertyOp29
 70
     1
102
RTVSPropertyOp30
 70
     1
102
RTVSPropertyOp31
 70
     1
102
RTVSPropertyOp32
 70
     1
102
RTVSPropertyOp33
 70
     1
102
RTVSPropertyOp34
 70
     1
102
RTVSPropertyOp35
 70
     1
102
RTVSPropertyOp36
 70
     1
102
RTVSPropertyOp37
 70
     1
102
RTVSPropertyOp38
 70
     1
102
RTVSPropertyOp39
 70
     1
102
RTVSPropertyOp40
 70
     1
102
RTVSPropertyOp41
 70
     1
102
RTVSPropertyOp42
 70
     1
102
RTVSPropertyOp43
 70
     1
102
RTVSPropertyOp44
 70
     1
102
RTVSPropertyOp45
 70
     1
102
RTVSPropertyOp46
 70
     1
102
RTVSPropertyOp47
 70
     1
102
RTVSPropertyOp48
 70
     1
102
RTVSPropertyOp49
 70
     1
102
RTVSPropertyOp50
 70
     1
102
RTVSPropertyOp51
 70
     0
102
RTVSPropertyOp52
 70
     0
102
RTVSPropertyOp53
 70
     1
102
RTVSPropertyOp54
 70
     1
102
RTVSPropertyOp55
 70
     1
102
RTVSPropertyOp56
 70
     1
102
RTVSPropertyOp57
 70
     1
102
RTVSPropertyOp58
 70
     1
102
RTVSPropertyOp59
 70
     1
102
RTVSPropertyOp60
 70
     1
102
RTVSPropertyOp61
 70
     1
102
RTVSPropertyOp62
 70
     1
  0
XRECORD
  5
9346
102
{ACAD_REACTORS
330
9345
102
}
330
9345
100
AcDbXrecord
280
     1
102
RTVSPost2010Prop28
280
     0
102
RTVSPost2010PropOp28
 70
     1
102
RTVSPost2010Prop29
280
     1
102
RTVSPost2010PropOp29
 70
     1
102
RTVSPost2010Prop30
280
     1
102
RTVSPost2010PropOp30
 70
     1
102
RTVSPost2010Prop31
280
     0
102
RTVSPost2010PropOp31
 70
     1
102
RTVSPost2010Prop32
280
     0
102
RTVSPost2010PropOp32
 70
     1
102
RTVSPost2010Prop33
280
     0
102
RTVSPost2010PropOp33
 70
     1
102
RTVSPost2010Prop34
280
     0
102
RTVSPost2010PropOp34
 70
     1
102
RTVSPost2010Prop35
280
     0
102
RTVSPost2010PropOp35
 70
     1
102
RTVSPost2010Prop36
280
     0
102
RTVSPost2010PropOp36
 70
     1
102
RTVSPost2010Prop37
 90
       50
102
RTVSPost2010PropOp37
 70
     1
102
RTVSPost2010Prop38
140
0.0
102
RTVSPost2010PropOp38
 70
     1
102
RTVSPost2010Prop39
140
1.0
102
RTVSPost2010PropOp39
 70
     1
102
RTVSPost2010Prop40
 90
        0
102
RTVSPost2010PropOp40
 70
     1
102
RTVSPost2010Prop41ColorIndex
 90
       18
102
RTVSPost2010Prop41ColorRGB
 90
        0
102
RTVSPost2010PropOp41
 70
     1
102
RTVSPost2010Prop42
 90
       50
102
RTVSPost2010PropOp42
 70
     1
102
RTVSPost2010Prop43
 90
        3
102
RTVSPost2010PropOp43
 70
     1
102
RTVSPost2010Prop44ColorIndex
 90
        5
102
RTVSPost2010Prop44ColorRGB
 90
      255
102
RTVSPost2010PropOp44
 70
     1
102
RTVSPost2010Prop45
280
     0
102
RTVSPost2010PropOp45
 70
     1
102
RTVSPost2010Prop46
 90
       50
102
RTVSPost2010PropOp46
 70
     1
102
RTVSPost2010Prop47
 90
       50
102
RTVSPost2010PropOp47
 70
     1
102
RTVSPost2010Prop48
 90
       50
102
RTVSPost2010PropOp48
 70
     1
102
RTVSPost2010Prop49
280
     0
102
RTVSPost2010PropOp49
 70
     1
102
RTVSPost2010Prop50
 90
       50
102
RTVSPost2010PropOp50
 70
     1
102
RTVSPost2010Prop51ColorIndex
 90
      256
102
RTVSPost2010Prop51ColorRGB
 90
-16777216
102
RTVSPost2010PropOp51
 70
     0
102
RTVSPost2010Prop52
140
1.0
102
RTVSPost2010PropOp52
 70
     0
102
RTVSPost2010Prop53
 90
        2
102
RTVSPost2010PropOp53
 70
     1
102
RTVSPost2010Prop54
  1
strokes_ogs.tif
102
RTVSPost2010PropOp54
 70
     1
102
RTVSPost2010Prop55
280
     0
102
RTVSPost2010PropOp55
 70
     1
102
RTVSPost2010Prop56
140
1.0
102
RTVSPost2010PropOp56
 70
     1
102
RTVSPost2010Prop57
140
1.0
102
RTVSPost2010PropOp57
 70
     1
102
RTVSPropertyOp0
 70
     1
102
RTVSPropertyOp1
 70
     1
102
RTVSPropertyOp2
 70
     1
102
RTVSPropertyOp3
 70
     1
102
RTVSPropertyOp4
 70
     1
102
RTVSPropertyOp5
 70
     1
102
RTVSPropertyOp6
 70
     1
102
RTVSPropertyOp7
 70
     1
102
RTVSPropertyOp8
 70
     1
102
RTVSPropertyOp9
 70
     1
102
RTVSPropertyOp10
 70
     1
102
RTVSPropertyOp11
 70
     1
102
RTVSPropertyOp12
 70
     1
102
RTVSPropertyOp13
 70
     1
102
RTVSPropertyOp14
 70
     1
102
RTVSPropertyOp15
 70
     1
102
RTVSPropertyOp16
 70
     1
102
RTVSPropertyOp17
 70
     1
102
RTVSPropertyOp18
 70
     1
102
RTVSPropertyOp19
 70
     1
102
RTVSPropertyOp20
 70
     1
102
RTVSPropertyOp21
 70
     1
102
RTVSPropertyOp22
 70
     1
102
RTVSPropertyOp23
 70
     1
102
RTVSPropertyOp24
 70
     1
102
RTVSPropertyOp25
 70
     1
102
RTVSPropertyOp26
 70
     1
102
RTVSPropertyOp27
 70
     1
102
RTVSPropertyOp28
 70
     1
102
RTVSPropertyOp29
 70
     1
102
RTVSPropertyOp30
 70
     1
102
RTVSPropertyOp31
 70
     1
102
RTVSPropertyOp32
 70
     1
102
RTVSPropertyOp33
 70
     1
102
RTVSPropertyOp34
 70
     1
102
RTVSPropertyOp35
 70
     1
102
RTVSPropertyOp36
 70
     1
102
RTVSPropertyOp37
 70
     1
102
RTVSPropertyOp38
 70
     1
102
RTVSPropertyOp39
 70
     1
102
RTVSPropertyOp40
 70
     1
102
RTVSPropertyOp41
 70
     1
102
RTVSPropertyOp42
 70
     1
102
RTVSPropertyOp43
 70
     1
102
RTVSPropertyOp44
 70
     1
102
RTVSPropertyOp45
 70
     1
102
RTVSPropertyOp46
 70
     1
102
RTVSPropertyOp47
 70
     1
102
RTVSPropertyOp48
 70
     1
102
RTVSPropertyOp49
 70
     1
102
RTVSPropertyOp50
 70
     1
102
RTVSPropertyOp51
 70
     0
102
RTVSPropertyOp52
 70
     0
102
RTVSPropertyOp53
 70
     1
102
RTVSPropertyOp54
 70
     1
102
RTVSPropertyOp55
 70
     1
102
RTVSPropertyOp56
 70
     1
102
RTVSPropertyOp57
 70
     1
102
RTVSPropertyOp58
 70
     1
102
RTVSPropertyOp59
 70
     1
102
RTVSPropertyOp60
 70
     1
102
RTVSPropertyOp61
 70
     1
102
RTVSPropertyOp62
 70
     1
  0
XRECORD
  5
934E
102
{ACAD_REACTORS
330
934D
102
}
330
934D
100
AcDbXrecord
280
     1
102
RTVSPost2010Prop28
280
     0
102
RTVSPost2010PropOp28
 70
     1
102
RTVSPost2010Prop29
280
     1
102
RTVSPost2010PropOp29
 70
     1
102
RTVSPost2010Prop30
280
     1
102
RTVSPost2010PropOp30
 70
     1
102
RTVSPost2010Prop31
280
     0
102
RTVSPost2010PropOp31
 70
     1
102
RTVSPost2010Prop32
280
     0
102
RTVSPost2010PropOp32
 70
     1
102
RTVSPost2010Prop33
280
     0
102
RTVSPost2010PropOp33
 70
     1
102
RTVSPost2010Prop34
280
     0
102
RTVSPost2010PropOp34
 70
     1
102
RTVSPost2010Prop35
280
     0
102
RTVSPost2010PropOp35
 70
     1
102
RTVSPost2010Prop36
280
     0
102
RTVSPost2010PropOp36
 70
     1
102
RTVSPost2010Prop37
 90
       50
102
RTVSPost2010PropOp37
 70
     1
102
RTVSPost2010Prop38
140
0.0
102
RTVSPost2010PropOp38
 70
     1
102
RTVSPost2010Prop39
140
1.0
102
RTVSPost2010PropOp39
 70
     1
102
RTVSPost2010Prop40
 90
        0
102
RTVSPost2010PropOp40
 70
     1
102
RTVSPost2010Prop41ColorIndex
 90
       18
102
RTVSPost2010Prop41ColorRGB
 90
        0
102
RTVSPost2010PropOp41
 70
     1
102
RTVSPost2010Prop42
 90
       50
102
RTVSPost2010PropOp42
 70
     1
102
RTVSPost2010Prop43
 90
        3
102
RTVSPost2010PropOp43
 70
     1
102
RTVSPost2010Prop44ColorIndex
 90
        5
102
RTVSPost2010Prop44ColorRGB
 90
      255
102
RTVSPost2010PropOp44
 70
     1
102
RTVSPost2010Prop45
280
     0
102
RTVSPost2010PropOp45
 70
     1
102
RTVSPost2010Prop46
 90
       50
102
RTVSPost2010PropOp46
 70
     1
102
RTVSPost2010Prop47
 90
       50
102
RTVSPost2010PropOp47
 70
     1
102
RTVSPost2010Prop48
 90
       50
102
RTVSPost2010PropOp48
 70
     1
102
RTVSPost2010Prop49
280
     0
102
RTVSPost2010PropOp49
 70
     1
102
RTVSPost2010Prop50
 90
       50
102
RTVSPost2010PropOp50
 70
     1
102
RTVSPost2010Prop51ColorIndex
 90
      256
102
RTVSPost2010Prop51ColorRGB
 90
-16777216
102
RTVSPost2010PropOp51
 70
     0
102
RTVSPost2010Prop52
140
1.0
102
RTVSPost2010PropOp52
 70
     0
102
RTVSPost2010Prop53
 90
        2
102
RTVSPost2010PropOp53
 70
     1
102
RTVSPost2010Prop54
  1
strokes_ogs.tif
102
RTVSPost2010PropOp54
 70
     1
102
RTVSPost2010Prop55
280
     0
102
RTVSPost2010PropOp55
 70
     1
102
RTVSPost2010Prop56
140
1.0
102
RTVSPost2010PropOp56
 70
     1
102
RTVSPost2010Prop57
140
1.0
102
RTVSPost2010PropOp57
 70
     1
102
RTVSPropertyOp0
 70
     1
102
RTVSPropertyOp1
 70
     1
102
RTVSPropertyOp2
 70
     1
102
RTVSPropertyOp3
 70
     1
102
RTVSPropertyOp4
 70
     1
102
RTVSPropertyOp5
 70
     1
102
RTVSPropertyOp6
 70
     1
102
RTVSPropertyOp7
 70
     1
102
RTVSPropertyOp8
 70
     1
102
RTVSPropertyOp9
 70
     1
102
RTVSPropertyOp10
 70
     1
102
RTVSPropertyOp11
 70
     1
102
RTVSPropertyOp12
 70
     1
102
RTVSPropertyOp13
 70
     1
102
RTVSPropertyOp14
 70
     1
102
RTVSPropertyOp15
 70
     1
102
RTVSPropertyOp16
 70
     1
102
RTVSPropertyOp17
 70
     1
102
RTVSPropertyOp18
 70
     1
102
RTVSPropertyOp19
 70
     1
102
RTVSPropertyOp20
 70
     1
102
RTVSPropertyOp21
 70
     1
102
RTVSPropertyOp22
 70
     1
102
RTVSPropertyOp23
 70
     1
102
RTVSPropertyOp24
 70
     1
102
RTVSPropertyOp25
 70
     1
102
RTVSPropertyOp26
 70
     1
102
RTVSPropertyOp27
 70
     1
102
RTVSPropertyOp28
 70
     1
102
RTVSPropertyOp29
 70
     1
102
RTVSPropertyOp30
 70
     1
102
RTVSPropertyOp31
 70
     1
102
RTVSPropertyOp32
 70
     1
102
RTVSPropertyOp33
 70
     1
102
RTVSPropertyOp34
 70
     1
102
RTVSPropertyOp35
 70
     1
102
RTVSPropertyOp36
 70
     1
102
RTVSPropertyOp37
 70
     1
102
RTVSPropertyOp38
 70
     1
102
RTVSPropertyOp39
 70
     1
102
RTVSPropertyOp40
 70
     1
102
RTVSPropertyOp41
 70
     1
102
RTVSPropertyOp42
 70
     1
102
RTVSPropertyOp43
 70
     1
102
RTVSPropertyOp44
 70
     1
102
RTVSPropertyOp45
 70
     1
102
RTVSPropertyOp46
 70
     1
102
RTVSPropertyOp47
 70
     1
102
RTVSPropertyOp48
 70
     1
102
RTVSPropertyOp49
 70
     1
102
RTVSPropertyOp50
 70
     1
102
RTVSPropertyOp51
 70
     0
102
RTVSPropertyOp52
 70
     0
102
RTVSPropertyOp53
 70
     1
102
RTVSPropertyOp54
 70
     1
102
RTVSPropertyOp55
 70
     1
102
RTVSPropertyOp56
 70
     1
102
RTVSPropertyOp57
 70
     1
102
RTVSPropertyOp58
 70
     1
102
RTVSPropertyOp59
 70
     1
102
RTVSPropertyOp60
 70
     1
102
RTVSPropertyOp61
 70
     1
102
RTVSPropertyOp62
 70
     1
  0
XRECORD
  5
9340
102
{ACAD_REACTORS
330
933F
102
}
330
933F
100
AcDbXrecord
280
     1
102
RTVSPost2010Prop28
280
     0
102
RTVSPost2010PropOp28
 70
     1
102
RTVSPost2010Prop29
280
     1
102
RTVSPost2010PropOp29
 70
     1
102
RTVSPost2010Prop30
280
     1
102
RTVSPost2010PropOp30
 70
     1
102
RTVSPost2010Prop31
280
     0
102
RTVSPost2010PropOp31
 70
     1
102
RTVSPost2010Prop32
280
     0
102
RTVSPost2010PropOp32
 70
     1
102
RTVSPost2010Prop33
280
     0
102
RTVSPost2010PropOp33
 70
     1
102
RTVSPost2010Prop34
280
     0
102
RTVSPost2010PropOp34
 70
     1
102
RTVSPost2010Prop35
280
     0
102
RTVSPost2010PropOp35
 70
     1
102
RTVSPost2010Prop36
280
     0
102
RTVSPost2010PropOp36
 70
     1
102
RTVSPost2010Prop37
 90
       50
102
RTVSPost2010PropOp37
 70
     1
102
RTVSPost2010Prop38
140
0.0
102
RTVSPost2010PropOp38
 70
     1
102
RTVSPost2010Prop39
140
1.0
102
RTVSPost2010PropOp39
 70
     1
102
RTVSPost2010Prop40
 90
        0
102
RTVSPost2010PropOp40
 70
     1
102
RTVSPost2010Prop41ColorIndex
 90
       18
102
RTVSPost2010Prop41ColorRGB
 90
        0
102
RTVSPost2010PropOp41
 70
     1
102
RTVSPost2010Prop42
 90
       50
102
RTVSPost2010PropOp42
 70
     1
102
RTVSPost2010Prop43
 90
        3
102
RTVSPost2010PropOp43
 70
     1
102
RTVSPost2010Prop44ColorIndex
 90
        5
102
RTVSPost2010Prop44ColorRGB
 90
      255
102
RTVSPost2010PropOp44
 70
     1
102
RTVSPost2010Prop45
280
     0
102
RTVSPost2010PropOp45
 70
     1
102
RTVSPost2010Prop46
 90
       50
102
RTVSPost2010PropOp46
 70
     1
102
RTVSPost2010Prop47
 90
       50
102
RTVSPost2010PropOp47
 70
     1
102
RTVSPost2010Prop48
 90
       50
102
RTVSPost2010PropOp48
 70
     1
102
RTVSPost2010Prop49
280
     0
102
RTVSPost2010PropOp49
 70
     1
102
RTVSPost2010Prop50
 90
       50
102
RTVSPost2010PropOp50
 70
     1
102
RTVSPost2010Prop51ColorIndex
 90
      256
102
RTVSPost2010Prop51ColorRGB
 90
-16777216
102
RTVSPost2010PropOp51
 70
     0
102
RTVSPost2010Prop52
140
1.0
102
RTVSPost2010PropOp52
 70
     0
102
RTVSPost2010Prop53
 90
        2
102
RTVSPost2010PropOp53
 70
     1
102
RTVSPost2010Prop54
  1
strokes_ogs.tif
102
RTVSPost2010PropOp54
 70
     1
102
RTVSPost2010Prop55
280
     0
102
RTVSPost2010PropOp55
 70
     1
102
RTVSPost2010Prop56
140
1.0
102
RTVSPost2010PropOp56
 70
     1
102
RTVSPost2010Prop57
140
1.0
102
RTVSPost2010PropOp57
 70
     1
102
RTVSPropertyOp0
 70
     1
102
RTVSPropertyOp1
 70
     1
102
RTVSPropertyOp2
 70
     1
102
RTVSPropertyOp3
 70
     1
102
RTVSPropertyOp4
 70
     1
102
RTVSPropertyOp5
 70
     1
102
RTVSPropertyOp6
 70
     1
102
RTVSPropertyOp7
 70
     1
102
RTVSPropertyOp8
 70
     1
102
RTVSPropertyOp9
 70
     1
102
RTVSPropertyOp10
 70
     1
102
RTVSPropertyOp11
 70
     1
102
RTVSPropertyOp12
 70
     1
102
RTVSPropertyOp13
 70
     1
102
RTVSPropertyOp14
 70
     1
102
RTVSPropertyOp15
 70
     1
102
RTVSPropertyOp16
 70
     1
102
RTVSPropertyOp17
 70
     1
102
RTVSPropertyOp18
 70
     1
102
RTVSPropertyOp19
 70
     1
102
RTVSPropertyOp20
 70
     1
102
RTVSPropertyOp21
 70
     1
102
RTVSPropertyOp22
 70
     1
102
RTVSPropertyOp23
 70
     1
102
RTVSPropertyOp24
 70
     1
102
RTVSPropertyOp25
 70
     1
102
RTVSPropertyOp26
 70
     1
102
RTVSPropertyOp27
 70
     1
102
RTVSPropertyOp28
 70
     1
102
RTVSPropertyOp29
 70
     1
102
RTVSPropertyOp30
 70
     1
102
RTVSPropertyOp31
 70
     1
102
RTVSPropertyOp32
 70
     1
102
RTVSPropertyOp33
 70
     1
102
RTVSPropertyOp34
 70
     1
102
RTVSPropertyOp35
 70
     1
102
RTVSPropertyOp36
 70
     1
102
RTVSPropertyOp37
 70
     1
102
RTVSPropertyOp38
 70
     1
102
RTVSPropertyOp39
 70
     1
102
RTVSPropertyOp40
 70
     1
102
RTVSPropertyOp41
 70
     1
102
RTVSPropertyOp42
 70
     1
102
RTVSPropertyOp43
 70
     1
102
RTVSPropertyOp44
 70
     1
102
RTVSPropertyOp45
 70
     1
102
RTVSPropertyOp46
 70
     1
102
RTVSPropertyOp47
 70
     1
102
RTVSPropertyOp48
 70
     1
102
RTVSPropertyOp49
 70
     1
102
RTVSPropertyOp50
 70
     1
102
RTVSPropertyOp51
 70
     0
102
RTVSPropertyOp52
 70
     0
102
RTVSPropertyOp53
 70
     1
102
RTVSPropertyOp54
 70
     1
102
RTVSPropertyOp55
 70
     1
102
RTVSPropertyOp56
 70
     1
102
RTVSPropertyOp57
 70
     1
102
RTVSPropertyOp58
 70
     1
102
RTVSPropertyOp59
 70
     1
102
RTVSPropertyOp60
 70
     1
102
RTVSPropertyOp61
 70
     1
102
RTVSPropertyOp62
 70
     1
  0
XRECORD
  5
9344
102
{ACAD_REACTORS
330
9343
102
}
330
9343
100
AcDbXrecord
280
     1
102
RTVSPost2010Prop28
280
     0
102
RTVSPost2010PropOp28
 70
     1
102
RTVSPost2010Prop29
280
     1
102
RTVSPost2010PropOp29
 70
     1
102
RTVSPost2010Prop30
280
     1
102
RTVSPost2010PropOp30
 70
     1
102
RTVSPost2010Prop31
280
     0
102
RTVSPost2010PropOp31
 70
     1
102
RTVSPost2010Prop32
280
     0
102
RTVSPost2010PropOp32
 70
     1
102
RTVSPost2010Prop33
280
     0
102
RTVSPost2010PropOp33
 70
     1
102
RTVSPost2010Prop34
280
     0
102
RTVSPost2010PropOp34
 70
     1
102
RTVSPost2010Prop35
280
     0
102
RTVSPost2010PropOp35
 70
     1
102
RTVSPost2010Prop36
280
     0
102
RTVSPost2010PropOp36
 70
     1
102
RTVSPost2010Prop37
 90
       50
102
RTVSPost2010PropOp37
 70
     1
102
RTVSPost2010Prop38
140
0.0
102
RTVSPost2010PropOp38
 70
     1
102
RTVSPost2010Prop39
140
1.0
102
RTVSPost2010PropOp39
 70
     1
102
RTVSPost2010Prop40
 90
        0
102
RTVSPost2010PropOp40
 70
     1
102
RTVSPost2010Prop41ColorIndex
 90
       18
102
RTVSPost2010Prop41ColorRGB
 90
        0
102
RTVSPost2010PropOp41
 70
     1
102
RTVSPost2010Prop42
 90
       50
102
RTVSPost2010PropOp42
 70
     1
102
RTVSPost2010Prop43
 90
        3
102
RTVSPost2010PropOp43
 70
     1
102
RTVSPost2010Prop44ColorIndex
 90
        5
102
RTVSPost2010Prop44ColorRGB
 90
      255
102
RTVSPost2010PropOp44
 70
     1
102
RTVSPost2010Prop45
280
     0
102
RTVSPost2010PropOp45
 70
     1
102
RTVSPost2010Prop46
 90
       50
102
RTVSPost2010PropOp46
 70
     1
102
RTVSPost2010Prop47
 90
       50
102
RTVSPost2010PropOp47
 70
     1
102
RTVSPost2010Prop48
 90
       50
102
RTVSPost2010PropOp48
 70
     1
102
RTVSPost2010Prop49
280
     0
102
RTVSPost2010PropOp49
 70
     1
102
RTVSPost2010Prop50
 90
       50
102
RTVSPost2010PropOp50
 70
     1
102
RTVSPost2010Prop51ColorIndex
 90
      256
102
RTVSPost2010Prop51ColorRGB
 90
-16777216
102
RTVSPost2010PropOp51
 70
     0
102
RTVSPost2010Prop52
140
1.0
102
RTVSPost2010PropOp52
 70
     0
102
RTVSPost2010Prop53
 90
        2
102
RTVSPost2010PropOp53
 70
     1
102
RTVSPost2010Prop54
  1
strokes_ogs.tif
102
RTVSPost2010PropOp54
 70
     1
102
RTVSPost2010Prop55
280
     0
102
RTVSPost2010PropOp55
 70
     1
102
RTVSPost2010Prop56
140
1.0
102
RTVSPost2010PropOp56
 70
     1
102
RTVSPost2010Prop57
140
1.0
102
RTVSPost2010PropOp57
 70
     1
102
RTVSPropertyOp0
 70
     1
102
RTVSPropertyOp1
 70
     1
102
RTVSPropertyOp2
 70
     1
102
RTVSPropertyOp3
 70
     1
102
RTVSPropertyOp4
 70
     1
102
RTVSPropertyOp5
 70
     1
102
RTVSPropertyOp6
 70
     1
102
RTVSPropertyOp7
 70
     1
102
RTVSPropertyOp8
 70
     1
102
RTVSPropertyOp9
 70
     1
102
RTVSPropertyOp10
 70
     1
102
RTVSPropertyOp11
 70
     1
102
RTVSPropertyOp12
 70
     1
102
RTVSPropertyOp13
 70
     1
102
RTVSPropertyOp14
 70
     1
102
RTVSPropertyOp15
 70
     1
102
RTVSPropertyOp16
 70
     1
102
RTVSPropertyOp17
 70
     1
102
RTVSPropertyOp18
 70
     1
102
RTVSPropertyOp19
 70
     1
102
RTVSPropertyOp20
 70
     1
102
RTVSPropertyOp21
 70
     1
102
RTVSPropertyOp22
 70
     1
102
RTVSPropertyOp23
 70
     1
102
RTVSPropertyOp24
 70
     1
102
RTVSPropertyOp25
 70
     1
102
RTVSPropertyOp26
 70
     1
102
RTVSPropertyOp27
 70
     1
102
RTVSPropertyOp28
 70
     1
102
RTVSPropertyOp29
 70
     1
102
RTVSPropertyOp30
 70
     1
102
RTVSPropertyOp31
 70
     1
102
RTVSPropertyOp32
 70
     1
102
RTVSPropertyOp33
 70
     1
102
RTVSPropertyOp34
 70
     1
102
RTVSPropertyOp35
 70
     1
102
RTVSPropertyOp36
 70
     1
102
RTVSPropertyOp37
 70
     1
102
RTVSPropertyOp38
 70
     1
102
RTVSPropertyOp39
 70
     1
102
RTVSPropertyOp40
 70
     1
102
RTVSPropertyOp41
 70
     1
102
RTVSPropertyOp42
 70
     1
102
RTVSPropertyOp43
 70
     1
102
RTVSPropertyOp44
 70
     1
102
RTVSPropertyOp45
 70
     1
102
RTVSPropertyOp46
 70
     1
102
RTVSPropertyOp47
 70
     1
102
RTVSPropertyOp48
 70
     1
102
RTVSPropertyOp49
 70
     1
102
RTVSPropertyOp50
 70
     1
102
RTVSPropertyOp51
 70
     0
102
RTVSPropertyOp52
 70
     0
102
RTVSPropertyOp53
 70
     1
102
RTVSPropertyOp54
 70
     1
102
RTVSPropertyOp55
 70
     1
102
RTVSPropertyOp56
 70
     1
102
RTVSPropertyOp57
 70
     1
102
RTVSPropertyOp58
 70
     1
102
RTVSPropertyOp59
 70
     1
102
RTVSPropertyOp60
 70
     1
102
RTVSPropertyOp61
 70
     1
102
RTVSPropertyOp62
 70
     1
  0
XRECORD
  5
9356
102
{ACAD_REACTORS
330
9355
102
}
330
9355
100
AcDbXrecord
280
     1
102
RTVSPost2010Prop28
280
     0
102
RTVSPost2010PropOp28
 70
     1
102
RTVSPost2010Prop29
280
     1
102
RTVSPost2010PropOp29
 70
     1
102
RTVSPost2010Prop30
280
     1
102
RTVSPost2010PropOp30
 70
     1
102
RTVSPost2010Prop31
280
     0
102
RTVSPost2010PropOp31
 70
     1
102
RTVSPost2010Prop32
280
     0
102
RTVSPost2010PropOp32
 70
     1
102
RTVSPost2010Prop33
280
     0
102
RTVSPost2010PropOp33
 70
     1
102
RTVSPost2010Prop34
280
     0
102
RTVSPost2010PropOp34
 70
     1
102
RTVSPost2010Prop35
280
     0
102
RTVSPost2010PropOp35
 70
     1
102
RTVSPost2010Prop36
280
     0
102
RTVSPost2010PropOp36
 70
     1
102
RTVSPost2010Prop37
 90
       50
102
RTVSPost2010PropOp37
 70
     1
102
RTVSPost2010Prop38
140
0.0
102
RTVSPost2010PropOp38
 70
     1
102
RTVSPost2010Prop39
140
1.0
102
RTVSPost2010PropOp39
 70
     1
102
RTVSPost2010Prop40
 90
        0
102
RTVSPost2010PropOp40
 70
     1
102
RTVSPost2010Prop41ColorIndex
 90
       18
102
RTVSPost2010Prop41ColorRGB
 90
        0
102
RTVSPost2010PropOp41
 70
     1
102
RTVSPost2010Prop42
 90
       50
102
RTVSPost2010PropOp42
 70
     1
102
RTVSPost2010Prop43
 90
        3
102
RTVSPost2010PropOp43
 70
     1
102
RTVSPost2010Prop44ColorIndex
 90
        5
102
RTVSPost2010Prop44ColorRGB
 90
      255
102
RTVSPost2010PropOp44
 70
     1
102
RTVSPost2010Prop45
280
     0
102
RTVSPost2010PropOp45
 70
     1
102
RTVSPost2010Prop46
 90
       50
102
RTVSPost2010PropOp46
 70
     1
102
RTVSPost2010Prop47
 90
       50
102
RTVSPost2010PropOp47
 70
     1
102
RTVSPost2010Prop48
 90
       50
102
RTVSPost2010PropOp48
 70
     1
102
RTVSPost2010Prop49
280
     0
102
RTVSPost2010PropOp49
 70
     1
102
RTVSPost2010Prop50
 90
       50
102
RTVSPost2010PropOp50
 70
     1
102
RTVSPost2010Prop51ColorIndex
 90
      256
102
RTVSPost2010Prop51ColorRGB
 90
-16777216
102
RTVSPost2010PropOp51
 70
     0
102
RTVSPost2010Prop52
140
1.0
102
RTVSPost2010PropOp52
 70
     0
102
RTVSPost2010Prop53
 90
        2
102
RTVSPost2010PropOp53
 70
     1
102
RTVSPost2010Prop54
  1
strokes_ogs.tif
102
RTVSPost2010PropOp54
 70
     1
102
RTVSPost2010Prop55
280
     0
102
RTVSPost2010PropOp55
 70
     1
102
RTVSPost2010Prop56
140
1.0
102
RTVSPost2010PropOp56
 70
     1
102
RTVSPost2010Prop57
140
1.0
102
RTVSPost2010PropOp57
 70
     1
102
RTVSPropertyOp0
 70
     0
102
RTVSPropertyOp1
 70
     0
102
RTVSPropertyOp2
 70
     0
102
RTVSPropertyOp3
 70
     0
102
RTVSPropertyOp4
 70
     0
102
RTVSPropertyOp5
 70
     0
102
RTVSPropertyOp6
 70
     0
102
RTVSPropertyOp7
 70
     0
102
RTVSPropertyOp8
 70
     0
102
RTVSPropertyOp9
 70
     0
102
RTVSPropertyOp10
 70
     0
102
RTVSPropertyOp11
 70
     0
102
RTVSPropertyOp12
 70
     0
102
RTVSPropertyOp13
 70
     0
102
RTVSPropertyOp14
 70
     2
102
RTVSPropertyOp15
 70
     0
102
RTVSPropertyOp16
 70
     0
102
RTVSPropertyOp17
 70
     0
102
RTVSPropertyOp18
 70
     0
102
RTVSPropertyOp19
 70
     0
102
RTVSPropertyOp20
 70
     0
102
RTVSPropertyOp21
 70
     0
102
RTVSPropertyOp22
 70
     0
102
RTVSPropertyOp23
 70
     0
102
RTVSPropertyOp24
 70
     0
102
RTVSPropertyOp25
 70
     0
102
RTVSPropertyOp26
 70
     0
102
RTVSPropertyOp27
 70
     0
102
RTVSPropertyOp28
 70
     1
102
RTVSPropertyOp29
 70
     1
102
RTVSPropertyOp30
 70
     1
102
RTVSPropertyOp31
 70
     1
102
RTVSPropertyOp32
 70
     1
102
RTVSPropertyOp33
 70
     1
102
RTVSPropertyOp34
 70
     1
102
RTVSPropertyOp35
 70
     1
102
RTVSPropertyOp36
 70
     1
102
RTVSPropertyOp37
 70
     1
102
RTVSPropertyOp38
 70
     1
102
RTVSPropertyOp39
 70
     1
102
RTVSPropertyOp40
 70
     1
102
RTVSPropertyOp41
 70
     1
102
RTVSPropertyOp42
 70
     1
102
RTVSPropertyOp43
 70
     1
102
RTVSPropertyOp44
 70
     1
102
RTVSPropertyOp45
 70
     1
102
RTVSPropertyOp46
 70
     1
102
RTVSPropertyOp47
 70
     1
102
RTVSPropertyOp48
 70
     1
102
RTVSPropertyOp49
 70
     1
102
RTVSPropertyOp50
 70
     1
102
RTVSPropertyOp51
 70
     0
102
RTVSPropertyOp52
 70
     0
102
RTVSPropertyOp53
 70
     1
102
RTVSPropertyOp54
 70
     1
102
RTVSPropertyOp55
 70
     1
102
RTVSPropertyOp56
 70
     1
102
RTVSPropertyOp57
 70
     1
102
RTVSPropertyOp58
 70
     1
102
RTVSPropertyOp59
 70
     1
102
RTVSPropertyOp60
 70
     1
102
RTVSPropertyOp61
 70
     1
102
RTVSPropertyOp62
 70
     1
  0
XRECORD
  5
934C
102
{ACAD_REACTORS
330
934B
102
}
330
934B
100
AcDbXrecord
280
     1
102
RTVSPost2010Prop28
280
     0
102
RTVSPost2010PropOp28
 70
     1
102
RTVSPost2010Prop29
280
     1
102
RTVSPost2010PropOp29
 70
     1
102
RTVSPost2010Prop30
280
     1
102
RTVSPost2010PropOp30
 70
     1
102
RTVSPost2010Prop31
280
     0
102
RTVSPost2010PropOp31
 70
     1
102
RTVSPost2010Prop32
280
     0
102
RTVSPost2010PropOp32
 70
     1
102
RTVSPost2010Prop33
280
     0
102
RTVSPost2010PropOp33
 70
     1
102
RTVSPost2010Prop34
280
     0
102
RTVSPost2010PropOp34
 70
     1
102
RTVSPost2010Prop35
280
     0
102
RTVSPost2010PropOp35
 70
     1
102
RTVSPost2010Prop36
280
     0
102
RTVSPost2010PropOp36
 70
     1
102
RTVSPost2010Prop37
 90
       50
102
RTVSPost2010PropOp37
 70
     1
102
RTVSPost2010Prop38
140
0.0
102
RTVSPost2010PropOp38
 70
     1
102
RTVSPost2010Prop39
140
1.0
102
RTVSPost2010PropOp39
 70
     1
102
RTVSPost2010Prop40
 90
        0
102
RTVSPost2010PropOp40
 70
     1
102
RTVSPost2010Prop41ColorIndex
 90
       18
102
RTVSPost2010Prop41ColorRGB
 90
        0
102
RTVSPost2010PropOp41
 70
     1
102
RTVSPost2010Prop42
 90
       50
102
RTVSPost2010PropOp42
 70
     1
102
RTVSPost2010Prop43
 90
        3
102
RTVSPost2010PropOp43
 70
     1
102
RTVSPost2010Prop44ColorIndex
 90
        5
102
RTVSPost2010Prop44ColorRGB
 90
      255
102
RTVSPost2010PropOp44
 70
     1
102
RTVSPost2010Prop45
280
     0
102
RTVSPost2010PropOp45
 70
     1
102
RTVSPost2010Prop46
 90
       50
102
RTVSPost2010PropOp46
 70
     1
102
RTVSPost2010Prop47
 90
       50
102
RTVSPost2010PropOp47
 70
     1
102
RTVSPost2010Prop48
 90
       50
102
RTVSPost2010PropOp48
 70
     1
102
RTVSPost2010Prop49
280
     0
102
RTVSPost2010PropOp49
 70
     1
102
RTVSPost2010Prop50
 90
       50
102
RTVSPost2010PropOp50
 70
     1
102
RTVSPost2010Prop51ColorIndex
 90
      256
102
RTVSPost2010Prop51ColorRGB
 90
-16777216
102
RTVSPost2010PropOp51
 70
     0
102
RTVSPost2010Prop52
140
1.0
102
RTVSPost2010PropOp52
 70
     0
102
RTVSPost2010Prop53
 90
        2
102
RTVSPost2010PropOp53
 70
     1
102
RTVSPost2010Prop54
  1
strokes_ogs.tif
102
RTVSPost2010PropOp54
 70
     1
102
RTVSPost2010Prop55
280
     0
102
RTVSPost2010PropOp55
 70
     1
102
RTVSPost2010Prop56
140
1.0
102
RTVSPost2010PropOp56
 70
     1
102
RTVSPost2010Prop57
140
1.0
102
RTVSPost2010PropOp57
 70
     1
102
RTVSPropertyOp0
 70
     1
102
RTVSPropertyOp1
 70
     1
102
RTVSPropertyOp2
 70
     1
102
RTVSPropertyOp3
 70
     1
102
RTVSPropertyOp4
 70
     1
102
RTVSPropertyOp5
 70
     1
102
RTVSPropertyOp6
 70
     1
102
RTVSPropertyOp7
 70
     1
102
RTVSPropertyOp8
 70
     1
102
RTVSPropertyOp9
 70
     1
102
RTVSPropertyOp10
 70
     1
102
RTVSPropertyOp11
 70
     1
102
RTVSPropertyOp12
 70
     1
102
RTVSPropertyOp13
 70
     1
102
RTVSPropertyOp14
 70
     1
102
RTVSPropertyOp15
 70
     1
102
RTVSPropertyOp16
 70
     1
102
RTVSPropertyOp17
 70
     1
102
RTVSPropertyOp18
 70
     1
102
RTVSPropertyOp19
 70
     1
102
RTVSPropertyOp20
 70
     1
102
RTVSPropertyOp21
 70
     1
102
RTVSPropertyOp22
 70
     1
102
RTVSPropertyOp23
 70
     1
102
RTVSPropertyOp24
 70
     1
102
RTVSPropertyOp25
 70
     1
102
RTVSPropertyOp26
 70
     1
102
RTVSPropertyOp27
 70
     1
102
RTVSPropertyOp28
 70
     1
102
RTVSPropertyOp29
 70
     1
102
RTVSPropertyOp30
 70
     1
102
RTVSPropertyOp31
 70
     1
102
RTVSPropertyOp32
 70
     1
102
RTVSPropertyOp33
 70
     1
102
RTVSPropertyOp34
 70
     1
102
RTVSPropertyOp35
 70
     1
102
RTVSPropertyOp36
 70
     1
102
RTVSPropertyOp37
 70
     1
102
RTVSPropertyOp38
 70
     1
102
RTVSPropertyOp39
 70
     1
102
RTVSPropertyOp40
 70
     1
102
RTVSPropertyOp41
 70
     1
102
RTVSPropertyOp42
 70
     1
102
RTVSPropertyOp43
 70
     1
102
RTVSPropertyOp44
 70
     1
102
RTVSPropertyOp45
 70
     1
102
RTVSPropertyOp46
 70
     1
102
RTVSPropertyOp47
 70
     1
102
RTVSPropertyOp48
 70
     1
102
RTVSPropertyOp49
 70
     1
102
RTVSPropertyOp50
 70
     1
102
RTVSPropertyOp51
 70
     0
102
RTVSPropertyOp52
 70
     0
102
RTVSPropertyOp53
 70
     1
102
RTVSPropertyOp54
 70
     1
102
RTVSPropertyOp55
 70
     1
102
RTVSPropertyOp56
 70
     1
102
RTVSPropertyOp57
 70
     1
102
RTVSPropertyOp58
 70
     1
102
RTVSPropertyOp59
 70
     1
102
RTVSPropertyOp60
 70
     1
102
RTVSPropertyOp61
 70
     1
102
RTVSPropertyOp62
 70
     1
  0
XRECORD
  5
9330
102
{ACAD_REACTORS
330
932F
102
}
330
932F
100
AcDbXrecord
280
     1
102
RTVSPost2010Prop28
280
     0
102
RTVSPost2010PropOp28
 70
     1
102
RTVSPost2010Prop29
280
     1
102
RTVSPost2010PropOp29
 70
     1
102
RTVSPost2010Prop30
280
     1
102
RTVSPost2010PropOp30
 70
     1
102
RTVSPost2010Prop31
280
     0
102
RTVSPost2010PropOp31
 70
     1
102
RTVSPost2010Prop32
280
     0
102
RTVSPost2010PropOp32
 70
     1
102
RTVSPost2010Prop33
280
     0
102
RTVSPost2010PropOp33
 70
     1
102
RTVSPost2010Prop34
280
     0
102
RTVSPost2010PropOp34
 70
     1
102
RTVSPost2010Prop35
280
     0
102
RTVSPost2010PropOp35
 70
     1
102
RTVSPost2010Prop36
280
     0
102
RTVSPost2010PropOp36
 70
     1
102
RTVSPost2010Prop37
 90
       50
102
RTVSPost2010PropOp37
 70
     1
102
RTVSPost2010Prop38
140
0.0
102
RTVSPost2010PropOp38
 70
     1
102
RTVSPost2010Prop39
140
1.0
102
RTVSPost2010PropOp39
 70
     1
102
RTVSPost2010Prop40
 90
        0
102
RTVSPost2010PropOp40
 70
     1
102
RTVSPost2010Prop41ColorIndex
 90
       18
102
RTVSPost2010Prop41ColorRGB
 90
        0
102
RTVSPost2010PropOp41
 70
     1
102
RTVSPost2010Prop42
 90
       50
102
RTVSPost2010PropOp42
 70
     1
102
RTVSPost2010Prop43
 90
        3
102
RTVSPost2010PropOp43
 70
     1
102
RTVSPost2010Prop44ColorIndex
 90
        5
102
RTVSPost2010Prop44ColorRGB
 90
      255
102
RTVSPost2010PropOp44
 70
     1
102
RTVSPost2010Prop45
280
     0
102
RTVSPost2010PropOp45
 70
     1
102
RTVSPost2010Prop46
 90
       50
102
RTVSPost2010PropOp46
 70
     1
102
RTVSPost2010Prop47
 90
       50
102
RTVSPost2010PropOp47
 70
     1
102
RTVSPost2010Prop48
 90
       50
102
RTVSPost2010PropOp48
 70
     1
102
RTVSPost2010Prop49
280
     0
102
RTVSPost2010PropOp49
 70
     1
102
RTVSPost2010Prop50
 90
       50
102
RTVSPost2010PropOp50
 70
     1
102
RTVSPost2010Prop51ColorIndex
 90
      256
102
RTVSPost2010Prop51ColorRGB
 90
-16777216
102
RTVSPost2010PropOp51
 70
     0
102
RTVSPost2010Prop52
140
1.0
102
RTVSPost2010PropOp52
 70
     0
102
RTVSPost2010Prop53
 90
        2
102
RTVSPost2010PropOp53
 70
     1
102
RTVSPost2010Prop54
  1
strokes_ogs.tif
102
RTVSPost2010PropOp54
 70
     1
102
RTVSPost2010Prop55
280
     0
102
RTVSPost2010PropOp55
 70
     1
102
RTVSPost2010Prop56
140
1.0
102
RTVSPost2010PropOp56
 70
     1
102
RTVSPost2010Prop57
140
1.0
102
RTVSPost2010PropOp57
 70
     1
102
RTVSPropertyOp0
 70
     1
102
RTVSPropertyOp1
 70
     1
102
RTVSPropertyOp2
 70
     1
102
RTVSPropertyOp3
 70
     1
102
RTVSPropertyOp4
 70
     1
102
RTVSPropertyOp5
 70
     1
102
RTVSPropertyOp6
 70
     1
102
RTVSPropertyOp7
 70
     1
102
RTVSPropertyOp8
 70
     1
102
RTVSPropertyOp9
 70
     1
102
RTVSPropertyOp10
 70
     1
102
RTVSPropertyOp11
 70
     1
102
RTVSPropertyOp12
 70
     1
102
RTVSPropertyOp13
 70
     1
102
RTVSPropertyOp14
 70
     1
102
RTVSPropertyOp15
 70
     1
102
RTVSPropertyOp16
 70
     1
102
RTVSPropertyOp17
 70
     1
102
RTVSPropertyOp18
 70
     1
102
RTVSPropertyOp19
 70
     1
102
RTVSPropertyOp20
 70
     1
102
RTVSPropertyOp21
 70
     1
102
RTVSPropertyOp22
 70
     1
102
RTVSPropertyOp23
 70
     1
102
RTVSPropertyOp24
 70
     1
102
RTVSPropertyOp25
 70
     1
102
RTVSPropertyOp26
 70
     1
102
RTVSPropertyOp27
 70
     1
102
RTVSPropertyOp28
 70
     1
102
RTVSPropertyOp29
 70
     1
102
RTVSPropertyOp30
 70
     1
102
RTVSPropertyOp31
 70
     1
102
RTVSPropertyOp32
 70
     1
102
RTVSPropertyOp33
 70
     1
102
RTVSPropertyOp34
 70
     1
102
RTVSPropertyOp35
 70
     1
102
RTVSPropertyOp36
 70
     1
102
RTVSPropertyOp37
 70
     1
102
RTVSPropertyOp38
 70
     1
102
RTVSPropertyOp39
 70
     1
102
RTVSPropertyOp40
 70
     1
102
RTVSPropertyOp41
 70
     1
102
RTVSPropertyOp42
 70
     1
102
RTVSPropertyOp43
 70
     1
102
RTVSPropertyOp44
 70
     1
102
RTVSPropertyOp45
 70
     1
102
RTVSPropertyOp46
 70
     1
102
RTVSPropertyOp47
 70
     1
102
RTVSPropertyOp48
 70
     1
102
RTVSPropertyOp49
 70
     1
102
RTVSPropertyOp50
 70
     1
102
RTVSPropertyOp51
 70
     0
102
RTVSPropertyOp52
 70
     0
102
RTVSPropertyOp53
 70
     1
102
RTVSPropertyOp54
 70
     1
102
RTVSPropertyOp55
 70
     1
102
RTVSPropertyOp56
 70
     1
102
RTVSPropertyOp57
 70
     1
102
RTVSPropertyOp58
 70
     1
102
RTVSPropertyOp59
 70
     1
102
RTVSPropertyOp60
 70
     1
102
RTVSPropertyOp61
 70
     1
102
RTVSPropertyOp62
 70
     1
  0
XRECORD
  5
9332
102
{ACAD_REACTORS
330
9331
102
}
330
9331
100
AcDbXrecord
280
     1
102
RTVSPost2010Prop28
280
     0
102
RTVSPost2010PropOp28
 70
     1
102
RTVSPost2010Prop29
280
     1
102
RTVSPost2010PropOp29
 70
     1
102
RTVSPost2010Prop30
280
     1
102
RTVSPost2010PropOp30
 70
     1
102
RTVSPost2010Prop31
280
     0
102
RTVSPost2010PropOp31
 70
     1
102
RTVSPost2010Prop32
280
     0
102
RTVSPost2010PropOp32
 70
     1
102
RTVSPost2010Prop33
280
     0
102
RTVSPost2010PropOp33
 70
     1
102
RTVSPost2010Prop34
280
     0
102
RTVSPost2010PropOp34
 70
     1
102
RTVSPost2010Prop35
280
     0
102
RTVSPost2010PropOp35
 70
     1
102
RTVSPost2010Prop36
280
     0
102
RTVSPost2010PropOp36
 70
     1
102
RTVSPost2010Prop37
 90
       50
102
RTVSPost2010PropOp37
 70
     1
102
RTVSPost2010Prop38
140
0.0
102
RTVSPost2010PropOp38
 70
     1
102
RTVSPost2010Prop39
140
1.0
102
RTVSPost2010PropOp39
 70
     1
102
RTVSPost2010Prop40
 90
        0
102
RTVSPost2010PropOp40
 70
     1
102
RTVSPost2010Prop41ColorIndex
 90
       18
102
RTVSPost2010Prop41ColorRGB
 90
        0
102
RTVSPost2010PropOp41
 70
     1
102
RTVSPost2010Prop42
 90
       50
102
RTVSPost2010PropOp42
 70
     1
102
RTVSPost2010Prop43
 90
        3
102
RTVSPost2010PropOp43
 70
     1
102
RTVSPost2010Prop44ColorIndex
 90
        5
102
RTVSPost2010Prop44ColorRGB
 90
      255
102
RTVSPost2010PropOp44
 70
     1
102
RTVSPost2010Prop45
280
     0
102
RTVSPost2010PropOp45
 70
     1
102
RTVSPost2010Prop46
 90
       50
102
RTVSPost2010PropOp46
 70
     1
102
RTVSPost2010Prop47
 90
       50
102
RTVSPost2010PropOp47
 70
     1
102
RTVSPost2010Prop48
 90
       50
102
RTVSPost2010PropOp48
 70
     1
102
RTVSPost2010Prop49
280
     0
102
RTVSPost2010PropOp49
 70
     1
102
RTVSPost2010Prop50
 90
       50
102
RTVSPost2010PropOp50
 70
     1
102
RTVSPost2010Prop51ColorIndex
 90
      256
102
RTVSPost2010Prop51ColorRGB
 90
-16777216
102
RTVSPost2010PropOp51
 70
     0
102
RTVSPost2010Prop52
140
1.0
102
RTVSPost2010PropOp52
 70
     0
102
RTVSPost2010Prop53
 90
        2
102
RTVSPost2010PropOp53
 70
     1
102
RTVSPost2010Prop54
  1
strokes_ogs.tif
102
RTVSPost2010PropOp54
 70
     1
102
RTVSPost2010Prop55
280
     0
102
RTVSPost2010PropOp55
 70
     1
102
RTVSPost2010Prop56
140
1.0
102
RTVSPost2010PropOp56
 70
     1
102
RTVSPost2010Prop57
140
1.0
102
RTVSPost2010PropOp57
 70
     1
102
RTVSPropertyOp0
 70
     1
102
RTVSPropertyOp1
 70
     1
102
RTVSPropertyOp2
 70
     1
102
RTVSPropertyOp3
 70
     1
102
RTVSPropertyOp4
 70
     1
102
RTVSPropertyOp5
 70
     1
102
RTVSPropertyOp6
 70
     1
102
RTVSPropertyOp7
 70
     1
102
RTVSPropertyOp8
 70
     1
102
RTVSPropertyOp9
 70
     1
102
RTVSPropertyOp10
 70
     1
102
RTVSPropertyOp11
 70
     1
102
RTVSPropertyOp12
 70
     1
102
RTVSPropertyOp13
 70
     1
102
RTVSPropertyOp14
 70
     1
102
RTVSPropertyOp15
 70
     1
102
RTVSPropertyOp16
 70
     1
102
RTVSPropertyOp17
 70
     1
102
RTVSPropertyOp18
 70
     1
102
RTVSPropertyOp19
 70
     1
102
RTVSPropertyOp20
 70
     1
102
RTVSPropertyOp21
 70
     1
102
RTVSPropertyOp22
 70
     1
102
RTVSPropertyOp23
 70
     1
102
RTVSPropertyOp24
 70
     1
102
RTVSPropertyOp25
 70
     1
102
RTVSPropertyOp26
 70
     1
102
RTVSPropertyOp27
 70
     1
102
RTVSPropertyOp28
 70
     1
102
RTVSPropertyOp29
 70
     1
102
RTVSPropertyOp30
 70
     1
102
RTVSPropertyOp31
 70
     1
102
RTVSPropertyOp32
 70
     1
102
RTVSPropertyOp33
 70
     1
102
RTVSPropertyOp34
 70
     1
102
RTVSPropertyOp35
 70
     1
102
RTVSPropertyOp36
 70
     1
102
RTVSPropertyOp37
 70
     1
102
RTVSPropertyOp38
 70
     1
102
RTVSPropertyOp39
 70
     1
102
RTVSPropertyOp40
 70
     1
102
RTVSPropertyOp41
 70
     1
102
RTVSPropertyOp42
 70
     1
102
RTVSPropertyOp43
 70
     1
102
RTVSPropertyOp44
 70
     1
102
RTVSPropertyOp45
 70
     1
102
RTVSPropertyOp46
 70
     1
102
RTVSPropertyOp47
 70
     1
102
RTVSPropertyOp48
 70
     1
102
RTVSPropertyOp49
 70
     1
102
RTVSPropertyOp50
 70
     1
102
RTVSPropertyOp51
 70
     0
102
RTVSPropertyOp52
 70
     0
102
RTVSPropertyOp53
 70
     1
102
RTVSPropertyOp54
 70
     1
102
RTVSPropertyOp55
 70
     1
102
RTVSPropertyOp56
 70
     1
102
RTVSPropertyOp57
 70
     1
102
RTVSPropertyOp58
 70
     1
102
RTVSPropertyOp59
 70
     1
102
RTVSPropertyOp60
 70
     1
102
RTVSPropertyOp61
 70
     1
102
RTVSPropertyOp62
 70
     1
  0
XRECORD
  5
9334
102
{ACAD_REACTORS
330
9333
102
}
330
9333
100
AcDbXrecord
280
     1
102
RTVSPost2010Prop28
280
     0
102
RTVSPost2010PropOp28
 70
     1
102
RTVSPost2010Prop29
280
     1
102
RTVSPost2010PropOp29
 70
     1
102
RTVSPost2010Prop30
280
     1
102
RTVSPost2010PropOp30
 70
     1
102
RTVSPost2010Prop31
280
     0
102
RTVSPost2010PropOp31
 70
     1
102
RTVSPost2010Prop32
280
     0
102
RTVSPost2010PropOp32
 70
     1
102
RTVSPost2010Prop33
280
     0
102
RTVSPost2010PropOp33
 70
     1
102
RTVSPost2010Prop34
280
     0
102
RTVSPost2010PropOp34
 70
     1
102
RTVSPost2010Prop35
280
     0
102
RTVSPost2010PropOp35
 70
     1
102
RTVSPost2010Prop36
280
     0
102
RTVSPost2010PropOp36
 70
     1
102
RTVSPost2010Prop37
 90
       50
102
RTVSPost2010PropOp37
 70
     1
102
RTVSPost2010Prop38
140
0.0
102
RTVSPost2010PropOp38
 70
     1
102
RTVSPost2010Prop39
140
1.0
102
RTVSPost2010PropOp39
 70
     1
102
RTVSPost2010Prop40
 90
        0
102
RTVSPost2010PropOp40
 70
     1
102
RTVSPost2010Prop41ColorIndex
 90
       18
102
RTVSPost2010Prop41ColorRGB
 90
        0
102
RTVSPost2010PropOp41
 70
     1
102
RTVSPost2010Prop42
 90
       50
102
RTVSPost2010PropOp42
 70
     1
102
RTVSPost2010Prop43
 90
        3
102
RTVSPost2010PropOp43
 70
     1
102
RTVSPost2010Prop44ColorIndex
 90
        5
102
RTVSPost2010Prop44ColorRGB
 90
      255
102
RTVSPost2010PropOp44
 70
     1
102
RTVSPost2010Prop45
280
     0
102
RTVSPost2010PropOp45
 70
     1
102
RTVSPost2010Prop46
 90
       50
102
RTVSPost2010PropOp46
 70
     1
102
RTVSPost2010Prop47
 90
       50
102
RTVSPost2010PropOp47
 70
     1
102
RTVSPost2010Prop48
 90
       50
102
RTVSPost2010PropOp48
 70
     1
102
RTVSPost2010Prop49
280
     0
102
RTVSPost2010PropOp49
 70
     1
102
RTVSPost2010Prop50
 90
       50
102
RTVSPost2010PropOp50
 70
     1
102
RTVSPost2010Prop51ColorIndex
 90
      256
102
RTVSPost2010Prop51ColorRGB
 90
-16777216
102
RTVSPost2010PropOp51
 70
     0
102
RTVSPost2010Prop52
140
1.0
102
RTVSPost2010PropOp52
 70
     0
102
RTVSPost2010Prop53
 90
        2
102
RTVSPost2010PropOp53
 70
     1
102
RTVSPost2010Prop54
  1
strokes_ogs.tif
102
RTVSPost2010PropOp54
 70
     1
102
RTVSPost2010Prop55
280
     0
102
RTVSPost2010PropOp55
 70
     1
102
RTVSPost2010Prop56
140
1.0
102
RTVSPost2010PropOp56
 70
     1
102
RTVSPost2010Prop57
140
1.0
102
RTVSPost2010PropOp57
 70
     1
102
RTVSPropertyOp0
 70
     1
102
RTVSPropertyOp1
 70
     1
102
RTVSPropertyOp2
 70
     1
102
RTVSPropertyOp3
 70
     1
102
RTVSPropertyOp4
 70
     1
102
RTVSPropertyOp5
 70
     1
102
RTVSPropertyOp6
 70
     1
102
RTVSPropertyOp7
 70
     1
102
RTVSPropertyOp8
 70
     1
102
RTVSPropertyOp9
 70
     1
102
RTVSPropertyOp10
 70
     1
102
RTVSPropertyOp11
 70
     1
102
RTVSPropertyOp12
 70
     1
102
RTVSPropertyOp13
 70
     1
102
RTVSPropertyOp14
 70
     1
102
RTVSPropertyOp15
 70
     1
102
RTVSPropertyOp16
 70
     1
102
RTVSPropertyOp17
 70
     1
102
RTVSPropertyOp18
 70
     1
102
RTVSPropertyOp19
 70
     1
102
RTVSPropertyOp20
 70
     1
102
RTVSPropertyOp21
 70
     1
102
RTVSPropertyOp22
 70
     1
102
RTVSPropertyOp23
 70
     1
102
RTVSPropertyOp24
 70
     1
102
RTVSPropertyOp25
 70
     1
102
RTVSPropertyOp26
 70
     1
102
RTVSPropertyOp27
 70
     1
102
RTVSPropertyOp28
 70
     1
102
RTVSPropertyOp29
 70
     1
102
RTVSPropertyOp30
 70
     1
102
RTVSPropertyOp31
 70
     1
102
RTVSPropertyOp32
 70
     1
102
RTVSPropertyOp33
 70
     1
102
RTVSPropertyOp34
 70
     1
102
RTVSPropertyOp35
 70
     1
102
RTVSPropertyOp36
 70
     1
102
RTVSPropertyOp37
 70
     1
102
RTVSPropertyOp38
 70
     1
102
RTVSPropertyOp39
 70
     1
102
RTVSPropertyOp40
 70
     1
102
RTVSPropertyOp41
 70
     1
102
RTVSPropertyOp42
 70
     1
102
RTVSPropertyOp43
 70
     1
102
RTVSPropertyOp44
 70
     1
102
RTVSPropertyOp45
 70
     1
102
RTVSPropertyOp46
 70
     1
102
RTVSPropertyOp47
 70
     1
102
RTVSPropertyOp48
 70
     1
102
RTVSPropertyOp49
 70
     1
102
RTVSPropertyOp50
 70
     1
102
RTVSPropertyOp51
 70
     0
102
RTVSPropertyOp52
 70
     0
102
RTVSPropertyOp53
 70
     1
102
RTVSPropertyOp54
 70
     1
102
RTVSPropertyOp55
 70
     1
102
RTVSPropertyOp56
 70
     1
102
RTVSPropertyOp57
 70
     1
102
RTVSPropertyOp58
 70
     1
102
RTVSPropertyOp59
 70
     1
102
RTVSPropertyOp60
 70
     1
102
RTVSPropertyOp61
 70
     1
102
RTVSPropertyOp62
 70
     1
  0
XRECORD
  5
9336
102
{ACAD_REACTORS
330
9335
102
}
330
9335
100
AcDbXrecord
280
     1
102
RTVSPost2010Prop28
280
     0
102
RTVSPost2010PropOp28
 70
     1
102
RTVSPost2010Prop29
280
     1
102
RTVSPost2010PropOp29
 70
     1
102
RTVSPost2010Prop30
280
     1
102
RTVSPost2010PropOp30
 70
     1
102
RTVSPost2010Prop31
280
     0
102
RTVSPost2010PropOp31
 70
     1
102
RTVSPost2010Prop32
280
     0
102
RTVSPost2010PropOp32
 70
     1
102
RTVSPost2010Prop33
280
     0
102
RTVSPost2010PropOp33
 70
     1
102
RTVSPost2010Prop34
280
     0
102
RTVSPost2010PropOp34
 70
     1
102
RTVSPost2010Prop35
280
     0
102
RTVSPost2010PropOp35
 70
     1
102
RTVSPost2010Prop36
280
     0
102
RTVSPost2010PropOp36
 70
     1
102
RTVSPost2010Prop37
 90
       50
102
RTVSPost2010PropOp37
 70
     1
102
RTVSPost2010Prop38
140
0.0
102
RTVSPost2010PropOp38
 70
     1
102
RTVSPost2010Prop39
140
1.0
102
RTVSPost2010PropOp39
 70
     1
102
RTVSPost2010Prop40
 90
        0
102
RTVSPost2010PropOp40
 70
     1
102
RTVSPost2010Prop41ColorIndex
 90
       18
102
RTVSPost2010Prop41ColorRGB
 90
        0
102
RTVSPost2010PropOp41
 70
     1
102
RTVSPost2010Prop42
 90
       50
102
RTVSPost2010PropOp42
 70
     1
102
RTVSPost2010Prop43
 90
        3
102
RTVSPost2010PropOp43
 70
     1
102
RTVSPost2010Prop44ColorIndex
 90
        5
102
RTVSPost2010Prop44ColorRGB
 90
      255
102
RTVSPost2010PropOp44
 70
     1
102
RTVSPost2010Prop45
280
     0
102
RTVSPost2010PropOp45
 70
     1
102
RTVSPost2010Prop46
 90
       50
102
RTVSPost2010PropOp46
 70
     1
102
RTVSPost2010Prop47
 90
       50
102
RTVSPost2010PropOp47
 70
     1
102
RTVSPost2010Prop48
 90
       50
102
RTVSPost2010PropOp48
 70
     1
102
RTVSPost2010Prop49
280
     0
102
RTVSPost2010PropOp49
 70
     1
102
RTVSPost2010Prop50
 90
       50
102
RTVSPost2010PropOp50
 70
     1
102
RTVSPost2010Prop51ColorIndex
 90
      256
102
RTVSPost2010Prop51ColorRGB
 90
-16777216
102
RTVSPost2010PropOp51
 70
     0
102
RTVSPost2010Prop52
140
1.0
102
RTVSPost2010PropOp52
 70
     0
102
RTVSPost2010Prop53
 90
        2
102
RTVSPost2010PropOp53
 70
     1
102
RTVSPost2010Prop54
  1
strokes_ogs.tif
102
RTVSPost2010PropOp54
 70
     1
102
RTVSPost2010Prop55
280
     0
102
RTVSPost2010PropOp55
 70
     1
102
RTVSPost2010Prop56
140
1.0
102
RTVSPost2010PropOp56
 70
     1
102
RTVSPost2010Prop57
140
1.0
102
RTVSPost2010PropOp57
 70
     1
102
RTVSPropertyOp0
 70
     1
102
RTVSPropertyOp1
 70
     1
102
RTVSPropertyOp2
 70
     1
102
RTVSPropertyOp3
 70
     1
102
RTVSPropertyOp4
 70
     1
102
RTVSPropertyOp5
 70
     1
102
RTVSPropertyOp6
 70
     1
102
RTVSPropertyOp7
 70
     1
102
RTVSPropertyOp8
 70
     1
102
RTVSPropertyOp9
 70
     1
102
RTVSPropertyOp10
 70
     1
102
RTVSPropertyOp11
 70
     1
102
RTVSPropertyOp12
 70
     1
102
RTVSPropertyOp13
 70
     1
102
RTVSPropertyOp14
 70
     1
102
RTVSPropertyOp15
 70
     1
102
RTVSPropertyOp16
 70
     1
102
RTVSPropertyOp17
 70
     1
102
RTVSPropertyOp18
 70
     1
102
RTVSPropertyOp19
 70
     1
102
RTVSPropertyOp20
 70
     1
102
RTVSPropertyOp21
 70
     1
102
RTVSPropertyOp22
 70
     1
102
RTVSPropertyOp23
 70
     1
102
RTVSPropertyOp24
 70
     1
102
RTVSPropertyOp25
 70
     1
102
RTVSPropertyOp26
 70
     1
102
RTVSPropertyOp27
 70
     1
102
RTVSPropertyOp28
 70
     1
102
RTVSPropertyOp29
 70
     1
102
RTVSPropertyOp30
 70
     1
102
RTVSPropertyOp31
 70
     1
102
RTVSPropertyOp32
 70
     1
102
RTVSPropertyOp33
 70
     1
102
RTVSPropertyOp34
 70
     1
102
RTVSPropertyOp35
 70
     1
102
RTVSPropertyOp36
 70
     1
102
RTVSPropertyOp37
 70
     1
102
RTVSPropertyOp38
 70
     1
102
RTVSPropertyOp39
 70
     1
102
RTVSPropertyOp40
 70
     1
102
RTVSPropertyOp41
 70
     1
102
RTVSPropertyOp42
 70
     1
102
RTVSPropertyOp43
 70
     1
102
RTVSPropertyOp44
 70
     1
102
RTVSPropertyOp45
 70
     1
102
RTVSPropertyOp46
 70
     1
102
RTVSPropertyOp47
 70
     1
102
RTVSPropertyOp48
 70
     1
102
RTVSPropertyOp49
 70
     1
102
RTVSPropertyOp50
 70
     1
102
RTVSPropertyOp51
 70
     0
102
RTVSPropertyOp52
 70
     0
102
RTVSPropertyOp53
 70
     1
102
RTVSPropertyOp54
 70
     1
102
RTVSPropertyOp55
 70
     1
102
RTVSPropertyOp56
 70
     1
102
RTVSPropertyOp57
 70
     1
102
RTVSPropertyOp58
 70
     1
102
RTVSPropertyOp59
 70
     1
102
RTVSPropertyOp60
 70
     1
102
RTVSPropertyOp61
 70
     1
102
RTVSPropertyOp62
 70
     1
  0
XRECORD
  5
933E
102
{ACAD_REACTORS
330
933D
102
}
330
933D
100
AcDbXrecord
280
     1
102
RTVSPost2010Prop28
280
     0
102
RTVSPost2010PropOp28
 70
     1
102
RTVSPost2010Prop29
280
     1
102
RTVSPost2010PropOp29
 70
     1
102
RTVSPost2010Prop30
280
     1
102
RTVSPost2010PropOp30
 70
     1
102
RTVSPost2010Prop31
280
     0
102
RTVSPost2010PropOp31
 70
     1
102
RTVSPost2010Prop32
280
     0
102
RTVSPost2010PropOp32
 70
     1
102
RTVSPost2010Prop33
280
     0
102
RTVSPost2010PropOp33
 70
     1
102
RTVSPost2010Prop34
280
     0
102
RTVSPost2010PropOp34
 70
     1
102
RTVSPost2010Prop35
280
     0
102
RTVSPost2010PropOp35
 70
     1
102
RTVSPost2010Prop36
280
     0
102
RTVSPost2010PropOp36
 70
     1
102
RTVSPost2010Prop37
 90
       50
102
RTVSPost2010PropOp37
 70
     1
102
RTVSPost2010Prop38
140
0.0
102
RTVSPost2010PropOp38
 70
     1
102
RTVSPost2010Prop39
140
1.0
102
RTVSPost2010PropOp39
 70
     1
102
RTVSPost2010Prop40
 90
        0
102
RTVSPost2010PropOp40
 70
     1
102
RTVSPost2010Prop41ColorIndex
 90
       18
102
RTVSPost2010Prop41ColorRGB
 90
        0
102
RTVSPost2010PropOp41
 70
     1
102
RTVSPost2010Prop42
 90
       50
102
RTVSPost2010PropOp42
 70
     1
102
RTVSPost2010Prop43
 90
        3
102
RTVSPost2010PropOp43
 70
     1
102
RTVSPost2010Prop44ColorIndex
 90
        5
102
RTVSPost2010Prop44ColorRGB
 90
      255
102
RTVSPost2010PropOp44
 70
     1
102
RTVSPost2010Prop45
280
     0
102
RTVSPost2010PropOp45
 70
     1
102
RTVSPost2010Prop46
 90
       50
102
RTVSPost2010PropOp46
 70
     1
102
RTVSPost2010Prop47
 90
       50
102
RTVSPost2010PropOp47
 70
     1
102
RTVSPost2010Prop48
 90
       50
102
RTVSPost2010PropOp48
 70
     1
102
RTVSPost2010Prop49
280
     0
102
RTVSPost2010PropOp49
 70
     1
102
RTVSPost2010Prop50
 90
       50
102
RTVSPost2010PropOp50
 70
     1
102
RTVSPost2010Prop51ColorIndex
 90
      256
102
RTVSPost2010Prop51ColorRGB
 90
-16777216
102
RTVSPost2010PropOp51
 70
     0
102
RTVSPost2010Prop52
140
1.0
102
RTVSPost2010PropOp52
 70
     0
102
RTVSPost2010Prop53
 90
        2
102
RTVSPost2010PropOp53
 70
     1
102
RTVSPost2010Prop54
  1
strokes_ogs.tif
102
RTVSPost2010PropOp54
 70
     1
102
RTVSPost2010Prop55
280
     0
102
RTVSPost2010PropOp55
 70
     1
102
RTVSPost2010Prop56
140
1.0
102
RTVSPost2010PropOp56
 70
     1
102
RTVSPost2010Prop57
140
1.0
102
RTVSPost2010PropOp57
 70
     1
102
RTVSPropertyOp0
 70
     1
102
RTVSPropertyOp1
 70
     1
102
RTVSPropertyOp2
 70
     1
102
RTVSPropertyOp3
 70
     1
102
RTVSPropertyOp4
 70
     1
102
RTVSPropertyOp5
 70
     1
102
RTVSPropertyOp6
 70
     1
102
RTVSPropertyOp7
 70
     1
102
RTVSPropertyOp8
 70
     1
102
RTVSPropertyOp9
 70
     1
102
RTVSPropertyOp10
 70
     1
102
RTVSPropertyOp11
 70
     1
102
RTVSPropertyOp12
 70
     1
102
RTVSPropertyOp13
 70
     1
102
RTVSPropertyOp14
 70
     1
102
RTVSPropertyOp15
 70
     1
102
RTVSPropertyOp16
 70
     1
102
RTVSPropertyOp17
 70
     1
102
RTVSPropertyOp18
 70
     1
102
RTVSPropertyOp19
 70
     1
102
RTVSPropertyOp20
 70
     1
102
RTVSPropertyOp21
 70
     1
102
RTVSPropertyOp22
 70
     1
102
RTVSPropertyOp23
 70
     1
102
RTVSPropertyOp24
 70
     1
102
RTVSPropertyOp25
 70
     1
102
RTVSPropertyOp26
 70
     1
102
RTVSPropertyOp27
 70
     1
102
RTVSPropertyOp28
 70
     1
102
RTVSPropertyOp29
 70
     1
102
RTVSPropertyOp30
 70
     1
102
RTVSPropertyOp31
 70
     1
102
RTVSPropertyOp32
 70
     1
102
RTVSPropertyOp33
 70
     1
102
RTVSPropertyOp34
 70
     1
102
RTVSPropertyOp35
 70
     1
102
RTVSPropertyOp36
 70
     1
102
RTVSPropertyOp37
 70
     1
102
RTVSPropertyOp38
 70
     1
102
RTVSPropertyOp39
 70
     1
102
RTVSPropertyOp40
 70
     1
102
RTVSPropertyOp41
 70
     1
102
RTVSPropertyOp42
 70
     1
102
RTVSPropertyOp43
 70
     1
102
RTVSPropertyOp44
 70
     1
102
RTVSPropertyOp45
 70
     1
102
RTVSPropertyOp46
 70
     1
102
RTVSPropertyOp47
 70
     1
102
RTVSPropertyOp48
 70
     1
102
RTVSPropertyOp49
 70
     1
102
RTVSPropertyOp50
 70
     1
102
RTVSPropertyOp51
 70
     0
102
RTVSPropertyOp52
 70
     0
102
RTVSPropertyOp53
 70
     1
102
RTVSPropertyOp54
 70
     1
102
RTVSPropertyOp55
 70
     1
102
RTVSPropertyOp56
 70
     1
102
RTVSPropertyOp57
 70
     1
102
RTVSPropertyOp58
 70
     1
102
RTVSPropertyOp59
 70
     1
102
RTVSPropertyOp60
 70
     1
102
RTVSPropertyOp61
 70
     1
102
RTVSPropertyOp62
 70
     1
  0
XRECORD
  5
9352
102
{ACAD_REACTORS
330
9351
102
}
330
9351
100
AcDbXrecord
280
     1
102
RTVSPost2010Prop28
280
     0
102
RTVSPost2010PropOp28
 70
     1
102
RTVSPost2010Prop29
280
     1
102
RTVSPost2010PropOp29
 70
     1
102
RTVSPost2010Prop30
280
     1
102
RTVSPost2010PropOp30
 70
     1
102
RTVSPost2010Prop31
280
     0
102
RTVSPost2010PropOp31
 70
     1
102
RTVSPost2010Prop32
280
     0
102
RTVSPost2010PropOp32
 70
     1
102
RTVSPost2010Prop33
280
     0
102
RTVSPost2010PropOp33
 70
     1
102
RTVSPost2010Prop34
280
     0
102
RTVSPost2010PropOp34
 70
     1
102
RTVSPost2010Prop35
280
     0
102
RTVSPost2010PropOp35
 70
     1
102
RTVSPost2010Prop36
280
     0
102
RTVSPost2010PropOp36
 70
     1
102
RTVSPost2010Prop37
 90
       50
102
RTVSPost2010PropOp37
 70
     1
102
RTVSPost2010Prop38
140
0.0
102
RTVSPost2010PropOp38
 70
     1
102
RTVSPost2010Prop39
140
1.0
102
RTVSPost2010PropOp39
 70
     1
102
RTVSPost2010Prop40
 90
        0
102
RTVSPost2010PropOp40
 70
     1
102
RTVSPost2010Prop41ColorIndex
 90
       18
102
RTVSPost2010Prop41ColorRGB
 90
        0
102
RTVSPost2010PropOp41
 70
     1
102
RTVSPost2010Prop42
 90
       50
102
RTVSPost2010PropOp42
 70
     1
102
RTVSPost2010Prop43
 90
        3
102
RTVSPost2010PropOp43
 70
     1
102
RTVSPost2010Prop44ColorIndex
 90
        5
102
RTVSPost2010Prop44ColorRGB
 90
      255
102
RTVSPost2010PropOp44
 70
     1
102
RTVSPost2010Prop45
280
     0
102
RTVSPost2010PropOp45
 70
     1
102
RTVSPost2010Prop46
 90
       50
102
RTVSPost2010PropOp46
 70
     1
102
RTVSPost2010Prop47
 90
       50
102
RTVSPost2010PropOp47
 70
     1
102
RTVSPost2010Prop48
 90
       50
102
RTVSPost2010PropOp48
 70
     1
102
RTVSPost2010Prop49
280
     0
102
RTVSPost2010PropOp49
 70
     1
102
RTVSPost2010Prop50
 90
       50
102
RTVSPost2010PropOp50
 70
     1
102
RTVSPost2010Prop51ColorIndex
 90
      256
102
RTVSPost2010Prop51ColorRGB
 90
-16777216
102
RTVSPost2010PropOp51
 70
     0
102
RTVSPost2010Prop52
140
1.0
102
RTVSPost2010PropOp52
 70
     0
102
RTVSPost2010Prop53
 90
        2
102
RTVSPost2010PropOp53
 70
     1
102
RTVSPost2010Prop54
  1
strokes_ogs.tif
102
RTVSPost2010PropOp54
 70
     1
102
RTVSPost2010Prop55
280
     0
102
RTVSPost2010PropOp55
 70
     1
102
RTVSPost2010Prop56
140
1.0
102
RTVSPost2010PropOp56
 70
     1
102
RTVSPost2010Prop57
140
1.0
102
RTVSPost2010PropOp57
 70
     1
102
RTVSPropertyOp0
 70
     0
102
RTVSPropertyOp1
 70
     0
102
RTVSPropertyOp2
 70
     0
102
RTVSPropertyOp3
 70
     0
102
RTVSPropertyOp4
 70
     0
102
RTVSPropertyOp5
 70
     0
102
RTVSPropertyOp6
 70
     0
102
RTVSPropertyOp7
 70
     0
102
RTVSPropertyOp8
 70
     0
102
RTVSPropertyOp9
 70
     0
102
RTVSPropertyOp10
 70
     0
102
RTVSPropertyOp11
 70
     0
102
RTVSPropertyOp12
 70
     0
102
RTVSPropertyOp13
 70
     0
102
RTVSPropertyOp14
 70
     2
102
RTVSPropertyOp15
 70
     0
102
RTVSPropertyOp16
 70
     0
102
RTVSPropertyOp17
 70
     0
102
RTVSPropertyOp18
 70
     0
102
RTVSPropertyOp19
 70
     0
102
RTVSPropertyOp20
 70
     0
102
RTVSPropertyOp21
 70
     0
102
RTVSPropertyOp22
 70
     0
102
RTVSPropertyOp23
 70
     0
102
RTVSPropertyOp24
 70
     0
102
RTVSPropertyOp25
 70
     0
102
RTVSPropertyOp26
 70
     0
102
RTVSPropertyOp27
 70
     0
102
RTVSPropertyOp28
 70
     1
102
RTVSPropertyOp29
 70
     1
102
RTVSPropertyOp30
 70
     1
102
RTVSPropertyOp31
 70
     1
102
RTVSPropertyOp32
 70
     1
102
RTVSPropertyOp33
 70
     1
102
RTVSPropertyOp34
 70
     1
102
RTVSPropertyOp35
 70
     1
102
RTVSPropertyOp36
 70
     1
102
RTVSPropertyOp37
 70
     1
102
RTVSPropertyOp38
 70
     1
102
RTVSPropertyOp39
 70
     1
102
RTVSPropertyOp40
 70
     1
102
RTVSPropertyOp41
 70
     1
102
RTVSPropertyOp42
 70
     1
102
RTVSPropertyOp43
 70
     1
102
RTVSPropertyOp44
 70
     1
102
RTVSPropertyOp45
 70
     1
102
RTVSPropertyOp46
 70
     1
102
RTVSPropertyOp47
 70
     1
102
RTVSPropertyOp48
 70
     1
102
RTVSPropertyOp49
 70
     1
102
RTVSPropertyOp50
 70
     1
102
RTVSPropertyOp51
 70
     0
102
RTVSPropertyOp52
 70
     0
102
RTVSPropertyOp53
 70
     1
102
RTVSPropertyOp54
 70
     1
102
RTVSPropertyOp55
 70
     1
102
RTVSPropertyOp56
 70
     1
102
RTVSPropertyOp57
 70
     1
102
RTVSPropertyOp58
 70
     1
102
RTVSPropertyOp59
 70
     1
102
RTVSPropertyOp60
 70
     1
102
RTVSPropertyOp61
 70
     1
102
RTVSPropertyOp62
 70
     1
  0
XRECORD
  5
934A
102
{ACAD_REACTORS
330
9349
102
}
330
9349
100
AcDbXrecord
280
     1
102
RTVSPost2010Prop28
280
     0
102
RTVSPost2010PropOp28
 70
     1
102
RTVSPost2010Prop29
280
     1
102
RTVSPost2010PropOp29
 70
     1
102
RTVSPost2010Prop30
280
     1
102
RTVSPost2010PropOp30
 70
     1
102
RTVSPost2010Prop31
280
     0
102
RTVSPost2010PropOp31
 70
     1
102
RTVSPost2010Prop32
280
     0
102
RTVSPost2010PropOp32
 70
     1
102
RTVSPost2010Prop33
280
     0
102
RTVSPost2010PropOp33
 70
     1
102
RTVSPost2010Prop34
280
     0
102
RTVSPost2010PropOp34
 70
     1
102
RTVSPost2010Prop35
280
     0
102
RTVSPost2010PropOp35
 70
     1
102
RTVSPost2010Prop36
280
     0
102
RTVSPost2010PropOp36
 70
     1
102
RTVSPost2010Prop37
 90
       50
102
RTVSPost2010PropOp37
 70
     1
102
RTVSPost2010Prop38
140
0.0
102
RTVSPost2010PropOp38
 70
     1
102
RTVSPost2010Prop39
140
1.0
102
RTVSPost2010PropOp39
 70
     1
102
RTVSPost2010Prop40
 90
        0
102
RTVSPost2010PropOp40
 70
     1
102
RTVSPost2010Prop41ColorIndex
 90
       18
102
RTVSPost2010Prop41ColorRGB
 90
        0
102
RTVSPost2010PropOp41
 70
     1
102
RTVSPost2010Prop42
 90
       50
102
RTVSPost2010PropOp42
 70
     1
102
RTVSPost2010Prop43
 90
        3
102
RTVSPost2010PropOp43
 70
     1
102
RTVSPost2010Prop44ColorIndex
 90
        5
102
RTVSPost2010Prop44ColorRGB
 90
      255
102
RTVSPost2010PropOp44
 70
     1
102
RTVSPost2010Prop45
280
     0
102
RTVSPost2010PropOp45
 70
     1
102
RTVSPost2010Prop46
 90
       50
102
RTVSPost2010PropOp46
 70
     1
102
RTVSPost2010Prop47
 90
       50
102
RTVSPost2010PropOp47
 70
     1
102
RTVSPost2010Prop48
 90
       50
102
RTVSPost2010PropOp48
 70
     1
102
RTVSPost2010Prop49
280
     0
102
RTVSPost2010PropOp49
 70
     1
102
RTVSPost2010Prop50
 90
       50
102
RTVSPost2010PropOp50
 70
     1
102
RTVSPost2010Prop51ColorIndex
 90
      256
102
RTVSPost2010Prop51ColorRGB
 90
-16777216
102
RTVSPost2010PropOp51
 70
     0
102
RTVSPost2010Prop52
140
1.0
102
RTVSPost2010PropOp52
 70
     0
102
RTVSPost2010Prop53
 90
        2
102
RTVSPost2010PropOp53
 70
     1
102
RTVSPost2010Prop54
  1
strokes_ogs.tif
102
RTVSPost2010PropOp54
 70
     1
102
RTVSPost2010Prop55
280
     0
102
RTVSPost2010PropOp55
 70
     1
102
RTVSPost2010Prop56
140
1.0
102
RTVSPost2010PropOp56
 70
     1
102
RTVSPost2010Prop57
140
1.0
102
RTVSPost2010PropOp57
 70
     1
102
RTVSPropertyOp0
 70
     1
102
RTVSPropertyOp1
 70
     1
102
RTVSPropertyOp2
 70
     1
102
RTVSPropertyOp3
 70
     1
102
RTVSPropertyOp4
 70
     1
102
RTVSPropertyOp5
 70
     1
102
RTVSPropertyOp6
 70
     1
102
RTVSPropertyOp7
 70
     1
102
RTVSPropertyOp8
 70
     1
102
RTVSPropertyOp9
 70
     1
102
RTVSPropertyOp10
 70
     1
102
RTVSPropertyOp11
 70
     1
102
RTVSPropertyOp12
 70
     1
102
RTVSPropertyOp13
 70
     1
102
RTVSPropertyOp14
 70
     1
102
RTVSPropertyOp15
 70
     1
102
RTVSPropertyOp16
 70
     1
102
RTVSPropertyOp17
 70
     1
102
RTVSPropertyOp18
 70
     1
102
RTVSPropertyOp19
 70
     1
102
RTVSPropertyOp20
 70
     1
102
RTVSPropertyOp21
 70
     1
102
RTVSPropertyOp22
 70
     1
102
RTVSPropertyOp23
 70
     1
102
RTVSPropertyOp24
 70
     1
102
RTVSPropertyOp25
 70
     1
102
RTVSPropertyOp26
 70
     1
102
RTVSPropertyOp27
 70
     1
102
RTVSPropertyOp28
 70
     1
102
RTVSPropertyOp29
 70
     1
102
RTVSPropertyOp30
 70
     1
102
RTVSPropertyOp31
 70
     1
102
RTVSPropertyOp32
 70
     1
102
RTVSPropertyOp33
 70
     1
102
RTVSPropertyOp34
 70
     1
102
RTVSPropertyOp35
 70
     1
102
RTVSPropertyOp36
 70
     1
102
RTVSPropertyOp37
 70
     1
102
RTVSPropertyOp38
 70
     1
102
RTVSPropertyOp39
 70
     1
102
RTVSPropertyOp40
 70
     1
102
RTVSPropertyOp41
 70
     1
102
RTVSPropertyOp42
 70
     1
102
RTVSPropertyOp43
 70
     1
102
RTVSPropertyOp44
 70
     1
102
RTVSPropertyOp45
 70
     1
102
RTVSPropertyOp46
 70
     1
102
RTVSPropertyOp47
 70
     1
102
RTVSPropertyOp48
 70
     1
102
RTVSPropertyOp49
 70
     1
102
RTVSPropertyOp50
 70
     1
102
RTVSPropertyOp51
 70
     0
102
RTVSPropertyOp52
 70
     0
102
RTVSPropertyOp53
 70
     1
102
RTVSPropertyOp54
 70
     1
102
RTVSPropertyOp55
 70
     1
102
RTVSPropertyOp56
 70
     1
102
RTVSPropertyOp57
 70
     1
102
RTVSPropertyOp58
 70
     1
102
RTVSPropertyOp59
 70
     1
102
RTVSPropertyOp60
 70
     1
102
RTVSPropertyOp61
 70
     1
102
RTVSPropertyOp62
 70
     1
  0
XRECORD
  5
9354
102
{ACAD_REACTORS
330
9353
102
}
330
9353
100
AcDbXrecord
280
     1
102
RTVSPost2010Prop28
280
     0
102
RTVSPost2010PropOp28
 70
     1
102
RTVSPost2010Prop29
280
     1
102
RTVSPost2010PropOp29
 70
     1
102
RTVSPost2010Prop30
280
     1
102
RTVSPost2010PropOp30
 70
     1
102
RTVSPost2010Prop31
280
     0
102
RTVSPost2010PropOp31
 70
     1
102
RTVSPost2010Prop32
280
     0
102
RTVSPost2010PropOp32
 70
     1
102
RTVSPost2010Prop33
280
     0
102
RTVSPost2010PropOp33
 70
     1
102
RTVSPost2010Prop34
280
     0
102
RTVSPost2010PropOp34
 70
     1
102
RTVSPost2010Prop35
280
     0
102
RTVSPost2010PropOp35
 70
     1
102
RTVSPost2010Prop36
280
     0
102
RTVSPost2010PropOp36
 70
     1
102
RTVSPost2010Prop37
 90
       50
102
RTVSPost2010PropOp37
 70
     1
102
RTVSPost2010Prop38
140
0.0
102
RTVSPost2010PropOp38
 70
     1
102
RTVSPost2010Prop39
140
1.0
102
RTVSPost2010PropOp39
 70
     1
102
RTVSPost2010Prop40
 90
        0
102
RTVSPost2010PropOp40
 70
     1
102
RTVSPost2010Prop41ColorIndex
 90
       18
102
RTVSPost2010Prop41ColorRGB
 90
        0
102
RTVSPost2010PropOp41
 70
     1
102
RTVSPost2010Prop42
 90
       50
102
RTVSPost2010PropOp42
 70
     1
102
RTVSPost2010Prop43
 90
        3
102
RTVSPost2010PropOp43
 70
     1
102
RTVSPost2010Prop44ColorIndex
 90
        5
102
RTVSPost2010Prop44ColorRGB
 90
      255
102
RTVSPost2010PropOp44
 70
     1
102
RTVSPost2010Prop45
280
     0
102
RTVSPost2010PropOp45
 70
     1
102
RTVSPost2010Prop46
 90
       50
102
RTVSPost2010PropOp46
 70
     1
102
RTVSPost2010Prop47
 90
       50
102
RTVSPost2010PropOp47
 70
     1
102
RTVSPost2010Prop48
 90
       50
102
RTVSPost2010PropOp48
 70
     1
102
RTVSPost2010Prop49
280
     0
102
RTVSPost2010PropOp49
 70
     1
102
RTVSPost2010Prop50
 90
       50
102
RTVSPost2010PropOp50
 70
     1
102
RTVSPost2010Prop51ColorIndex
 90
      256
102
RTVSPost2010Prop51ColorRGB
 90
-16777216
102
RTVSPost2010PropOp51
 70
     0
102
RTVSPost2010Prop52
140
1.0
102
RTVSPost2010PropOp52
 70
     0
102
RTVSPost2010Prop53
 90
        2
102
RTVSPost2010PropOp53
 70
     1
102
RTVSPost2010Prop54
  1
strokes_ogs.tif
102
RTVSPost2010PropOp54
 70
     1
102
RTVSPost2010Prop55
280
     0
102
RTVSPost2010PropOp55
 70
     1
102
RTVSPost2010Prop56
140
1.0
102
RTVSPost2010PropOp56
 70
     1
102
RTVSPost2010Prop57
140
1.0
102
RTVSPost2010PropOp57
 70
     1
102
RTVSPropertyOp0
 70
     0
102
RTVSPropertyOp1
 70
     0
102
RTVSPropertyOp2
 70
     0
102
RTVSPropertyOp3
 70
     0
102
RTVSPropertyOp4
 70
     0
102
RTVSPropertyOp5
 70
     0
102
RTVSPropertyOp6
 70
     0
102
RTVSPropertyOp7
 70
     0
102
RTVSPropertyOp8
 70
     0
102
RTVSPropertyOp9
 70
     0
102
RTVSPropertyOp10
 70
     0
102
RTVSPropertyOp11
 70
     0
102
RTVSPropertyOp12
 70
     0
102
RTVSPropertyOp13
 70
     0
102
RTVSPropertyOp14
 70
     2
102
RTVSPropertyOp15
 70
     0
102
RTVSPropertyOp16
 70
     0
102
RTVSPropertyOp17
 70
     0
102
RTVSPropertyOp18
 70
     0
102
RTVSPropertyOp19
 70
     0
102
RTVSPropertyOp20
 70
     0
102
RTVSPropertyOp21
 70
     0
102
RTVSPropertyOp22
 70
     0
102
RTVSPropertyOp23
 70
     0
102
RTVSPropertyOp24
 70
     0
102
RTVSPropertyOp25
 70
     0
102
RTVSPropertyOp26
 70
     0
102
RTVSPropertyOp27
 70
     0
102
RTVSPropertyOp28
 70
     1
102
RTVSPropertyOp29
 70
     1
102
RTVSPropertyOp30
 70
     1
102
RTVSPropertyOp31
 70
     1
102
RTVSPropertyOp32
 70
     1
102
RTVSPropertyOp33
 70
     1
102
RTVSPropertyOp34
 70
     1
102
RTVSPropertyOp35
 70
     1
102
RTVSPropertyOp36
 70
     1
102
RTVSPropertyOp37
 70
     1
102
RTVSPropertyOp38
 70
     1
102
RTVSPropertyOp39
 70
     1
102
RTVSPropertyOp40
 70
     1
102
RTVSPropertyOp41
 70
     1
102
RTVSPropertyOp42
 70
     1
102
RTVSPropertyOp43
 70
     1
102
RTVSPropertyOp44
 70
     1
102
RTVSPropertyOp45
 70
     1
102
RTVSPropertyOp46
 70
     1
102
RTVSPropertyOp47
 70
     1
102
RTVSPropertyOp48
 70
     1
102
RTVSPropertyOp49
 70
     1
102
RTVSPropertyOp50
 70
     1
102
RTVSPropertyOp51
 70
     0
102
RTVSPropertyOp52
 70
     0
102
RTVSPropertyOp53
 70
     1
102
RTVSPropertyOp54
 70
     1
102
RTVSPropertyOp55
 70
     1
102
RTVSPropertyOp56
 70
     1
102
RTVSPropertyOp57
 70
     1
102
RTVSPropertyOp58
 70
     1
102
RTVSPropertyOp59
 70
     1
102
RTVSPropertyOp60
 70
     1
102
RTVSPropertyOp61
 70
     1
102
RTVSPropertyOp62
 70
     1
  0
XRECORD
  5
9342
102
{ACAD_REACTORS
330
9341
102
}
330
9341
100
AcDbXrecord
280
     1
102
RTVSPost2010Prop28
280
     0
102
RTVSPost2010PropOp28
 70
     1
102
RTVSPost2010Prop29
280
     1
102
RTVSPost2010PropOp29
 70
     1
102
RTVSPost2010Prop30
280
     1
102
RTVSPost2010PropOp30
 70
     1
102
RTVSPost2010Prop31
280
     0
102
RTVSPost2010PropOp31
 70
     1
102
RTVSPost2010Prop32
280
     0
102
RTVSPost2010PropOp32
 70
     1
102
RTVSPost2010Prop33
280
     0
102
RTVSPost2010PropOp33
 70
     1
102
RTVSPost2010Prop34
280
     0
102
RTVSPost2010PropOp34
 70
     1
102
RTVSPost2010Prop35
280
     0
102
RTVSPost2010PropOp35
 70
     1
102
RTVSPost2010Prop36
280
     0
102
RTVSPost2010PropOp36
 70
     1
102
RTVSPost2010Prop37
 90
       50
102
RTVSPost2010PropOp37
 70
     1
102
RTVSPost2010Prop38
140
0.0
102
RTVSPost2010PropOp38
 70
     1
102
RTVSPost2010Prop39
140
1.0
102
RTVSPost2010PropOp39
 70
     1
102
RTVSPost2010Prop40
 90
        0
102
RTVSPost2010PropOp40
 70
     1
102
RTVSPost2010Prop41ColorIndex
 90
       18
102
RTVSPost2010Prop41ColorRGB
 90
        0
102
RTVSPost2010PropOp41
 70
     1
102
RTVSPost2010Prop42
 90
       50
102
RTVSPost2010PropOp42
 70
     1
102
RTVSPost2010Prop43
 90
        3
102
RTVSPost2010PropOp43
 70
     1
102
RTVSPost2010Prop44ColorIndex
 90
        5
102
RTVSPost2010Prop44ColorRGB
 90
      255
102
RTVSPost2010PropOp44
 70
     1
102
RTVSPost2010Prop45
280
     0
102
RTVSPost2010PropOp45
 70
     1
102
RTVSPost2010Prop46
 90
       50
102
RTVSPost2010PropOp46
 70
     1
102
RTVSPost2010Prop47
 90
       50
102
RTVSPost2010PropOp47
 70
     1
102
RTVSPost2010Prop48
 90
       50
102
RTVSPost2010PropOp48
 70
     1
102
RTVSPost2010Prop49
280
     0
102
RTVSPost2010PropOp49
 70
     1
102
RTVSPost2010Prop50
 90
       50
102
RTVSPost2010PropOp50
 70
     1
102
RTVSPost2010Prop51ColorIndex
 90
      256
102
RTVSPost2010Prop51ColorRGB
 90
-16777216
102
RTVSPost2010PropOp51
 70
     0
102
RTVSPost2010Prop52
140
1.0
102
RTVSPost2010PropOp52
 70
     0
102
RTVSPost2010Prop53
 90
        2
102
RTVSPost2010PropOp53
 70
     1
102
RTVSPost2010Prop54
  1
strokes_ogs.tif
102
RTVSPost2010PropOp54
 70
     1
102
RTVSPost2010Prop55
280
     0
102
RTVSPost2010PropOp55
 70
     1
102
RTVSPost2010Prop56
140
1.0
102
RTVSPost2010PropOp56
 70
     1
102
RTVSPost2010Prop57
140
1.0
102
RTVSPost2010PropOp57
 70
     1
102
RTVSPropertyOp0
 70
     1
102
RTVSPropertyOp1
 70
     1
102
RTVSPropertyOp2
 70
     1
102
RTVSPropertyOp3
 70
     1
102
RTVSPropertyOp4
 70
     1
102
RTVSPropertyOp5
 70
     1
102
RTVSPropertyOp6
 70
     1
102
RTVSPropertyOp7
 70
     1
102
RTVSPropertyOp8
 70
     1
102
RTVSPropertyOp9
 70
     1
102
RTVSPropertyOp10
 70
     1
102
RTVSPropertyOp11
 70
     1
102
RTVSPropertyOp12
 70
     1
102
RTVSPropertyOp13
 70
     1
102
RTVSPropertyOp14
 70
     1
102
RTVSPropertyOp15
 70
     1
102
RTVSPropertyOp16
 70
     1
102
RTVSPropertyOp17
 70
     1
102
RTVSPropertyOp18
 70
     1
102
RTVSPropertyOp19
 70
     1
102
RTVSPropertyOp20
 70
     1
102
RTVSPropertyOp21
 70
     1
102
RTVSPropertyOp22
 70
     1
102
RTVSPropertyOp23
 70
     1
102
RTVSPropertyOp24
 70
     1
102
RTVSPropertyOp25
 70
     1
102
RTVSPropertyOp26
 70
     1
102
RTVSPropertyOp27
 70
     1
102
RTVSPropertyOp28
 70
     1
102
RTVSPropertyOp29
 70
     1
102
RTVSPropertyOp30
 70
     1
102
RTVSPropertyOp31
 70
     1
102
RTVSPropertyOp32
 70
     1
102
RTVSPropertyOp33
 70
     1
102
RTVSPropertyOp34
 70
     1
102
RTVSPropertyOp35
 70
     1
102
RTVSPropertyOp36
 70
     1
102
RTVSPropertyOp37
 70
     1
102
RTVSPropertyOp38
 70
     1
102
RTVSPropertyOp39
 70
     1
102
RTVSPropertyOp40
 70
     1
102
RTVSPropertyOp41
 70
     1
102
RTVSPropertyOp42
 70
     1
102
RTVSPropertyOp43
 70
     1
102
RTVSPropertyOp44
 70
     1
102
RTVSPropertyOp45
 70
     1
102
RTVSPropertyOp46
 70
     1
102
RTVSPropertyOp47
 70
     1
102
RTVSPropertyOp48
 70
     1
102
RTVSPropertyOp49
 70
     1
102
RTVSPropertyOp50
 70
     1
102
RTVSPropertyOp51
 70
     0
102
RTVSPropertyOp52
 70
     0
102
RTVSPropertyOp53
 70
     1
102
RTVSPropertyOp54
 70
     1
102
RTVSPropertyOp55
 70
     1
102
RTVSPropertyOp56
 70
     1
102
RTVSPropertyOp57
 70
     1
102
RTVSPropertyOp58
 70
     1
102
RTVSPropertyOp59
 70
     1
102
RTVSPropertyOp60
 70
     1
102
RTVSPropertyOp61
 70
     1
102
RTVSPropertyOp62
 70
     1
  0
XRECORD
  5
9360
102
{ACAD_REACTORS
330
935F
102
}
330
935F
100
AcDbXrecord
280
     1
102
RTVSPost2010Prop28
280
     0
102
RTVSPost2010PropOp28
 70
     1
102
RTVSPost2010Prop29
280
     1
102
RTVSPost2010PropOp29
 70
     1
102
RTVSPost2010Prop30
280
     1
102
RTVSPost2010PropOp30
 70
     1
102
RTVSPost2010Prop31
280
     0
102
RTVSPost2010PropOp31
 70
     1
102
RTVSPost2010Prop32
280
     0
102
RTVSPost2010PropOp32
 70
     1
102
RTVSPost2010Prop33
280
     0
102
RTVSPost2010PropOp33
 70
     1
102
RTVSPost2010Prop34
280
     0
102
RTVSPost2010PropOp34
 70
     1
102
RTVSPost2010Prop35
280
     0
102
RTVSPost2010PropOp35
 70
     1
102
RTVSPost2010Prop36
280
     0
102
RTVSPost2010PropOp36
 70
     1
102
RTVSPost2010Prop37
 90
       50
102
RTVSPost2010PropOp37
 70
     1
102
RTVSPost2010Prop38
140
0.0
102
RTVSPost2010PropOp38
 70
     1
102
RTVSPost2010Prop39
140
1.0
102
RTVSPost2010PropOp39
 70
     1
102
RTVSPost2010Prop40
 90
        0
102
RTVSPost2010PropOp40
 70
     1
102
RTVSPost2010Prop41ColorIndex
 90
       18
102
RTVSPost2010Prop41ColorRGB
 90
        0
102
RTVSPost2010PropOp41
 70
     1
102
RTVSPost2010Prop42
 90
       50
102
RTVSPost2010PropOp42
 70
     1
102
RTVSPost2010Prop43
 90
        3
102
RTVSPost2010PropOp43
 70
     1
102
RTVSPost2010Prop44ColorIndex
 90
        5
102
RTVSPost2010Prop44ColorRGB
 90
      255
102
RTVSPost2010PropOp44
 70
     1
102
RTVSPost2010Prop45
280
     0
102
RTVSPost2010PropOp45
 70
     1
102
RTVSPost2010Prop46
 90
       50
102
RTVSPost2010PropOp46
 70
     1
102
RTVSPost2010Prop47
 90
       50
102
RTVSPost2010PropOp47
 70
     1
102
RTVSPost2010Prop48
 90
       50
102
RTVSPost2010PropOp48
 70
     1
102
RTVSPost2010Prop49
280
     0
102
RTVSPost2010PropOp49
 70
     1
102
RTVSPost2010Prop50
 90
       50
102
RTVSPost2010PropOp50
 70
     1
102
RTVSPost2010Prop51ColorIndex
 90
      256
102
RTVSPost2010Prop51ColorRGB
 90
-16777216
102
RTVSPost2010PropOp51
 70
     0
102
RTVSPost2010Prop52
140
1.0
102
RTVSPost2010PropOp52
 70
     0
102
RTVSPost2010Prop53
 90
        2
102
RTVSPost2010PropOp53
 70
     1
102
RTVSPost2010Prop54
  1
strokes_ogs.tif
102
RTVSPost2010PropOp54
 70
     1
102
RTVSPost2010Prop55
280
     0
102
RTVSPost2010PropOp55
 70
     1
102
RTVSPost2010Prop56
140
1.0
102
RTVSPost2010PropOp56
 70
     1
102
RTVSPost2010Prop57
140
1.0
102
RTVSPost2010PropOp57
 70
     1
102
RTVSPropertyOp0
 70
     1
102
RTVSPropertyOp1
 70
     1
102
RTVSPropertyOp2
 70
     1
102
RTVSPropertyOp3
 70
     1
102
RTVSPropertyOp4
 70
     1
102
RTVSPropertyOp5
 70
     1
102
RTVSPropertyOp6
 70
     1
102
RTVSPropertyOp7
 70
     1
102
RTVSPropertyOp8
 70
     1
102
RTVSPropertyOp9
 70
     1
102
RTVSPropertyOp10
 70
     1
102
RTVSPropertyOp11
 70
     1
102
RTVSPropertyOp12
 70
     1
102
RTVSPropertyOp13
 70
     1
102
RTVSPropertyOp14
 70
     1
102
RTVSPropertyOp15
 70
     1
102
RTVSPropertyOp16
 70
     1
102
RTVSPropertyOp17
 70
     1
102
RTVSPropertyOp18
 70
     1
102
RTVSPropertyOp19
 70
     1
102
RTVSPropertyOp20
 70
     1
102
RTVSPropertyOp21
 70
     1
102
RTVSPropertyOp22
 70
     1
102
RTVSPropertyOp23
 70
     1
102
RTVSPropertyOp24
 70
     1
102
RTVSPropertyOp25
 70
     1
102
RTVSPropertyOp26
 70
     1
102
RTVSPropertyOp27
 70
     1
102
RTVSPropertyOp28
 70
     1
102
RTVSPropertyOp29
 70
     1
102
RTVSPropertyOp30
 70
     1
102
RTVSPropertyOp31
 70
     1
102
RTVSPropertyOp32
 70
     1
102
RTVSPropertyOp33
 70
     1
102
RTVSPropertyOp34
 70
     1
102
RTVSPropertyOp35
 70
     1
102
RTVSPropertyOp36
 70
     1
102
RTVSPropertyOp37
 70
     1
102
RTVSPropertyOp38
 70
     1
102
RTVSPropertyOp39
 70
     1
102
RTVSPropertyOp40
 70
     1
102
RTVSPropertyOp41
 70
     1
102
RTVSPropertyOp42
 70
     1
102
RTVSPropertyOp43
 70
     1
102
RTVSPropertyOp44
 70
     1
102
RTVSPropertyOp45
 70
     1
102
RTVSPropertyOp46
 70
     1
102
RTVSPropertyOp47
 70
     1
102
RTVSPropertyOp48
 70
     1
102
RTVSPropertyOp49
 70
     1
102
RTVSPropertyOp50
 70
     1
102
RTVSPropertyOp51
 70
     0
102
RTVSPropertyOp52
 70
     0
102
RTVSPropertyOp53
 70
     1
102
RTVSPropertyOp54
 70
     1
102
RTVSPropertyOp55
 70
     1
102
RTVSPropertyOp56
 70
     1
102
RTVSPropertyOp57
 70
     1
102
RTVSPropertyOp58
 70
     1
102
RTVSPropertyOp59
 70
     1
102
RTVSPropertyOp60
 70
     1
102
RTVSPropertyOp61
 70
     1
102
RTVSPropertyOp62
 70
     1
  0
XRECORD
  5
935E
102
{ACAD_REACTORS
330
935D
102
}
330
935D
100
AcDbXrecord
280
     1
102
RTVSPost2010Prop28
280
     0
102
RTVSPost2010PropOp28
 70
     1
102
RTVSPost2010Prop29
280
     1
102
RTVSPost2010PropOp29
 70
     1
102
RTVSPost2010Prop30
280
     1
102
RTVSPost2010PropOp30
 70
     1
102
RTVSPost2010Prop31
280
     0
102
RTVSPost2010PropOp31
 70
     1
102
RTVSPost2010Prop32
280
     0
102
RTVSPost2010PropOp32
 70
     1
102
RTVSPost2010Prop33
280
     0
102
RTVSPost2010PropOp33
 70
     1
102
RTVSPost2010Prop34
280
     0
102
RTVSPost2010PropOp34
 70
     1
102
RTVSPost2010Prop35
280
     0
102
RTVSPost2010PropOp35
 70
     1
102
RTVSPost2010Prop36
280
     0
102
RTVSPost2010PropOp36
 70
     1
102
RTVSPost2010Prop37
 90
       50
102
RTVSPost2010PropOp37
 70
     1
102
RTVSPost2010Prop38
140
0.0
102
RTVSPost2010PropOp38
 70
     1
102
RTVSPost2010Prop39
140
1.0
102
RTVSPost2010PropOp39
 70
     1
102
RTVSPost2010Prop40
 90
        0
102
RTVSPost2010PropOp40
 70
     1
102
RTVSPost2010Prop41ColorIndex
 90
       18
102
RTVSPost2010Prop41ColorRGB
 90
        0
102
RTVSPost2010PropOp41
 70
     1
102
RTVSPost2010Prop42
 90
       50
102
RTVSPost2010PropOp42
 70
     1
102
RTVSPost2010Prop43
 90
        3
102
RTVSPost2010PropOp43
 70
     1
102
RTVSPost2010Prop44ColorIndex
 90
        5
102
RTVSPost2010Prop44ColorRGB
 90
      255
102
RTVSPost2010PropOp44
 70
     1
102
RTVSPost2010Prop45
280
     0
102
RTVSPost2010PropOp45
 70
     1
102
RTVSPost2010Prop46
 90
       50
102
RTVSPost2010PropOp46
 70
     1
102
RTVSPost2010Prop47
 90
       50
102
RTVSPost2010PropOp47
 70
     1
102
RTVSPost2010Prop48
 90
       50
102
RTVSPost2010PropOp48
 70
     1
102
RTVSPost2010Prop49
280
     0
102
RTVSPost2010PropOp49
 70
     1
102
RTVSPost2010Prop50
 90
       50
102
RTVSPost2010PropOp50
 70
     1
102
RTVSPost2010Prop51ColorIndex
 90
      256
102
RTVSPost2010Prop51ColorRGB
 90
-16777216
102
RTVSPost2010PropOp51
 70
     0
102
RTVSPost2010Prop52
140
1.0
102
RTVSPost2010PropOp52
 70
     0
102
RTVSPost2010Prop53
 90
        2
102
RTVSPost2010PropOp53
 70
     1
102
RTVSPost2010Prop54
  1
strokes_ogs.tif
102
RTVSPost2010PropOp54
 70
     1
102
RTVSPost2010Prop55
280
     0
102
RTVSPost2010PropOp55
 70
     1
102
RTVSPost2010Prop56
140
1.0
102
RTVSPost2010PropOp56
 70
     1
102
RTVSPost2010Prop57
140
1.0
102
RTVSPost2010PropOp57
 70
     1
102
RTVSPropertyOp0
 70
     1
102
RTVSPropertyOp1
 70
     1
102
RTVSPropertyOp2
 70
     1
102
RTVSPropertyOp3
 70
     1
102
RTVSPropertyOp4
 70
     1
102
RTVSPropertyOp5
 70
     1
102
RTVSPropertyOp6
 70
     1
102
RTVSPropertyOp7
 70
     1
102
RTVSPropertyOp8
 70
     1
102
RTVSPropertyOp9
 70
     1
102
RTVSPropertyOp10
 70
     1
102
RTVSPropertyOp11
 70
     1
102
RTVSPropertyOp12
 70
     1
102
RTVSPropertyOp13
 70
     1
102
RTVSPropertyOp14
 70
     1
102
RTVSPropertyOp15
 70
     1
102
RTVSPropertyOp16
 70
     1
102
RTVSPropertyOp17
 70
     1
102
RTVSPropertyOp18
 70
     1
102
RTVSPropertyOp19
 70
     1
102
RTVSPropertyOp20
 70
     1
102
RTVSPropertyOp21
 70
     1
102
RTVSPropertyOp22
 70
     1
102
RTVSPropertyOp23
 70
     1
102
RTVSPropertyOp24
 70
     1
102
RTVSPropertyOp25
 70
     1
102
RTVSPropertyOp26
 70
     1
102
RTVSPropertyOp27
 70
     1
102
RTVSPropertyOp28
 70
     1
102
RTVSPropertyOp29
 70
     1
102
RTVSPropertyOp30
 70
     1
102
RTVSPropertyOp31
 70
     1
102
RTVSPropertyOp32
 70
     1
102
RTVSPropertyOp33
 70
     1
102
RTVSPropertyOp34
 70
     1
102
RTVSPropertyOp35
 70
     1
102
RTVSPropertyOp36
 70
     1
102
RTVSPropertyOp37
 70
     1
102
RTVSPropertyOp38
 70
     1
102
RTVSPropertyOp39
 70
     1
102
RTVSPropertyOp40
 70
     1
102
RTVSPropertyOp41
 70
     1
102
RTVSPropertyOp42
 70
     1
102
RTVSPropertyOp43
 70
     1
102
RTVSPropertyOp44
 70
     1
102
RTVSPropertyOp45
 70
     1
102
RTVSPropertyOp46
 70
     1
102
RTVSPropertyOp47
 70
     1
102
RTVSPropertyOp48
 70
     1
102
RTVSPropertyOp49
 70
     1
102
RTVSPropertyOp50
 70
     1
102
RTVSPropertyOp51
 70
     0
102
RTVSPropertyOp52
 70
     0
102
RTVSPropertyOp53
 70
     1
102
RTVSPropertyOp54
 70
     1
102
RTVSPropertyOp55
 70
     1
102
RTVSPropertyOp56
 70
     1
102
RTVSPropertyOp57
 70
     1
102
RTVSPropertyOp58
 70
     1
102
RTVSPropertyOp59
 70
     1
102
RTVSPropertyOp60
 70
     1
102
RTVSPropertyOp61
 70
     1
102
RTVSPropertyOp62
 70
     1
  0
XRECORD
  5
9358
102
{ACAD_REACTORS
330
9357
102
}
330
9357
100
AcDbXrecord
280
     1
102
RTVSPost2010Prop28
280
     0
102
RTVSPost2010PropOp28
 70
     1
102
RTVSPost2010Prop29
280
     1
102
RTVSPost2010PropOp29
 70
     1
102
RTVSPost2010Prop30
280
     1
102
RTVSPost2010PropOp30
 70
     1
102
RTVSPost2010Prop31
280
     0
102
RTVSPost2010PropOp31
 70
     1
102
RTVSPost2010Prop32
280
     0
102
RTVSPost2010PropOp32
 70
     1
102
RTVSPost2010Prop33
280
     0
102
RTVSPost2010PropOp33
 70
     1
102
RTVSPost2010Prop34
280
     0
102
RTVSPost2010PropOp34
 70
     1
102
RTVSPost2010Prop35
280
     0
102
RTVSPost2010PropOp35
 70
     1
102
RTVSPost2010Prop36
280
     0
102
RTVSPost2010PropOp36
 70
     1
102
RTVSPost2010Prop37
 90
       50
102
RTVSPost2010PropOp37
 70
     1
102
RTVSPost2010Prop38
140
0.0
102
RTVSPost2010PropOp38
 70
     1
102
RTVSPost2010Prop39
140
1.0
102
RTVSPost2010PropOp39
 70
     1
102
RTVSPost2010Prop40
 90
        0
102
RTVSPost2010PropOp40
 70
     1
102
RTVSPost2010Prop41ColorIndex
 90
       18
102
RTVSPost2010Prop41ColorRGB
 90
        0
102
RTVSPost2010PropOp41
 70
     1
102
RTVSPost2010Prop42
 90
       50
102
RTVSPost2010PropOp42
 70
     1
102
RTVSPost2010Prop43
 90
        3
102
RTVSPost2010PropOp43
 70
     1
102
RTVSPost2010Prop44ColorIndex
 90
        5
102
RTVSPost2010Prop44ColorRGB
 90
      255
102
RTVSPost2010PropOp44
 70
     1
102
RTVSPost2010Prop45
280
     0
102
RTVSPost2010PropOp45
 70
     1
102
RTVSPost2010Prop46
 90
       50
102
RTVSPost2010PropOp46
 70
     1
102
RTVSPost2010Prop47
 90
       50
102
RTVSPost2010PropOp47
 70
     1
102
RTVSPost2010Prop48
 90
       50
102
RTVSPost2010PropOp48
 70
     1
102
RTVSPost2010Prop49
280
     0
102
RTVSPost2010PropOp49
 70
     1
102
RTVSPost2010Prop50
 90
       50
102
RTVSPost2010PropOp50
 70
     1
102
RTVSPost2010Prop51ColorIndex
 90
      256
102
RTVSPost2010Prop51ColorRGB
 90
-16777216
102
RTVSPost2010PropOp51
 70
     0
102
RTVSPost2010Prop52
140
1.0
102
RTVSPost2010PropOp52
 70
     0
102
RTVSPost2010Prop53
 90
        2
102
RTVSPost2010PropOp53
 70
     1
102
RTVSPost2010Prop54
  1
strokes_ogs.tif
102
RTVSPost2010PropOp54
 70
     1
102
RTVSPost2010Prop55
280
     0
102
RTVSPost2010PropOp55
 70
     1
102
RTVSPost2010Prop56
140
1.0
102
RTVSPost2010PropOp56
 70
     1
102
RTVSPost2010Prop57
140
1.0
102
RTVSPost2010PropOp57
 70
     1
102
RTVSPropertyOp0
 70
     1
102
RTVSPropertyOp1
 70
     1
102
RTVSPropertyOp2
 70
     1
102
RTVSPropertyOp3
 70
     1
102
RTVSPropertyOp4
 70
     1
102
RTVSPropertyOp5
 70
     1
102
RTVSPropertyOp6
 70
     1
102
RTVSPropertyOp7
 70
     1
102
RTVSPropertyOp8
 70
     1
102
RTVSPropertyOp9
 70
     1
102
RTVSPropertyOp10
 70
     1
102
RTVSPropertyOp11
 70
     1
102
RTVSPropertyOp12
 70
     1
102
RTVSPropertyOp13
 70
     1
102
RTVSPropertyOp14
 70
     1
102
RTVSPropertyOp15
 70
     1
102
RTVSPropertyOp16
 70
     1
102
RTVSPropertyOp17
 70
     1
102
RTVSPropertyOp18
 70
     1
102
RTVSPropertyOp19
 70
     1
102
RTVSPropertyOp20
 70
     1
102
RTVSPropertyOp21
 70
     1
102
RTVSPropertyOp22
 70
     1
102
RTVSPropertyOp23
 70
     1
102
RTVSPropertyOp24
 70
     1
102
RTVSPropertyOp25
 70
     1
102
RTVSPropertyOp26
 70
     1
102
RTVSPropertyOp27
 70
     1
102
RTVSPropertyOp28
 70
     1
102
RTVSPropertyOp29
 70
     1
102
RTVSPropertyOp30
 70
     1
102
RTVSPropertyOp31
 70
     1
102
RTVSPropertyOp32
 70
     1
102
RTVSPropertyOp33
 70
     1
102
RTVSPropertyOp34
 70
     1
102
RTVSPropertyOp35
 70
     1
102
RTVSPropertyOp36
 70
     1
102
RTVSPropertyOp37
 70
     1
102
RTVSPropertyOp38
 70
     1
102
RTVSPropertyOp39
 70
     1
102
RTVSPropertyOp40
 70
     1
102
RTVSPropertyOp41
 70
     1
102
RTVSPropertyOp42
 70
     1
102
RTVSPropertyOp43
 70
     1
102
RTVSPropertyOp44
 70
     1
102
RTVSPropertyOp45
 70
     1
102
RTVSPropertyOp46
 70
     1
102
RTVSPropertyOp47
 70
     1
102
RTVSPropertyOp48
 70
     1
102
RTVSPropertyOp49
 70
     1
102
RTVSPropertyOp50
 70
     1
102
RTVSPropertyOp51
 70
     0
102
RTVSPropertyOp52
 70
     0
102
RTVSPropertyOp53
 70
     1
102
RTVSPropertyOp54
 70
     1
102
RTVSPropertyOp55
 70
     1
102
RTVSPropertyOp56
 70
     1
102
RTVSPropertyOp57
 70
     1
102
RTVSPropertyOp58
 70
     1
102
RTVSPropertyOp59
 70
     1
102
RTVSPropertyOp60
 70
     1
102
RTVSPropertyOp61
 70
     1
102
RTVSPropertyOp62
 70
     1
  0
XRECORD
  5
935A
102
{ACAD_REACTORS
330
9359
102
}
330
9359
100
AcDbXrecord
280
     1
102
RTVSPost2010Prop28
280
     0
102
RTVSPost2010PropOp28
 70
     1
102
RTVSPost2010Prop29
280
     1
102
RTVSPost2010PropOp29
 70
     1
102
RTVSPost2010Prop30
280
     1
102
RTVSPost2010PropOp30
 70
     1
102
RTVSPost2010Prop31
280
     0
102
RTVSPost2010PropOp31
 70
     1
102
RTVSPost2010Prop32
280
     0
102
RTVSPost2010PropOp32
 70
     1
102
RTVSPost2010Prop33
280
     0
102
RTVSPost2010PropOp33
 70
     1
102
RTVSPost2010Prop34
280
     0
102
RTVSPost2010PropOp34
 70
     1
102
RTVSPost2010Prop35
280
     0
102
RTVSPost2010PropOp35
 70
     1
102
RTVSPost2010Prop36
280
     0
102
RTVSPost2010PropOp36
 70
     1
102
RTVSPost2010Prop37
 90
       50
102
RTVSPost2010PropOp37
 70
     1
102
RTVSPost2010Prop38
140
0.0
102
RTVSPost2010PropOp38
 70
     1
102
RTVSPost2010Prop39
140
1.0
102
RTVSPost2010PropOp39
 70
     1
102
RTVSPost2010Prop40
 90
        0
102
RTVSPost2010PropOp40
 70
     1
102
RTVSPost2010Prop41ColorIndex
 90
       18
102
RTVSPost2010Prop41ColorRGB
 90
        0
102
RTVSPost2010PropOp41
 70
     1
102
RTVSPost2010Prop42
 90
       50
102
RTVSPost2010PropOp42
 70
     1
102
RTVSPost2010Prop43
 90
        3
102
RTVSPost2010PropOp43
 70
     1
102
RTVSPost2010Prop44ColorIndex
 90
        5
102
RTVSPost2010Prop44ColorRGB
 90
      255
102
RTVSPost2010PropOp44
 70
     1
102
RTVSPost2010Prop45
280
     0
102
RTVSPost2010PropOp45
 70
     1
102
RTVSPost2010Prop46
 90
       50
102
RTVSPost2010PropOp46
 70
     1
102
RTVSPost2010Prop47
 90
       50
102
RTVSPost2010PropOp47
 70
     1
102
RTVSPost2010Prop48
 90
       50
102
RTVSPost2010PropOp48
 70
     1
102
RTVSPost2010Prop49
280
     0
102
RTVSPost2010PropOp49
 70
     1
102
RTVSPost2010Prop50
 90
       50
102
RTVSPost2010PropOp50
 70
     1
102
RTVSPost2010Prop51ColorIndex
 90
      256
102
RTVSPost2010Prop51ColorRGB
 90
-16777216
102
RTVSPost2010PropOp51
 70
     0
102
RTVSPost2010Prop52
140
1.0
102
RTVSPost2010PropOp52
 70
     0
102
RTVSPost2010Prop53
 90
        2
102
RTVSPost2010PropOp53
 70
     1
102
RTVSPost2010Prop54
  1
strokes_ogs.tif
102
RTVSPost2010PropOp54
 70
     1
102
RTVSPost2010Prop55
280
     0
102
RTVSPost2010PropOp55
 70
     1
102
RTVSPost2010Prop56
140
1.0
102
RTVSPost2010PropOp56
 70
     1
102
RTVSPost2010Prop57
140
1.0
102
RTVSPost2010PropOp57
 70
     1
102
RTVSPropertyOp0
 70
     1
102
RTVSPropertyOp1
 70
     1
102
RTVSPropertyOp2
 70
     1
102
RTVSPropertyOp3
 70
     1
102
RTVSPropertyOp4
 70
     1
102
RTVSPropertyOp5
 70
     1
102
RTVSPropertyOp6
 70
     1
102
RTVSPropertyOp7
 70
     1
102
RTVSPropertyOp8
 70
     1
102
RTVSPropertyOp9
 70
     1
102
RTVSPropertyOp10
 70
     1
102
RTVSPropertyOp11
 70
     1
102
RTVSPropertyOp12
 70
     1
102
RTVSPropertyOp13
 70
     1
102
RTVSPropertyOp14
 70
     1
102
RTVSPropertyOp15
 70
     1
102
RTVSPropertyOp16
 70
     1
102
RTVSPropertyOp17
 70
     1
102
RTVSPropertyOp18
 70
     1
102
RTVSPropertyOp19
 70
     1
102
RTVSPropertyOp20
 70
     1
102
RTVSPropertyOp21
 70
     1
102
RTVSPropertyOp22
 70
     1
102
RTVSPropertyOp23
 70
     1
102
RTVSPropertyOp24
 70
     1
102
RTVSPropertyOp25
 70
     1
102
RTVSPropertyOp26
 70
     1
102
RTVSPropertyOp27
 70
     1
102
RTVSPropertyOp28
 70
     1
102
RTVSPropertyOp29
 70
     1
102
RTVSPropertyOp30
 70
     1
102
RTVSPropertyOp31
 70
     1
102
RTVSPropertyOp32
 70
     1
102
RTVSPropertyOp33
 70
     1
102
RTVSPropertyOp34
 70
     1
102
RTVSPropertyOp35
 70
     1
102
RTVSPropertyOp36
 70
     1
102
RTVSPropertyOp37
 70
     1
102
RTVSPropertyOp38
 70
     1
102
RTVSPropertyOp39
 70
     1
102
RTVSPropertyOp40
 70
     1
102
RTVSPropertyOp41
 70
     1
102
RTVSPropertyOp42
 70
     1
102
RTVSPropertyOp43
 70
     1
102
RTVSPropertyOp44
 70
     1
102
RTVSPropertyOp45
 70
     1
102
RTVSPropertyOp46
 70
     1
102
RTVSPropertyOp47
 70
     1
102
RTVSPropertyOp48
 70
     1
102
RTVSPropertyOp49
 70
     1
102
RTVSPropertyOp50
 70
     1
102
RTVSPropertyOp51
 70
     0
102
RTVSPropertyOp52
 70
     0
102
RTVSPropertyOp53
 70
     1
102
RTVSPropertyOp54
 70
     1
102
RTVSPropertyOp55
 70
     1
102
RTVSPropertyOp56
 70
     1
102
RTVSPropertyOp57
 70
     1
102
RTVSPropertyOp58
 70
     1
102
RTVSPropertyOp59
 70
     1
102
RTVSPropertyOp60
 70
     1
102
RTVSPropertyOp61
 70
     1
102
RTVSPropertyOp62
 70
     1
  0
XRECORD
  5
9348
102
{ACAD_REACTORS
330
9347
102
}
330
9347
100
AcDbXrecord
280
     1
102
RTVSPost2010Prop28
280
     0
102
RTVSPost2010PropOp28
 70
     1
102
RTVSPost2010Prop29
280
     1
102
RTVSPost2010PropOp29
 70
     1
102
RTVSPost2010Prop30
280
     1
102
RTVSPost2010PropOp30
 70
     1
102
RTVSPost2010Prop31
280
     0
102
RTVSPost2010PropOp31
 70
     1
102
RTVSPost2010Prop32
280
     0
102
RTVSPost2010PropOp32
 70
     1
102
RTVSPost2010Prop33
280
     0
102
RTVSPost2010PropOp33
 70
     1
102
RTVSPost2010Prop34
280
     0
102
RTVSPost2010PropOp34
 70
     1
102
RTVSPost2010Prop35
280
     0
102
RTVSPost2010PropOp35
 70
     1
102
RTVSPost2010Prop36
280
     0
102
RTVSPost2010PropOp36
 70
     1
102
RTVSPost2010Prop37
 90
       50
102
RTVSPost2010PropOp37
 70
     1
102
RTVSPost2010Prop38
140
0.0
102
RTVSPost2010PropOp38
 70
     1
102
RTVSPost2010Prop39
140
1.0
102
RTVSPost2010PropOp39
 70
     1
102
RTVSPost2010Prop40
 90
        0
102
RTVSPost2010PropOp40
 70
     1
102
RTVSPost2010Prop41ColorIndex
 90
       18
102
RTVSPost2010Prop41ColorRGB
 90
        0
102
RTVSPost2010PropOp41
 70
     1
102
RTVSPost2010Prop42
 90
       50
102
RTVSPost2010PropOp42
 70
     1
102
RTVSPost2010Prop43
 90
        3
102
RTVSPost2010PropOp43
 70
     1
102
RTVSPost2010Prop44ColorIndex
 90
        5
102
RTVSPost2010Prop44ColorRGB
 90
      255
102
RTVSPost2010PropOp44
 70
     1
102
RTVSPost2010Prop45
280
     0
102
RTVSPost2010PropOp45
 70
     1
102
RTVSPost2010Prop46
 90
       50
102
RTVSPost2010PropOp46
 70
     1
102
RTVSPost2010Prop47
 90
       50
102
RTVSPost2010PropOp47
 70
     1
102
RTVSPost2010Prop48
 90
       50
102
RTVSPost2010PropOp48
 70
     1
102
RTVSPost2010Prop49
280
     0
102
RTVSPost2010PropOp49
 70
     1
102
RTVSPost2010Prop50
 90
       50
102
RTVSPost2010PropOp50
 70
     1
102
RTVSPost2010Prop51ColorIndex
 90
      256
102
RTVSPost2010Prop51ColorRGB
 90
-16777216
102
RTVSPost2010PropOp51
 70
     0
102
RTVSPost2010Prop52
140
1.0
102
RTVSPost2010PropOp52
 70
     0
102
RTVSPost2010Prop53
 90
        2
102
RTVSPost2010PropOp53
 70
     1
102
RTVSPost2010Prop54
  1
strokes_ogs.tif
102
RTVSPost2010PropOp54
 70
     1
102
RTVSPost2010Prop55
280
     0
102
RTVSPost2010PropOp55
 70
     1
102
RTVSPost2010Prop56
140
1.0
102
RTVSPost2010PropOp56
 70
     1
102
RTVSPost2010Prop57
140
1.0
102
RTVSPost2010PropOp57
 70
     1
102
RTVSPropertyOp0
 70
     1
102
RTVSPropertyOp1
 70
     1
102
RTVSPropertyOp2
 70
     1
102
RTVSPropertyOp3
 70
     1
102
RTVSPropertyOp4
 70
     1
102
RTVSPropertyOp5
 70
     1
102
RTVSPropertyOp6
 70
     1
102
RTVSPropertyOp7
 70
     1
102
RTVSPropertyOp8
 70
     1
102
RTVSPropertyOp9
 70
     1
102
RTVSPropertyOp10
 70
     1
102
RTVSPropertyOp11
 70
     1
102
RTVSPropertyOp12
 70
     1
102
RTVSPropertyOp13
 70
     1
102
RTVSPropertyOp14
 70
     1
102
RTVSPropertyOp15
 70
     1
102
RTVSPropertyOp16
 70
     1
102
RTVSPropertyOp17
 70
     1
102
RTVSPropertyOp18
 70
     1
102
RTVSPropertyOp19
 70
     1
102
RTVSPropertyOp20
 70
     1
102
RTVSPropertyOp21
 70
     1
102
RTVSPropertyOp22
 70
     1
102
RTVSPropertyOp23
 70
     1
102
RTVSPropertyOp24
 70
     1
102
RTVSPropertyOp25
 70
     1
102
RTVSPropertyOp26
 70
     1
102
RTVSPropertyOp27
 70
     1
102
RTVSPropertyOp28
 70
     1
102
RTVSPropertyOp29
 70
     1
102
RTVSPropertyOp30
 70
     1
102
RTVSPropertyOp31
 70
     1
102
RTVSPropertyOp32
 70
     1
102
RTVSPropertyOp33
 70
     1
102
RTVSPropertyOp34
 70
     1
102
RTVSPropertyOp35
 70
     1
102
RTVSPropertyOp36
 70
     1
102
RTVSPropertyOp37
 70
     1
102
RTVSPropertyOp38
 70
     1
102
RTVSPropertyOp39
 70
     1
102
RTVSPropertyOp40
 70
     1
102
RTVSPropertyOp41
 70
     1
102
RTVSPropertyOp42
 70
     1
102
RTVSPropertyOp43
 70
     1
102
RTVSPropertyOp44
 70
     1
102
RTVSPropertyOp45
 70
     1
102
RTVSPropertyOp46
 70
     1
102
RTVSPropertyOp47
 70
     1
102
RTVSPropertyOp48
 70
     1
102
RTVSPropertyOp49
 70
     1
102
RTVSPropertyOp50
 70
     1
102
RTVSPropertyOp51
 70
     0
102
RTVSPropertyOp52
 70
     0
102
RTVSPropertyOp53
 70
     1
102
RTVSPropertyOp54
 70
     1
102
RTVSPropertyOp55
 70
     1
102
RTVSPropertyOp56
 70
     1
102
RTVSPropertyOp57
 70
     1
102
RTVSPropertyOp58
 70
     1
102
RTVSPropertyOp59
 70
     1
102
RTVSPropertyOp60
 70
     1
102
RTVSPropertyOp61
 70
     1
102
RTVSPropertyOp62
 70
     1
  0
XRECORD
  5
933C
102
{ACAD_REACTORS
330
933B
102
}
330
933B
100
AcDbXrecord
280
     1
102
RTVSPost2010Prop28
280
     0
102
RTVSPost2010PropOp28
 70
     1
102
RTVSPost2010Prop29
280
     1
102
RTVSPost2010PropOp29
 70
     1
102
RTVSPost2010Prop30
280
     1
102
RTVSPost2010PropOp30
 70
     1
102
RTVSPost2010Prop31
280
     0
102
RTVSPost2010PropOp31
 70
     1
102
RTVSPost2010Prop32
280
     0
102
RTVSPost2010PropOp32
 70
     1
102
RTVSPost2010Prop33
280
     0
102
RTVSPost2010PropOp33
 70
     1
102
RTVSPost2010Prop34
280
     0
102
RTVSPost2010PropOp34
 70
     1
102
RTVSPost2010Prop35
280
     0
102
RTVSPost2010PropOp35
 70
     1
102
RTVSPost2010Prop36
280
     0
102
RTVSPost2010PropOp36
 70
     1
102
RTVSPost2010Prop37
 90
       50
102
RTVSPost2010PropOp37
 70
     1
102
RTVSPost2010Prop38
140
0.0
102
RTVSPost2010PropOp38
 70
     1
102
RTVSPost2010Prop39
140
1.0
102
RTVSPost2010PropOp39
 70
     1
102
RTVSPost2010Prop40
 90
        0
102
RTVSPost2010PropOp40
 70
     1
102
RTVSPost2010Prop41ColorIndex
 90
       18
102
RTVSPost2010Prop41ColorRGB
 90
        0
102
RTVSPost2010PropOp41
 70
     1
102
RTVSPost2010Prop42
 90
       50
102
RTVSPost2010PropOp42
 70
     1
102
RTVSPost2010Prop43
 90
        3
102
RTVSPost2010PropOp43
 70
     1
102
RTVSPost2010Prop44ColorIndex
 90
        5
102
RTVSPost2010Prop44ColorRGB
 90
      255
102
RTVSPost2010PropOp44
 70
     1
102
RTVSPost2010Prop45
280
     0
102
RTVSPost2010PropOp45
 70
     1
102
RTVSPost2010Prop46
 90
       50
102
RTVSPost2010PropOp46
 70
     1
102
RTVSPost2010Prop47
 90
       50
102
RTVSPost2010PropOp47
 70
     1
102
RTVSPost2010Prop48
 90
       50
102
RTVSPost2010PropOp48
 70
     1
102
RTVSPost2010Prop49
280
     0
102
RTVSPost2010PropOp49
 70
     1
102
RTVSPost2010Prop50
 90
       50
102
RTVSPost2010PropOp50
 70
     1
102
RTVSPost2010Prop51ColorIndex
 90
      256
102
RTVSPost2010Prop51ColorRGB
 90
-16777216
102
RTVSPost2010PropOp51
 70
     0
102
RTVSPost2010Prop52
140
1.0
102
RTVSPost2010PropOp52
 70
     0
102
RTVSPost2010Prop53
 90
        2
102
RTVSPost2010PropOp53
 70
     1
102
RTVSPost2010Prop54
  1
strokes_ogs.tif
102
RTVSPost2010PropOp54
 70
     1
102
RTVSPost2010Prop55
280
     0
102
RTVSPost2010PropOp55
 70
     1
102
RTVSPost2010Prop56
140
1.0
102
RTVSPost2010PropOp56
 70
     1
102
RTVSPost2010Prop57
140
1.0
102
RTVSPost2010PropOp57
 70
     1
102
RTVSPropertyOp0
 70
     1
102
RTVSPropertyOp1
 70
     1
102
RTVSPropertyOp2
 70
     1
102
RTVSPropertyOp3
 70
     1
102
RTVSPropertyOp4
 70
     1
102
RTVSPropertyOp5
 70
     1
102
RTVSPropertyOp6
 70
     1
102
RTVSPropertyOp7
 70
     1
102
RTVSPropertyOp8
 70
     1
102
RTVSPropertyOp9
 70
     1
102
RTVSPropertyOp10
 70
     1
102
RTVSPropertyOp11
 70
     1
102
RTVSPropertyOp12
 70
     1
102
RTVSPropertyOp13
 70
     1
102
RTVSPropertyOp14
 70
     1
102
RTVSPropertyOp15
 70
     1
102
RTVSPropertyOp16
 70
     1
102
RTVSPropertyOp17
 70
     1
102
RTVSPropertyOp18
 70
     1
102
RTVSPropertyOp19
 70
     1
102
RTVSPropertyOp20
 70
     1
102
RTVSPropertyOp21
 70
     1
102
RTVSPropertyOp22
 70
     1
102
RTVSPropertyOp23
 70
     1
102
RTVSPropertyOp24
 70
     1
102
RTVSPropertyOp25
 70
     1
102
RTVSPropertyOp26
 70
     1
102
RTVSPropertyOp27
 70
     1
102
RTVSPropertyOp28
 70
     1
102
RTVSPropertyOp29
 70
     1
102
RTVSPropertyOp30
 70
     1
102
RTVSPropertyOp31
 70
     1
102
RTVSPropertyOp32
 70
     1
102
RTVSPropertyOp33
 70
     1
102
RTVSPropertyOp34
 70
     1
102
RTVSPropertyOp35
 70
     1
102
RTVSPropertyOp36
 70
     1
102
RTVSPropertyOp37
 70
     1
102
RTVSPropertyOp38
 70
     1
102
RTVSPropertyOp39
 70
     1
102
RTVSPropertyOp40
 70
     1
102
RTVSPropertyOp41
 70
     1
102
RTVSPropertyOp42
 70
     1
102
RTVSPropertyOp43
 70
     1
102
RTVSPropertyOp44
 70
     1
102
RTVSPropertyOp45
 70
     1
102
RTVSPropertyOp46
 70
     1
102
RTVSPropertyOp47
 70
     1
102
RTVSPropertyOp48
 70
     1
102
RTVSPropertyOp49
 70
     1
102
RTVSPropertyOp50
 70
     1
102
RTVSPropertyOp51
 70
     0
102
RTVSPropertyOp52
 70
     0
102
RTVSPropertyOp53
 70
     1
102
RTVSPropertyOp54
 70
     1
102
RTVSPropertyOp55
 70
     1
102
RTVSPropertyOp56
 70
     1
102
RTVSPropertyOp57
 70
     1
102
RTVSPropertyOp58
 70
     1
102
RTVSPropertyOp59
 70
     1
102
RTVSPropertyOp60
 70
     1
102
RTVSPropertyOp61
 70
     1
102
RTVSPropertyOp62
 70
     1
  0
XRECORD
  5
935C
102
{ACAD_REACTORS
330
935B
102
}
330
935B
100
AcDbXrecord
280
     1
102
RTVSPost2010Prop28
280
     0
102
RTVSPost2010PropOp28
 70
     1
102
RTVSPost2010Prop29
280
     1
102
RTVSPost2010PropOp29
 70
     1
102
RTVSPost2010Prop30
280
     1
102
RTVSPost2010PropOp30
 70
     1
102
RTVSPost2010Prop31
280
     0
102
RTVSPost2010PropOp31
 70
     1
102
RTVSPost2010Prop32
280
     0
102
RTVSPost2010PropOp32
 70
     1
102
RTVSPost2010Prop33
280
     0
102
RTVSPost2010PropOp33
 70
     1
102
RTVSPost2010Prop34
280
     0
102
RTVSPost2010PropOp34
 70
     1
102
RTVSPost2010Prop35
280
     0
102
RTVSPost2010PropOp35
 70
     1
102
RTVSPost2010Prop36
280
     0
102
RTVSPost2010PropOp36
 70
     1
102
RTVSPost2010Prop37
 90
       50
102
RTVSPost2010PropOp37
 70
     1
102
RTVSPost2010Prop38
140
0.0
102
RTVSPost2010PropOp38
 70
     1
102
RTVSPost2010Prop39
140
1.0
102
RTVSPost2010PropOp39
 70
     1
102
RTVSPost2010Prop40
 90
        0
102
RTVSPost2010PropOp40
 70
     1
102
RTVSPost2010Prop41ColorIndex
 90
       18
102
RTVSPost2010Prop41ColorRGB
 90
        0
102
RTVSPost2010PropOp41
 70
     1
102
RTVSPost2010Prop42
 90
       50
102
RTVSPost2010PropOp42
 70
     1
102
RTVSPost2010Prop43
 90
        3
102
RTVSPost2010PropOp43
 70
     1
102
RTVSPost2010Prop44ColorIndex
 90
        5
102
RTVSPost2010Prop44ColorRGB
 90
      255
102
RTVSPost2010PropOp44
 70
     1
102
RTVSPost2010Prop45
280
     0
102
RTVSPost2010PropOp45
 70
     1
102
RTVSPost2010Prop46
 90
       50
102
RTVSPost2010PropOp46
 70
     1
102
RTVSPost2010Prop47
 90
       50
102
RTVSPost2010PropOp47
 70
     1
102
RTVSPost2010Prop48
 90
       50
102
RTVSPost2010PropOp48
 70
     1
102
RTVSPost2010Prop49
280
     0
102
RTVSPost2010PropOp49
 70
     1
102
RTVSPost2010Prop50
 90
       50
102
RTVSPost2010PropOp50
 70
     1
102
RTVSPost2010Prop51ColorIndex
 90
      256
102
RTVSPost2010Prop51ColorRGB
 90
-16777216
102
RTVSPost2010PropOp51
 70
     0
102
RTVSPost2010Prop52
140
1.0
102
RTVSPost2010PropOp52
 70
     0
102
RTVSPost2010Prop53
 90
        2
102
RTVSPost2010PropOp53
 70
     1
102
RTVSPost2010Prop54
  1
strokes_ogs.tif
102
RTVSPost2010PropOp54
 70
     1
102
RTVSPost2010Prop55
280
     0
102
RTVSPost2010PropOp55
 70
     1
102
RTVSPost2010Prop56
140
1.0
102
RTVSPost2010PropOp56
 70
     1
102
RTVSPost2010Prop57
140
1.0
102
RTVSPost2010PropOp57
 70
     1
102
RTVSPropertyOp0
 70
     1
102
RTVSPropertyOp1
 70
     1
102
RTVSPropertyOp2
 70
     1
102
RTVSPropertyOp3
 70
     1
102
RTVSPropertyOp4
 70
     1
102
RTVSPropertyOp5
 70
     1
102
RTVSPropertyOp6
 70
     1
102
RTVSPropertyOp7
 70
     1
102
RTVSPropertyOp8
 70
     1
102
RTVSPropertyOp9
 70
     1
102
RTVSPropertyOp10
 70
     1
102
RTVSPropertyOp11
 70
     1
102
RTVSPropertyOp12
 70
     1
102
RTVSPropertyOp13
 70
     1
102
RTVSPropertyOp14
 70
     1
102
RTVSPropertyOp15
 70
     1
102
RTVSPropertyOp16
 70
     1
102
RTVSPropertyOp17
 70
     1
102
RTVSPropertyOp18
 70
     1
102
RTVSPropertyOp19
 70
     1
102
RTVSPropertyOp20
 70
     1
102
RTVSPropertyOp21
 70
     1
102
RTVSPropertyOp22
 70
     1
102
RTVSPropertyOp23
 70
     1
102
RTVSPropertyOp24
 70
     1
102
RTVSPropertyOp25
 70
     1
102
RTVSPropertyOp26
 70
     1
102
RTVSPropertyOp27
 70
     1
102
RTVSPropertyOp28
 70
     1
102
RTVSPropertyOp29
 70
     1
102
RTVSPropertyOp30
 70
     1
102
RTVSPropertyOp31
 70
     1
102
RTVSPropertyOp32
 70
     1
102
RTVSPropertyOp33
 70
     1
102
RTVSPropertyOp34
 70
     1
102
RTVSPropertyOp35
 70
     1
102
RTVSPropertyOp36
 70
     1
102
RTVSPropertyOp37
 70
     1
102
RTVSPropertyOp38
 70
     1
102
RTVSPropertyOp39
 70
     1
102
RTVSPropertyOp40
 70
     1
102
RTVSPropertyOp41
 70
     1
102
RTVSPropertyOp42
 70
     1
102
RTVSPropertyOp43
 70
     1
102
RTVSPropertyOp44
 70
     1
102
RTVSPropertyOp45
 70
     1
102
RTVSPropertyOp46
 70
     1
102
RTVSPropertyOp47
 70
     1
102
RTVSPropertyOp48
 70
     1
102
RTVSPropertyOp49
 70
     1
102
RTVSPropertyOp50
 70
     1
102
RTVSPropertyOp51
 70
     0
102
RTVSPropertyOp52
 70
     0
102
RTVSPropertyOp53
 70
     1
102
RTVSPropertyOp54
 70
     1
102
RTVSPropertyOp55
 70
     1
102
RTVSPropertyOp56
 70
     1
102
RTVSPropertyOp57
 70
     1
102
RTVSPropertyOp58
 70
     1
102
RTVSPropertyOp59
 70
     1
102
RTVSPropertyOp60
 70
     1
102
RTVSPropertyOp61
 70
     1
102
RTVSPropertyOp62
 70
     1
  0
ENDSEC
  0
EOF
