  0
SECTION
  2
HEADER
  9
$ACADVER
  1
AC1015
  9
$ACADMAINTVER
 70
    18
  9
$DWGCODEPAGE
  3
ANSI_1252
  9
$INSBASE
 10
0.0
 20
0.0
 30
0.0
  9
$EXTMIN
 10
-209.6090690903471
 20
-257.5093685047577
 30
-0.0015258207003583
  9
$EXTMAX
 10
264.6981819494374
 20
288.1039588110335
 30
0.0000000349246037
  9
$LIMMIN
 10
0.0
 20
0.0
  9
$LIMMAX
 10
420.0
 20
297.0
  9
$ORTHOMODE
 70
     0
  9
$REGENMODE
 70
     1
  9
$FILLMODE
 70
     1
  9
$QTEXTMODE
 70
     0
  9
$MIRRTEXT
 70
     0
  9
$LTSCALE
 40
1.0
  9
$ATTMODE
 70
     1
  9
$TEXTSIZE
 40
2.5
  9
$TRACEWID
 40
1.0
  9
$TEXTSTYLE
  7
Standard
  9
$CLAYER
  8
0
  9
$CELTYPE
  6
ByLayer
  9
$CECOLOR
 62
   256
  9
$CELTSCALE
 40
1.0
  9
$DISPSILH
 70
     0
  9
$DIMSCALE
 40
1.0
  9
$DIMASZ
 40
2.5
  9
$DIMEXO
 40
0.625
  9
$DIMDLI
 40
3.75
  9
$DIMRND
 40
0.0
  9
$DIMDLE
 40
0.0
  9
$DIMEXE
 40
1.25
  9
$DIMTP
 40
0.0
  9
$DIMTM
 40
0.0
  9
$DIMTXT
 40
2.5
  9
$DIMCEN
 40
2.5
  9
$DIMTSZ
 40
0.0
  9
$DIMTOL
 70
     0
  9
$DIMLIM
 70
     0
  9
$DIMTIH
 70
     0
  9
$DIMTOH
 70
     0
  9
$DIMSE1
 70
     0
  9
$DIMSE2
 70
     0
  9
$DIMTAD
 70
     1
  9
$DIMZIN
 70
     8
  9
$DIMBLK
  1

  9
$DIMASO
 70
     1
  9
$DIMSHO
 70
     1
  9
$DIMPOST
  1

  9
$DIMAPOST
  1

  9
$DIMALT
 70
     0
  9
$DIMALTD
 70
     3
  9
$DIMALTF
 40
0.03937007874016
  9
$DIMLFAC
 40
1.0
  9
$DIMTOFL
 70
     1
  9
$DIMTVP
 40
0.0
  9
$DIMTIX
 70
     0
  9
$DIMSOXD
 70
     0
  9
$DIMSAH
 70
     0
  9
$DIMBLK1
  1

  9
$DIMBLK2
  1

  9
$DIMSTYLE
  2
ISO-25
  9
$DIMCLRD
 70
     0
  9
$DIMCLRE
 70
     0
  9
$DIMCLRT
 70
     0
  9
$DIMTFAC
 40
1.0
  9
$DIMGAP
 40
0.625
  9
$DIMJUST
 70
     0
  9
$DIMSD1
 70
     0
  9
$DIMSD2
 70
     0
  9
$DIMTOLJ
 70
     0
  9
$DIMTZIN
 70
     8
  9
$DIMALTZ
 70
     0
  9
$DIMALTTZ
 70
     0
  9
$DIMUPT
 70
     0
  9
$DIMDEC
 70
     2
  9
$DIMTDEC
 70
     2
  9
$DIMALTU
 70
     2
  9
$DIMALTTD
 70
     3
  9
$DIMTXSTY
  7
Standard
  9
$DIMAUNIT
 70
     0
  9
$DIMADEC
 70
     0
  9
$DIMALTRND
 40
0.0
  9
$DIMAZIN
 70
     0
  9
$DIMDSEP
 70
    44
  9
$DIMATFIT
 70
     3
  9
$DIMFRAC
 70
     0
  9
$DIMLDRBLK
  1

  9
$DIMLUNIT
 70
     2
  9
$DIMLWD
 70
    -2
  9
$DIMLWE
 70
    -2
  9
$DIMTMOVE
 70
     0
  9
$LUNITS
 70
     2
  9
$LUPREC
 70
     4
  9
$SKETCHINC
 40
1.0
  9
$FILLETRAD
 40
0.0
  9
$AUNITS
 70
     0
  9
$AUPREC
 70
     0
  9
$MENU
  1
.
  9
$ELEVATION
 40
0.0
  9
$PELEVATION
 40
0.0
  9
$THICKNESS
 40
0.0
  9
$LIMCHECK
 70
     0
  9
$CHAMFERA
 40
0.0
  9
$CHAMFERB
 40
0.0
  9
$CHAMFERC
 40
0.0
  9
$CHAMFERD
 40
0.0
  9
$SKPOLY
 70
     0
  9
$TDCREATE
 40
2460398.356956019
  9
$TDUCREATE
 40
2460398.065289352
  9
$TDUPDATE
 40
2460398.374907407
  9
$TDUUPDATE
 40
2460398.083240741
  9
$TDINDWG
 40
0.0077893519
  9
$TDUSRTIMER
 40
0.0077893519
  9
$USRTIMER
 70
     1
  9
$ANGBASE
 50
0.0
  9
$ANGDIR
 70
     0
  9
$PDMODE
 70
     0
  9
$PDSIZE
 40
0.0
  9
$PLINEWID
 40
0.0
  9
$SPLFRAME
 70
     0
  9
$SPLINETYPE
 70
     6
  9
$SPLINESEGS
 70
     8
  9
$HANDSEED
  5
97CD
  9
$SURFTAB1
 70
     6
  9
$SURFTAB2
 70
     6
  9
$SURFTYPE
 70
     6
  9
$SURFU
 70
     6
  9
$SURFV
 70
     6
  9
$UCSBASE
  2

  9
$UCSNAME
  2

  9
$UCSORG
 10
0.0
 20
0.0
 30
0.0
  9
$UCSXDIR
 10
1.0
 20
0.0
 30
0.0
  9
$UCSYDIR
 10
0.0
 20
1.0
 30
0.0
  9
$UCSORTHOREF
  2

  9
$UCSORTHOVIEW
 70
     0
  9
$UCSORGTOP
 10
0.0
 20
0.0
 30
0.0
  9
$UCSORGBOTTOM
 10
0.0
 20
0.0
 30
0.0
  9
$UCSORGLEFT
 10
0.0
 20
0.0
 30
0.0
  9
$UCSORGRIGHT
 10
0.0
 20
0.0
 30
0.0
  9
$UCSORGFRONT
 10
0.0
 20
0.0
 30
0.0
  9
$UCSORGBACK
 10
0.0
 20
0.0
 30
0.0
  9
$PUCSBASE
  2

  9
$PUCSNAME
  2

  9
$PUCSORG
 10
0.0
 20
0.0
 30
0.0
  9
$PUCSXDIR
 10
1.0
 20
0.0
 30
0.0
  9
$PUCSYDIR
 10
0.0
 20
1.0
 30
0.0
  9
$PUCSORTHOREF
  2

  9
$PUCSORTHOVIEW
 70
     0
  9
$PUCSORGTOP
 10
0.0
 20
0.0
 30
0.0
  9
$PUCSORGBOTTOM
 10
0.0
 20
0.0
 30
0.0
  9
$PUCSORGLEFT
 10
0.0
 20
0.0
 30
0.0
  9
$PUCSORGRIGHT
 10
0.0
 20
0.0
 30
0.0
  9
$PUCSORGFRONT
 10
0.0
 20
0.0
 30
0.0
  9
$PUCSORGBACK
 10
0.0
 20
0.0
 30
0.0
  9
$USERI1
 70
     0
  9
$USERI2
 70
     0
  9
$USERI3
 70
     0
  9
$USERI4
 70
     0
  9
$USERI5
 70
     0
  9
$USERR1
 40
0.0
  9
$USERR2
 40
0.0
  9
$USERR3
 40
0.0
  9
$USERR4
 40
0.0
  9
$USERR5
 40
0.0
  9
$WORLDVIEW
 70
     1
  9
$SHADEDGE
 70
     3
  9
$SHADEDIF
 70
    70
  9
$TILEMODE
 70
     1
  9
$MAXACTVP
 70
    48
  9
$PINSBASE
 10
0.0
 20
0.0
 30
0.0
  9
$PLIMCHECK
 70
     0
  9
$PEXTMIN
 10
0.0
 20
0.0
 30
0.0
  9
$PEXTMAX
 10
0.0
 20
0.0
 30
0.0
  9
$PLIMMIN
 10
0.0
 20
0.0
  9
$PLIMMAX
 10
12.0
 20
9.0
  9
$UNITMODE
 70
     0
  9
$VISRETAIN
 70
     1
  9
$PLINEGEN
 70
     0
  9
$PSLTSCALE
 70
     1
  9
$TREEDEPTH
 70
  3020
  9
$CMLSTYLE
  2
Standard
  9
$CMLJUST
 70
     0
  9
$CMLSCALE
 40
20.0
  9
$PROXYGRAPHICS
 70
     1
  9
$MEASUREMENT
 70
     1
  9
$CELWEIGHT
370
    -1
  9
$ENDCAPS
280
     0
  9
$JOINSTYLE
280
     0
  9
$LWDISPLAY
290
     0
  9
$INSUNITS
 70
     4
  9
$HYPERLINKBASE
  1

  9
$STYLESHEET
  1

  9
$XEDIT
290
     1
  9
$CEPSNTYPE
380
     0
  9
$PSTYLEMODE
290
     1
  9
$FINGERPRINTGUID
  2
{6C1266EE-7BC1-BF4A-B059-A6E7702B10CE}
  9
$VERSIONGUID
  2
{11186F41-9BD2-C449-9A0B-E85091B213F1}
  9
$EXTNAMES
290
     1
  9
$PSVPSCALE
 40
0.0
  9
$OLESTARTUP
290
     0
  0
ENDSEC
  0
SECTION
  2
CLASSES
  0
CLASS
  1
ACDBDICTIONARYWDFLT
  2
AcDbDictionaryWithDefault
  3
ObjectDBX Classes
 90
        0
280
     0
281
     0
  0
CLASS
  1
ACDBPLACEHOLDER
  2
AcDbPlaceHolder
  3
ObjectDBX Classes
 90
        0
280
     0
281
     0
  0
CLASS
  1
LAYOUT
  2
AcDbLayout
  3
ObjectDBX Classes
 90
        0
280
     0
281
     0
  0
CLASS
  1
DICTIONARYVAR
  2
AcDbDictionaryVar
  3
ObjectDBX Classes
 90
        0
280
     0
281
     0
  0
CLASS
  1
TABLESTYLE
  2
AcDbTableStyle
  3
ObjectDBX Classes
 90
     4095
280
     0
281
     0
  0
CLASS
  1
MATERIAL
  2
AcDbMaterial
  3
ObjectDBX Classes
 90
     1153
280
     0
281
     0
  0
CLASS
  1
VISUALSTYLE
  2
AcDbVisualStyle
  3
ObjectDBX Classes
 90
     4095
280
     0
281
     0
  0
CLASS
  1
SCALE
  2
AcDbScale
  3
ObjectDBX Classes
 90
     1153
280
     0
281
     0
  0
CLASS
  1
MLEADERSTYLE
  2
AcDbMLeaderStyle
  3
ACDB_MLEADERSTYLE_CLASS
 90
     4095
280
     0
281
     0
  0
CLASS
  1
CELLSTYLEMAP
  2
AcDbCellStyleMap
  3
ObjectDBX Classes
 90
     1152
280
     0
281
     0
  0
CLASS
  1
EXACXREFPANELOBJECT
  2
ExAcXREFPanelObject
  3
EXAC_ESW
 90
    33793
280
     0
281
     0
  0
CLASS
  1
NPOCOLLECTION
  2
AcDbImpNonPersistentObjectsCollection
  3
ObjectDBX Classes
 90
    33921
280
     0
281
     0
  0
CLASS
  1
LAYER_INDEX
  2
AcDbLayerIndex
  3
ObjectDBX Classes
 90
    32768
280
     0
281
     0
  0
CLASS
  1
SPATIAL_INDEX
  2
AcDbSpatialIndex
  3
ObjectDBX Classes
 90
    32768
280
     0
281
     0
  0
CLASS
  1
IDBUFFER
  2
AcDbIdBuffer
  3
ObjectDBX Classes
 90
    32768
280
     0
281
     0
  0
CLASS
  1
ACDBSECTIONVIEWSTYLE
  2
AcDbSectionViewStyle
  3
ObjectDBX Classes
 90
     1025
280
     0
281
     0
  0
CLASS
  1
ACDBDETAILVIEWSTYLE
  2
AcDbDetailViewStyle
  3
ObjectDBX Classes
 90
     1025
280
     0
281
     0
  0
CLASS
  1
XRECORD
  2
AcDbXrecord
  3
ObjectDBX Classes
 90
        0
280
     0
281
     0
  0
ENDSEC
  0
SECTION
  2
TABLES
  0
TABLE
  2
VPORT
  5
8
102
{ACAD_XDICTIONARY
360
96DB
102
}
330
0
100
AcDbSymbolTable
 70
     1
  0
VPORT
  5
EA
330
8
100
AcDbSymbolTableRecord
100
AcDbViewportTableRecord
  2
*Active
 70
     0
 10
0.0
 20
0.0
 11
1.0
 21
1.0
 12
27.54455642954516
 22
15.29729515313789
 13
0.0
 23
0.0
 14
10.0
 24
10.0
 15
10.0
 25
10.0
 16
0.0
 26
0.0
 36
1.0
 17
0.0
 27
0.0
 37
0.0
 40
580.2103283113857
 41
0.9846153846153846
 42
50.0
 43
0.0
 44
0.0
 50
0.0
 51
0.0
 71
     0
 72
  1000
 73
     1
 74
     3
 75
     0
 76
     1
 77
     0
 78
     0
281
     0
 65
     1
110
0.0
120
0.0
130
0.0
111
1.0
121
0.0
131
0.0
112
0.0
122
1.0
132
0.0
 79
     0
146
0.0
1001
ACAD_NAV_VCDISPLAY
1070
     3
  0
ENDTAB
  0
TABLE
  2
LTYPE
  5
5
330
0
100
AcDbSymbolTable
 70
     1
  0
LTYPE
  5
14
330
5
100
AcDbSymbolTableRecord
100
AcDbLinetypeTableRecord
  2
ByBlock
 70
     0
  3

 72
    65
 73
     0
 40
0.0
  0
LTYPE
  5
15
330
5
100
AcDbSymbolTableRecord
100
AcDbLinetypeTableRecord
  2
ByLayer
 70
     0
  3

 72
    65
 73
     0
 40
0.0
  0
LTYPE
  5
16
330
5
100
AcDbSymbolTableRecord
100
AcDbLinetypeTableRecord
  2
Continuous
 70
     0
  3
Solid line
 72
    65
 73
     0
 40
0.0
  0
ENDTAB
  0
TABLE
  2
LAYER
  5
2
102
{ACAD_XDICTIONARY
360
1FF
102
}
330
0
100
AcDbSymbolTable
 70
     1
  0
LAYER
  5
10
102
{ACAD_XDICTIONARY
360
13C
102
}
330
2
100
AcDbSymbolTableRecord
100
AcDbLayerTableRecord
  2
0
 70
     0
 62
     7
  6
Continuous
370
    -3
390
F
  0
ENDTAB
  0
TABLE
  2
STYLE
  5
3
330
0
100
AcDbSymbolTable
 70
     1
  0
STYLE
  5
11
330
3
100
AcDbSymbolTableRecord
100
AcDbTextStyleTableRecord
  2
Standard
 70
     0
 40
0.0
 41
1.0
 50
0.0
 71
     0
 42
2.5
  3
arial.ttf
  4

1001
ACAD
1000
Arial
1071
       34
  0
ENDTAB
  0
TABLE
  2
VIEW
  5
6
330
0
100
AcDbSymbolTable
 70
     0
  0
ENDTAB
  0
TABLE
  2
UCS
  5
7
330
0
100
AcDbSymbolTable
 70
     0
  0
ENDTAB
  0
TABLE
  2
APPID
  5
9
330
0
100
AcDbSymbolTable
 70
     8
  0
APPID
  5
12
330
9
100
AcDbSymbolTableRecord
100
AcDbRegAppTableRecord
  2
ACAD
 70
     0
  0
APPID
  5
9E
330
9
100
AcDbSymbolTableRecord
100
AcDbRegAppTableRecord
  2
ACAD_PSEXT
 70
     0
  0
APPID
  5
133
330
9
100
AcDbSymbolTableRecord
100
AcDbRegAppTableRecord
  2
AcadAnnoPO
 70
     0
  0
APPID
  5
134
330
9
100
AcDbSymbolTableRecord
100
AcDbRegAppTableRecord
  2
AcadAnnotative
 70
     0
  0
APPID
  5
135
330
9
100
AcDbSymbolTableRecord
100
AcDbRegAppTableRecord
  2
ACAD_DSTYLE_DIMJAG
 70
     0
  0
APPID
  5
136
330
9
100
AcDbSymbolTableRecord
100
AcDbRegAppTableRecord
  2
ACAD_DSTYLE_DIMTALN
 70
     0
  0
APPID
  5
165
330
9
100
AcDbSymbolTableRecord
100
AcDbRegAppTableRecord
  2
ACAD_MLEADERVER
 70
     0
  0
APPID
  5
217
330
9
100
AcDbSymbolTableRecord
100
AcDbRegAppTableRecord
  2
ACAD_NAV_VCDISPLAY
 70
     0
  0
ENDTAB
  0
TABLE
  2
DIMSTYLE
  5
A
330
0
100
AcDbSymbolTable
 70
     1
100
AcDbDimStyleTable
 71
     0
  0
DIMSTYLE
105
27
330
A
100
AcDbSymbolTableRecord
100
AcDbDimStyleTableRecord
  2
ISO-25
 70
     0
 41
2.5
 42
0.625
 43
3.75
 44
1.25
 73
     0
 74
     0
 77
     1
 78
     8
140
2.5
141
2.5
143
0.03937007874016
147
0.625
171
     3
172
     1
271
     2
272
     2
274
     3
278
    44
283
     0
284
     8
340
11
  0
ENDTAB
  0
TABLE
  2
BLOCK_RECORD
  5
1
330
0
100
AcDbSymbolTable
 70
     7
  0
BLOCK_RECORD
  5
1F
102
{ACAD_XDICTIONARY
360
1CE
102
}
330
1
100
AcDbSymbolTableRecord
100
AcDbBlockTableRecord
  2
*Model_Space
340
22
  0
BLOCK_RECORD
  5
D2
102
{ACAD_XDICTIONARY
360
968E
102
}
330
1
100
AcDbSymbolTableRecord
100
AcDbBlockTableRecord
  2
*Paper_Space
340
D3
  0
BLOCK_RECORD
  5
D6
102
{ACAD_XDICTIONARY
360
9690
102
}
330
1
100
AcDbSymbolTableRecord
100
AcDbBlockTableRecord
  2
*Paper_Space0
340
D7
  0
BLOCK_RECORD
  5
9507
330
1
100
AcDbSymbolTableRecord
100
AcDbBlockTableRecord
  2
SAE380_70_2-Front
340
0
102
{BLKREFS
331
9684
102
}
  0
BLOCK_RECORD
  5
9559
330
1
100
AcDbSymbolTableRecord
100
AcDbBlockTableRecord
  2
SAE380_70_2-Left
340
0
102
{BLKREFS
331
9685
102
}
  0
BLOCK_RECORD
  5
9577
330
1
100
AcDbSymbolTableRecord
100
AcDbBlockTableRecord
  2
SAE380_70_2-Right
340
0
102
{BLKREFS
331
9686
102
}
  0
BLOCK_RECORD
  5
9596
330
1
100
AcDbSymbolTableRecord
100
AcDbBlockTableRecord
  2
SAE380_70_2-Top
340
0
102
{BLKREFS
331
9687
102
}
  0
BLOCK_RECORD
  5
95C8
330
1
100
AcDbSymbolTableRecord
100
AcDbBlockTableRecord
  2
SAE380_70_2-Bottom
340
0
102
{BLKREFS
331
9688
102
}
  0
BLOCK_RECORD
  5
95F3
330
1
100
AcDbSymbolTableRecord
100
AcDbBlockTableRecord
  2
SAE380_70_2-ISO
340
0
102
{BLKREFS
331
9689
102
}
  0
ENDTAB
  0
ENDSEC
  0
SECTION
  2
BLOCKS
  0
BLOCK
  5
20
330
1F
100
AcDbEntity
  8
0
100
AcDbBlockBegin
  2
*Model_Space
 70
     0
 10
0.0
 20
0.0
 30
0.0
  3
*Model_Space
  1

  0
ENDBLK
  5
21
330
1F
100
AcDbEntity
  8
0
100
AcDbBlockEnd
  0
BLOCK
  5
D4
330
D2
100
AcDbEntity
 67
     1
  8
0
100
AcDbBlockBegin
  2
*Paper_Space
 70
     0
 10
0.0
 20
0.0
 30
0.0
  3
*Paper_Space
  1

  0
ENDBLK
  5
D5
330
D2
100
AcDbEntity
 67
     1
  8
0
100
AcDbBlockEnd
  0
BLOCK
  5
D8
330
D6
100
AcDbEntity
 67
     1
  8
0
100
AcDbBlockBegin
  2
*Paper_Space0
 70
     0
 10
0.0
 20
0.0
 30
0.0
  3
*Paper_Space0
  1

  0
ENDBLK
  5
D9
330
D6
100
AcDbEntity
 67
     1
  8
0
100
AcDbBlockEnd
  0
BLOCK
  5
9508
330
9507
100
AcDbEntity
  8
0
100
AcDbBlockBegin
  2
SAE380_70_2-Front
 70
     0
 10
0.0
 20
0.0
 30
0.0
  3
SAE380_70_2-Front
  1

  0
SPLINE
  5
950A
330
9507
100
AcDbEntity
  8
0
100
AcDbSpline
210
0.0
220
0.0
230
1.0
 70
     8
 71
     3
 72
    14
 73
    10
 74
     0
 42
0.000000001
 43
0.0000000001
 40
0.0
 40
0.0
 40
0.0
 40
0.0
 40
0.3435165591311061
 40
0.3435165591311061
 40
0.3435165591311061
 40
0.7569936138406593
 40
0.7569936138406593
 40
0.7569936138406593
 40
0.9986524957875319
 40
0.9986524957875319
 40
0.9986524957875319
 40
0.9986524957875319
 10
39.60606060606067
 20
27.56249999999998
 30
0.0
 10
39.2849024929176
 20
27.30249193735528
 30
0.0
 10
38.87245901695949
 20
27.07529037327
 30
0.0
 10
38.47646762713446
 20
26.8440781016931
 30
0.0
 10
37.99982873097951
 20
26.56577719734618
 30
0.0
 10
37.53730090290923
 20
26.271394502197
 30
0.0
 10
37.26243107016788
 20
25.85792877882472
 30
0.0
 10
37.10178192239869
 20
25.61627651953868
 30
0.0
 10
37.00111653429333
 20
25.36107592070243
 30
0.0
 10
37.0000092293114
 20
25.00594994765962
 30
0.0
  0
LINE
  5
950B
330
9507
100
AcDbEntity
  8
0
100
AcDbLine
 10
37.0
 20
27.56249999999996
 30
0.0
 11
39.0
 21
27.56249999999996
 31
0.0
  0
SPLINE
  5
950C
330
9507
100
AcDbEntity
  8
0
100
AcDbSpline
210
0.0
220
0.0
230
1.0
 70
     8
 71
     3
 72
    20
 73
    16
 74
     0
 42
0.000000001
 43
0.0000000001
 40
0.0120765331159449
 40
0.0120765331159449
 40
0.0120765331159449
 40
0.0120765331159449
 40
0.0124299338915664
 40
0.0124299338915664
 40
0.0135323717893566
 40
0.0135323717893566
 40
0.0142287686628077
 40
0.0142287686628077
 40
0.015312406274178
 40
0.015312406274178
 40
0.0162555189888769
 40
0.0162555189888769
 40
0.0174042296509752
 40
0.0174042296509752
 40
0.0202482571596386
 40
0.0202482571596386
 40
0.0202482571596386
 40
0.0202482571596386
 10
37.00029164702534
 20
25.05864902334681
 30
0.0
 10
37.00029164702505
 20
25.05864902332194
 30
0.0
 10
37.00029123985777
 20
25.05861347933006
 30
0.0
 10
37.00028776216091
 20
25.05830458931662
 30
0.0
 10
37.00028070246624
 20
25.05768025206427
 30
0.0
 10
37.00026151506535
 20
25.05581417748174
 30
0.0
 10
37.0002521518955
 20
25.05487575891834
 30
0.0
 10
37.0002245241659
 20
25.05190432984699
 30
0.0
 10
37.00020367422504
 20
25.04948075124513
 30
0.0
 10
37.00016558925907
 20
25.04423272368257
 30
0.0
 10
37.00014804564318
 20
25.04146773837718
 30
0.0
 10
37.00011450601198
 20
25.03510174601221
 30
0.0
 10
37.00009960125937
 20
25.03146048160056
 30
0.0
 10
37.00006174602791
 20
25.01868707772015
 30
0.0
 10
37.00005914044803
 20
25.0093193302269
 30
0.0
 10
37.00007431494576
 20
25.00000012101581
 30
0.0
  0
SPLINE
  5
950D
330
9507
100
AcDbEntity
  8
0
100
AcDbSpline
210
0.0
220
0.0
230
1.0
 70
     8
 71
     3
 72
    20
 73
    16
 74
     0
 42
0.000000001
 43
0.0000000001
 40
0.0053330443839546
 40
0.0053330443839546
 40
0.0053330443839546
 40
0.0053330443839546
 40
0.0056477560867927
 40
0.0056477560867927
 40
0.0060465168934463
 40
0.0060465168934463
 40
0.0065308672621179
 40
0.0065308672621179
 40
0.0071941562291408
 40
0.0071941562291408
 40
0.0085674959628682
 40
0.0085674959628682
 40
0.0106391404923296
 40
0.0106391404923296
 40
0.0111026036641945
 40
0.0111026036641945
 40
0.0111026036641945
 40
0.0111026036641945
 10
37.00010883933657
 20
25.04546313423883
 30
0.0
 10
37.00010883931799
 20
25.04546313124836
 30
0.0
 10
37.00010796016096
 20
25.0453222958067
 30
0.0
 10
37.00010437324481
 20
25.04473466352338
 30
0.0
 10
37.00010121325949
 20
25.04421101029234
 30
0.0
 10
37.00009286769601
 20
25.04276713781781
 30
0.0
 10
37.0000873458059
 20
25.04177605856315
 30
0.0
 10
37.00007384231513
 20
25.03918099206862
 30
0.0
 10
37.0000657111597
 20
25.03748292142211
 30
0.0
 10
37.00004297959454
 20
25.0321636473525
 30
0.0
 10
37.0000298302605
 20
25.02823217298585
 30
0.0
 10
37.00000644282622
 20
25.01793167216139
 30
0.0
 10
37.0000010751515
 20
25.01126223047349
 30
0.0
 10
37.0000062293503
 20
25.0030272831496
 30
0.0
 10
37.00000763272405
 20
25.00151542355999
 30
0.0
 10
37.00000948425086
 20
24.99999957012358
 30
0.0
  0
SPLINE
  5
950E
330
9507
100
AcDbEntity
  8
0
100
AcDbSpline
210
0.0
220
0.0
230
1.0
 70
     8
 71
     3
 72
     8
 73
     4
 74
     0
 42
0.000000001
 43
0.0000000001
 40
0.0
 40
0.0
 40
0.0
 40
0.0
 40
0.0009484845515977
 40
0.0009484845515977
 40
0.0009484845515977
 40
0.0009484845515977
 10
34.99956040496372
 20
25.00000098503776
 30
0.0
 10
34.99956427154482
 20
25.00275539289644
 30
0.0
 10
34.99956807790153
 20
25.00547480200522
 30
0.0
 10
34.99957175544655
 20
25.0081487013956
 30
0.0
  0
SPLINE
  5
950F
330
9507
100
AcDbEntity
  8
0
100
AcDbSpline
210
0.0
220
0.0
230
1.0
 70
     8
 71
     3
 72
    14
 73
    10
 74
     0
 42
0.000000001
 43
0.0000000001
 40
0.0
 40
0.0
 40
0.0
 40
0.0
 40
0.0050537939801655
 40
0.0050537939801655
 40
0.0076266846896473
 40
0.0076266846896473
 40
0.0099757364145294
 40
0.0099757364145294
 40
0.0117459788393207
 40
0.0117459788393207
 40
0.0117459788393207
 40
0.0117459788393207
 10
34.99970085685884
 20
24.99999583904445
 30
0.0
 10
34.9994369602986
 20
25.01668088251444
 30
0.0
 10
34.99916130110918
 20
25.03394678853045
 30
0.0
 10
34.998761934763
 20
25.05896058056269
 30
0.0
 10
34.998628262524
 20
25.06733836408909
 30
0.0
 10
34.99840270372815
 20
25.0814897690719
 30
0.0
 10
34.99830585500943
 20
25.08757010291331
 30
0.0
 10
34.99816732227017
 20
25.09624046874698
 30
0.0
 10
34.99811640356661
 20
25.09941635779561
 30
0.0
 10
34.99807359158919
 20
25.10207293139111
 30
0.0
  0
SPLINE
  5
9510
330
9507
100
AcDbEntity
  8
0
100
AcDbSpline
210
0.0
220
0.0
230
1.0
 70
     8
 71
     3
 72
    34
 73
    30
 74
     0
 42
0.000000001
 43
0.0000000001
 40
0.0019539046405716
 40
0.0019539046405716
 40
0.0019539046405716
 40
0.0019539046405716
 40
0.0074296365907862
 40
0.0074296365907862
 40
0.0161449402123624
 40
0.0161449402123624
 40
0.0215828361389767
 40
0.0215828361389767
 40
0.0244032832851105
 40
0.0244032832851105
 40
0.0264872482907951
 40
0.0264872482907951
 40
0.0292236481807413
 40
0.0292236481807413
 40
0.0316487798377845
 40
0.0316487798377845
 40
0.0348373360800582
 40
0.0348373360800582
 40
0.0399365469113296
 40
0.0399365469113296
 40
0.0496589587113526
 40
0.0496589587113526
 40
0.0742169059915133
 40
0.0742169059915133
 40
0.1474271740153621
 40
0.1474271740153621
 40
0.2287985435806253
 40
0.2287985435806253
 40
0.2660627700021395
 40
0.2660627700021395
 40
0.2660627700021395
 40
0.2660627700021395
 10
34.99993431788731
 20
25.00380484820616
 30
0.0
 10
34.99985928935157
 20
25.00810791565044
 30
0.0
 10
34.99974845963989
 20
25.01435438888057
 30
0.0
 10
34.99939149472507
 20
25.03388659844703
 30
0.0
 10
34.99909596754644
 20
25.04957540600552
 30
0.0
 10
34.99852099218605
 20
25.07925673440624
 30
0.0
 10
34.99828146754214
 20
25.09145900653791
 30
0.0
 10
34.99788178719395
 20
25.11186537052087
 30
0.0
 10
34.99773462265964
 20
25.11938787674414
 30
0.0
 10
34.99745964640585
 20
25.13358395771917
 30
0.0
 10
34.99733531492579
 20
25.1400461352296
 30
0.0
 10
34.99704171945485
 20
25.15551843178081
 30
0.0
 10
34.99686693729707
 20
25.16489649884709
 30
0.0
 10
34.99655660038327
 20
25.18203580801588
 30
0.0
 10
34.99641577897022
 20
25.1900235351696
 30
0.0
 10
34.99611288289166
 20
25.20773328684788
 30
0.0
 10
34.99595511724764
 20
25.21737524669204
 30
0.0
 10
34.99558173242367
 20
25.24123347996298
 30
0.0
 10
34.99538454084203
 20
25.25493755214214
 30
0.0
 10
34.99487987374669
 20
25.29285685751333
 30
0.0
 10
34.99462930875935
 20
25.31564514732119
 30
0.0
 10
34.99390946005287
 20
25.39342272470051
 30
0.0
 10
34.9936774883875
 20
25.44492798225321
 30
0.0
 10
34.99335832113228
 20
25.65949422076445
 30
0.0
 10
34.99487169860214
 20
25.84918847440814
 30
0.0
 10
34.99832585588497
 20
26.28481707705797
 30
0.0
 10
34.99958712305459
 20
26.54126409179576
 30
0.0
 10
34.99998670133146
 20
26.92747515680861
 30
0.0
 10
34.99999969479861
 20
27.05109323496872
 30
0.0
 10
34.99999357876786
 20
27.17487023308234
 30
0.0
  0
SPLINE
  5
9511
330
9507
100
AcDbEntity
  8
0
100
AcDbSpline
210
0.0
220
0.0
230
1.0
 70
     8
 71
     3
 72
    12
 73
     8
 74
     0
 42
0.000000001
 43
0.0000000001
 40
0.0
 40
0.0
 40
0.0
 40
0.0
 40
0.0030444958778418
 40
0.0030444958778418
 40
0.0059484407713318
 40
0.0059484407713318
 40
0.0076998870964348
 40
0.0076998870964348
 40
0.0076998870964348
 40
0.0076998870964348
 10
34.99994094388028
 20
24.99999982320922
 30
0.0
 10
34.99992879114666
 20
25.00696349585749
 30
0.0
 10
34.99991750826063
 20
25.01275347419241
 30
0.0
 10
34.99989987695826
 20
25.02087153612587
 30
0.0
 10
34.99989321273549
 20
25.02345633793976
 30
0.0
 10
34.99988739353169
 20
25.02557939446172
 30
0.0
 10
34.9998862665852
 20
25.02594036136529
 30
0.0
 10
34.99988626658526
 20
25.02594036134783
 30
0.0
  0
SPLINE
  5
9512
330
9507
100
AcDbEntity
  8
0
100
AcDbSpline
210
0.0
220
0.0
230
1.0
 70
     8
 71
     3
 72
     8
 73
     4
 74
     0
 42
0.000000001
 43
0.0000000001
 40
0.0
 40
0.0
 40
0.0
 40
0.0
 40
0.0007119893035022
 40
0.0007119893035022
 40
0.0007119893035022
 40
0.0007119893035022
 10
39.60611379963717
 20
27.56243160914643
 30
0.0
 10
39.60533819825817
 20
27.56182868811213
 30
0.0
 10
39.6045387205186
 20
27.56120758964942
 30
0.0
 10
39.60373327039708
 20
27.56058171704074
 30
0.0
  0
SPLINE
  5
9513
330
9507
100
AcDbEntity
  8
0
100
AcDbSpline
210
0.0
220
0.0
230
1.0
 70
     8
 71
     3
 72
     8
 73
     4
 74
     0
 42
0.000000001
 43
0.0000000001
 40
0.0001369350460855
 40
0.0001369350460855
 40
0.0001369350460855
 40
0.0001369350460855
 40
0.000673044175883
 40
0.000673044175883
 40
0.000673044175883
 40
0.000673044175883
 10
39.60523147098552
 20
27.56174578009829
 30
0.0
 10
39.60408446561441
 20
27.56082273226544
 30
0.0
 10
39.60290101569365
 20
27.55987127919131
 30
0.0
 10
39.60168845208628
 20
27.55889733853287
 30
0.0
  0
LINE
  5
9514
330
9507
100
AcDbEntity
  8
0
100
AcDbLine
 10
32.99999999999999
 20
-2.0
 30
0.0
 11
-32.99999999999999
 21
-2.000000000000007
 31
0.0
  0
LINE
  5
9515
330
9507
100
AcDbEntity
  8
0
100
AcDbLine
 10
-32.99999999999999
 20
0.0
 30
0.0
 11
32.99999999999999
 21
0.0
 31
0.0
  0
LINE
  5
9516
330
9507
100
AcDbEntity
  8
0
100
AcDbLine
 10
-39.0
 20
27.56249999999996
 30
0.0
 11
-37.0
 21
27.56249999999996
 31
0.0
  0
SPLINE
  5
9517
330
9507
100
AcDbEntity
  8
0
100
AcDbSpline
210
0.0
220
0.0
230
1.0
 70
     8
 71
     3
 72
    14
 73
    10
 74
     0
 42
0.000000001
 43
0.0000000001
 40
0.0
 40
0.0
 40
0.0
 40
0.0
 40
0.3435165591311061
 40
0.3435165591311061
 40
0.3435165591311061
 40
0.7569936138406593
 40
0.7569936138406593
 40
0.7569936138406593
 40
0.99865249578782
 40
0.99865249578782
 40
0.99865249578782
 40
0.99865249578782
 10
-39.60606060606067
 20
27.56249999999998
 30
0.0
 10
-39.2849024929176
 20
27.30249193735528
 30
0.0
 10
-38.87245901695949
 20
27.07529037327
 30
0.0
 10
-38.47646762713446
 20
26.8440781016931
 30
0.0
 10
-37.99982873097951
 20
26.56577719734618
 30
0.0
 10
-37.53730090290923
 20
26.271394502197
 30
0.0
 10
-37.26243107016788
 20
25.85792877882472
 30
0.0
 10
-37.1017819223985
 20
25.61627651953839
 30
0.0
 10
-37.00111653429309
 20
25.36107592070182
 30
0.0
 10
-37.0000092293114
 20
25.00594994765835
 30
0.0
  0
SPLINE
  5
9518
330
9507
100
AcDbEntity
  8
0
100
AcDbSpline
210
0.0
220
0.0
230
1.0
 70
     8
 71
     3
 72
    28
 73
    24
 74
     0
 42
0.000000001
 43
0.0000000001
 40
0.0
 40
0.0
 40
0.0
 40
0.0
 40
0.0540620846927381
 40
0.0540620846927381
 40
0.1393439140290386
 40
0.1393439140290386
 40
0.2167774481610936
 40
0.2167774481610936
 40
0.2311105818359288
 40
0.2311105818359288
 40
0.2351063344930286
 40
0.2351063344930286
 40
0.2378258610244225
 40
0.2378258610244225
 40
0.2405620753830196
 40
0.2405620753830196
 40
0.2461079182695652
 40
0.2461079182695652
 40
0.2515015854657156
 40
0.2515015854657156
 40
0.25779687984234
 40
0.25779687984234
 40
0.2640456345757091
 40
0.2640456345757091
 40
0.2640456345757091
 40
0.2640456345757091
 10
-34.99999357876787
 20
27.17487023308606
 30
0.0
 10
-35.00000245176494
 20
26.99529740419276
 30
0.0
 10
-34.9999854106169
 20
26.81558279738952
 30
0.0
 10
-34.99899707061119
 20
26.37041142377578
 30
0.0
 10
-34.99687662248271
 20
26.11225533716584
 30
0.0
 10
-34.99358593447707
 20
25.67699592249177
 30
0.0
 10
-34.99279288995835
 20
25.51134807227452
 30
0.0
 10
-34.99475536670141
 20
25.3025512114779
 30
0.0
 10
-34.99515766630487
 20
25.26843106034375
 30
0.0
 10
-34.99597956615852
 20
25.21578598732072
 30
0.0
 10
-34.99618174790103
 20
25.20353413024948
 30
0.0
 10
-34.99655802398811
 20
25.18193406063734
 30
0.0
 10
-34.99672350596765
 20
25.17274071030224
 30
0.0
 10
-34.9970591104152
 20
25.15457502599962
 30
0.0
 10
-34.99723273598974
 20
25.14541240034081
 30
0.0
 10
-34.99772040964187
 20
25.12001148405407
 30
0.0
 10
-34.99800378744783
 20
25.10563879690235
 30
0.0
 10
-34.99850230283895
 20
25.08019268029325
 30
0.0
 10
-34.99873229692084
 20
25.06839793941684
 30
0.0
 10
-34.99917625211521
 20
25.04528460880671
 30
0.0
 10
-34.99938249359904
 20
25.03431152725428
 30
0.0
 10
-34.99971657260547
 20
25.01614539790129
 30
0.0
 10
-34.99984873400133
 20
25.00871226669798
 30
0.0
 10
-34.99993436990246
 20
25.0038008412709
 30
0.0
  0
SPLINE
  5
9519
330
9507
100
AcDbEntity
  8
0
100
AcDbSpline
210
0.0
220
0.0
230
1.0
 70
     8
 71
     3
 72
     8
 73
     4
 74
     0
 42
0.000000001
 43
0.0000000001
 40
0.0207870332211832
 40
0.0207870332211832
 40
0.0207870332211832
 40
0.0207870332211832
 40
0.0217363617195128
 40
0.0217363617195128
 40
0.0217363617195128
 40
0.0217363617195128
 10
-34.99957173053592
 20
25.00814873955132
 30
0.0
 10
-34.99956805571753
 20
25.00547682266258
 30
0.0
 10
-34.99956427498524
 20
25.00275784372551
 30
0.0
 10
-34.99956040496372
 20
25.00000098503775
 30
0.0
  0
SPLINE
  5
951A
330
9507
100
AcDbEntity
  8
0
100
AcDbSpline
210
0.0
220
0.0
230
1.0
 70
     8
 71
     3
 72
    18
 73
    14
 74
     0
 42
0.000000001
 43
0.0000000001
 40
0.0359684561509351
 40
0.0359684561509351
 40
0.0359684561509351
 40
0.0359684561509351
 40
0.0373929832732223
 40
0.0373929832732223
 40
0.0388269919339857
 40
0.0388269919339857
 40
0.0410736016920929
 40
0.0410736016920929
 40
0.0431426643186065
 40
0.0431426643186065
 40
0.045746750824073
 40
0.045746750824073
 40
0.0477385101392245
 40
0.0477385101392245
 40
0.0477385101392245
 40
0.0477385101392245
 10
-34.99807360885
 20
25.10207149761208
 30
0.0
 10
-34.99810813531555
 20
25.09992905752282
 30
0.0
 10
-34.99814774219493
 20
25.0974614035373
 30
0.0
 10
-34.99823833708931
 20
25.0917980091852
 30
0.0
 10
-34.99828987723181
 20
25.08856808627451
 30
0.0
 10
-34.99843588989882
 20
25.07940949972354
 30
0.0
 10
-34.99854061045705
 20
25.07283556146115
 30
0.0
 10
-34.99875345136853
 20
25.05949165214988
 30
0.0
 10
-34.99886231674702
 20
25.05267340592325
 30
0.0
 10
-34.99910891270759
 20
25.03722801473089
 30
0.0
 10
-34.99924874600432
 20
25.02846688875282
 30
0.0
 10
-34.99949198845314
 20
25.01317857620203
 30
0.0
 10
-34.99959685213799
 20
25.00657160981894
 30
0.0
 10
-34.99970085685883
 20
24.99999583904444
 30
0.0
  0
SPLINE
  5
951B
330
9507
100
AcDbEntity
  8
0
100
AcDbSpline
210
0.0
220
0.0
230
1.0
 70
     8
 71
     3
 72
    12
 73
     8
 74
     0
 42
0.000000001
 43
0.0000000001
 40
0.0138145558011802
 40
0.0138145558011802
 40
0.0138145558011802
 40
0.0138145558011802
 40
0.0169919968685633
 40
0.0169919968685633
 40
0.0189384571177172
 40
0.0189384571177172
 40
0.0215156435992871
 40
0.0215156435992871
 40
0.0215156435992871
 40
0.0215156435992871
 10
-34.99988626658524
 20
25.02594036135335
 30
0.0
 10
-34.99988626662717
 20
25.0259403478384
 30
0.0
 10
-34.99989009834166
 20
25.02472196574912
 30
0.0
 10
-34.99990126040591
 20
25.02016540636012
 30
0.0
 10
-34.99990666432454
 20
25.01781765278986
 30
0.0
 10
-34.99992101848976
 20
25.01095157767381
 30
0.0
 10
-34.99993065650855
 20
25.00589461950132
 30
0.0
 10
-34.99994094388026
 20
24.99999982320922
 30
0.0
  0
SPLINE
  5
951C
330
9507
100
AcDbEntity
  8
0
100
AcDbSpline
210
0.0
220
0.0
230
1.0
 70
     8
 71
     3
 72
    16
 73
    12
 74
     0
 42
0.000000001
 43
0.0000000001
 40
0.0
 40
0.0
 40
0.0
 40
0.0
 40
0.0041147701070482
 40
0.0041147701070482
 40
0.0050669104861754
 40
0.0050669104861754
 40
0.0058958097551367
 40
0.0058958097551367
 40
0.0067234516553726
 40
0.0067234516553726
 40
0.0081601476161568
 40
0.0081601476161568
 40
0.0081601476161568
 40
0.0081601476161568
 10
-37.00007431501603
 20
25.00000007787122
 30
0.0
 10
-37.00005236030881
 20
25.01348321169404
 30
0.0
 10
-37.0000708900194
 20
25.02743611927486
 30
0.0
 10
-37.00015518626246
 20
25.04264323887229
 30
0.0
 10
-37.00017334253641
 20
25.04537391431061
 30
0.0
 10
-37.00020680359914
 20
25.04980909449365
 30
0.0
 10
-37.00022231882083
 20
25.05162998383528
 30
0.0
 10
-37.00024914482309
 20
25.05457669173536
 30
0.0
 10
-37.00026066602943
 20
25.05573299460867
 30
0.0
 10
-37.0002845704404
 20
25.05805391642198
 30
0.0
 10
-37.00029164702542
 20
25.0586490233544
 30
0.0
 10
-37.00029164702533
 20
25.05864902334615
 30
0.0
  0
SPLINE
  5
951D
330
9507
100
AcDbEntity
  8
0
100
AcDbSpline
210
0.0
220
0.0
230
1.0
 70
     8
 71
     3
 72
    18
 73
    14
 74
     0
 42
0.000000001
 43
0.0000000001
 40
0.0
 40
0.0
 40
0.0
 40
0.0
 40
0.0020456842485533
 40
0.0020456842485533
 40
0.0037103799066913
 40
0.0037103799066913
 40
0.0047886574550084
 40
0.0047886574550084
 40
0.0054058580230034
 40
0.0054058580230034
 40
0.0056713593754836
 40
0.0056713593754836
 40
0.0057658587515899
 40
0.0057658587515899
 40
0.0057658587515899
 40
0.0057658587515899
 10
-37.00000948370932
 20
25.00000001349923
 30
0.0
 10
-37.00000131162408
 20
25.00669084892483
 30
0.0
 10
-37.00000211672946
 20
25.01335086236353
 30
0.0
 10
-37.00001995709044
 20
25.02478352042717
 30
0.0
 10
-37.00003405059748
 20
25.02972464708054
 30
0.0
 10
-37.00006334256455
 20
25.03706867856138
 30
0.0
 10
-37.00007727322308
 20
25.0399193463546
 30
0.0
 10
-37.00009604289418
 20
25.0433427331923
 30
0.0
 10
-37.00010217954234
 20
25.04437249634238
 30
0.0
 10
-37.00010716091133
 20
25.04519218273915
 30
0.0
 10
-37.00010818416205
 20
25.04535741754492
 30
0.0
 10
-37.00010876159584
 20
25.04545062471761
 30
0.0
 10
-37.00010883935323
 20
25.04546313692546
 30
0.0
 10
-37.00010883933654
 20
25.04546313423836
 30
0.0
  0
SPLINE
  5
951E
330
9507
100
AcDbEntity
  8
0
100
AcDbSpline
210
0.0
220
0.0
230
1.0
 70
     8
 71
     3
 72
     8
 73
     4
 74
     0
 42
0.000000001
 43
0.0000000001
 40
0.0
 40
0.0
 40
0.0
 40
0.0
 40
0.0007418618386053
 40
0.0007418618386053
 40
0.0007418618386053
 40
0.0007418618386053
 10
-37.00001228473424
 20
24.99999999359671
 30
0.0
 10
-37.00000823587386
 20
25.00154343844958
 30
0.0
 10
-37.00000411639133
 20
25.00317715695081
 30
0.0
 10
-36.99999998544273
 20
25.00485798903032
 30
0.0
  0
SPLINE
  5
951F
330
9507
100
AcDbEntity
  8
0
100
AcDbSpline
210
0.0
220
0.0
230
1.0
 70
     8
 71
     3
 72
     8
 73
     4
 74
     0
 42
0.000000001
 43
0.0000000001
 40
0.2821150862487132
 40
0.2821150862487132
 40
0.2821150862487132
 40
0.2821150862487132
 40
0.2826513748506203
 40
0.2826513748506203
 40
0.2826513748506203
 40
0.2826513748506203
 10
-39.60168994500186
 20
27.55889867967791
 30
0.0
 10
-39.60290278690754
 20
27.55987284386773
 30
0.0
 10
-39.6040844472305
 20
27.56082272437611
 30
0.0
 10
-39.60523157670331
 20
27.5617458720793
 30
0.0
  0
SPLINE
  5
9520
330
9507
100
AcDbEntity
  8
0
100
AcDbSpline
210
0.0
220
0.0
230
1.0
 70
     8
 71
     3
 72
     8
 73
     4
 74
     0
 42
0.000000001
 43
0.0000000001
 40
0.0169267139872899
 40
0.0169267139872899
 40
0.0169267139872899
 40
0.0169267139872899
 40
0.017639532680251
 40
0.017639532680251
 40
0.017639532680251
 40
0.017639532680251
 10
-39.60373962987797
 20
27.56058639088876
 30
0.0
 10
-39.60454420313625
 20
27.56121158213348
 30
0.0
 10
-39.60533729476765
 20
27.56182798577525
 30
0.0
 10
-39.6061137996372
 20
27.56243160914643
 30
0.0
  0
ARC
  5
9521
330
9507
100
AcDbEntity
  8
0
100
AcDbCircle
 10
-32.99999999999999
 20
2.0
 30
0.0
 40
4.000000000000007
100
AcDbArc
 50
180.0
 51
270.0
  0
ARC
  5
9522
330
9507
100
AcDbEntity
  8
0
100
AcDbCircle
 10
-32.99999999999999
 20
2.0
 30
0.0
 40
2.000000000000006
100
AcDbArc
 50
180.0
 51
270.0
  0
ARC
  5
9523
330
9507
100
AcDbEntity
  8
0
100
AcDbCircle
 10
32.99999999999999
 20
2.0
 30
0.0
 40
4.000000000000007
100
AcDbArc
 50
270.0
 51
0.0
  0
LINE
  5
9524
330
9507
100
AcDbEntity
  8
0
100
AcDbLine
 10
39.60606060606069
 20
27.56249999999996
 30
0.0
 11
76.50000000000007
 21
57.99999999999997
 31
0.0
  0
LINE
  5
9525
330
9507
100
AcDbEntity
  8
0
100
AcDbLine
 10
34.99999999999999
 20
25.0
 30
0.0
 11
35.0
 21
57.99999999999997
 31
0.0
  0
LINE
  5
9526
330
9507
100
AcDbEntity
  8
0
100
AcDbLine
 10
36.99999999999999
 20
25.0
 30
0.0
 11
34.99999999999999
 21
25.0
 31
0.0
  0
LINE
  5
9527
330
9507
100
AcDbEntity
  8
0
100
AcDbLine
 10
36.99999999999999
 20
57.99999999999997
 30
0.0
 11
36.99999999999999
 21
25.0
 31
0.0
  0
LINE
  5
9528
330
9507
100
AcDbEntity
  8
0
100
AcDbLine
 10
36.99999999999999
 20
57.99999999999997
 30
0.0
 11
35.0
 21
57.99999999999997
 31
0.0
  0
LINE
  5
9529
330
9507
100
AcDbEntity
  8
0
100
AcDbLine
 10
35.0
 20
57.99999999999997
 30
0.0
 11
35.0
 21
155.0
 31
0.0
  0
LINE
  5
952A
330
9507
100
AcDbEntity
  8
0
100
AcDbLine
 10
36.99999999999999
 20
155.0
 30
0.0
 11
36.99999999999999
 21
57.99999999999997
 31
0.0
  0
LINE
  5
952B
330
9507
100
AcDbEntity
  8
0
100
AcDbLine
 10
35.0
 20
155.0
 30
0.0
 11
36.99999999999999
 21
155.0
 31
0.0
  0
LINE
  5
952C
330
9507
100
AcDbEntity
  8
0
100
AcDbLine
 10
36.99999999999999
 20
25.0
 30
0.0
 11
36.99999999999999
 21
2.000000000000001
 31
0.0
  0
LINE
  5
952D
330
9507
100
AcDbEntity
  8
0
100
AcDbLine
 10
34.99999999999999
 20
2.0
 30
0.0
 11
34.99999999999999
 21
25.0
 31
0.0
  0
ARC
  5
952E
330
9507
100
AcDbEntity
  8
0
100
AcDbCircle
 10
32.99999999999999
 20
2.0
 30
0.0
 40
2.000000000000006
100
AcDbArc
 50
270.0
 51
0.0
  0
LINE
  5
952F
330
9507
100
AcDbEntity
  8
0
100
AcDbLine
 10
39.0
 20
155.0
 30
0.0
 11
37.0
 21
155.0
 31
0.0
  0
LINE
  5
9530
330
9507
100
AcDbEntity
  8
0
100
AcDbLine
 10
76.50000000000007
 20
57.99999999999997
 30
0.0
 11
76.5
 21
155.0
 31
0.0
  0
LINE
  5
9531
330
9507
100
AcDbEntity
  8
0
100
AcDbLine
 10
76.5
 20
155.0
 30
0.0
 11
39.0
 21
155.0
 31
0.0
  0
CIRCLE
  5
9532
330
9507
100
AcDbEntity
  8
0
100
AcDbCircle
 10
57.0
 20
135.0
 30
0.0
 40
6.5
  0
CIRCLE
  5
9533
330
9507
100
AcDbEntity
  8
0
100
AcDbCircle
 10
68.0
 20
140.0
 30
0.0
 40
2.5
  0
LINE
  5
9534
330
9507
100
AcDbEntity
  8
0
100
AcDbLine
 10
-76.50000000000007
 20
57.99999999999997
 30
0.0
 11
-39.60606060606069
 21
27.56249999999996
 31
0.0
  0
LINE
  5
9535
330
9507
100
AcDbEntity
  8
0
100
AcDbLine
 10
-35.0
 20
57.99999999999997
 30
0.0
 11
-34.99999999999999
 21
25.0
 31
0.0
  0
LINE
  5
9536
330
9507
100
AcDbEntity
  8
0
100
AcDbLine
 10
-36.99999999999999
 20
57.99999999999997
 30
0.0
 11
-35.0
 21
57.99999999999997
 31
0.0
  0
LINE
  5
9537
330
9507
100
AcDbEntity
  8
0
100
AcDbLine
 10
-36.99999999999999
 20
25.0
 30
0.0
 11
-36.99999999999999
 21
57.99999999999997
 31
0.0
  0
LINE
  5
9538
330
9507
100
AcDbEntity
  8
0
100
AcDbLine
 10
-34.99999999999999
 20
25.0
 30
0.0
 11
-36.99999999999999
 21
25.0
 31
0.0
  0
LINE
  5
9539
330
9507
100
AcDbEntity
  8
0
100
AcDbLine
 10
-35.0
 20
155.0
 30
0.0
 11
-35.0
 21
57.99999999999997
 31
0.0
  0
LINE
  5
953A
330
9507
100
AcDbEntity
  8
0
100
AcDbLine
 10
-36.99999999999999
 20
155.0
 30
0.0
 11
-35.0
 21
155.0
 31
0.0
  0
LINE
  5
953B
330
9507
100
AcDbEntity
  8
0
100
AcDbLine
 10
-36.99999999999999
 20
57.99999999999997
 30
0.0
 11
-36.99999999999999
 21
155.0
 31
0.0
  0
CIRCLE
  5
953C
330
9507
100
AcDbEntity
  8
0
100
AcDbCircle
 10
-57.0
 20
65.0
 30
0.0
 40
6.5
  0
CIRCLE
  5
953D
330
9507
100
AcDbEntity
  8
0
100
AcDbCircle
 10
57.0
 20
65.0
 30
0.0
 40
6.5
  0
CIRCLE
  5
953E
330
9507
100
AcDbEntity
  8
0
100
AcDbCircle
 10
-57.0
 20
135.0
 30
0.0
 40
6.5
  0
CIRCLE
  5
953F
330
9507
100
AcDbEntity
  8
0
100
AcDbCircle
 10
-46.0
 20
50.0
 30
0.0
 40
2.5
  0
CIRCLE
  5
9540
330
9507
100
AcDbEntity
  8
0
100
AcDbCircle
 10
-46.0
 20
70.0
 30
0.0
 40
2.5
  0
CIRCLE
  5
9541
330
9507
100
AcDbEntity
  8
0
100
AcDbCircle
 10
-46.0
 20
90.0
 30
0.0
 40
2.5
  0
CIRCLE
  5
9542
330
9507
100
AcDbEntity
  8
0
100
AcDbCircle
 10
-46.0
 20
110.0
 30
0.0
 40
2.5
  0
CIRCLE
  5
9543
330
9507
100
AcDbEntity
  8
0
100
AcDbCircle
 10
-46.0
 20
130.0
 30
0.0
 40
2.5
  0
CIRCLE
  5
9544
330
9507
100
AcDbEntity
  8
0
100
AcDbCircle
 10
46.0
 20
50.0
 30
0.0
 40
2.5
  0
CIRCLE
  5
9545
330
9507
100
AcDbEntity
  8
0
100
AcDbCircle
 10
46.0
 20
70.0
 30
0.0
 40
2.5
  0
CIRCLE
  5
9546
330
9507
100
AcDbEntity
  8
0
100
AcDbCircle
 10
46.0
 20
90.0
 30
0.0
 40
2.5
  0
CIRCLE
  5
9547
330
9507
100
AcDbEntity
  8
0
100
AcDbCircle
 10
46.0
 20
110.0
 30
0.0
 40
2.5
  0
CIRCLE
  5
9548
330
9507
100
AcDbEntity
  8
0
100
AcDbCircle
 10
46.0
 20
130.0
 30
0.0
 40
2.5
  0
CIRCLE
  5
9549
330
9507
100
AcDbEntity
  8
0
100
AcDbCircle
 10
-46.0
 20
150.0
 30
0.0
 40
2.5
  0
CIRCLE
  5
954A
330
9507
100
AcDbEntity
  8
0
100
AcDbCircle
 10
46.0
 20
150.0
 30
0.0
 40
2.5
  0
CIRCLE
  5
954B
330
9507
100
AcDbEntity
  8
0
100
AcDbCircle
 10
-68.0
 20
60.0
 30
0.0
 40
2.5
  0
CIRCLE
  5
954C
330
9507
100
AcDbEntity
  8
0
100
AcDbCircle
 10
-68.0
 20
80.0
 30
0.0
 40
2.5
  0
CIRCLE
  5
954D
330
9507
100
AcDbEntity
  8
0
100
AcDbCircle
 10
-68.0
 20
100.0
 30
0.0
 40
2.5
  0
CIRCLE
  5
954E
330
9507
100
AcDbEntity
  8
0
100
AcDbCircle
 10
-68.0
 20
120.0
 30
0.0
 40
2.5
  0
CIRCLE
  5
954F
330
9507
100
AcDbEntity
  8
0
100
AcDbCircle
 10
68.0
 20
60.0
 30
0.0
 40
2.5
  0
CIRCLE
  5
9550
330
9507
100
AcDbEntity
  8
0
100
AcDbCircle
 10
68.0
 20
80.0
 30
0.0
 40
2.5
  0
CIRCLE
  5
9551
330
9507
100
AcDbEntity
  8
0
100
AcDbCircle
 10
68.0
 20
100.0
 30
0.0
 40
2.5
  0
CIRCLE
  5
9552
330
9507
100
AcDbEntity
  8
0
100
AcDbCircle
 10
68.0
 20
120.0
 30
0.0
 40
2.5
  0
CIRCLE
  5
9553
330
9507
100
AcDbEntity
  8
0
100
AcDbCircle
 10
-68.0
 20
140.0
 30
0.0
 40
2.5
  0
LINE
  5
9554
330
9507
100
AcDbEntity
  8
0
100
AcDbLine
 10
-76.5
 20
155.0
 30
0.0
 11
-39.0
 21
155.0
 31
0.0
  0
LINE
  5
9555
330
9507
100
AcDbEntity
  8
0
100
AcDbLine
 10
-76.50000000000007
 20
57.99999999999997
 30
0.0
 11
-76.5
 21
155.0
 31
0.0
  0
LINE
  5
9556
330
9507
100
AcDbEntity
  8
0
100
AcDbLine
 10
-34.99999999999999
 20
2.0
 30
0.0
 11
-34.99999999999999
 21
25.0
 31
0.0
  0
LINE
  5
9557
330
9507
100
AcDbEntity
  8
0
100
AcDbLine
 10
-36.99999999999999
 20
25.0
 30
0.0
 11
-36.99999999999999
 21
2.000000000000001
 31
0.0
  0
LINE
  5
9558
330
9507
100
AcDbEntity
  8
0
100
AcDbLine
 10
-39.0
 20
155.0
 30
0.0
 11
-37.0
 21
155.0
 31
0.0
  0
ENDBLK
  5
9509
330
9507
100
AcDbEntity
  8
0
100
AcDbBlockEnd
  0
BLOCK
  5
955A
330
9559
100
AcDbEntity
  8
0
100
AcDbBlockBegin
  2
SAE380_70_2-Left
 70
     0
 10
0.0
 20
0.0
 30
0.0
  3
SAE380_70_2-Left
  1

  0
LINE
  5
955C
330
9559
100
AcDbEntity
  8
0
100
AcDbLine
 10
2.000000000000004
 20
-2.0
 30
0.0
 11
86.0
 21
-2.000000000000007
 31
0.0
  0
LINE
  5
955D
330
9559
100
AcDbEntity
  8
0
100
AcDbLine
 10
2.00000000000001
 20
2.000000000000004
 30
0.0
 11
2.000000000000004
 21
-1.999999999999999
 31
0.0
  0
LINE
  5
955E
330
9559
100
AcDbEntity
  8
0
100
AcDbLine
 10
86.0
 20
-2.000000000000007
 30
0.0
 11
86.0
 21
2.0
 31
0.0
  0
SPLINE
  5
955F
330
9559
100
AcDbEntity
  8
0
100
AcDbSpline
210
0.0
220
0.0
230
1.0
 70
     8
 71
     3
 72
    14
 73
    10
 74
     0
 42
0.000000001
 43
0.0000000001
 40
-0.4813026532965912
 40
-0.4813026532965912
 40
-0.4813026532965912
 40
-0.4813026532965912
 40
-0.376096008095436
 40
-0.376096008095436
 40
-0.376096008095436
 40
-0.076528497264402
 40
-0.076528497264402
 40
-0.076528497264402
 40
0.0
 40
0.0
 40
0.0
 40
0.0
 10
0.9454120927430739
 20
26.73176011522557
 30
0.0
 10
0.840829787992366
 20
26.76867618608402
 30
0.0
 10
0.7371129357479202
 20
26.80054090483464
 30
0.0
 10
0.6388614064283371
 20
26.83423666321529
 30
0.0
 10
0.3590980320014264
 20
26.9301826411937
 30
0.0
 10
0.1217220476508809
 20
27.0400161296829
 30
0.0
 10
0.0342615816115056
 20
27.31443386956748
 30
0.0
 10
0.0119186445637933
 20
27.38453752399181
 30
0.0
 10
0.0000045452574089
 20
27.46769665104811
 30
0.0
 10
0.0000000001152113
 20
27.56250000004006
 30
0.0
  0
SPLINE
  5
9560
330
9559
100
AcDbEntity
  8
0
100
AcDbSpline
210
0.0
220
0.0
230
1.0
 70
     8
 71
     3
 72
    14
 73
    10
 74
     0
 42
0.000000001
 43
0.0000000001
 40
0.0
 40
0.0
 40
0.0
 40
0.0
 40
0.3435165591311061
 40
0.3435165591311061
 40
0.3435165591311061
 40
0.7569936138406593
 40
0.7569936138406593
 40
0.7569936138406593
 40
1.0
 40
1.0
 40
1.0
 40
1.0
 10
2.000000000000014
 20
27.56249999999998
 30
0.0
 10
2.000036880260036
 20
27.30249193735528
 30
0.0
 10
1.996833903329161
 20
27.07529037327
 30
0.0
 10
1.998675521249917
 20
26.8440781016931
 30
0.0
 10
2.000892202610783
 20
26.56577719734618
 30
0.0
 10
2.001068608701055
 20
26.271394502197
 30
0.0
 10
2.001123034011662
 20
25.85792877882472
 30
0.0
 10
2.001155020546091
 20
25.61492905225456
 30
0.0
 10
2.000250549241901
 20
25.35822947219871
 30
0.0
 10
1.999999999992549
 20
25.00000000165287
 30
0.0
  0
LINE
  5
9561
330
9559
100
AcDbEntity
  8
0
100
AcDbLine
 10
0.0
 20
27.56249999999996
 30
0.0
 11
2.000000000000005
 21
27.56249999999996
 31
0.0
  0
SPLINE
  5
9562
330
9559
100
AcDbEntity
  8
0
100
AcDbSpline
210
0.0
220
0.0
230
1.0
 70
     8
 71
     3
 72
    18
 73
    14
 74
     0
 42
0.000000001
 43
0.0000000001
 40
0.0
 40
0.0
 40
0.0
 40
0.0
 40
0.0045852969201976
 40
0.0045852969201976
 40
0.0065400840531269
 40
0.0065400840531269
 40
0.0081563835270814
 40
0.0081563835270814
 40
0.0096016089288534
 40
0.0096016089288534
 40
0.0108226891094866
 40
0.0108226891094866
 40
0.0118646457912173
 40
0.0118646457912173
 40
0.0118646457912173
 40
0.0118646457912173
 10
1.999557272902096
 20
24.99999849939595
 30
0.0
 10
1.999513512458599
 20
25.0147583807948
 30
0.0
 10
1.999424163679341
 20
25.02919075573364
 30
0.0
 10
1.999253402731522
 20
25.0467557027447
 30
0.0
 10
1.999196850486885
 20
25.05166987649469
 30
0.0
 10
1.999091149901793
 20
25.05972733279028
 30
0.0
 10
1.999042050549933
 20
25.06305924923982
 30
0.0
 10
1.99895462196002
 20
25.06851913317375
 30
0.0
 10
1.998915397044818
 20
25.07075700277157
 30
0.0
 10
1.99885518390859
 20
25.07401363580533
 30
0.0
 10
1.998832157097591
 20
25.0751778146588
 30
0.0
 10
1.998803973819226
 20
25.07656460269062
 30
0.0
 10
1.998796572755344
 20
25.0769072396529
 30
0.0
 10
1.998796572807134
 20
25.07690723725037
 30
0.0
  0
SPLINE
  5
9563
330
9559
100
AcDbEntity
  8
0
100
AcDbSpline
210
0.0
220
0.0
230
1.0
 70
     8
 71
     3
 72
    12
 73
     8
 74
     0
 42
0.000000001
 43
0.0000000001
 40
0.0059633252741129
 40
0.0059633252741129
 40
0.0059633252741129
 40
0.0059633252741129
 40
0.006653674277413
 40
0.006653674277413
 40
0.0086398635137899
 40
0.0086398635137899
 40
0.0087253466696938
 40
0.0087253466696938
 40
0.0087253466696938
 40
0.0087253466696938
 10
1.999420479339196
 20
25.02765535994146
 30
0.0
 10
1.999406074172367
 20
25.02827987373978
 30
0.0
 10
1.999393029418384
 20
25.02883644728625
 30
0.0
 10
1.999348675823722
 20
25.03070956782587
 30
0.0
 10
1.999329089674606
 20
25.03149445621136
 30
0.0
 10
1.999327499326465
 20
25.03155858686759
 30
0.0
 10
1.999327466375689
 20
25.03155991428134
 30
0.0
 10
1.999327466389803
 20
25.03155991371276
 30
0.0
  0
SPLINE
  5
9564
330
9559
100
AcDbEntity
  8
0
100
AcDbSpline
210
0.0
220
0.0
230
1.0
 70
     8
 71
     3
 72
    32
 73
    28
 74
     0
 42
0.000000001
 43
0.0000000001
 40
0.0044269611900872
 40
0.0044269611900872
 40
0.0044269611900872
 40
0.0044269611900872
 40
0.007066615042096
 40
0.007066615042096
 40
0.009735924189252
 40
0.009735924189252
 40
0.0112195603044058
 40
0.0112195603044058
 40
0.0132974512355514
 40
0.0132974512355514
 40
0.0162697048377606
 40
0.0162697048377606
 40
0.0233581018744722
 40
0.0233581018744722
 40
0.04461889714367
 40
0.04461889714367
 40
0.0765645810826232
 40
0.0765645810826232
 40
0.106677901041119
 40
0.106677901041119
 40
0.1471724921063124
 40
0.1471724921063124
 40
0.1805118332198494
 40
0.1805118332198494
 40
0.2202828907603942
 40
0.2202828907603942
 40
0.244479975693631
 40
0.244479975693631
 40
0.244479975693631
 40
0.244479975693631
 10
1.999453047720115
 20
25.02279542166089
 30
0.0
 10
1.999343127803189
 20
25.02692527671249
 30
0.0
 10
1.999228376885679
 20
25.03099739150368
 30
0.0
 10
1.998950736157687
 20
25.04021089958798
 30
0.0
 10
1.998783229281306
 20
25.04551751498885
 30
0.0
 10
1.998427362268386
 20
25.05577852998245
 30
0.0
 10
1.998279948731909
 20
25.05986472352019
 30
0.0
 10
1.997885574293804
 20
25.07023815260201
 30
0.0
 10
1.997620188676002
 20
25.07679958471148
 30
0.0
 10
1.996919491631865
 20
25.09294424189812
 30
0.0
 10
1.996456080824534
 20
25.10272534759169
 30
0.0
 10
1.994744210966731
 20
25.13583814613874
 30
0.0
 10
1.993288976645425
 20
25.15938365250943
 30
0.0
 10
1.986467949006073
 20
25.25325816162242
 30
0.0
 10
1.979100551409793
 20
25.32335733447697
 30
0.0
 10
1.954117792841469
 20
25.49752578137731
 30
0.0
 10
1.933095164277781
 20
25.60191693857144
 30
0.0
 10
1.876943752986274
 20
25.80089509689188
 30
0.0
 10
1.84223804063967
 20
25.89654334088212
 30
0.0
 10
1.742828772031862
 20
26.10726511141892
 30
0.0
 10
1.669688385709153
 20
26.22004612118259
 30
0.0
 10
1.522666364099054
 20
26.38942910600249
 30
0.0
 10
1.450190932935491
 20
26.45467612536141
 30
0.0
 10
1.28982944389736
 20
26.57326526370344
 30
0.0
 10
1.200070168728319
 20
26.62371870326985
 30
0.0
 10
1.054254701205516
 20
26.69064800032278
 30
0.0
 10
0.9985808392185495
 20
26.71273822112287
 30
0.0
 10
0.9420912521141179
 20
26.73259712964333
 30
0.0
  0
LINE
  5
9565
330
9559
100
AcDbEntity
  8
0
100
AcDbLine
 10
2.00000000000001
 20
2.000000000000003
 30
0.0
 11
2.00000000000001
 21
25.0
 31
0.0
  0
LINE
  5
9566
330
9559
100
AcDbEntity
  8
0
100
AcDbLine
 10
1.999999999999997
 20
57.99999999999997
 30
0.0
 11
2.000000000000005
 21
27.56249999999996
 31
0.0
  0
LINE
  5
9567
330
9559
100
AcDbEntity
  8
0
100
AcDbLine
 10
0.0
 20
57.99999999999997
 30
0.0
 11
1.999999999999997
 21
57.99999999999997
 31
0.0
  0
LINE
  5
9568
330
9559
100
AcDbEntity
  8
0
100
AcDbLine
 10
0.0
 20
27.56249999999996
 30
0.0
 11
0.0
 21
57.99999999999997
 31
0.0
  0
LINE
  5
9569
330
9559
100
AcDbEntity
  8
0
100
AcDbLine
 10
86.00000000000001
 20
25.0
 30
0.0
 11
46.00000000000001
 21
57.99999999999997
 31
0.0
  0
LINE
  5
956A
330
9559
100
AcDbEntity
  8
0
100
AcDbLine
 10
46.00000000000001
 20
57.99999999999997
 30
0.0
 11
46.0
 21
155.0
 31
0.0
  0
LINE
  5
956B
330
9559
100
AcDbEntity
  8
0
100
AcDbLine
 10
1.999999999999997
 20
57.99999999999997
 30
0.0
 11
2.00000000000001
 21
155.0
 31
0.0
  0
LINE
  5
956C
330
9559
100
AcDbEntity
  8
0
100
AcDbLine
 10
86.00000000000001
 20
25.0
 30
0.0
 11
86.0
 21
2.000000000000001
 31
0.0
  0
LINE
  5
956D
330
9559
100
AcDbEntity
  8
0
100
AcDbLine
 10
4.000000000000003
 20
155.0
 30
0.0
 11
46.0
 21
155.0
 31
0.0
  0
LINE
  5
956E
330
9559
100
AcDbEntity
  8
0
100
AcDbLine
 10
0.0
 20
155.0
 30
0.0
 11
2.00000000000001
 21
155.0
 31
0.0
  0
LINE
  5
956F
330
9559
100
AcDbEntity
  8
0
100
AcDbLine
 10
0.0
 20
57.99999999999997
 30
0.0
 11
0.0
 21
155.0
 31
0.0
  0
LINE
  5
9570
330
9559
100
AcDbEntity
  8
0
100
AcDbLine
 10
2.000000000000006
 20
155.0
 30
0.0
 11
4.000000000000003
 21
155.0
 31
0.0
  0
CIRCLE
  5
9571
330
9559
100
AcDbEntity
  8
0
100
AcDbCircle
 10
38.5
 20
50.0
 30
0.0
 40
2.5
  0
CIRCLE
  5
9572
330
9559
100
AcDbEntity
  8
0
100
AcDbCircle
 10
38.5
 20
70.0
 30
0.0
 40
2.5
  0
CIRCLE
  5
9573
330
9559
100
AcDbEntity
  8
0
100
AcDbCircle
 10
38.5
 20
90.0
 30
0.0
 40
2.5
  0
CIRCLE
  5
9574
330
9559
100
AcDbEntity
  8
0
100
AcDbCircle
 10
38.5
 20
110.0
 30
0.0
 40
2.5
  0
CIRCLE
  5
9575
330
9559
100
AcDbEntity
  8
0
100
AcDbCircle
 10
38.5
 20
130.0
 30
0.0
 40
2.5
  0
CIRCLE
  5
9576
330
9559
100
AcDbEntity
  8
0
100
AcDbCircle
 10
38.5
 20
150.0
 30
0.0
 40
2.5
  0
ENDBLK
  5
955B
330
9559
100
AcDbEntity
  8
0
100
AcDbBlockEnd
  0
BLOCK
  5
9578
330
9577
100
AcDbEntity
  8
0
100
AcDbBlockBegin
  2
SAE380_70_2-Right
 70
     0
 10
0.0
 20
0.0
 30
0.0
  3
SAE380_70_2-Right
  1

  0
SPLINE
  5
957A
330
9577
100
AcDbEntity
  8
0
100
AcDbSpline
210
0.0
220
0.0
230
1.0
 70
     8
 71
     3
 72
    14
 73
    10
 74
     0
 42
0.000000001
 43
0.0000000001
 40
0.0
 40
0.0
 40
0.0
 40
0.0
 40
0.3435165591311061
 40
0.3435165591311061
 40
0.3435165591311061
 40
0.7569936138406593
 40
0.7569936138406593
 40
0.7569936138406593
 40
1.0
 40
1.0
 40
1.0
 40
1.0
 10
-2.000000000000014
 20
27.56249999999998
 30
0.0
 10
-2.000036880260036
 20
27.30249193735528
 30
0.0
 10
-1.996833903329161
 20
27.07529037327
 30
0.0
 10
-1.998675521249917
 20
26.8440781016931
 30
0.0
 10
-2.000892202610783
 20
26.56577719734618
 30
0.0
 10
-2.001068608701055
 20
26.271394502197
 30
0.0
 10
-2.001123034011662
 20
25.85792877882472
 30
0.0
 10
-2.001155020546091
 20
25.61492905225456
 30
0.0
 10
-2.000250549241901
 20
25.35822947219871
 30
0.0
 10
-1.999999999992549
 20
25.00000000165287
 30
0.0
  0
SPLINE
  5
957B
330
9577
100
AcDbEntity
  8
0
100
AcDbSpline
210
0.0
220
0.0
230
1.0
 70
     8
 71
     3
 72
    14
 73
    10
 74
     0
 42
0.000000001
 43
0.0000000001
 40
-0.4813026532965939
 40
-0.4813026532965939
 40
-0.4813026532965939
 40
-0.4813026532965939
 40
-0.376096008095436
 40
-0.376096008095436
 40
-0.376096008095436
 40
-0.076528497264402
 40
-0.076528497264402
 40
-0.076528497264402
 40
0.0
 40
0.0
 40
0.0
 40
0.0
 10
-0.9454120927430817
 20
26.73176011522557
 30
0.0
 10
-0.8408297879923713
 20
26.76867618608402
 30
0.0
 10
-0.7371129357479227
 20
26.80054090483464
 30
0.0
 10
-0.6388614064283371
 20
26.83423666321529
 30
0.0
 10
-0.3590980320014264
 20
26.9301826411937
 30
0.0
 10
-0.1217220476508809
 20
27.0400161296829
 30
0.0
 10
-0.0342615816115056
 20
27.31443386956748
 30
0.0
 10
-0.0119186445637933
 20
27.38453752399181
 30
0.0
 10
-0.0000045452574089
 20
27.46769665104811
 30
0.0
 10
-0.0000000001152113
 20
27.56250000004006
 30
0.0
  0
LINE
  5
957C
330
9577
100
AcDbEntity
  8
0
100
AcDbLine
 10
-2.000000000000005
 20
27.56249999999996
 30
0.0
 11
0.0
 21
27.56249999999996
 31
0.0
  0
SPLINE
  5
957D
330
9577
100
AcDbEntity
  8
0
100
AcDbSpline
210
0.0
220
0.0
230
1.0
 70
     8
 71
     3
 72
    16
 73
    12
 74
     0
 42
0.000000001
 43
0.0000000001
 40
0.0119733517143889
 40
0.0119733517143889
 40
0.0119733517143889
 40
0.0119733517143889
 40
0.013210128310495
 40
0.013210128310495
 40
0.0147921455978453
 40
0.0147921455978453
 40
0.0179906735750768
 40
0.0179906735750768
 40
0.0208195517165295
 40
0.0208195517165295
 40
0.023839219789708
 40
0.023839219789708
 40
0.023839219789708
 40
0.023839219789708
 10
-1.998796572807081
 20
25.07690723725288
 30
0.0
 10
-1.998796572804544
 20
25.07690723737062
 30
0.0
 10
-1.998806931014193
 20
25.07642811549134
 30
0.0
 10
-1.998847483382048
 20
25.07440627905801
 30
0.0
 10
-1.998882572419526
 20
25.07259041645463
 30
0.0
 10
-1.999004828702216
 20
25.06563013968452
 30
0.0
 10
-1.999108828347103
 20
25.05887921385046
 30
0.0
 10
-1.999282360816346
 20
25.04425783056849
 30
0.0
 10
-1.999357578438747
 20
25.03640621533449
 30
0.0
 10
-1.999481031818379
 20
25.01923591430789
 30
0.0
 10
-1.999528454263653
 20
25.00971868620166
 30
0.0
 10
-1.999557272902096
 20
24.99999849939594
 30
0.0
  0
SPLINE
  5
957E
330
9577
100
AcDbEntity
  8
0
100
AcDbSpline
210
0.0
220
0.0
230
1.0
 70
     8
 71
     3
 72
    12
 73
     8
 74
     0
 42
0.000000001
 43
0.0000000001
 40
0.0086744412333163
 40
0.0086744412333163
 40
0.0086744412333163
 40
0.0086744412333163
 40
0.0108228418478721
 40
0.0108228418478721
 40
0.0138868148046561
 40
0.0138868148046561
 40
0.0173947674142351
 40
0.0173947674142351
 40
0.0173947674142351
 40
0.0173947674142351
 10
-1.999327466389678
 20
25.0315599137178
 30
0.0
 10
-1.999327466386289
 20
25.03155991385439
 30
0.0
 10
-1.999348975123869
 20
25.03070111135833
 30
0.0
 10
-1.999438185388322
 20
25.02692286661155
 30
0.0
 10
-1.999521954743303
 20
25.02325287907663
 30
0.0
 10
-1.999719011798715
 20
25.01347874863667
 30
0.0
 10
-1.999835263852987
 20
25.00705634434601
 30
0.0
 10
-1.999939280471772
 20
24.99999868572563
 30
0.0
  0
SPLINE
  5
957F
330
9577
100
AcDbEntity
  8
0
100
AcDbSpline
210
0.0
220
0.0
230
1.0
 70
     8
 71
     3
 72
    28
 73
    24
 74
     0
 42
0.000000001
 43
0.0000000001
 40
0.0
 40
0.0
 40
0.0
 40
0.0
 40
0.065001696507022
 40
0.065001696507022
 40
0.1023228294595788
 40
0.1023228294595788
 40
0.1414747326706687
 40
0.1414747326706687
 40
0.1748987385453872
 40
0.1748987385453872
 40
0.2169239990952096
 40
0.2169239990952096
 40
0.2285713936661504
 40
0.2285713936661504
 40
0.2316497790350952
 40
0.2316497790350952
 40
0.2332712167202173
 40
0.2332712167202173
 40
0.234898884277471
 40
0.234898884277471
 40
0.2381770016332828
 40
0.2381770016332828
 40
0.2398093120457275
 40
0.2398093120457275
 40
0.2398093120457275
 40
0.2398093120457275
 10
-0.9420912521141225
 20
26.73259712964331
 30
0.0
 10
-1.093841721515738
 20
26.67924926777612
 30
0.0
 10
-1.242353898722228
 20
26.60988799342971
 30
0.0
 10
-1.466451771001632
 20
26.44171617372112
 30
0.0
 10
-1.547407943195851
 20
26.36594146111168
 30
0.0
 10
-1.695446554656115
 20
26.18241413826056
 30
0.0
 10
-1.763061289545942
 20
26.07040741117071
 30
0.0
 10
-1.860492149631303
 20
25.85077461310278
 30
0.0
 10
-1.89580963277508
 20
25.74321521029499
 30
0.0
 10
-1.955911122105324
 20
25.49956902553843
 30
0.0
 10
-1.976606287620483
 20
25.36174326038052
 30
0.0
 10
-1.991712579948521
 20
25.18427826815699
 30
0.0
 10
-1.994301896793102
 20
25.14544791362305
 30
0.0
 10
-1.996727817407295
 20
25.09709109592961
 30
0.0
 10
-1.997190140005394
 20
25.0869708800116
 30
0.0
 10
-1.997805613578385
 20
25.07220206194683
 30
0.0
 10
-1.998002494732729
 20
25.06720827403297
 30
0.0
 10
-1.998352537520089
 20
25.0578903056646
 30
0.0
 10
-1.998506821223798
 20
25.05353772750379
 30
0.0
 10
-1.998900005510113
 20
25.04197961055859
 30
0.0
 10
-1.999076487666739
 20
25.03616553677084
 30
0.0
 10
-1.999306259648064
 20
25.02819603050136
 30
0.0
 10
-1.99938080089305
 20
25.02550450542499
 30
0.0
 10
-1.999453071716006
 20
25.02278501006643
 30
0.0
  0
LINE
  5
9580
330
9577
100
AcDbEntity
  8
0
100
AcDbLine
 10
-2.000000000000004
 20
-2.0
 30
0.0
 11
-86.0
 21
-2.0
 31
0.0
  0
LINE
  5
9581
330
9577
100
AcDbEntity
  8
0
100
AcDbLine
 10
-2.00000000000001
 20
2.000000000000003
 30
0.0
 11
-2.00000000000001
 21
25.0
 31
0.0
  0
LINE
  5
9582
330
9577
100
AcDbEntity
  8
0
100
AcDbLine
 10
-2.00000000000001
 20
2.000000000000004
 30
0.0
 11
-2.000000000000004
 21
-1.999999999999999
 31
0.0
  0
LINE
  5
9583
330
9577
100
AcDbEntity
  8
0
100
AcDbLine
 10
-86.0
 20
-2.000000000000007
 30
0.0
 11
-86.0
 21
2.0
 31
0.0
  0
LINE
  5
9584
330
9577
100
AcDbEntity
  8
0
100
AcDbLine
 10
0.0
 20
57.99999999999997
 30
0.0
 11
0.0
 21
27.56249999999996
 31
0.0
  0
LINE
  5
9585
330
9577
100
AcDbEntity
  8
0
100
AcDbLine
 10
-1.999999999999997
 20
57.99999999999997
 30
0.0
 11
0.0
 21
57.99999999999997
 31
0.0
  0
LINE
  5
9586
330
9577
100
AcDbEntity
  8
0
100
AcDbLine
 10
-2.000000000000005
 20
27.56249999999996
 30
0.0
 11
-1.999999999999997
 21
57.99999999999997
 31
0.0
  0
LINE
  5
9587
330
9577
100
AcDbEntity
  8
0
100
AcDbLine
 10
0.0
 20
57.99999999999997
 30
0.0
 11
0.0
 21
155.0
 31
0.0
  0
CIRCLE
  5
9588
330
9577
100
AcDbEntity
  8
0
100
AcDbCircle
 10
-38.50000000000001
 20
139.9999999999999
 30
0.0
 40
2.5
  0
LINE
  5
9589
330
9577
100
AcDbEntity
  8
0
100
AcDbLine
 10
-46.00000000000001
 20
57.99999999999997
 30
0.0
 11
-86.00000000000001
 21
25.0
 31
0.0
  0
LINE
  5
958A
330
9577
100
AcDbEntity
  8
0
100
AcDbLine
 10
-46.0
 20
155.0
 30
0.0
 11
-46.00000000000001
 21
57.99999999999997
 31
0.0
  0
LINE
  5
958B
330
9577
100
AcDbEntity
  8
0
100
AcDbLine
 10
-86.00000000000001
 20
25.0
 30
0.0
 11
-86.0
 21
2.000000000000001
 31
0.0
  0
LINE
  5
958C
330
9577
100
AcDbEntity
  8
0
100
AcDbLine
 10
-4.000000000000003
 20
155.0
 30
0.0
 11
-46.0
 21
155.0
 31
0.0
  0
LINE
  5
958D
330
9577
100
AcDbEntity
  8
0
100
AcDbLine
 10
-2.000000000000006
 20
155.0
 30
0.0
 11
-4.000000000000003
 21
155.0
 31
0.0
  0
LINE
  5
958E
330
9577
100
AcDbEntity
  8
0
100
AcDbLine
 10
0.0
 20
155.0
 30
0.0
 11
-2.00000000000001
 21
155.0
 31
0.0
  0
LINE
  5
958F
330
9577
100
AcDbEntity
  8
0
100
AcDbLine
 10
-1.999999999999997
 20
57.99999999999997
 30
0.0
 11
-2.00000000000001
 21
155.0
 31
0.0
  0
CIRCLE
  5
9590
330
9577
100
AcDbEntity
  8
0
100
AcDbCircle
 10
-38.50000000000001
 20
39.99999999999999
 30
0.0
 40
2.5
  0
CIRCLE
  5
9591
330
9577
100
AcDbEntity
  8
0
100
AcDbCircle
 10
-38.50000000000001
 20
59.99999999999999
 30
0.0
 40
2.5
  0
CIRCLE
  5
9592
330
9577
100
AcDbEntity
  8
0
100
AcDbCircle
 10
-38.50000000000001
 20
79.99999999999999
 30
0.0
 40
2.5
  0
CIRCLE
  5
9593
330
9577
100
AcDbEntity
  8
0
100
AcDbCircle
 10
-38.50000000000001
 20
100.0
 30
0.0
 40
2.5
  0
CIRCLE
  5
9594
330
9577
100
AcDbEntity
  8
0
100
AcDbCircle
 10
-38.50000000000001
 20
120.0
 30
0.0
 40
2.5
  0
SPLINE
  5
9595
330
9577
100
AcDbEntity
  8
0
100
AcDbSpline
210
0.0
220
0.0
230
1.0
 70
     8
 71
     3
 72
     8
 73
     4
 74
     0
 42
0.000000001
 43
0.0000000001
 40
0.0158682426858204
 40
0.0158682426858204
 40
0.0158682426858204
 40
0.0158682426858204
 40
0.0173947674142351
 40
0.0173947674142351
 40
0.0173947674142351
 40
0.0173947674142351
 10
-1.999798457838158
 20
25.00880449254151
 30
0.0
 10
-1.999846435520574
 20
25.00602082847056
 30
0.0
 10
-1.999894016479235
 20
25.00306990464098
 30
0.0
 10
-1.999939280471772
 20
24.99999868572563
 30
0.0
  0
ENDBLK
  5
9579
330
9577
100
AcDbEntity
  8
0
100
AcDbBlockEnd
  0
BLOCK
  5
9597
330
9596
100
AcDbEntity
  8
0
100
AcDbBlockBegin
  2
SAE380_70_2-Top
 70
     0
 10
0.0
 20
0.0
 30
0.0
  3
SAE380_70_2-Top
  1

  0
LINE
  5
9599
330
9596
100
AcDbEntity
  8
0
100
AcDbLine
 10
35.00000000000002
 20
-2.000000000000007
 30
0.0
 11
35.00000000000002
 21
-2.070206720562745
 31
0.0
  0
SPLINE
  5
959A
330
9596
100
AcDbEntity
  8
0
100
AcDbSpline
210
0.0
220
0.0
230
1.0
 70
     8
 71
     3
 72
    11
 73
     7
 74
     0
 42
0.000000001
 43
0.0000000001
 40
-1.0
 40
-1.0
 40
-1.0
 40
-1.0
 40
-0.7994286890707878
 40
-0.7994286890707878
 40
-0.7994286890707878
 40
-0.6533573777220881
 40
-0.6533573777220881
 40
-0.6533573777220881
 40
-0.6533573777220881
 10
35.00000000000002
 20
-2.00000000000003
 30
0.0
 10
34.99999961270325
 20
-1.999093543230829
 30
0.0
 10
35.12633150600923
 20
-1.919863896632408
 30
0.0
 10
35.33607694564333
 20
-1.790687786198303
 30
0.0
 10
35.48882955654676
 20
-1.696611899878281
 30
0.0
 10
35.68837056420893
 20
-1.577391377849359
 30
0.0
 10
35.91982716790673
 20
-1.445337717163164
 30
0.0
  0
SPLINE
  5
959B
330
9596
100
AcDbEntity
  8
0
100
AcDbSpline
210
0.0
220
0.0
230
1.0
 70
     8
 71
     3
 72
    24
 73
    20
 74
     0
 42
0.000000001
 43
0.0000000001
 40
0.0
 40
0.0
 40
0.0
 40
0.0
 40
0.007045239859144
 40
0.007045239859144
 40
0.0166405949319819
 40
0.0166405949319819
 40
0.0367140942817452
 40
0.0367140942817452
 40
0.0488284899942116
 40
0.0488284899942116
 40
0.0619891282065485
 40
0.0619891282065485
 40
0.0705213679123388
 40
0.0705213679123388
 40
0.0770085532804464
 40
0.0770085532804464
 40
0.082490560700948
 40
0.082490560700948
 40
0.0857779388078658
 40
0.0857779388078658
 40
0.0857779388078658
 40
0.0857779388078658
 10
39.56202985674955
 20
-2.000020061973668
 30
0.0
 10
39.54510572273619
 20
-2.000020928437332
 30
0.0
 10
39.52555210338461
 20
-2.000028134291585
 30
0.0
 10
39.47775545392402
 20
-2.00006113207088
 30
0.0
 10
39.44841962895248
 20
-2.000093689688181
 30
0.0
 10
39.35657224045008
 20
-2.000268440250452
 30
0.0
 10
39.29198494459685
 20
-2.000513808508434
 30
0.0
 10
39.19633422794519
 20
-2.000879055388729
 30
0.0
 10
39.16273081659649
 20
-2.000996414975389
 30
0.0
 10
39.09183574205342
 20
-2.001409809829929
 30
0.0
 10
39.05253731396967
 20
-2.001731207546614
 30
0.0
 10
38.98400779065617
 20
-2.002903978526825
 30
0.0
 10
38.95599554178675
 20
-2.003538353540607
 30
0.0
 10
38.90628512899865
 20
-2.005134925820223
 30
0.0
 10
38.88449296340238
 20
-2.005989885778272
 30
0.0
 10
38.84475199459941
 20
-2.007923221108228
 30
0.0
 10
38.82655876612236
 20
-2.008956309565051
 30
0.0
 10
38.79849245289191
 20
-2.010813887622491
 30
0.0
 10
38.78811205323545
 20
-2.011562777468492
 30
0.0
 10
38.77819160776073
 20
-2.012338160982671
 30
0.0
  0
SPLINE
  5
959C
330
9596
100
AcDbEntity
  8
0
100
AcDbSpline
210
0.0
220
0.0
230
1.0
 70
     8
 71
     3
 72
    10
 73
     6
 74
     0
 42
0.000000001
 43
0.0000000001
 40
0.0662129554492491
 40
0.0662129554492491
 40
0.0662129554492491
 40
0.0662129554492491
 40
0.0674413381639675
 40
0.0674413381639675
 40
0.0706012009538558
 40
0.0706012009538558
 40
0.0706012009538558
 40
0.0706012009538558
 10
37.00189270278836
 20
-3.913021602266624
 30
0.0
 10
37.00179633191718
 20
-3.916137797710199
 30
0.0
 10
37.00170141112397
 20
-3.919304414321214
 30
0.0
 10
37.00137023794193
 20
-3.930825838985864
 30
0.0
 10
37.00114394120671
 20
-3.939519344984778
 30
0.0
 10
37.00093640231753
 20
-3.94847738865676
 30
0.0
  0
SPLINE
  5
959D
330
9596
100
AcDbEntity
  8
0
100
AcDbSpline
210
0.0
220
0.0
230
1.0
 70
     8
 71
     3
 72
    12
 73
     8
 74
     0
 42
0.000000001
 43
0.0000000001
 40
0.0101225268341394
 40
0.0101225268341394
 40
0.0101225268341394
 40
0.0101225268341394
 40
0.0121419227934989
 40
0.0121419227934989
 40
0.0133840633605063
 40
0.0133840633605063
 40
0.0141064562458457
 40
0.0141064562458457
 40
0.0141064562458457
 40
0.0141064562458457
 10
36.99998998734094
 20
-3.998412117935098
 30
0.0
 10
36.99998998734044
 20
-3.99841211785639
 30
0.0
 10
36.99999068900556
 20
-3.998522847055685
 30
0.0
 10
36.99999495447138
 20
-3.999182895754607
 30
0.0
 10
36.99999821558747
 20
-3.999685158995407
 30
0.0
 10
37.00000191873752
 20
-4.000252312323214
 30
0.0
 10
37.0000028530891
 20
-4.00039483288478
 30
0.0
 10
37.00000285306531
 20
-4.000394829257424
 30
0.0
  0
SPLINE
  5
959E
330
9596
100
AcDbEntity
  8
0
100
AcDbSpline
210
0.0
220
0.0
230
1.0
 70
     8
 71
     3
 72
    16
 73
    12
 74
     0
 42
0.000000001
 43
0.0000000001
 40
0.0298160532696589
 40
0.0298160532696589
 40
0.0298160532696589
 40
0.0298160532696589
 40
0.0305405611564614
 40
0.0305405611564614
 40
0.0359537578269985
 40
0.0359537578269985
 40
0.0382249001657043
 40
0.0382249001657043
 40
0.0413340209271476
 40
0.0413340209271476
 40
0.0433661956183043
 40
0.0433661956183043
 40
0.0433661956183043
 40
0.0433661956183043
 10
37.00114771962344
 20
-3.937776707724669
 30
0.0
 10
37.0011477196249
 20
-3.937776707658839
 30
0.0
 10
37.00114687916478
 20
-3.93781436757596
 30
0.0
 10
37.00113196455582
 20
-3.938489928306938
 30
0.0
 10
37.00105779504404
 20
-3.941612142170631
 30
0.0
 10
37.00087662480443
 20
-3.951851200511665
 30
0.0
 10
37.0008139791123
 20
-3.955643223247121
 30
0.0
 10
37.00066070322832
 20
-3.966444197714782
 30
0.0
 10
37.00056980506118
 20
-3.974140965616073
 30
0.0
 10
37.00045087404609
 20
-3.988060772004765
 30
0.0
 10
37.00041102192332
 20
-3.993926934542353
 30
0.0
 10
37.0003799328066
 20
-4.000001916296978
 30
0.0
  0
SPLINE
  5
959F
330
9596
100
AcDbEntity
  8
0
100
AcDbSpline
210
0.0
220
0.0
230
1.0
 70
     8
 71
     3
 72
    10
 73
     6
 74
     0
 42
0.000000001
 43
0.0000000001
 40
0.0
 40
0.0
 40
0.0
 40
0.0
 40
0.0058807970680385
 40
0.0058807970680385
 40
0.0059118948184737
 40
0.0059118948184737
 40
0.0059118948184737
 40
0.0059118948184737
 10
34.99999305781924
 20
-4.000000206495132
 30
0.0
 10
34.99999413692624
 20
-3.993718712097876
 30
0.0
 10
34.9999977957502
 20
-3.990650190358121
 30
0.0
 10
34.99999781362449
 20
-3.990622040907705
 30
0.0
 10
34.99999781367116
 20
-3.99062196702
 30
0.0
 10
34.99999781367116
 20
-3.990621967020025
 30
0.0
  0
SPLINE
  5
95A0
330
9596
100
AcDbEntity
  8
0
100
AcDbSpline
210
0.0
220
0.0
230
1.0
 70
     8
 71
     3
 72
    28
 73
    24
 74
     0
 42
0.000000001
 43
0.0000000001
 40
0.0059924575498823
 40
0.0059924575498823
 40
0.0059924575498823
 40
0.0059924575498823
 40
0.0060018646144652
 40
0.0060018646144652
 40
0.0060344017559011
 40
0.0060344017559011
 40
0.0061001532675797
 40
0.0061001532675797
 40
0.0063666195288047
 40
0.0063666195288047
 40
0.0733647751382037
 40
0.0733647751382037
 40
0.1461243500646616
 40
0.1461243500646616
 40
0.1821355098872353
 40
0.1821355098872353
 40
0.2003591015399557
 40
0.2003591015399557
 40
0.2099082716964824
 40
0.2099082716964824
 40
0.2149921003502935
 40
0.2149921003502935
 40
0.2202283537911163
 40
0.2202283537911163
 40
0.2202283537911163
 40
0.2202283537911163
 10
34.99996683550279
 20
-3.998262424357118
 30
0.0
 10
34.99996641782126
 20
-3.998238398672361
 30
0.0
 10
34.99996598960601
 20
-3.99821376593812
 30
0.0
 10
34.99996403400571
 20
-3.998101265977819
 30
0.0
 10
34.99996238209985
 20
-3.998006221210495
 30
0.0
 10
34.99995717973061
 20
-3.997706832784881
 30
0.0
 10
34.99995335091661
 20
-3.997486404788546
 30
0.0
 10
34.99993420104429
 20
-3.996383425117164
 30
0.0
 10
34.99991873622857
 20
-3.995491084543547
 30
0.0
 10
34.99618159974617
 20
-3.77948665005105
 30
0.0
 10
34.99444381476218
 20
-3.585321502407505
 30
0.0
 10
34.99316956338701
 20
-3.164243893850224
 30
0.0
 10
34.99375434792864
 20
-2.938375332900654
 30
0.0
 10
34.99571989570138
 20
-2.597635977528744
 30
0.0
 10
34.99649316192325
 20
-2.486557236174361
 30
0.0
 10
34.99791978641198
 20
-2.320163447304665
 30
0.0
 10
34.99860260912939
 20
-2.262011146400277
 30
0.0
 10
34.99934828441795
 20
-2.181745050679968
 30
0.0
 10
34.99951249700296
 20
-2.155839467875627
 30
0.0
 10
34.99960892900029
 20
-2.120401100005065
 30
0.0
 10
34.99961740245653
 20
-2.108750387989077
 30
0.0
 10
34.99960908196385
 20
-2.087225538232071
 30
0.0
 10
34.9995915466767
 20
-2.077011060502602
 30
0.0
 10
34.99957591650153
 20
-2.070206720562745
 30
0.0
  0
SPLINE
  5
95A1
330
9596
100
AcDbEntity
  8
0
100
AcDbSpline
210
0.0
220
0.0
230
1.0
 70
     8
 71
     3
 72
    12
 73
     8
 74
     0
 42
0.000000001
 43
0.0000000001
 40
0.0
 40
0.0
 40
0.0
 40
0.0
 40
0.0073680638632718
 40
0.0073680638632718
 40
0.0094714794577256
 40
0.0094714794577256
 40
0.0106892344339649
 40
0.0106892344339649
 40
0.0106892344339649
 40
0.0106892344339649
 10
34.99996053853819
 20
-3.99998550300286
 30
0.0
 10
35.00000120689109
 20
-3.988738678358995
 30
0.0
 10
35.00005705426696
 20
-3.976817397470934
 30
0.0
 10
35.00011475911483
 20
-3.966829073029636
 30
0.0
 10
35.00012596496212
 20
-3.965004429888646
 30
0.0
 10
35.00013624741454
 20
-3.963340749407375
 30
0.0
 10
35.000138432276
 20
-3.962989239729527
 30
0.0
 10
35.00013843227595
 20
-3.962989239737346
 30
0.0
  0
LINE
  5
95A2
330
9596
100
AcDbEntity
  8
0
100
AcDbLine
 10
-35.00000000000002
 20
-2.000000000000007
 30
0.0
 11
-35.00000000000002
 21
-2.070206720563078
 31
0.0
  0
SPLINE
  5
95A3
330
9596
100
AcDbEntity
  8
0
100
AcDbSpline
210
0.0
220
0.0
230
1.0
 70
     8
 71
     3
 72
    11
 73
     7
 74
     0
 42
0.000000001
 43
0.0000000001
 40
-1.0
 40
-1.0
 40
-1.0
 40
-1.0
 40
-0.7994286890707878
 40
-0.7994286890707878
 40
-0.7994286890707878
 40
-0.6533573777220881
 40
-0.6533573777220881
 40
-0.6533573777220881
 40
-0.6533573777220881
 10
-35.00000000000002
 20
-2.00000000000003
 30
0.0
 10
-34.99999961270325
 20
-1.999093543230829
 30
0.0
 10
-35.12633150600923
 20
-1.919863896632408
 30
0.0
 10
-35.33607694564333
 20
-1.790687786198303
 30
0.0
 10
-35.48882955654676
 20
-1.696611899878281
 30
0.0
 10
-35.68837056420893
 20
-1.577391377849359
 30
0.0
 10
-35.91982716790673
 20
-1.445337717163164
 30
0.0
  0
SPLINE
  5
95A4
330
9596
100
AcDbEntity
  8
0
100
AcDbSpline
210
0.0
220
0.0
230
1.0
 70
     8
 71
     3
 72
    38
 73
    34
 74
     0
 42
0.000000001
 43
0.0000000001
 40
0.0
 40
0.0
 40
0.0
 40
0.0
 40
0.003818626643892
 40
0.003818626643892
 40
0.0092110776833107
 40
0.0092110776833107
 40
0.0200768673481233
 40
0.0200768673481233
 40
0.0329596384956376
 40
0.0329596384956376
 40
0.0591156618600151
 40
0.0591156618600151
 40
0.1345512937131656
 40
0.1345512937131656
 40
0.1951304289765645
 40
0.1951304289765645
 40
0.209728366473277
 40
0.209728366473277
 40
0.2124653410139535
 40
0.2124653410139535
 40
0.213491747246992
 40
0.213491747246992
 40
0.2138767523372097
 40
0.2138767523372097
 40
0.2140211841227093
 40
0.2140211841227093
 40
0.2141297235549419
 40
0.2141297235549419
 40
0.2141795007417513
 40
0.2141795007417513
 40
0.2142271693852575
 40
0.2142271693852575
 40
0.2142711744230137
 40
0.2142711744230137
 40
0.2142711744230137
 40
0.2142711744230137
 10
-34.99957591650153
 20
-2.070206720563079
 30
0.0
 10
-34.99958731507192
 20
-2.075168900885672
 30
0.0
 10
-34.99959979183398
 20
-2.082042326077267
 30
0.0
 10
-34.99961779112481
 20
-2.100031816301942
 30
0.0
 10
-34.99961861325116
 20
-2.11200366294352
 30
0.0
 10
-34.99954447401494
 20
-2.150334542453451
 30
0.0
 10
-34.99937038823014
 20
-2.179691941605581
 30
0.0
 10
-34.9987241398672
 20
-2.248520977947484
 30
0.0
 10
-34.99825137189076
 20
-2.288793425628113
 30
0.0
 10
-34.9970951954832
 20
-2.409489027787722
 30
0.0
 10
-34.99652475675757
 20
-2.4887285127904
 30
0.0
 10
-34.99434480622279
 20
-2.804300090407379
 30
0.0
 10
-34.99335877129396
 20
-3.043006477224156
 30
0.0
 10
-34.99380472796137
 20
-3.455341494212268
 30
0.0
 10
-34.99482168764297
 20
-3.635411310486546
 30
0.0
 10
-34.99784521984132
 20
-3.865757368559519
 30
0.0
 10
-34.99851017463832
 20
-3.910704826014593
 30
0.0
 10
-34.99938834780436
 20
-3.964264845364038
 30
0.0
 10
-34.9995295530732
 20
-3.972723387363684
 30
0.0
 10
-34.99972786628064
 20
-3.984395610754702
 30
0.0
 10
-34.9997823153307
 20
-3.987579695100405
 30
0.0
 10
-34.99985848505728
 20
-3.992004954072116
 30
0.0
 10
-34.99987939737595
 20
-3.993216993544547
 30
0.0
 10
-34.99990874181937
 20
-3.994913504524412
 30
0.0
 10
-34.99991682272288
 20
-3.995380263732808
 30
0.0
 10
-34.99993116946503
 20
-3.996208152545293
 30
0.0
 10
-34.99993742776552
 20
-3.99656903782744
 30
0.0
 10
-34.99994658341783
 20
-3.997096614330116
 30
0.0
 10
-34.99994948068532
 20
-3.99726350800437
 30
0.0
 10
-34.99995505652191
 20
-3.997584592855313
 30
0.0
 10
-34.99995777167206
 20
-3.997740893952721
 30
0.0
 10
-34.99996265321359
 20
-3.998021826718879
 30
0.0
 10
-34.99996487766806
 20
-3.998149806581263
 30
0.0
 10
-34.99996683550304
 20
-3.998262424287773
 30
0.0
  0
SPLINE
  5
95A5
330
9596
100
AcDbEntity
  8
0
100
AcDbSpline
210
0.0
220
0.0
230
1.0
 70
     8
 71
     3
 72
    14
 73
    10
 74
     0
 42
0.000000001
 43
0.0000000001
 40
0.0077867807860566
 40
0.0077867807860566
 40
0.0077867807860566
 40
0.0077867807860566
 40
0.0083979032866309
 40
0.0083979032866309
 40
0.0105249654553368
 40
0.0105249654553368
 40
0.013864492265525
 40
0.013864492265525
 40
0.0184801346886999
 40
0.0184801346886999
 40
0.0184801346886999
 40
0.0184801346886999
 10
-35.00013843227594
 20
-3.962989239737773
 30
0.0
 10
-35.0001384322759
 20
-3.962989239742973
 30
0.0
 10
-35.00013788506641
 20
-3.96307784246151
 30
0.0
 10
-35.00013331027618
 20
-3.963815700232558
 30
0.0
 10
-35.00012394049723
 20
-3.965314845017262
 30
0.0
 10
-35.0000936463232
 20
-3.970424767200834
 30
0.0
 10
-35.00006960355435
 20
-3.974738182978442
 30
0.0
 10
-35.00001543374229
 20
-3.985811780598069
 30
0.0
 10
-34.99998601477975
 20
-3.992940053626294
 30
0.0
 10
-34.99996053853817
 20
-3.999985503002859
 30
0.0
  0
SPLINE
  5
95A6
330
9596
100
AcDbEntity
  8
0
100
AcDbSpline
210
0.0
220
0.0
230
1.0
 70
     8
 71
     3
 72
     8
 73
     4
 74
     0
 42
0.000000001
 43
0.0000000001
 40
0.0089717058385089
 40
0.0089717058385089
 40
0.0089717058385089
 40
0.0089717058385089
 40
0.0148663243591793
 40
0.0148663243591793
 40
0.0148663243591793
 40
0.0148663243591793
 10
-34.99999781367117
 20
-3.990621967025536
 30
0.0
 10
-34.99999781367117
 20
-3.990621967025018
 30
0.0
 10
-34.99999413946243
 20
-3.993703948895293
 30
0.0
 10
-34.99999305781925
 20
-4.000000206495132
 30
0.0
  0
SPLINE
  5
95A7
330
9596
100
AcDbEntity
  8
0
100
AcDbSpline
210
0.0
220
0.0
230
1.0
 70
     8
 71
     3
 72
    10
 73
     6
 74
     0
 42
0.000000001
 43
0.0000000001
 40
0.0391508871930465
 40
0.0391508871930465
 40
0.0391508871930465
 40
0.0391508871930465
 40
0.0423952195859037
 40
0.0423952195859037
 40
0.043541186612844
 40
0.043541186612844
 40
0.043541186612844
 40
0.043541186612844
 10
-37.00093517807408
 20
-3.948632987278368
 30
0.0
 10
-37.00114838706961
 20
-3.939430203641939
 30
0.0
 10
-37.00138202186183
 20
-3.930374019954516
 30
0.0
 10
-37.00171424696456
 20
-3.918874907573211
 30
0.0
 10
-37.00180281586916
 20
-3.915923585515242
 30
0.0
 10
-37.00189265282431
 20
-3.913018667183802
 30
0.0
  0
SPLINE
  5
95A8
330
9596
100
AcDbEntity
  8
0
100
AcDbSpline
210
0.0
220
0.0
230
1.0
 70
     8
 71
     3
 72
    14
 73
    10
 74
     0
 42
0.000000001
 43
0.0000000001
 40
0.0
 40
0.0
 40
0.0
 40
0.0
 40
0.0042629590876309
 40
0.0042629590876309
 40
0.0078984680259714
 40
0.0078984680259714
 40
0.01101311783787
 40
0.01101311783787
 40
0.0135447394063483
 40
0.0135447394063483
 40
0.0135447394063483
 40
0.0135447394063483
 10
-37.00037993280661
 20
-4.000001916296978
 30
0.0
 10
-37.00044514946007
 20
-3.987258229058425
 30
0.0
 10
-37.00055430095832
 20
-3.975277107463577
 30
0.0
 10
-37.00077809153933
 20
-3.957593796982659
 30
0.0
 10
-37.00088547667971
 20
-3.951225734326849
 30
0.0
 10
-37.00103360571465
 20
-3.943153124987237
 30
0.0
 10
-37.00108435725714
 20
-3.940732005508617
 30
0.0
 10
-37.00113729054124
 20
-3.938236590055987
 30
0.0
 10
-37.00114771962702
 20
-3.937776707563686
 30
0.0
 10
-37.00114771962341
 20
-3.937776707725337
 30
0.0
  0
SPLINE
  5
95A9
330
9596
100
AcDbEntity
  8
0
100
AcDbSpline
210
0.0
220
0.0
230
1.0
 70
     8
 71
     3
 72
    22
 73
    18
 74
     0
 42
0.000000001
 43
0.0000000001
 40
0.0482395194320856
 40
0.0482395194320856
 40
0.0482395194320856
 40
0.0482395194320856
 40
0.0514008632935253
 40
0.0514008632935253
 40
0.0575622201421407
 40
0.0575622201421407
 40
0.0663109200986201
 40
0.0663109200986201
 40
0.0777691571520792
 40
0.0777691571520792
 40
0.0915297989483503
 40
0.0915297989483503
 40
0.1091261592609514
 40
0.1091261592609514
 40
0.1213991482443663
 40
0.1213991482443663
 40
0.133958114876692
 40
0.133958114876692
 40
0.133958114876692
 40
0.133958114876692
 10
-38.77819168978816
 20
-2.012338143881253
 30
0.0
 10
-38.78773190330689
 20
-2.011592479354087
 30
0.0
 10
-38.79769709892146
 20
-2.01087125651365
 30
0.0
 10
-38.82748728067489
 20
-2.008886430639292
 30
0.0
 10
-38.84801708778984
 20
-2.007736132901111
 30
0.0
 10
-38.89758371083312
 20
-2.005403899072743
 30
0.0
 10
-38.92707244662478
 20
-2.004384349538625
 30
0.0
 10
-38.99322601943836
 20
-2.002642063160688
 30
0.0
 10
-39.0299867065041
 20
-2.002078095687994
 30
0.0
 10
-39.1055993479338
 20
-2.001269034085255
 30
0.0
 10
-39.14300972132074
 20
-2.001099275458235
 30
0.0
 10
-39.23196538480636
 20
-2.000732926069583
 30
0.0
 10
-39.28654452184296
 20
-2.000520687818406
 30
0.0
 10
-39.38006146486057
 20
-2.000225594795275
 30
0.0
 10
-39.41875901633444
 20
-2.000139373615609
 30
0.0
 10
-39.49405116615334
 20
-2.000040768467252
 30
0.0
 10
-39.53186060224516
 20
-2.000021606546805
 30
0.0
 10
-39.56202985674948
 20
-2.000020061973665
 30
0.0
  0
LINE
  5
95AA
330
9596
100
AcDbEntity
  8
0
100
AcDbLine
 10
-35.0
 20
-2.000000000000007
 30
0.0
 11
-33.0
 21
-2.000000000000004
 31
0.0
  0
LINE
  5
95AB
330
9596
100
AcDbEntity
  8
0
100
AcDbLine
 10
-35.0
 20
-86.0
 30
0.0
 11
-32.99999999999999
 21
-86.0
 31
0.0
  0
LINE
  5
95AC
330
9596
100
AcDbEntity
  8
0
100
AcDbLine
 10
33.00000000000001
 20
-2.000000000000004
 30
0.0
 11
-33.00000000000001
 21
-2.000000000000004
 31
0.0
  0
LINE
  5
95AD
330
9596
100
AcDbEntity
  8
0
100
AcDbLine
 10
-32.99999999999999
 20
-86.0
 30
0.0
 11
32.99999999999999
 21
-86.0
 31
0.0
  0
CIRCLE
  5
95AE
330
9596
100
AcDbEntity
  8
0
100
AcDbCircle
 10
0.0
 20
-47.99999999999998
 30
0.0
 40
2.5
  0
CIRCLE
  5
95AF
330
9596
100
AcDbEntity
  8
0
100
AcDbCircle
 10
0.0
 20
-67.99999999999998
 30
0.0
 40
2.5
  0
LINE
  5
95B0
330
9596
100
AcDbEntity
  8
0
100
AcDbLine
 10
35.0
 20
-2.000000000000007
 30
0.0
 11
33.0
 21
-2.000000000000004
 31
0.0
  0
LINE
  5
95B1
330
9596
100
AcDbEntity
  8
0
100
AcDbLine
 10
39.0
 20
0.0
 30
0.0
 11
76.5
 21
0.0
 31
0.0
  0
ARC
  5
95B2
330
9596
100
AcDbEntity
  8
0
100
AcDbCircle
 10
39.0
 20
-4.000000000000004
 30
0.0
 40
3.999999999999999
100
AcDbArc
 50
90.00000000000012
 51
180.0
  0
LINE
  5
95B3
330
9596
100
AcDbEntity
  8
0
100
AcDbLine
 10
34.99999999999999
 20
-86.00000000000001
 30
0.0
 11
35.0
 21
-46.00000000000001
 31
0.0
  0
LINE
  5
95B4
330
9596
100
AcDbEntity
  8
0
100
AcDbLine
 10
36.99999999999999
 20
-86.00000000000001
 30
0.0
 11
34.99999999999999
 21
-86.00000000000001
 31
0.0
  0
LINE
  5
95B5
330
9596
100
AcDbEntity
  8
0
100
AcDbLine
 10
36.99999999999999
 20
-46.00000000000001
 30
0.0
 11
36.99999999999999
 21
-86.00000000000001
 31
0.0
  0
LINE
  5
95B6
330
9596
100
AcDbEntity
  8
0
100
AcDbLine
 10
35.0
 20
-46.0
 30
0.0
 11
36.99999999999999
 21
-46.0
 31
0.0
  0
LINE
  5
95B7
330
9596
100
AcDbEntity
  8
0
100
AcDbLine
 10
37.0
 20
-4.000000000000003
 30
0.0
 11
36.99999999999999
 21
-46.0
 31
0.0
  0
LINE
  5
95B8
330
9596
100
AcDbEntity
  8
0
100
AcDbLine
 10
35.0
 20
-46.0
 30
0.0
 11
35.0
 21
-4.000000000000003
 31
0.0
  0
LINE
  5
95B9
330
9596
100
AcDbEntity
  8
0
100
AcDbLine
 10
35.0
 20
-86.0
 30
0.0
 11
32.99999999999999
 21
-86.0
 31
0.0
  0
ARC
  5
95BA
330
9596
100
AcDbEntity
  8
0
100
AcDbCircle
 10
39.0
 20
-4.000000000000004
 30
0.0
 40
1.999999999999997
100
AcDbArc
 50
90.00000000000012
 51
180.0
  0
LINE
  5
95BB
330
9596
100
AcDbEntity
  8
0
100
AcDbLine
 10
76.5
 20
0.0
 30
0.0
 11
76.5
 21
-2.00000000000001
 31
0.0
  0
LINE
  5
95BC
330
9596
100
AcDbEntity
  8
0
100
AcDbLine
 10
76.5
 20
-2.00000000000001
 30
0.0
 11
39.0
 21
-2.000000000000006
 31
0.0
  0
LINE
  5
95BD
330
9596
100
AcDbEntity
  8
0
100
AcDbLine
 10
-76.5
 20
-2.00000000000001
 30
0.0
 11
-39.0
 21
-2.000000000000006
 31
0.0
  0
LINE
  5
95BE
330
9596
100
AcDbEntity
  8
0
100
AcDbLine
 10
-35.0
 20
-46.0
 30
0.0
 11
-35.0
 21
-4.000000000000003
 31
0.0
  0
LINE
  5
95BF
330
9596
100
AcDbEntity
  8
0
100
AcDbLine
 10
-37.0
 20
-4.000000000000003
 30
0.0
 11
-36.99999999999999
 21
-46.0
 31
0.0
  0
LINE
  5
95C0
330
9596
100
AcDbEntity
  8
0
100
AcDbLine
 10
-39.0
 20
0.0
 30
0.0
 11
-76.5
 21
0.0
 31
0.0
  0
LINE
  5
95C1
330
9596
100
AcDbEntity
  8
0
100
AcDbLine
 10
-76.5
 20
0.0
 30
0.0
 11
-76.5
 21
-2.00000000000001
 31
0.0
  0
ARC
  5
95C2
330
9596
100
AcDbEntity
  8
0
100
AcDbCircle
 10
-39.0
 20
-4.000000000000004
 30
0.0
 40
1.999999999999997
100
AcDbArc
 50
0.0
 51
89.99999999999987
  0
ARC
  5
95C3
330
9596
100
AcDbEntity
  8
0
100
AcDbCircle
 10
-39.0
 20
-4.000000000000004
 30
0.0
 40
3.999999999999999
100
AcDbArc
 50
0.0
 51
89.99999999999987
  0
LINE
  5
95C4
330
9596
100
AcDbEntity
  8
0
100
AcDbLine
 10
-35.0
 20
-46.00000000000001
 30
0.0
 11
-34.99999999999999
 21
-86.00000000000001
 31
0.0
  0
LINE
  5
95C5
330
9596
100
AcDbEntity
  8
0
100
AcDbLine
 10
-36.99999999999999
 20
-86.00000000000001
 30
0.0
 11
-36.99999999999999
 21
-46.00000000000001
 31
0.0
  0
LINE
  5
95C6
330
9596
100
AcDbEntity
  8
0
100
AcDbLine
 10
-34.99999999999999
 20
-86.00000000000001
 30
0.0
 11
-36.99999999999999
 21
-86.00000000000001
 31
0.0
  0
LINE
  5
95C7
330
9596
100
AcDbEntity
  8
0
100
AcDbLine
 10
-36.99999999999999
 20
-46.0
 30
0.0
 11
-35.0
 21
-46.0
 31
0.0
  0
ENDBLK
  5
9598
330
9596
100
AcDbEntity
  8
0
100
AcDbBlockEnd
  0
BLOCK
  5
95C9
330
95C8
100
AcDbEntity
  8
0
100
AcDbBlockBegin
  2
SAE380_70_2-Bottom
 70
     0
 10
0.0
 20
0.0
 30
0.0
  3
SAE380_70_2-Bottom
  1

  0
SPLINE
  5
95CB
330
95C8
100
AcDbEntity
  8
0
100
AcDbSpline
210
0.0
220
0.0
230
1.0
 70
     8
 71
     3
 72
    14
 73
    10
 74
     0
 42
0.000000001
 43
0.0000000001
 40
0.0
 40
0.0
 40
0.0
 40
0.0
 40
0.3435165591311061
 40
0.3435165591311061
 40
0.3435165591311061
 40
0.7569936138406593
 40
0.7569936138406593
 40
0.7569936138406593
 40
1.0
 40
1.0
 40
1.0
 40
1.0
 10
39.60606060606067
 20
2.000000000000014
 30
0.0
 10
39.2849024929176
 20
2.000036880260036
 30
0.0
 10
38.87245901695949
 20
1.996833903329161
 30
0.0
 10
38.47646762713446
 20
1.998675521249917
 30
0.0
 10
37.99982873097951
 20
2.000892202610783
 30
0.0
 10
37.53730090290923
 20
2.001068608701055
 30
0.0
 10
37.26243107016788
 20
2.001123034011662
 30
0.0
 10
37.10088613325325
 20
2.001155020546091
 30
0.0
 10
36.99999576702379
 20
2.000250549241901
 30
0.0
 10
36.99999999948817
 20
1.999999999992549
 30
0.0
  0
LINE
  5
95CC
330
95C8
100
AcDbEntity
  8
0
100
AcDbLine
 10
39.00008656593374
 20
2.000000000000005
 30
0.0
 11
39.00619229299612
 21
2.000000000000005
 31
0.0
  0
LINE
  5
95CD
330
95C8
100
AcDbEntity
  8
0
100
AcDbLine
 10
39.56202985674946
 20
2.000000000000005
 30
0.0
 11
39.60606060606069
 21
2.000000000000005
 31
0.0
  0
ARC
  5
95CE
330
95C8
100
AcDbEntity
  8
0
100
AcDbCircle
 10
39.0
 20
4.000000000000004
 30
0.0
 40
1.999999999999997
100
AcDbArc
 50
182.3401686098659
 51
263.5960480286847
  0
ARC
  5
95CF
330
95C8
100
AcDbEntity
  8
0
100
AcDbCircle
 10
39.0
 20
4.000000000000004
 30
0.0
 40
3.999999999999998
100
AcDbArc
 50
219.6927749101242
 51
270.0
  0
LINE
  5
95D0
330
95C8
100
AcDbEntity
  8
0
100
AcDbLine
 10
39.60606060606068
 20
0.0
 30
0.0
 11
39.0
 21
0.0
 31
0.0
  0
SPLINE
  5
95D1
330
95C8
100
AcDbEntity
  8
0
100
AcDbSpline
210
0.0
220
0.0
230
1.0
 70
     8
 71
     3
 72
    17
 73
    13
 74
     0
 42
0.000000001
 43
0.0000000001
 40
-1.0
 40
-1.0
 40
-1.0
 40
-1.0
 40
-0.7994286890707878
 40
-0.7994286890707878
 40
-0.7994286890707878
 40
-0.376096008095436
 40
-0.376096008095436
 40
-0.376096008095436
 40
-0.076528497264402
 40
-0.076528497264402
 40
-0.076528497264402
 40
0.0
 40
0.0
 40
0.0
 40
0.0
 10
35.00000000000002
 20
2.00000000000003
 30
0.0
 10
34.99999961270325
 20
1.999093543230829
 30
0.0
 10
35.12633150600923
 20
1.919863896632408
 30
0.0
 10
35.33607694564333
 20
1.790687786198303
 30
0.0
 10
35.77877285699424
 20
1.518044261585064
 30
0.0
 10
36.61445008346753
 20
1.03420794786839
 30
0.0
 10
37.48107962104288
 20
0.6388614064283371
 30
0.0
 10
38.09434210950929
 20
0.3590980320014264
 30
0.0
 10
38.71765761687429
 20
0.1217220476508809
 30
0.0
 10
39.23393420695734
 20
0.0342615816115056
 30
0.0
 10
39.36582391523124
 20
0.0119186445637933
 30
0.0
 10
39.48832026105618
 20
0.0000045452574089
 30
0.0
 10
39.60606060611091
 20
0.0000000001152113
 30
0.0
  0
LINE
  5
95D2
330
95C8
100
AcDbEntity
  8
0
100
AcDbLine
 10
39.60606060606068
 20
2.000000000000005
 30
0.0
 11
39.60606060606068
 21
0.0
 31
0.0
  0
SPLINE
  5
95D3
330
95C8
100
AcDbEntity
  8
0
100
AcDbSpline
210
0.0
220
0.0
230
1.0
 70
     8
 71
     3
 72
    30
 73
    26
 74
     0
 42
0.000000001
 43
0.0000000001
 40
0.0371765707976892
 40
0.0371765707976892
 40
0.0371765707976892
 40
0.0371765707976892
 40
0.0391841751838401
 40
0.0391841751838401
 40
0.0416275644480577
 40
0.0416275644480577
 40
0.0440778641263586
 40
0.0440778641263586
 40
0.0471697400748912
 40
0.0471697400748912
 40
0.0514008632932678
 40
0.0514008632932678
 40
0.0575622201418969
 40
0.0575622201418969
 40
0.0663109200982598
 40
0.0663109200982598
 40
0.0777691571516287
 40
0.0777691571516287
 40
0.0915297989478344
 40
0.0915297989478344
 40
0.1091261592608224
 40
0.1091261592608224
 40
0.1213991482443016
 40
0.1213991482443016
 40
0.1339581148766806
 40
0.1339581148766806
 40
0.1339581148766806
 40
0.1339581148766806
 10
38.71468571208249
 20
2.018273760986852
 30
0.0
 10
38.7146857104806
 20
2.018273761170555
 30
0.0
 10
38.71557405735245
 20
2.018171464541174
 30
0.0
 10
38.71945229442809
 20
2.017742450506025
 30
0.0
 10
38.7229566686173
 20
2.017361611535236
 30
0.0
 10
38.73190006416974
 20
2.016438710629558
 30
0.0
 10
38.73739183440228
 20
2.015892004505878
 30
0.0
 10
38.75105072885967
 20
2.014605630621389
 30
0.0
 10
38.75965459354944
 20
2.013842527004941
 30
0.0
 10
38.78100011014275
 20
2.012087267022559
 30
0.0
 10
38.79427867731888
 20
2.011099015165903
 30
0.0
 10
38.82748728067243
 20
2.008886430639437
 30
0.0
 10
38.84801708778742
 20
2.00773613290124
 30
0.0
 10
38.89758371083033
 20
2.005403899072854
 30
0.0
 10
38.92707244662162
 20
2.004384349538729
 30
0.0
 10
38.99322601943463
 20
2.002642063160762
 30
0.0
 10
39.02998670650021
 20
2.002078095688049
 30
0.0
 10
39.10559934792978
 20
2.00126903408528
 30
0.0
 10
39.14300972131671
 20
2.001099275458254
 30
0.0
 10
39.23196538480292
 20
2.000732926069594
 30
0.0
 10
39.28654452184061
 20
2.000520687818414
 30
0.0
 10
39.38006146485962
 20
2.000225594795277
 30
0.0
 10
39.4187590163337
 20
2.00013937361561
 30
0.0
 10
39.494051166153
 20
2.000040768467252
 30
0.0
 10
39.53186060224499
 20
2.000021606546805
 30
0.0
 10
39.56202985674946
 20
2.000020061973666
 30
0.0
  0
SPLINE
  5
95D4
330
95C8
100
AcDbEntity
  8
0
100
AcDbSpline
210
0.0
220
0.0
230
1.0
 70
     8
 71
     3
 72
     8
 73
     4
 74
     0
 42
0.000000001
 43
0.0000000001
 40
0.0
 40
0.0
 40
0.0
 40
0.0
 40
0.0035844670612761
 40
0.0035844670612761
 40
0.0035844670612761
 40
0.0035844670612761
 10
37.00006818308814
 20
3.999999804698426
 30
0.0
 10
37.00004435171774
 20
3.993919444695364
 30
0.0
 10
37.00002088735851
 20
3.987176465259723
 30
0.0
 10
37.00000004833697
 20
3.9803822033933
 30
0.0
  0
SPLINE
  5
95D5
330
95C8
100
AcDbEntity
  8
0
100
AcDbSpline
210
0.0
220
0.0
230
1.0
 70
     8
 71
     3
 72
    24
 73
    20
 74
     0
 42
0.000000001
 43
0.0000000001
 40
0.0332189390605952
 40
0.0332189390605952
 40
0.0332189390605952
 40
0.0332189390605952
 40
0.0332261112417315
 40
0.0332261112417315
 40
0.0337115899245744
 40
0.0337115899245744
 40
0.0341490476135877
 40
0.0341490476135877
 40
0.0350733835124528
 40
0.0350733835124528
 40
0.0423952205249029
 40
0.0423952205249029
 40
0.0497847740599218
 40
0.0497847740599218
 40
0.05717288252982
 40
0.05717288252982
 40
0.0667680020080732
 40
0.0667680020080732
 40
0.0674413339426863
 40
0.0674413339426863
 40
0.0674413339426863
 40
0.0674413339426863
 10
37.00005333782996
 20
3.99612035649522
 30
0.0
 10
37.00005340412743
 20
3.996115667374595
 30
0.0
 10
37.00005347106193
 20
3.996110934169112
 30
0.0
 10
37.00005808226793
 20
3.995784848346054
 30
0.0
 10
37.00006454603921
 20
3.995327964051394
 30
0.0
 10
37.00008531339103
 20
3.993886976089588
 30
0.0
 10
37.00009935161388
 20
3.992922241876119
 30
0.0
 10
37.00014976090068
 20
3.989537916814525
 30
0.0
 10
37.00019210276361
 20
3.986802831913743
 30
0.0
 10
37.0005823167731
 20
3.962835472675663
 30
0.0
 10
37.00107346692842
 20
3.941053849580542
 30
0.0
 10
37.00218671523201
 20
3.902521641984816
 30
0.0
 10
37.00282066530514
 20
3.885143223137485
 30
0.0
 10
37.00401021670825
 20
3.856605833531067
 30
0.0
 10
37.00457374210477
 20
3.845148086738912
 30
0.0
 10
37.00556084508558
 20
3.826280975435458
 30
0.0
 10
37.00589824023582
 20
3.820811142008979
 30
0.0
 10
37.00594054362827
 20
3.820105345702778
 30
0.0
 10
37.00594192708108
 20
3.820082347963641
 30
0.0
 10
37.00594192709887
 20
3.820082347667766
 30
0.0
  0
SPLINE
  5
95D6
330
95C8
100
AcDbEntity
  8
0
100
AcDbSpline
210
0.0
220
0.0
230
1.0
 70
     8
 71
     3
 72
    10
 73
     6
 74
     0
 42
0.000000001
 43
0.0000000001
 40
0.0
 40
0.0
 40
0.0
 40
0.0
 40
0.0042629590896633
 40
0.0042629590896633
 40
0.0074741982940491
 40
0.0074741982940491
 40
0.0074741982940491
 40
0.0074741982940491
 10
37.00037993280662
 20
4.000001916296977
 30
0.0
 10
37.00044514946011
 20
3.987258229052355
 30
0.0
 10
37.00055430095841
 20
3.975277107452414
 30
0.0
 10
37.00076607052859
 20
3.958543663882663
 30
0.0
 10
37.0008610844006
 20
3.952702520297653
 30
0.0
 10
37.00093624793679
 20
3.948482298002178
 30
0.0
  0
CIRCLE
  5
95D7
330
95C8
100
AcDbEntity
  8
0
100
AcDbCircle
 10
0.0
 20
67.99999999999998
 30
0.0
 40
2.5
  0
CIRCLE
  5
95D8
330
95C8
100
AcDbEntity
  8
0
100
AcDbCircle
 10
0.0
 20
47.99999999999998
 30
0.0
 40
2.5
  0
LINE
  5
95D9
330
95C8
100
AcDbEntity
  8
0
100
AcDbLine
 10
33.00000000000001
 20
2.000000000000004
 30
0.0
 11
-33.00000000000001
 21
2.000000000000004
 31
0.0
  0
LINE
  5
95DA
330
95C8
100
AcDbEntity
  8
0
100
AcDbLine
 10
32.99999999999999
 20
86.0
 30
0.0
 11
-32.99999999999999
 21
86.0
 31
0.0
  0
SPLINE
  5
95DB
330
95C8
100
AcDbEntity
  8
0
100
AcDbSpline
210
0.0
220
0.0
230
1.0
 70
     8
 71
     3
 72
    17
 73
    13
 74
     0
 42
0.000000001
 43
0.0000000001
 40
-1.0
 40
-1.0
 40
-1.0
 40
-1.0
 40
-0.7994286890707878
 40
-0.7994286890707878
 40
-0.7994286890707878
 40
-0.376096008095436
 40
-0.376096008095436
 40
-0.376096008095436
 40
-0.076528497264402
 40
-0.076528497264402
 40
-0.076528497264402
 40
0.0
 40
0.0
 40
0.0
 40
0.0
 10
-35.00000000000002
 20
2.00000000000003
 30
0.0
 10
-34.99999961270325
 20
1.999093543230829
 30
0.0
 10
-35.12633150600923
 20
1.919863896632408
 30
0.0
 10
-35.33607694564333
 20
1.790687786198303
 30
0.0
 10
-35.77877285699424
 20
1.518044261585064
 30
0.0
 10
-36.61445008346753
 20
1.03420794786839
 30
0.0
 10
-37.48107962104288
 20
0.6388614064283371
 30
0.0
 10
-38.09434210950929
 20
0.3590980320014264
 30
0.0
 10
-38.71765761687429
 20
0.1217220476508809
 30
0.0
 10
-39.23393420695734
 20
0.0342615816115056
 30
0.0
 10
-39.36582391523124
 20
0.0119186445637933
 30
0.0
 10
-39.48832026105618
 20
0.0000045452574089
 30
0.0
 10
-39.60606060611091
 20
0.0000000001152113
 30
0.0
  0
LINE
  5
95DC
330
95C8
100
AcDbEntity
  8
0
100
AcDbLine
 10
-39.0
 20
0.0
 30
0.0
 11
-39.60606060606068
 21
0.0
 31
0.0
  0
ARC
  5
95DD
330
95C8
100
AcDbEntity
  8
0
100
AcDbCircle
 10
-39.0
 20
4.000000000000004
 30
0.0
 40
3.999999999999998
100
AcDbArc
 50
270.0000000000001
 51
320.3072250898758
  0
ARC
  5
95DE
330
95C8
100
AcDbEntity
  8
0
100
AcDbCircle
 10
-39.0
 20
4.000000000000004
 30
0.0
 40
1.999999999999996
100
AcDbArc
 50
276.4039519713162
 51
357.6598313901081
  0
LINE
  5
95DF
330
95C8
100
AcDbEntity
  8
0
100
AcDbLine
 10
-39.60606060606069
 20
2.000000000000005
 30
0.0
 11
-39.56202985674959
 21
2.000000000000005
 31
0.0
  0
LINE
  5
95E0
330
95C8
100
AcDbEntity
  8
0
100
AcDbLine
 10
-39.00619229299616
 20
2.000000000000005
 30
0.0
 11
-39.00008656593387
 21
2.000000000000005
 31
0.0
  0
SPLINE
  5
95E1
330
95C8
100
AcDbEntity
  8
0
100
AcDbSpline
210
0.0
220
0.0
230
1.0
 70
     8
 71
     3
 72
    14
 73
    10
 74
     0
 42
0.000000001
 43
0.0000000001
 40
0.0
 40
0.0
 40
0.0
 40
0.0
 40
0.3435165591311061
 40
0.3435165591311061
 40
0.3435165591311061
 40
0.7569936138406593
 40
0.7569936138406593
 40
0.7569936138406593
 40
1.0
 40
1.0
 40
1.0
 40
1.0
 10
-39.60606060606067
 20
2.000000000000014
 30
0.0
 10
-39.2849024929176
 20
2.000036880260036
 30
0.0
 10
-38.87245901695949
 20
1.996833903329161
 30
0.0
 10
-38.47646762713446
 20
1.998675521249917
 30
0.0
 10
-37.99982873097951
 20
2.000892202610783
 30
0.0
 10
-37.53730090290923
 20
2.001068608701055
 30
0.0
 10
-37.26243107016788
 20
2.001123034011662
 30
0.0
 10
-37.10088613325325
 20
2.001155020546091
 30
0.0
 10
-36.99999576702379
 20
2.000250549241901
 30
0.0
 10
-36.99999999948817
 20
1.999999999992549
 30
0.0
  0
LINE
  5
95E2
330
95C8
100
AcDbEntity
  8
0
100
AcDbLine
 10
-39.60606060606068
 20
0.0
 30
0.0
 11
-39.60606060606068
 21
2.000000000000005
 31
0.0
  0
SPLINE
  5
95E3
330
95C8
100
AcDbEntity
  8
0
100
AcDbSpline
210
0.0
220
0.0
230
1.0
 70
     8
 71
     3
 72
    10
 73
     6
 74
     0
 42
0.000000001
 43
0.0000000001
 40
0.0194209736563844
 40
0.0194209736563844
 40
0.0194209736563844
 40
0.0194209736563844
 40
0.0196622419030788
 40
0.0196622419030788
 40
0.023005173496143
 40
0.023005173496143
 40
0.023005173496143
 40
0.023005173496143
 10
-37.00000000127189
 20
3.980395661597539
 30
0.0
 10
-37.00000140350733
 20
3.980852840198894
 30
0.0
 10
-37.00000281603319
 20
3.981310170681918
 30
0.0
 10
-37.00002398160378
 20
3.988091081101353
 30
0.0
 10
-37.00004595756906
 20
3.994329163231791
 30
0.0
 10
-37.00006818308813
 20
3.999999804698425
 30
0.0
  0
SPLINE
  5
95E4
330
95C8
100
AcDbEntity
  8
0
100
AcDbSpline
210
0.0
220
0.0
230
1.0
 70
     8
 71
     3
 72
    14
 73
    10
 74
     0
 42
0.000000001
 43
0.0000000001
 40
0.0358655441278804
 40
0.0358655441278804
 40
0.0358655441278804
 40
0.0358655441278804
 40
0.0359537579205561
 40
0.0359537579205561
 40
0.0382249002268738
 40
0.0382249002268738
 40
0.0413340209627331
 40
0.0413340209627331
 40
0.0433661956088926
 40
0.0433661956088926
 40
0.0433661956088926
 40
0.0433661956088926
 10
-37.00093636722133
 20
3.948475628019277
 30
0.0
 10
-37.00093431024648
 20
3.948591121402971
 30
0.0
 10
-37.00093225028618
 20
3.948707458172505
 30
0.0
 10
-37.00087662479714
 20
3.951851200948136
 30
0.0
 10
-37.0008139791054
 20
3.955643223694433
 30
0.0
 10
-37.00066070322286
 20
3.966444198153991
 30
0.0
 10
-37.00056980505697
 20
3.974140966028902
 30
0.0
 10
-37.00045087404432
 20
3.988060772265699
 30
0.0
 10
-37.00041102192262
 20
3.993926934676714
 30
0.0
 10
-37.0003799328066
 20
4.000001916296977
 30
0.0
  0
SPLINE
  5
95E5
330
95C8
100
AcDbEntity
  8
0
100
AcDbSpline
210
0.0
220
0.0
230
1.0
 70
     8
 71
     3
 72
    26
 73
    22
 74
     0
 42
0.000000001
 43
0.0000000001
 40
0.0423486644365387
 40
0.0423486644365387
 40
0.0423486644365387
 40
0.0423486644365387
 40
0.0483636530459338
 40
0.0483636530459338
 40
0.0586880659287931
 40
0.0586880659287931
 40
0.0674413381651882
 40
0.0674413381651882
 40
0.0715211997348897
 40
0.0715211997348897
 40
0.0739353548454451
 40
0.0739353548454451
 40
0.0748404282765363
 40
0.0748404282765363
 40
0.0755203186296605
 40
0.0755203186296605
 40
0.0758686410036986
 40
0.0758686410036986
 40
0.076195579427177
 40
0.076195579427177
 40
0.0765450931579776
 40
0.0765450931579776
 40
0.0765450931579776
 40
0.0765450931579776
 10
-37.00594192709884
 20
3.820082347668289
 30
0.0
 10
-37.00594192739255
 20
3.820082342784822
 30
0.0
 10
-37.00582793430837
 20
3.821949407552152
 30
0.0
 10
-37.00523926438118
 20
3.832329604181355
 30
0.0
 10
-37.00453526992486
 20
3.845111579145632
 30
0.0
 10
-37.00303841263755
 20
3.879316908495427
 30
0.0
 10
-37.00226930132146
 20
3.899547669259813
 30
0.0
 10
-37.00130080724937
 20
3.933241313841471
 30
0.0
 10
-37.00101327302148
 20
3.944620218596099
 30
0.0
 10
-37.00061012472398
 20
3.963309123796278
 30
0.0
 10
-37.00047172798412
 20
3.970404378202319
 30
0.0
 10
-37.00030096611493
 20
3.980163662135112
 30
0.0
 10
-37.00025634559189
 20
3.982828161840761
 30
0.0
 10
-37.00018293878925
 20
3.987404484937617
 30
0.0
 10
-37.00015262207548
 20
3.989363714519532
 30
0.0
 10
-37.00011259007294
 20
3.992028817488893
 30
0.0
 10
-37.00010004175517
 20
3.992879467230886
 30
0.0
 10
-37.00008017113027
 20
3.994241779849136
 30
0.0
 10
-37.00007255572992
 20
3.994771471983738
 30
0.0
 10
-37.00006075797804
 20
3.99559612910594
 30
0.0
 10
-37.00005647525335
 20
3.99589784802468
 30
0.0
 10
-37.00005322915229
 20
3.996127439892018
 30
0.0
  0
SPLINE
  5
95E6
330
95C8
100
AcDbEntity
  8
0
100
AcDbSpline
210
0.0
220
0.0
230
1.0
 70
     8
 71
     3
 72
    34
 73
    30
 74
     0
 42
0.000000001
 43
0.0000000001
 40
0.0
 40
0.0
 40
0.0
 40
0.0
 40
0.0070452398589937
 40
0.0070452398589937
 40
0.016640594931748
 40
0.016640594931748
 40
0.0367140942811568
 40
0.0367140942811568
 40
0.0488284899936357
 40
0.0488284899936357
 40
0.0619891282072873
 40
0.0619891282072873
 40
0.0705213679132204
 40
0.0705213679132204
 40
0.0770085532812396
 40
0.0770085532812396
 40
0.0824905607016201
 40
0.0824905607016201
 40
0.0868289192980085
 40
0.0868289192980085
 40
0.0899294289538474
 40
0.0899294289538474
 40
0.0920481882218359
 40
0.0920481882218359
 40
0.0936272396498933
 40
0.0936272396498933
 40
0.096257796643509
 40
0.096257796643509
 40
0.0968493192578043
 40
0.0968493192578043
 40
0.0968493192578043
 40
0.0968493192578043
 10
-39.56202985674958
 20
2.000020061973665
 30
0.0
 10
-39.5451057227366
 20
2.00002092843733
 30
0.0
 10
-39.52555210338545
 20
2.000028134291583
 30
0.0
 10
-39.47775545392565
 20
2.000061132070876
 30
0.0
 10
-39.44841962895437
 20
2.000093689688178
 30
0.0
 10
-39.35657224045341
 20
2.000268440250443
 30
0.0
 10
-39.29198494460136
 20
2.000513808508416
 30
0.0
 10
-39.19633422795027
 20
2.000879055388709
 30
0.0
 10
-39.16273081660128
 20
2.000996414975368
 30
0.0
 10
-39.09183574205464
 20
2.001409809829912
 30
0.0
 10
-39.05253731396697
 20
2.001731207546618
 30
0.0
 10
-38.98400779064849
 20
2.002903978526984
 30
0.0
 10
-38.95599554177845
 20
2.003538353540819
 30
0.0
 10
-38.90628512899004
 20
2.005134925820543
 30
0.0
 10
-38.88449296339404
 20
2.005989885778628
 30
0.0
 10
-38.84475199459184
 20
2.007923221108637
 30
0.0
 10
-38.82655876611528
 20
2.008956309565479
 30
0.0
 10
-38.7951288024308
 20
2.011036511920849
 30
0.0
 10
-38.78148569515321
 20
2.012048255357322
 30
0.0
 10
-38.75978816446178
 20
2.01383089717949
 30
0.0
 10
-38.75115339631607
 20
2.014596259826791
 30
0.0
 10
-38.73827976300039
 20
2.015808179371133
 30
0.0
 10
-38.73346793480825
 20
2.016283006391341
 30
0.0
 10
-38.72630853377616
 20
2.017013227016
 30
0.0
 10
-38.72361988373501
 20
2.017296128104782
 30
0.0
 10
-38.7178134831497
 20
2.017918712676793
 30
0.0
 10
-38.71557832695884
 20
2.018172183284031
 30
0.0
 10
-38.71476046658551
 20
2.018265184442225
 30
0.0
 10
-38.71468570912625
 20
2.018273761325872
 30
0.0
 10
-38.71468571208409
 20
2.018273760986666
 30
0.0
  0
LINE
  5
95E7
330
95C8
100
AcDbEntity
  8
0
100
AcDbLine
 10
-37.0
 20
2.00000000000001
 30
0.0
 11
-33.0
 21
2.000000000000004
 31
0.0
  0
LINE
  5
95E8
330
95C8
100
AcDbEntity
  8
0
100
AcDbLine
 10
-32.99999999999999
 20
86.0
 30
0.0
 11
-36.99999999999999
 21
86.0
 31
0.0
  0
LINE
  5
95E9
330
95C8
100
AcDbEntity
  8
0
100
AcDbLine
 10
-36.99999999999999
 20
2.00000000000001
 30
0.0
 11
-36.99999999999999
 21
86.0
 31
0.0
  0
LINE
  5
95EA
330
95C8
100
AcDbEntity
  8
0
100
AcDbLine
 10
37.0
 20
2.00000000000001
 30
0.0
 11
33.0
 21
2.000000000000004
 31
0.0
  0
LINE
  5
95EB
330
95C8
100
AcDbEntity
  8
0
100
AcDbLine
 10
36.99999999999999
 20
2.00000000000001
 30
0.0
 11
36.99999999999999
 21
86.0
 31
0.0
  0
LINE
  5
95EC
330
95C8
100
AcDbEntity
  8
0
100
AcDbLine
 10
32.99999999999999
 20
86.0
 30
0.0
 11
36.99999999999999
 21
86.0
 31
0.0
  0
LINE
  5
95ED
330
95C8
100
AcDbEntity
  8
0
100
AcDbLine
 10
76.50000000000007
 20
0.0
 30
0.0
 11
39.60606060606068
 21
0.0
 31
0.0
  0
LINE
  5
95EE
330
95C8
100
AcDbEntity
  8
0
100
AcDbLine
 10
76.50000000000007
 20
1.999999999999997
 30
0.0
 11
76.50000000000007
 21
0.0
 31
0.0
  0
LINE
  5
95EF
330
95C8
100
AcDbEntity
  8
0
100
AcDbLine
 10
39.60606060606069
 20
2.000000000000005
 30
0.0
 11
76.50000000000007
 21
1.999999999999997
 31
0.0
  0
LINE
  5
95F0
330
95C8
100
AcDbEntity
  8
0
100
AcDbLine
 10
-76.50000000000007
 20
1.999999999999997
 30
0.0
 11
-39.60606060606069
 21
2.000000000000005
 31
0.0
  0
LINE
  5
95F1
330
95C8
100
AcDbEntity
  8
0
100
AcDbLine
 10
-76.50000000000007
 20
0.0
 30
0.0
 11
-76.50000000000007
 21
1.999999999999997
 31
0.0
  0
LINE
  5
95F2
330
95C8
100
AcDbEntity
  8
0
100
AcDbLine
 10
-39.60606060606068
 20
0.0
 30
0.0
 11
-76.50000000000007
 21
0.0
 31
0.0
  0
ENDBLK
  5
95CA
330
95C8
100
AcDbEntity
  8
0
100
AcDbBlockEnd
  0
BLOCK
  5
95F4
330
95F3
100
AcDbEntity
  8
0
100
AcDbBlockBegin
  2
SAE380_70_2-ISO
 70
     0
 10
0.0
 20
0.0
 30
0.0
  3
SAE380_70_2-ISO
  1

  0
LINE
  5
95F6
330
95F3
100
AcDbEntity
  8
0
100
AcDbLine
 10
54.9268700613915
 20
-40.5479041964158
 30
0.0
 11
54.79324359570886
 21
-40.62505347234854
 31
0.0
  0
SPLINE
  5
95F7
330
95F3
100
AcDbEntity
  8
0
100
AcDbSpline
210
0.0
220
0.0
230
1.0
 70
     8
 71
     3
 72
    14
 73
    10
 74
     0
 42
0.000000001
 43
0.0000000001
 40
0.0
 40
0.0
 40
0.0
 40
0.0
 40
0.3435165591311061
 40
0.3435165591311061
 40
0.3435165591311061
 40
0.7569936138406593
 40
0.7569936138406593
 40
0.7569936138406593
 40
1.0
 40
1.0
 40
1.0
 40
1.0
 10
56.76963318812012
 20
-39.51955149505801
 30
0.0
 10
56.54251403020161
 20
-39.6007499948649
 30
0.0
 10
56.2531372982033
 20
-39.61657234129266
 30
0.0
 10
55.97182688064641
 20
-39.6444453999371
 30
0.0
 10
55.63322485457597
 20
-39.67799507865769
 30
0.0
 10
55.30604355291732
 20
-39.72960336511441
 30
0.0
 10
55.1116427457361
 20
-39.95500379430195
 30
0.0
 10
54.99739060748201
 20
-40.08747485433236
 30
0.0
 10
54.92668990315735
 20
-40.25551161537238
 30
0.0
 10
54.92687006103486
 20
-40.54790419485423
 30
0.0
  0
LINE
  5
95F8
330
95F3
100
AcDbEntity
  8
0
100
AcDbLine
 10
56.34108362376459
 20
-39.27212828871626
 30
0.0
 11
56.76963318812013
 21
-39.51955149505803
 31
0.0
  0
ELLIPSE
  5
95F9
330
95F3
100
AcDbEntity
  8
0
100
AcDbEllipse
 10
54.92687006139149
 20
-40.08862486964398
 30
0.0
 11
1.999999999999996
 21
-0.0000000000001197
 31
0.0
210
0.0
220
0.0
230
1.0
 40
0.5773502691896257
 41
0.7853981633976908
 42
2.356194490192599
  0
LINE
  5
95FA
330
95F3
100
AcDbEntity
  8
0
100
AcDbLine
 10
53.5126564990184
 20
-39.4674865955336
 30
0.0
 11
53.5126564990184
 21
-39.27212828871626
 31
0.0
  0
LINE
  5
95FB
330
95F3
100
AcDbEntity
  8
0
100
AcDbLine
 10
53.5126564990184
 20
-41.36440077734352
 30
0.0
 11
53.5126564990184
 21
-39.4674865955336
 31
0.0
  0
LINE
  5
95FC
330
95F3
100
AcDbEntity
  8
0
100
AcDbLine
 10
54.79324359570886
 20
-40.62505347234854
 30
0.0
 11
53.5126564990184
 21
-41.36440077734352
 31
0.0
  0
ELLIPSE
  5
95FD
330
95F3
100
AcDbEntity
  8
0
100
AcDbEllipse
 10
-17.90512840082288
 20
-74.43251230491641
 30
0.0
 11
-2.5
 21
-0.0000000000001499
 31
0.0
210
0.0
220
0.0
230
1.0
 40
0.5773502691896258
 41
3.74285687026858
 42
5.681921090500121
  0
ELLIPSE
  5
95FE
330
95F3
100
AcDbEntity
  8
0
100
AcDbEllipse
 10
-3.762992777091929
 20
-66.26754649563915
 30
0.0
 11
-2.5
 21
-0.0000000000001499
 31
0.0
210
0.0
220
0.0
230
1.0
 40
0.5773502691896258
 41
3.74285687026858
 42
5.681921090500121
  0
LINE
  5
95FF
330
95F3
100
AcDbEntity
  8
0
100
AcDbLine
 10
-7.298526683024695
 20
-95.25317511857341
 30
0.0
 11
-53.96757424133681
 21
-68.30878794795849
 31
0.0
  0
LINE
  5
9600
330
95F3
100
AcDbEntity
  8
0
100
AcDbLine
 10
4.01518181596006
 20
-11.15402728301766
 30
0.0
 11
4.015181815960073
 21
-29.93344864435536
 31
0.0
  0
LINE
  5
9601
330
95F3
100
AcDbEntity
  8
0
100
AcDbLine
 10
16.97557733962581
 20
-39.04912965060327
 30
0.0
 11
5.429395378333166
 21
-32.38293838713854
 31
0.0
  0
LINE
  5
9602
330
95F3
100
AcDbEntity
  8
0
100
AcDbLine
 10
-53.96757424133681
 20
-66.67579478610304
 30
0.0
 11
-7.298526683024695
 21
-93.62018195671797
 31
0.0
  0
ELLIPSE
  5
9603
330
95F3
100
AcDbEntity
  8
0
100
AcDbEllipse
 10
-3.762992777091929
 20
-64.63455333378369
 30
0.0
 11
-2.5
 21
0.0000000000001492
 31
0.0
210
0.0
220
0.0
230
1.0
 40
0.5773502691896258
 41
0.0
 42
6.283185307179586
  0
ELLIPSE
  5
9604
330
95F3
100
AcDbEntity
  8
0
100
AcDbEllipse
 10
-17.90512840082288
 20
-72.79951914306096
 30
0.0
 11
-2.5
 21
0.0000000000001492
 31
0.0
210
0.0
220
0.0
230
1.0
 40
0.5773502691896258
 41
0.0
 42
6.283185307179586
  0
LINE
  5
9605
330
95F3
100
AcDbEntity
  8
0
100
AcDbLine
 10
4.01518181596006
 20
-11.15402728301766
 30
0.0
 11
3.929939909953028
 21
-11.20324172039705
 31
0.0
  0
SPLINE
  5
9606
330
95F3
100
AcDbEntity
  8
0
100
AcDbSpline
210
0.0
220
0.0
230
1.0
 70
     8
 71
     3
 72
    11
 73
     7
 74
     0
 42
0.000000001
 43
0.0000000001
 40
-1.0
 40
-1.0
 40
-1.0
 40
-1.0
 40
-0.7994286890707878
 40
-0.7994286890707878
 40
-0.7994286890707878
 40
-0.6581429245309437
 40
-0.6581429245309437
 40
-0.6581429245309437
 40
-0.6581429245309437
 10
4.015181815960051
 20
-11.15402728301766
 30
0.0
 10
4.015823051548572
 20
-10.75941519640778
 30
0.0
 10
3.982516733492533
 20
-10.40066690795234
 30
0.0
 10
3.925545614459569
 20
-10.05933017745452
 30
0.0
 10
3.885414211458946
 20
-9.81888691211167
 30
0.0
 10
3.830964731624186
 20
-9.589053110197776
 30
0.0
 10
3.763836052512141
 20
-9.366261254995279
 30
0.0
  0
ELLIPSE
  5
9607
330
95F3
100
AcDbEntity
  8
0
100
AcDbEllipse
 10
-0.2274588711592118
 20
-8.245258213462673
 30
0.0
 11
3.999999999999999
 21
-0.0000000000000001
 31
0.0
210
0.0
220
0.0
230
1.0
 40
0.5773502691896257
 41
6.058746940100403
 42
6.283185307179587
  0
ELLIPSE
  5
9608
330
95F3
100
AcDbEntity
  8
0
100
AcDbEllipse
 10
-0.2274588711592118
 20
-8.245258213462673
 30
0.0
 11
3.999999999999999
 21
-0.0000000000000001
 31
0.0
210
0.0
220
0.0
230
1.0
 40
0.5773502691896257
 41
5.497787143782132
 42
6.058746940100403
  0
LINE
  5
9609
330
95F3
100
AcDbEntity
  8
0
100
AcDbLine
 10
2.600968253586981
 20
-9.878251375318122
 30
0.0
 11
2.600968253586981
 21
-10.07267779093772
 31
0.0
  0
LINE
  5
960A
330
95F3
100
AcDbEntity
  8
0
100
AcDbLine
 10
2.600968253586981
 20
-10.07267779093772
 30
0.0
 11
2.600968253586981
 21
-11.97052386394539
 31
0.0
  0
LINE
  5
960B
330
95F3
100
AcDbEntity
  8
0
100
AcDbLine
 10
3.929939909953028
 20
-11.20324172039705
 30
0.0
 11
2.600968253586972
 21
-11.97052386394539
 31
0.0
  0
SPLINE
  5
960C
330
95F3
100
AcDbEntity
  8
0
100
AcDbSpline
210
0.0
220
0.0
230
1.0
 70
     8
 71
     3
 72
    16
 73
    12
 74
     0
 42
0.000000001
 43
0.0000000001
 40
0.0
 40
0.0
 40
0.0
 40
0.0
 40
0.0351246736896077
 40
0.0351246736896077
 40
0.0553379698140675
 40
0.0553379698140675
 40
0.0803964713286491
 40
0.0803964713286491
 40
0.1060252736408894
 40
0.1060252736408894
 40
0.1164313734393005
 40
0.1164313734393005
 40
0.1164313734393005
 40
0.1164313734393005
 10
3.761168456927364
 20
-8.419285973300274
 30
0.0
 10
3.745973828492514
 20
-8.535374238021349
 30
0.0
 10
3.731043820957156
 20
-8.653602355079561
 30
0.0
 10
3.71619132152074
 20
-8.830968117297128
 30
0.0
 10
3.71261528825268
 20
-8.894481727251957
 30
0.0
 10
3.710371615429473
 20
-9.025575362831492
 30
0.0
 10
3.713105617732823
 20
-9.091427754212846
 30
0.0
 10
3.724970597298602
 20
-9.206868188568257
 30
0.0
 10
3.734027147789404
 20
-9.257494547261453
 30
0.0
 10
3.750862545503772
 20
-9.326308128203342
 30
0.0
 10
3.756254977514643
 20
-9.346041395148114
 30
0.0
 10
3.762370784362758
 20
-9.366365589963194
 30
0.0
  0
ELLIPSE
  5
960D
330
95F3
100
AcDbEntity
  8
0
100
AcDbEllipse
 10
5.429395378333174
 20
-30.74994522528309
 30
0.0
 11
1.000000000000106
 21
-1.732050807568816
 31
0.0
210
0.0
220
0.0
230
1.0
 40
0.5773502691896267
 41
3.926990816987
 42
5.497787143781895
  0
LINE
  5
960E
330
95F3
100
AcDbEntity
  8
0
100
AcDbLine
 10
5.429395378333166
 20
-32.38293838713854
 30
0.0
 11
-53.96757424133681
 21
-66.67579478610304
 31
0.0
  0
ELLIPSE
  5
960F
330
95F3
100
AcDbEntity
  8
0
100
AcDbEllipse
 10
-53.96757424133681
 20
-65.04280162424757
 30
0.0
 11
2.000000000000212
 21
-3.464101615137641
 31
0.0
210
0.0
220
0.0
230
1.0
 40
0.577350269189626
 41
3.926990816986998
 42
5.497787143781892
  0
LINE
  5
9610
330
95F3
100
AcDbEntity
  8
0
100
AcDbLine
 10
-55.38178780370991
 20
-64.22630504331985
 30
0.0
 11
4.015181815960078
 21
-29.93344864435537
 31
0.0
  0
LINE
  5
9611
330
95F3
100
AcDbEntity
  8
0
100
AcDbLine
 10
-56.79600136608301
 20
-63.40980846239212
 30
0.0
 11
-55.38178780370991
 21
-64.22630504331985
 31
0.0
  0
LINE
  5
9612
330
95F3
100
AcDbEntity
  8
0
100
AcDbLine
 10
-53.96757424133681
 20
-68.30878794795849
 30
0.0
 11
-53.96757424133681
 21
-66.67579478610304
 31
0.0
  0
ELLIPSE
  5
9613
330
95F3
100
AcDbEntity
  8
0
100
AcDbEllipse
 10
-53.96757424133681
 20
-65.04280162424757
 30
0.0
 11
1.000000000000106
 21
-1.732050807568823
 31
0.0
210
0.0
220
0.0
230
1.0
 40
0.5773502691896258
 41
3.926990816987004
 42
5.497787143781896
  0
LINE
  5
9614
330
95F3
100
AcDbEntity
  8
0
100
AcDbLine
 10
54.92687006139149
 20
-59.32732555775348
 30
0.0
 11
54.9268700613915
 21
-40.5479041964158
 31
0.0
  0
ELLIPSE
  5
9615
330
95F3
100
AcDbEntity
  8
0
100
AcDbEllipse
 10
52.09844293664531
 20
-57.69433239589805
 30
0.0
 11
1.999999999999999
 21
-3.464101615137753
 31
0.0
210
0.0
220
0.0
230
1.0
 40
0.5773502691896251
 41
0.0
 42
0.7853981633974448
  0
LINE
  5
9616
330
95F3
100
AcDbEntity
  8
0
100
AcDbLine
 10
-7.298526683024695
 20
-93.62018195671797
 30
0.0
 11
-5.884313120651594
 21
-92.80368537579025
 31
0.0
  0
LINE
  5
9617
330
95F3
100
AcDbEntity
  8
0
100
AcDbLine
 10
54.92687006139149
 20
-59.32732555775348
 30
0.0
 11
-4.470099558278501
 21
-93.62018195671797
 31
0.0
  0
ELLIPSE
  5
9618
330
95F3
100
AcDbEntity
  8
0
100
AcDbEllipse
 10
-7.298526683024695
 20
-91.9871887948625
 30
0.0
 11
2.000000000000005
 21
-3.464101615137761
 31
0.0
210
0.0
220
0.0
230
1.0
 40
0.5773502691896258
 41
5.497787143782137
 42
7.068583470577028
  0
LINE
  5
9619
330
95F3
100
AcDbEntity
  8
0
100
AcDbLine
 10
82.85758791826019
 20
-29.72932449912347
 30
0.0
 11
84.27180148063328
 21
-28.91282791819574
 31
0.0
  0
LINE
  5
961A
330
95F3
100
AcDbEntity
  8
0
100
AcDbLine
 10
56.76963318812013
 20
-39.51955149505803
 30
0.0
 11
82.85758791826019
 21
-29.72932449912347
 31
0.0
  0
ELLIPSE
  5
961B
330
95F3
100
AcDbEntity
  8
0
100
AcDbEllipse
 10
70.48321924749555
 20
41.91825047728451
 30
0.0
 11
-3.25
 21
5.629165124598853
 31
0.0
210
0.0
220
0.0
230
1.0
 40
0.5773502691896258
 41
0.2193254863005887
 42
2.9222671672892
  0
ELLIPSE
  5
961C
330
95F3
100
AcDbEntity
  8
0
100
AcDbEllipse
 10
78.26139384054759
 20
41.51000218682065
 30
0.0
 11
1.250000000000129
 21
-2.165063509461021
 31
0.0
210
0.0
220
0.0
230
1.0
 40
0.5773502691896258
 41
3.74285687026858
 42
5.68192109050012
  0
LINE
  5
961D
330
95F3
100
AcDbEntity
  8
0
100
AcDbLine
 10
57.75529718613768
 20
65.59665132418858
 30
0.0
 11
84.27180148063321
 21
50.2873404317937
 31
0.0
  0
LINE
  5
961E
330
95F3
100
AcDbEntity
  8
0
100
AcDbLine
 10
84.27180148063328
 20
-28.91282791819574
 30
0.0
 11
84.27180148063321
 21
50.28734043179371
 31
0.0
  0
ELLIPSE
  5
961F
330
95F3
100
AcDbEntity
  8
0
100
AcDbEllipse
 10
54.92687006139149
 20
63.96365816233313
 30
0.0
 11
3.999999999999999
 21
-0.0000000000002379
 31
0.0
210
0.0
220
0.0
230
1.0
 40
0.5773502691896257
 41
0.7853981633976926
 42
2.356194490192585
  0
ELLIPSE
  5
9620
330
95F3
100
AcDbEntity
  8
0
100
AcDbEllipse
 10
27.70325898570942
 20
39.26463658926941
 30
0.0
 11
1.249999999999871
 21
2.16506350946117
 31
0.0
210
0.0
220
0.0
230
1.0
 40
0.577350269189626
 41
3.742856870268578
 42
5.681921090500118
  0
ELLIPSE
  5
9621
330
95F3
100
AcDbEntity
  8
0
100
AcDbEllipse
 10
29.11747254808251
 20
38.44814000834167
 30
0.0
 11
-1.25
 21
-2.165063509461096
 31
0.0
210
0.0
220
0.0
230
0.9999999999999998
 40
0.577350269189626
 41
0.0
 42
6.283185307179586
  0
LINE
  5
9622
330
95F3
100
AcDbEntity
  8
0
100
AcDbLine
 10
-5.884313120651607
 20
-74.02426401445255
 30
0.0
 11
22.3999581268103
 21
-30.74994522528311
 31
0.0
  0
LINE
  5
9623
330
95F3
100
AcDbEntity
  8
0
100
AcDbLine
 10
-4.470099558278515
 20
-74.84076059538029
 30
0.0
 11
-5.884313120651607
 21
-74.02426401445255
 31
0.0
  0
LINE
  5
9624
330
95F3
100
AcDbEntity
  8
0
100
AcDbLine
 10
23.8141716891834
 20
-31.56644180621083
 30
0.0
 11
-4.470099558278515
 21
-74.84076059538029
 31
0.0
  0
LINE
  5
9625
330
95F3
100
AcDbEntity
  8
0
100
AcDbLine
 10
23.8141716891834
 20
-31.56644180621083
 30
0.0
 11
22.3999581268103
 21
-30.74994522528311
 31
0.0
  0
LINE
  5
9626
330
95F3
100
AcDbEntity
  8
0
100
AcDbLine
 10
22.3999581268103
 20
-30.74994522528311
 30
0.0
 11
22.39995812681032
 21
48.45022312470632
 31
0.0
  0
LINE
  5
9627
330
95F3
100
AcDbEntity
  8
0
100
AcDbLine
 10
23.81417168918341
 20
47.63372654377858
 30
0.0
 11
23.8141716891834
 21
-31.56644180621083
 31
0.0
  0
LINE
  5
9628
330
95F3
100
AcDbEntity
  8
0
100
AcDbLine
 10
22.39995812681032
 20
48.45022312470632
 30
0.0
 11
23.81417168918341
 21
47.63372654377858
 31
0.0
  0
LINE
  5
9629
330
95F3
100
AcDbEntity
  8
0
100
AcDbLine
 10
-4.470099558278515
 20
-74.84076059538029
 30
0.0
 11
-4.470099558278497
 21
-93.62018195671797
 31
0.0
  0
LINE
  5
962A
330
95F3
100
AcDbEntity
  8
0
100
AcDbLine
 10
53.5126564990184
 20
-39.27212828871626
 30
0.0
 11
53.5126564990184
 21
64.78015474326084
 31
0.0
  0
LINE
  5
962B
330
95F3
100
AcDbEntity
  8
0
100
AcDbLine
 10
53.5126564990184
 20
64.78015474326084
 30
0.0
 11
23.81417168918341
 21
47.63372654377858
 31
0.0
  0
LINE
  5
962C
330
95F3
100
AcDbEntity
  8
0
100
AcDbLine
 10
22.39995812681032
 20
48.45022312470632
 30
0.0
 11
52.09844293664531
 21
65.59665132418858
 31
0.0
  0
LINE
  5
962D
330
95F3
100
AcDbEntity
  8
0
100
AcDbLine
 10
-5.884313120651598
 20
-92.80368537579024
 30
0.0
 11
-5.884313120651607
 21
-74.02426401445255
 31
0.0
  0
LINE
  5
962E
330
95F3
100
AcDbEntity
  8
0
100
AcDbLine
 10
-7.298526683024695
 20
-93.62018195671797
 30
0.0
 11
-7.298526683024695
 21
-95.25317511857341
 31
0.0
  0
LINE
  5
962F
330
95F3
100
AcDbEntity
  8
0
100
AcDbLine
 10
-5.884313120651598
 20
-92.80368537579024
 30
0.0
 11
-4.470099558278497
 21
-93.62018195671797
 31
0.0
  0
ELLIPSE
  5
9630
330
95F3
100
AcDbEntity
  8
0
100
AcDbEllipse
 10
-7.298526683024695
 20
-91.9871887948625
 30
0.0
 11
1.000000000000003
 21
-1.732050807568882
 31
0.0
210
0.0
220
0.0
230
1.0
 40
0.5773502691896259
 41
5.497787143782131
 42
7.068583470577029
  0
LINE
  5
9631
330
95F3
100
AcDbEntity
  8
0
100
AcDbLine
 10
56.34108362376458
 20
-39.27212828871626
 30
0.0
 11
56.34108362376458
 21
64.78015474326084
 31
0.0
  0
ELLIPSE
  5
9632
330
95F3
100
AcDbEntity
  8
0
100
AcDbEllipse
 10
54.92687006139149
 20
63.96365816233313
 30
0.0
 11
-1.999999999999997
 21
-0.0000000000001193
 31
0.0
210
0.0
220
0.0
230
1.0
 40
0.5773502691896258
 41
3.926990816987004
 42
5.497787143781895
  0
LINE
  5
9633
330
95F3
100
AcDbEntity
  8
0
100
AcDbLine
 10
84.27180148063321
 20
50.2873404317937
 30
0.0
 11
82.85758791826012
 21
49.47084385086598
 31
0.0
  0
LINE
  5
9634
330
95F3
100
AcDbEntity
  8
0
100
AcDbLine
 10
82.85758791826019
 20
-29.72932449912347
 30
0.0
 11
82.85758791826012
 21
49.47084385086597
 31
0.0
  0
LINE
  5
9635
330
95F3
100
AcDbEntity
  8
0
100
AcDbLine
 10
53.5126564990184
 20
64.78015474326084
 30
0.0
 11
52.09844293664531
 21
65.59665132418858
 31
0.0
  0
LINE
  5
9636
330
95F3
100
AcDbEntity
  8
0
100
AcDbLine
 10
56.34108362376458
 20
64.78015474326084
 30
0.0
 11
57.75529718613768
 21
65.59665132418858
 31
0.0
  0
LINE
  5
9637
330
95F3
100
AcDbEntity
  8
0
100
AcDbLine
 10
82.85758791826012
 20
49.47084385086598
 30
0.0
 11
56.34108362376458
 21
64.78015474326084
 31
0.0
  0
ELLIPSE
  5
9638
330
95F3
100
AcDbEntity
  8
0
100
AcDbEllipse
 10
69.06900568512245
 20
41.10175389635679
 30
0.0
 11
-3.25
 21
5.629165124598853
 31
0.0
210
0.0
220
0.0
230
1.0
 40
0.5773502691896258
 41
0.0
 42
6.283185307179586
  0
ELLIPSE
  5
9639
330
95F3
100
AcDbEntity
  8
0
100
AcDbEllipse
 10
76.84718027817449
 20
40.69350560589293
 30
0.0
 11
-1.249999999999999
 21
2.165063509461096
 31
0.0
210
0.0
220
0.0
230
1.0
 40
0.5773502691896259
 41
0.0
 42
6.283185307179586
  0
LINE
  5
963A
330
95F3
100
AcDbEntity
  8
0
100
AcDbLine
 10
-5.298526683024689
 20
-95.45129041000027
 30
0.0
 11
54.0984429366453
 21
-61.15843401103581
 31
0.0
  0
ELLIPSE
  5
963B
330
95F3
100
AcDbEntity
  8
0
100
AcDbEllipse
 10
70.48321924749555
 20
-15.23651018765629
 30
0.0
 11
-3.25
 21
5.629165124598853
 31
0.0
210
0.0
220
0.0
230
1.0
 40
0.5773502691896259
 41
0.2193254863005922
 42
2.9222671672892
  0
ELLIPSE
  5
963C
330
95F3
100
AcDbEntity
  8
0
100
AcDbEllipse
 10
69.06900568512245
 20
-16.05300676858401
 30
0.0
 11
-3.25
 21
5.629165124598853
 31
0.0
210
0.0
220
0.0
230
1.0
 40
0.5773502691896258
 41
0.0
 42
6.283185307179586
  0
ELLIPSE
  5
963D
330
95F3
100
AcDbEntity
  8
0
100
AcDbEllipse
 10
62.70504465444353
 20
-22.99322770646968
 30
0.0
 11
1.250000000000129
 21
-2.165063509461021
 31
0.0
210
0.0
220
0.0
230
1.0
 40
0.5773502691896258
 41
3.742856870268576
 42
5.68192109050012
  0
ELLIPSE
  5
963E
330
95F3
100
AcDbEntity
  8
0
100
AcDbEllipse
 10
62.70504465444353
 20
-6.663296087915169
 30
0.0
 11
1.250000000000129
 21
-2.165063509461021
 31
0.0
210
0.0
220
0.0
230
1.0
 40
0.5773502691896258
 41
3.742856870268576
 42
5.681921090500121
  0
ELLIPSE
  5
963F
330
95F3
100
AcDbEntity
  8
0
100
AcDbEllipse
 10
62.70504465444353
 20
9.666635530639355
 30
0.0
 11
1.250000000000129
 21
-2.165063509461021
 31
0.0
210
0.0
220
0.0
230
1.0
 40
0.5773502691896258
 41
3.742856870268578
 42
5.681921090500121
  0
ELLIPSE
  5
9640
330
95F3
100
AcDbEntity
  8
0
100
AcDbEllipse
 10
62.70504465444353
 20
25.99656714919387
 30
0.0
 11
1.250000000000129
 21
-2.165063509461021
 31
0.0
210
0.0
220
0.0
230
1.0
 40
0.5773502691896258
 41
3.742856870268576
 42
5.68192109050012
  0
ELLIPSE
  5
9641
330
95F3
100
AcDbEntity
  8
0
100
AcDbEllipse
 10
62.70504465444353
 20
42.32649876774838
 30
0.0
 11
1.250000000000129
 21
-2.165063509461021
 31
0.0
210
0.0
220
0.0
230
1.0
 40
0.5773502691896258
 41
3.74285687026858
 42
5.681921090500121
  0
ELLIPSE
  5
9642
330
95F3
100
AcDbEntity
  8
0
100
AcDbEllipse
 10
61.29083109207043
 20
-23.80972428739742
 30
0.0
 11
-1.249999999999999
 21
2.165063509461096
 31
0.0
210
0.0
220
0.0
230
1.0
 40
0.5773502691896259
 41
0.0
 42
6.283185307179586
  0
ELLIPSE
  5
9643
330
95F3
100
AcDbEntity
  8
0
100
AcDbEllipse
 10
61.29083109207043
 20
-7.479792668842897
 30
0.0
 11
-1.249999999999999
 21
2.165063509461096
 31
0.0
210
0.0
220
0.0
230
1.0
 40
0.5773502691896259
 41
0.0
 42
6.283185307179586
  0
ELLIPSE
  5
9644
330
95F3
100
AcDbEntity
  8
0
100
AcDbEllipse
 10
61.29083109207043
 20
8.850138949711627
 30
0.0
 11
-1.249999999999999
 21
2.165063509461096
 31
0.0
210
0.0
220
0.0
230
1.0
 40
0.5773502691896259
 41
0.0
 42
6.283185307179586
  0
ELLIPSE
  5
9645
330
95F3
100
AcDbEntity
  8
0
100
AcDbEllipse
 10
61.29083109207043
 20
25.18007056826615
 30
0.0
 11
-1.249999999999999
 21
2.165063509461096
 31
0.0
210
0.0
220
0.0
230
1.0
 40
0.5773502691896259
 41
0.0
 42
6.283185307179586
  0
ELLIPSE
  5
9646
330
95F3
100
AcDbEntity
  8
0
100
AcDbEllipse
 10
61.29083109207043
 20
41.51000218682066
 30
0.0
 11
-1.249999999999999
 21
2.165063509461096
 31
0.0
210
0.0
220
0.0
230
1.0
 40
0.5773502691896259
 41
0.0
 42
6.283185307179586
  0
ELLIPSE
  5
9647
330
95F3
100
AcDbEntity
  8
0
100
AcDbEllipse
 10
62.70504465444353
 20
58.65643038630289
 30
0.0
 11
1.250000000000129
 21
-2.165063509461021
 31
0.0
210
0.0
220
0.0
230
1.0
 40
0.5773502691896258
 41
3.74285687026858
 42
5.681921090500121
  0
ELLIPSE
  5
9648
330
95F3
100
AcDbEntity
  8
0
100
AcDbEllipse
 10
-3.762992777091938
 20
95.39877652805058
 30
0.0
 11
1.25
 21
-2.165063509461096
 31
0.0
210
0.0
220
0.0
230
0.9999999999999998
 40
0.577350269189626
 41
0.0
 42
6.283185307179586
  0
ELLIPSE
  5
9649
330
95F3
100
AcDbEntity
  8
0
100
AcDbEllipse
 10
-2.348779214718845
 20
96.2152731089783
 30
0.0
 11
1.250000000000129
 21
-2.165063509461021
 31
0.0
210
0.0
220
0.0
230
1.0
 40
0.577350269189626
 41
3.742856870268578
 42
5.681921090500117
  0
ELLIPSE
  5
964A
330
95F3
100
AcDbEntity
  8
0
100
AcDbEllipse
 10
61.29083109207043
 20
57.83993380537517
 30
0.0
 11
-1.249999999999999
 21
2.165063509461096
 31
0.0
210
0.0
220
0.0
230
1.0
 40
0.5773502691896259
 41
0.0
 42
6.283185307179586
  0
ELLIPSE
  5
964B
330
95F3
100
AcDbEntity
  8
0
100
AcDbEllipse
 10
78.26139384054759
 20
-23.80972428739742
 30
0.0
 11
1.250000000000129
 21
-2.165063509461021
 31
0.0
210
0.0
220
0.0
230
1.0
 40
0.5773502691896258
 41
3.742856870268576
 42
5.68192109050012
  0
ELLIPSE
  5
964C
330
95F3
100
AcDbEntity
  8
0
100
AcDbEllipse
 10
78.26139384054759
 20
-7.479792668842901
 30
0.0
 11
1.250000000000129
 21
-2.165063509461021
 31
0.0
210
0.0
220
0.0
230
1.0
 40
0.5773502691896258
 41
3.742856870268576
 42
5.681921090500121
  0
ELLIPSE
  5
964D
330
95F3
100
AcDbEntity
  8
0
100
AcDbEllipse
 10
78.26139384054759
 20
8.850138949711618
 30
0.0
 11
1.250000000000129
 21
-2.165063509461021
 31
0.0
210
0.0
220
0.0
230
1.0
 40
0.5773502691896258
 41
3.742856870268578
 42
5.681921090500121
  0
ELLIPSE
  5
964E
330
95F3
100
AcDbEntity
  8
0
100
AcDbEllipse
 10
78.26139384054759
 20
25.18007056826615
 30
0.0
 11
1.250000000000129
 21
-2.165063509461021
 31
0.0
210
0.0
220
0.0
230
1.0
 40
0.5773502691896258
 41
3.742856870268576
 42
5.68192109050012
  0
ELLIPSE
  5
964F
330
95F3
100
AcDbEntity
  8
0
100
AcDbEllipse
 10
76.84718027817449
 20
-24.62622086832514
 30
0.0
 11
-1.249999999999999
 21
2.165063509461096
 31
0.0
210
0.0
220
0.0
230
1.0
 40
0.5773502691896259
 41
0.0
 42
6.283185307179586
  0
ELLIPSE
  5
9650
330
95F3
100
AcDbEntity
  8
0
100
AcDbEllipse
 10
76.84718027817449
 20
-8.296289249770625
 30
0.0
 11
-1.249999999999999
 21
2.165063509461096
 31
0.0
210
0.0
220
0.0
230
1.0
 40
0.5773502691896259
 41
0.0
 42
6.283185307179586
  0
ELLIPSE
  5
9651
330
95F3
100
AcDbEntity
  8
0
100
AcDbEllipse
 10
76.84718027817449
 20
8.03364236878389
 30
0.0
 11
-1.249999999999999
 21
2.165063509461096
 31
0.0
210
0.0
220
0.0
230
1.0
 40
0.5773502691896259
 41
0.0
 42
6.283185307179586
  0
ELLIPSE
  5
9652
330
95F3
100
AcDbEntity
  8
0
100
AcDbEllipse
 10
76.84718027817449
 20
24.36357398733842
 30
0.0
 11
-1.249999999999999
 21
2.165063509461096
 31
0.0
210
0.0
220
0.0
230
1.0
 40
0.5773502691896259
 41
0.0
 42
6.283185307179586
  0
LINE
  5
9653
330
95F3
100
AcDbEntity
  8
0
100
AcDbLine
 10
-22.52973424013295
 20
28.44870143917773
 30
0.0
 11
-21.82252239614228
 21
27.36668272564717
 31
0.0
  0
LINE
  5
9654
330
95F3
100
AcDbEntity
  8
0
100
AcDbLine
 10
-27.09751655624803
 20
-2.172564892812705
 30
0.0
 11
-55.38178780370992
 21
-45.44688368198216
 31
0.0
  0
LINE
  5
9655
330
95F3
100
AcDbEntity
  8
0
100
AcDbLine
 10
-28.51173011862112
 20
-1.356068311884977
 30
0.0
 11
-27.09751655624803
 21
-2.172564892812705
 31
0.0
  0
LINE
  5
9656
330
95F3
100
AcDbEntity
  8
0
100
AcDbLine
 10
-56.79600136608301
 20
-44.63038710105443
 30
0.0
 11
-28.51173011862112
 21
-1.356068311884977
 31
0.0
  0
LINE
  5
9657
330
95F3
100
AcDbEntity
  8
0
100
AcDbLine
 10
-55.38178780370992
 20
-45.44688368198216
 30
0.0
 11
-56.79600136608301
 21
-44.63038710105443
 31
0.0
  0
LINE
  5
9658
330
95F3
100
AcDbEntity
  8
0
100
AcDbLine
 10
-27.097516556248
 20
77.02760345717672
 30
0.0
 11
-27.09751655624803
 21
-2.172564892812705
 31
0.0
  0
LINE
  5
9659
330
95F3
100
AcDbEntity
  8
0
100
AcDbLine
 10
-28.5117301186211
 20
77.84410003810444
 30
0.0
 11
-27.097516556248
 21
77.02760345717672
 31
0.0
  0
LINE
  5
965A
330
95F3
100
AcDbEntity
  8
0
100
AcDbLine
 10
-28.51173011862112
 20
-1.356068311884977
 30
0.0
 11
-28.5117301186211
 21
77.84410003810444
 31
0.0
  0
ELLIPSE
  5
965B
330
95F3
100
AcDbEntity
  8
0
100
AcDbEllipse
 10
-11.54116737014396
 20
87.64205900923716
 30
0.0
 11
-3.250000000000004
 21
5.629165124598848
 31
0.0
210
0.0
220
0.0
230
0.9999999999999998
 40
0.577350269189626
 41
4.71238898038469
 42
7.853981633974483
  0
ELLIPSE
  5
965C
330
95F3
100
AcDbEntity
  8
0
100
AcDbEllipse
 10
-10.12695380777087
 20
88.45855559016488
 30
0.0
 11
-3.250000000000002
 21
5.629165124598852
 31
0.0
210
0.0
220
0.0
230
1.0
 40
0.5773502691896259
 41
0.2193254863005921
 42
1.570796326794897
  0
ELLIPSE
  5
965D
330
95F3
100
AcDbEntity
  8
0
100
AcDbEllipse
 10
-19.31934196319599
 20
96.2152731089783
 30
0.0
 11
1.25
 21
-2.165063509461096
 31
0.0
210
0.0
220
0.0
230
0.9999999999999998
 40
0.577350269189626
 41
0.0
 42
6.283185307179586
  0
ELLIPSE
  5
965E
330
95F3
100
AcDbEntity
  8
0
100
AcDbEllipse
 10
-17.9051284008229
 20
97.03176968990602
 30
0.0
 11
1.250000000000129
 21
-2.165063509461021
 31
0.0
210
0.0
220
0.0
230
1.0
 40
0.577350269189626
 41
3.742856870268578
 42
5.681921090500116
  0
LINE
  5
965F
330
95F3
100
AcDbEntity
  8
0
100
AcDbLine
 10
1.18675469121388
 20
94.99052823758667
 30
0.0
 11
1.186754691213884
 21
96.62352139944216
 31
0.0
  0
ELLIPSE
  5
9660
330
95F3
100
AcDbEntity
  8
0
100
AcDbEllipse
 10
-0.2274588711592118
 20
95.80702481851444
 30
0.0
 11
1.999999999999997
 21
0.0000000000000001
 31
0.0
210
0.0
220
0.0
230
1.0
 40
0.5773502691896257
 41
5.49778714378214
 42
7.068583470577029
  0
LINE
  5
9661
330
95F3
100
AcDbEntity
  8
0
100
AcDbLine
 10
2.600968253586981
 20
94.174031656659
 30
0.0
 11
2.600968253586981
 21
-9.878251375318107
 31
0.0
  0
ELLIPSE
  5
9662
330
95F3
100
AcDbEntity
  8
0
100
AcDbEllipse
 10
-0.2274588711592118
 20
95.80702481851444
 30
0.0
 11
3.999999999999999
 21
-0.0000000000000001
 31
0.0
210
0.0
220
0.0
230
1.0
 40
0.5773502691896257
 41
5.497787143782135
 42
7.068583470577028
  0
LINE
  5
9663
330
95F3
100
AcDbEntity
  8
0
100
AcDbLine
 10
1.186754691213884
 20
96.62352139944216
 30
0.0
 11
2.600968253586986
 21
97.44001798036988
 31
0.0
  0
LINE
  5
9664
330
95F3
100
AcDbEntity
  8
0
100
AcDbLine
 10
1.186754691213884
 20
94.99052823758672
 30
0.0
 11
2.600968253586981
 21
94.174031656659
 31
0.0
  0
LINE
  5
9665
330
95F3
100
AcDbEntity
  8
0
100
AcDbLine
 10
3.772541128840791
 20
-8.245258213462669
 30
0.0
 11
3.772541128840791
 21
95.80702481851444
 31
0.0
  0
LINE
  5
9666
330
95F3
100
AcDbEntity
  8
0
100
AcDbLine
 10
-25.32974960328166
 20
111.932832291837
 30
0.0
 11
1.186754691213884
 21
96.62352139944216
 31
0.0
  0
LINE
  5
9667
330
95F3
100
AcDbEntity
  8
0
100
AcDbLine
 10
-25.32974960328169
 20
79.68121734519181
 30
0.0
 11
-25.32974960328166
 21
111.932832291837
 31
0.0
  0
LINE
  5
9668
330
95F3
100
AcDbEntity
  8
0
100
AcDbLine
 10
-55.38178780370991
 20
-64.22630504331985
 30
0.0
 11
-55.38178780370992
 21
-45.44688368198216
 31
0.0
  0
LINE
  5
9669
330
95F3
100
AcDbEntity
  8
0
100
AcDbLine
 10
-27.097516556248
 20
77.02760345717672
 30
0.0
 11
2.600968253586981
 21
94.174031656659
 31
0.0
  0
LINE
  5
966A
330
95F3
100
AcDbEntity
  8
0
100
AcDbLine
 10
-56.79600136608301
 20
-44.63038710105443
 30
0.0
 11
-56.79600136608301
 21
-63.40980846239212
 31
0.0
  0
LINE
  5
966B
330
95F3
100
AcDbEntity
  8
0
100
AcDbLine
 10
1.186754691213884
 20
94.99052823758672
 30
0.0
 11
-28.5117301186211
 21
77.84410003810444
 31
0.0
  0
LINE
  5
966C
330
95F3
100
AcDbEntity
  8
0
100
AcDbLine
 10
2.600968253586986
 20
97.44001798036988
 30
0.0
 11
-23.91553604090856
 21
112.7493288727647
 31
0.0
  0
LINE
  5
966D
330
95F3
100
AcDbEntity
  8
0
100
AcDbLine
 10
-23.91553604090856
 20
112.7493288727647
 30
0.0
 11
-25.32974960328166
 21
111.932832291837
 31
0.0
  0
ELLIPSE
  5
966E
330
95F3
100
AcDbEntity
  8
0
100
AcDbEllipse
 10
27.70325898570942
 20
-42.3850215035032
 30
0.0
 11
1.249999999999871
 21
2.16506350946117
 31
0.0
210
0.0
220
0.0
230
1.0
 40
0.577350269189626
 41
3.742856870268578
 42
5.681921090500116
  0
ELLIPSE
  5
966F
330
95F3
100
AcDbEntity
  8
0
100
AcDbEllipse
 10
29.11747254808251
 20
-43.20151808443092
 30
0.0
 11
-1.25
 21
-2.165063509461096
 31
0.0
210
0.0
220
0.0
230
0.9999999999999998
 40
0.577350269189626
 41
0.0
 42
6.283185307179586
  0
ELLIPSE
  5
9670
330
95F3
100
AcDbEntity
  8
0
100
AcDbEllipse
 10
27.70325898570942
 20
-26.05508988494868
 30
0.0
 11
1.249999999999871
 21
2.16506350946117
 31
0.0
210
0.0
220
0.0
230
1.0
 40
0.577350269189626
 41
3.742856870268578
 42
5.681921090500118
  0
ELLIPSE
  5
9671
330
95F3
100
AcDbEntity
  8
0
100
AcDbEllipse
 10
29.11747254808251
 20
-26.8715864658764
 30
0.0
 11
-1.25
 21
-2.165063509461096
 31
0.0
210
0.0
220
0.0
230
0.9999999999999998
 40
0.577350269189626
 41
0.0
 42
6.283185307179586
  0
ELLIPSE
  5
9672
330
95F3
100
AcDbEntity
  8
0
100
AcDbEllipse
 10
27.70325898570942
 20
-9.72515826639416
 30
0.0
 11
1.249999999999871
 21
2.16506350946117
 31
0.0
210
0.0
220
0.0
230
1.0
 40
0.577350269189626
 41
3.742856870268578
 42
5.681921090500118
  0
ELLIPSE
  5
9673
330
95F3
100
AcDbEntity
  8
0
100
AcDbEllipse
 10
29.11747254808251
 20
-10.54165484732189
 30
0.0
 11
-1.25
 21
-2.165063509461096
 31
0.0
210
0.0
220
0.0
230
0.9999999999999998
 40
0.577350269189626
 41
0.0
 42
6.283185307179586
  0
ELLIPSE
  5
9674
330
95F3
100
AcDbEntity
  8
0
100
AcDbEllipse
 10
27.70325898570942
 20
6.604773352160355
 30
0.0
 11
1.249999999999871
 21
2.16506350946117
 31
0.0
210
0.0
220
0.0
230
1.0
 40
0.577350269189626
 41
3.742856870268578
 42
5.681921090500118
  0
ELLIPSE
  5
9675
330
95F3
100
AcDbEntity
  8
0
100
AcDbEllipse
 10
29.11747254808251
 20
5.788276771232627
 30
0.0
 11
-1.25
 21
-2.165063509461096
 31
0.0
210
0.0
220
0.0
230
0.9999999999999998
 40
0.577350269189626
 41
0.0
 42
6.283185307179586
  0
ELLIPSE
  5
9676
330
95F3
100
AcDbEntity
  8
0
100
AcDbEllipse
 10
27.70325898570942
 20
22.93470497071488
 30
0.0
 11
1.249999999999871
 21
2.16506350946117
 31
0.0
210
0.0
220
0.0
230
1.0
 40
0.577350269189626
 41
3.742856870268578
 42
5.681921090500118
  0
ELLIPSE
  5
9677
330
95F3
100
AcDbEntity
  8
0
100
AcDbEllipse
 10
29.11747254808251
 20
22.11820838978715
 30
0.0
 11
-1.25
 21
-2.165063509461096
 31
0.0
210
0.0
220
0.0
230
0.9999999999999998
 40
0.577350269189626
 41
0.0
 42
6.283185307179586
  0
ELLIPSE
  5
9678
330
95F3
100
AcDbEntity
  8
0
100
AcDbEllipse
 10
-23.20842925972199
 20
-4.826178780827783
 30
0.0
 11
1.249999999999871
 21
2.165063509461171
 31
0.0
210
0.0
220
0.0
230
1.0
 40
0.5773502691896257
 41
3.742856870268578
 42
5.681921090500114
  0
ELLIPSE
  5
9679
330
95F3
100
AcDbEntity
  8
0
100
AcDbEllipse
 10
-21.79421569734889
 20
-5.642675361755511
 30
0.0
 11
1.249999999999999
 21
2.165063509461096
 31
0.0
210
0.0
220
0.0
230
1.0
 40
0.5773502691896258
 41
0.0
 42
6.283185307179586
  0
ELLIPSE
  5
967A
330
95F3
100
AcDbEntity
  8
0
100
AcDbEllipse
 10
-23.20842925972199
 20
11.50375283772672
 30
0.0
 11
1.249999999999871
 21
2.165063509461171
 31
0.0
210
0.0
220
0.0
230
1.0
 40
0.5773502691896257
 41
3.742856870268578
 42
5.681921090500113
  0
ELLIPSE
  5
967B
330
95F3
100
AcDbEntity
  8
0
100
AcDbEllipse
 10
-21.79421569734889
 20
10.687256256799
 30
0.0
 11
1.249999999999999
 21
2.165063509461096
 31
0.0
210
0.0
220
0.0
230
1.0
 40
0.5773502691896258
 41
0.0
 42
6.283185307179586
  0
ELLIPSE
  5
967C
330
95F3
100
AcDbEntity
  8
0
100
AcDbEllipse
 10
-23.20842925972199
 20
27.83368445628125
 30
0.0
 11
1.249999999999871
 21
2.165063509461171
 31
0.0
210
0.0
220
0.0
230
1.0
 40
0.5773502691896257
 41
3.742856870268578
 42
5.681921090500118
  0
ELLIPSE
  5
967D
330
95F3
100
AcDbEntity
  8
0
100
AcDbEllipse
 10
-21.79421569734889
 20
27.01718787535353
 30
0.0
 11
1.249999999999999
 21
2.165063509461096
 31
0.0
210
0.0
220
0.0
230
1.0
 40
0.5773502691896258
 41
0.0
 42
6.283185307179586
  0
ELLIPSE
  5
967E
330
95F3
100
AcDbEntity
  8
0
100
AcDbEllipse
 10
-23.20842925972199
 20
44.16361607483577
 30
0.0
 11
1.249999999999871
 21
2.165063509461171
 31
0.0
210
0.0
220
0.0
230
1.0
 40
0.5773502691896257
 41
3.742856870268578
 42
5.681921090500118
  0
ELLIPSE
  5
967F
330
95F3
100
AcDbEntity
  8
0
100
AcDbEllipse
 10
-21.79421569734889
 20
43.34711949390803
 30
0.0
 11
1.249999999999999
 21
2.165063509461096
 31
0.0
210
0.0
220
0.0
230
1.0
 40
0.5773502691896258
 41
0.0
 42
6.283185307179586
  0
ELLIPSE
  5
9680
330
95F3
100
AcDbEntity
  8
0
100
AcDbEllipse
 10
-23.20842925972199
 20
60.49354769339029
 30
0.0
 11
1.249999999999871
 21
2.165063509461171
 31
0.0
210
0.0
220
0.0
230
1.0
 40
0.5773502691896257
 41
3.742856870268578
 42
5.681921090500118
  0
ELLIPSE
  5
9681
330
95F3
100
AcDbEntity
  8
0
100
AcDbEllipse
 10
-21.79421569734889
 20
59.67705111246257
 30
0.0
 11
1.249999999999999
 21
2.165063509461096
 31
0.0
210
0.0
220
0.0
230
1.0
 40
0.5773502691896258
 41
0.0
 42
6.283185307179586
  0
ELLIPSE
  5
9682
330
95F3
100
AcDbEntity
  8
0
100
AcDbEllipse
 10
-23.20842925972199
 20
76.82347931194481
 30
0.0
 11
1.249999999999871
 21
2.165063509461171
 31
0.0
210
0.0
220
0.0
230
1.0
 40
0.5773502691896257
 41
3.742856870268578
 42
5.681921090500118
  0
ELLIPSE
  5
9683
330
95F3
100
AcDbEntity
  8
0
100
AcDbEllipse
 10
-21.79421569734889
 20
76.00698273101707
 30
0.0
 11
1.249999999999999
 21
2.165063509461096
 31
0.0
210
0.0
220
0.0
230
1.0
 40
0.5773502691896258
 41
0.0
 42
6.283185307179586
  0
ENDBLK
  5
95F5
330
95F3
100
AcDbEntity
  8
0
100
AcDbBlockEnd
  0
ENDSEC
  0
SECTION
  2
ENTITIES
  0
INSERT
  5
9684
330
1F
100
AcDbEntity
  8
0
100
AcDbBlockReference
  2
SAE380_70_2-Front
 10
0.0
 20
0.0
 30
0.0
  0
INSERT
  5
9685
330
1F
100
AcDbEntity
  8
0
100
AcDbBlockReference
  2
SAE380_70_2-Left
 10
123.6000000000001
 20
0.0
 30
0.0
  0
INSERT
  5
9686
330
1F
100
AcDbEntity
  8
0
100
AcDbBlockReference
  2
SAE380_70_2-Right
 10
-123.6000000000001
 20
0.0
 30
0.0
  0
INSERT
  5
9687
330
1F
100
AcDbEntity
  8
0
100
AcDbBlockReference
  2
SAE380_70_2-Top
 10
0.0
 20
-49.10000000000001
 30
0.0
  0
INSERT
  5
9688
330
1F
100
AcDbEntity
  8
0
100
AcDbBlockReference
  2
SAE380_70_2-Bottom
 10
0.0
 20
202.1
 30
0.0
  0
INSERT
  5
9689
330
1F
100
AcDbEntity
  8
0
100
AcDbBlockReference
  2
SAE380_70_2-ISO
 10
180.3960013660832
 20
-161.8493288727647
 30
0.0
  0
MTEXT
  5
968A
330
1F
100
AcDbEntity
  8
0
100
AcDbMText
 10
0.0
 20
-182.2
 30
0.0
 40
15.45000000000001
 41
0.0
 71
     5
 72
     5
  1
SAE380/70/2
 73
     1
 44
1.0
1001
ACAD
1000
MTEXTBEGIN
1070
    73
1070
     1
1070
    44
1040
1.0
1070
    74
1070
     0
1000
MTEXTEND
  0
ENDSEC
  0
SECTION
  2
OBJECTS
  0
DICTIONARY
  5
C
330
0
100
AcDbDictionary
281
     1
  3
ACAD_CIP_PREVIOUS_PRODUCT_INFO
350
216
  3
ACAD_COLOR
350
6B
  3
ACAD_DETAILVIEWSTYLE
350
21B
  3
ACAD_GROUP
350
D
  3
ACAD_LAYOUT
350
1A
  3
ACAD_MATERIAL
350
6A
  3
ACAD_MLEADERSTYLE
350
12D
  3
ACAD_MLINESTYLE
350
17
  3
ACAD_PLOTSETTINGS
350
19
  3
ACAD_PLOTSTYLENAME
350
E
  3
ACAD_SCALELIST
350
10C
  3
ACAD_SECTIONVIEWSTYLE
350
219
  3
ACAD_TABLESTYLE
350
7E
  3
ACAD_VISUALSTYLE
350
EF
  3
ACDB_RECOMPOSE_DATA
350
978B
  3
AcDbVariableDictionary
350
5E
  3
DWGPROPS
350
978C
  0
DICTIONARY
  5
96DB
330
8
100
AcDbDictionary
280
     1
281
     1
  0
DICTIONARY
  5
1FF
330
2
100
AcDbDictionary
280
     1
281
     1
  3
ACAD_LAYERSTATES
360
200
  0
DICTIONARY
  5
13C
330
10
100
AcDbDictionary
280
     1
281
     1
  0
DICTIONARY
  5
1CE
330
1F
100
AcDbDictionary
280
     1
281
     1
  3
ACAD_LAYOUTSELFREF
360
96E3
  0
DICTIONARY
  5
968E
330
D2
100
AcDbDictionary
280
     1
281
     1
  3
ACAD_LAYOUTSELFREF
360
96EC
  0
DICTIONARY
  5
9690
330
D6
100
AcDbDictionary
280
     1
281
     1
  3
ACAD_LAYOUTSELFREF
360
96EF
  0
XRECORD
  5
216
102
{ACAD_REACTORS
330
C
102
}
330
C
100
AcDbXrecord
280
     1
300
ACD
300
2021
300
87393ACD_2021_0F
  0
DICTIONARY
  5
6B
102
{ACAD_REACTORS
330
C
102
}
330
C
100
AcDbDictionary
281
     1
  0
DICTIONARY
  5
21B
102
{ACAD_REACTORS
330
C
102
}
330
C
100
AcDbDictionary
281
     1
  3
Metric50
350
21C
  0
DICTIONARY
  5
D
102
{ACAD_REACTORS
330
C
102
}
330
C
100
AcDbDictionary
281
     1
  0
DICTIONARY
  5
1A
102
{ACAD_REACTORS
330
C
102
}
330
C
100
AcDbDictionary
281
     1
  3
Layout1
350
D3
  3
Layout2
350
D7
  3
Model
350
22
  0
DICTIONARY
  5
6A
102
{ACAD_REACTORS
330
C
102
}
330
C
100
AcDbDictionary
281
     1
  3
ByBlock
350
ED
  3
ByLayer
350
EC
  3
Global
350
EE
  0
DICTIONARY
  5
12D
102
{ACAD_REACTORS
330
C
102
}
330
C
100
AcDbDictionary
281
     1
  3
Standard
350
12E
  0
DICTIONARY
  5
17
102
{ACAD_REACTORS
330
C
102
}
330
C
100
AcDbDictionary
281
     1
  3
Standard
350
18
  0
DICTIONARY
  5
19
102
{ACAD_REACTORS
330
C
102
}
330
C
100
AcDbDictionary
281
     1
  0
ACDBDICTIONARYWDFLT
  5
E
102
{ACAD_REACTORS
330
C
102
}
330
C
100
AcDbDictionary
281
     1
  3
Normal
350
F
100
AcDbDictionaryWithDefault
340
F
  0
DICTIONARY
  5
10C
102
{ACAD_REACTORS
330
C
102
}
330
C
100
AcDbDictionary
281
     1
  3
A0
350
10D
  3
A1
350
1BE
  3
A2
350
1BF
  3
A3
350
1C0
  3
A4
350
1C1
  3
A5
350
1C2
  3
A6
350
1C3
  3
A7
350
1C4
  3
A8
350
1C5
  3
A9
350
1C6
  3
B0
350
1C7
  3
B1
350
1C8
  3
B2
350
1C9
  3
B3
350
1CA
  3
B4
350
1CB
  3
B5
350
1CC
  3
B6
350
1CD
  0
DICTIONARY
  5
219
102
{ACAD_REACTORS
330
C
102
}
330
C
100
AcDbDictionary
281
     1
  3
Metric50
350
21A
  0
DICTIONARY
  5
7E
102
{ACAD_REACTORS
330
C
102
}
330
C
100
AcDbDictionary
281
     1
  3
Standard
350
7F
  0
DICTIONARY
  5
EF
102
{ACAD_REACTORS
330
C
102
}
330
C
100
AcDbDictionary
281
     1
  3
2dWireframe
350
F5
  3
Basic
350
F4
  3
Brighten
350
FB
  3
ColorChange
350
FF
  3
Conceptual
350
F8
  3
Dim
350
FA
  3
EdgeColorOff
350
1E6
  3
Facepattern
350
FE
  3
Flat
350
F0
  3
FlatWithEdges
350
F1
  3
Gouraud
350
F2
  3
GouraudWithEdges
350
F3
  3
Hidden
350
F7
  3
JitterOff
350
1E4
  3
Linepattern
350
FD
  3
OverhangOff
350
1E5
  3
Realistic
350
F9
  3
Shaded
350
1F3
  3
Shaded with edges
350
1F2
  3
Shades of Gray
350
1EF
  3
Sketchy
350
1F0
  3
Thicken
350
FC
  3
Wireframe
350
F6
  3
X-Ray
350
1F1
  0
XRECORD
  5
978B
102
{ACAD_REACTORS
330
C
102
}
330
C
100
AcDbXrecord
280
     1
 90
        1
330
7F
  0
DICTIONARY
  5
5E
102
{ACAD_REACTORS
330
C
102
}
330
C
100
AcDbDictionary
281
     1
  3
CANNOSCALE
350
146
  3
CENTEREXE
350
259
  3
CENTERLTYPEFILE
350
25A
  3
CMLEADERSTYLE
350
145
  3
CTABLESTYLE
350
84
  3
CVIEWDETAILSTYLE
350
227
  3
CVIEWSECTIONSTYLE
350
228
  3
DIMASSOC
350
5F
  3
HIDETEXT
350
63
  3
INDEXCTL
350
9738
  3
LAYEREVAL
350
1AE
  3
LAYERNOTIFY
350
1AF
  3
LIGHTINGUNITS
350
9736
  3
MSLTSCALE
350
9735
  3
PSOLHEIGHT
350
9788
  3
PSOLWIDTH
350
9787
  3
SORTENTS
350
9737
  3
XCLIPFRAME
350
9789
  0
XRECORD
  5
978C
102
{ACAD_REACTORS
330
C
102
}
330
C
100
AcDbXrecord
280
     1
  1
DWGPROPS COOKIE
  2

  3

  4

  6

  7

  8
truole
  9

300
=
301
=
302
=
303
=
304
=
305
=
306
=
307
=
308
=
309
=
 40
0.0077893518518519
 41
2460398.356956019
 42
2460398.374907407
  1

 90
        0
  0
DICTIONARY
  5
200
102
{ACAD_REACTORS
330
1FF
102
}
330
1FF
100
AcDbDictionary
281
     1
  0
XRECORD
  5
96E3
102
{ACAD_REACTORS
330
1CE
102
}
330
1CE
100
AcDbXrecord
280
     1
340
1F
  0
XRECORD
  5
96EC
102
{ACAD_REACTORS
330
968E
102
}
330
968E
100
AcDbXrecord
280
     1
340
D2
  0
XRECORD
  5
96EF
102
{ACAD_REACTORS
330
9690
102
}
330
9690
100
AcDbXrecord
280
     1
340
D6
  0
ACDBDETAILVIEWSTYLE
  5
21C
102
{ACAD_XDICTIONARY
360
97CB
102
}
102
{ACAD_REACTORS
330
21B
102
}
330
21B
100
AcDbModelDocViewStyle
 70
     0
  3
Metric50
290
     0
100
AcDbDetailViewStyle
 70
     0
 71
     0
 90
        3
 71
     1
340
11
 40
5.0
340
0
 40
5.0
300

 40
0.0
280
     1
 71
     2
340
16
 90
       25
 71
     3
340
11
 40
5.0
 90
        0
 40
15.0
 90
        1
300
%<\AcVar ViewDetailId>% (%<\AcVar ViewScale \f "%sn">%)
 71
     4
340
16
 90
       25
340
16
 90
       25
280
     0
  0
LAYOUT
  5
D3
102
{ACAD_XDICTIONARY
360
9790
102
}
102
{ACAD_REACTORS
330
1A
102
}
330
1A
100
AcDbPlotSettings
  1

  2
C:\Documents and Settings\basas\Application Data\Autodesk\AutoCAD 2005\R16.1\enu\plotters\Default Windows System Printer.pc3
  4

  6

 40
0.0
 41
0.0
 42
0.0
 43
0.0
 44
0.0
 45
0.0
 46
0.0
 47
0.0
 48
0.0
 49
0.0
140
0.0
141
0.0
142
1.0
143
1.0
 70
   688
 72
     0
 73
     0
 74
     5
  7

 75
    16
147
1.0
148
0.0
149
0.0
100
AcDbLayout
  1
Layout1
 70
     1
 71
     1
 10
0.0
 20
0.0
 11
12.0
 21
9.0
 12
0.0
 22
0.0
 32
0.0
 14
0.0
 24
0.0
 34
0.0
 15
0.0
 25
0.0
 35
0.0
146
0.0
 13
0.0
 23
0.0
 33
0.0
 16
1.0
 26
0.0
 36
0.0
 17
0.0
 27
1.0
 37
0.0
 76
     0
330
D2
  0
LAYOUT
  5
D7
102
{ACAD_XDICTIONARY
360
9792
102
}
102
{ACAD_REACTORS
330
1A
102
}
330
1A
100
AcDbPlotSettings
  1

  2
C:\Documents and Settings\basas\Application Data\Autodesk\AutoCAD 2005\R16.1\enu\plotters\Default Windows System Printer.pc3
  4

  6

 40
0.0
 41
0.0
 42
0.0
 43
0.0
 44
0.0
 45
0.0
 46
0.0
 47
0.0
 48
0.0
 49
0.0
140
0.0
141
0.0
142
1.0
143
1.0
 70
   688
 72
     0
 73
     0
 74
     5
  7

 75
    16
147
1.0
148
0.0
149
0.0
100
AcDbLayout
  1
Layout2
 70
     1
 71
     2
 10
0.0
 20
0.0
 11
12.0
 21
9.0
 12
0.0
 22
0.0
 32
0.0
 14
0.0
 24
0.0
 34
0.0
 15
0.0
 25
0.0
 35
0.0
146
0.0
 13
0.0
 23
0.0
 33
0.0
 16
1.0
 26
0.0
 36
0.0
 17
0.0
 27
1.0
 37
0.0
 76
     0
330
D6
  0
LAYOUT
  5
22
102
{ACAD_XDICTIONARY
360
978D
102
}
102
{ACAD_REACTORS
330
1A
102
}
330
1A
100
AcDbPlotSettings
  1

  2
none_device
  4
ISO_A4_(210.00_x_297.00_MM)
  6

 40
7.5
 41
20.0
 42
7.5
 43
20.0
 44
210.0
 45
297.0
 46
11.54999923706054
 47
-13.65000009536743
 48
0.0
 49
0.0
140
0.0
141
0.0
142
1.0
143
8.704084754739808
 70
 11952
 72
     1
 73
     0
 74
     0
  7

 75
     0
147
0.1148885871608098
148
0.0
149
0.0
100
AcDbLayout
  1
Model
 70
     1
 71
     0
 10
0.0
 20
0.0
 11
12.0
 21
9.0
 12
0.0
 22
0.0
 32
0.0
 14
0.0
 24
0.0
 34
0.0
 15
0.0
 25
0.0
 35
0.0
146
0.0
 13
0.0
 23
0.0
 33
0.0
 16
1.0
 26
0.0
 36
0.0
 17
0.0
 27
1.0
 37
0.0
 76
     0
330
1F
331
EA
1001
ACAD_PSEXT
1000
None
1000
None
1000
Not applicable
1000
The layout will not be plotted unless a new plotter configuration name is selected.
1070
     0
  0
MATERIAL
  5
ED
102
{ACAD_XDICTIONARY
360
1F9
102
}
102
{ACAD_REACTORS
330
6A
102
}
330
6A
100
AcDbMaterial
  1
ByBlock
  0
MATERIAL
  5
EC
102
{ACAD_XDICTIONARY
360
1F7
102
}
102
{ACAD_REACTORS
330
6A
102
}
330
6A
100
AcDbMaterial
  1
ByLayer
  0
MATERIAL
  5
EE
102
{ACAD_XDICTIONARY
360
173
102
}
102
{ACAD_REACTORS
330
6A
102
}
330
6A
100
AcDbMaterial
  1
Global
 43
0.0007999999797903
 43
0.0
 43
0.0
 43
0.0
 43
0.0
 43
0.0007999999797903
 43
0.0
 43
0.0
 43
0.0
 43
0.0
 43
1.0
 43
0.0
 43
0.0
 43
0.0
 43
0.0
 43
1.0
 49
0.0007999999797903
 49
0.0
 49
0.0
 49
0.0
 49
0.0
 49
0.0007999999797903
 49
0.0
 49
0.0
 49
0.0
 49
0.0
 49
1.0
 49
0.0
 49
0.0
 49
0.0
 49
0.0
 49
1.0
142
0.0007999999797903
142
0.0
142
0.0
142
0.0
142
0.0
142
0.0007999999797903
142
0.0
142
0.0
142
0.0
142
0.0
142
1.0
142
0.0
142
0.0
142
0.0
142
0.0
142
1.0
144
0.0007999999797903
144
0.0
144
0.0
144
0.0
144
0.0
144
0.0007999999797903
144
0.0
144
0.0
144
0.0
144
0.0
144
1.0
144
0.0
144
0.0
144
0.0
144
0.0
144
1.0
1001
ACAD
1070
    -1
1070
     3
1070
     0
1000

1071
        0
1070
     0
  0
MLEADERSTYLE
  5
12E
102
{ACAD_XDICTIONARY
360
97B7
102
}
102
{ACAD_REACTORS
330
12D
102
}
330
12D
100
AcDbMLeaderStyle
170
     2
171
     1
172
     0
 90
        2
 40
0.0
 41
0.0
173
     1
 91
-1056964608
340
14
 92
       -2
290
     1
 42
2.0
291
     1
 43
8.0
  3
Standard
 44
4.0
300

342
11
174
     1
178
     1
175
     1
176
     0
 93
-1056964608
 45
4.0
292
     0
297
     0
 46
4.0
 94
-1056964608
 47
1.0
 49
1.0
140
1.0
293
     1
141
0.0
294
     1
177
     0
142
1.0
295
     0
296
     0
143
3.75
1001
ACAD_MLEADERVER
1070
     2
  0
MLINESTYLE
  5
18
102
{ACAD_REACTORS
330
17
102
}
330
17
100
AcDbMlineStyle
  2
STANDARD
 70
     0
  3

 62
   256
 51
90.0
 52
90.0
 71
     2
 49
0.5
 62
   256
  6
BYLAYER
 49
-0.5
 62
   256
  6
BYLAYER
  0
ACDBPLACEHOLDER
  5
F
102
{ACAD_REACTORS
330
E
102
}
330
E
  0
SCALE
  5
10D
102
{ACAD_REACTORS
330
10C
102
}
330
10C
100
AcDbScale
 70
     0
300
1:1
140
1.0
141
1.0
290
     1
  0
SCALE
  5
1BE
102
{ACAD_REACTORS
330
10C
102
}
330
10C
100
AcDbScale
 70
     0
300
1:2
140
1.0
141
2.0
290
     0
  0
SCALE
  5
1BF
102
{ACAD_REACTORS
330
10C
102
}
330
10C
100
AcDbScale
 70
     0
300
1:4
140
1.0
141
4.0
290
     0
  0
SCALE
  5
1C0
102
{ACAD_REACTORS
330
10C
102
}
330
10C
100
AcDbScale
 70
     0
300
1:5
140
1.0
141
5.0
290
     0
  0
SCALE
  5
1C1
102
{ACAD_REACTORS
330
10C
102
}
330
10C
100
AcDbScale
 70
     0
300
1:8
140
1.0
141
8.0
290
     0
  0
SCALE
  5
1C2
102
{ACAD_REACTORS
330
10C
102
}
330
10C
100
AcDbScale
 70
     0
300
1:10
140
1.0
141
10.0
290
     0
  0
SCALE
  5
1C3
102
{ACAD_REACTORS
330
10C
102
}
330
10C
100
AcDbScale
 70
     0
300
1:16
140
1.0
141
16.0
290
     0
  0
SCALE
  5
1C4
102
{ACAD_REACTORS
330
10C
102
}
330
10C
100
AcDbScale
 70
     0
300
1:20
140
1.0
141
20.0
290
     0
  0
SCALE
  5
1C5
102
{ACAD_REACTORS
330
10C
102
}
330
10C
100
AcDbScale
 70
     0
300
1:30
140
1.0
141
30.0
290
     0
  0
SCALE
  5
1C6
102
{ACAD_REACTORS
330
10C
102
}
330
10C
100
AcDbScale
 70
     0
300
1:40
140
1.0
141
40.0
290
     0
  0
SCALE
  5
1C7
102
{ACAD_REACTORS
330
10C
102
}
330
10C
100
AcDbScale
 70
     0
300
1:50
140
1.0
141
50.0
290
     0
  0
SCALE
  5
1C8
102
{ACAD_REACTORS
330
10C
102
}
330
10C
100
AcDbScale
 70
     0
300
1:100
140
1.0
141
100.0
290
     0
  0
SCALE
  5
1C9
102
{ACAD_REACTORS
330
10C
102
}
330
10C
100
AcDbScale
 70
     0
300
2:1
140
2.0
141
1.0
290
     0
  0
SCALE
  5
1CA
102
{ACAD_REACTORS
330
10C
102
}
330
10C
100
AcDbScale
 70
     0
300
4:1
140
4.0
141
1.0
290
     0
  0
SCALE
  5
1CB
102
{ACAD_REACTORS
330
10C
102
}
330
10C
100
AcDbScale
 70
     0
300
8:1
140
8.0
141
1.0
290
     0
  0
SCALE
  5
1CC
102
{ACAD_REACTORS
330
10C
102
}
330
10C
100
AcDbScale
 70
     0
300
10:1
140
10.0
141
1.0
290
     0
  0
SCALE
  5
1CD
102
{ACAD_REACTORS
330
10C
102
}
330
10C
100
AcDbScale
 70
     0
300
100:1
140
100.0
141
1.0
290
     0
  0
ACDBSECTIONVIEWSTYLE
  5
21A
102
{ACAD_XDICTIONARY
360
97C9
102
}
102
{ACAD_REACTORS
330
219
102
}
330
219
100
AcDbModelDocViewStyle
 70
     0
  3
Metric50
290
     0
100
AcDbSectionViewStyle
 70
     0
 71
     0
 90
      102
 71
     1
340
11
 40
5.0
340
0
340
0
 40
5.0
300
I, O, Q, S, X, Z
 40
10.0
 90
        0
 40
2.5
 90
        0
 71
     2
340
16
 90
       25
340
16
 90
       50
 40
5.0
 40
2.5
 40
5.0
 71
     3
340
11
 40
5.0
 90
        0
 40
15.0
 90
        1
300
%<\AcVar ViewSectionStartId>%-%<\AcVar ViewSectionEndId>% (%<\AcVar ViewScale \f "%sn">%)
 71
     4
300
ANSI31
 40
1.0
 90
        0
290
     0
290
     0
 90
        6
 40
0.0
 40
1.570796326794896
 40
0.2617993877991494
 40
1.308996938995747
 40
-0.2617993877991494
 40
1.832595714594046
  0
TABLESTYLE
  5
7F
102
{ACAD_XDICTIONARY
360
162
102
}
102
{ACAD_REACTORS
330
7E
102
}
330
7E
100
AcDbTableStyle
  3
Standard
 70
     0
 71
     0
 40
1.5
 41
1.5
280
     0
281
     0
  7
Standard
140
4.5
170
     2
 62
     0
 63
     7
283
     0
274
    -2
284
     1
 64
     0
275
    -2
285
     1
 65
     0
276
    -2
286
     1
 66
     0
277
    -2
287
     1
 67
     0
278
    -2
288
     1
 68
     0
279
    -2
289
     1
 69
     0
  7
Standard
140
6.0
170
     5
 62
     0
 63
     7
283
     0
274
    -2
284
     1
 64
     0
275
    -2
285
     1
 65
     0
276
    -2
286
     1
 66
     0
277
    -2
287
     1
 67
     0
278
    -2
288
     1
 68
     0
279
    -2
289
     1
 69
     0
  7
Standard
140
4.5
170
     5
 62
     0
 63
     7
283
     0
274
    -2
284
     1
 64
     0
275
    -2
285
     1
 65
     0
276
    -2
286
     1
 66
     0
277
    -2
287
     1
 67
     0
278
    -2
288
     1
 68
     0
279
    -2
289
     1
 69
     0
  0
VISUALSTYLE
  5
F5
102
{ACAD_XDICTIONARY
360
97A1
102
}
102
{ACAD_REACTORS
330
EF
102
}
330
EF
100
AcDbVisualStyle
  2
2dWireframe
 70
     4
 71
     0
 72
     2
 73
     1
 90
        0
 40
-0.6
 41
-30.0
 62
     5
 63
     7
 74
     1
 91
        4
 64
     7
 65
   257
 75
     1
175
     1
 42
1.0
 92
        0
 66
   257
 43
1.0
 76
     1
 77
     6
 78
     2
 67
     7
 79
     5
170
     0
171
     0
290
     0
174
     0
 93
        1
 44
0.0
173
     0
291
     0
 45
0.0
1001
ACAD
1000
AcDbSavedByObjectVersion
1070
     0
  0
VISUALSTYLE
  5
F4
102
{ACAD_XDICTIONARY
360
979F
102
}
102
{ACAD_REACTORS
330
EF
102
}
330
EF
100
AcDbVisualStyle
  2
Basic
 70
     7
 71
     1
 72
     0
 73
     1
 90
        0
 40
-0.6
 41
-30.0
 62
     5
 63
     7
 74
     0
 91
        4
 64
     7
 65
   257
 75
     1
175
     1
 42
1.0
 92
        8
 66
     7
 43
1.0
 76
     1
 77
     6
 78
     2
 67
     7
 79
     5
170
     0
171
     0
290
     0
174
     0
 93
        1
 44
0.0
173
     0
291
     1
 45
0.0
1001
ACAD
1000
AcDbSavedByObjectVersion
1070
     0
  0
VISUALSTYLE
  5
FB
102
{ACAD_XDICTIONARY
360
97AD
102
}
102
{ACAD_REACTORS
330
EF
102
}
330
EF
100
AcDbVisualStyle
  2
Brighten
 70
    12
 71
     2
 72
     2
 73
     1
 90
        0
 40
-0.6
 41
-30.0
 62
     5
 63
     7
 74
     1
 91
        4
 64
     7
 65
   257
 75
     1
175
     1
 42
1.0
 92
        8
 66
     7
 43
1.0
 76
     1
 77
     6
 78
     2
 67
     7
 79
     5
170
     0
171
     0
290
     0
174
     0
 93
        1
 44
50.0
173
     0
291
     1
 45
0.0
1001
ACAD
1000
AcDbSavedByObjectVersion
1070
     0
  0
VISUALSTYLE
  5
FF
102
{ACAD_XDICTIONARY
360
97B5
102
}
102
{ACAD_REACTORS
330
EF
102
}
330
EF
100
AcDbVisualStyle
  2
ColorChange
 70
    16
 71
     2
 72
     2
 73
     3
 90
        0
 40
-0.6
 41
-30.0
 62
     5
 63
     8
 74
     1
 91
        4
 64
     7
 65
   257
 75
     1
175
     1
 42
1.0
 92
        8
 66
     8
 43
1.0
 76
     1
 77
     6
 78
     2
 67
     7
 79
     5
170
     0
171
     0
290
     0
174
     0
 93
        1
 44
0.0
173
     0
291
     1
 45
0.0
1001
ACAD
1000
AcDbSavedByObjectVersion
1070
     0
  0
VISUALSTYLE
  5
F8
102
{ACAD_XDICTIONARY
360
97A7
102
}
102
{ACAD_REACTORS
330
EF
102
}
330
EF
100
AcDbVisualStyle
  2
Conceptual
 70
     9
 71
     3
 72
     2
 73
     1
 90
        0
 40
-0.6
 41
-30.0
 62
     5
 63
     7
 74
     2
 91
        2
 64
     7
 65
   257
 75
     1
175
     1
 42
40.0
 92
        8
 66
     7
 43
1.0
 76
     1
 77
     6
 78
     2
 67
     7
 79
     3
170
     0
171
     0
290
     0
174
     0
 93
        1
 44
0.0
173
     0
291
     0
 45
0.0
1001
ACAD
1000
AcDbSavedByObjectVersion
1070
     0
  0
VISUALSTYLE
  5
FA
102
{ACAD_XDICTIONARY
360
97AB
102
}
102
{ACAD_REACTORS
330
EF
102
}
330
EF
100
AcDbVisualStyle
  2
Dim
 70
    11
 71
     2
 72
     2
 73
     1
 90
        0
 40
-0.6
 41
-30.0
 62
     5
 63
     7
 74
     1
 91
        4
 64
     7
 65
   257
 75
     1
175
     1
 42
1.0
 92
        8
 66
     7
 43
1.0
 76
     1
 77
     6
 78
     2
 67
     7
 79
     5
170
     0
171
     0
290
     0
174
     0
 93
        1
 44
-50.0
173
     0
291
     1
 45
0.0
1001
ACAD
1000
AcDbSavedByObjectVersion
1070
     0
  0
VISUALSTYLE
  5
1E6
102
{ACAD_XDICTIONARY
360
97BD
102
}
102
{ACAD_REACTORS
330
EF
102
}
330
EF
100
AcDbVisualStyle
  2
EdgeColorOff
 70
    22
 71
     2
 72
     2
 73
     0
 90
        0
 40
-0.6
 41
-30.0
 62
     5
 63
     7
 74
     1
 91
        4
 64
     7
 65
   257
 75
     1
175
     1
 42
1.0
 92
        8
 66
     7
 43
1.0
 76
     1
 77
     6
 78
     2
 67
     7
 79
     5
170
     0
171
     0
290
     0
174
     0
 93
        1
 44
0.0
173
     0
291
     1
 45
0.0
1001
ACAD
1000
AcDbSavedByObjectVersion
1070
     0
  0
VISUALSTYLE
  5
FE
102
{ACAD_XDICTIONARY
360
97B3
102
}
102
{ACAD_REACTORS
330
EF
102
}
330
EF
100
AcDbVisualStyle
  2
Facepattern
 70
    15
 71
     2
 72
     2
 73
     1
 90
        0
 40
-0.6
 41
-30.0
 62
     5
 63
     7
 74
     1
 91
        4
 64
     7
 65
   257
 75
     1
175
     1
 42
1.0
 92
        8
 66
     7
 43
1.0
 76
     1
 77
     6
 78
     2
 67
     7
 79
     5
170
     0
171
     0
290
     0
174
     0
 93
        1
 44
0.0
173
     0
291
     1
 45
0.0
1001
ACAD
1000
AcDbSavedByObjectVersion
1070
     0
  0
VISUALSTYLE
  5
F0
102
{ACAD_XDICTIONARY
360
9797
102
}
102
{ACAD_REACTORS
330
EF
102
}
330
EF
100
AcDbVisualStyle
  2
Flat
 70
     0
 71
     2
 72
     1
 73
     1
 90
        2
 40
-0.6
 41
30.0
 62
     5
 63
     7
 74
     0
 91
        0
 64
     7
 65
   257
 75
     1
175
     1
 42
1.0
 92
        8
 66
     7
 43
1.0
 76
     1
 77
     6
 78
     2
 67
     7
 79
     5
170
     0
171
     0
290
     0
174
     0
 93
       13
 44
0.0
173
     0
291
     1
 45
0.0
1001
ACAD
1000
AcDbSavedByObjectVersion
1070
     0
  0
VISUALSTYLE
  5
F1
102
{ACAD_XDICTIONARY
360
9799
102
}
102
{ACAD_REACTORS
330
EF
102
}
330
EF
100
AcDbVisualStyle
  2
FlatWithEdges
 70
     1
 71
     2
 72
     1
 73
     1
 90
        2
 40
-0.6
 41
30.0
 62
     5
 63
     7
 74
     1
 91
        0
 64
     7
 65
   257
 75
     1
175
     1
 42
1.0
 92
        0
 66
   257
 43
1.0
 76
     1
 77
     6
 78
     2
 67
     7
 79
     5
170
     0
171
     0
290
     0
174
     0
 93
       13
 44
0.0
173
     0
291
     1
 45
0.0
1001
ACAD
1000
AcDbSavedByObjectVersion
1070
     0
  0
VISUALSTYLE
  5
F2
102
{ACAD_XDICTIONARY
360
979B
102
}
102
{ACAD_REACTORS
330
EF
102
}
330
EF
100
AcDbVisualStyle
  2
Gouraud
 70
     2
 71
     2
 72
     2
 73
     1
 90
        2
 40
-0.6
 41
30.0
 62
     5
 63
     7
 74
     0
 91
        0
 64
     7
 65
   257
 75
     1
175
     1
 42
1.0
 92
        0
 66
     7
 43
1.0
 76
     1
 77
     6
 78
     2
 67
     7
 79
     5
170
     0
171
     0
290
     0
174
     0
 93
       13
 44
0.0
173
     0
291
     1
 45
0.0
1001
ACAD
1000
AcDbSavedByObjectVersion
1070
     0
  0
VISUALSTYLE
  5
F3
102
{ACAD_XDICTIONARY
360
979D
102
}
102
{ACAD_REACTORS
330
EF
102
}
330
EF
100
AcDbVisualStyle
  2
GouraudWithEdges
 70
     3
 71
     2
 72
     2
 73
     1
 90
        2
 40
-0.6
 41
30.0
 62
     5
 63
     7
 74
     1
 91
        0
 64
     7
 65
   257
 75
     1
175
     1
 42
1.0
 92
        0
 66
   257
 43
1.0
 76
     1
 77
     6
 78
     2
 67
     7
 79
     5
170
     0
171
     0
290
     0
174
     0
 93
       13
 44
0.0
173
     0
291
     1
 45
0.0
1001
ACAD
1000
AcDbSavedByObjectVersion
1070
     0
  0
VISUALSTYLE
  5
F7
102
{ACAD_XDICTIONARY
360
97A5
102
}
102
{ACAD_REACTORS
330
EF
102
}
330
EF
100
AcDbVisualStyle
  2
Hidden
 70
     6
 71
     1
 72
     2
 73
     2
 90
        0
 40
-0.6
 41
-30.0
 62
     5
 63
     7
 74
     2
 91
        2
 64
     7
 65
   257
 75
     2
175
     1
 42
40.0
 92
        0
 66
   257
 43
1.0
 76
     1
 77
     6
 78
     2
 67
     7
 79
     3
170
     0
171
     0
290
     0
174
     0
 93
        1
 44
0.0
173
     0
291
     0
 45
0.0
1001
ACAD
1000
AcDbSavedByObjectVersion
1070
     0
  0
VISUALSTYLE
  5
1E4
102
{ACAD_XDICTIONARY
360
97B9
102
}
102
{ACAD_REACTORS
330
EF
102
}
330
EF
100
AcDbVisualStyle
  2
JitterOff
 70
    20
 71
     2
 72
     2
 73
     0
 90
        0
 40
-0.6
 41
-30.0
 62
     5
 63
     7
 74
     1
 91
        4
 64
     7
 65
   257
 75
     1
175
     1
 42
1.0
 92
       10
 66
     7
 43
1.0
 76
     1
 77
     6
 78
     2
 67
     7
 79
     5
170
     0
171
     0
290
     0
174
     0
 93
        1
 44
0.0
173
     0
291
     1
 45
0.0
1001
ACAD
1000
AcDbSavedByObjectVersion
1070
     0
  0
VISUALSTYLE
  5
FD
102
{ACAD_XDICTIONARY
360
97B1
102
}
102
{ACAD_REACTORS
330
EF
102
}
330
EF
100
AcDbVisualStyle
  2
Linepattern
 70
    14
 71
     2
 72
     2
 73
     1
 90
        0
 40
-0.6
 41
-30.0
 62
     5
 63
     7
 74
     1
 91
        4
 64
     7
 65
   257
 75
     7
175
     7
 42
1.0
 92
        8
 66
     7
 43
1.0
 76
     1
 77
     6
 78
     2
 67
     7
 79
     5
170
     0
171
     0
290
     0
174
     0
 93
        1
 44
0.0
173
     0
291
     1
 45
0.0
1001
ACAD
1000
AcDbSavedByObjectVersion
1070
     0
  0
VISUALSTYLE
  5
1E5
102
{ACAD_XDICTIONARY
360
97BB
102
}
102
{ACAD_REACTORS
330
EF
102
}
330
EF
100
AcDbVisualStyle
  2
OverhangOff
 70
    21
 71
     2
 72
     2
 73
     0
 90
        0
 40
-0.6
 41
-30.0
 62
     5
 63
     7
 74
     1
 91
        4
 64
     7
 65
   257
 75
     1
175
     1
 42
1.0
 92
        9
 66
     7
 43
1.0
 76
     1
 77
     6
 78
     2
 67
     7
 79
     5
170
     0
171
     0
290
     0
174
     0
 93
        1
 44
0.0
173
     0
291
     1
 45
0.0
1001
ACAD
1000
AcDbSavedByObjectVersion
1070
     0
  0
VISUALSTYLE
  5
F9
102
{ACAD_XDICTIONARY
360
97A9
102
}
102
{ACAD_REACTORS
330
EF
102
}
330
EF
100
AcDbVisualStyle
  2
Realistic
 70
     8
 71
     2
 72
     2
 73
     0
 90
        2
 40
-0.6
 41
30.0
 62
     5
 63
     7
 74
     0
 91
        0
 64
     7
 65
   257
 75
     1
175
     1
 42
1.0
 92
        8
 66
   257
 43
1.0
 76
     1
 77
     6
 78
     2
 67
     7
 79
     3
170
     0
171
     0
290
     0
174
     0
 93
       13
 44
0.0
173
     0
291
     0
 45
0.0
1001
ACAD
1000
AcDbSavedByObjectVersion
1070
     0
  0
VISUALSTYLE
  5
1F3
102
{ACAD_XDICTIONARY
360
97C7
102
}
102
{ACAD_REACTORS
330
EF
102
}
330
EF
100
AcDbVisualStyle
  2
Shaded
 70
    27
 71
     2
 72
     2
 73
     1
 90
        2
 40
-0.6
 41
30.0
 62
     5
 63
     7
 74
     0
 91
        4
 64
     7
 65
   257
 75
     1
175
     1
 42
1.0
 92
        8
 66
   257
 43
1.0
 76
     1
 77
     6
 78
     2
 67
     8
 79
     3
170
     0
171
     0
290
     0
174
     0
 93
        5
 44
0.0
173
     0
291
     0
 45
0.0
1001
ACAD
1000
AcDbSavedByObjectVersion
1070
     0
  0
VISUALSTYLE
  5
1F2
102
{ACAD_XDICTIONARY
360
97C5
102
}
102
{ACAD_REACTORS
330
EF
102
}
330
EF
100
AcDbVisualStyle
  2
Shaded with edges
 70
    26
 71
     2
 72
     2
 73
     1
 90
        2
 40
-0.6
 41
30.0
 62
     5
 63
     7
 74
     1
 91
        2
 64
     7
 65
   257
 75
     2
175
     1
 42
1.0
 92
        8
 66
   257
 43
1.0
 76
     1
 77
     6
 78
     2
 67
     7
 79
     3
170
     0
171
     0
290
     0
174
     0
 93
        5
 44
0.0
173
     0
291
     0
 45
0.0
1001
ACAD
1000
AcDbSavedByObjectVersion
1070
     0
  0
VISUALSTYLE
  5
1EF
102
{ACAD_XDICTIONARY
360
97BF
102
}
102
{ACAD_REACTORS
330
EF
102
}
330
EF
100
AcDbVisualStyle
  2
Shades of Gray
 70
    23
 71
     2
 72
     2
 73
     3
 90
        0
 40
-0.6
 41
-30.0
 62
     5
 63
     7
 74
     2
 91
        2
 64
     7
 65
     7
 75
     1
175
     1
 42
40.0
 92
        8
 66
     7
 43
1.0
 76
     1
 77
     6
 78
     2
 67
     7
 79
     3
170
     0
171
     0
290
     0
174
     0
 93
        1
 44
0.0
173
     0
291
     0
 45
0.0
1001
ACAD
1000
AcDbSavedByObjectVersion
1070
     0
  0
VISUALSTYLE
  5
1F0
102
{ACAD_XDICTIONARY
360
97C1
102
}
102
{ACAD_REACTORS
330
EF
102
}
330
EF
100
AcDbVisualStyle
  2
Sketchy
 70
    24
 71
     1
 72
     2
 73
     2
 90
        0
 40
-0.6
 41
-30.0
 62
     5
 63
     7
 74
     2
 91
        2
 64
     7
 65
     7
 75
     1
175
     1
 42
40.0
 92
       11
 66
     7
 43
1.0
 76
     1
 77
     6
 78
     2
 67
     7
 79
     6
170
     0
171
     0
290
     0
174
     0
 93
        1
 44
0.0
173
     0
291
     0
 45
0.0
1001
ACAD
1000
AcDbSavedByObjectVersion
1070
     0
  0
VISUALSTYLE
  5
FC
102
{ACAD_XDICTIONARY
360
97AF
102
}
102
{ACAD_REACTORS
330
EF
102
}
330
EF
100
AcDbVisualStyle
  2
Thicken
 70
    13
 71
     2
 72
     2
 73
     1
 90
        0
 40
-0.6
 41
-30.0
 62
     5
 63
     7
 74
     1
 91
        4
 64
     7
 65
   257
 75
     1
175
     1
 42
1.0
 92
       12
 66
     7
 43
1.0
 76
     1
 77
     6
 78
     2
 67
     7
 79
     5
170
     0
171
     0
290
     0
174
     0
 93
        1
 44
0.0
173
     0
291
     1
 45
0.0
1001
ACAD
1000
AcDbSavedByObjectVersion
1070
     0
  0
VISUALSTYLE
  5
F6
102
{ACAD_XDICTIONARY
360
97A3
102
}
102
{ACAD_REACTORS
330
EF
102
}
330
EF
100
AcDbVisualStyle
  2
Wireframe
 70
     5
 71
     0
 72
     2
 73
     0
 90
        0
 40
-0.6
 41
-30.0
 62
     5
 63
     7
 74
     1
 91
        4
 64
     7
 65
   257
 75
     1
175
     1
 42
1.0
 92
        0
 66
   257
 43
1.0
 76
     1
 77
     6
 78
     2
 67
     7
 79
     3
170
     0
171
     0
290
     0
174
     0
 93
        1
 44
0.0
173
     0
291
     0
 45
0.0
1001
ACAD
1000
AcDbSavedByObjectVersion
1070
     0
  0
VISUALSTYLE
  5
1F1
102
{ACAD_XDICTIONARY
360
97C3
102
}
102
{ACAD_REACTORS
330
EF
102
}
330
EF
100
AcDbVisualStyle
  2
X-Ray
 70
    25
 71
     2
 72
     2
 73
     1
 90
        1
 40
0.5
 41
-30.0
 62
     5
 63
     7
 74
     1
 91
        0
 64
     7
 65
   257
 75
     1
175
     1
 42
1.0
 92
        8
 66
     7
 43
1.0
 76
     1
 77
     6
 78
     2
 67
     7
 79
     3
170
     0
171
     0
290
     0
174
     0
 93
       13
 44
0.0
173
     0
291
     0
 45
0.0
1001
ACAD
1000
AcDbSavedByObjectVersion
1070
     0
  0
DICTIONARYVAR
  5
146
102
{ACAD_REACTORS
330
5E
102
}
330
5E
100
DictionaryVariables
280
     0
  1
1:1
  0
DICTIONARYVAR
  5
259
102
{ACAD_REACTORS
330
5E
102
}
330
5E
100
DictionaryVariables
280
     0
  1
3.500000
  0
DICTIONARYVAR
  5
25A
102
{ACAD_REACTORS
330
5E
102
}
330
5E
100
DictionaryVariables
280
     0
  1
acadiso.lin
  0
DICTIONARYVAR
  5
145
102
{ACAD_REACTORS
330
5E
102
}
330
5E
100
DictionaryVariables
280
     0
  1
STANDARD
  0
DICTIONARYVAR
  5
84
102
{ACAD_REACTORS
330
5E
102
}
330
5E
100
DictionaryVariables
280
     0
  1
STANDARD
  0
DICTIONARYVAR
  5
227
102
{ACAD_REACTORS
330
5E
102
}
330
5E
100
DictionaryVariables
280
     0
  1
Metric50
  0
DICTIONARYVAR
  5
228
102
{ACAD_REACTORS
330
5E
102
}
330
5E
100
DictionaryVariables
280
     0
  1
Metric50
  0
DICTIONARYVAR
  5
5F
102
{ACAD_REACTORS
330
5E
102
}
330
5E
100
DictionaryVariables
280
     0
  1
2
  0
DICTIONARYVAR
  5
63
102
{ACAD_REACTORS
330
5E
102
}
330
5E
100
DictionaryVariables
280
     0
  1
1
  0
DICTIONARYVAR
  5
9738
102
{ACAD_REACTORS
330
5E
102
}
330
5E
100
DictionaryVariables
280
     0
  1
0
  0
DICTIONARYVAR
  5
1AE
102
{ACAD_REACTORS
330
5E
102
}
330
5E
100
DictionaryVariables
280
     0
  1
0
  0
DICTIONARYVAR
  5
1AF
102
{ACAD_REACTORS
330
5E
102
}
330
5E
100
DictionaryVariables
280
     0
  1
0
  0
DICTIONARYVAR
  5
9736
102
{ACAD_REACTORS
330
5E
102
}
330
5E
100
DictionaryVariables
280
     0
  1
2
  0
DICTIONARYVAR
  5
9735
102
{ACAD_REACTORS
330
5E
102
}
330
5E
100
DictionaryVariables
280
     0
  1
1
  0
DICTIONARYVAR
  5
9788
102
{ACAD_REACTORS
330
5E
102
}
330
5E
100
DictionaryVariables
280
     0
  1
80.000000
  0
DICTIONARYVAR
  5
9787
102
{ACAD_REACTORS
330
5E
102
}
330
5E
100
DictionaryVariables
280
     0
  1
5.000000
  0
DICTIONARYVAR
  5
9737
102
{ACAD_REACTORS
330
5E
102
}
330
5E
100
DictionaryVariables
280
     0
  1
127
  0
DICTIONARYVAR
  5
9789
102
{ACAD_REACTORS
330
5E
102
}
330
5E
100
DictionaryVariables
280
     0
  1
2
  0
DICTIONARY
  5
97CB
330
21C
100
AcDbDictionary
280
     1
281
     1
  3
ACAD_XREC_ROUNDTRIP
360
97CC
  0
DICTIONARY
  5
9790
330
D3
100
AcDbDictionary
280
     1
281
     1
  3
ACAD_XREC_ROUNDTRIP
360
9791
  0
DICTIONARY
  5
9792
330
D7
100
AcDbDictionary
280
     1
281
     1
  3
ACAD_XREC_ROUNDTRIP
360
9793
  0
DICTIONARY
  5
978D
330
22
100
AcDbDictionary
280
     1
281
     1
  3
ACAD_XREC_ROUNDTRIP
360
978E
  0
DICTIONARY
  5
1F9
330
ED
100
AcDbDictionary
280
     1
281
     1
  3
ACAD_XREC_ROUNDTRIP
360
9795
  3
FBXASSET
360
1FA
  0
DICTIONARY
  5
1F7
330
EC
100
AcDbDictionary
280
     1
281
     1
  3
ACAD_XREC_ROUNDTRIP
360
9794
  3
FBXASSET
360
1F8
  0
DICTIONARY
  5
173
330
EE
100
AcDbDictionary
280
     1
281
     1
  3
ACAD_XREC_ROUNDTRIP
360
9796
  3
BUMPTILE
360
175
  3
DIFFUSETILE
360
174
  3
FBXASSET
360
1FB
  3
OPACITYTILE
360
176
  3
REFLECTIONTILE
360
177
  0
DICTIONARY
  5
97B7
330
12E
100
AcDbDictionary
280
     1
281
     1
  3
ACAD_XREC_ROUNDTRIP
360
97B8
  0
DICTIONARY
  5
97C9
330
21A
100
AcDbDictionary
280
     1
281
     1
  3
ACAD_XREC_ROUNDTRIP
360
97CA
  0
DICTIONARY
  5
162
330
7F
100
AcDbDictionary
280
     1
281
     1
  3
ACAD_ROUNDTRIP_2008_TABLESTYLE_CELLSTYLEMAP
360
978A
  3
ACAD_XREC_ROUNDTRIP
360
978F
  0
DICTIONARY
  5
97A1
330
F5
100
AcDbDictionary
280
     1
281
     1
  3
ACAD_XREC_ROUNDTRIP
360
97A2
  0
DICTIONARY
  5
979F
330
F4
100
AcDbDictionary
280
     1
281
     1
  3
ACAD_XREC_ROUNDTRIP
360
97A0
  0
DICTIONARY
  5
97AD
330
FB
100
AcDbDictionary
280
     1
281
     1
  3
ACAD_XREC_ROUNDTRIP
360
97AE
  0
DICTIONARY
  5
97B5
330
FF
100
AcDbDictionary
280
     1
281
     1
  3
ACAD_XREC_ROUNDTRIP
360
97B6
  0
DICTIONARY
  5
97A7
330
F8
100
AcDbDictionary
280
     1
281
     1
  3
ACAD_XREC_ROUNDTRIP
360
97A8
  0
DICTIONARY
  5
97AB
330
FA
100
AcDbDictionary
280
     1
281
     1
  3
ACAD_XREC_ROUNDTRIP
360
97AC
  0
DICTIONARY
  5
97BD
330
1E6
100
AcDbDictionary
280
     1
281
     1
  3
ACAD_XREC_ROUNDTRIP
360
97BE
  0
DICTIONARY
  5
97B3
330
FE
100
AcDbDictionary
280
     1
281
     1
  3
ACAD_XREC_ROUNDTRIP
360
97B4
  0
DICTIONARY
  5
9797
330
F0
100
AcDbDictionary
280
     1
281
     1
  3
ACAD_XREC_ROUNDTRIP
360
9798
  0
DICTIONARY
  5
9799
330
F1
100
AcDbDictionary
280
     1
281
     1
  3
ACAD_XREC_ROUNDTRIP
360
979A
  0
DICTIONARY
  5
979B
330
F2
100
AcDbDictionary
280
     1
281
     1
  3
ACAD_XREC_ROUNDTRIP
360
979C
  0
DICTIONARY
  5
979D
330
F3
100
AcDbDictionary
280
     1
281
     1
  3
ACAD_XREC_ROUNDTRIP
360
979E
  0
DICTIONARY
  5
97A5
330
F7
100
AcDbDictionary
280
     1
281
     1
  3
ACAD_XREC_ROUNDTRIP
360
97A6
  0
DICTIONARY
  5
97B9
330
1E4
100
AcDbDictionary
280
     1
281
     1
  3
ACAD_XREC_ROUNDTRIP
360
97BA
  0
DICTIONARY
  5
97B1
330
FD
100
AcDbDictionary
280
     1
281
     1
  3
ACAD_XREC_ROUNDTRIP
360
97B2
  0
DICTIONARY
  5
97BB
330
1E5
100
AcDbDictionary
280
     1
281
     1
  3
ACAD_XREC_ROUNDTRIP
360
97BC
  0
DICTIONARY
  5
97A9
330
F9
100
AcDbDictionary
280
     1
281
     1
  3
ACAD_XREC_ROUNDTRIP
360
97AA
  0
DICTIONARY
  5
97C7
330
1F3
100
AcDbDictionary
280
     1
281
     1
  3
ACAD_XREC_ROUNDTRIP
360
97C8
  0
DICTIONARY
  5
97C5
330
1F2
100
AcDbDictionary
280
     1
281
     1
  3
ACAD_XREC_ROUNDTRIP
360
97C6
  0
DICTIONARY
  5
97BF
330
1EF
100
AcDbDictionary
280
     1
281
     1
  3
ACAD_XREC_ROUNDTRIP
360
97C0
  0
DICTIONARY
  5
97C1
330
1F0
100
AcDbDictionary
280
     1
281
     1
  3
ACAD_XREC_ROUNDTRIP
360
97C2
  0
DICTIONARY
  5
97AF
330
FC
100
AcDbDictionary
280
     1
281
     1
  3
ACAD_XREC_ROUNDTRIP
360
97B0
  0
DICTIONARY
  5
97A3
330
F6
100
AcDbDictionary
280
     1
281
     1
  3
ACAD_XREC_ROUNDTRIP
360
97A4
  0
DICTIONARY
  5
97C3
330
1F1
100
AcDbDictionary
280
     1
281
     1
  3
ACAD_XREC_ROUNDTRIP
360
97C4
  0
XRECORD
  5
97CC
102
{ACAD_REACTORS
330
97CB
102
}
330
97CB
100
AcDbXrecord
280
     1
102
DISPLAYNAME
  1
Metric50
102
FLAGS
 90
        0
  0
XRECORD
  5
9791
102
{ACAD_REACTORS
330
9790
102
}
330
9790
100
AcDbXrecord
280
     1
102
SHADEPLOT
 70
     0
102
SHADEPLOTRESLEVEL
 70
     2
102
SHADEPLOTCUSTOMDPI
 70
   300
  0
XRECORD
  5
9793
102
{ACAD_REACTORS
330
9792
102
}
330
9792
100
AcDbXrecord
280
     1
102
SHADEPLOT
 70
     0
102
SHADEPLOTRESLEVEL
 70
     2
102
SHADEPLOTCUSTOMDPI
 70
   300
  0
XRECORD
  5
978E
102
{ACAD_REACTORS
330
978D
102
}
330
978D
100
AcDbXrecord
280
     1
102
SHADEPLOT
 70
     0
102
SHADEPLOTRESLEVEL
 70
     2
102
SHADEPLOTCUSTOMDPI
 70
   300
  0
XRECORD
  5
9795
102
{ACAD_REACTORS
330
1F9
102
}
330
1F9
100
AcDbXrecord
280
     1
102
MATERIAL
148
0.0
149
0.0
149
0.0
 93
        0
 94
       63
282
     0
 72
     1
 77
     1
171
     1
175
     1
179
     1
273
     0
  0
XRECORD
  5
1FA
102
{ACAD_REACTORS
330
1F9
102
}
330
1F9
100
AcDbXrecord
280
     1
 70
     1
 90
429727718
  1
D62C5603-E3A1-4AEA-B7FB-FE5D8D0755AF
310
504B03040A0000080000CC70623B3DEE336E79000000790000001B0000006175746F6465736B2D64657369676E2D7061636B6167652E786D6C3C3F786D6C2076657273696F6E3D22312E302220656E636F64696E673D227574662D3822203F3E3C666F726D6174733E3C666F726D61743E687474703A2F2F736368656D612E
310
6175746F6465736B2E636F6D2F64657369676E2D7061636B6167652F323030393C2F666F726D61743E3C2F666F726D6174733E504B0304140006080800CC70623BD486FD9CA0000000F4000000130000005B436F6E74656E745F54797065735D2E786D6C7D8EC10E82300C865F65E91D8A1E8C310C0EEA1BF002731658846E
310
D98AC1B77784ABF1D8FE5FBFBF75BBCE937A534CCEB38643598122B6FEE978D0B0485F9C41B54DDD7D022595594E1A469170414C76A4D9A4D207E29CF43ECE46F218070CC6BECC4078ACAA135ACF422C856C0E68EA1BF5669944DDD7BCDE7B1F8E415D77AECB980613C2E4AC91FC167A2B244592486606FC29C8FD7F045B9A
310
EF7053A7E60B504B0304140006080800CC70623B853B8169EB0000007C01000008000000636F72652E786D6C8D90416EC3201045AF62CDB6C206821CC7C244919D9CA01740401C94182C03558F5F9C3852BBEB6A467FFE9B197D7EFC9E1EC5975982F5AE035262288C535E5B377690E21535501C055FBC8FBF6C503839990E
310
5619041F179FE64D52DE45E362569DD7661365082642A11EB9E920A89B99642953CC8E702F67A9EE7234257977194EC9EAE275C4EABCCF5EAD5940D4AC6F0E35A568B8F43562CD7046CD199FD07E60174276A7BE677B5EADB0E0D14EEFFB6A31321A0D82627C4084204C3F096B71DD52F6819B16635EADF63F509AF53FA164
310
5DDCD1EDDD17164090FCC8732078B56691CB33A85CD7DCC40F504B0304140006080800CC70623B55019EA25F0000007C00000007000000636E782E786D6C4DCB3B0E80201045D1AD90E915ED2CF8AC45050C11660C8261F98AB1B07AC9C97D42D718D865D3E909258CFD00CCE24AC6E326A164D74DC0B4128928FF32603847
310
2BA13128B1252AC747C6BAB984FC68F0B87FE8960A5C09FE86CFB69FBA01504B0304140006080800CC70623BDBABAAF470010000D40300000C0000006662782F636F72652E786D6CC553D16E823014FD95A6AF4B694182CC941A83FA05FB810A9511A125A5257EFE2E82712ECEB8A7F100CD39F7F69E734AF9FADC366850B6
310
AF8DCE7018308C942E4C59EB2AC3DE1D498AD15A706B8CFB56869196ADCAF00863C12B6B7C374385D14E6907A836A59A41D9F7CA615434B0C8705F7CAA5606D23BA8E84F41278B93AC54100640439DE0BDB320004D43C63716C7C399D30917DCFBBA9CD9BA8469F5B156168B24CED3F7248AC8769F27244EB73B92EED8862C
310
B7F13E0C179B3C8F979C8ECD82BBBABDAA2BAC924E9558448CBD9330242CFA08E3154B5651FCC6D215639C8EE5774DBE2B5F6CF2B5768B68963BB5F5588420E442FC700B1139D4CB01F450C1E918227C2E09DF070D8140C84E1E9AAB8F1340832A9CB13130A5F1376A908D57309505ECF2A0DF179C4E9D30F5B239B87E3823
310
7A79C6F31DE1A8A5AEC08474B03C7837EAE4938639B44E5932B833D2C6B6B279CDC613877FA26EE21F4A2A4C63EC7F29A2F301D1F9F7A0E37D145F504B0304140006080800CC70623B9C113CC27E0000009D0000000B0000006662782F636E782E786D6C4DCCDF0A83201C86E15B91DFB94BFB330DD428C8FB886521330DA7
310
6397BF1A1DECE883878F57749FCDA1B7892F1BBC047A23808C7F84D9FA55424E0BE6803A256208E9EF06C84F9B91703228B1C690F78B66B34CD9A5439DF5CF0BFBF65E35BCA1B8D6A5C6F540381E886698B5741C695F9503EBA150A2F8958E3DC3EA0B504B0304140006080800CC70623B7DF2F77C2A010000120200003100
310
00006662782F41393633353835312D344632462D344230382D423046372D3739314545314133324237412F636F72652E786D6C8D51DB8EC22014FC15C2939B0D2DB4B45643319AE817EC0F6041255A68B86CFCFC856D4D76DF7CE190393373060EDB3DC707F856CE6B6B7A480A0C81328395DA5C7B18C3057510EC3873D686
310
3F34088C18550F330C39BB3A1BA7051AAC09CA84841A2BD5020AEF55806078A44B0FFD7053A328440C89E1EFC52486BBB8AA8214A99D789CF9E05200300FC927E4FB4D5B375D43103D5527440FB843077C5AA3F5861C8F645F5787F59E95B390B318B55CE45AA638FAA2957BD7248B390B7A7CC51F9C124149C82B8C378810
310
84AB2F42B7B8DD56F413775B8C5999E9FF4471926F8AA236A1AE96B8B3CC434E5839373893369E1FAF30EA395917409EB7F26AF8801C171837A4A6AC9C89E9F9C9B1A58BA30FD6A5EF5DDDCF894B9AD9B6A59C957943A9FCAE2FD5BC4DFE03504B0304140006080800CC70623BAD7543B64E01000033030000300000006662
310
782F41393633353835312D344632462D344230382D423046372D3739314545314133324237412F636E782E786D6CD593CD6EC32010845F0571AD6CE3D48AD20813A9873E410FBD12D82434182C7EAAE6EDBB2424CD25871E7B41D6EC30B3FA84F9E67BB2E40B4234DE8DB46F1925E094D7C6ED479AD3AE5951B2113C789FEE
310
6C943839C1488B4C05DF079FE72A69D8C96C13AAD6B8631503449F83828872B949AC57D26200B826A308D316B4064D6E46FCDA41C05550DC9E483A00797BFD207EFB092A45DE9514C1BBD22178396BD39D891265658C238DEA00936C654E5E433CB65A26D9F6EDB5EBC14EBF49A45CB856E66048291F6939A9A81BB5C89177
310
38143CA680F4AA299D66A042CEB3354A2684DC9D8D178FE0D9B8B41CAAD720F880EE7EF93C0C18769E099ECC04D5A102C8049A8A05632F4DDF376CF1DE0F6BB65C2F8627B65A33C6BB62177CEBBDAD973006829F89F22E814B54F4BC2BE347F8AA8F681390B50FA73F804400B5F542E796F19FF974E7F78DB802FE05E20750
310
4B0304140006080800CC70623BE75B7789680500003C100000340000006662782F41393633353835312D344632462D344230382D423046372D3739314545314133324237412F6F626A656374732E786D6CAD575B8F9B3818FD2B887D06C22499CB8AA1CA655245D5B455A356FB305264C061D8018C6C3393D95FBFC7600890
310
A4CD5EF210B0B1BFEBF98E3F7B1FF6596ABC522E1296DF9BAE3D320D9A872C4AF2F8DE2CE5CEBA358D0FBEC719939D65A691938CDE9B6ADAF4BD98B3B2D05311DD91329583D9D5FC0F438434A7A611A644887B5384CF34233629258BA878B12322891DEFF6B66BD70BFB62634E8AE781D082709A4B588AF91C528CDA28B73F
310
1C998EEF39EABBEFA97FBD6A7C7E9553F9D3D79FE442923C3C523610337627CB87ABE99D359D4CC6D6E4FACAB5E6ABF9D2726FC6A3C5F56271377BB88362213924694B38DD99FE47C48627A1E7D49F5A8BB5E1A74C0A599ED3B0F21F1E56366B89112D681E218F0915D0D6F17AD41FBA2A369DCF6335D62ABBD39779D5DDD1
310
11D4D8DE3CBB96B2E04FB8202E41051754A1AA8E8F76B4C6DFE810B580B1547F4B84911149794252234D024EF8BBE963A95AE27B3D310A9D5C215C7960FAEE415ED75694C6AFB17BCACA5D99A60A9AA65F217B0BFC53292ACB92BF283FAD0D3621576592CB5BED907C2FA8E9DF794E35E97BEA31BED21FEB401ABB94C44839
310
DCACBF0E1C5DA8DA5B2F4DFFD32AD86F543D9E565E7056502E157C00AD2671CD534549AB752FCA9CDA00677A313F04E51B22FF19E57B300579E3C97EB29F682D92935CEC18CF901B7B54FD8C51F362B56FC72FE0B3C1EAE335EDCCBF5AEC39ADB17DC238973F804BA5E6F6BFE7AF1FB32E523BE9F3BD571418E3631DCA4D48
310
5250CF639223210A9446CA30052EDF057BD35F8329C1ECD84552BF0DC8D18BE7BCE23BFE6BD960AB4A7DE79923A103BEBD80F911CBAA2C60DB19B01CF164A5583B772EE6D3FFA56666CBCDA74DC97724A48F9A58967497E489C4D979006FD7A05E227A1EBDD0F737C623387A9C844D3709995625106D157315F8B8392CD4E0
310
A0B9A720C4BE9829CEF37EA1E13111214D53925356365ADA634861B52519DD27A00AEB808EAF0628E6F435519D446F45CF2C9CF5214F0A15B2F6D06B79DA3EE3CBF7F56780D2F4E7EF73A0F5E5B02A38D07DC852C6B7C1FBB6664213E0C39E3EBA7FF4E1AD23EA2829407C85E586727488B751B2DB9502BC7B228A3FD68B6E
310
A65A22397E690AA8D158D7E404EC8CDA235CC3B7D1898680131CEC2CDF2638C65196279577750F15884AEE19F94199155B92B13297978469D4F8D358DF0AEF7631E28DC8F0D9F437D5D39A83B2231A1D52D543813A824EF8D44BCFF2FA6A31BD1E8DAD87F1CCB526B3879935BF59CDADD5C37479BB1CDD4CA7B3556B516589
310
EF352754B706114D9C885EC9131DE6EFEB43D99AFE2391C2F958179413D7CFEF6B1B6DB1E7600F00DE6E5C67454A339A4BA2E0FBA85ED26F045D454F463DBFCE484C2F90F2E5E3666003662ED8F755951A7D1BECD5B30B550B2785C8E7320B7292A4838DDA71BBC863ED7613CAF659337A3354231D4FF4A182A54904C2898C
310
98B28C4AD0CE056CCF332A80986E571EE9DBC305BB5FEB7E509220A58D25CF042D712A806AC0AD0C657FDEF80D2D9CEAA2EE4D1C76F60BFE74219A06527D6F82DF6412526107381E55E353090704D085B52408A8913C4ED159D79BDA71BB4BC506F4831350EB6F975CD22D69BF7AC49B91A2C0A9DDA3D5CA36AD20FC478E37
310
E61844E2352865EBCB61A275A65283CAAA9DD27703B4102F5AF51EF5F573B75CBB5AD38BC845F7A49F82A0966A49C2E3EA5EA0ECD326CD965F1DB402C6FA8B51A4658C5C5E2EC9E214602E55810345408596591009A82E7E7FFACA19EEA299B14A0081A705CB3296EBC14CDF658DCD336EA6D1136881AAEB87B81AB9EE53D5
310
F5EB8BC8362082DA24122F98680A4E7930C01A0079749CEA14382A0783E5EBA5A10F8C098456A03D6A4AEB6BB881E2513747552A5DB22C7EDAF83BD5528081A365F7FF06504B0304140006080000CC70623B000000000000000000000000350000006662782F41393633353835312D344632462D344230382D423046372D37
310
39314545314133324237412F76657274696365732E62696E504B0304140006080800CC70623BF270F1330600000004000000360000006662782F41393633353835312D344632462D344230382D423046372D3739314545314133324237412F747269616E676C65732E62696E636660600000504B0304140006080000CC7062
310
3B000000000000000000000000370000006662782F41393633353835312D344632462D344230382D423046372D3739314545314133324237412F617474726962757465732E62696E504B0304140006080800CC70623B08DA0BD19000000041010000360000006662782F41393633353835312D344632462D344230382D4230
310
46372D3739314545314133324237412F6469726563746F72792E786D6C858F410AC3201045AF22B36F53E9A60B35CBEEBAE80D244E44489C6234F4F835464A48035D0DF398FF9F8AF63D0E6CC63039F212F8F9020C7D47C6792B21C5FE7403D62A1188E2E60C98D7234A5830286103A55745067B9D86B8A3CF9C7F90C11DE6
310
07FB144396D7B6A82D282E9A152AD114D5EF2CB866EEE831B8EEA07A7BB5A8D7D61A2BAAEB7FD5F70921FF497D00504B0304140006080800CC70623BEDD1DC58FD000000A00100003B0000006662782F41393633353835312D344632462D344230382D423046372D3739314545314133324237412F7265736F75726365732F
310
636F72652E786D6C8D504B6E833010BD0A9A6D65B00922041947112427E8052C33A156828DFCA97AFC9A40A576D7CDCCE87D344F8F9FBFE667F689CE6B6B3A6039850C8DB2A336530731DC4903D95970676DF82583CCC8193B5861107C72362E3BA4AC096842428D1D7107A5F7182053CF7474E0D507CE32973124857FE48B
310
540F3961CEF244279DE03EB81420DB9EAC1384436FA353E879B1B182C7A8C75DA3C7F453DF353A1075D537A7BA6464B8F535A99AE14A9A2BBD90E350DD183B5CFABE3AF262350B1EF4FC9351399401471025A527C218A1E53BAB5A5AB765F5469B96525EACF23FA6B88CFF34456DC2A1DCE36E360F82A5202F42F062ED2BAD
310
579969AFDD8A6F504B010214000A0000080000CC70623B3DEE336E79000000790000001B00000000000000000000000000000000006175746F6465736B2D64657369676E2D7061636B6167652E786D6C504B01021400140006080800CC70623BD486FD9CA0000000F40000001300000000000000000000000000B20000005B
310
436F6E74656E745F54797065735D2E786D6C504B01021400140006080800CC70623B853B8169EB0000007C010000080000000000000000000000000083010000636F72652E786D6C504B01021400140006080800CC70623B55019EA25F0000007C000000070000000000000000000000000094020000636E782E786D6C504B
310
01021400140006080800CC70623BDBABAAF470010000D40300000C00000000000000000000000000180300006662782F636F72652E786D6C504B01021400140006080800CC70623B9C113CC27E0000009D0000000B00000000000000000000000000B20400006662782F636E782E786D6C504B01021400140006080800CC70
310
623B7DF2F77C2A010000120200003100000000000000000000000000590500006662782F41393633353835312D344632462D344230382D423046372D3739314545314133324237412F636F72652E786D6C504B01021400140006080800CC70623BAD7543B64E010000330300003000000000000000000000000000D2060000
310
6662782F41393633353835312D344632462D344230382D423046372D3739314545314133324237412F636E782E786D6C504B01021400140006080800CC70623BE75B7789680500003C10000034000000000000000000000000006E0800006662782F41393633353835312D344632462D344230382D423046372D3739314545
310
314133324237412F6F626A656374732E786D6C504B01021400140006080000CC70623B0000000000000000000000003500000000000000000000000000280E00006662782F41393633353835312D344632462D344230382D423046372D3739314545314133324237412F76657274696365732E62696E504B01021400140006
310
080800CC70623BF270F133060000000400000036000000000000000000000000007B0E00006662782F41393633353835312D344632462D344230382D423046372D3739314545314133324237412F747269616E676C65732E62696E504B01021400140006080000CC70623B0000000000000000000000003700000000000000
310
000000000000D50E00006662782F41393633353835312D344632462D344230382D423046372D3739314545314133324237412F617474726962757465732E62696E504B01021400140006080800CC70623B08DA0BD1900000004101000036000000000000000000000000002A0F00006662782F41393633353835312D344632
310
462D344230382D423046372D3739314545314133324237412F6469726563746F72792E786D6C504B01021400140006080800CC70623BEDD1DC58FD000000A00100003B000000000000000000000000000E1000006662782F41393633353835312D344632462D344230382D423046372D3739314545314133324237412F7265
310
736F75726365732F636F72652E786D6C504B0506000000000E000E0080040000641100000000
  0
XRECORD
  5
9794
102
{ACAD_REACTORS
330
1F7
102
}
330
1F7
100
AcDbXrecord
280
     1
102
MATERIAL
148
0.0
149
0.0
149
0.0
 93
        0
 94
       63
282
     0
 72
     1
 77
     1
171
     1
175
     1
179
     1
273
     0
  0
XRECORD
  5
1F8
102
{ACAD_REACTORS
330
1F7
102
}
330
1F7
100
AcDbXrecord
280
     1
 70
     1
 90
429727718
  1
30362254-06B7-45E0-A893-8CFA70E3D6BC
310
504B03040A0000080000CC70623B3DEE336E79000000790000001B0000006175746F6465736B2D64657369676E2D7061636B6167652E786D6C3C3F786D6C2076657273696F6E3D22312E302220656E636F64696E673D227574662D3822203F3E3C666F726D6174733E3C666F726D61743E687474703A2F2F736368656D612E
310
6175746F6465736B2E636F6D2F64657369676E2D7061636B6167652F323030393C2F666F726D61743E3C2F666F726D6174733E504B0304140006080800CC70623BD486FD9CA0000000F4000000130000005B436F6E74656E745F54797065735D2E786D6C7D8EC10E82300C865F65E91D8A1E8C310C0EEA1BF002731658846E
310
D98AC1B77784ABF1D8FE5FBFBF75BBCE937A534CCEB38643598122B6FEE978D0B0485F9C41B54DDD7D022595594E1A469170414C76A4D9A4D207E29CF43ECE46F218070CC6BECC4078ACAA135ACF422C856C0E68EA1BF5669944DDD7BCDE7B1F8E415D77AECB980613C2E4AC91FC167A2B244592486606FC29C8FD7F045B9A
310
EF7053A7E60B504B0304140006080800CC70623B1EC5D7A3EB0000007C01000008000000636F72652E786D6C8D90416EC3201045AF82665B6103C6756C6122AB4D4ED00B204C5C94182C03558F5F9C3852BBEB6A467FFE9B197D71FC9E6FE8CBACC17AD7032D0820E3B41FAD9B7A48F1820F808E52ACDEC75F36404ECDA687
310
4D0629A6D5A76597B477D1B89855E747B38B2A041301E95B6E7A08FAD3CCAA50296647B8168BD2573599823EBB0CA76447F43862C7BCCF5EAC59410E4DDD9C7973C2755553CCCFA4C603E3040F1565ED3B1FDE4E432BCA0D9622DAF9795FAF464533826484B498524CD807E51D79ED187F21878E10516EF63F505AC67F42C9
310
BA58B1FDDD071640D2FCC87D2045B96591CB3DA85CB7DCE40F504B0304140006080800CC70623B55019EA25F0000007C00000007000000636E782E786D6C4DCB3B0E80201045D1AD90E915ED2CF8AC45050C11660C8261F98AB1B07AC9C97D42D718D865D3E909258CFD00CCE24AC6E326A164D74DC0B4128928FF32603847
310
2BA13128B1252AC747C6BAB984FC68F0B87FE8960A5C09FE86CFB69FBA01504B0304140006080800CC70623B8C9102E971010000D40300000C0000006662782F636F72652E786D6CC5535B6E833010BC8AE5DF0A6C08340F1947A84D4ED00B38C6A128602363A31CBFCB234A53A551FA553EC09AD9F5CE8C31DB9E9B1AF5CA
310
7695D1198E428A91D2D214952E33ECDD315861B4E5CC1AE3BE9561A445A3323CC098B3D21ADFCE9034DA29ED00D5A6503328BA4E398C640D8B0C77F253352214DE4145770A5B214FA2546114020D759C75CE8200340D19DE981F0F6746269C33EFAB6266AB02A655C74A59CCF365BADC27CB5D902ED22848F6340DF238A141
310
BE88E2F57B92BFEDF23523433367AE6A2EEAA455C2A902F398D2751045018D3FA264435F3771F242571B4A1919CA6F9A7C5B3CD9E42BED16F12C776AEB308F40C848FC700B1139D4891EF410CEC810227CC6846F8386402064270EF5C5C709A05E49676C024C61FC95EA45ED154CA5211D1FF4FB8291A913A68E9B83EBBB33
310
E2A7673CDE118E5AE8124C0807CB8377834E366998436B950D7A7746DAD846D4CFD978E0F04FD455FC5D49D2D4C6FE9722321F10997F0F32DC47FE05504B0304140006080800CC70623BFFEA85907E0000009D0000000B0000006662782F636E782E786D6C4DCCD10A83201886E15B91FFDC95D95A811AB6F23E625948A6C3
310
E9D8E5AF46073BFAE0E1E365ED67B3E8ADC3CB78C7815C7240DA3DFC64DCC221C519D7805AC182F7F1EF06C88D9BE6703008B6049F9E274D7A1E938DBB5AE3D6131B2589BA0D3D965551E0B2EA732C9B9A624AAEB41E3A557677029960D9AFB4EF11165F504B0304140006080800CC70623B4FEEA4082C0100001202000031
310
0000006662782F39464131463745442D413632322D343644302D413938332D3331353338454246344243312F636F72652E786D6C8D515B6EC32010BC0AE2AB55850DD871ED0813254D72825EC00192A2C460F1A872FC42ED48ED5F7E00CDCECCCEB26C731F6FE05B39AFADE921293004CA082BB5B9F43086336A21D870E6AC
310
0D7F68109861543DCC30E4ECE26C9C164858139409093556AA051CBC570102714B8F1E7AF1A5C6A11862480C7F2DA6415C878B2A4891CA89C7990F2E050073937C42DE1DB7E4F87ED8A36D4329AA9B3D46DBAEAD504556557BD81DEBDD0761E52CE42C462D17B996298E3E6BE59E35C962CE821E1FF18553435012728A7187
310
0841987E927A8D9B35ADDF70BBC6989599FE4F1427F9A4286A132ABAC49D651EF234CD5CE04CDA78BA3DC2A8FB645D00B9DF8B57E215725C60BCA2A463E54C4CE327C7A65E1C7DB02E7DEFCBF594B864C5CA6CDBD49C957943E9FA5D5FBAF336F90F504B0304140006080800CC70623BAD7543B64E01000033030000300000
310
006662782F39464131463745442D413632322D343644302D413938332D3331353338454246344243312F636E782E786D6CD593CD6EC32010845F0571AD6CE3D48AD20813A9873E410FBD12D82434182C7EAAE6EDBB2424CD25871E7B41D6EC30B3FA84F9E67BB2E40B4234DE8DB46F1925E094D7C6ED479AD3AE5951B2113C
310
789FEE6C943839C1488B4C05DF079FE72A69D8C96C13AAD6B8631503449F83828872B949AC57D26200B826A308D316B4064D6E46FCDA41C05550DC9E483A00797BFD207EFB092A45DE9514C1BBD22178396BD39D891265658C238DEA00936C654E5E433CB65A26D9F6EDB5EBC14EBF49A45CB856E66048291F6939A9A81BB5
310
C8917738143CA680F4AA299D66A042CEB3354A2684DC9D8D178FE0D9B8B41CAAD720F880EE7EF93C0C18769E099ECC04D5A102C8049A8A05632F4DDF376CF1DE0F6BB65C2F8627B65A33C6BB62177CEBBDAD973006829F89F22E814B54F4BC2BE347F8AA8F681390B50FA73F804400B5F542E796F19FF974E7F78DB802FE05
310
E207504B0304140006080800CC70623B16AB87BA640500003C100000340000006662782F39464131463745442D413632322D343644302D413938332D3331353338454246344243312F6F626A656374732E786D6CAD575B6FA33818FD2B887DE6924B3BED8A326A92B68A663B534DD4D13E548A0C38942D60649B369D5FBFC7
310
600890A493BDE42160637FD7F31D7FF63E6FB3D478A55C242CBF3247B66B1A340F5994E4F19559CA8D75611A9F7D8F33263BCB4C232719BD32D5B4E97B316765A1A722BA21652A07B3B7B33F0D11D29C9A46981221AE4C113ED38CD8A4942CA2E2C58E882476BCD9DA23BB5ED8171B73523C0F841684D35CC252CCE79062D4
310
468DFA43D7747CCF51DF7D4FFDEB5593E3AB9CCA9FBEFE241792E4E19EB28198C968BAB8199F5D5A67D3E9C49A9E8F47D6EC76B6B0469F26EEFC7C3EBFBCBEB98462213924694B38DD98FE1D62C393D073EA4FADC5DAF04326852CCF6958F90F0F2B9BB5C48816348F90C7840A68EB78EDF68723159BCEE7891A6B95DDE9D3
310
BCEAEEE8086A6C6F9E5D4B59F0175C10A7A0820BAA5055C7473B5AE3CFDD452D602CD5DF12616444529E90D448938013FE6EFA58AA96F85E4F8C42275708571E98FE6827AF6B2B4AE3D7D83D64E5A64C53054DD3AF90BD06FEA9149565C94FCA0F6B834DC85599E4F2423B24DF0B6AFA979E534DFA9E7A4CC6FA631D486393
310
921829879BF5D781A373557BCB85E97FB90DB62B558F8795179C15944B051F40AB495CF35451D26A4727654E6D8033BD98EF82F21D91FF8AF2DD9982BCF1643BDD4EB516C9492E368C67C88DED563FC36D5EACF66DFF057C3658BDBFA69DF9578B3DA735B64F18C7F20770A9D45CFCF7FCF563D6456A277DBEF78A02637CA2
310
43B90A490AEAB94F72244481D24819A6C0E59B606BFA4B3025981DBB48EAB701D97BF19C577CC77F2D1B6C55A9EF3C732474C0B727303F625995056C3B02963D9EAC146BE78EC5FCEC7FA999EBC5EACBAAE41B12D27B4D2C0BBA49F244E2ECDC81B76B502F113D8F5EE8FB1BE3111CDD4FC2AA9B844CAB1288B68AB90A7CDC
310
1C166AB0D3DC5310625FCC14E779BFD0709F8890A629C9292B1B2DED31A4B0DA928CEE135085754027E3018A397D4D5427D15BD1330B677DC8934285AC3DF45A9EB68FF8F2B8FC0A509AFEECFD0FF2DE25CC6047F7214B195F07EFEB9A094D800F7BFAE8FED187B78EA8A3A400F115961BCAD1215E47C966530AF0EE8128FE
310
58CEBB996A8964FFA529A046635D9353B0336A8F700DDF46271A024E70B0B37C9DE01847591E54DED53D54202AB947E4076556AC49C6CA5C9E1226B7F1A7B1BE15DEED62C41B91E1B3E9AFAAA735036547343A925075041DF0A9979E893B391F8FCFA6967B3EFB644DCF6E5CEBFAE272625DCC6FAF3FB93793C5F90CE1EF57
310
407342756B10D1C489E8953CD1617E5CEECAD6F4EF8914CE5D5D504E5C3F1F9736DA62CFC11E00BCDDB8CC8A9466349744C1F75EBDA4DF09BA8A9E8C7A7E9991989E20E5DBDD6A6003664ED8F7A04A8DBE0DF6EAD9B9AA858342E47399053949D2C146EDB85DE4B176BB0965FBAC19BD19AA918E27FA50C1D22402E144464C
310
59462568E704B6E71915404CB72B8FF4EDE184DDAF753F284990D2C6926782963815403548A70C657FDEF80D2D9CEAA2AE4C1C76F60BFE74219A06527D6582DF6412526107381E55E353090704D085B52408D0933C4ED159D79BDA71BB4BC506F4831350EB6F979CD22D69BF7AC49B91A2C0A9DDA3D5CA36AD20FC478E37E6
310
1844E2352865EBCB6EA275A652E3836BE04EFB400BF1A2556F515F1FBB35B2AB35BD889C744FFA1004B5544B121E57F70215746DD2F5E2C1412B602CBF19455AC6C8E5E9922C4E01E65215385004546899059180EAFCF7A707CE7017CD8CDB0410789AB32C63B91E5CEBBBACB17AC6CD347A022D5075FD106377347AAABA7E
310
7D11590744509B44E205134DC1290F06580320F78E537D3D73540E06CB970B431F185308AD40BBD794D6D77003C5A36E8EAA54BA64597CD8F83BD552A080A365F7FF06504B0304140006080000CC70623B000000000000000000000000350000006662782F39464131463745442D413632322D343644302D413938332D3331
310
353338454246344243312F76657274696365732E62696E504B0304140006080800CC70623BF270F1330600000004000000360000006662782F39464131463745442D413632322D343644302D413938332D3331353338454246344243312F747269616E676C65732E62696E636660600000504B0304140006080000CC70623B
310
000000000000000000000000370000006662782F39464131463745442D413632322D343644302D413938332D3331353338454246344243312F617474726962757465732E62696E504B0304140006080800CC70623B08DA0BD19000000041010000360000006662782F39464131463745442D413632322D343644302D413938
310
332D3331353338454246344243312F6469726563746F72792E786D6C858F410AC3201045AF22B36F53E9A60B35CBEEBAE80D244E44489C6234F4F835464A48035D0DF398FF9F8AF63D0E6CC63039F212F8F9020C7D47C6792B21C5FE7403D62A1188E2E60C98D7234A5830286103A55745067B9D86B8A3CF9C7F90C11DE607
310
FB144396D7B6A82D282E9A152AD114D5EF2CB866EEE831B8EEA07A7BB5A8D7D61A2BAAEB7FD5F70921FF497D00504B0304140006080800CC70623B0D6EF93BFE000000A00100003B0000006662782F39464131463745442D413632322D343644302D413938332D3331353338454246344243312F7265736F75726365732F63
310
6F72652E786D6C8D50596E833010BD0A9ADFCA60B334011947A8694ED00B586642AC041B79A97AFC9A40A5F6AF3F33A3B7689E1E3F7DCD8FEC139DD7D6F4C0720A191A65476DA61E62B892236427C19DB5E1970C322367EC618541F0C9D9B8EC90B226A009093576C41D94DE63804C3DD2D18357379C652E63480A7FCF17A9
310
EE72C29CE5894E3AC17D702940B63D59270887DE46A7D0F36263058F518FBB468FE9A7BE6A7420864373B8D4873369AA8691FA421B3294352543C5CAF65C0F6FEF43CB8BD52C78D0F34F46E550061C419494B6843142CB0F5677F4B52BEB177AEC28E5C52AFF638ACBF84F53D42654E51E77B379102C05791282176B5F693D
310
CB4C7BED567C03504B010214000A0000080000CC70623B3DEE336E79000000790000001B00000000000000000000000000000000006175746F6465736B2D64657369676E2D7061636B6167652E786D6C504B01021400140006080800CC70623BD486FD9CA0000000F40000001300000000000000000000000000B20000005B
310
436F6E74656E745F54797065735D2E786D6C504B01021400140006080800CC70623B1EC5D7A3EB0000007C010000080000000000000000000000000083010000636F72652E786D6C504B01021400140006080800CC70623B55019EA25F0000007C000000070000000000000000000000000094020000636E782E786D6C504B
310
01021400140006080800CC70623B8C9102E971010000D40300000C00000000000000000000000000180300006662782F636F72652E786D6C504B01021400140006080800CC70623BFFEA85907E0000009D0000000B00000000000000000000000000B30400006662782F636E782E786D6C504B01021400140006080800CC70
310
623B4FEEA4082C0100001202000031000000000000000000000000005A0500006662782F39464131463745442D413632322D343644302D413938332D3331353338454246344243312F636F72652E786D6C504B01021400140006080800CC70623BAD7543B64E010000330300003000000000000000000000000000D5060000
310
6662782F39464131463745442D413632322D343644302D413938332D3331353338454246344243312F636E782E786D6C504B01021400140006080800CC70623B16AB87BA640500003C1000003400000000000000000000000000710800006662782F39464131463745442D413632322D343644302D413938332D3331353338
310
454246344243312F6F626A656374732E786D6C504B01021400140006080000CC70623B0000000000000000000000003500000000000000000000000000270E00006662782F39464131463745442D413632322D343644302D413938332D3331353338454246344243312F76657274696365732E62696E504B01021400140006
310
080800CC70623BF270F133060000000400000036000000000000000000000000007A0E00006662782F39464131463745442D413632322D343644302D413938332D3331353338454246344243312F747269616E676C65732E62696E504B01021400140006080000CC70623B0000000000000000000000003700000000000000
310
000000000000D40E00006662782F39464131463745442D413632322D343644302D413938332D3331353338454246344243312F617474726962757465732E62696E504B01021400140006080800CC70623B08DA0BD190000000410100003600000000000000000000000000290F00006662782F39464131463745442D413632
310
322D343644302D413938332D3331353338454246344243312F6469726563746F72792E786D6C504B01021400140006080800CC70623B0D6EF93BFE000000A00100003B000000000000000000000000000D1000006662782F39464131463745442D413632322D343644302D413938332D3331353338454246344243312F7265
310
736F75726365732F636F72652E786D6C504B0506000000000E000E0080040000641100000000
  0
XRECORD
  5
9796
102
{ACAD_REACTORS
330
173
102
}
330
173
100
AcDbXrecord
280
     1
102
MATERIAL
148
0.0
149
0.0
149
0.0
 93
        0
 94
       63
282
     0
 72
     1
 77
     1
171
     1
175
     1
179
     1
273
     0
  0
XRECORD
  5
175
102
{ACAD_REACTORS
330
173
102
}
330
173
100
AcDbXrecord
280
     1
270
     1
271
     1
  0
XRECORD
  5
174
102
{ACAD_REACTORS
330
173
102
}
330
173
100
AcDbXrecord
280
     1
270
     1
271
     1
  0
XRECORD
  5
1FB
102
{ACAD_REACTORS
330
173
102
}
330
173
100
AcDbXrecord
280
     1
 70
     0
 90
1673772943
  1
ECE7A1D2-D628-4531-984C-D00F80459256
310
504B03040A0000080000CC70623B3DEE336E79000000790000001B0000006175746F6465736B2D64657369676E2D7061636B6167652E786D6C3C3F786D6C2076657273696F6E3D22312E302220656E636F64696E673D227574662D3822203F3E3C666F726D6174733E3C666F726D61743E687474703A2F2F736368656D612E
310
6175746F6465736B2E636F6D2F64657369676E2D7061636B6167652F323030393C2F666F726D61743E3C2F666F726D6174733E504B0304140006080800CC70623BD486FD9CA0000000F4000000130000005B436F6E74656E745F54797065735D2E786D6C7D8EC10E82300C865F65E91D8A1E8C310C0EEA1BF002731658846E
310
D98AC1B77784ABF1D8FE5FBFBF75BBCE937A534CCEB38643598122B6FEE978D0B0485F9C41B54DDD7D022595594E1A469170414C76A4D9A4D207E29CF43ECE46F218070CC6BECC4078ACAA135ACF422C856C0E68EA1BF5669944DDD7BCDE7B1F8E415D77AECB980613C2E4AC91FC167A2B244592486606FC29C8FD7F045B9A
310
EF7053A7E60B504B0304140006080800CC70623BD9DDAED0EC0000007C01000008000000636F72652E786D6C8D90416EC3201045AF82665B61836D9CD8C2444DD39CA01740405C94182C03558F5F9C3852BBEB6A467FFE9B197D7EF89E6EE8CB2CC17A37002D0820E394D7D68D03A478C17B4007C117EFE32F1B20272733C0
310
2A83E0E3E2D3BC49CABB685CCCAAF3DA6CA20CC14440EA969B0182FA34932C648AD911AEC52CD5558EA6A0CF2EC329598D1E47ACCEFBECC59A050463A7EA5833865FEBDD0E37353BE3EE8DBDE3F6786A48D375FBF6CC78B9C282473B3DEFABC5C86834888A900E538A49F5419B9EB47DD5BC907D4F082F57FB1F28CDFA9F50
310
B22ED6D5F6EE030B20687EE43E10BC5CB3C8E51E54AE6B6EE207504B0304140006080800CC70623B55019EA25F0000007C00000007000000636E782E786D6C4DCB3B0E80201045D1AD90E915ED2CF8AC45050C11660C8261F98AB1B07AC9C97D42D718D865D3E909258CFD00CCE24AC6E326A164D74DC0B4128928FF326038
310
472BA13128B1252AC747C6BAB984FC68F0B87FE8960A5C09FE86CFB69FBA01504B0304140006080800CC70623BA24EB22D72010000D40300000C0000006662782F636F72652E786D6CC5535B6E833010BC8AE5DF0A6C5E49888CA3A6694ED00B38E05014B091B1518EDFE511A5A9D228FD2A1F60CDEC7A67C6986DCE4D8D7A
310
69BA4AAB0C073EC548AA5C17952A33ECECD15B61B4E1CC686DBF9561A44423333CC098B3D268D7CE50AE9595CA02AA74216750749DB418E5352C32DCE59FB211BE70162ABA93DF8AFC244AE9073ED050C759670D0840D390E18DF9F1706664C23973AE2A66B62A605A75ACA4C13C4976E1364A12EF355A2EBD384AF65EFA96
310
BC7B8BED2EA6719AAE16FB8491A199335B351775B991C2CA02F390D2D40B028F861F41BCA68B7518BFD0D59A524686F29B26D7164F36B94AD9289CE54E6D1DE6010819891F6E21228B3AD1831EC219194284CF98F06DD01008846CC5A1BEF83801D4CBDC6A1303536877A57A513B0953A94FC707FDBE6064EA84A9E3E6E0FA
310
EE8CF0E9198F7784A316AA0413C2C2F2E0ECA0934D1AE6D05A69BCDE9E91D2A611F573361E38FC1375157F5752AE6B6DFE4B11990F88CCBF0719EE23FF02504B0304140006080800CC70623B408A7D3B7C0000009D0000000B0000006662782F636E782E786D6C4DCCD10A83201886E15B91FFDC552A92A0064DBC8F581632
310
D3703A76F9ABD1C18E3E78F878E5F0D9027ABBFCF2292AE86E2D20171F69F6715550CB827B40839639A5F2770314A7CD293819B45C73AAFB45B35BA61ACAA1C1C7E7855C58C15BC331339661262CC762340413D68D77DA5B42298546CBE6573AF60CEB2F504B0304140006080800CC70623B449FB9BD290100001202000031
310
0000006662782F36394639363044362D344446342D343946362D394244322D3234314243333846323333332F636F72652E786D6C8D515B6EC32010BC0AE22B55850D98B871848994463E412FE002495162B07854397EA176A4F62F3F2C9A9D991D587EB84F37F0AD7D30CEF6905418026DA553C65E7A98E219ED203808EE9D
310
8B7F6810D871D23D2C3014FCE25D9A57483A1BB58D19B54EE9151C43D0110279CB971E06F9A5A7B11A53CC8C70ADE6515EC78BAE4895DB992778883E0700CB907242D17643D7E2538BD869608875438BBAE38922CAC8F1BDD90DB4691A5E2F42C153326A951B95E398B3D1FE599322163C9AE9115F7A3D46ADA0A018778810
310
84E907617BDCEE297BC5BB3DC6BC2EF47FA234AB2745C9D8D8D035EE220B50105E2F0DC1954B9FB747187D9F9D8FA0CCDB042D5FA0C015C65B42DF78BD10F3F3B363CB56C7109DCFDFBBB97E662ED92EB62D13BC2E1BCAE5777DB9966D8A1F504B0304140006080800CC70623BAD7543B64E01000033030000300000006662
310
782F36394639363044362D344446342D343946362D394244322D3234314243333846323333332F636E782E786D6CD593CD6EC32010845F0571AD6CE3D48AD20813A9873E410FBD12D82434182C7EAAE6EDBB2424CD25871E7B41D6EC30B3FA84F9E67BB2E40B4234DE8DB46F1925E094D7C6ED479AD3AE5951B2113C789FEE
310
6C943839C1488B4C05DF079FE72A69D8C96C13AAD6B8631503449F83828872B949AC57D26200B826A308D316B4064D6E46FCDA41C05550DC9E483A00797BFD207EFB092A45DE9514C1BBD22178396BD39D891265658C238DEA00936C654E5E433CB65A26D9F6EDB5EBC14EBF49A45CB856E66048291F6939A9A81BB5C89177
310
38143CA680F4AA299D66A042CEB3354A2684DC9D8D178FE0D9B8B41CAAD720F880EE7EF93C0C18769E099ECC04D5A102C8049A8A05632F4DDF376CF1DE0F6BB65C2F8627B65A33C6BB62177CEBBDAD973006829F89F22E814B54F4BC2BE347F8AA8F681390B50FA73F804400B5F542E796F19FF974E7F78DB802FE05E20750
310
4B0304140006080800CC70623B8D05915C650500003B100000340000006662782F36394639363044362D344446342D343946362D394244322D3234314243333846323333332F6F626A656374732E786D6CAD575B6FA33814FE2B887D06429276DA1565D4266D158D3A339A6846FB502932E050B66023DB74D2FDF5FB190C01
310
9276B2973C046C8ECFF53B17071F77456EBD502133CEAE6CDF9DD81665314F32965ED995DA3A17B6F5310C04E7AA47665B8C14F4CAD6DB7618A48257A5D94AE89654B91AEDDEDDFC61C998326A5B714EA4BCB265FC440BE2924AF184CA6737218AB8E976E7FA6E4338649B0A523E8D98964450A6A029F619B8588D52FE7039
310
B1BD30F0F4F730D0FF866AF6369557DB33949F31A9088B0F848DD8CCFCF9F2767A76E99CCDE733677E3EF59D9BBB9BA5E37F984D16E78BC5E5F5ED25044B25C0C96822E8D60EEFE11B91C581D77CEA34368A1F5329E68CD1B8B61F16D63A1B8E092D294B10C78C4A48EB593D192E7DED9BDEE7995E1B91FDEDD3ACEA9FE831
310
6A756F9F7D4D79F4274C90A7A04248AA51D5F8C718DAE06FB2F75AC4796EBE65D22A88A22223B995679120E2D50E41AA49C260C046A35368846B0BECD0DFF3EBEB8AD4F835768F69B9ADF25C43D30E6B646F807FAA64AD59F61715C7A54127C4AACA98BA3006A9D792DAE165E0D59B61A01FB3A9F9D838D2DAE62445C86166
310
F37564E842E7DE6A69879FEEA2DD5AE7E371E1A5E025154AC307D06A03D73EB5978C58FFA4C8E9033066E0F3BD53BEC1F39F91BE7B55103791EDE6BBB991A2046172CB4581D8B893FA674DDA17A77B3B7C413D1B511FD2743BFF8A38F03A658705E3ADF8015C3A3417FF3D7E439FF591DA0B5F18BC20C1B8981957AE6392A3
310
F43C640C01D1A0B4728E2DD4F26DB4B3C3152A252A3B4E913CEC1C72F012782FF88EFF8637AA552DBEF76408E8A8DE9E50F9E1CB3A2DA0DB1B6039A893B56063DC5B3E3FFB5F72E67AB9FEB4AEC496C4F4C1149625DD662C53E89D7BF0F6151A046260D1337DFDC94502430F83B0EE07A130A224BCAD7DAE1D9FB6CD422FF6
310
920702629C4BB9AE79C12F243C6432A6794E18E5552BA56B431AAB5D91317302B2B071E86C3A42B1A02F999E24061403B5D0EB639195DA655DD3EBEAB4FB862DDF579F014AD0E73C22F99E28DA57FB98E75C6CA2D74D53086D600F4786E0FE3144B771A8A7B900F03594DB8A633CBC49B2EDB69228BB479CF863B5E807AAAB
310
23872F6DFEB4129B949CA33823F58830E86D65621E10047D9DB34D862E8EAC3C2ABC2F7B2C40D67CDFE01F5545B92105AF983AC54D93D69E56FB8E797F88913F898A9FEC705D3F9D1B54EC8426FB500D40A03BD0119B06E1B95DDC7EB8F6975367793EBD70E66733DFB9BC982F9CE564727731999F5D4ECFCE3B8D6A4DC2A0
310
6D50FD148437D110834A64C6CDDF57FBACB5C307A2A477DFE4939736CFEF2B175371E0E10CF0DD1D5C15654E0BCA14D1E87DD02FF93782A162C0A3D95F1524A52770F972BF1EE9809D13CE7DD599467F8ECE9ADD85CE85A34CD45355448C64F9E8A031DC2D596ACC6E5DD93D9B82DE2EF5CAF81363A8E47996A0DE24564A79
310
4115AACE09C55E14540231FDA13C319787134EBF34E3A022514E5B4D9E0826E25C02D5805B15ABE1BEF51B26383D445DD9E875EE33FE4C22DA16427D65A3BCA92CA6D28DD01DF5DC53330704308475351050232CCD31583787BA75774AFB06E5070DD0C8EF484E19968C5D83BA5B90B244D31E54D55A372320FE4786B7EA58
310
44E135AA5467CB7EA333A61683CC6A8C3257034C10CF46F40EF9F5BE59BE5BD30C3C72D235E95D10345C1D45445A5F0BB47E46A5EBE5570F9380B5FA629579952296A773720405982B9DE04011506178964401AA8BDF1FBF0A8EAB6861DD6580C0E38217056766716DAEB2D6FA0917D3E4116581EADB879C4E7CFFB11EFACD
310
3D641311495D92C8676CB409A72D18610D803CE8A626049E8EC1887CB5B44CC39883690DDA8399B4B9855B481E7D71D4A9D22F96E5BB73BF5793020C02137BF837504B0304140006080000CC70623B000000000000000000000000350000006662782F36394639363044362D344446342D343946362D394244322D32343142
310
43333846323333332F76657274696365732E62696E504B0304140006080800CC70623BF270F1330600000004000000360000006662782F36394639363044362D344446342D343946362D394244322D3234314243333846323333332F747269616E676C65732E62696E636660600000504B0304140006080000CC70623B0000
310
00000000000000000000370000006662782F36394639363044362D344446342D343946362D394244322D3234314243333846323333332F617474726962757465732E62696E504B0304140006080800CC70623B08DA0BD19000000041010000360000006662782F36394639363044362D344446342D343946362D394244322D
310
3234314243333846323333332F6469726563746F72792E786D6C858F410AC3201045AF22B36F53E9A60B35CBEEBAE80D244E44489C6234F4F835464A48035D0DF398FF9F8AF63D0E6CC63039F212F8F9020C7D47C6792B21C5FE7403D62A1188E2E60C98D7234A5830286103A55745067B9D86B8A3CF9C7F90C11DE607FB14
310
4396D7B6A82D282E9A152AD114D5EF2CB866EEE831B8EEA07A7BB5A8D7D61A2BAAEB7FD5F70921FF497D00504B0304140006080800CC70623BCA768048FE000000A00100003B0000006662782F36394639363044362D344446342D343946362D394244322D3234314243333846323333332F7265736F75726365732F636F72
310
652E786D6C8D50596E833010BD0A9ADFCA60D600328E9AA639412F609909B1126CE4A5EAF16B0295DABFFECC8CDEA2797AECF8353F924FB44E193D409E5248504B332A3D0D10FC95B4901C39B3C6F85F3248B49871801506CE266BC2B243D2688FDA47549B11775038871E12F988C7004EDE7016A9083E2ADC3D5D84BC8B09
310
D33C8D74D471E6BC8D0192EDC93A815B742658898E651BCB59086ADC356A8C3FD555A1055ED7E7E254D615792D0F075295F585746FF53B694EE78A565DD736979A65AB9933AFE69F8CD2A2F038022F28ED489E135A7CE4554F9BBEA85E68DB53CAB255FEC71496F19FA6A0B42F8B3DEE6673C0F318E4497096AD7DC5F52C33
310
EEB55BFE0D504B010214000A0000080000CC70623B3DEE336E79000000790000001B00000000000000000000000000000000006175746F6465736B2D64657369676E2D7061636B6167652E786D6C504B01021400140006080800CC70623BD486FD9CA0000000F40000001300000000000000000000000000B20000005B436F
310
6E74656E745F54797065735D2E786D6C504B01021400140006080800CC70623BD9DDAED0EC0000007C010000080000000000000000000000000083010000636F72652E786D6C504B01021400140006080800CC70623B55019EA25F0000007C000000070000000000000000000000000095020000636E782E786D6C504B0102
310
1400140006080800CC70623BA24EB22D72010000D40300000C00000000000000000000000000190300006662782F636F72652E786D6C504B01021400140006080800CC70623B408A7D3B7C0000009D0000000B00000000000000000000000000B50400006662782F636E782E786D6C504B01021400140006080800CC70623B
310
449FB9BD290100001202000031000000000000000000000000005A0500006662782F36394639363044362D344446342D343946362D394244322D3234314243333846323333332F636F72652E786D6C504B01021400140006080800CC70623BAD7543B64E010000330300003000000000000000000000000000D20600006662
310
782F36394639363044362D344446342D343946362D394244322D3234314243333846323333332F636E782E786D6C504B01021400140006080800CC70623B8D05915C650500003B10000034000000000000000000000000006E0800006662782F36394639363044362D344446342D343946362D394244322D32343142433338
310
46323333332F6F626A656374732E786D6C504B01021400140006080000CC70623B0000000000000000000000003500000000000000000000000000250E00006662782F36394639363044362D344446342D343946362D394244322D3234314243333846323333332F76657274696365732E62696E504B010214001400060808
310
00CC70623BF270F13306000000040000003600000000000000000000000000780E00006662782F36394639363044362D344446342D343946362D394244322D3234314243333846323333332F747269616E676C65732E62696E504B01021400140006080000CC70623B00000000000000000000000037000000000000000000
310
00000000D20E00006662782F36394639363044362D344446342D343946362D394244322D3234314243333846323333332F617474726962757465732E62696E504B01021400140006080800CC70623B08DA0BD190000000410100003600000000000000000000000000270F00006662782F36394639363044362D344446342D
310
343946362D394244322D3234314243333846323333332F6469726563746F72792E786D6C504B01021400140006080800CC70623BCA768048FE000000A00100003B000000000000000000000000000B1000006662782F36394639363044362D344446342D343946362D394244322D3234314243333846323333332F7265736F
310
75726365732F636F72652E786D6C504B0506000000000E000E0080040000621100000000
  0
XRECORD
  5
176
102
{ACAD_REACTORS
330
173
102
}
330
173
100
AcDbXrecord
280
     1
270
     1
271
     1
  0
XRECORD
  5
177
102
{ACAD_REACTORS
330
173
102
}
330
173
100
AcDbXrecord
280
     1
270
     1
271
     1
  0
XRECORD
  5
97B8
102
{ACAD_REACTORS
330
97B7
102
}
330
97B7
100
AcDbXrecord
280
     1
102
ACAD_ROUNDTRIP_2012_MLEADER_STYLE
298
     1
  0
XRECORD
  5
97CA
102
{ACAD_REACTORS
330
97C9
102
}
330
97C9
100
AcDbXrecord
280
     1
102
DISPLAYNAME
  1
Metric50
102
FLAGS
 90
        0
  0
CELLSTYLEMAP
  5
978A
102
{ACAD_REACTORS
330
162
102
}
330
162
100
AcDbCellStyleMap
 90
        3
300
CELLSTYLE
  1
TABLEFORMAT_BEGIN
 90
        5
170
     1
 91
        0
 92
    32768
 62
   257
 93
        1
300
CONTENTFORMAT
  1
CONTENTFORMAT_BEGIN
 90
        0
 91
        0
 92
      512
 93
        0
300

 40
0.0
140
1.0
 94
        5
 62
     0
340
11
144
6.0
309
CONTENTFORMAT_END
171
     1
301
MARGIN
  1
CELLMARGIN_BEGIN
 40
1.5
 40
1.5
 40
1.5
 40
1.5
 40
4.5
 40
4.5
309
CELLMARGIN_END
 94
        6
 95
        1
302
GRIDFORMAT
  1
GRIDFORMAT_BEGIN
 90
        0
 91
        1
 62
     0
 92
       -2
340
14
 93
        0
 40
1.125
309
GRIDFORMAT_END
 95
        2
302
GRIDFORMAT
  1
GRIDFORMAT_BEGIN
 90
        0
 91
        1
 62
     0
 92
       -2
340
14
 93
        0
 40
1.125
309
GRIDFORMAT_END
 95
        4
302
GRIDFORMAT
  1
GRIDFORMAT_BEGIN
 90
        0
 91
        1
 62
     0
 92
       -2
340
14
 93
        0
 40
1.125
309
GRIDFORMAT_END
 95
        8
302
GRIDFORMAT
  1
GRIDFORMAT_BEGIN
 90
        0
 91
        1
 62
     0
 92
       -2
340
14
 93
        0
 40
1.125
309
GRIDFORMAT_END
 95
       16
302
GRIDFORMAT
  1
GRIDFORMAT_BEGIN
 90
        0
 91
        1
 62
     0
 92
       -2
340
14
 93
        0
 40
1.125
309
GRIDFORMAT_END
 95
       32
302
GRIDFORMAT
  1
GRIDFORMAT_BEGIN
 90
        0
 91
        1
 62
     0
 92
       -2
340
14
 93
        0
 40
1.125
309
GRIDFORMAT_END
309
TABLEFORMAT_END
  1
CELLSTYLE_BEGIN
 90
        1
 91
        1
300
_TITLE
309
CELLSTYLE_END
300
CELLSTYLE
  1
TABLEFORMAT_BEGIN
 90
        5
170
     1
 91
        0
 92
        0
 62
   257
 93
        1
300
CONTENTFORMAT
  1
CONTENTFORMAT_BEGIN
 90
        0
 91
        0
 92
      512
 93
        0
300

 40
0.0
140
1.0
 94
        5
 62
     0
340
11
144
4.5
309
CONTENTFORMAT_END
171
     1
301
MARGIN
  1
CELLMARGIN_BEGIN
 40
1.5
 40
1.5
 40
1.5
 40
1.5
 40
4.5
 40
4.5
309
CELLMARGIN_END
 94
        6
 95
        1
302
GRIDFORMAT
  1
GRIDFORMAT_BEGIN
 90
        0
 91
        1
 62
     0
 92
       -2
340
14
 93
        0
 40
1.125
309
GRIDFORMAT_END
 95
        2
302
GRIDFORMAT
  1
GRIDFORMAT_BEGIN
 90
        0
 91
        1
 62
     0
 92
       -2
340
14
 93
        0
 40
1.125
309
GRIDFORMAT_END
 95
        4
302
GRIDFORMAT
  1
GRIDFORMAT_BEGIN
 90
        0
 91
        1
 62
     0
 92
       -2
340
14
 93
        0
 40
1.125
309
GRIDFORMAT_END
 95
        8
302
GRIDFORMAT
  1
GRIDFORMAT_BEGIN
 90
        0
 91
        1
 62
     0
 92
       -2
340
14
 93
        0
 40
1.125
309
GRIDFORMAT_END
 95
       16
302
GRIDFORMAT
  1
GRIDFORMAT_BEGIN
 90
        0
 91
        1
 62
     0
 92
       -2
340
14
 93
        0
 40
1.125
309
GRIDFORMAT_END
 95
       32
302
GRIDFORMAT
  1
GRIDFORMAT_BEGIN
 90
        0
 91
        1
 62
     0
 92
       -2
340
14
 93
        0
 40
1.125
309
GRIDFORMAT_END
309
TABLEFORMAT_END
  1
CELLSTYLE_BEGIN
 90
        2
 91
        1
300
_HEADER
309
CELLSTYLE_END
300
CELLSTYLE
  1
TABLEFORMAT_BEGIN
 90
        5
170
     1
 91
        0
 92
        0
 62
   257
 93
        1
300
CONTENTFORMAT
  1
CONTENTFORMAT_BEGIN
 90
        0
 91
        0
 92
      512
 93
        0
300

 40
0.0
140
1.0
 94
        2
 62
     0
340
11
144
4.5
309
CONTENTFORMAT_END
171
     1
301
MARGIN
  1
CELLMARGIN_BEGIN
 40
1.5
 40
1.5
 40
1.5
 40
1.5
 40
4.5
 40
4.5
309
CELLMARGIN_END
 94
        6
 95
        1
302
GRIDFORMAT
  1
GRIDFORMAT_BEGIN
 90
        0
 91
        1
 62
     0
 92
       -2
340
14
 93
        0
 40
1.125
309
GRIDFORMAT_END
 95
        2
302
GRIDFORMAT
  1
GRIDFORMAT_BEGIN
 90
        0
 91
        1
 62
     0
 92
       -2
340
14
 93
        0
 40
1.125
309
GRIDFORMAT_END
 95
        4
302
GRIDFORMAT
  1
GRIDFORMAT_BEGIN
 90
        0
 91
        1
 62
     0
 92
       -2
340
14
 93
        0
 40
1.125
309
GRIDFORMAT_END
 95
        8
302
GRIDFORMAT
  1
GRIDFORMAT_BEGIN
 90
        0
 91
        1
 62
     0
 92
       -2
340
14
 93
        0
 40
1.125
309
GRIDFORMAT_END
 95
       16
302
GRIDFORMAT
  1
GRIDFORMAT_BEGIN
 90
        0
 91
        1
 62
     0
 92
       -2
340
14
 93
        0
 40
1.125
309
GRIDFORMAT_END
 95
       32
302
GRIDFORMAT
  1
GRIDFORMAT_BEGIN
 90
        0
 91
        1
 62
     0
 92
       -2
340
14
 93
        0
 40
1.125
309
GRIDFORMAT_END
309
TABLEFORMAT_END
  1
CELLSTYLE_BEGIN
 90
        3
 91
        2
300
_DATA
309
CELLSTYLE_END
  0
XRECORD
  5
978F
102
{ACAD_REACTORS
330
162
102
}
330
162
100
AcDbXrecord
280
     1
102
ACAD_ROUNDTRIP_PRE2007_TABLESTYLE
 90
      512
 91
        0
  1

 92
      512
 93
        0
  2

 94
      512
 95
        0
  3

  0
XRECORD
  5
97A2
102
{ACAD_REACTORS
330
97A1
102
}
330
97A1
100
AcDbXrecord
280
     1
102
RTVSPost2010Prop28
280
     1
102
RTVSPost2010PropOp28
 70
     1
102
RTVSPost2010Prop29
280
     1
102
RTVSPost2010PropOp29
 70
     1
102
RTVSPost2010Prop30
280
     0
102
RTVSPost2010PropOp30
 70
     1
102
RTVSPost2010Prop31
280
     0
102
RTVSPost2010PropOp31
 70
     1
102
RTVSPost2010Prop32
280
     0
102
RTVSPost2010PropOp32
 70
     1
102
RTVSPost2010Prop33
280
     0
102
RTVSPost2010PropOp33
 70
     1
102
RTVSPost2010Prop34
280
     0
102
RTVSPost2010PropOp34
 70
     1
102
RTVSPost2010Prop35
280
     0
102
RTVSPost2010PropOp35
 70
     1
102
RTVSPost2010Prop36
280
     0
102
RTVSPost2010PropOp36
 70
     1
102
RTVSPost2010Prop37
 90
       50
102
RTVSPost2010PropOp37
 70
     1
102
RTVSPost2010Prop38
140
0.0
102
RTVSPost2010PropOp38
 70
     1
102
RTVSPost2010Prop39
140
1.0
102
RTVSPost2010PropOp39
 70
     1
102
RTVSPost2010Prop40
 90
        0
102
RTVSPost2010PropOp40
 70
     1
102
RTVSPost2010Prop41ColorIndex
 90
       18
102
RTVSPost2010Prop41ColorRGB
 90
        0
102
RTVSPost2010PropOp41
 70
     1
102
RTVSPost2010Prop42
 90
       50
102
RTVSPost2010PropOp42
 70
     1
102
RTVSPost2010Prop43
 90
        3
102
RTVSPost2010PropOp43
 70
     1
102
RTVSPost2010Prop44ColorIndex
 90
        5
102
RTVSPost2010Prop44ColorRGB
 90
      255
102
RTVSPost2010PropOp44
 70
     1
102
RTVSPost2010Prop45
280
     0
102
RTVSPost2010PropOp45
 70
     1
102
RTVSPost2010Prop46
 90
       50
102
RTVSPost2010PropOp46
 70
     1
102
RTVSPost2010Prop47
 90
       50
102
RTVSPost2010PropOp47
 70
     1
102
RTVSPost2010Prop48
 90
       50
102
RTVSPost2010PropOp48
 70
     1
102
RTVSPost2010Prop49
280
     0
102
RTVSPost2010PropOp49
 70
     1
102
RTVSPost2010Prop50
 90
       50
102
RTVSPost2010PropOp50
 70
     1
102
RTVSPost2010Prop51ColorIndex
 90
      256
102
RTVSPost2010Prop51ColorRGB
 90
-16777216
102
RTVSPost2010PropOp51
 70
     0
102
RTVSPost2010Prop52
140
1.0
102
RTVSPost2010PropOp52
 70
     0
102
RTVSPost2010Prop53
 90
        2
102
RTVSPost2010PropOp53
 70
     1
102
RTVSPost2010Prop54
  1
strokes_ogs.tif
102
RTVSPost2010PropOp54
 70
     1
102
RTVSPost2010Prop55
280
     0
102
RTVSPost2010PropOp55
 70
     1
102
RTVSPost2010Prop56
140
1.0
102
RTVSPost2010PropOp56
 70
     1
102
RTVSPost2010Prop57
140
1.0
102
RTVSPost2010PropOp57
 70
     1
102
RTVSPropertyOp0
 70
     1
102
RTVSPropertyOp1
 70
     1
102
RTVSPropertyOp2
 70
     1
102
RTVSPropertyOp3
 70
     1
102
RTVSPropertyOp4
 70
     1
102
RTVSPropertyOp5
 70
     1
102
RTVSPropertyOp6
 70
     1
102
RTVSPropertyOp7
 70
     1
102
RTVSPropertyOp8
 70
     1
102
RTVSPropertyOp9
 70
     1
102
RTVSPropertyOp10
 70
     1
102
RTVSPropertyOp11
 70
     1
102
RTVSPropertyOp12
 70
     1
102
RTVSPropertyOp13
 70
     1
102
RTVSPropertyOp14
 70
     1
102
RTVSPropertyOp15
 70
     1
102
RTVSPropertyOp16
 70
     1
102
RTVSPropertyOp17
 70
     1
102
RTVSPropertyOp18
 70
     1
102
RTVSPropertyOp19
 70
     1
102
RTVSPropertyOp20
 70
     1
102
RTVSPropertyOp21
 70
     1
102
RTVSPropertyOp22
 70
     1
102
RTVSPropertyOp23
 70
     1
102
RTVSPropertyOp24
 70
     1
102
RTVSPropertyOp25
 70
     1
102
RTVSPropertyOp26
 70
     1
102
RTVSPropertyOp27
 70
     1
102
RTVSPropertyOp28
 70
     1
102
RTVSPropertyOp29
 70
     1
102
RTVSPropertyOp30
 70
     1
102
RTVSPropertyOp31
 70
     1
102
RTVSPropertyOp32
 70
     1
102
RTVSPropertyOp33
 70
     1
102
RTVSPropertyOp34
 70
     1
102
RTVSPropertyOp35
 70
     1
102
RTVSPropertyOp36
 70
     1
102
RTVSPropertyOp37
 70
     1
102
RTVSPropertyOp38
 70
     1
102
RTVSPropertyOp39
 70
     1
102
RTVSPropertyOp40
 70
     1
102
RTVSPropertyOp41
 70
     1
102
RTVSPropertyOp42
 70
     1
102
RTVSPropertyOp43
 70
     1
102
RTVSPropertyOp44
 70
     1
102
RTVSPropertyOp45
 70
     1
102
RTVSPropertyOp46
 70
     1
102
RTVSPropertyOp47
 70
     1
102
RTVSPropertyOp48
 70
     1
102
RTVSPropertyOp49
 70
     1
102
RTVSPropertyOp50
 70
     1
102
RTVSPropertyOp51
 70
     0
102
RTVSPropertyOp52
 70
     0
102
RTVSPropertyOp53
 70
     1
102
RTVSPropertyOp54
 70
     1
102
RTVSPropertyOp55
 70
     1
102
RTVSPropertyOp56
 70
     1
102
RTVSPropertyOp57
 70
     1
102
RTVSPropertyOp58
 70
     1
102
RTVSPropertyOp59
 70
     1
102
RTVSPropertyOp60
 70
     1
102
RTVSPropertyOp61
 70
     1
102
RTVSPropertyOp62
 70
     1
  0
XRECORD
  5
97A0
102
{ACAD_REACTORS
330
979F
102
}
330
979F
100
AcDbXrecord
280
     1
102
RTVSPost2010Prop28
280
     0
102
RTVSPost2010PropOp28
 70
     1
102
RTVSPost2010Prop29
280
     1
102
RTVSPost2010PropOp29
 70
     1
102
RTVSPost2010Prop30
280
     1
102
RTVSPost2010PropOp30
 70
     1
102
RTVSPost2010Prop31
280
     0
102
RTVSPost2010PropOp31
 70
     1
102
RTVSPost2010Prop32
280
     0
102
RTVSPost2010PropOp32
 70
     1
102
RTVSPost2010Prop33
280
     0
102
RTVSPost2010PropOp33
 70
     1
102
RTVSPost2010Prop34
280
     0
102
RTVSPost2010PropOp34
 70
     1
102
RTVSPost2010Prop35
280
     0
102
RTVSPost2010PropOp35
 70
     1
102
RTVSPost2010Prop36
280
     0
102
RTVSPost2010PropOp36
 70
     1
102
RTVSPost2010Prop37
 90
       50
102
RTVSPost2010PropOp37
 70
     1
102
RTVSPost2010Prop38
140
0.0
102
RTVSPost2010PropOp38
 70
     1
102
RTVSPost2010Prop39
140
1.0
102
RTVSPost2010PropOp39
 70
     1
102
RTVSPost2010Prop40
 90
        0
102
RTVSPost2010PropOp40
 70
     1
102
RTVSPost2010Prop41ColorIndex
 90
       18
102
RTVSPost2010Prop41ColorRGB
 90
        0
102
RTVSPost2010PropOp41
 70
     1
102
RTVSPost2010Prop42
 90
       50
102
RTVSPost2010PropOp42
 70
     1
102
RTVSPost2010Prop43
 90
        3
102
RTVSPost2010PropOp43
 70
     1
102
RTVSPost2010Prop44ColorIndex
 90
        5
102
RTVSPost2010Prop44ColorRGB
 90
      255
102
RTVSPost2010PropOp44
 70
     1
102
RTVSPost2010Prop45
280
     0
102
RTVSPost2010PropOp45
 70
     1
102
RTVSPost2010Prop46
 90
       50
102
RTVSPost2010PropOp46
 70
     1
102
RTVSPost2010Prop47
 90
       50
102
RTVSPost2010PropOp47
 70
     1
102
RTVSPost2010Prop48
 90
       50
102
RTVSPost2010PropOp48
 70
     1
102
RTVSPost2010Prop49
280
     0
102
RTVSPost2010PropOp49
 70
     1
102
RTVSPost2010Prop50
 90
       50
102
RTVSPost2010PropOp50
 70
     1
102
RTVSPost2010Prop51ColorIndex
 90
      256
102
RTVSPost2010Prop51ColorRGB
 90
-16777216
102
RTVSPost2010PropOp51
 70
     0
102
RTVSPost2010Prop52
140
1.0
102
RTVSPost2010PropOp52
 70
     0
102
RTVSPost2010Prop53
 90
        2
102
RTVSPost2010PropOp53
 70
     1
102
RTVSPost2010Prop54
  1
strokes_ogs.tif
102
RTVSPost2010PropOp54
 70
     1
102
RTVSPost2010Prop55
280
     0
102
RTVSPost2010PropOp55
 70
     1
102
RTVSPost2010Prop56
140
1.0
102
RTVSPost2010PropOp56
 70
     1
102
RTVSPost2010Prop57
140
1.0
102
RTVSPost2010PropOp57
 70
     1
102
RTVSPropertyOp0
 70
     1
102
RTVSPropertyOp1
 70
     1
102
RTVSPropertyOp2
 70
     1
102
RTVSPropertyOp3
 70
     1
102
RTVSPropertyOp4
 70
     1
102
RTVSPropertyOp5
 70
     1
102
RTVSPropertyOp6
 70
     1
102
RTVSPropertyOp7
 70
     1
102
RTVSPropertyOp8
 70
     1
102
RTVSPropertyOp9
 70
     1
102
RTVSPropertyOp10
 70
     1
102
RTVSPropertyOp11
 70
     1
102
RTVSPropertyOp12
 70
     1
102
RTVSPropertyOp13
 70
     1
102
RTVSPropertyOp14
 70
     1
102
RTVSPropertyOp15
 70
     1
102
RTVSPropertyOp16
 70
     1
102
RTVSPropertyOp17
 70
     1
102
RTVSPropertyOp18
 70
     1
102
RTVSPropertyOp19
 70
     1
102
RTVSPropertyOp20
 70
     1
102
RTVSPropertyOp21
 70
     1
102
RTVSPropertyOp22
 70
     1
102
RTVSPropertyOp23
 70
     1
102
RTVSPropertyOp24
 70
     1
102
RTVSPropertyOp25
 70
     1
102
RTVSPropertyOp26
 70
     1
102
RTVSPropertyOp27
 70
     1
102
RTVSPropertyOp28
 70
     1
102
RTVSPropertyOp29
 70
     1
102
RTVSPropertyOp30
 70
     1
102
RTVSPropertyOp31
 70
     1
102
RTVSPropertyOp32
 70
     1
102
RTVSPropertyOp33
 70
     1
102
RTVSPropertyOp34
 70
     1
102
RTVSPropertyOp35
 70
     1
102
RTVSPropertyOp36
 70
     1
102
RTVSPropertyOp37
 70
     1
102
RTVSPropertyOp38
 70
     1
102
RTVSPropertyOp39
 70
     1
102
RTVSPropertyOp40
 70
     1
102
RTVSPropertyOp41
 70
     1
102
RTVSPropertyOp42
 70
     1
102
RTVSPropertyOp43
 70
     1
102
RTVSPropertyOp44
 70
     1
102
RTVSPropertyOp45
 70
     1
102
RTVSPropertyOp46
 70
     1
102
RTVSPropertyOp47
 70
     1
102
RTVSPropertyOp48
 70
     1
102
RTVSPropertyOp49
 70
     1
102
RTVSPropertyOp50
 70
     1
102
RTVSPropertyOp51
 70
     0
102
RTVSPropertyOp52
 70
     0
102
RTVSPropertyOp53
 70
     1
102
RTVSPropertyOp54
 70
     1
102
RTVSPropertyOp55
 70
     1
102
RTVSPropertyOp56
 70
     1
102
RTVSPropertyOp57
 70
     1
102
RTVSPropertyOp58
 70
     1
102
RTVSPropertyOp59
 70
     1
102
RTVSPropertyOp60
 70
     1
102
RTVSPropertyOp61
 70
     1
102
RTVSPropertyOp62
 70
     1
  0
XRECORD
  5
97AE
102
{ACAD_REACTORS
330
97AD
102
}
330
97AD
100
AcDbXrecord
280
     1
102
RTVSPost2010Prop28
280
     0
102
RTVSPost2010PropOp28
 70
     1
102
RTVSPost2010Prop29
280
     1
102
RTVSPost2010PropOp29
 70
     1
102
RTVSPost2010Prop30
280
     1
102
RTVSPost2010PropOp30
 70
     1
102
RTVSPost2010Prop31
280
     0
102
RTVSPost2010PropOp31
 70
     1
102
RTVSPost2010Prop32
280
     0
102
RTVSPost2010PropOp32
 70
     1
102
RTVSPost2010Prop33
280
     0
102
RTVSPost2010PropOp33
 70
     1
102
RTVSPost2010Prop34
280
     0
102
RTVSPost2010PropOp34
 70
     1
102
RTVSPost2010Prop35
280
     0
102
RTVSPost2010PropOp35
 70
     1
102
RTVSPost2010Prop36
280
     0
102
RTVSPost2010PropOp36
 70
     1
102
RTVSPost2010Prop37
 90
       50
102
RTVSPost2010PropOp37
 70
     1
102
RTVSPost2010Prop38
140
0.0
102
RTVSPost2010PropOp38
 70
     1
102
RTVSPost2010Prop39
140
1.0
102
RTVSPost2010PropOp39
 70
     1
102
RTVSPost2010Prop40
 90
        0
102
RTVSPost2010PropOp40
 70
     1
102
RTVSPost2010Prop41ColorIndex
 90
       18
102
RTVSPost2010Prop41ColorRGB
 90
        0
102
RTVSPost2010PropOp41
 70
     1
102
RTVSPost2010Prop42
 90
       50
102
RTVSPost2010PropOp42
 70
     1
102
RTVSPost2010Prop43
 90
        3
102
RTVSPost2010PropOp43
 70
     1
102
RTVSPost2010Prop44ColorIndex
 90
        5
102
RTVSPost2010Prop44ColorRGB
 90
      255
102
RTVSPost2010PropOp44
 70
     1
102
RTVSPost2010Prop45
280
     0
102
RTVSPost2010PropOp45
 70
     1
102
RTVSPost2010Prop46
 90
       50
102
RTVSPost2010PropOp46
 70
     1
102
RTVSPost2010Prop47
 90
       50
102
RTVSPost2010PropOp47
 70
     1
102
RTVSPost2010Prop48
 90
       50
102
RTVSPost2010PropOp48
 70
     1
102
RTVSPost2010Prop49
280
     0
102
RTVSPost2010PropOp49
 70
     1
102
RTVSPost2010Prop50
 90
       50
102
RTVSPost2010PropOp50
 70
     1
102
RTVSPost2010Prop51ColorIndex
 90
      256
102
RTVSPost2010Prop51ColorRGB
 90
-16777216
102
RTVSPost2010PropOp51
 70
     0
102
RTVSPost2010Prop52
140
1.0
102
RTVSPost2010PropOp52
 70
     0
102
RTVSPost2010Prop53
 90
        2
102
RTVSPost2010PropOp53
 70
     1
102
RTVSPost2010Prop54
  1
strokes_ogs.tif
102
RTVSPost2010PropOp54
 70
     1
102
RTVSPost2010Prop55
280
     0
102
RTVSPost2010PropOp55
 70
     1
102
RTVSPost2010Prop56
140
1.0
102
RTVSPost2010PropOp56
 70
     1
102
RTVSPost2010Prop57
140
1.0
102
RTVSPost2010PropOp57
 70
     1
102
RTVSPropertyOp0
 70
     1
102
RTVSPropertyOp1
 70
     1
102
RTVSPropertyOp2
 70
     1
102
RTVSPropertyOp3
 70
     1
102
RTVSPropertyOp4
 70
     1
102
RTVSPropertyOp5
 70
     1
102
RTVSPropertyOp6
 70
     1
102
RTVSPropertyOp7
 70
     1
102
RTVSPropertyOp8
 70
     1
102
RTVSPropertyOp9
 70
     1
102
RTVSPropertyOp10
 70
     1
102
RTVSPropertyOp11
 70
     1
102
RTVSPropertyOp12
 70
     1
102
RTVSPropertyOp13
 70
     1
102
RTVSPropertyOp14
 70
     1
102
RTVSPropertyOp15
 70
     1
102
RTVSPropertyOp16
 70
     1
102
RTVSPropertyOp17
 70
     1
102
RTVSPropertyOp18
 70
     1
102
RTVSPropertyOp19
 70
     1
102
RTVSPropertyOp20
 70
     1
102
RTVSPropertyOp21
 70
     1
102
RTVSPropertyOp22
 70
     1
102
RTVSPropertyOp23
 70
     1
102
RTVSPropertyOp24
 70
     1
102
RTVSPropertyOp25
 70
     1
102
RTVSPropertyOp26
 70
     1
102
RTVSPropertyOp27
 70
     1
102
RTVSPropertyOp28
 70
     1
102
RTVSPropertyOp29
 70
     1
102
RTVSPropertyOp30
 70
     1
102
RTVSPropertyOp31
 70
     1
102
RTVSPropertyOp32
 70
     1
102
RTVSPropertyOp33
 70
     1
102
RTVSPropertyOp34
 70
     1
102
RTVSPropertyOp35
 70
     1
102
RTVSPropertyOp36
 70
     1
102
RTVSPropertyOp37
 70
     1
102
RTVSPropertyOp38
 70
     1
102
RTVSPropertyOp39
 70
     1
102
RTVSPropertyOp40
 70
     1
102
RTVSPropertyOp41
 70
     1
102
RTVSPropertyOp42
 70
     1
102
RTVSPropertyOp43
 70
     1
102
RTVSPropertyOp44
 70
     1
102
RTVSPropertyOp45
 70
     1
102
RTVSPropertyOp46
 70
     1
102
RTVSPropertyOp47
 70
     1
102
RTVSPropertyOp48
 70
     1
102
RTVSPropertyOp49
 70
     1
102
RTVSPropertyOp50
 70
     1
102
RTVSPropertyOp51
 70
     0
102
RTVSPropertyOp52
 70
     0
102
RTVSPropertyOp53
 70
     1
102
RTVSPropertyOp54
 70
     1
102
RTVSPropertyOp55
 70
     1
102
RTVSPropertyOp56
 70
     1
102
RTVSPropertyOp57
 70
     1
102
RTVSPropertyOp58
 70
     1
102
RTVSPropertyOp59
 70
     1
102
RTVSPropertyOp60
 70
     1
102
RTVSPropertyOp61
 70
     1
102
RTVSPropertyOp62
 70
     1
  0
XRECORD
  5
97B6
102
{ACAD_REACTORS
330
97B5
102
}
330
97B5
100
AcDbXrecord
280
     1
102
RTVSPost2010Prop28
280
     0
102
RTVSPost2010PropOp28
 70
     1
102
RTVSPost2010Prop29
280
     1
102
RTVSPost2010PropOp29
 70
     1
102
RTVSPost2010Prop30
280
     1
102
RTVSPost2010PropOp30
 70
     1
102
RTVSPost2010Prop31
280
     0
102
RTVSPost2010PropOp31
 70
     1
102
RTVSPost2010Prop32
280
     0
102
RTVSPost2010PropOp32
 70
     1
102
RTVSPost2010Prop33
280
     0
102
RTVSPost2010PropOp33
 70
     1
102
RTVSPost2010Prop34
280
     0
102
RTVSPost2010PropOp34
 70
     1
102
RTVSPost2010Prop35
280
     0
102
RTVSPost2010PropOp35
 70
     1
102
RTVSPost2010Prop36
280
     0
102
RTVSPost2010PropOp36
 70
     1
102
RTVSPost2010Prop37
 90
       50
102
RTVSPost2010PropOp37
 70
     1
102
RTVSPost2010Prop38
140
0.0
102
RTVSPost2010PropOp38
 70
     1
102
RTVSPost2010Prop39
140
1.0
102
RTVSPost2010PropOp39
 70
     1
102
RTVSPost2010Prop40
 90
        0
102
RTVSPost2010PropOp40
 70
     1
102
RTVSPost2010Prop41ColorIndex
 90
       18
102
RTVSPost2010Prop41ColorRGB
 90
        0
102
RTVSPost2010PropOp41
 70
     1
102
RTVSPost2010Prop42
 90
       50
102
RTVSPost2010PropOp42
 70
     1
102
RTVSPost2010Prop43
 90
        3
102
RTVSPost2010PropOp43
 70
     1
102
RTVSPost2010Prop44ColorIndex
 90
        5
102
RTVSPost2010Prop44ColorRGB
 90
      255
102
RTVSPost2010PropOp44
 70
     1
102
RTVSPost2010Prop45
280
     0
102
RTVSPost2010PropOp45
 70
     1
102
RTVSPost2010Prop46
 90
       50
102
RTVSPost2010PropOp46
 70
     1
102
RTVSPost2010Prop47
 90
       50
102
RTVSPost2010PropOp47
 70
     1
102
RTVSPost2010Prop48
 90
       50
102
RTVSPost2010PropOp48
 70
     1
102
RTVSPost2010Prop49
280
     0
102
RTVSPost2010PropOp49
 70
     1
102
RTVSPost2010Prop50
 90
       50
102
RTVSPost2010PropOp50
 70
     1
102
RTVSPost2010Prop51ColorIndex
 90
      256
102
RTVSPost2010Prop51ColorRGB
 90
-16777216
102
RTVSPost2010PropOp51
 70
     0
102
RTVSPost2010Prop52
140
1.0
102
RTVSPost2010PropOp52
 70
     0
102
RTVSPost2010Prop53
 90
        2
102
RTVSPost2010PropOp53
 70
     1
102
RTVSPost2010Prop54
  1
strokes_ogs.tif
102
RTVSPost2010PropOp54
 70
     1
102
RTVSPost2010Prop55
280
     0
102
RTVSPost2010PropOp55
 70
     1
102
RTVSPost2010Prop56
140
1.0
102
RTVSPost2010PropOp56
 70
     1
102
RTVSPost2010Prop57
140
1.0
102
RTVSPost2010PropOp57
 70
     1
102
RTVSPropertyOp0
 70
     1
102
RTVSPropertyOp1
 70
     1
102
RTVSPropertyOp2
 70
     1
102
RTVSPropertyOp3
 70
     1
102
RTVSPropertyOp4
 70
     1
102
RTVSPropertyOp5
 70
     1
102
RTVSPropertyOp6
 70
     1
102
RTVSPropertyOp7
 70
     1
102
RTVSPropertyOp8
 70
     1
102
RTVSPropertyOp9
 70
     1
102
RTVSPropertyOp10
 70
     1
102
RTVSPropertyOp11
 70
     1
102
RTVSPropertyOp12
 70
     1
102
RTVSPropertyOp13
 70
     1
102
RTVSPropertyOp14
 70
     1
102
RTVSPropertyOp15
 70
     1
102
RTVSPropertyOp16
 70
     1
102
RTVSPropertyOp17
 70
     1
102
RTVSPropertyOp18
 70
     1
102
RTVSPropertyOp19
 70
     1
102
RTVSPropertyOp20
 70
     1
102
RTVSPropertyOp21
 70
     1
102
RTVSPropertyOp22
 70
     1
102
RTVSPropertyOp23
 70
     1
102
RTVSPropertyOp24
 70
     1
102
RTVSPropertyOp25
 70
     1
102
RTVSPropertyOp26
 70
     1
102
RTVSPropertyOp27
 70
     1
102
RTVSPropertyOp28
 70
     1
102
RTVSPropertyOp29
 70
     1
102
RTVSPropertyOp30
 70
     1
102
RTVSPropertyOp31
 70
     1
102
RTVSPropertyOp32
 70
     1
102
RTVSPropertyOp33
 70
     1
102
RTVSPropertyOp34
 70
     1
102
RTVSPropertyOp35
 70
     1
102
RTVSPropertyOp36
 70
     1
102
RTVSPropertyOp37
 70
     1
102
RTVSPropertyOp38
 70
     1
102
RTVSPropertyOp39
 70
     1
102
RTVSPropertyOp40
 70
     1
102
RTVSPropertyOp41
 70
     1
102
RTVSPropertyOp42
 70
     1
102
RTVSPropertyOp43
 70
     1
102
RTVSPropertyOp44
 70
     1
102
RTVSPropertyOp45
 70
     1
102
RTVSPropertyOp46
 70
     1
102
RTVSPropertyOp47
 70
     1
102
RTVSPropertyOp48
 70
     1
102
RTVSPropertyOp49
 70
     1
102
RTVSPropertyOp50
 70
     1
102
RTVSPropertyOp51
 70
     0
102
RTVSPropertyOp52
 70
     0
102
RTVSPropertyOp53
 70
     1
102
RTVSPropertyOp54
 70
     1
102
RTVSPropertyOp55
 70
     1
102
RTVSPropertyOp56
 70
     1
102
RTVSPropertyOp57
 70
     1
102
RTVSPropertyOp58
 70
     1
102
RTVSPropertyOp59
 70
     1
102
RTVSPropertyOp60
 70
     1
102
RTVSPropertyOp61
 70
     1
102
RTVSPropertyOp62
 70
     1
  0
XRECORD
  5
97A8
102
{ACAD_REACTORS
330
97A7
102
}
330
97A7
100
AcDbXrecord
280
     1
102
RTVSPost2010Prop28
280
     0
102
RTVSPost2010PropOp28
 70
     1
102
RTVSPost2010Prop29
280
     1
102
RTVSPost2010PropOp29
 70
     1
102
RTVSPost2010Prop30
280
     1
102
RTVSPost2010PropOp30
 70
     1
102
RTVSPost2010Prop31
280
     0
102
RTVSPost2010PropOp31
 70
     1
102
RTVSPost2010Prop32
280
     0
102
RTVSPost2010PropOp32
 70
     1
102
RTVSPost2010Prop33
280
     0
102
RTVSPost2010PropOp33
 70
     1
102
RTVSPost2010Prop34
280
     0
102
RTVSPost2010PropOp34
 70
     1
102
RTVSPost2010Prop35
280
     0
102
RTVSPost2010PropOp35
 70
     1
102
RTVSPost2010Prop36
280
     0
102
RTVSPost2010PropOp36
 70
     1
102
RTVSPost2010Prop37
 90
       50
102
RTVSPost2010PropOp37
 70
     1
102
RTVSPost2010Prop38
140
0.0
102
RTVSPost2010PropOp38
 70
     1
102
RTVSPost2010Prop39
140
1.0
102
RTVSPost2010PropOp39
 70
     1
102
RTVSPost2010Prop40
 90
        0
102
RTVSPost2010PropOp40
 70
     1
102
RTVSPost2010Prop41ColorIndex
 90
       18
102
RTVSPost2010Prop41ColorRGB
 90
        0
102
RTVSPost2010PropOp41
 70
     1
102
RTVSPost2010Prop42
 90
       50
102
RTVSPost2010PropOp42
 70
     1
102
RTVSPost2010Prop43
 90
        3
102
RTVSPost2010PropOp43
 70
     1
102
RTVSPost2010Prop44ColorIndex
 90
        5
102
RTVSPost2010Prop44ColorRGB
 90
      255
102
RTVSPost2010PropOp44
 70
     1
102
RTVSPost2010Prop45
280
     0
102
RTVSPost2010PropOp45
 70
     1
102
RTVSPost2010Prop46
 90
       50
102
RTVSPost2010PropOp46
 70
     1
102
RTVSPost2010Prop47
 90
       50
102
RTVSPost2010PropOp47
 70
     1
102
RTVSPost2010Prop48
 90
       50
102
RTVSPost2010PropOp48
 70
     1
102
RTVSPost2010Prop49
280
     0
102
RTVSPost2010PropOp49
 70
     1
102
RTVSPost2010Prop50
 90
       50
102
RTVSPost2010PropOp50
 70
     1
102
RTVSPost2010Prop51ColorIndex
 90
      256
102
RTVSPost2010Prop51ColorRGB
 90
-16777216
102
RTVSPost2010PropOp51
 70
     0
102
RTVSPost2010Prop52
140
1.0
102
RTVSPost2010PropOp52
 70
     0
102
RTVSPost2010Prop53
 90
        2
102
RTVSPost2010PropOp53
 70
     1
102
RTVSPost2010Prop54
  1
strokes_ogs.tif
102
RTVSPost2010PropOp54
 70
     1
102
RTVSPost2010Prop55
280
     0
102
RTVSPost2010PropOp55
 70
     1
102
RTVSPost2010Prop56
140
1.0
102
RTVSPost2010PropOp56
 70
     1
102
RTVSPost2010Prop57
140
1.0
102
RTVSPost2010PropOp57
 70
     1
102
RTVSPropertyOp0
 70
     1
102
RTVSPropertyOp1
 70
     1
102
RTVSPropertyOp2
 70
     1
102
RTVSPropertyOp3
 70
     1
102
RTVSPropertyOp4
 70
     1
102
RTVSPropertyOp5
 70
     1
102
RTVSPropertyOp6
 70
     1
102
RTVSPropertyOp7
 70
     1
102
RTVSPropertyOp8
 70
     1
102
RTVSPropertyOp9
 70
     1
102
RTVSPropertyOp10
 70
     1
102
RTVSPropertyOp11
 70
     1
102
RTVSPropertyOp12
 70
     1
102
RTVSPropertyOp13
 70
     1
102
RTVSPropertyOp14
 70
     1
102
RTVSPropertyOp15
 70
     1
102
RTVSPropertyOp16
 70
     1
102
RTVSPropertyOp17
 70
     1
102
RTVSPropertyOp18
 70
     1
102
RTVSPropertyOp19
 70
     1
102
RTVSPropertyOp20
 70
     1
102
RTVSPropertyOp21
 70
     1
102
RTVSPropertyOp22
 70
     1
102
RTVSPropertyOp23
 70
     1
102
RTVSPropertyOp24
 70
     1
102
RTVSPropertyOp25
 70
     1
102
RTVSPropertyOp26
 70
     1
102
RTVSPropertyOp27
 70
     1
102
RTVSPropertyOp28
 70
     1
102
RTVSPropertyOp29
 70
     1
102
RTVSPropertyOp30
 70
     1
102
RTVSPropertyOp31
 70
     1
102
RTVSPropertyOp32
 70
     1
102
RTVSPropertyOp33
 70
     1
102
RTVSPropertyOp34
 70
     1
102
RTVSPropertyOp35
 70
     1
102
RTVSPropertyOp36
 70
     1
102
RTVSPropertyOp37
 70
     1
102
RTVSPropertyOp38
 70
     1
102
RTVSPropertyOp39
 70
     1
102
RTVSPropertyOp40
 70
     1
102
RTVSPropertyOp41
 70
     1
102
RTVSPropertyOp42
 70
     1
102
RTVSPropertyOp43
 70
     1
102
RTVSPropertyOp44
 70
     1
102
RTVSPropertyOp45
 70
     1
102
RTVSPropertyOp46
 70
     1
102
RTVSPropertyOp47
 70
     1
102
RTVSPropertyOp48
 70
     1
102
RTVSPropertyOp49
 70
     1
102
RTVSPropertyOp50
 70
     1
102
RTVSPropertyOp51
 70
     0
102
RTVSPropertyOp52
 70
     0
102
RTVSPropertyOp53
 70
     1
102
RTVSPropertyOp54
 70
     1
102
RTVSPropertyOp55
 70
     1
102
RTVSPropertyOp56
 70
     1
102
RTVSPropertyOp57
 70
     1
102
RTVSPropertyOp58
 70
     1
102
RTVSPropertyOp59
 70
     1
102
RTVSPropertyOp60
 70
     1
102
RTVSPropertyOp61
 70
     1
102
RTVSPropertyOp62
 70
     1
  0
XRECORD
  5
97AC
102
{ACAD_REACTORS
330
97AB
102
}
330
97AB
100
AcDbXrecord
280
     1
102
RTVSPost2010Prop28
280
     0
102
RTVSPost2010PropOp28
 70
     1
102
RTVSPost2010Prop29
280
     1
102
RTVSPost2010PropOp29
 70
     1
102
RTVSPost2010Prop30
280
     1
102
RTVSPost2010PropOp30
 70
     1
102
RTVSPost2010Prop31
280
     0
102
RTVSPost2010PropOp31
 70
     1
102
RTVSPost2010Prop32
280
     0
102
RTVSPost2010PropOp32
 70
     1
102
RTVSPost2010Prop33
280
     0
102
RTVSPost2010PropOp33
 70
     1
102
RTVSPost2010Prop34
280
     0
102
RTVSPost2010PropOp34
 70
     1
102
RTVSPost2010Prop35
280
     0
102
RTVSPost2010PropOp35
 70
     1
102
RTVSPost2010Prop36
280
     0
102
RTVSPost2010PropOp36
 70
     1
102
RTVSPost2010Prop37
 90
       50
102
RTVSPost2010PropOp37
 70
     1
102
RTVSPost2010Prop38
140
0.0
102
RTVSPost2010PropOp38
 70
     1
102
RTVSPost2010Prop39
140
1.0
102
RTVSPost2010PropOp39
 70
     1
102
RTVSPost2010Prop40
 90
        0
102
RTVSPost2010PropOp40
 70
     1
102
RTVSPost2010Prop41ColorIndex
 90
       18
102
RTVSPost2010Prop41ColorRGB
 90
        0
102
RTVSPost2010PropOp41
 70
     1
102
RTVSPost2010Prop42
 90
       50
102
RTVSPost2010PropOp42
 70
     1
102
RTVSPost2010Prop43
 90
        3
102
RTVSPost2010PropOp43
 70
     1
102
RTVSPost2010Prop44ColorIndex
 90
        5
102
RTVSPost2010Prop44ColorRGB
 90
      255
102
RTVSPost2010PropOp44
 70
     1
102
RTVSPost2010Prop45
280
     0
102
RTVSPost2010PropOp45
 70
     1
102
RTVSPost2010Prop46
 90
       50
102
RTVSPost2010PropOp46
 70
     1
102
RTVSPost2010Prop47
 90
       50
102
RTVSPost2010PropOp47
 70
     1
102
RTVSPost2010Prop48
 90
       50
102
RTVSPost2010PropOp48
 70
     1
102
RTVSPost2010Prop49
280
     0
102
RTVSPost2010PropOp49
 70
     1
102
RTVSPost2010Prop50
 90
       50
102
RTVSPost2010PropOp50
 70
     1
102
RTVSPost2010Prop51ColorIndex
 90
      256
102
RTVSPost2010Prop51ColorRGB
 90
-16777216
102
RTVSPost2010PropOp51
 70
     0
102
RTVSPost2010Prop52
140
1.0
102
RTVSPost2010PropOp52
 70
     0
102
RTVSPost2010Prop53
 90
        2
102
RTVSPost2010PropOp53
 70
     1
102
RTVSPost2010Prop54
  1
strokes_ogs.tif
102
RTVSPost2010PropOp54
 70
     1
102
RTVSPost2010Prop55
280
     0
102
RTVSPost2010PropOp55
 70
     1
102
RTVSPost2010Prop56
140
1.0
102
RTVSPost2010PropOp56
 70
     1
102
RTVSPost2010Prop57
140
1.0
102
RTVSPost2010PropOp57
 70
     1
102
RTVSPropertyOp0
 70
     1
102
RTVSPropertyOp1
 70
     1
102
RTVSPropertyOp2
 70
     1
102
RTVSPropertyOp3
 70
     1
102
RTVSPropertyOp4
 70
     1
102
RTVSPropertyOp5
 70
     1
102
RTVSPropertyOp6
 70
     1
102
RTVSPropertyOp7
 70
     1
102
RTVSPropertyOp8
 70
     1
102
RTVSPropertyOp9
 70
     1
102
RTVSPropertyOp10
 70
     1
102
RTVSPropertyOp11
 70
     1
102
RTVSPropertyOp12
 70
     1
102
RTVSPropertyOp13
 70
     1
102
RTVSPropertyOp14
 70
     1
102
RTVSPropertyOp15
 70
     1
102
RTVSPropertyOp16
 70
     1
102
RTVSPropertyOp17
 70
     1
102
RTVSPropertyOp18
 70
     1
102
RTVSPropertyOp19
 70
     1
102
RTVSPropertyOp20
 70
     1
102
RTVSPropertyOp21
 70
     1
102
RTVSPropertyOp22
 70
     1
102
RTVSPropertyOp23
 70
     1
102
RTVSPropertyOp24
 70
     1
102
RTVSPropertyOp25
 70
     1
102
RTVSPropertyOp26
 70
     1
102
RTVSPropertyOp27
 70
     1
102
RTVSPropertyOp28
 70
     1
102
RTVSPropertyOp29
 70
     1
102
RTVSPropertyOp30
 70
     1
102
RTVSPropertyOp31
 70
     1
102
RTVSPropertyOp32
 70
     1
102
RTVSPropertyOp33
 70
     1
102
RTVSPropertyOp34
 70
     1
102
RTVSPropertyOp35
 70
     1
102
RTVSPropertyOp36
 70
     1
102
RTVSPropertyOp37
 70
     1
102
RTVSPropertyOp38
 70
     1
102
RTVSPropertyOp39
 70
     1
102
RTVSPropertyOp40
 70
     1
102
RTVSPropertyOp41
 70
     1
102
RTVSPropertyOp42
 70
     1
102
RTVSPropertyOp43
 70
     1
102
RTVSPropertyOp44
 70
     1
102
RTVSPropertyOp45
 70
     1
102
RTVSPropertyOp46
 70
     1
102
RTVSPropertyOp47
 70
     1
102
RTVSPropertyOp48
 70
     1
102
RTVSPropertyOp49
 70
     1
102
RTVSPropertyOp50
 70
     1
102
RTVSPropertyOp51
 70
     0
102
RTVSPropertyOp52
 70
     0
102
RTVSPropertyOp53
 70
     1
102
RTVSPropertyOp54
 70
     1
102
RTVSPropertyOp55
 70
     1
102
RTVSPropertyOp56
 70
     1
102
RTVSPropertyOp57
 70
     1
102
RTVSPropertyOp58
 70
     1
102
RTVSPropertyOp59
 70
     1
102
RTVSPropertyOp60
 70
     1
102
RTVSPropertyOp61
 70
     1
102
RTVSPropertyOp62
 70
     1
  0
XRECORD
  5
97BE
102
{ACAD_REACTORS
330
97BD
102
}
330
97BD
100
AcDbXrecord
280
     1
102
RTVSPost2010Prop28
280
     0
102
RTVSPost2010PropOp28
 70
     1
102
RTVSPost2010Prop29
280
     1
102
RTVSPost2010PropOp29
 70
     1
102
RTVSPost2010Prop30
280
     1
102
RTVSPost2010PropOp30
 70
     1
102
RTVSPost2010Prop31
280
     0
102
RTVSPost2010PropOp31
 70
     1
102
RTVSPost2010Prop32
280
     0
102
RTVSPost2010PropOp32
 70
     1
102
RTVSPost2010Prop33
280
     0
102
RTVSPost2010PropOp33
 70
     1
102
RTVSPost2010Prop34
280
     0
102
RTVSPost2010PropOp34
 70
     1
102
RTVSPost2010Prop35
280
     0
102
RTVSPost2010PropOp35
 70
     1
102
RTVSPost2010Prop36
280
     0
102
RTVSPost2010PropOp36
 70
     1
102
RTVSPost2010Prop37
 90
       50
102
RTVSPost2010PropOp37
 70
     1
102
RTVSPost2010Prop38
140
0.0
102
RTVSPost2010PropOp38
 70
     1
102
RTVSPost2010Prop39
140
1.0
102
RTVSPost2010PropOp39
 70
     1
102
RTVSPost2010Prop40
 90
        0
102
RTVSPost2010PropOp40
 70
     1
102
RTVSPost2010Prop41ColorIndex
 90
       18
102
RTVSPost2010Prop41ColorRGB
 90
        0
102
RTVSPost2010PropOp41
 70
     1
102
RTVSPost2010Prop42
 90
       50
102
RTVSPost2010PropOp42
 70
     1
102
RTVSPost2010Prop43
 90
        3
102
RTVSPost2010PropOp43
 70
     1
102
RTVSPost2010Prop44ColorIndex
 90
        5
102
RTVSPost2010Prop44ColorRGB
 90
      255
102
RTVSPost2010PropOp44
 70
     1
102
RTVSPost2010Prop45
280
     0
102
RTVSPost2010PropOp45
 70
     1
102
RTVSPost2010Prop46
 90
       50
102
RTVSPost2010PropOp46
 70
     1
102
RTVSPost2010Prop47
 90
       50
102
RTVSPost2010PropOp47
 70
     1
102
RTVSPost2010Prop48
 90
       50
102
RTVSPost2010PropOp48
 70
     1
102
RTVSPost2010Prop49
280
     0
102
RTVSPost2010PropOp49
 70
     1
102
RTVSPost2010Prop50
 90
       50
102
RTVSPost2010PropOp50
 70
     1
102
RTVSPost2010Prop51ColorIndex
 90
      256
102
RTVSPost2010Prop51ColorRGB
 90
-16777216
102
RTVSPost2010PropOp51
 70
     0
102
RTVSPost2010Prop52
140
1.0
102
RTVSPost2010PropOp52
 70
     0
102
RTVSPost2010Prop53
 90
        2
102
RTVSPost2010PropOp53
 70
     1
102
RTVSPost2010Prop54
  1
strokes_ogs.tif
102
RTVSPost2010PropOp54
 70
     1
102
RTVSPost2010Prop55
280
     0
102
RTVSPost2010PropOp55
 70
     1
102
RTVSPost2010Prop56
140
1.0
102
RTVSPost2010PropOp56
 70
     1
102
RTVSPost2010Prop57
140
1.0
102
RTVSPost2010PropOp57
 70
     1
102
RTVSPropertyOp0
 70
     0
102
RTVSPropertyOp1
 70
     0
102
RTVSPropertyOp2
 70
     0
102
RTVSPropertyOp3
 70
     0
102
RTVSPropertyOp4
 70
     0
102
RTVSPropertyOp5
 70
     0
102
RTVSPropertyOp6
 70
     0
102
RTVSPropertyOp7
 70
     0
102
RTVSPropertyOp8
 70
     0
102
RTVSPropertyOp9
 70
     0
102
RTVSPropertyOp10
 70
     0
102
RTVSPropertyOp11
 70
     0
102
RTVSPropertyOp12
 70
     0
102
RTVSPropertyOp13
 70
     0
102
RTVSPropertyOp14
 70
     2
102
RTVSPropertyOp15
 70
     0
102
RTVSPropertyOp16
 70
     0
102
RTVSPropertyOp17
 70
     0
102
RTVSPropertyOp18
 70
     0
102
RTVSPropertyOp19
 70
     0
102
RTVSPropertyOp20
 70
     0
102
RTVSPropertyOp21
 70
     0
102
RTVSPropertyOp22
 70
     0
102
RTVSPropertyOp23
 70
     0
102
RTVSPropertyOp24
 70
     0
102
RTVSPropertyOp25
 70
     0
102
RTVSPropertyOp26
 70
     0
102
RTVSPropertyOp27
 70
     0
102
RTVSPropertyOp28
 70
     1
102
RTVSPropertyOp29
 70
     1
102
RTVSPropertyOp30
 70
     1
102
RTVSPropertyOp31
 70
     1
102
RTVSPropertyOp32
 70
     1
102
RTVSPropertyOp33
 70
     1
102
RTVSPropertyOp34
 70
     1
102
RTVSPropertyOp35
 70
     1
102
RTVSPropertyOp36
 70
     1
102
RTVSPropertyOp37
 70
     1
102
RTVSPropertyOp38
 70
     1
102
RTVSPropertyOp39
 70
     1
102
RTVSPropertyOp40
 70
     1
102
RTVSPropertyOp41
 70
     1
102
RTVSPropertyOp42
 70
     1
102
RTVSPropertyOp43
 70
     1
102
RTVSPropertyOp44
 70
     1
102
RTVSPropertyOp45
 70
     1
102
RTVSPropertyOp46
 70
     1
102
RTVSPropertyOp47
 70
     1
102
RTVSPropertyOp48
 70
     1
102
RTVSPropertyOp49
 70
     1
102
RTVSPropertyOp50
 70
     1
102
RTVSPropertyOp51
 70
     0
102
RTVSPropertyOp52
 70
     0
102
RTVSPropertyOp53
 70
     1
102
RTVSPropertyOp54
 70
     1
102
RTVSPropertyOp55
 70
     1
102
RTVSPropertyOp56
 70
     1
102
RTVSPropertyOp57
 70
     1
102
RTVSPropertyOp58
 70
     1
102
RTVSPropertyOp59
 70
     1
102
RTVSPropertyOp60
 70
     1
102
RTVSPropertyOp61
 70
     1
102
RTVSPropertyOp62
 70
     1
  0
XRECORD
  5
97B4
102
{ACAD_REACTORS
330
97B3
102
}
330
97B3
100
AcDbXrecord
280
     1
102
RTVSPost2010Prop28
280
     0
102
RTVSPost2010PropOp28
 70
     1
102
RTVSPost2010Prop29
280
     1
102
RTVSPost2010PropOp29
 70
     1
102
RTVSPost2010Prop30
280
     1
102
RTVSPost2010PropOp30
 70
     1
102
RTVSPost2010Prop31
280
     0
102
RTVSPost2010PropOp31
 70
     1
102
RTVSPost2010Prop32
280
     0
102
RTVSPost2010PropOp32
 70
     1
102
RTVSPost2010Prop33
280
     0
102
RTVSPost2010PropOp33
 70
     1
102
RTVSPost2010Prop34
280
     0
102
RTVSPost2010PropOp34
 70
     1
102
RTVSPost2010Prop35
280
     0
102
RTVSPost2010PropOp35
 70
     1
102
RTVSPost2010Prop36
280
     0
102
RTVSPost2010PropOp36
 70
     1
102
RTVSPost2010Prop37
 90
       50
102
RTVSPost2010PropOp37
 70
     1
102
RTVSPost2010Prop38
140
0.0
102
RTVSPost2010PropOp38
 70
     1
102
RTVSPost2010Prop39
140
1.0
102
RTVSPost2010PropOp39
 70
     1
102
RTVSPost2010Prop40
 90
        0
102
RTVSPost2010PropOp40
 70
     1
102
RTVSPost2010Prop41ColorIndex
 90
       18
102
RTVSPost2010Prop41ColorRGB
 90
        0
102
RTVSPost2010PropOp41
 70
     1
102
RTVSPost2010Prop42
 90
       50
102
RTVSPost2010PropOp42
 70
     1
102
RTVSPost2010Prop43
 90
        3
102
RTVSPost2010PropOp43
 70
     1
102
RTVSPost2010Prop44ColorIndex
 90
        5
102
RTVSPost2010Prop44ColorRGB
 90
      255
102
RTVSPost2010PropOp44
 70
     1
102
RTVSPost2010Prop45
280
     0
102
RTVSPost2010PropOp45
 70
     1
102
RTVSPost2010Prop46
 90
       50
102
RTVSPost2010PropOp46
 70
     1
102
RTVSPost2010Prop47
 90
       50
102
RTVSPost2010PropOp47
 70
     1
102
RTVSPost2010Prop48
 90
       50
102
RTVSPost2010PropOp48
 70
     1
102
RTVSPost2010Prop49
280
     0
102
RTVSPost2010PropOp49
 70
     1
102
RTVSPost2010Prop50
 90
       50
102
RTVSPost2010PropOp50
 70
     1
102
RTVSPost2010Prop51ColorIndex
 90
      256
102
RTVSPost2010Prop51ColorRGB
 90
-16777216
102
RTVSPost2010PropOp51
 70
     0
102
RTVSPost2010Prop52
140
1.0
102
RTVSPost2010PropOp52
 70
     0
102
RTVSPost2010Prop53
 90
        2
102
RTVSPost2010PropOp53
 70
     1
102
RTVSPost2010Prop54
  1
strokes_ogs.tif
102
RTVSPost2010PropOp54
 70
     1
102
RTVSPost2010Prop55
280
     0
102
RTVSPost2010PropOp55
 70
     1
102
RTVSPost2010Prop56
140
1.0
102
RTVSPost2010PropOp56
 70
     1
102
RTVSPost2010Prop57
140
1.0
102
RTVSPost2010PropOp57
 70
     1
102
RTVSPropertyOp0
 70
     1
102
RTVSPropertyOp1
 70
     1
102
RTVSPropertyOp2
 70
     1
102
RTVSPropertyOp3
 70
     1
102
RTVSPropertyOp4
 70
     1
102
RTVSPropertyOp5
 70
     1
102
RTVSPropertyOp6
 70
     1
102
RTVSPropertyOp7
 70
     1
102
RTVSPropertyOp8
 70
     1
102
RTVSPropertyOp9
 70
     1
102
RTVSPropertyOp10
 70
     1
102
RTVSPropertyOp11
 70
     1
102
RTVSPropertyOp12
 70
     1
102
RTVSPropertyOp13
 70
     1
102
RTVSPropertyOp14
 70
     1
102
RTVSPropertyOp15
 70
     1
102
RTVSPropertyOp16
 70
     1
102
RTVSPropertyOp17
 70
     1
102
RTVSPropertyOp18
 70
     1
102
RTVSPropertyOp19
 70
     1
102
RTVSPropertyOp20
 70
     1
102
RTVSPropertyOp21
 70
     1
102
RTVSPropertyOp22
 70
     1
102
RTVSPropertyOp23
 70
     1
102
RTVSPropertyOp24
 70
     1
102
RTVSPropertyOp25
 70
     1
102
RTVSPropertyOp26
 70
     1
102
RTVSPropertyOp27
 70
     1
102
RTVSPropertyOp28
 70
     1
102
RTVSPropertyOp29
 70
     1
102
RTVSPropertyOp30
 70
     1
102
RTVSPropertyOp31
 70
     1
102
RTVSPropertyOp32
 70
     1
102
RTVSPropertyOp33
 70
     1
102
RTVSPropertyOp34
 70
     1
102
RTVSPropertyOp35
 70
     1
102
RTVSPropertyOp36
 70
     1
102
RTVSPropertyOp37
 70
     1
102
RTVSPropertyOp38
 70
     1
102
RTVSPropertyOp39
 70
     1
102
RTVSPropertyOp40
 70
     1
102
RTVSPropertyOp41
 70
     1
102
RTVSPropertyOp42
 70
     1
102
RTVSPropertyOp43
 70
     1
102
RTVSPropertyOp44
 70
     1
102
RTVSPropertyOp45
 70
     1
102
RTVSPropertyOp46
 70
     1
102
RTVSPropertyOp47
 70
     1
102
RTVSPropertyOp48
 70
     1
102
RTVSPropertyOp49
 70
     1
102
RTVSPropertyOp50
 70
     1
102
RTVSPropertyOp51
 70
     0
102
RTVSPropertyOp52
 70
     0
102
RTVSPropertyOp53
 70
     1
102
RTVSPropertyOp54
 70
     1
102
RTVSPropertyOp55
 70
     1
102
RTVSPropertyOp56
 70
     1
102
RTVSPropertyOp57
 70
     1
102
RTVSPropertyOp58
 70
     1
102
RTVSPropertyOp59
 70
     1
102
RTVSPropertyOp60
 70
     1
102
RTVSPropertyOp61
 70
     1
102
RTVSPropertyOp62
 70
     1
  0
XRECORD
  5
9798
102
{ACAD_REACTORS
330
9797
102
}
330
9797
100
AcDbXrecord
280
     1
102
RTVSPost2010Prop28
280
     0
102
RTVSPost2010PropOp28
 70
     1
102
RTVSPost2010Prop29
280
     1
102
RTVSPost2010PropOp29
 70
     1
102
RTVSPost2010Prop30
280
     1
102
RTVSPost2010PropOp30
 70
     1
102
RTVSPost2010Prop31
280
     0
102
RTVSPost2010PropOp31
 70
     1
102
RTVSPost2010Prop32
280
     0
102
RTVSPost2010PropOp32
 70
     1
102
RTVSPost2010Prop33
280
     0
102
RTVSPost2010PropOp33
 70
     1
102
RTVSPost2010Prop34
280
     0
102
RTVSPost2010PropOp34
 70
     1
102
RTVSPost2010Prop35
280
     0
102
RTVSPost2010PropOp35
 70
     1
102
RTVSPost2010Prop36
280
     0
102
RTVSPost2010PropOp36
 70
     1
102
RTVSPost2010Prop37
 90
       50
102
RTVSPost2010PropOp37
 70
     1
102
RTVSPost2010Prop38
140
0.0
102
RTVSPost2010PropOp38
 70
     1
102
RTVSPost2010Prop39
140
1.0
102
RTVSPost2010PropOp39
 70
     1
102
RTVSPost2010Prop40
 90
        0
102
RTVSPost2010PropOp40
 70
     1
102
RTVSPost2010Prop41ColorIndex
 90
       18
102
RTVSPost2010Prop41ColorRGB
 90
        0
102
RTVSPost2010PropOp41
 70
     1
102
RTVSPost2010Prop42
 90
       50
102
RTVSPost2010PropOp42
 70
     1
102
RTVSPost2010Prop43
 90
        3
102
RTVSPost2010PropOp43
 70
     1
102
RTVSPost2010Prop44ColorIndex
 90
        5
102
RTVSPost2010Prop44ColorRGB
 90
      255
102
RTVSPost2010PropOp44
 70
     1
102
RTVSPost2010Prop45
280
     0
102
RTVSPost2010PropOp45
 70
     1
102
RTVSPost2010Prop46
 90
       50
102
RTVSPost2010PropOp46
 70
     1
102
RTVSPost2010Prop47
 90
       50
102
RTVSPost2010PropOp47
 70
     1
102
RTVSPost2010Prop48
 90
       50
102
RTVSPost2010PropOp48
 70
     1
102
RTVSPost2010Prop49
280
     0
102
RTVSPost2010PropOp49
 70
     1
102
RTVSPost2010Prop50
 90
       50
102
RTVSPost2010PropOp50
 70
     1
102
RTVSPost2010Prop51ColorIndex
 90
      256
102
RTVSPost2010Prop51ColorRGB
 90
-16777216
102
RTVSPost2010PropOp51
 70
     0
102
RTVSPost2010Prop52
140
1.0
102
RTVSPost2010PropOp52
 70
     0
102
RTVSPost2010Prop53
 90
        2
102
RTVSPost2010PropOp53
 70
     1
102
RTVSPost2010Prop54
  1
strokes_ogs.tif
102
RTVSPost2010PropOp54
 70
     1
102
RTVSPost2010Prop55
280
     0
102
RTVSPost2010PropOp55
 70
     1
102
RTVSPost2010Prop56
140
1.0
102
RTVSPost2010PropOp56
 70
     1
102
RTVSPost2010Prop57
140
1.0
102
RTVSPost2010PropOp57
 70
     1
102
RTVSPropertyOp0
 70
     1
102
RTVSPropertyOp1
 70
     1
102
RTVSPropertyOp2
 70
     1
102
RTVSPropertyOp3
 70
     1
102
RTVSPropertyOp4
 70
     1
102
RTVSPropertyOp5
 70
     1
102
RTVSPropertyOp6
 70
     1
102
RTVSPropertyOp7
 70
     1
102
RTVSPropertyOp8
 70
     1
102
RTVSPropertyOp9
 70
     1
102
RTVSPropertyOp10
 70
     1
102
RTVSPropertyOp11
 70
     1
102
RTVSPropertyOp12
 70
     1
102
RTVSPropertyOp13
 70
     1
102
RTVSPropertyOp14
 70
     1
102
RTVSPropertyOp15
 70
     1
102
RTVSPropertyOp16
 70
     1
102
RTVSPropertyOp17
 70
     1
102
RTVSPropertyOp18
 70
     1
102
RTVSPropertyOp19
 70
     1
102
RTVSPropertyOp20
 70
     1
102
RTVSPropertyOp21
 70
     1
102
RTVSPropertyOp22
 70
     1
102
RTVSPropertyOp23
 70
     1
102
RTVSPropertyOp24
 70
     1
102
RTVSPropertyOp25
 70
     1
102
RTVSPropertyOp26
 70
     1
102
RTVSPropertyOp27
 70
     1
102
RTVSPropertyOp28
 70
     1
102
RTVSPropertyOp29
 70
     1
102
RTVSPropertyOp30
 70
     1
102
RTVSPropertyOp31
 70
     1
102
RTVSPropertyOp32
 70
     1
102
RTVSPropertyOp33
 70
     1
102
RTVSPropertyOp34
 70
     1
102
RTVSPropertyOp35
 70
     1
102
RTVSPropertyOp36
 70
     1
102
RTVSPropertyOp37
 70
     1
102
RTVSPropertyOp38
 70
     1
102
RTVSPropertyOp39
 70
     1
102
RTVSPropertyOp40
 70
     1
102
RTVSPropertyOp41
 70
     1
102
RTVSPropertyOp42
 70
     1
102
RTVSPropertyOp43
 70
     1
102
RTVSPropertyOp44
 70
     1
102
RTVSPropertyOp45
 70
     1
102
RTVSPropertyOp46
 70
     1
102
RTVSPropertyOp47
 70
     1
102
RTVSPropertyOp48
 70
     1
102
RTVSPropertyOp49
 70
     1
102
RTVSPropertyOp50
 70
     1
102
RTVSPropertyOp51
 70
     0
102
RTVSPropertyOp52
 70
     0
102
RTVSPropertyOp53
 70
     1
102
RTVSPropertyOp54
 70
     1
102
RTVSPropertyOp55
 70
     1
102
RTVSPropertyOp56
 70
     1
102
RTVSPropertyOp57
 70
     1
102
RTVSPropertyOp58
 70
     1
102
RTVSPropertyOp59
 70
     1
102
RTVSPropertyOp60
 70
     1
102
RTVSPropertyOp61
 70
     1
102
RTVSPropertyOp62
 70
     1
  0
XRECORD
  5
979A
102
{ACAD_REACTORS
330
9799
102
}
330
9799
100
AcDbXrecord
280
     1
102
RTVSPost2010Prop28
280
     0
102
RTVSPost2010PropOp28
 70
     1
102
RTVSPost2010Prop29
280
     1
102
RTVSPost2010PropOp29
 70
     1
102
RTVSPost2010Prop30
280
     1
102
RTVSPost2010PropOp30
 70
     1
102
RTVSPost2010Prop31
280
     0
102
RTVSPost2010PropOp31
 70
     1
102
RTVSPost2010Prop32
280
     0
102
RTVSPost2010PropOp32
 70
     1
102
RTVSPost2010Prop33
280
     0
102
RTVSPost2010PropOp33
 70
     1
102
RTVSPost2010Prop34
280
     0
102
RTVSPost2010PropOp34
 70
     1
102
RTVSPost2010Prop35
280
     0
102
RTVSPost2010PropOp35
 70
     1
102
RTVSPost2010Prop36
280
     0
102
RTVSPost2010PropOp36
 70
     1
102
RTVSPost2010Prop37
 90
       50
102
RTVSPost2010PropOp37
 70
     1
102
RTVSPost2010Prop38
140
0.0
102
RTVSPost2010PropOp38
 70
     1
102
RTVSPost2010Prop39
140
1.0
102
RTVSPost2010PropOp39
 70
     1
102
RTVSPost2010Prop40
 90
        0
102
RTVSPost2010PropOp40
 70
     1
102
RTVSPost2010Prop41ColorIndex
 90
       18
102
RTVSPost2010Prop41ColorRGB
 90
        0
102
RTVSPost2010PropOp41
 70
     1
102
RTVSPost2010Prop42
 90
       50
102
RTVSPost2010PropOp42
 70
     1
102
RTVSPost2010Prop43
 90
        3
102
RTVSPost2010PropOp43
 70
     1
102
RTVSPost2010Prop44ColorIndex
 90
        5
102
RTVSPost2010Prop44ColorRGB
 90
      255
102
RTVSPost2010PropOp44
 70
     1
102
RTVSPost2010Prop45
280
     0
102
RTVSPost2010PropOp45
 70
     1
102
RTVSPost2010Prop46
 90
       50
102
RTVSPost2010PropOp46
 70
     1
102
RTVSPost2010Prop47
 90
       50
102
RTVSPost2010PropOp47
 70
     1
102
RTVSPost2010Prop48
 90
       50
102
RTVSPost2010PropOp48
 70
     1
102
RTVSPost2010Prop49
280
     0
102
RTVSPost2010PropOp49
 70
     1
102
RTVSPost2010Prop50
 90
       50
102
RTVSPost2010PropOp50
 70
     1
102
RTVSPost2010Prop51ColorIndex
 90
      256
102
RTVSPost2010Prop51ColorRGB
 90
-16777216
102
RTVSPost2010PropOp51
 70
     0
102
RTVSPost2010Prop52
140
1.0
102
RTVSPost2010PropOp52
 70
     0
102
RTVSPost2010Prop53
 90
        2
102
RTVSPost2010PropOp53
 70
     1
102
RTVSPost2010Prop54
  1
strokes_ogs.tif
102
RTVSPost2010PropOp54
 70
     1
102
RTVSPost2010Prop55
280
     0
102
RTVSPost2010PropOp55
 70
     1
102
RTVSPost2010Prop56
140
1.0
102
RTVSPost2010PropOp56
 70
     1
102
RTVSPost2010Prop57
140
1.0
102
RTVSPost2010PropOp57
 70
     1
102
RTVSPropertyOp0
 70
     1
102
RTVSPropertyOp1
 70
     1
102
RTVSPropertyOp2
 70
     1
102
RTVSPropertyOp3
 70
     1
102
RTVSPropertyOp4
 70
     1
102
RTVSPropertyOp5
 70
     1
102
RTVSPropertyOp6
 70
     1
102
RTVSPropertyOp7
 70
     1
102
RTVSPropertyOp8
 70
     1
102
RTVSPropertyOp9
 70
     1
102
RTVSPropertyOp10
 70
     1
102
RTVSPropertyOp11
 70
     1
102
RTVSPropertyOp12
 70
     1
102
RTVSPropertyOp13
 70
     1
102
RTVSPropertyOp14
 70
     1
102
RTVSPropertyOp15
 70
     1
102
RTVSPropertyOp16
 70
     1
102
RTVSPropertyOp17
 70
     1
102
RTVSPropertyOp18
 70
     1
102
RTVSPropertyOp19
 70
     1
102
RTVSPropertyOp20
 70
     1
102
RTVSPropertyOp21
 70
     1
102
RTVSPropertyOp22
 70
     1
102
RTVSPropertyOp23
 70
     1
102
RTVSPropertyOp24
 70
     1
102
RTVSPropertyOp25
 70
     1
102
RTVSPropertyOp26
 70
     1
102
RTVSPropertyOp27
 70
     1
102
RTVSPropertyOp28
 70
     1
102
RTVSPropertyOp29
 70
     1
102
RTVSPropertyOp30
 70
     1
102
RTVSPropertyOp31
 70
     1
102
RTVSPropertyOp32
 70
     1
102
RTVSPropertyOp33
 70
     1
102
RTVSPropertyOp34
 70
     1
102
RTVSPropertyOp35
 70
     1
102
RTVSPropertyOp36
 70
     1
102
RTVSPropertyOp37
 70
     1
102
RTVSPropertyOp38
 70
     1
102
RTVSPropertyOp39
 70
     1
102
RTVSPropertyOp40
 70
     1
102
RTVSPropertyOp41
 70
     1
102
RTVSPropertyOp42
 70
     1
102
RTVSPropertyOp43
 70
     1
102
RTVSPropertyOp44
 70
     1
102
RTVSPropertyOp45
 70
     1
102
RTVSPropertyOp46
 70
     1
102
RTVSPropertyOp47
 70
     1
102
RTVSPropertyOp48
 70
     1
102
RTVSPropertyOp49
 70
     1
102
RTVSPropertyOp50
 70
     1
102
RTVSPropertyOp51
 70
     0
102
RTVSPropertyOp52
 70
     0
102
RTVSPropertyOp53
 70
     1
102
RTVSPropertyOp54
 70
     1
102
RTVSPropertyOp55
 70
     1
102
RTVSPropertyOp56
 70
     1
102
RTVSPropertyOp57
 70
     1
102
RTVSPropertyOp58
 70
     1
102
RTVSPropertyOp59
 70
     1
102
RTVSPropertyOp60
 70
     1
102
RTVSPropertyOp61
 70
     1
102
RTVSPropertyOp62
 70
     1
  0
XRECORD
  5
979C
102
{ACAD_REACTORS
330
979B
102
}
330
979B
100
AcDbXrecord
280
     1
102
RTVSPost2010Prop28
280
     0
102
RTVSPost2010PropOp28
 70
     1
102
RTVSPost2010Prop29
280
     1
102
RTVSPost2010PropOp29
 70
     1
102
RTVSPost2010Prop30
280
     1
102
RTVSPost2010PropOp30
 70
     1
102
RTVSPost2010Prop31
280
     0
102
RTVSPost2010PropOp31
 70
     1
102
RTVSPost2010Prop32
280
     0
102
RTVSPost2010PropOp32
 70
     1
102
RTVSPost2010Prop33
280
     0
102
RTVSPost2010PropOp33
 70
     1
102
RTVSPost2010Prop34
280
     0
102
RTVSPost2010PropOp34
 70
     1
102
RTVSPost2010Prop35
280
     0
102
RTVSPost2010PropOp35
 70
     1
102
RTVSPost2010Prop36
280
     0
102
RTVSPost2010PropOp36
 70
     1
102
RTVSPost2010Prop37
 90
       50
102
RTVSPost2010PropOp37
 70
     1
102
RTVSPost2010Prop38
140
0.0
102
RTVSPost2010PropOp38
 70
     1
102
RTVSPost2010Prop39
140
1.0
102
RTVSPost2010PropOp39
 70
     1
102
RTVSPost2010Prop40
 90
        0
102
RTVSPost2010PropOp40
 70
     1
102
RTVSPost2010Prop41ColorIndex
 90
       18
102
RTVSPost2010Prop41ColorRGB
 90
        0
102
RTVSPost2010PropOp41
 70
     1
102
RTVSPost2010Prop42
 90
       50
102
RTVSPost2010PropOp42
 70
     1
102
RTVSPost2010Prop43
 90
        3
102
RTVSPost2010PropOp43
 70
     1
102
RTVSPost2010Prop44ColorIndex
 90
        5
102
RTVSPost2010Prop44ColorRGB
 90
      255
102
RTVSPost2010PropOp44
 70
     1
102
RTVSPost2010Prop45
280
     0
102
RTVSPost2010PropOp45
 70
     1
102
RTVSPost2010Prop46
 90
       50
102
RTVSPost2010PropOp46
 70
     1
102
RTVSPost2010Prop47
 90
       50
102
RTVSPost2010PropOp47
 70
     1
102
RTVSPost2010Prop48
 90
       50
102
RTVSPost2010PropOp48
 70
     1
102
RTVSPost2010Prop49
280
     0
102
RTVSPost2010PropOp49
 70
     1
102
RTVSPost2010Prop50
 90
       50
102
RTVSPost2010PropOp50
 70
     1
102
RTVSPost2010Prop51ColorIndex
 90
      256
102
RTVSPost2010Prop51ColorRGB
 90
-16777216
102
RTVSPost2010PropOp51
 70
     0
102
RTVSPost2010Prop52
140
1.0
102
RTVSPost2010PropOp52
 70
     0
102
RTVSPost2010Prop53
 90
        2
102
RTVSPost2010PropOp53
 70
     1
102
RTVSPost2010Prop54
  1
strokes_ogs.tif
102
RTVSPost2010PropOp54
 70
     1
102
RTVSPost2010Prop55
280
     0
102
RTVSPost2010PropOp55
 70
     1
102
RTVSPost2010Prop56
140
1.0
102
RTVSPost2010PropOp56
 70
     1
102
RTVSPost2010Prop57
140
1.0
102
RTVSPost2010PropOp57
 70
     1
102
RTVSPropertyOp0
 70
     1
102
RTVSPropertyOp1
 70
     1
102
RTVSPropertyOp2
 70
     1
102
RTVSPropertyOp3
 70
     1
102
RTVSPropertyOp4
 70
     1
102
RTVSPropertyOp5
 70
     1
102
RTVSPropertyOp6
 70
     1
102
RTVSPropertyOp7
 70
     1
102
RTVSPropertyOp8
 70
     1
102
RTVSPropertyOp9
 70
     1
102
RTVSPropertyOp10
 70
     1
102
RTVSPropertyOp11
 70
     1
102
RTVSPropertyOp12
 70
     1
102
RTVSPropertyOp13
 70
     1
102
RTVSPropertyOp14
 70
     1
102
RTVSPropertyOp15
 70
     1
102
RTVSPropertyOp16
 70
     1
102
RTVSPropertyOp17
 70
     1
102
RTVSPropertyOp18
 70
     1
102
RTVSPropertyOp19
 70
     1
102
RTVSPropertyOp20
 70
     1
102
RTVSPropertyOp21
 70
     1
102
RTVSPropertyOp22
 70
     1
102
RTVSPropertyOp23
 70
     1
102
RTVSPropertyOp24
 70
     1
102
RTVSPropertyOp25
 70
     1
102
RTVSPropertyOp26
 70
     1
102
RTVSPropertyOp27
 70
     1
102
RTVSPropertyOp28
 70
     1
102
RTVSPropertyOp29
 70
     1
102
RTVSPropertyOp30
 70
     1
102
RTVSPropertyOp31
 70
     1
102
RTVSPropertyOp32
 70
     1
102
RTVSPropertyOp33
 70
     1
102
RTVSPropertyOp34
 70
     1
102
RTVSPropertyOp35
 70
     1
102
RTVSPropertyOp36
 70
     1
102
RTVSPropertyOp37
 70
     1
102
RTVSPropertyOp38
 70
     1
102
RTVSPropertyOp39
 70
     1
102
RTVSPropertyOp40
 70
     1
102
RTVSPropertyOp41
 70
     1
102
RTVSPropertyOp42
 70
     1
102
RTVSPropertyOp43
 70
     1
102
RTVSPropertyOp44
 70
     1
102
RTVSPropertyOp45
 70
     1
102
RTVSPropertyOp46
 70
     1
102
RTVSPropertyOp47
 70
     1
102
RTVSPropertyOp48
 70
     1
102
RTVSPropertyOp49
 70
     1
102
RTVSPropertyOp50
 70
     1
102
RTVSPropertyOp51
 70
     0
102
RTVSPropertyOp52
 70
     0
102
RTVSPropertyOp53
 70
     1
102
RTVSPropertyOp54
 70
     1
102
RTVSPropertyOp55
 70
     1
102
RTVSPropertyOp56
 70
     1
102
RTVSPropertyOp57
 70
     1
102
RTVSPropertyOp58
 70
     1
102
RTVSPropertyOp59
 70
     1
102
RTVSPropertyOp60
 70
     1
102
RTVSPropertyOp61
 70
     1
102
RTVSPropertyOp62
 70
     1
  0
XRECORD
  5
979E
102
{ACAD_REACTORS
330
979D
102
}
330
979D
100
AcDbXrecord
280
     1
102
RTVSPost2010Prop28
280
     0
102
RTVSPost2010PropOp28
 70
     1
102
RTVSPost2010Prop29
280
     1
102
RTVSPost2010PropOp29
 70
     1
102
RTVSPost2010Prop30
280
     1
102
RTVSPost2010PropOp30
 70
     1
102
RTVSPost2010Prop31
280
     0
102
RTVSPost2010PropOp31
 70
     1
102
RTVSPost2010Prop32
280
     0
102
RTVSPost2010PropOp32
 70
     1
102
RTVSPost2010Prop33
280
     0
102
RTVSPost2010PropOp33
 70
     1
102
RTVSPost2010Prop34
280
     0
102
RTVSPost2010PropOp34
 70
     1
102
RTVSPost2010Prop35
280
     0
102
RTVSPost2010PropOp35
 70
     1
102
RTVSPost2010Prop36
280
     0
102
RTVSPost2010PropOp36
 70
     1
102
RTVSPost2010Prop37
 90
       50
102
RTVSPost2010PropOp37
 70
     1
102
RTVSPost2010Prop38
140
0.0
102
RTVSPost2010PropOp38
 70
     1
102
RTVSPost2010Prop39
140
1.0
102
RTVSPost2010PropOp39
 70
     1
102
RTVSPost2010Prop40
 90
        0
102
RTVSPost2010PropOp40
 70
     1
102
RTVSPost2010Prop41ColorIndex
 90
       18
102
RTVSPost2010Prop41ColorRGB
 90
        0
102
RTVSPost2010PropOp41
 70
     1
102
RTVSPost2010Prop42
 90
       50
102
RTVSPost2010PropOp42
 70
     1
102
RTVSPost2010Prop43
 90
        3
102
RTVSPost2010PropOp43
 70
     1
102
RTVSPost2010Prop44ColorIndex
 90
        5
102
RTVSPost2010Prop44ColorRGB
 90
      255
102
RTVSPost2010PropOp44
 70
     1
102
RTVSPost2010Prop45
280
     0
102
RTVSPost2010PropOp45
 70
     1
102
RTVSPost2010Prop46
 90
       50
102
RTVSPost2010PropOp46
 70
     1
102
RTVSPost2010Prop47
 90
       50
102
RTVSPost2010PropOp47
 70
     1
102
RTVSPost2010Prop48
 90
       50
102
RTVSPost2010PropOp48
 70
     1
102
RTVSPost2010Prop49
280
     0
102
RTVSPost2010PropOp49
 70
     1
102
RTVSPost2010Prop50
 90
       50
102
RTVSPost2010PropOp50
 70
     1
102
RTVSPost2010Prop51ColorIndex
 90
      256
102
RTVSPost2010Prop51ColorRGB
 90
-16777216
102
RTVSPost2010PropOp51
 70
     0
102
RTVSPost2010Prop52
140
1.0
102
RTVSPost2010PropOp52
 70
     0
102
RTVSPost2010Prop53
 90
        2
102
RTVSPost2010PropOp53
 70
     1
102
RTVSPost2010Prop54
  1
strokes_ogs.tif
102
RTVSPost2010PropOp54
 70
     1
102
RTVSPost2010Prop55
280
     0
102
RTVSPost2010PropOp55
 70
     1
102
RTVSPost2010Prop56
140
1.0
102
RTVSPost2010PropOp56
 70
     1
102
RTVSPost2010Prop57
140
1.0
102
RTVSPost2010PropOp57
 70
     1
102
RTVSPropertyOp0
 70
     1
102
RTVSPropertyOp1
 70
     1
102
RTVSPropertyOp2
 70
     1
102
RTVSPropertyOp3
 70
     1
102
RTVSPropertyOp4
 70
     1
102
RTVSPropertyOp5
 70
     1
102
RTVSPropertyOp6
 70
     1
102
RTVSPropertyOp7
 70
     1
102
RTVSPropertyOp8
 70
     1
102
RTVSPropertyOp9
 70
     1
102
RTVSPropertyOp10
 70
     1
102
RTVSPropertyOp11
 70
     1
102
RTVSPropertyOp12
 70
     1
102
RTVSPropertyOp13
 70
     1
102
RTVSPropertyOp14
 70
     1
102
RTVSPropertyOp15
 70
     1
102
RTVSPropertyOp16
 70
     1
102
RTVSPropertyOp17
 70
     1
102
RTVSPropertyOp18
 70
     1
102
RTVSPropertyOp19
 70
     1
102
RTVSPropertyOp20
 70
     1
102
RTVSPropertyOp21
 70
     1
102
RTVSPropertyOp22
 70
     1
102
RTVSPropertyOp23
 70
     1
102
RTVSPropertyOp24
 70
     1
102
RTVSPropertyOp25
 70
     1
102
RTVSPropertyOp26
 70
     1
102
RTVSPropertyOp27
 70
     1
102
RTVSPropertyOp28
 70
     1
102
RTVSPropertyOp29
 70
     1
102
RTVSPropertyOp30
 70
     1
102
RTVSPropertyOp31
 70
     1
102
RTVSPropertyOp32
 70
     1
102
RTVSPropertyOp33
 70
     1
102
RTVSPropertyOp34
 70
     1
102
RTVSPropertyOp35
 70
     1
102
RTVSPropertyOp36
 70
     1
102
RTVSPropertyOp37
 70
     1
102
RTVSPropertyOp38
 70
     1
102
RTVSPropertyOp39
 70
     1
102
RTVSPropertyOp40
 70
     1
102
RTVSPropertyOp41
 70
     1
102
RTVSPropertyOp42
 70
     1
102
RTVSPropertyOp43
 70
     1
102
RTVSPropertyOp44
 70
     1
102
RTVSPropertyOp45
 70
     1
102
RTVSPropertyOp46
 70
     1
102
RTVSPropertyOp47
 70
     1
102
RTVSPropertyOp48
 70
     1
102
RTVSPropertyOp49
 70
     1
102
RTVSPropertyOp50
 70
     1
102
RTVSPropertyOp51
 70
     0
102
RTVSPropertyOp52
 70
     0
102
RTVSPropertyOp53
 70
     1
102
RTVSPropertyOp54
 70
     1
102
RTVSPropertyOp55
 70
     1
102
RTVSPropertyOp56
 70
     1
102
RTVSPropertyOp57
 70
     1
102
RTVSPropertyOp58
 70
     1
102
RTVSPropertyOp59
 70
     1
102
RTVSPropertyOp60
 70
     1
102
RTVSPropertyOp61
 70
     1
102
RTVSPropertyOp62
 70
     1
  0
XRECORD
  5
97A6
102
{ACAD_REACTORS
330
97A5
102
}
330
97A5
100
AcDbXrecord
280
     1
102
RTVSPost2010Prop28
280
     0
102
RTVSPost2010PropOp28
 70
     1
102
RTVSPost2010Prop29
280
     1
102
RTVSPost2010PropOp29
 70
     1
102
RTVSPost2010Prop30
280
     1
102
RTVSPost2010PropOp30
 70
     1
102
RTVSPost2010Prop31
280
     0
102
RTVSPost2010PropOp31
 70
     1
102
RTVSPost2010Prop32
280
     0
102
RTVSPost2010PropOp32
 70
     1
102
RTVSPost2010Prop33
280
     0
102
RTVSPost2010PropOp33
 70
     1
102
RTVSPost2010Prop34
280
     0
102
RTVSPost2010PropOp34
 70
     1
102
RTVSPost2010Prop35
280
     0
102
RTVSPost2010PropOp35
 70
     1
102
RTVSPost2010Prop36
280
     0
102
RTVSPost2010PropOp36
 70
     1
102
RTVSPost2010Prop37
 90
       50
102
RTVSPost2010PropOp37
 70
     1
102
RTVSPost2010Prop38
140
0.0
102
RTVSPost2010PropOp38
 70
     1
102
RTVSPost2010Prop39
140
1.0
102
RTVSPost2010PropOp39
 70
     1
102
RTVSPost2010Prop40
 90
        0
102
RTVSPost2010PropOp40
 70
     1
102
RTVSPost2010Prop41ColorIndex
 90
       18
102
RTVSPost2010Prop41ColorRGB
 90
        0
102
RTVSPost2010PropOp41
 70
     1
102
RTVSPost2010Prop42
 90
       50
102
RTVSPost2010PropOp42
 70
     1
102
RTVSPost2010Prop43
 90
        3
102
RTVSPost2010PropOp43
 70
     1
102
RTVSPost2010Prop44ColorIndex
 90
        5
102
RTVSPost2010Prop44ColorRGB
 90
      255
102
RTVSPost2010PropOp44
 70
     1
102
RTVSPost2010Prop45
280
     0
102
RTVSPost2010PropOp45
 70
     1
102
RTVSPost2010Prop46
 90
       50
102
RTVSPost2010PropOp46
 70
     1
102
RTVSPost2010Prop47
 90
       50
102
RTVSPost2010PropOp47
 70
     1
102
RTVSPost2010Prop48
 90
       50
102
RTVSPost2010PropOp48
 70
     1
102
RTVSPost2010Prop49
280
     0
102
RTVSPost2010PropOp49
 70
     1
102
RTVSPost2010Prop50
 90
       50
102
RTVSPost2010PropOp50
 70
     1
102
RTVSPost2010Prop51ColorIndex
 90
      256
102
RTVSPost2010Prop51ColorRGB
 90
-16777216
102
RTVSPost2010PropOp51
 70
     0
102
RTVSPost2010Prop52
140
1.0
102
RTVSPost2010PropOp52
 70
     0
102
RTVSPost2010Prop53
 90
        2
102
RTVSPost2010PropOp53
 70
     1
102
RTVSPost2010Prop54
  1
strokes_ogs.tif
102
RTVSPost2010PropOp54
 70
     1
102
RTVSPost2010Prop55
280
     0
102
RTVSPost2010PropOp55
 70
     1
102
RTVSPost2010Prop56
140
1.0
102
RTVSPost2010PropOp56
 70
     1
102
RTVSPost2010Prop57
140
1.0
102
RTVSPost2010PropOp57
 70
     1
102
RTVSPropertyOp0
 70
     1
102
RTVSPropertyOp1
 70
     1
102
RTVSPropertyOp2
 70
     1
102
RTVSPropertyOp3
 70
     1
102
RTVSPropertyOp4
 70
     1
102
RTVSPropertyOp5
 70
     1
102
RTVSPropertyOp6
 70
     1
102
RTVSPropertyOp7
 70
     1
102
RTVSPropertyOp8
 70
     1
102
RTVSPropertyOp9
 70
     1
102
RTVSPropertyOp10
 70
     1
102
RTVSPropertyOp11
 70
     1
102
RTVSPropertyOp12
 70
     1
102
RTVSPropertyOp13
 70
     1
102
RTVSPropertyOp14
 70
     1
102
RTVSPropertyOp15
 70
     1
102
RTVSPropertyOp16
 70
     1
102
RTVSPropertyOp17
 70
     1
102
RTVSPropertyOp18
 70
     1
102
RTVSPropertyOp19
 70
     1
102
RTVSPropertyOp20
 70
     1
102
RTVSPropertyOp21
 70
     1
102
RTVSPropertyOp22
 70
     1
102
RTVSPropertyOp23
 70
     1
102
RTVSPropertyOp24
 70
     1
102
RTVSPropertyOp25
 70
     1
102
RTVSPropertyOp26
 70
     1
102
RTVSPropertyOp27
 70
     1
102
RTVSPropertyOp28
 70
     1
102
RTVSPropertyOp29
 70
     1
102
RTVSPropertyOp30
 70
     1
102
RTVSPropertyOp31
 70
     1
102
RTVSPropertyOp32
 70
     1
102
RTVSPropertyOp33
 70
     1
102
RTVSPropertyOp34
 70
     1
102
RTVSPropertyOp35
 70
     1
102
RTVSPropertyOp36
 70
     1
102
RTVSPropertyOp37
 70
     1
102
RTVSPropertyOp38
 70
     1
102
RTVSPropertyOp39
 70
     1
102
RTVSPropertyOp40
 70
     1
102
RTVSPropertyOp41
 70
     1
102
RTVSPropertyOp42
 70
     1
102
RTVSPropertyOp43
 70
     1
102
RTVSPropertyOp44
 70
     1
102
RTVSPropertyOp45
 70
     1
102
RTVSPropertyOp46
 70
     1
102
RTVSPropertyOp47
 70
     1
102
RTVSPropertyOp48
 70
     1
102
RTVSPropertyOp49
 70
     1
102
RTVSPropertyOp50
 70
     1
102
RTVSPropertyOp51
 70
     0
102
RTVSPropertyOp52
 70
     0
102
RTVSPropertyOp53
 70
     1
102
RTVSPropertyOp54
 70
     1
102
RTVSPropertyOp55
 70
     1
102
RTVSPropertyOp56
 70
     1
102
RTVSPropertyOp57
 70
     1
102
RTVSPropertyOp58
 70
     1
102
RTVSPropertyOp59
 70
     1
102
RTVSPropertyOp60
 70
     1
102
RTVSPropertyOp61
 70
     1
102
RTVSPropertyOp62
 70
     1
  0
XRECORD
  5
97BA
102
{ACAD_REACTORS
330
97B9
102
}
330
97B9
100
AcDbXrecord
280
     1
102
RTVSPost2010Prop28
280
     0
102
RTVSPost2010PropOp28
 70
     1
102
RTVSPost2010Prop29
280
     1
102
RTVSPost2010PropOp29
 70
     1
102
RTVSPost2010Prop30
280
     1
102
RTVSPost2010PropOp30
 70
     1
102
RTVSPost2010Prop31
280
     0
102
RTVSPost2010PropOp31
 70
     1
102
RTVSPost2010Prop32
280
     0
102
RTVSPost2010PropOp32
 70
     1
102
RTVSPost2010Prop33
280
     0
102
RTVSPost2010PropOp33
 70
     1
102
RTVSPost2010Prop34
280
     0
102
RTVSPost2010PropOp34
 70
     1
102
RTVSPost2010Prop35
280
     0
102
RTVSPost2010PropOp35
 70
     1
102
RTVSPost2010Prop36
280
     0
102
RTVSPost2010PropOp36
 70
     1
102
RTVSPost2010Prop37
 90
       50
102
RTVSPost2010PropOp37
 70
     1
102
RTVSPost2010Prop38
140
0.0
102
RTVSPost2010PropOp38
 70
     1
102
RTVSPost2010Prop39
140
1.0
102
RTVSPost2010PropOp39
 70
     1
102
RTVSPost2010Prop40
 90
        0
102
RTVSPost2010PropOp40
 70
     1
102
RTVSPost2010Prop41ColorIndex
 90
       18
102
RTVSPost2010Prop41ColorRGB
 90
        0
102
RTVSPost2010PropOp41
 70
     1
102
RTVSPost2010Prop42
 90
       50
102
RTVSPost2010PropOp42
 70
     1
102
RTVSPost2010Prop43
 90
        3
102
RTVSPost2010PropOp43
 70
     1
102
RTVSPost2010Prop44ColorIndex
 90
        5
102
RTVSPost2010Prop44ColorRGB
 90
      255
102
RTVSPost2010PropOp44
 70
     1
102
RTVSPost2010Prop45
280
     0
102
RTVSPost2010PropOp45
 70
     1
102
RTVSPost2010Prop46
 90
       50
102
RTVSPost2010PropOp46
 70
     1
102
RTVSPost2010Prop47
 90
       50
102
RTVSPost2010PropOp47
 70
     1
102
RTVSPost2010Prop48
 90
       50
102
RTVSPost2010PropOp48
 70
     1
102
RTVSPost2010Prop49
280
     0
102
RTVSPost2010PropOp49
 70
     1
102
RTVSPost2010Prop50
 90
       50
102
RTVSPost2010PropOp50
 70
     1
102
RTVSPost2010Prop51ColorIndex
 90
      256
102
RTVSPost2010Prop51ColorRGB
 90
-16777216
102
RTVSPost2010PropOp51
 70
     0
102
RTVSPost2010Prop52
140
1.0
102
RTVSPost2010PropOp52
 70
     0
102
RTVSPost2010Prop53
 90
        2
102
RTVSPost2010PropOp53
 70
     1
102
RTVSPost2010Prop54
  1
strokes_ogs.tif
102
RTVSPost2010PropOp54
 70
     1
102
RTVSPost2010Prop55
280
     0
102
RTVSPost2010PropOp55
 70
     1
102
RTVSPost2010Prop56
140
1.0
102
RTVSPost2010PropOp56
 70
     1
102
RTVSPost2010Prop57
140
1.0
102
RTVSPost2010PropOp57
 70
     1
102
RTVSPropertyOp0
 70
     0
102
RTVSPropertyOp1
 70
     0
102
RTVSPropertyOp2
 70
     0
102
RTVSPropertyOp3
 70
     0
102
RTVSPropertyOp4
 70
     0
102
RTVSPropertyOp5
 70
     0
102
RTVSPropertyOp6
 70
     0
102
RTVSPropertyOp7
 70
     0
102
RTVSPropertyOp8
 70
     0
102
RTVSPropertyOp9
 70
     0
102
RTVSPropertyOp10
 70
     0
102
RTVSPropertyOp11
 70
     0
102
RTVSPropertyOp12
 70
     0
102
RTVSPropertyOp13
 70
     0
102
RTVSPropertyOp14
 70
     2
102
RTVSPropertyOp15
 70
     0
102
RTVSPropertyOp16
 70
     0
102
RTVSPropertyOp17
 70
     0
102
RTVSPropertyOp18
 70
     0
102
RTVSPropertyOp19
 70
     0
102
RTVSPropertyOp20
 70
     0
102
RTVSPropertyOp21
 70
     0
102
RTVSPropertyOp22
 70
     0
102
RTVSPropertyOp23
 70
     0
102
RTVSPropertyOp24
 70
     0
102
RTVSPropertyOp25
 70
     0
102
RTVSPropertyOp26
 70
     0
102
RTVSPropertyOp27
 70
     0
102
RTVSPropertyOp28
 70
     1
102
RTVSPropertyOp29
 70
     1
102
RTVSPropertyOp30
 70
     1
102
RTVSPropertyOp31
 70
     1
102
RTVSPropertyOp32
 70
     1
102
RTVSPropertyOp33
 70
     1
102
RTVSPropertyOp34
 70
     1
102
RTVSPropertyOp35
 70
     1
102
RTVSPropertyOp36
 70
     1
102
RTVSPropertyOp37
 70
     1
102
RTVSPropertyOp38
 70
     1
102
RTVSPropertyOp39
 70
     1
102
RTVSPropertyOp40
 70
     1
102
RTVSPropertyOp41
 70
     1
102
RTVSPropertyOp42
 70
     1
102
RTVSPropertyOp43
 70
     1
102
RTVSPropertyOp44
 70
     1
102
RTVSPropertyOp45
 70
     1
102
RTVSPropertyOp46
 70
     1
102
RTVSPropertyOp47
 70
     1
102
RTVSPropertyOp48
 70
     1
102
RTVSPropertyOp49
 70
     1
102
RTVSPropertyOp50
 70
     1
102
RTVSPropertyOp51
 70
     0
102
RTVSPropertyOp52
 70
     0
102
RTVSPropertyOp53
 70
     1
102
RTVSPropertyOp54
 70
     1
102
RTVSPropertyOp55
 70
     1
102
RTVSPropertyOp56
 70
     1
102
RTVSPropertyOp57
 70
     1
102
RTVSPropertyOp58
 70
     1
102
RTVSPropertyOp59
 70
     1
102
RTVSPropertyOp60
 70
     1
102
RTVSPropertyOp61
 70
     1
102
RTVSPropertyOp62
 70
     1
  0
XRECORD
  5
97B2
102
{ACAD_REACTORS
330
97B1
102
}
330
97B1
100
AcDbXrecord
280
     1
102
RTVSPost2010Prop28
280
     0
102
RTVSPost2010PropOp28
 70
     1
102
RTVSPost2010Prop29
280
     1
102
RTVSPost2010PropOp29
 70
     1
102
RTVSPost2010Prop30
280
     1
102
RTVSPost2010PropOp30
 70
     1
102
RTVSPost2010Prop31
280
     0
102
RTVSPost2010PropOp31
 70
     1
102
RTVSPost2010Prop32
280
     0
102
RTVSPost2010PropOp32
 70
     1
102
RTVSPost2010Prop33
280
     0
102
RTVSPost2010PropOp33
 70
     1
102
RTVSPost2010Prop34
280
     0
102
RTVSPost2010PropOp34
 70
     1
102
RTVSPost2010Prop35
280
     0
102
RTVSPost2010PropOp35
 70
     1
102
RTVSPost2010Prop36
280
     0
102
RTVSPost2010PropOp36
 70
     1
102
RTVSPost2010Prop37
 90
       50
102
RTVSPost2010PropOp37
 70
     1
102
RTVSPost2010Prop38
140
0.0
102
RTVSPost2010PropOp38
 70
     1
102
RTVSPost2010Prop39
140
1.0
102
RTVSPost2010PropOp39
 70
     1
102
RTVSPost2010Prop40
 90
        0
102
RTVSPost2010PropOp40
 70
     1
102
RTVSPost2010Prop41ColorIndex
 90
       18
102
RTVSPost2010Prop41ColorRGB
 90
        0
102
RTVSPost2010PropOp41
 70
     1
102
RTVSPost2010Prop42
 90
       50
102
RTVSPost2010PropOp42
 70
     1
102
RTVSPost2010Prop43
 90
        3
102
RTVSPost2010PropOp43
 70
     1
102
RTVSPost2010Prop44ColorIndex
 90
        5
102
RTVSPost2010Prop44ColorRGB
 90
      255
102
RTVSPost2010PropOp44
 70
     1
102
RTVSPost2010Prop45
280
     0
102
RTVSPost2010PropOp45
 70
     1
102
RTVSPost2010Prop46
 90
       50
102
RTVSPost2010PropOp46
 70
     1
102
RTVSPost2010Prop47
 90
       50
102
RTVSPost2010PropOp47
 70
     1
102
RTVSPost2010Prop48
 90
       50
102
RTVSPost2010PropOp48
 70
     1
102
RTVSPost2010Prop49
280
     0
102
RTVSPost2010PropOp49
 70
     1
102
RTVSPost2010Prop50
 90
       50
102
RTVSPost2010PropOp50
 70
     1
102
RTVSPost2010Prop51ColorIndex
 90
      256
102
RTVSPost2010Prop51ColorRGB
 90
-16777216
102
RTVSPost2010PropOp51
 70
     0
102
RTVSPost2010Prop52
140
1.0
102
RTVSPost2010PropOp52
 70
     0
102
RTVSPost2010Prop53
 90
        2
102
RTVSPost2010PropOp53
 70
     1
102
RTVSPost2010Prop54
  1
strokes_ogs.tif
102
RTVSPost2010PropOp54
 70
     1
102
RTVSPost2010Prop55
280
     0
102
RTVSPost2010PropOp55
 70
     1
102
RTVSPost2010Prop56
140
1.0
102
RTVSPost2010PropOp56
 70
     1
102
RTVSPost2010Prop57
140
1.0
102
RTVSPost2010PropOp57
 70
     1
102
RTVSPropertyOp0
 70
     1
102
RTVSPropertyOp1
 70
     1
102
RTVSPropertyOp2
 70
     1
102
RTVSPropertyOp3
 70
     1
102
RTVSPropertyOp4
 70
     1
102
RTVSPropertyOp5
 70
     1
102
RTVSPropertyOp6
 70
     1
102
RTVSPropertyOp7
 70
     1
102
RTVSPropertyOp8
 70
     1
102
RTVSPropertyOp9
 70
     1
102
RTVSPropertyOp10
 70
     1
102
RTVSPropertyOp11
 70
     1
102
RTVSPropertyOp12
 70
     1
102
RTVSPropertyOp13
 70
     1
102
RTVSPropertyOp14
 70
     1
102
RTVSPropertyOp15
 70
     1
102
RTVSPropertyOp16
 70
     1
102
RTVSPropertyOp17
 70
     1
102
RTVSPropertyOp18
 70
     1
102
RTVSPropertyOp19
 70
     1
102
RTVSPropertyOp20
 70
     1
102
RTVSPropertyOp21
 70
     1
102
RTVSPropertyOp22
 70
     1
102
RTVSPropertyOp23
 70
     1
102
RTVSPropertyOp24
 70
     1
102
RTVSPropertyOp25
 70
     1
102
RTVSPropertyOp26
 70
     1
102
RTVSPropertyOp27
 70
     1
102
RTVSPropertyOp28
 70
     1
102
RTVSPropertyOp29
 70
     1
102
RTVSPropertyOp30
 70
     1
102
RTVSPropertyOp31
 70
     1
102
RTVSPropertyOp32
 70
     1
102
RTVSPropertyOp33
 70
     1
102
RTVSPropertyOp34
 70
     1
102
RTVSPropertyOp35
 70
     1
102
RTVSPropertyOp36
 70
     1
102
RTVSPropertyOp37
 70
     1
102
RTVSPropertyOp38
 70
     1
102
RTVSPropertyOp39
 70
     1
102
RTVSPropertyOp40
 70
     1
102
RTVSPropertyOp41
 70
     1
102
RTVSPropertyOp42
 70
     1
102
RTVSPropertyOp43
 70
     1
102
RTVSPropertyOp44
 70
     1
102
RTVSPropertyOp45
 70
     1
102
RTVSPropertyOp46
 70
     1
102
RTVSPropertyOp47
 70
     1
102
RTVSPropertyOp48
 70
     1
102
RTVSPropertyOp49
 70
     1
102
RTVSPropertyOp50
 70
     1
102
RTVSPropertyOp51
 70
     0
102
RTVSPropertyOp52
 70
     0
102
RTVSPropertyOp53
 70
     1
102
RTVSPropertyOp54
 70
     1
102
RTVSPropertyOp55
 70
     1
102
RTVSPropertyOp56
 70
     1
102
RTVSPropertyOp57
 70
     1
102
RTVSPropertyOp58
 70
     1
102
RTVSPropertyOp59
 70
     1
102
RTVSPropertyOp60
 70
     1
102
RTVSPropertyOp61
 70
     1
102
RTVSPropertyOp62
 70
     1
  0
XRECORD
  5
97BC
102
{ACAD_REACTORS
330
97BB
102
}
330
97BB
100
AcDbXrecord
280
     1
102
RTVSPost2010Prop28
280
     0
102
RTVSPost2010PropOp28
 70
     1
102
RTVSPost2010Prop29
280
     1
102
RTVSPost2010PropOp29
 70
     1
102
RTVSPost2010Prop30
280
     1
102
RTVSPost2010PropOp30
 70
     1
102
RTVSPost2010Prop31
280
     0
102
RTVSPost2010PropOp31
 70
     1
102
RTVSPost2010Prop32
280
     0
102
RTVSPost2010PropOp32
 70
     1
102
RTVSPost2010Prop33
280
     0
102
RTVSPost2010PropOp33
 70
     1
102
RTVSPost2010Prop34
280
     0
102
RTVSPost2010PropOp34
 70
     1
102
RTVSPost2010Prop35
280
     0
102
RTVSPost2010PropOp35
 70
     1
102
RTVSPost2010Prop36
280
     0
102
RTVSPost2010PropOp36
 70
     1
102
RTVSPost2010Prop37
 90
       50
102
RTVSPost2010PropOp37
 70
     1
102
RTVSPost2010Prop38
140
0.0
102
RTVSPost2010PropOp38
 70
     1
102
RTVSPost2010Prop39
140
1.0
102
RTVSPost2010PropOp39
 70
     1
102
RTVSPost2010Prop40
 90
        0
102
RTVSPost2010PropOp40
 70
     1
102
RTVSPost2010Prop41ColorIndex
 90
       18
102
RTVSPost2010Prop41ColorRGB
 90
        0
102
RTVSPost2010PropOp41
 70
     1
102
RTVSPost2010Prop42
 90
       50
102
RTVSPost2010PropOp42
 70
     1
102
RTVSPost2010Prop43
 90
        3
102
RTVSPost2010PropOp43
 70
     1
102
RTVSPost2010Prop44ColorIndex
 90
        5
102
RTVSPost2010Prop44ColorRGB
 90
      255
102
RTVSPost2010PropOp44
 70
     1
102
RTVSPost2010Prop45
280
     0
102
RTVSPost2010PropOp45
 70
     1
102
RTVSPost2010Prop46
 90
       50
102
RTVSPost2010PropOp46
 70
     1
102
RTVSPost2010Prop47
 90
       50
102
RTVSPost2010PropOp47
 70
     1
102
RTVSPost2010Prop48
 90
       50
102
RTVSPost2010PropOp48
 70
     1
102
RTVSPost2010Prop49
280
     0
102
RTVSPost2010PropOp49
 70
     1
102
RTVSPost2010Prop50
 90
       50
102
RTVSPost2010PropOp50
 70
     1
102
RTVSPost2010Prop51ColorIndex
 90
      256
102
RTVSPost2010Prop51ColorRGB
 90
-16777216
102
RTVSPost2010PropOp51
 70
     0
102
RTVSPost2010Prop52
140
1.0
102
RTVSPost2010PropOp52
 70
     0
102
RTVSPost2010Prop53
 90
        2
102
RTVSPost2010PropOp53
 70
     1
102
RTVSPost2010Prop54
  1
strokes_ogs.tif
102
RTVSPost2010PropOp54
 70
     1
102
RTVSPost2010Prop55
280
     0
102
RTVSPost2010PropOp55
 70
     1
102
RTVSPost2010Prop56
140
1.0
102
RTVSPost2010PropOp56
 70
     1
102
RTVSPost2010Prop57
140
1.0
102
RTVSPost2010PropOp57
 70
     1
102
RTVSPropertyOp0
 70
     0
102
RTVSPropertyOp1
 70
     0
102
RTVSPropertyOp2
 70
     0
102
RTVSPropertyOp3
 70
     0
102
RTVSPropertyOp4
 70
     0
102
RTVSPropertyOp5
 70
     0
102
RTVSPropertyOp6
 70
     0
102
RTVSPropertyOp7
 70
     0
102
RTVSPropertyOp8
 70
     0
102
RTVSPropertyOp9
 70
     0
102
RTVSPropertyOp10
 70
     0
102
RTVSPropertyOp11
 70
     0
102
RTVSPropertyOp12
 70
     0
102
RTVSPropertyOp13
 70
     0
102
RTVSPropertyOp14
 70
     2
102
RTVSPropertyOp15
 70
     0
102
RTVSPropertyOp16
 70
     0
102
RTVSPropertyOp17
 70
     0
102
RTVSPropertyOp18
 70
     0
102
RTVSPropertyOp19
 70
     0
102
RTVSPropertyOp20
 70
     0
102
RTVSPropertyOp21
 70
     0
102
RTVSPropertyOp22
 70
     0
102
RTVSPropertyOp23
 70
     0
102
RTVSPropertyOp24
 70
     0
102
RTVSPropertyOp25
 70
     0
102
RTVSPropertyOp26
 70
     0
102
RTVSPropertyOp27
 70
     0
102
RTVSPropertyOp28
 70
     1
102
RTVSPropertyOp29
 70
     1
102
RTVSPropertyOp30
 70
     1
102
RTVSPropertyOp31
 70
     1
102
RTVSPropertyOp32
 70
     1
102
RTVSPropertyOp33
 70
     1
102
RTVSPropertyOp34
 70
     1
102
RTVSPropertyOp35
 70
     1
102
RTVSPropertyOp36
 70
     1
102
RTVSPropertyOp37
 70
     1
102
RTVSPropertyOp38
 70
     1
102
RTVSPropertyOp39
 70
     1
102
RTVSPropertyOp40
 70
     1
102
RTVSPropertyOp41
 70
     1
102
RTVSPropertyOp42
 70
     1
102
RTVSPropertyOp43
 70
     1
102
RTVSPropertyOp44
 70
     1
102
RTVSPropertyOp45
 70
     1
102
RTVSPropertyOp46
 70
     1
102
RTVSPropertyOp47
 70
     1
102
RTVSPropertyOp48
 70
     1
102
RTVSPropertyOp49
 70
     1
102
RTVSPropertyOp50
 70
     1
102
RTVSPropertyOp51
 70
     0
102
RTVSPropertyOp52
 70
     0
102
RTVSPropertyOp53
 70
     1
102
RTVSPropertyOp54
 70
     1
102
RTVSPropertyOp55
 70
     1
102
RTVSPropertyOp56
 70
     1
102
RTVSPropertyOp57
 70
     1
102
RTVSPropertyOp58
 70
     1
102
RTVSPropertyOp59
 70
     1
102
RTVSPropertyOp60
 70
     1
102
RTVSPropertyOp61
 70
     1
102
RTVSPropertyOp62
 70
     1
  0
XRECORD
  5
97AA
102
{ACAD_REACTORS
330
97A9
102
}
330
97A9
100
AcDbXrecord
280
     1
102
RTVSPost2010Prop28
280
     0
102
RTVSPost2010PropOp28
 70
     1
102
RTVSPost2010Prop29
280
     1
102
RTVSPost2010PropOp29
 70
     1
102
RTVSPost2010Prop30
280
     1
102
RTVSPost2010PropOp30
 70
     1
102
RTVSPost2010Prop31
280
     0
102
RTVSPost2010PropOp31
 70
     1
102
RTVSPost2010Prop32
280
     0
102
RTVSPost2010PropOp32
 70
     1
102
RTVSPost2010Prop33
280
     0
102
RTVSPost2010PropOp33
 70
     1
102
RTVSPost2010Prop34
280
     0
102
RTVSPost2010PropOp34
 70
     1
102
RTVSPost2010Prop35
280
     0
102
RTVSPost2010PropOp35
 70
     1
102
RTVSPost2010Prop36
280
     0
102
RTVSPost2010PropOp36
 70
     1
102
RTVSPost2010Prop37
 90
       50
102
RTVSPost2010PropOp37
 70
     1
102
RTVSPost2010Prop38
140
0.0
102
RTVSPost2010PropOp38
 70
     1
102
RTVSPost2010Prop39
140
1.0
102
RTVSPost2010PropOp39
 70
     1
102
RTVSPost2010Prop40
 90
        0
102
RTVSPost2010PropOp40
 70
     1
102
RTVSPost2010Prop41ColorIndex
 90
       18
102
RTVSPost2010Prop41ColorRGB
 90
        0
102
RTVSPost2010PropOp41
 70
     1
102
RTVSPost2010Prop42
 90
       50
102
RTVSPost2010PropOp42
 70
     1
102
RTVSPost2010Prop43
 90
        3
102
RTVSPost2010PropOp43
 70
     1
102
RTVSPost2010Prop44ColorIndex
 90
        5
102
RTVSPost2010Prop44ColorRGB
 90
      255
102
RTVSPost2010PropOp44
 70
     1
102
RTVSPost2010Prop45
280
     0
102
RTVSPost2010PropOp45
 70
     1
102
RTVSPost2010Prop46
 90
       50
102
RTVSPost2010PropOp46
 70
     1
102
RTVSPost2010Prop47
 90
       50
102
RTVSPost2010PropOp47
 70
     1
102
RTVSPost2010Prop48
 90
       50
102
RTVSPost2010PropOp48
 70
     1
102
RTVSPost2010Prop49
280
     0
102
RTVSPost2010PropOp49
 70
     1
102
RTVSPost2010Prop50
 90
       50
102
RTVSPost2010PropOp50
 70
     1
102
RTVSPost2010Prop51ColorIndex
 90
      256
102
RTVSPost2010Prop51ColorRGB
 90
-16777216
102
RTVSPost2010PropOp51
 70
     0
102
RTVSPost2010Prop52
140
1.0
102
RTVSPost2010PropOp52
 70
     0
102
RTVSPost2010Prop53
 90
        2
102
RTVSPost2010PropOp53
 70
     1
102
RTVSPost2010Prop54
  1
strokes_ogs.tif
102
RTVSPost2010PropOp54
 70
     1
102
RTVSPost2010Prop55
280
     0
102
RTVSPost2010PropOp55
 70
     1
102
RTVSPost2010Prop56
140
1.0
102
RTVSPost2010PropOp56
 70
     1
102
RTVSPost2010Prop57
140
1.0
102
RTVSPost2010PropOp57
 70
     1
102
RTVSPropertyOp0
 70
     1
102
RTVSPropertyOp1
 70
     1
102
RTVSPropertyOp2
 70
     1
102
RTVSPropertyOp3
 70
     1
102
RTVSPropertyOp4
 70
     1
102
RTVSPropertyOp5
 70
     1
102
RTVSPropertyOp6
 70
     1
102
RTVSPropertyOp7
 70
     1
102
RTVSPropertyOp8
 70
     1
102
RTVSPropertyOp9
 70
     1
102
RTVSPropertyOp10
 70
     1
102
RTVSPropertyOp11
 70
     1
102
RTVSPropertyOp12
 70
     1
102
RTVSPropertyOp13
 70
     1
102
RTVSPropertyOp14
 70
     1
102
RTVSPropertyOp15
 70
     1
102
RTVSPropertyOp16
 70
     1
102
RTVSPropertyOp17
 70
     1
102
RTVSPropertyOp18
 70
     1
102
RTVSPropertyOp19
 70
     1
102
RTVSPropertyOp20
 70
     1
102
RTVSPropertyOp21
 70
     1
102
RTVSPropertyOp22
 70
     1
102
RTVSPropertyOp23
 70
     1
102
RTVSPropertyOp24
 70
     1
102
RTVSPropertyOp25
 70
     1
102
RTVSPropertyOp26
 70
     1
102
RTVSPropertyOp27
 70
     1
102
RTVSPropertyOp28
 70
     1
102
RTVSPropertyOp29
 70
     1
102
RTVSPropertyOp30
 70
     1
102
RTVSPropertyOp31
 70
     1
102
RTVSPropertyOp32
 70
     1
102
RTVSPropertyOp33
 70
     1
102
RTVSPropertyOp34
 70
     1
102
RTVSPropertyOp35
 70
     1
102
RTVSPropertyOp36
 70
     1
102
RTVSPropertyOp37
 70
     1
102
RTVSPropertyOp38
 70
     1
102
RTVSPropertyOp39
 70
     1
102
RTVSPropertyOp40
 70
     1
102
RTVSPropertyOp41
 70
     1
102
RTVSPropertyOp42
 70
     1
102
RTVSPropertyOp43
 70
     1
102
RTVSPropertyOp44
 70
     1
102
RTVSPropertyOp45
 70
     1
102
RTVSPropertyOp46
 70
     1
102
RTVSPropertyOp47
 70
     1
102
RTVSPropertyOp48
 70
     1
102
RTVSPropertyOp49
 70
     1
102
RTVSPropertyOp50
 70
     1
102
RTVSPropertyOp51
 70
     0
102
RTVSPropertyOp52
 70
     0
102
RTVSPropertyOp53
 70
     1
102
RTVSPropertyOp54
 70
     1
102
RTVSPropertyOp55
 70
     1
102
RTVSPropertyOp56
 70
     1
102
RTVSPropertyOp57
 70
     1
102
RTVSPropertyOp58
 70
     1
102
RTVSPropertyOp59
 70
     1
102
RTVSPropertyOp60
 70
     1
102
RTVSPropertyOp61
 70
     1
102
RTVSPropertyOp62
 70
     1
  0
XRECORD
  5
97C8
102
{ACAD_REACTORS
330
97C7
102
}
330
97C7
100
AcDbXrecord
280
     1
102
RTVSPost2010Prop28
280
     0
102
RTVSPost2010PropOp28
 70
     1
102
RTVSPost2010Prop29
280
     1
102
RTVSPost2010PropOp29
 70
     1
102
RTVSPost2010Prop30
280
     1
102
RTVSPost2010PropOp30
 70
     1
102
RTVSPost2010Prop31
280
     0
102
RTVSPost2010PropOp31
 70
     1
102
RTVSPost2010Prop32
280
     0
102
RTVSPost2010PropOp32
 70
     1
102
RTVSPost2010Prop33
280
     0
102
RTVSPost2010PropOp33
 70
     1
102
RTVSPost2010Prop34
280
     0
102
RTVSPost2010PropOp34
 70
     1
102
RTVSPost2010Prop35
280
     0
102
RTVSPost2010PropOp35
 70
     1
102
RTVSPost2010Prop36
280
     0
102
RTVSPost2010PropOp36
 70
     1
102
RTVSPost2010Prop37
 90
       50
102
RTVSPost2010PropOp37
 70
     1
102
RTVSPost2010Prop38
140
0.0
102
RTVSPost2010PropOp38
 70
     1
102
RTVSPost2010Prop39
140
1.0
102
RTVSPost2010PropOp39
 70
     1
102
RTVSPost2010Prop40
 90
        0
102
RTVSPost2010PropOp40
 70
     1
102
RTVSPost2010Prop41ColorIndex
 90
       18
102
RTVSPost2010Prop41ColorRGB
 90
        0
102
RTVSPost2010PropOp41
 70
     1
102
RTVSPost2010Prop42
 90
       50
102
RTVSPost2010PropOp42
 70
     1
102
RTVSPost2010Prop43
 90
        3
102
RTVSPost2010PropOp43
 70
     1
102
RTVSPost2010Prop44ColorIndex
 90
        5
102
RTVSPost2010Prop44ColorRGB
 90
      255
102
RTVSPost2010PropOp44
 70
     1
102
RTVSPost2010Prop45
280
     0
102
RTVSPost2010PropOp45
 70
     1
102
RTVSPost2010Prop46
 90
       50
102
RTVSPost2010PropOp46
 70
     1
102
RTVSPost2010Prop47
 90
       50
102
RTVSPost2010PropOp47
 70
     1
102
RTVSPost2010Prop48
 90
       50
102
RTVSPost2010PropOp48
 70
     1
102
RTVSPost2010Prop49
280
     0
102
RTVSPost2010PropOp49
 70
     1
102
RTVSPost2010Prop50
 90
       50
102
RTVSPost2010PropOp50
 70
     1
102
RTVSPost2010Prop51ColorIndex
 90
      256
102
RTVSPost2010Prop51ColorRGB
 90
-16777216
102
RTVSPost2010PropOp51
 70
     0
102
RTVSPost2010Prop52
140
1.0
102
RTVSPost2010PropOp52
 70
     0
102
RTVSPost2010Prop53
 90
        2
102
RTVSPost2010PropOp53
 70
     1
102
RTVSPost2010Prop54
  1
strokes_ogs.tif
102
RTVSPost2010PropOp54
 70
     1
102
RTVSPost2010Prop55
280
     0
102
RTVSPost2010PropOp55
 70
     1
102
RTVSPost2010Prop56
140
1.0
102
RTVSPost2010PropOp56
 70
     1
102
RTVSPost2010Prop57
140
1.0
102
RTVSPost2010PropOp57
 70
     1
102
RTVSPropertyOp0
 70
     1
102
RTVSPropertyOp1
 70
     1
102
RTVSPropertyOp2
 70
     1
102
RTVSPropertyOp3
 70
     1
102
RTVSPropertyOp4
 70
     1
102
RTVSPropertyOp5
 70
     1
102
RTVSPropertyOp6
 70
     1
102
RTVSPropertyOp7
 70
     1
102
RTVSPropertyOp8
 70
     1
102
RTVSPropertyOp9
 70
     1
102
RTVSPropertyOp10
 70
     1
102
RTVSPropertyOp11
 70
     1
102
RTVSPropertyOp12
 70
     1
102
RTVSPropertyOp13
 70
     1
102
RTVSPropertyOp14
 70
     1
102
RTVSPropertyOp15
 70
     1
102
RTVSPropertyOp16
 70
     1
102
RTVSPropertyOp17
 70
     1
102
RTVSPropertyOp18
 70
     1
102
RTVSPropertyOp19
 70
     1
102
RTVSPropertyOp20
 70
     1
102
RTVSPropertyOp21
 70
     1
102
RTVSPropertyOp22
 70
     1
102
RTVSPropertyOp23
 70
     1
102
RTVSPropertyOp24
 70
     1
102
RTVSPropertyOp25
 70
     1
102
RTVSPropertyOp26
 70
     1
102
RTVSPropertyOp27
 70
     1
102
RTVSPropertyOp28
 70
     1
102
RTVSPropertyOp29
 70
     1
102
RTVSPropertyOp30
 70
     1
102
RTVSPropertyOp31
 70
     1
102
RTVSPropertyOp32
 70
     1
102
RTVSPropertyOp33
 70
     1
102
RTVSPropertyOp34
 70
     1
102
RTVSPropertyOp35
 70
     1
102
RTVSPropertyOp36
 70
     1
102
RTVSPropertyOp37
 70
     1
102
RTVSPropertyOp38
 70
     1
102
RTVSPropertyOp39
 70
     1
102
RTVSPropertyOp40
 70
     1
102
RTVSPropertyOp41
 70
     1
102
RTVSPropertyOp42
 70
     1
102
RTVSPropertyOp43
 70
     1
102
RTVSPropertyOp44
 70
     1
102
RTVSPropertyOp45
 70
     1
102
RTVSPropertyOp46
 70
     1
102
RTVSPropertyOp47
 70
     1
102
RTVSPropertyOp48
 70
     1
102
RTVSPropertyOp49
 70
     1
102
RTVSPropertyOp50
 70
     1
102
RTVSPropertyOp51
 70
     0
102
RTVSPropertyOp52
 70
     0
102
RTVSPropertyOp53
 70
     1
102
RTVSPropertyOp54
 70
     1
102
RTVSPropertyOp55
 70
     1
102
RTVSPropertyOp56
 70
     1
102
RTVSPropertyOp57
 70
     1
102
RTVSPropertyOp58
 70
     1
102
RTVSPropertyOp59
 70
     1
102
RTVSPropertyOp60
 70
     1
102
RTVSPropertyOp61
 70
     1
102
RTVSPropertyOp62
 70
     1
  0
XRECORD
  5
97C6
102
{ACAD_REACTORS
330
97C5
102
}
330
97C5
100
AcDbXrecord
280
     1
102
RTVSPost2010Prop28
280
     0
102
RTVSPost2010PropOp28
 70
     1
102
RTVSPost2010Prop29
280
     1
102
RTVSPost2010PropOp29
 70
     1
102
RTVSPost2010Prop30
280
     1
102
RTVSPost2010PropOp30
 70
     1
102
RTVSPost2010Prop31
280
     0
102
RTVSPost2010PropOp31
 70
     1
102
RTVSPost2010Prop32
280
     0
102
RTVSPost2010PropOp32
 70
     1
102
RTVSPost2010Prop33
280
     0
102
RTVSPost2010PropOp33
 70
     1
102
RTVSPost2010Prop34
280
     0
102
RTVSPost2010PropOp34
 70
     1
102
RTVSPost2010Prop35
280
     0
102
RTVSPost2010PropOp35
 70
     1
102
RTVSPost2010Prop36
280
     0
102
RTVSPost2010PropOp36
 70
     1
102
RTVSPost2010Prop37
 90
       50
102
RTVSPost2010PropOp37
 70
     1
102
RTVSPost2010Prop38
140
0.0
102
RTVSPost2010PropOp38
 70
     1
102
RTVSPost2010Prop39
140
1.0
102
RTVSPost2010PropOp39
 70
     1
102
RTVSPost2010Prop40
 90
        0
102
RTVSPost2010PropOp40
 70
     1
102
RTVSPost2010Prop41ColorIndex
 90
       18
102
RTVSPost2010Prop41ColorRGB
 90
        0
102
RTVSPost2010PropOp41
 70
     1
102
RTVSPost2010Prop42
 90
       50
102
RTVSPost2010PropOp42
 70
     1
102
RTVSPost2010Prop43
 90
        3
102
RTVSPost2010PropOp43
 70
     1
102
RTVSPost2010Prop44ColorIndex
 90
        5
102
RTVSPost2010Prop44ColorRGB
 90
      255
102
RTVSPost2010PropOp44
 70
     1
102
RTVSPost2010Prop45
280
     0
102
RTVSPost2010PropOp45
 70
     1
102
RTVSPost2010Prop46
 90
       50
102
RTVSPost2010PropOp46
 70
     1
102
RTVSPost2010Prop47
 90
       50
102
RTVSPost2010PropOp47
 70
     1
102
RTVSPost2010Prop48
 90
       50
102
RTVSPost2010PropOp48
 70
     1
102
RTVSPost2010Prop49
280
     0
102
RTVSPost2010PropOp49
 70
     1
102
RTVSPost2010Prop50
 90
       50
102
RTVSPost2010PropOp50
 70
     1
102
RTVSPost2010Prop51ColorIndex
 90
      256
102
RTVSPost2010Prop51ColorRGB
 90
-16777216
102
RTVSPost2010PropOp51
 70
     0
102
RTVSPost2010Prop52
140
1.0
102
RTVSPost2010PropOp52
 70
     0
102
RTVSPost2010Prop53
 90
        2
102
RTVSPost2010PropOp53
 70
     1
102
RTVSPost2010Prop54
  1
strokes_ogs.tif
102
RTVSPost2010PropOp54
 70
     1
102
RTVSPost2010Prop55
280
     0
102
RTVSPost2010PropOp55
 70
     1
102
RTVSPost2010Prop56
140
1.0
102
RTVSPost2010PropOp56
 70
     1
102
RTVSPost2010Prop57
140
1.0
102
RTVSPost2010PropOp57
 70
     1
102
RTVSPropertyOp0
 70
     1
102
RTVSPropertyOp1
 70
     1
102
RTVSPropertyOp2
 70
     1
102
RTVSPropertyOp3
 70
     1
102
RTVSPropertyOp4
 70
     1
102
RTVSPropertyOp5
 70
     1
102
RTVSPropertyOp6
 70
     1
102
RTVSPropertyOp7
 70
     1
102
RTVSPropertyOp8
 70
     1
102
RTVSPropertyOp9
 70
     1
102
RTVSPropertyOp10
 70
     1
102
RTVSPropertyOp11
 70
     1
102
RTVSPropertyOp12
 70
     1
102
RTVSPropertyOp13
 70
     1
102
RTVSPropertyOp14
 70
     1
102
RTVSPropertyOp15
 70
     1
102
RTVSPropertyOp16
 70
     1
102
RTVSPropertyOp17
 70
     1
102
RTVSPropertyOp18
 70
     1
102
RTVSPropertyOp19
 70
     1
102
RTVSPropertyOp20
 70
     1
102
RTVSPropertyOp21
 70
     1
102
RTVSPropertyOp22
 70
     1
102
RTVSPropertyOp23
 70
     1
102
RTVSPropertyOp24
 70
     1
102
RTVSPropertyOp25
 70
     1
102
RTVSPropertyOp26
 70
     1
102
RTVSPropertyOp27
 70
     1
102
RTVSPropertyOp28
 70
     1
102
RTVSPropertyOp29
 70
     1
102
RTVSPropertyOp30
 70
     1
102
RTVSPropertyOp31
 70
     1
102
RTVSPropertyOp32
 70
     1
102
RTVSPropertyOp33
 70
     1
102
RTVSPropertyOp34
 70
     1
102
RTVSPropertyOp35
 70
     1
102
RTVSPropertyOp36
 70
     1
102
RTVSPropertyOp37
 70
     1
102
RTVSPropertyOp38
 70
     1
102
RTVSPropertyOp39
 70
     1
102
RTVSPropertyOp40
 70
     1
102
RTVSPropertyOp41
 70
     1
102
RTVSPropertyOp42
 70
     1
102
RTVSPropertyOp43
 70
     1
102
RTVSPropertyOp44
 70
     1
102
RTVSPropertyOp45
 70
     1
102
RTVSPropertyOp46
 70
     1
102
RTVSPropertyOp47
 70
     1
102
RTVSPropertyOp48
 70
     1
102
RTVSPropertyOp49
 70
     1
102
RTVSPropertyOp50
 70
     1
102
RTVSPropertyOp51
 70
     0
102
RTVSPropertyOp52
 70
     0
102
RTVSPropertyOp53
 70
     1
102
RTVSPropertyOp54
 70
     1
102
RTVSPropertyOp55
 70
     1
102
RTVSPropertyOp56
 70
     1
102
RTVSPropertyOp57
 70
     1
102
RTVSPropertyOp58
 70
     1
102
RTVSPropertyOp59
 70
     1
102
RTVSPropertyOp60
 70
     1
102
RTVSPropertyOp61
 70
     1
102
RTVSPropertyOp62
 70
     1
  0
XRECORD
  5
97C0
102
{ACAD_REACTORS
330
97BF
102
}
330
97BF
100
AcDbXrecord
280
     1
102
RTVSPost2010Prop28
280
     0
102
RTVSPost2010PropOp28
 70
     1
102
RTVSPost2010Prop29
280
     1
102
RTVSPost2010PropOp29
 70
     1
102
RTVSPost2010Prop30
280
     1
102
RTVSPost2010PropOp30
 70
     1
102
RTVSPost2010Prop31
280
     0
102
RTVSPost2010PropOp31
 70
     1
102
RTVSPost2010Prop32
280
     0
102
RTVSPost2010PropOp32
 70
     1
102
RTVSPost2010Prop33
280
     0
102
RTVSPost2010PropOp33
 70
     1
102
RTVSPost2010Prop34
280
     0
102
RTVSPost2010PropOp34
 70
     1
102
RTVSPost2010Prop35
280
     0
102
RTVSPost2010PropOp35
 70
     1
102
RTVSPost2010Prop36
280
     0
102
RTVSPost2010PropOp36
 70
     1
102
RTVSPost2010Prop37
 90
       50
102
RTVSPost2010PropOp37
 70
     1
102
RTVSPost2010Prop38
140
0.0
102
RTVSPost2010PropOp38
 70
     1
102
RTVSPost2010Prop39
140
1.0
102
RTVSPost2010PropOp39
 70
     1
102
RTVSPost2010Prop40
 90
        0
102
RTVSPost2010PropOp40
 70
     1
102
RTVSPost2010Prop41ColorIndex
 90
       18
102
RTVSPost2010Prop41ColorRGB
 90
        0
102
RTVSPost2010PropOp41
 70
     1
102
RTVSPost2010Prop42
 90
       50
102
RTVSPost2010PropOp42
 70
     1
102
RTVSPost2010Prop43
 90
        3
102
RTVSPost2010PropOp43
 70
     1
102
RTVSPost2010Prop44ColorIndex
 90
        5
102
RTVSPost2010Prop44ColorRGB
 90
      255
102
RTVSPost2010PropOp44
 70
     1
102
RTVSPost2010Prop45
280
     0
102
RTVSPost2010PropOp45
 70
     1
102
RTVSPost2010Prop46
 90
       50
102
RTVSPost2010PropOp46
 70
     1
102
RTVSPost2010Prop47
 90
       50
102
RTVSPost2010PropOp47
 70
     1
102
RTVSPost2010Prop48
 90
       50
102
RTVSPost2010PropOp48
 70
     1
102
RTVSPost2010Prop49
280
     0
102
RTVSPost2010PropOp49
 70
     1
102
RTVSPost2010Prop50
 90
       50
102
RTVSPost2010PropOp50
 70
     1
102
RTVSPost2010Prop51ColorIndex
 90
      256
102
RTVSPost2010Prop51ColorRGB
 90
-16777216
102
RTVSPost2010PropOp51
 70
     0
102
RTVSPost2010Prop52
140
1.0
102
RTVSPost2010PropOp52
 70
     0
102
RTVSPost2010Prop53
 90
        2
102
RTVSPost2010PropOp53
 70
     1
102
RTVSPost2010Prop54
  1
strokes_ogs.tif
102
RTVSPost2010PropOp54
 70
     1
102
RTVSPost2010Prop55
280
     0
102
RTVSPost2010PropOp55
 70
     1
102
RTVSPost2010Prop56
140
1.0
102
RTVSPost2010PropOp56
 70
     1
102
RTVSPost2010Prop57
140
1.0
102
RTVSPost2010PropOp57
 70
     1
102
RTVSPropertyOp0
 70
     1
102
RTVSPropertyOp1
 70
     1
102
RTVSPropertyOp2
 70
     1
102
RTVSPropertyOp3
 70
     1
102
RTVSPropertyOp4
 70
     1
102
RTVSPropertyOp5
 70
     1
102
RTVSPropertyOp6
 70
     1
102
RTVSPropertyOp7
 70
     1
102
RTVSPropertyOp8
 70
     1
102
RTVSPropertyOp9
 70
     1
102
RTVSPropertyOp10
 70
     1
102
RTVSPropertyOp11
 70
     1
102
RTVSPropertyOp12
 70
     1
102
RTVSPropertyOp13
 70
     1
102
RTVSPropertyOp14
 70
     1
102
RTVSPropertyOp15
 70
     1
102
RTVSPropertyOp16
 70
     1
102
RTVSPropertyOp17
 70
     1
102
RTVSPropertyOp18
 70
     1
102
RTVSPropertyOp19
 70
     1
102
RTVSPropertyOp20
 70
     1
102
RTVSPropertyOp21
 70
     1
102
RTVSPropertyOp22
 70
     1
102
RTVSPropertyOp23
 70
     1
102
RTVSPropertyOp24
 70
     1
102
RTVSPropertyOp25
 70
     1
102
RTVSPropertyOp26
 70
     1
102
RTVSPropertyOp27
 70
     1
102
RTVSPropertyOp28
 70
     1
102
RTVSPropertyOp29
 70
     1
102
RTVSPropertyOp30
 70
     1
102
RTVSPropertyOp31
 70
     1
102
RTVSPropertyOp32
 70
     1
102
RTVSPropertyOp33
 70
     1
102
RTVSPropertyOp34
 70
     1
102
RTVSPropertyOp35
 70
     1
102
RTVSPropertyOp36
 70
     1
102
RTVSPropertyOp37
 70
     1
102
RTVSPropertyOp38
 70
     1
102
RTVSPropertyOp39
 70
     1
102
RTVSPropertyOp40
 70
     1
102
RTVSPropertyOp41
 70
     1
102
RTVSPropertyOp42
 70
     1
102
RTVSPropertyOp43
 70
     1
102
RTVSPropertyOp44
 70
     1
102
RTVSPropertyOp45
 70
     1
102
RTVSPropertyOp46
 70
     1
102
RTVSPropertyOp47
 70
     1
102
RTVSPropertyOp48
 70
     1
102
RTVSPropertyOp49
 70
     1
102
RTVSPropertyOp50
 70
     1
102
RTVSPropertyOp51
 70
     0
102
RTVSPropertyOp52
 70
     0
102
RTVSPropertyOp53
 70
     1
102
RTVSPropertyOp54
 70
     1
102
RTVSPropertyOp55
 70
     1
102
RTVSPropertyOp56
 70
     1
102
RTVSPropertyOp57
 70
     1
102
RTVSPropertyOp58
 70
     1
102
RTVSPropertyOp59
 70
     1
102
RTVSPropertyOp60
 70
     1
102
RTVSPropertyOp61
 70
     1
102
RTVSPropertyOp62
 70
     1
  0
XRECORD
  5
97C2
102
{ACAD_REACTORS
330
97C1
102
}
330
97C1
100
AcDbXrecord
280
     1
102
RTVSPost2010Prop28
280
     0
102
RTVSPost2010PropOp28
 70
     1
102
RTVSPost2010Prop29
280
     1
102
RTVSPost2010PropOp29
 70
     1
102
RTVSPost2010Prop30
280
     1
102
RTVSPost2010PropOp30
 70
     1
102
RTVSPost2010Prop31
280
     0
102
RTVSPost2010PropOp31
 70
     1
102
RTVSPost2010Prop32
280
     0
102
RTVSPost2010PropOp32
 70
     1
102
RTVSPost2010Prop33
280
     0
102
RTVSPost2010PropOp33
 70
     1
102
RTVSPost2010Prop34
280
     0
102
RTVSPost2010PropOp34
 70
     1
102
RTVSPost2010Prop35
280
     0
102
RTVSPost2010PropOp35
 70
     1
102
RTVSPost2010Prop36
280
     0
102
RTVSPost2010PropOp36
 70
     1
102
RTVSPost2010Prop37
 90
       50
102
RTVSPost2010PropOp37
 70
     1
102
RTVSPost2010Prop38
140
0.0
102
RTVSPost2010PropOp38
 70
     1
102
RTVSPost2010Prop39
140
1.0
102
RTVSPost2010PropOp39
 70
     1
102
RTVSPost2010Prop40
 90
        0
102
RTVSPost2010PropOp40
 70
     1
102
RTVSPost2010Prop41ColorIndex
 90
       18
102
RTVSPost2010Prop41ColorRGB
 90
        0
102
RTVSPost2010PropOp41
 70
     1
102
RTVSPost2010Prop42
 90
       50
102
RTVSPost2010PropOp42
 70
     1
102
RTVSPost2010Prop43
 90
        3
102
RTVSPost2010PropOp43
 70
     1
102
RTVSPost2010Prop44ColorIndex
 90
        5
102
RTVSPost2010Prop44ColorRGB
 90
      255
102
RTVSPost2010PropOp44
 70
     1
102
RTVSPost2010Prop45
280
     0
102
RTVSPost2010PropOp45
 70
     1
102
RTVSPost2010Prop46
 90
       50
102
RTVSPost2010PropOp46
 70
     1
102
RTVSPost2010Prop47
 90
       50
102
RTVSPost2010PropOp47
 70
     1
102
RTVSPost2010Prop48
 90
       50
102
RTVSPost2010PropOp48
 70
     1
102
RTVSPost2010Prop49
280
     0
102
RTVSPost2010PropOp49
 70
     1
102
RTVSPost2010Prop50
 90
       50
102
RTVSPost2010PropOp50
 70
     1
102
RTVSPost2010Prop51ColorIndex
 90
      256
102
RTVSPost2010Prop51ColorRGB
 90
-16777216
102
RTVSPost2010PropOp51
 70
     0
102
RTVSPost2010Prop52
140
1.0
102
RTVSPost2010PropOp52
 70
     0
102
RTVSPost2010Prop53
 90
        2
102
RTVSPost2010PropOp53
 70
     1
102
RTVSPost2010Prop54
  1
strokes_ogs.tif
102
RTVSPost2010PropOp54
 70
     1
102
RTVSPost2010Prop55
280
     0
102
RTVSPost2010PropOp55
 70
     1
102
RTVSPost2010Prop56
140
1.0
102
RTVSPost2010PropOp56
 70
     1
102
RTVSPost2010Prop57
140
1.0
102
RTVSPost2010PropOp57
 70
     1
102
RTVSPropertyOp0
 70
     1
102
RTVSPropertyOp1
 70
     1
102
RTVSPropertyOp2
 70
     1
102
RTVSPropertyOp3
 70
     1
102
RTVSPropertyOp4
 70
     1
102
RTVSPropertyOp5
 70
     1
102
RTVSPropertyOp6
 70
     1
102
RTVSPropertyOp7
 70
     1
102
RTVSPropertyOp8
 70
     1
102
RTVSPropertyOp9
 70
     1
102
RTVSPropertyOp10
 70
     1
102
RTVSPropertyOp11
 70
     1
102
RTVSPropertyOp12
 70
     1
102
RTVSPropertyOp13
 70
     1
102
RTVSPropertyOp14
 70
     1
102
RTVSPropertyOp15
 70
     1
102
RTVSPropertyOp16
 70
     1
102
RTVSPropertyOp17
 70
     1
102
RTVSPropertyOp18
 70
     1
102
RTVSPropertyOp19
 70
     1
102
RTVSPropertyOp20
 70
     1
102
RTVSPropertyOp21
 70
     1
102
RTVSPropertyOp22
 70
     1
102
RTVSPropertyOp23
 70
     1
102
RTVSPropertyOp24
 70
     1
102
RTVSPropertyOp25
 70
     1
102
RTVSPropertyOp26
 70
     1
102
RTVSPropertyOp27
 70
     1
102
RTVSPropertyOp28
 70
     1
102
RTVSPropertyOp29
 70
     1
102
RTVSPropertyOp30
 70
     1
102
RTVSPropertyOp31
 70
     1
102
RTVSPropertyOp32
 70
     1
102
RTVSPropertyOp33
 70
     1
102
RTVSPropertyOp34
 70
     1
102
RTVSPropertyOp35
 70
     1
102
RTVSPropertyOp36
 70
     1
102
RTVSPropertyOp37
 70
     1
102
RTVSPropertyOp38
 70
     1
102
RTVSPropertyOp39
 70
     1
102
RTVSPropertyOp40
 70
     1
102
RTVSPropertyOp41
 70
     1
102
RTVSPropertyOp42
 70
     1
102
RTVSPropertyOp43
 70
     1
102
RTVSPropertyOp44
 70
     1
102
RTVSPropertyOp45
 70
     1
102
RTVSPropertyOp46
 70
     1
102
RTVSPropertyOp47
 70
     1
102
RTVSPropertyOp48
 70
     1
102
RTVSPropertyOp49
 70
     1
102
RTVSPropertyOp50
 70
     1
102
RTVSPropertyOp51
 70
     0
102
RTVSPropertyOp52
 70
     0
102
RTVSPropertyOp53
 70
     1
102
RTVSPropertyOp54
 70
     1
102
RTVSPropertyOp55
 70
     1
102
RTVSPropertyOp56
 70
     1
102
RTVSPropertyOp57
 70
     1
102
RTVSPropertyOp58
 70
     1
102
RTVSPropertyOp59
 70
     1
102
RTVSPropertyOp60
 70
     1
102
RTVSPropertyOp61
 70
     1
102
RTVSPropertyOp62
 70
     1
  0
XRECORD
  5
97B0
102
{ACAD_REACTORS
330
97AF
102
}
330
97AF
100
AcDbXrecord
280
     1
102
RTVSPost2010Prop28
280
     0
102
RTVSPost2010PropOp28
 70
     1
102
RTVSPost2010Prop29
280
     1
102
RTVSPost2010PropOp29
 70
     1
102
RTVSPost2010Prop30
280
     1
102
RTVSPost2010PropOp30
 70
     1
102
RTVSPost2010Prop31
280
     0
102
RTVSPost2010PropOp31
 70
     1
102
RTVSPost2010Prop32
280
     0
102
RTVSPost2010PropOp32
 70
     1
102
RTVSPost2010Prop33
280
     0
102
RTVSPost2010PropOp33
 70
     1
102
RTVSPost2010Prop34
280
     0
102
RTVSPost2010PropOp34
 70
     1
102
RTVSPost2010Prop35
280
     0
102
RTVSPost2010PropOp35
 70
     1
102
RTVSPost2010Prop36
280
     0
102
RTVSPost2010PropOp36
 70
     1
102
RTVSPost2010Prop37
 90
       50
102
RTVSPost2010PropOp37
 70
     1
102
RTVSPost2010Prop38
140
0.0
102
RTVSPost2010PropOp38
 70
     1
102
RTVSPost2010Prop39
140
1.0
102
RTVSPost2010PropOp39
 70
     1
102
RTVSPost2010Prop40
 90
        0
102
RTVSPost2010PropOp40
 70
     1
102
RTVSPost2010Prop41ColorIndex
 90
       18
102
RTVSPost2010Prop41ColorRGB
 90
        0
102
RTVSPost2010PropOp41
 70
     1
102
RTVSPost2010Prop42
 90
       50
102
RTVSPost2010PropOp42
 70
     1
102
RTVSPost2010Prop43
 90
        3
102
RTVSPost2010PropOp43
 70
     1
102
RTVSPost2010Prop44ColorIndex
 90
        5
102
RTVSPost2010Prop44ColorRGB
 90
      255
102
RTVSPost2010PropOp44
 70
     1
102
RTVSPost2010Prop45
280
     0
102
RTVSPost2010PropOp45
 70
     1
102
RTVSPost2010Prop46
 90
       50
102
RTVSPost2010PropOp46
 70
     1
102
RTVSPost2010Prop47
 90
       50
102
RTVSPost2010PropOp47
 70
     1
102
RTVSPost2010Prop48
 90
       50
102
RTVSPost2010PropOp48
 70
     1
102
RTVSPost2010Prop49
280
     0
102
RTVSPost2010PropOp49
 70
     1
102
RTVSPost2010Prop50
 90
       50
102
RTVSPost2010PropOp50
 70
     1
102
RTVSPost2010Prop51ColorIndex
 90
      256
102
RTVSPost2010Prop51ColorRGB
 90
-16777216
102
RTVSPost2010PropOp51
 70
     0
102
RTVSPost2010Prop52
140
1.0
102
RTVSPost2010PropOp52
 70
     0
102
RTVSPost2010Prop53
 90
        2
102
RTVSPost2010PropOp53
 70
     1
102
RTVSPost2010Prop54
  1
strokes_ogs.tif
102
RTVSPost2010PropOp54
 70
     1
102
RTVSPost2010Prop55
280
     0
102
RTVSPost2010PropOp55
 70
     1
102
RTVSPost2010Prop56
140
1.0
102
RTVSPost2010PropOp56
 70
     1
102
RTVSPost2010Prop57
140
1.0
102
RTVSPost2010PropOp57
 70
     1
102
RTVSPropertyOp0
 70
     1
102
RTVSPropertyOp1
 70
     1
102
RTVSPropertyOp2
 70
     1
102
RTVSPropertyOp3
 70
     1
102
RTVSPropertyOp4
 70
     1
102
RTVSPropertyOp5
 70
     1
102
RTVSPropertyOp6
 70
     1
102
RTVSPropertyOp7
 70
     1
102
RTVSPropertyOp8
 70
     1
102
RTVSPropertyOp9
 70
     1
102
RTVSPropertyOp10
 70
     1
102
RTVSPropertyOp11
 70
     1
102
RTVSPropertyOp12
 70
     1
102
RTVSPropertyOp13
 70
     1
102
RTVSPropertyOp14
 70
     1
102
RTVSPropertyOp15
 70
     1
102
RTVSPropertyOp16
 70
     1
102
RTVSPropertyOp17
 70
     1
102
RTVSPropertyOp18
 70
     1
102
RTVSPropertyOp19
 70
     1
102
RTVSPropertyOp20
 70
     1
102
RTVSPropertyOp21
 70
     1
102
RTVSPropertyOp22
 70
     1
102
RTVSPropertyOp23
 70
     1
102
RTVSPropertyOp24
 70
     1
102
RTVSPropertyOp25
 70
     1
102
RTVSPropertyOp26
 70
     1
102
RTVSPropertyOp27
 70
     1
102
RTVSPropertyOp28
 70
     1
102
RTVSPropertyOp29
 70
     1
102
RTVSPropertyOp30
 70
     1
102
RTVSPropertyOp31
 70
     1
102
RTVSPropertyOp32
 70
     1
102
RTVSPropertyOp33
 70
     1
102
RTVSPropertyOp34
 70
     1
102
RTVSPropertyOp35
 70
     1
102
RTVSPropertyOp36
 70
     1
102
RTVSPropertyOp37
 70
     1
102
RTVSPropertyOp38
 70
     1
102
RTVSPropertyOp39
 70
     1
102
RTVSPropertyOp40
 70
     1
102
RTVSPropertyOp41
 70
     1
102
RTVSPropertyOp42
 70
     1
102
RTVSPropertyOp43
 70
     1
102
RTVSPropertyOp44
 70
     1
102
RTVSPropertyOp45
 70
     1
102
RTVSPropertyOp46
 70
     1
102
RTVSPropertyOp47
 70
     1
102
RTVSPropertyOp48
 70
     1
102
RTVSPropertyOp49
 70
     1
102
RTVSPropertyOp50
 70
     1
102
RTVSPropertyOp51
 70
     0
102
RTVSPropertyOp52
 70
     0
102
RTVSPropertyOp53
 70
     1
102
RTVSPropertyOp54
 70
     1
102
RTVSPropertyOp55
 70
     1
102
RTVSPropertyOp56
 70
     1
102
RTVSPropertyOp57
 70
     1
102
RTVSPropertyOp58
 70
     1
102
RTVSPropertyOp59
 70
     1
102
RTVSPropertyOp60
 70
     1
102
RTVSPropertyOp61
 70
     1
102
RTVSPropertyOp62
 70
     1
  0
XRECORD
  5
97A4
102
{ACAD_REACTORS
330
97A3
102
}
330
97A3
100
AcDbXrecord
280
     1
102
RTVSPost2010Prop28
280
     0
102
RTVSPost2010PropOp28
 70
     1
102
RTVSPost2010Prop29
280
     1
102
RTVSPost2010PropOp29
 70
     1
102
RTVSPost2010Prop30
280
     1
102
RTVSPost2010PropOp30
 70
     1
102
RTVSPost2010Prop31
280
     0
102
RTVSPost2010PropOp31
 70
     1
102
RTVSPost2010Prop32
280
     0
102
RTVSPost2010PropOp32
 70
     1
102
RTVSPost2010Prop33
280
     0
102
RTVSPost2010PropOp33
 70
     1
102
RTVSPost2010Prop34
280
     0
102
RTVSPost2010PropOp34
 70
     1
102
RTVSPost2010Prop35
280
     0
102
RTVSPost2010PropOp35
 70
     1
102
RTVSPost2010Prop36
280
     0
102
RTVSPost2010PropOp36
 70
     1
102
RTVSPost2010Prop37
 90
       50
102
RTVSPost2010PropOp37
 70
     1
102
RTVSPost2010Prop38
140
0.0
102
RTVSPost2010PropOp38
 70
     1
102
RTVSPost2010Prop39
140
1.0
102
RTVSPost2010PropOp39
 70
     1
102
RTVSPost2010Prop40
 90
        0
102
RTVSPost2010PropOp40
 70
     1
102
RTVSPost2010Prop41ColorIndex
 90
       18
102
RTVSPost2010Prop41ColorRGB
 90
        0
102
RTVSPost2010PropOp41
 70
     1
102
RTVSPost2010Prop42
 90
       50
102
RTVSPost2010PropOp42
 70
     1
102
RTVSPost2010Prop43
 90
        3
102
RTVSPost2010PropOp43
 70
     1
102
RTVSPost2010Prop44ColorIndex
 90
        5
102
RTVSPost2010Prop44ColorRGB
 90
      255
102
RTVSPost2010PropOp44
 70
     1
102
RTVSPost2010Prop45
280
     0
102
RTVSPost2010PropOp45
 70
     1
102
RTVSPost2010Prop46
 90
       50
102
RTVSPost2010PropOp46
 70
     1
102
RTVSPost2010Prop47
 90
       50
102
RTVSPost2010PropOp47
 70
     1
102
RTVSPost2010Prop48
 90
       50
102
RTVSPost2010PropOp48
 70
     1
102
RTVSPost2010Prop49
280
     0
102
RTVSPost2010PropOp49
 70
     1
102
RTVSPost2010Prop50
 90
       50
102
RTVSPost2010PropOp50
 70
     1
102
RTVSPost2010Prop51ColorIndex
 90
      256
102
RTVSPost2010Prop51ColorRGB
 90
-16777216
102
RTVSPost2010PropOp51
 70
     0
102
RTVSPost2010Prop52
140
1.0
102
RTVSPost2010PropOp52
 70
     0
102
RTVSPost2010Prop53
 90
        2
102
RTVSPost2010PropOp53
 70
     1
102
RTVSPost2010Prop54
  1
strokes_ogs.tif
102
RTVSPost2010PropOp54
 70
     1
102
RTVSPost2010Prop55
280
     0
102
RTVSPost2010PropOp55
 70
     1
102
RTVSPost2010Prop56
140
1.0
102
RTVSPost2010PropOp56
 70
     1
102
RTVSPost2010Prop57
140
1.0
102
RTVSPost2010PropOp57
 70
     1
102
RTVSPropertyOp0
 70
     1
102
RTVSPropertyOp1
 70
     1
102
RTVSPropertyOp2
 70
     1
102
RTVSPropertyOp3
 70
     1
102
RTVSPropertyOp4
 70
     1
102
RTVSPropertyOp5
 70
     1
102
RTVSPropertyOp6
 70
     1
102
RTVSPropertyOp7
 70
     1
102
RTVSPropertyOp8
 70
     1
102
RTVSPropertyOp9
 70
     1
102
RTVSPropertyOp10
 70
     1
102
RTVSPropertyOp11
 70
     1
102
RTVSPropertyOp12
 70
     1
102
RTVSPropertyOp13
 70
     1
102
RTVSPropertyOp14
 70
     1
102
RTVSPropertyOp15
 70
     1
102
RTVSPropertyOp16
 70
     1
102
RTVSPropertyOp17
 70
     1
102
RTVSPropertyOp18
 70
     1
102
RTVSPropertyOp19
 70
     1
102
RTVSPropertyOp20
 70
     1
102
RTVSPropertyOp21
 70
     1
102
RTVSPropertyOp22
 70
     1
102
RTVSPropertyOp23
 70
     1
102
RTVSPropertyOp24
 70
     1
102
RTVSPropertyOp25
 70
     1
102
RTVSPropertyOp26
 70
     1
102
RTVSPropertyOp27
 70
     1
102
RTVSPropertyOp28
 70
     1
102
RTVSPropertyOp29
 70
     1
102
RTVSPropertyOp30
 70
     1
102
RTVSPropertyOp31
 70
     1
102
RTVSPropertyOp32
 70
     1
102
RTVSPropertyOp33
 70
     1
102
RTVSPropertyOp34
 70
     1
102
RTVSPropertyOp35
 70
     1
102
RTVSPropertyOp36
 70
     1
102
RTVSPropertyOp37
 70
     1
102
RTVSPropertyOp38
 70
     1
102
RTVSPropertyOp39
 70
     1
102
RTVSPropertyOp40
 70
     1
102
RTVSPropertyOp41
 70
     1
102
RTVSPropertyOp42
 70
     1
102
RTVSPropertyOp43
 70
     1
102
RTVSPropertyOp44
 70
     1
102
RTVSPropertyOp45
 70
     1
102
RTVSPropertyOp46
 70
     1
102
RTVSPropertyOp47
 70
     1
102
RTVSPropertyOp48
 70
     1
102
RTVSPropertyOp49
 70
     1
102
RTVSPropertyOp50
 70
     1
102
RTVSPropertyOp51
 70
     0
102
RTVSPropertyOp52
 70
     0
102
RTVSPropertyOp53
 70
     1
102
RTVSPropertyOp54
 70
     1
102
RTVSPropertyOp55
 70
     1
102
RTVSPropertyOp56
 70
     1
102
RTVSPropertyOp57
 70
     1
102
RTVSPropertyOp58
 70
     1
102
RTVSPropertyOp59
 70
     1
102
RTVSPropertyOp60
 70
     1
102
RTVSPropertyOp61
 70
     1
102
RTVSPropertyOp62
 70
     1
  0
XRECORD
  5
97C4
102
{ACAD_REACTORS
330
97C3
102
}
330
97C3
100
AcDbXrecord
280
     1
102
RTVSPost2010Prop28
280
     0
102
RTVSPost2010PropOp28
 70
     1
102
RTVSPost2010Prop29
280
     1
102
RTVSPost2010PropOp29
 70
     1
102
RTVSPost2010Prop30
280
     1
102
RTVSPost2010PropOp30
 70
     1
102
RTVSPost2010Prop31
280
     0
102
RTVSPost2010PropOp31
 70
     1
102
RTVSPost2010Prop32
280
     0
102
RTVSPost2010PropOp32
 70
     1
102
RTVSPost2010Prop33
280
     0
102
RTVSPost2010PropOp33
 70
     1
102
RTVSPost2010Prop34
280
     0
102
RTVSPost2010PropOp34
 70
     1
102
RTVSPost2010Prop35
280
     0
102
RTVSPost2010PropOp35
 70
     1
102
RTVSPost2010Prop36
280
     0
102
RTVSPost2010PropOp36
 70
     1
102
RTVSPost2010Prop37
 90
       50
102
RTVSPost2010PropOp37
 70
     1
102
RTVSPost2010Prop38
140
0.0
102
RTVSPost2010PropOp38
 70
     1
102
RTVSPost2010Prop39
140
1.0
102
RTVSPost2010PropOp39
 70
     1
102
RTVSPost2010Prop40
 90
        0
102
RTVSPost2010PropOp40
 70
     1
102
RTVSPost2010Prop41ColorIndex
 90
       18
102
RTVSPost2010Prop41ColorRGB
 90
        0
102
RTVSPost2010PropOp41
 70
     1
102
RTVSPost2010Prop42
 90
       50
102
RTVSPost2010PropOp42
 70
     1
102
RTVSPost2010Prop43
 90
        3
102
RTVSPost2010PropOp43
 70
     1
102
RTVSPost2010Prop44ColorIndex
 90
        5
102
RTVSPost2010Prop44ColorRGB
 90
      255
102
RTVSPost2010PropOp44
 70
     1
102
RTVSPost2010Prop45
280
     0
102
RTVSPost2010PropOp45
 70
     1
102
RTVSPost2010Prop46
 90
       50
102
RTVSPost2010PropOp46
 70
     1
102
RTVSPost2010Prop47
 90
       50
102
RTVSPost2010PropOp47
 70
     1
102
RTVSPost2010Prop48
 90
       50
102
RTVSPost2010PropOp48
 70
     1
102
RTVSPost2010Prop49
280
     0
102
RTVSPost2010PropOp49
 70
     1
102
RTVSPost2010Prop50
 90
       50
102
RTVSPost2010PropOp50
 70
     1
102
RTVSPost2010Prop51ColorIndex
 90
      256
102
RTVSPost2010Prop51ColorRGB
 90
-16777216
102
RTVSPost2010PropOp51
 70
     0
102
RTVSPost2010Prop52
140
1.0
102
RTVSPost2010PropOp52
 70
     0
102
RTVSPost2010Prop53
 90
        2
102
RTVSPost2010PropOp53
 70
     1
102
RTVSPost2010Prop54
  1
strokes_ogs.tif
102
RTVSPost2010PropOp54
 70
     1
102
RTVSPost2010Prop55
280
     0
102
RTVSPost2010PropOp55
 70
     1
102
RTVSPost2010Prop56
140
1.0
102
RTVSPost2010PropOp56
 70
     1
102
RTVSPost2010Prop57
140
1.0
102
RTVSPost2010PropOp57
 70
     1
102
RTVSPropertyOp0
 70
     1
102
RTVSPropertyOp1
 70
     1
102
RTVSPropertyOp2
 70
     1
102
RTVSPropertyOp3
 70
     1
102
RTVSPropertyOp4
 70
     1
102
RTVSPropertyOp5
 70
     1
102
RTVSPropertyOp6
 70
     1
102
RTVSPropertyOp7
 70
     1
102
RTVSPropertyOp8
 70
     1
102
RTVSPropertyOp9
 70
     1
102
RTVSPropertyOp10
 70
     1
102
RTVSPropertyOp11
 70
     1
102
RTVSPropertyOp12
 70
     1
102
RTVSPropertyOp13
 70
     1
102
RTVSPropertyOp14
 70
     1
102
RTVSPropertyOp15
 70
     1
102
RTVSPropertyOp16
 70
     1
102
RTVSPropertyOp17
 70
     1
102
RTVSPropertyOp18
 70
     1
102
RTVSPropertyOp19
 70
     1
102
RTVSPropertyOp20
 70
     1
102
RTVSPropertyOp21
 70
     1
102
RTVSPropertyOp22
 70
     1
102
RTVSPropertyOp23
 70
     1
102
RTVSPropertyOp24
 70
     1
102
RTVSPropertyOp25
 70
     1
102
RTVSPropertyOp26
 70
     1
102
RTVSPropertyOp27
 70
     1
102
RTVSPropertyOp28
 70
     1
102
RTVSPropertyOp29
 70
     1
102
RTVSPropertyOp30
 70
     1
102
RTVSPropertyOp31
 70
     1
102
RTVSPropertyOp32
 70
     1
102
RTVSPropertyOp33
 70
     1
102
RTVSPropertyOp34
 70
     1
102
RTVSPropertyOp35
 70
     1
102
RTVSPropertyOp36
 70
     1
102
RTVSPropertyOp37
 70
     1
102
RTVSPropertyOp38
 70
     1
102
RTVSPropertyOp39
 70
     1
102
RTVSPropertyOp40
 70
     1
102
RTVSPropertyOp41
 70
     1
102
RTVSPropertyOp42
 70
     1
102
RTVSPropertyOp43
 70
     1
102
RTVSPropertyOp44
 70
     1
102
RTVSPropertyOp45
 70
     1
102
RTVSPropertyOp46
 70
     1
102
RTVSPropertyOp47
 70
     1
102
RTVSPropertyOp48
 70
     1
102
RTVSPropertyOp49
 70
     1
102
RTVSPropertyOp50
 70
     1
102
RTVSPropertyOp51
 70
     0
102
RTVSPropertyOp52
 70
     0
102
RTVSPropertyOp53
 70
     1
102
RTVSPropertyOp54
 70
     1
102
RTVSPropertyOp55
 70
     1
102
RTVSPropertyOp56
 70
     1
102
RTVSPropertyOp57
 70
     1
102
RTVSPropertyOp58
 70
     1
102
RTVSPropertyOp59
 70
     1
102
RTVSPropertyOp60
 70
     1
102
RTVSPropertyOp61
 70
     1
102
RTVSPropertyOp62
 70
     1
  0
ENDSEC
  0
EOF
