  0
SECTION
  2
HEADER
  9
$ACADVER
  1
AC1015
  9
$ACADMAINTVER
 70
    18
  9
$DWGCODEPAGE
  3
ANSI_1252
  9
$INSBASE
 10
0.0
 20
0.0
 30
0.0
  9
$EXTMIN
 10
-210.3140251458552
 20
-257.192138279779
 30
-0.0015258207003583
  9
$EXTMAX
 10
266.8130501159619
 20
286.8123786093346
 30
0.0000000349246037
  9
$LIMMIN
 10
0.0
 20
0.0
  9
$LIMMAX
 10
420.0
 20
297.0
  9
$ORTHOMODE
 70
     0
  9
$REGENMODE
 70
     1
  9
$FILLMODE
 70
     1
  9
$QTEXTMODE
 70
     0
  9
$MIRRTEXT
 70
     0
  9
$LTSCALE
 40
1.0
  9
$ATTMODE
 70
     1
  9
$TEXTSIZE
 40
2.5
  9
$TRACEWID
 40
1.0
  9
$TEXTSTYLE
  7
Standard
  9
$CLAYER
  8
0
  9
$CELTYPE
  6
ByLayer
  9
$CECOLOR
 62
   256
  9
$CELTSCALE
 40
1.0
  9
$DISPSILH
 70
     0
  9
$DIMSCALE
 40
1.0
  9
$DIMASZ
 40
2.5
  9
$DIMEXO
 40
0.625
  9
$DIMDLI
 40
3.75
  9
$DIMRND
 40
0.0
  9
$DIMDLE
 40
0.0
  9
$DIMEXE
 40
1.25
  9
$DIMTP
 40
0.0
  9
$DIMTM
 40
0.0
  9
$DIMTXT
 40
2.5
  9
$DIMCEN
 40
2.5
  9
$DIMTSZ
 40
0.0
  9
$DIMTOL
 70
     0
  9
$DIMLIM
 70
     0
  9
$DIMTIH
 70
     0
  9
$DIMTOH
 70
     0
  9
$DIMSE1
 70
     0
  9
$DIMSE2
 70
     0
  9
$DIMTAD
 70
     1
  9
$DIMZIN
 70
     8
  9
$DIMBLK
  1

  9
$DIMASO
 70
     1
  9
$DIMSHO
 70
     1
  9
$DIMPOST
  1

  9
$DIMAPOST
  1

  9
$DIMALT
 70
     0
  9
$DIMALTD
 70
     3
  9
$DIMALTF
 40
0.03937007874016
  9
$DIMLFAC
 40
1.0
  9
$DIMTOFL
 70
     1
  9
$DIMTVP
 40
0.0
  9
$DIMTIX
 70
     0
  9
$DIMSOXD
 70
     0
  9
$DIMSAH
 70
     0
  9
$DIMBLK1
  1

  9
$DIMBLK2
  1

  9
$DIMSTYLE
  2
ISO-25
  9
$DIMCLRD
 70
     0
  9
$DIMCLRE
 70
     0
  9
$DIMCLRT
 70
     0
  9
$DIMTFAC
 40
1.0
  9
$DIMGAP
 40
0.625
  9
$DIMJUST
 70
     0
  9
$DIMSD1
 70
     0
  9
$DIMSD2
 70
     0
  9
$DIMTOLJ
 70
     0
  9
$DIMTZIN
 70
     8
  9
$DIMALTZ
 70
     0
  9
$DIMALTTZ
 70
     0
  9
$DIMUPT
 70
     0
  9
$DIMDEC
 70
     2
  9
$DIMTDEC
 70
     2
  9
$DIMALTU
 70
     2
  9
$DIMALTTD
 70
     3
  9
$DIMTXSTY
  7
Standard
  9
$DIMAUNIT
 70
     0
  9
$DIMADEC
 70
     0
  9
$DIMALTRND
 40
0.0
  9
$DIMAZIN
 70
     0
  9
$DIMDSEP
 70
    44
  9
$DIMATFIT
 70
     3
  9
$DIMFRAC
 70
     0
  9
$DIMLDRBLK
  1

  9
$DIMLUNIT
 70
     2
  9
$DIMLWD
 70
    -2
  9
$DIMLWE
 70
    -2
  9
$DIMTMOVE
 70
     0
  9
$LUNITS
 70
     2
  9
$LUPREC
 70
     4
  9
$SKETCHINC
 40
1.0
  9
$FILLETRAD
 40
0.0
  9
$AUNITS
 70
     0
  9
$AUPREC
 70
     0
  9
$MENU
  1
.
  9
$ELEVATION
 40
0.0
  9
$PELEVATION
 40
0.0
  9
$THICKNESS
 40
0.0
  9
$LIMCHECK
 70
     0
  9
$CHAMFERA
 40
0.0
  9
$CHAMFERB
 40
0.0
  9
$CHAMFERC
 40
0.0
  9
$CHAMFERD
 40
0.0
  9
$SKPOLY
 70
     0
  9
$TDCREATE
 40
2460398.356956019
  9
$TDUCREATE
 40
2460398.065289352
  9
$TDUPDATE
 40
2460398.374988426
  9
$TDUUPDATE
 40
2460398.083321760
  9
$TDINDWG
 40
0.0078125000
  9
$TDUSRTIMER
 40
0.0078125000
  9
$USRTIMER
 70
     1
  9
$ANGBASE
 50
0.0
  9
$ANGDIR
 70
     0
  9
$PDMODE
 70
     0
  9
$PDSIZE
 40
0.0
  9
$PLINEWID
 40
0.0
  9
$SPLFRAME
 70
     0
  9
$SPLINETYPE
 70
     6
  9
$SPLINESEGS
 70
     8
  9
$HANDSEED
  5
9A01
  9
$SURFTAB1
 70
     6
  9
$SURFTAB2
 70
     6
  9
$SURFTYPE
 70
     6
  9
$SURFU
 70
     6
  9
$SURFV
 70
     6
  9
$UCSBASE
  2

  9
$UCSNAME
  2

  9
$UCSORG
 10
0.0
 20
0.0
 30
0.0
  9
$UCSXDIR
 10
1.0
 20
0.0
 30
0.0
  9
$UCSYDIR
 10
0.0
 20
1.0
 30
0.0
  9
$UCSORTHOREF
  2

  9
$UCSORTHOVIEW
 70
     0
  9
$UCSORGTOP
 10
0.0
 20
0.0
 30
0.0
  9
$UCSORGBOTTOM
 10
0.0
 20
0.0
 30
0.0
  9
$UCSORGLEFT
 10
0.0
 20
0.0
 30
0.0
  9
$UCSORGRIGHT
 10
0.0
 20
0.0
 30
0.0
  9
$UCSORGFRONT
 10
0.0
 20
0.0
 30
0.0
  9
$UCSORGBACK
 10
0.0
 20
0.0
 30
0.0
  9
$PUCSBASE
  2

  9
$PUCSNAME
  2

  9
$PUCSORG
 10
0.0
 20
0.0
 30
0.0
  9
$PUCSXDIR
 10
1.0
 20
0.0
 30
0.0
  9
$PUCSYDIR
 10
0.0
 20
1.0
 30
0.0
  9
$PUCSORTHOREF
  2

  9
$PUCSORTHOVIEW
 70
     0
  9
$PUCSORGTOP
 10
0.0
 20
0.0
 30
0.0
  9
$PUCSORGBOTTOM
 10
0.0
 20
0.0
 30
0.0
  9
$PUCSORGLEFT
 10
0.0
 20
0.0
 30
0.0
  9
$PUCSORGRIGHT
 10
0.0
 20
0.0
 30
0.0
  9
$PUCSORGFRONT
 10
0.0
 20
0.0
 30
0.0
  9
$PUCSORGBACK
 10
0.0
 20
0.0
 30
0.0
  9
$USERI1
 70
     0
  9
$USERI2
 70
     0
  9
$USERI3
 70
     0
  9
$USERI4
 70
     0
  9
$USERI5
 70
     0
  9
$USERR1
 40
0.0
  9
$USERR2
 40
0.0
  9
$USERR3
 40
0.0
  9
$USERR4
 40
0.0
  9
$USERR5
 40
0.0
  9
$WORLDVIEW
 70
     1
  9
$SHADEDGE
 70
     3
  9
$SHADEDIF
 70
    70
  9
$TILEMODE
 70
     1
  9
$MAXACTVP
 70
    48
  9
$PINSBASE
 10
0.0
 20
0.0
 30
0.0
  9
$PLIMCHECK
 70
     0
  9
$PEXTMIN
 10
0.0
 20
0.0
 30
0.0
  9
$PEXTMAX
 10
0.0
 20
0.0
 30
0.0
  9
$PLIMMIN
 10
0.0
 20
0.0
  9
$PLIMMAX
 10
12.0
 20
9.0
  9
$UNITMODE
 70
     0
  9
$VISRETAIN
 70
     1
  9
$PLINEGEN
 70
     0
  9
$PSLTSCALE
 70
     1
  9
$TREEDEPTH
 70
  3020
  9
$CMLSTYLE
  2
Standard
  9
$CMLJUST
 70
     0
  9
$CMLSCALE
 40
20.0
  9
$PROXYGRAPHICS
 70
     1
  9
$MEASUREMENT
 70
     1
  9
$CELWEIGHT
370
    -1
  9
$ENDCAPS
280
     0
  9
$JOINSTYLE
280
     0
  9
$LWDISPLAY
290
     0
  9
$INSUNITS
 70
     4
  9
$HYPERLINKBASE
  1

  9
$STYLESHEET
  1

  9
$XEDIT
290
     1
  9
$CEPSNTYPE
380
     0
  9
$PSTYLEMODE
290
     1
  9
$FINGERPRINTGUID
  2
{6C1266EE-7BC1-BF4A-B059-A6E7702B10CE}
  9
$VERSIONGUID
  2
{8396FDF3-AE7E-8642-BFB7-64FCC93EBA09}
  9
$EXTNAMES
290
     1
  9
$PSVPSCALE
 40
0.0
  9
$OLESTARTUP
290
     0
  0
ENDSEC
  0
SECTION
  2
CLASSES
  0
CLASS
  1
ACDBDICTIONARYWDFLT
  2
AcDbDictionaryWithDefault
  3
ObjectDBX Classes
 90
        0
280
     0
281
     0
  0
CLASS
  1
ACDBPLACEHOLDER
  2
AcDbPlaceHolder
  3
ObjectDBX Classes
 90
        0
280
     0
281
     0
  0
CLASS
  1
LAYOUT
  2
AcDbLayout
  3
ObjectDBX Classes
 90
        0
280
     0
281
     0
  0
CLASS
  1
DICTIONARYVAR
  2
AcDbDictionaryVar
  3
ObjectDBX Classes
 90
        0
280
     0
281
     0
  0
CLASS
  1
TABLESTYLE
  2
AcDbTableStyle
  3
ObjectDBX Classes
 90
     4095
280
     0
281
     0
  0
CLASS
  1
MATERIAL
  2
AcDbMaterial
  3
ObjectDBX Classes
 90
     1153
280
     0
281
     0
  0
CLASS
  1
VISUALSTYLE
  2
AcDbVisualStyle
  3
ObjectDBX Classes
 90
     4095
280
     0
281
     0
  0
CLASS
  1
SCALE
  2
AcDbScale
  3
ObjectDBX Classes
 90
     1153
280
     0
281
     0
  0
CLASS
  1
MLEADERSTYLE
  2
AcDbMLeaderStyle
  3
ACDB_MLEADERSTYLE_CLASS
 90
     4095
280
     0
281
     0
  0
CLASS
  1
CELLSTYLEMAP
  2
AcDbCellStyleMap
  3
ObjectDBX Classes
 90
     1152
280
     0
281
     0
  0
CLASS
  1
EXACXREFPANELOBJECT
  2
ExAcXREFPanelObject
  3
EXAC_ESW
 90
    33793
280
     0
281
     0
  0
CLASS
  1
NPOCOLLECTION
  2
AcDbImpNonPersistentObjectsCollection
  3
ObjectDBX Classes
 90
    33921
280
     0
281
     0
  0
CLASS
  1
LAYER_INDEX
  2
AcDbLayerIndex
  3
ObjectDBX Classes
 90
    32768
280
     0
281
     0
  0
CLASS
  1
SPATIAL_INDEX
  2
AcDbSpatialIndex
  3
ObjectDBX Classes
 90
    32768
280
     0
281
     0
  0
CLASS
  1
IDBUFFER
  2
AcDbIdBuffer
  3
ObjectDBX Classes
 90
    32768
280
     0
281
     0
  0
CLASS
  1
ACDBSECTIONVIEWSTYLE
  2
AcDbSectionViewStyle
  3
ObjectDBX Classes
 90
     1025
280
     0
281
     0
  0
CLASS
  1
ACDBDETAILVIEWSTYLE
  2
AcDbDetailViewStyle
  3
ObjectDBX Classes
 90
     1025
280
     0
281
     0
  0
CLASS
  1
XRECORD
  2
AcDbXrecord
  3
ObjectDBX Classes
 90
        0
280
     0
281
     0
  0
ENDSEC
  0
SECTION
  2
TABLES
  0
TABLE
  2
VPORT
  5
8
102
{ACAD_XDICTIONARY
360
990F
102
}
330
0
100
AcDbSymbolTable
 70
     1
  0
VPORT
  5
EA
330
8
100
AcDbSymbolTableRecord
100
AcDbViewportTableRecord
  2
*Active
 70
     0
 10
0.0
 20
0.0
 11
1.0
 21
1.0
 12
28.24951248505333
 22
14.81012016477774
 13
0.0
 23
0.0
 14
10.0
 24
10.0
 15
10.0
 25
10.0
 16
0.0
 26
0.0
 36
1.0
 17
0.0
 27
0.0
 37
0.0
 40
578.4995042183497
 41
0.9846153846153846
 42
50.0
 43
0.0
 44
0.0
 50
0.0
 51
0.0
 71
     0
 72
  1000
 73
     1
 74
     3
 75
     0
 76
     1
 77
     0
 78
     0
281
     0
 65
     1
110
0.0
120
0.0
130
0.0
111
1.0
121
0.0
131
0.0
112
0.0
122
1.0
132
0.0
 79
     0
146
0.0
1001
ACAD_NAV_VCDISPLAY
1070
     3
  0
ENDTAB
  0
TABLE
  2
LTYPE
  5
5
330
0
100
AcDbSymbolTable
 70
     1
  0
LTYPE
  5
14
330
5
100
AcDbSymbolTableRecord
100
AcDbLinetypeTableRecord
  2
ByBlock
 70
     0
  3

 72
    65
 73
     0
 40
0.0
  0
LTYPE
  5
15
330
5
100
AcDbSymbolTableRecord
100
AcDbLinetypeTableRecord
  2
ByLayer
 70
     0
  3

 72
    65
 73
     0
 40
0.0
  0
LTYPE
  5
16
330
5
100
AcDbSymbolTableRecord
100
AcDbLinetypeTableRecord
  2
Continuous
 70
     0
  3
Solid line
 72
    65
 73
     0
 40
0.0
  0
ENDTAB
  0
TABLE
  2
LAYER
  5
2
102
{ACAD_XDICTIONARY
360
1FF
102
}
330
0
100
AcDbSymbolTable
 70
     1
  0
LAYER
  5
10
102
{ACAD_XDICTIONARY
360
13C
102
}
330
2
100
AcDbSymbolTableRecord
100
AcDbLayerTableRecord
  2
0
 70
     0
 62
     7
  6
Continuous
370
    -3
390
F
  0
ENDTAB
  0
TABLE
  2
STYLE
  5
3
330
0
100
AcDbSymbolTable
 70
     1
  0
STYLE
  5
11
330
3
100
AcDbSymbolTableRecord
100
AcDbTextStyleTableRecord
  2
Standard
 70
     0
 40
0.0
 41
1.0
 50
0.0
 71
     0
 42
2.5
  3
arial.ttf
  4

1001
ACAD
1000
Arial
1071
       34
  0
ENDTAB
  0
TABLE
  2
VIEW
  5
6
330
0
100
AcDbSymbolTable
 70
     0
  0
ENDTAB
  0
TABLE
  2
UCS
  5
7
330
0
100
AcDbSymbolTable
 70
     0
  0
ENDTAB
  0
TABLE
  2
APPID
  5
9
330
0
100
AcDbSymbolTable
 70
     8
  0
APPID
  5
12
330
9
100
AcDbSymbolTableRecord
100
AcDbRegAppTableRecord
  2
ACAD
 70
     0
  0
APPID
  5
9E
330
9
100
AcDbSymbolTableRecord
100
AcDbRegAppTableRecord
  2
ACAD_PSEXT
 70
     0
  0
APPID
  5
133
330
9
100
AcDbSymbolTableRecord
100
AcDbRegAppTableRecord
  2
AcadAnnoPO
 70
     0
  0
APPID
  5
134
330
9
100
AcDbSymbolTableRecord
100
AcDbRegAppTableRecord
  2
AcadAnnotative
 70
     0
  0
APPID
  5
135
330
9
100
AcDbSymbolTableRecord
100
AcDbRegAppTableRecord
  2
ACAD_DSTYLE_DIMJAG
 70
     0
  0
APPID
  5
136
330
9
100
AcDbSymbolTableRecord
100
AcDbRegAppTableRecord
  2
ACAD_DSTYLE_DIMTALN
 70
     0
  0
APPID
  5
165
330
9
100
AcDbSymbolTableRecord
100
AcDbRegAppTableRecord
  2
ACAD_MLEADERVER
 70
     0
  0
APPID
  5
217
330
9
100
AcDbSymbolTableRecord
100
AcDbRegAppTableRecord
  2
ACAD_NAV_VCDISPLAY
 70
     0
  0
ENDTAB
  0
TABLE
  2
DIMSTYLE
  5
A
330
0
100
AcDbSymbolTable
 70
     1
100
AcDbDimStyleTable
 71
     0
  0
DIMSTYLE
105
27
330
A
100
AcDbSymbolTableRecord
100
AcDbDimStyleTableRecord
  2
ISO-25
 70
     0
 41
2.5
 42
0.625
 43
3.75
 44
1.25
 73
     0
 74
     0
 77
     1
 78
     8
140
2.5
141
2.5
143
0.03937007874016
147
0.625
171
     3
172
     1
271
     2
272
     2
274
     3
278
    44
283
     0
284
     8
340
11
  0
ENDTAB
  0
TABLE
  2
BLOCK_RECORD
  5
1
330
0
100
AcDbSymbolTable
 70
     7
  0
BLOCK_RECORD
  5
1F
102
{ACAD_XDICTIONARY
360
1CE
102
}
330
1
100
AcDbSymbolTableRecord
100
AcDbBlockTableRecord
  2
*Model_Space
340
22
  0
BLOCK_RECORD
  5
D2
102
{ACAD_XDICTIONARY
360
98C2
102
}
330
1
100
AcDbSymbolTableRecord
100
AcDbBlockTableRecord
  2
*Paper_Space
340
D3
  0
BLOCK_RECORD
  5
D6
102
{ACAD_XDICTIONARY
360
98C4
102
}
330
1
100
AcDbSymbolTableRecord
100
AcDbBlockTableRecord
  2
*Paper_Space0
340
D7
  0
BLOCK_RECORD
  5
973C
330
1
100
AcDbSymbolTableRecord
100
AcDbBlockTableRecord
  2
SAE380_72_2-Front
340
0
102
{BLKREFS
331
98B8
102
}
  0
BLOCK_RECORD
  5
978E
330
1
100
AcDbSymbolTableRecord
100
AcDbBlockTableRecord
  2
SAE380_72_2-Left
340
0
102
{BLKREFS
331
98B9
102
}
  0
BLOCK_RECORD
  5
97AD
330
1
100
AcDbSymbolTableRecord
100
AcDbBlockTableRecord
  2
SAE380_72_2-Right
340
0
102
{BLKREFS
331
98BA
102
}
  0
BLOCK_RECORD
  5
97CB
330
1
100
AcDbSymbolTableRecord
100
AcDbBlockTableRecord
  2
SAE380_72_2-Top
340
0
102
{BLKREFS
331
98BB
102
}
  0
BLOCK_RECORD
  5
97FA
330
1
100
AcDbSymbolTableRecord
100
AcDbBlockTableRecord
  2
SAE380_72_2-Bottom
340
0
102
{BLKREFS
331
98BC
102
}
  0
BLOCK_RECORD
  5
9825
330
1
100
AcDbSymbolTableRecord
100
AcDbBlockTableRecord
  2
SAE380_72_2-ISO
340
0
102
{BLKREFS
331
98BD
102
}
  0
ENDTAB
  0
ENDSEC
  0
SECTION
  2
BLOCKS
  0
BLOCK
  5
20
330
1F
100
AcDbEntity
  8
0
100
AcDbBlockBegin
  2
*Model_Space
 70
     0
 10
0.0
 20
0.0
 30
0.0
  3
*Model_Space
  1

  0
ENDBLK
  5
21
330
1F
100
AcDbEntity
  8
0
100
AcDbBlockEnd
  0
BLOCK
  5
D4
330
D2
100
AcDbEntity
 67
     1
  8
0
100
AcDbBlockBegin
  2
*Paper_Space
 70
     0
 10
0.0
 20
0.0
 30
0.0
  3
*Paper_Space
  1

  0
ENDBLK
  5
D5
330
D2
100
AcDbEntity
 67
     1
  8
0
100
AcDbBlockEnd
  0
BLOCK
  5
D8
330
D6
100
AcDbEntity
 67
     1
  8
0
100
AcDbBlockBegin
  2
*Paper_Space0
 70
     0
 10
0.0
 20
0.0
 30
0.0
  3
*Paper_Space0
  1

  0
ENDBLK
  5
D9
330
D6
100
AcDbEntity
 67
     1
  8
0
100
AcDbBlockEnd
  0
BLOCK
  5
973D
330
973C
100
AcDbEntity
  8
0
100
AcDbBlockBegin
  2
SAE380_72_2-Front
 70
     0
 10
0.0
 20
0.0
 30
0.0
  3
SAE380_72_2-Front
  1

  0
SPLINE
  5
973F
330
973C
100
AcDbEntity
  8
0
100
AcDbSpline
210
0.0
220
0.0
230
1.0
 70
     8
 71
     3
 72
    14
 73
    10
 74
     0
 42
0.000000001
 43
0.0000000001
 40
0.0
 40
0.0
 40
0.0
 40
0.0
 40
0.3435149368880196
 40
0.3435149368880196
 40
0.3435149368880196
 40
0.7569946177169982
 40
0.7569946177169982
 40
0.7569946177169982
 40
0.9987206178233376
 40
0.9987206178233376
 40
0.9987206178233376
 40
0.9987206178233376
 10
40.60606060606064
 20
26.56249999999995
 30
0.0
 10
40.28490796720142
 20
26.3024963693093
 30
0.0
 10
39.8724655581668
 20
26.07529402125722
 30
0.0
 10
39.47647444983441
 20
25.8440817946153
 30
0.0
 10
38.99983061429209
 20
25.56577786250178
 30
0.0
 10
38.53729794757881
 20
25.27139780306569
 30
0.0
 10
38.26242807108846
 20
24.85792703998322
 30
0.0
 10
38.10173529977615
 20
24.61620625331612
 30
0.0
 10
38.00105977564974
 20
24.36092980284529
 30
0.0
 10
38.00000831657928
 20
24.00564958882485
 30
0.0
  0
LINE
  5
9740
330
973C
100
AcDbEntity
  8
0
100
AcDbLine
 10
38.00000000000001
 20
26.56249999999996
 30
0.0
 11
40.0
 21
26.56249999999996
 31
0.0
  0
SPLINE
  5
9741
330
973C
100
AcDbEntity
  8
0
100
AcDbSpline
210
0.0
220
0.0
230
1.0
 70
     8
 71
     3
 72
    20
 73
    16
 74
     0
 42
0.000000001
 43
0.0000000001
 40
0.0120811454464615
 40
0.0120811454464615
 40
0.0120811454464615
 40
0.0120811454464615
 40
0.0131975596423558
 40
0.0131975596423558
 40
0.0140013918900393
 40
0.0140013918900393
 40
0.0151733900061389
 40
0.0151733900061389
 40
0.016122942579703
 40
0.016122942579703
 40
0.0172162029701334
 40
0.0172162029701334
 40
0.0190977373010668
 40
0.0190977373010668
 40
0.020234203896278
 40
0.020234203896278
 40
0.020234203896278
 40
0.020234203896278
 10
38.00029164702522
 20
24.05864902334085
 30
0.0
 10
38.00029164702525
 20
24.05864902334372
 30
0.0
 10
38.00028748550582
 20
24.05829307111746
 30
0.0
 10
38.00027199037734
 20
24.0568388769049
 30
0.0
 10
38.0002629013328
 20
24.05596610627765
 30
0.0
 10
38.00023515040971
 20
24.05309221383201
 30
0.0
 10
38.00021330545999
 20
24.05067011188858
 30
0.0
 10
38.00017344812505
 20
24.04538854644425
 30
0.0
 10
38.00015533859398
 20
24.04266679518328
 30
0.0
 10
38.00012132061759
 20
24.0365383159761
 30
0.0
 10
38.00010588006851
 20
24.03305264828329
 30
0.0
 10
38.00007388284175
 20
24.02348485729903
 30
0.0
 10
38.00006415311609
 20
24.01728926697613
 30
0.0
 10
38.00006184207799
 20
24.00740914671102
 30
0.0
 10
38.00006394031927
 20
24.0036927494851
 30
0.0
 10
38.00006836121698
 20
24.00000006106857
 30
0.0
  0
SPLINE
  5
9742
330
973C
100
AcDbEntity
  8
0
100
AcDbSpline
210
0.0
220
0.0
230
1.0
 70
     8
 71
     3
 72
    20
 73
    16
 74
     0
 42
0.000000001
 43
0.0000000001
 40
0.0053237022651673
 40
0.0053237022651673
 40
0.0053237022651673
 40
0.0053237022651673
 40
0.0053655958978033
 40
0.0053655958978033
 40
0.0057487621154897
 40
0.0057487621154897
 40
0.0061728997961574
 40
0.0061728997961574
 40
0.0067121258041544
 40
0.0067121258041544
 40
0.0074922547244358
 40
0.0074922547244358
 40
0.0098115922648145
 40
0.0098115922648145
 40
0.0112840983756648
 40
0.0112840983756648
 40
0.0112840983756648
 40
0.0112840983756648
 10
38.00010896013898
 20
24.04549040240252
 30
0.0
 10
38.00010896014057
 20
24.0454904026573
 30
0.0
 10
38.00010894520847
 20
24.04548800295432
 30
0.0
 10
38.00010864534331
 20
24.0454397659599
 30
0.0
 10
38.00010710495286
 20
24.04519299750602
 30
0.0
 10
38.00010194890811
 20
24.04434019777502
 30
0.0
 10
38.00009811031761
 20
24.04369392003272
 30
0.0
 10
38.00008825458061
 20
24.04195094887566
 30
0.0
 10
38.00008186397992
 20
24.04076607765134
 30
0.0
 10
38.00006625786253
 20
24.03763060822307
 30
0.0
 10
38.00005749410274
 20
24.03566963589345
 30
0.0
 10
38.00002592603014
 20
24.0275630088524
 30
0.0
 10
38.00000984518002
 20
24.02073392643385
 30
0.0
 10
38.00000215191575
 20
24.00921531395108
 30
0.0
 10
38.00000353065112
 20
24.00462616234318
 30
0.0
 10
38.00000910563666
 20
24.00000001245749
 30
0.0
  0
SPLINE
  5
9743
330
973C
100
AcDbEntity
  8
0
100
AcDbSpline
210
0.0
220
0.0
230
1.0
 70
     8
 71
     3
 72
     8
 73
     4
 74
     0
 42
0.000000001
 43
0.0000000001
 40
0.0
 40
0.0
 40
0.0
 40
0.0
 40
0.0015511722942052
 40
0.0015511722942052
 40
0.0015511722942052
 40
0.0015511722942052
 10
35.99955984654372
 20
24.00000111615405
 30
0.0
 10
35.99956565327769
 20
24.00446881097714
 30
0.0
 10
35.99957076641538
 20
24.00884708257863
 30
0.0
 10
35.99957512909043
 20
24.01307591322411
 30
0.0
  0
SPLINE
  5
9744
330
973C
100
AcDbEntity
  8
0
100
AcDbSpline
210
0.0
220
0.0
230
1.0
 70
     8
 71
     3
 72
    16
 73
    12
 74
     0
 42
0.000000001
 43
0.0000000001
 40
0.0
 40
0.0
 40
0.0
 40
0.0
 40
0.0021186908364477
 40
0.0021186908364477
 40
0.0037963630005618
 40
0.0037963630005618
 40
0.0060490253746816
 40
0.0060490253746816
 40
0.0082160884058499
 40
0.0082160884058499
 40
0.0100715299645541
 40
0.0100715299645541
 40
0.0100715299645541
 40
0.0100715299645541
 10
35.99977770485156
 20
23.9999965816161
 30
0.0
 10
35.99967060337874
 20
24.00696252206814
 30
0.0
 10
35.99956026516458
 20
24.01406431014633
 30
0.0
 10
35.99936153565756
 20
24.02670812134737
 30
0.0
 10
35.99927271955297
 20
24.03230570404737
 30
0.0
 10
35.9990710829682
 20
24.04490249866282
 30
0.0
 10
35.998958129997
 20
24.05187275001992
 30
0.0
 10
35.99876083650567
 20
24.06395004148127
 30
0.0
 10
35.99867338946256
 20
24.06925360707229
 30
0.0
 10
35.99853375459626
 20
24.07766822581459
 30
0.0
 10
35.99847718641598
 20
24.08105234008588
 30
0.0
 10
35.99842789893653
 20
24.08398349775961
 30
0.0
  0
SPLINE
  5
9745
330
973C
100
AcDbEntity
  8
0
100
AcDbSpline
210
0.0
220
0.0
230
1.0
 70
     8
 71
     3
 72
    34
 73
    30
 74
     0
 42
0.000000001
 43
0.0000000001
 40
0.0018828273619105
 40
0.0018828273619105
 40
0.0018828273619105
 40
0.0018828273619105
 40
0.0067931738608495
 40
0.0067931738608495
 40
0.0148581943482744
 40
0.0148581943482744
 40
0.0216571887969817
 40
0.0216571887969817
 40
0.0241183128352055
 40
0.0241183128352055
 40
0.0262726967748814
 40
0.0262726967748814
 40
0.0291188418938354
 40
0.0291188418938354
 40
0.0315306234498396
 40
0.0315306234498396
 40
0.0346499154851656
 40
0.0346499154851656
 40
0.0395922397062712
 40
0.0395922397062712
 40
0.048910451273046
 40
0.048910451273046
 40
0.0719044114173958
 40
0.0719044114173958
 40
0.1414596711703586
 40
0.1414596711703586
 40
0.2235217453597177
 40
0.2235217453597177
 40
0.2662178312088954
 40
0.2662178312088954
 40
0.2662178312088954
 40
0.2662178312088954
 10
35.99993407926223
 20
24.0038219153714
 30
0.0
 10
35.99986407575543
 20
24.00784047579458
 30
0.0
 10
35.9997622903437
 20
24.01358824994382
 30
0.0
 10
35.99943617379762
 20
24.03150107641798
 30
0.0
 10
35.99917378800156
 20
24.04547921428977
 30
0.0
 10
35.99862147075348
 20
24.07412873887587
 30
0.0
 10
35.99834194620648
 20
24.08837019566969
 30
0.0
 10
35.99789286036695
 20
24.11130037372514
 30
0.0
 10
35.99776555610433
 20
24.11780854008779
 30
0.0
 10
35.99751099031864
 20
24.13092331013017
 30
0.0
 10
35.99738412343982
 20
24.13749914598017
 30
0.0
 10
35.99708152970919
 20
24.15339591602665
 30
0.0
 10
35.99689905467279
 20
24.16315157114731
 30
0.0
 10
35.9965816200645
 20
24.18063317230985
 30
0.0
 10
35.9964405564126
 20
24.18860705032198
 30
0.0
 10
35.99613972381958
 20
24.20612861493129
 30
0.0
 10
35.99598366074368
 20
24.21561633029496
 30
0.0
 10
35.99561587365975
 20
24.2389650813916
 30
0.0
 10
35.99542142375647
 20
24.25234662123181
 30
0.0
 10
35.99492615326735
 20
24.28909274583246
 30
0.0
 10
35.99467857968383
 20
24.31110300225251
 30
0.0
 10
35.99397364941747
 20
24.38486037617633
 30
0.0
 10
35.9937307196081
 20
24.43326604839112
 30
0.0
 10
35.99330505692742
 20
24.63521424206101
 30
0.0
 10
35.99455179204248
 20
24.81150031249705
 30
0.0
 10
35.99793248616001
 20
25.23289605782823
 30
0.0
 10
35.99943758561789
 20
25.48828696116217
 30
0.0
 10
35.99998708596916
 20
25.89232271166086
 30
0.0
 10
35.99998190891829
 20
26.03403623305769
 30
0.0
 10
35.9999893701996
 20
26.17586295999675
 30
0.0
  0
SPLINE
  5
9746
330
973C
100
AcDbEntity
  8
0
100
AcDbSpline
210
0.0
220
0.0
230
1.0
 70
     8
 71
     3
 72
    12
 73
     8
 74
     0
 42
0.000000001
 43
0.0000000001
 40
0.0
 40
0.0
 40
0.0
 40
0.0
 40
0.0030444953495444
 40
0.0030444953495444
 40
0.0059484402630854
 40
0.0059484402630854
 40
0.0076998808240254
 40
0.0076998808240254
 40
0.0076998808240254
 40
0.0076998808240254
 10
35.99994094380471
 20
23.99999986651922
 30
0.0
 10
35.99992879107774
 20
24.00696353294929
 30
0.0
 10
35.9999175081996
 20
24.01275350426532
 30
0.0
 10
35.9998998769147
 20
24.02087155434851
 30
0.0
 10
35.9998932127023
 20
24.02345635063505
 30
0.0
 10
35.99988739352421
 20
24.0255793968497
 30
0.0
 10
35.99988626658525
 20
24.02594036135231
 30
0.0
 10
35.99988626658531
 20
24.02594036133476
 30
0.0
  0
SPLINE
  5
9747
330
973C
100
AcDbEntity
  8
0
100
AcDbSpline
210
0.0
220
0.0
230
1.0
 70
     8
 71
     3
 72
     8
 73
     4
 74
     0
 42
0.000000001
 43
0.0000000001
 40
0.0
 40
0.0
 40
0.0
 40
0.0
 40
0.000417594500713
 40
0.000417594500713
 40
0.000417594500713
 40
0.000417594500713
 10
40.60608753399285
 20
26.56246533477605
 30
0.0
 10
40.60571552653018
 20
26.56217722339796
 30
0.0
 10
40.60533670555269
 20
26.56188389111254
 30
0.0
 10
40.60495522803119
 20
26.56158846478597
 30
0.0
  0
SPLINE
  5
9748
330
973C
100
AcDbEntity
  8
0
100
AcDbSpline
210
0.0
220
0.0
230
1.0
 70
     8
 71
     3
 72
     8
 73
     4
 74
     0
 42
0.000000001
 43
0.0000000001
 40
0.0
 40
0.0
 40
0.0
 40
0.0
 40
0.0006730443282544
 40
0.0006730443282544
 40
0.0006730443282544
 40
0.0006730443282544
 10
40.60610301841198
 20
26.5624473063922
 30
0.0
 10
40.60468730972847
 20
26.56130750400456
 30
0.0
 10
40.6032107326624
 20
26.56012004630416
 30
0.0
 10
40.60168845105142
 20
26.55889733770179
 30
0.0
  0
LINE
  5
9749
330
973C
100
AcDbEntity
  8
0
100
AcDbLine
 10
33.99999999999999
 20
-2.0
 30
0.0
 11
-33.99999999999998
 21
-2.000000000000007
 31
0.0
  0
LINE
  5
974A
330
973C
100
AcDbEntity
  8
0
100
AcDbLine
 10
-33.99999999999999
 20
0.0
 30
0.0
 11
33.99999999999999
 21
0.0
 31
0.0
  0
LINE
  5
974B
330
973C
100
AcDbEntity
  8
0
100
AcDbLine
 10
-40.0
 20
26.56249999999996
 30
0.0
 11
-38.00000000000001
 21
26.56249999999996
 31
0.0
  0
SPLINE
  5
974C
330
973C
100
AcDbEntity
  8
0
100
AcDbSpline
210
0.0
220
0.0
230
1.0
 70
     8
 71
     3
 72
    14
 73
    10
 74
     0
 42
0.000000001
 43
0.0000000001
 40
0.0
 40
0.0
 40
0.0
 40
0.0
 40
0.3435149368880196
 40
0.3435149368880196
 40
0.3435149368880196
 40
0.7569946177169982
 40
0.7569946177169982
 40
0.7569946177169982
 40
0.9987206178237789
 40
0.9987206178237789
 40
0.9987206178237789
 40
0.9987206178237789
 10
-40.60606060606064
 20
26.56249999999995
 30
0.0
 10
-40.28490796720142
 20
26.3024963693093
 30
0.0
 10
-39.8724655581668
 20
26.07529402125722
 30
0.0
 10
-39.47647444983441
 20
25.8440817946153
 30
0.0
 10
-38.99983061429209
 20
25.56577786250178
 30
0.0
 10
-38.53729794757881
 20
25.27139780306569
 30
0.0
 10
-38.26242807108846
 20
24.85792703998322
 30
0.0
 10
-38.10173529977586
 20
24.61620625331568
 30
0.0
 10
-38.00105977564936
 20
24.36092980284435
 30
0.0
 10
-38.00000831657926
 20
24.00564958882291
 30
0.0
  0
SPLINE
  5
974D
330
973C
100
AcDbEntity
  8
0
100
AcDbSpline
210
0.0
220
0.0
230
1.0
 70
     8
 71
     3
 72
    30
 73
    26
 74
     0
 42
0.000000001
 43
0.0000000001
 40
0.0
 40
0.0
 40
0.0
 40
0.0
 40
0.0655513996106474
 40
0.0655513996106474
 40
0.1471085804165847
 40
0.1471085804165847
 40
0.1864949363723234
 40
0.1864949363723234
 40
0.2244264000695657
 40
0.2244264000695657
 40
0.2338931540089243
 40
0.2338931540089243
 40
0.2360421315856465
 40
0.2360421315856465
 40
0.2376761107166271
 40
0.2376761107166271
 40
0.2393127189200871
 40
0.2393127189200871
 40
0.2426366893599585
 40
0.2426366893599585
 40
0.2492656452663819
 40
0.2492656452663819
 40
0.2559083705657074
 40
0.2559083705657074
 40
0.2643717069169407
 40
0.2643717069169407
 40
0.2643717069169407
 40
0.2643717069169407
 10
-35.99998937019957
 20
26.17586295999775
 30
0.0
 10
-35.99997791487709
 20
25.95811605725135
 30
0.0
 10
-35.99997499599627
 20
25.73955104616678
 30
0.0
 10
-35.9984708704571
 20
25.27766021655975
 30
0.0
 10
-35.99618403849925
 20
25.03633561867758
 30
0.0
 10
-35.99399775311389
 20
24.7203384671751
 30
0.0
 10
-35.99356174420936
 20
24.62409137671508
 30
0.0
 10
-35.99357531581475
 20
24.45119387897074
 30
0.0
 10
-35.99385397701866
 20
24.37644614838264
 30
0.0
 10
-35.99531453410442
 20
24.25916004895046
 30
0.0
 10
-35.9956793906047
 20
24.23369000796935
 30
0.0
 10
-35.99628189517336
 20
24.19778986037884
 30
0.0
 10
-35.99640074961804
 20
24.19090212784592
 30
0.0
 10
-35.99661976315476
 20
24.17853715297035
 30
0.0
 10
-35.99671829927071
 20
24.17307686546094
 30
0.0
 10
-35.99691819147778
 20
24.16217704870755
 30
0.0
 10
-35.99702051810523
 20
24.15668496005511
 30
0.0
 10
-35.9973253913135
 20
24.14051371460867
 30
0.0
 10
-35.99752614242657
 20
24.13012392534913
 30
0.0
 10
-35.99806193230616
 20
24.10259271582551
 30
0.0
 10
-35.99835888444167
 20
24.08755524813166
 30
0.0
 10
-35.99888986310553
 20
24.0602709939165
 30
0.0
 10
-35.99912802460444
 20
24.04785041867612
 30
0.0
 10
-35.99959811291039
 20
24.02276476374002
 30
0.0
 10
-35.99981347016913
 20
24.01073788925494
 30
0.0
 10
-35.99993407916468
 20
24.00381431416029
 30
0.0
  0
SPLINE
  5
974E
330
973C
100
AcDbEntity
  8
0
100
AcDbSpline
210
0.0
220
0.0
230
1.0
 70
     8
 71
     3
 72
     8
 73
     4
 74
     0
 42
0.000000001
 43
0.0000000001
 40
0.0195591966728836
 40
0.0195591966728836
 40
0.0195591966728836
 40
0.0195591966728836
 40
0.0211163438565896
 40
0.0211163438565896
 40
0.0211163438565896
 40
0.0211163438565896
 10
-35.99957522640576
 20
24.01307778050659
 30
0.0
 10
-35.99957087694079
 20
24.00886175467276
 30
0.0
 10
-35.9995656756444
 20
24.00448601988616
 30
0.0
 10
-35.99955984654374
 20
24.00000111615406
 30
0.0
  0
SPLINE
  5
974F
330
973C
100
AcDbEntity
  8
0
100
AcDbSpline
210
0.0
220
0.0
230
1.0
 70
     8
 71
     3
 72
    16
 73
    12
 74
     0
 42
0.000000001
 43
0.0000000001
 40
0.0328453671104092
 40
0.0328453671104092
 40
0.0328453671104092
 40
0.0328453671104092
 40
0.0346121749394037
 40
0.0346121749394037
 40
0.0362943918570347
 40
0.0362943918570347
 40
0.0388726354849521
 40
0.0388726354849521
 40
0.0410449487290922
 40
0.0410449487290922
 40
0.0429128596338943
 40
0.0429128596338943
 40
0.0429128596338943
 40
0.0429128596338943
 10
-35.99842789914776
 20
24.08398349506033
 30
0.0
 10
-35.9984748452151
 20
24.08119158265005
 30
0.0
 10
-35.9985283564785
 20
24.07799109636304
 30
0.0
 10
-35.99864665532351
 20
24.07086662696008
 30
0.0
 10
-35.99871142259385
 20
24.06694586514406
 30
0.0
 10
-35.99889097014442
 20
24.05600293371124
 30
0.0
 10
-35.99901757413284
 20
24.04822182328766
 30
0.0
 10
-35.99925928463508
 20
24.03315935056878
 30
0.0
 10
-35.9993754301823
 20
24.02584026818216
 30
0.0
 10
-35.99958650293964
 20
24.01237473117402
 30
0.0
 10
-35.9996832804997
 20
24.00613799494017
 30
0.0
 10
-35.99977770485155
 20
23.99999658161608
 30
0.0
  0
SPLINE
  5
9750
330
973C
100
AcDbEntity
  8
0
100
AcDbSpline
210
0.0
220
0.0
230
1.0
 70
     8
 71
     3
 72
    12
 73
     8
 74
     0
 42
0.000000001
 43
0.0000000001
 40
0.013814563066388
 40
0.013814563066388
 40
0.013814563066388
 40
0.013814563066388
 40
0.0169919977503636
 40
0.0169919977503636
 40
0.0189384595111769
 40
0.0189384595111769
 40
0.0215156446061479
 40
0.0215156446061479
 40
0.0215156446061479
 40
0.0215156446061479
 10
-35.99988626658529
 20
24.02594036133846
 30
0.0
 10
-35.99988626662722
 20
24.02594034782423
 30
0.0
 10
-35.99989009832579
 20
24.0247219707771
 30
0.0
 10
-35.99990126035978
 20
24.02016542610182
 30
0.0
 10
-35.99990666427704
 20
24.01781767436426
 30
0.0
 10
-35.99992101843331
 20
24.01095160621908
 30
0.0
 10
-35.99993065644238
 20
24.00589465539822
 30
0.0
 10
-35.99994094380471
 20
23.99999986651922
 30
0.0
  0
SPLINE
  5
9751
330
973C
100
AcDbEntity
  8
0
100
AcDbSpline
210
0.0
220
0.0
230
1.0
 70
     8
 71
     3
 72
    18
 73
    14
 74
     0
 42
0.000000001
 43
0.0000000001
 40
0.0
 40
0.0
 40
0.0
 40
0.0
 40
0.0024570028451714
 40
0.0024570028451714
 40
0.0039409915344988
 40
0.0039409915344988
 40
0.0051741381626471
 40
0.0051741381626471
 40
0.0062936707539533
 40
0.0062936707539533
 40
0.0072477869738762
 40
0.0072477869738762
 40
0.0081508089152356
 40
0.0081508089152356
 40
0.0081508089152356
 40
0.0081508089152356
 10
-38.00006836121696
 20
24.00000006106856
 30
0.0
 10
-38.00005880338368
 20
24.0079835301683
 30
0.0
 10
-38.00006019011193
 20
24.01608718578968
 30
0.0
 10
-38.00008991957769
 20
24.02891281854248
 30
0.0
 10
-38.00010769504076
 20
24.03374341021928
 30
0.0
 10
-38.00015079802488
 20
24.04204051714215
 30
0.0
 10
-38.00017483767648
 20
24.04565184262209
 30
0.0
 10
-38.00021879515478
 20
24.05130012510504
 30
0.0
 10
-38.00023901590818
 20
24.05350629361975
 30
0.0
 10
-38.00026723787747
 20
24.056401040363
 30
0.0
 10
-38.00027701480497
 20
24.05731707205288
 30
0.0
 10
-38.00028895250386
 20
24.05841659380498
 30
0.0
 10
-38.00029164702528
 20
24.05864902334513
 30
0.0
 10
-38.00029164702523
 20
24.05864902334077
 30
0.0
  0
SPLINE
  5
9752
330
973C
100
AcDbEntity
  8
0
100
AcDbSpline
210
0.0
220
0.0
230
1.0
 70
     8
 71
     3
 72
    20
 73
    16
 74
     0
 42
0.000000001
 43
0.0000000001
 40
0.0
 40
0.0
 40
0.0
 40
0.0
 40
0.0031220420342365
 40
0.0031220420342365
 40
0.0041379139085922
 40
0.0041379139085922
 40
0.004763552412583
 40
0.004763552412583
 40
0.005152612020267
 40
0.005152612020267
 40
0.0055095663408186
 40
0.0055095663408186
 40
0.0057779068080531
 40
0.0057779068080531
 40
0.0059590060684757
 40
0.0059590060684757
 40
0.0059590060684757
 40
0.0059590060684757
 10
-38.00000910563666
 20
24.00000001245747
 30
0.0
 10
-37.99999728542141
 20
24.00980848407916
 30
0.0
 10
-38.00000543937647
 20
24.01954733743933
 30
0.0
 10
-38.00003938301417
 20
24.03104067933008
 30
0.0
 10
-38.00004945279385
 20
24.03375740971886
 30
0.0
 10
-38.00006754645419
 20
24.03788689769307
 30
0.0
 10
-38.00007507082017
 20
24.03943855510475
 30
0.0
 10
-38.00008683174747
 20
24.04168470873352
 30
0.0
 10
-38.00009120789473
 20
24.04247794065386
 30
0.0
 10
-38.00009863782327
 20
24.04378104961024
 30
0.0
 10
-38.00010179621361
 20
24.04431368817509
 30
0.0
 10
-38.00010597347821
 20
24.04500659696804
 30
0.0
 10
-38.00010734054493
 20
24.04522868623168
 30
0.0
 10
-38.00010867546348
 20
24.04544473067157
 30
0.0
 10
-38.0001089602071
 20
24.0454904133512
 30
0.0
 10
-38.00010896013898
 20
24.0454904024021
 30
0.0
  0
SPLINE
  5
9753
330
973C
100
AcDbEntity
  8
0
100
AcDbSpline
210
0.0
220
0.0
230
1.0
 70
     8
 71
     3
 72
     8
 73
     4
 74
     0
 42
0.000000001
 43
0.0000000001
 40
0.0
 40
0.0
 40
0.0
 40
0.0
 40
0.0006933853585941
 40
0.0006933853585941
 40
0.0006933853585941
 40
0.0006933853585941
 10
-38.00001139509259
 20
24.00000003061081
 30
0.0
 10
-38.00000770268128
 20
24.0013711604474
 30
0.0
 10
-38.00000385766656
 20
24.00284454986265
 30
0.0
 10
-37.99999996353129
 20
24.0043692763278
 30
0.0
  0
SPLINE
  5
9754
330
973C
100
AcDbEntity
  8
0
100
AcDbSpline
210
0.0
220
0.0
230
1.0
 70
     8
 71
     3
 72
     8
 73
     4
 74
     0
 42
0.000000001
 43
0.0000000001
 40
0.2816853913054392
 40
0.2816853913054392
 40
0.2816853913054392
 40
0.2816853913054392
 40
0.2823584862555004
 40
0.2823584862555004
 40
0.2823584862555004
 40
0.2823584862555004
 10
-40.60168902332917
 20
26.55889786017816
 30
0.0
 10
-40.60321156945518
 20
26.5601207812411
 30
0.0
 10
-40.60468720324846
 20
26.56130741827635
 30
0.0
 10
-40.60610301841196
 20
26.56244730639219
 30
0.0
  0
SPLINE
  5
9755
330
973C
100
AcDbEntity
  8
0
100
AcDbSpline
210
0.0
220
0.0
230
1.0
 70
     8
 71
     3
 72
     8
 73
     4
 74
     0
 42
0.000000001
 43
0.0000000001
 40
0.0184886276051725
 40
0.0184886276051725
 40
0.0184886276051725
 40
0.0184886276051725
 40
0.0189064975929447
 40
0.0189064975929447
 40
0.0189064975929447
 40
0.0189064975929447
 10
-40.60495655142147
 20
26.5615894573589
 30
0.0
 10
-40.60533779129501
 20
26.56188469964457
 30
0.0
 10
-40.6057152811169
 20
26.56217703333091
 30
0.0
 10
-40.60608753399285
 20
26.56246533477605
 30
0.0
  0
ARC
  5
9756
330
973C
100
AcDbEntity
  8
0
100
AcDbCircle
 10
-33.99999999999999
 20
2.0
 30
0.0
 40
4.000000000000007
100
AcDbArc
 50
180.0
 51
270.0
  0
ARC
  5
9757
330
973C
100
AcDbEntity
  8
0
100
AcDbCircle
 10
-33.99999999999999
 20
2.0
 30
0.0
 40
2.000000000000006
100
AcDbArc
 50
180.0
 51
270.0
  0
ARC
  5
9758
330
973C
100
AcDbEntity
  8
0
100
AcDbCircle
 10
33.99999999999999
 20
2.0
 30
0.0
 40
4.000000000000007
100
AcDbArc
 50
270.0
 51
0.0
  0
LINE
  5
9759
330
973C
100
AcDbEntity
  8
0
100
AcDbLine
 10
40.60606060606066
 20
26.56249999999996
 30
0.0
 11
77.50000000000006
 21
56.99999999999997
 31
0.0
  0
LINE
  5
975A
330
973C
100
AcDbEntity
  8
0
100
AcDbLine
 10
35.99999999999999
 20
24.0
 30
0.0
 11
36.0
 21
56.99999999999997
 31
0.0
  0
LINE
  5
975B
330
973C
100
AcDbEntity
  8
0
100
AcDbLine
 10
37.99999999999999
 20
24.0
 30
0.0
 11
35.99999999999999
 21
24.0
 31
0.0
  0
LINE
  5
975C
330
973C
100
AcDbEntity
  8
0
100
AcDbLine
 10
38.0
 20
56.99999999999997
 30
0.0
 11
37.99999999999999
 21
24.0
 31
0.0
  0
LINE
  5
975D
330
973C
100
AcDbEntity
  8
0
100
AcDbLine
 10
38.0
 20
56.99999999999997
 30
0.0
 11
36.0
 21
56.99999999999997
 31
0.0
  0
LINE
  5
975E
330
973C
100
AcDbEntity
  8
0
100
AcDbLine
 10
36.0
 20
56.99999999999997
 30
0.0
 11
36.0
 21
154.0
 31
0.0
  0
LINE
  5
975F
330
973C
100
AcDbEntity
  8
0
100
AcDbLine
 10
38.0
 20
154.0
 30
0.0
 11
38.0
 21
56.99999999999997
 31
0.0
  0
LINE
  5
9760
330
973C
100
AcDbEntity
  8
0
100
AcDbLine
 10
36.0
 20
154.0
 30
0.0
 11
38.0
 21
154.0
 31
0.0
  0
LINE
  5
9761
330
973C
100
AcDbEntity
  8
0
100
AcDbLine
 10
37.99999999999999
 20
24.0
 30
0.0
 11
37.99999999999999
 21
2.000000000000001
 31
0.0
  0
LINE
  5
9762
330
973C
100
AcDbEntity
  8
0
100
AcDbLine
 10
35.99999999999999
 20
2.0
 30
0.0
 11
35.99999999999999
 21
24.0
 31
0.0
  0
ARC
  5
9763
330
973C
100
AcDbEntity
  8
0
100
AcDbCircle
 10
33.99999999999999
 20
2.0
 30
0.0
 40
2.000000000000006
100
AcDbArc
 50
270.0
 51
0.0
  0
LINE
  5
9764
330
973C
100
AcDbEntity
  8
0
100
AcDbLine
 10
40.0
 20
154.0
 30
0.0
 11
38.0
 21
154.0
 31
0.0
  0
LINE
  5
9765
330
973C
100
AcDbEntity
  8
0
100
AcDbLine
 10
77.50000000000006
 20
56.99999999999997
 30
0.0
 11
77.5
 21
154.0
 31
0.0
  0
LINE
  5
9766
330
973C
100
AcDbEntity
  8
0
100
AcDbLine
 10
77.5
 20
154.0
 30
0.0
 11
40.0
 21
154.0
 31
0.0
  0
CIRCLE
  5
9767
330
973C
100
AcDbEntity
  8
0
100
AcDbCircle
 10
58.0
 20
134.0
 30
0.0
 40
6.5
  0
CIRCLE
  5
9768
330
973C
100
AcDbEntity
  8
0
100
AcDbCircle
 10
69.0
 20
139.0
 30
0.0
 40
2.5
  0
LINE
  5
9769
330
973C
100
AcDbEntity
  8
0
100
AcDbLine
 10
-77.50000000000006
 20
56.99999999999997
 30
0.0
 11
-40.60606060606066
 21
26.56249999999996
 31
0.0
  0
LINE
  5
976A
330
973C
100
AcDbEntity
  8
0
100
AcDbLine
 10
-36.0
 20
56.99999999999997
 30
0.0
 11
-35.99999999999999
 21
24.0
 31
0.0
  0
LINE
  5
976B
330
973C
100
AcDbEntity
  8
0
100
AcDbLine
 10
-38.0
 20
56.99999999999997
 30
0.0
 11
-36.0
 21
56.99999999999997
 31
0.0
  0
LINE
  5
976C
330
973C
100
AcDbEntity
  8
0
100
AcDbLine
 10
-37.99999999999999
 20
24.0
 30
0.0
 11
-38.0
 21
56.99999999999997
 31
0.0
  0
LINE
  5
976D
330
973C
100
AcDbEntity
  8
0
100
AcDbLine
 10
-35.99999999999999
 20
24.0
 30
0.0
 11
-37.99999999999999
 21
24.0
 31
0.0
  0
LINE
  5
976E
330
973C
100
AcDbEntity
  8
0
100
AcDbLine
 10
-36.0
 20
154.0
 30
0.0
 11
-36.0
 21
56.99999999999997
 31
0.0
  0
LINE
  5
976F
330
973C
100
AcDbEntity
  8
0
100
AcDbLine
 10
-38.0
 20
154.0
 30
0.0
 11
-36.0
 21
154.0
 31
0.0
  0
LINE
  5
9770
330
973C
100
AcDbEntity
  8
0
100
AcDbLine
 10
-38.0
 20
56.99999999999997
 30
0.0
 11
-38.0
 21
154.0
 31
0.0
  0
CIRCLE
  5
9771
330
973C
100
AcDbEntity
  8
0
100
AcDbCircle
 10
-58.0
 20
64.0
 30
0.0
 40
6.5
  0
CIRCLE
  5
9772
330
973C
100
AcDbEntity
  8
0
100
AcDbCircle
 10
58.0
 20
64.0
 30
0.0
 40
6.5
  0
CIRCLE
  5
9773
330
973C
100
AcDbEntity
  8
0
100
AcDbCircle
 10
-58.0
 20
134.0
 30
0.0
 40
6.5
  0
CIRCLE
  5
9774
330
973C
100
AcDbEntity
  8
0
100
AcDbCircle
 10
-46.99999999999999
 20
49.0
 30
0.0
 40
2.5
  0
CIRCLE
  5
9775
330
973C
100
AcDbEntity
  8
0
100
AcDbCircle
 10
-46.99999999999999
 20
69.0
 30
0.0
 40
2.5
  0
CIRCLE
  5
9776
330
973C
100
AcDbEntity
  8
0
100
AcDbCircle
 10
-46.99999999999999
 20
89.0
 30
0.0
 40
2.5
  0
CIRCLE
  5
9777
330
973C
100
AcDbEntity
  8
0
100
AcDbCircle
 10
-46.99999999999999
 20
109.0
 30
0.0
 40
2.5
  0
CIRCLE
  5
9778
330
973C
100
AcDbEntity
  8
0
100
AcDbCircle
 10
-46.99999999999999
 20
129.0
 30
0.0
 40
2.5
  0
CIRCLE
  5
9779
330
973C
100
AcDbEntity
  8
0
100
AcDbCircle
 10
46.99999999999999
 20
49.0
 30
0.0
 40
2.5
  0
CIRCLE
  5
977A
330
973C
100
AcDbEntity
  8
0
100
AcDbCircle
 10
46.99999999999999
 20
69.0
 30
0.0
 40
2.5
  0
CIRCLE
  5
977B
330
973C
100
AcDbEntity
  8
0
100
AcDbCircle
 10
46.99999999999999
 20
89.0
 30
0.0
 40
2.5
  0
CIRCLE
  5
977C
330
973C
100
AcDbEntity
  8
0
100
AcDbCircle
 10
46.99999999999999
 20
109.0
 30
0.0
 40
2.5
  0
CIRCLE
  5
977D
330
973C
100
AcDbEntity
  8
0
100
AcDbCircle
 10
46.99999999999999
 20
129.0
 30
0.0
 40
2.5
  0
CIRCLE
  5
977E
330
973C
100
AcDbEntity
  8
0
100
AcDbCircle
 10
-46.99999999999999
 20
149.0
 30
0.0
 40
2.5
  0
CIRCLE
  5
977F
330
973C
100
AcDbEntity
  8
0
100
AcDbCircle
 10
46.99999999999999
 20
149.0
 30
0.0
 40
2.5
  0
CIRCLE
  5
9780
330
973C
100
AcDbEntity
  8
0
100
AcDbCircle
 10
-69.0
 20
59.00000000000002
 30
0.0
 40
2.5
  0
CIRCLE
  5
9781
330
973C
100
AcDbEntity
  8
0
100
AcDbCircle
 10
-69.0
 20
79.00000000000003
 30
0.0
 40
2.5
  0
CIRCLE
  5
9782
330
973C
100
AcDbEntity
  8
0
100
AcDbCircle
 10
-69.0
 20
99.0
 30
0.0
 40
2.5
  0
CIRCLE
  5
9783
330
973C
100
AcDbEntity
  8
0
100
AcDbCircle
 10
-69.0
 20
119.0
 30
0.0
 40
2.5
  0
CIRCLE
  5
9784
330
973C
100
AcDbEntity
  8
0
100
AcDbCircle
 10
69.0
 20
59.00000000000002
 30
0.0
 40
2.5
  0
CIRCLE
  5
9785
330
973C
100
AcDbEntity
  8
0
100
AcDbCircle
 10
69.0
 20
79.00000000000003
 30
0.0
 40
2.5
  0
CIRCLE
  5
9786
330
973C
100
AcDbEntity
  8
0
100
AcDbCircle
 10
69.0
 20
99.0
 30
0.0
 40
2.5
  0
CIRCLE
  5
9787
330
973C
100
AcDbEntity
  8
0
100
AcDbCircle
 10
69.0
 20
119.0
 30
0.0
 40
2.5
  0
CIRCLE
  5
9788
330
973C
100
AcDbEntity
  8
0
100
AcDbCircle
 10
-69.0
 20
139.0
 30
0.0
 40
2.5
  0
LINE
  5
9789
330
973C
100
AcDbEntity
  8
0
100
AcDbLine
 10
-77.5
 20
154.0
 30
0.0
 11
-40.0
 21
154.0
 31
0.0
  0
LINE
  5
978A
330
973C
100
AcDbEntity
  8
0
100
AcDbLine
 10
-77.50000000000006
 20
56.99999999999997
 30
0.0
 11
-77.5
 21
154.0
 31
0.0
  0
LINE
  5
978B
330
973C
100
AcDbEntity
  8
0
100
AcDbLine
 10
-35.99999999999999
 20
2.0
 30
0.0
 11
-35.99999999999999
 21
24.0
 31
0.0
  0
LINE
  5
978C
330
973C
100
AcDbEntity
  8
0
100
AcDbLine
 10
-37.99999999999999
 20
24.0
 30
0.0
 11
-37.99999999999999
 21
2.000000000000001
 31
0.0
  0
LINE
  5
978D
330
973C
100
AcDbEntity
  8
0
100
AcDbLine
 10
-40.0
 20
154.0
 30
0.0
 11
-38.0
 21
154.0
 31
0.0
  0
ENDBLK
  5
973E
330
973C
100
AcDbEntity
  8
0
100
AcDbBlockEnd
  0
BLOCK
  5
978F
330
978E
100
AcDbEntity
  8
0
100
AcDbBlockBegin
  2
SAE380_72_2-Left
 70
     0
 10
0.0
 20
0.0
 30
0.0
  3
SAE380_72_2-Left
  1

  0
LINE
  5
9791
330
978E
100
AcDbEntity
  8
0
100
AcDbLine
 10
2.000000000000005
 20
-2.0
 30
0.0
 11
86.0
 21
-2.000000000000007
 31
0.0
  0
LINE
  5
9792
330
978E
100
AcDbEntity
  8
0
100
AcDbLine
 10
2.00000000000001
 20
2.000000000000004
 30
0.0
 11
2.000000000000004
 21
-1.999999999999999
 31
0.0
  0
LINE
  5
9793
330
978E
100
AcDbEntity
  8
0
100
AcDbLine
 10
86.0
 20
-2.000000000000007
 30
0.0
 11
86.0
 21
2.0
 31
0.0
  0
SPLINE
  5
9794
330
978E
100
AcDbEntity
  8
0
100
AcDbSpline
210
0.0
220
0.0
230
1.0
 70
     8
 71
     3
 72
    14
 73
    10
 74
     0
 42
0.000000001
 43
0.0000000001
 40
-0.4813026532895844
 40
-0.4813026532895844
 40
-0.4813026532895844
 40
-0.4813026532895844
 40
-0.3760960080993577
 40
-0.3760960080993577
 40
-0.3760960080993577
 40
-0.0765284972681958
 40
-0.0765284972681958
 40
-0.0765284972681958
 40
0.0
 40
0.0
 40
0.0
 40
0.0
 10
0.9454120927216068
 20
25.73176011523301
 30
0.0
 10
0.8408297879819292
 20
25.76867618608689
 30
0.0
 10
0.7371129357487427
 20
25.80054090483447
 30
0.0
 10
0.638861406439279
 20
25.8342366632115
 30
0.0
 10
0.3590980320120023
 20
25.93018264118965
 30
0.0
 10
0.1217220476580958
 20
26.04001612967697
 30
0.0
 10
0.0342615816148956
 20
26.31443386955725
 30
0.0
 10
0.0119186445651081
 20
26.38453752398394
 30
0.0
 10
0.0000045452574072
 20
26.46769665104345
 30
0.0
 10
0.000000000115211
 20
26.56250000004007
 30
0.0
  0
SPLINE
  5
9795
330
978E
100
AcDbEntity
  8
0
100
AcDbSpline
210
0.0
220
0.0
230
1.0
 70
     8
 71
     3
 72
    14
 73
    10
 74
     0
 42
0.000000001
 43
0.0000000001
 40
0.0
 40
0.0
 40
0.0
 40
0.0
 40
0.3435149368880196
 40
0.3435149368880196
 40
0.3435149368880196
 40
0.7569946177169982
 40
0.7569946177169982
 40
0.7569946177169982
 40
1.0
 40
1.0
 40
1.0
 40
1.0
 10
2.000000000000014
 20
26.56249999999995
 30
0.0
 10
2.000036879631395
 20
26.3024963693093
 30
0.0
 10
1.996834167074891
 20
26.07529402125722
 30
0.0
 10
1.998676128322016
 20
25.8440817946153
 30
0.0
 10
2.000893247482716
 20
25.56577786250178
 30
0.0
 10
2.001072402909309
 20
25.27139780306569
 30
0.0
 10
2.001124325805027
 20
24.85792703998322
 30
0.0
 10
2.001154841314515
 20
24.6149268987326
 30
0.0
 10
2.000250547667954
 20
24.35822722193972
 30
0.0
 10
1.999999999992532
 20
24.00000000165236
 30
0.0
  0
LINE
  5
9796
330
978E
100
AcDbEntity
  8
0
100
AcDbLine
 10
0.0
 20
26.56249999999996
 30
0.0
 11
2.000000000000008
 21
26.56249999999996
 31
0.0
  0
SPLINE
  5
9797
330
978E
100
AcDbEntity
  8
0
100
AcDbSpline
210
0.0
220
0.0
230
1.0
 70
     8
 71
     3
 72
    18
 73
    14
 74
     0
 42
0.000000001
 43
0.0000000001
 40
0.0
 40
0.0
 40
0.0
 40
0.0
 40
0.0045852970572137
 40
0.0045852970572137
 40
0.0065400842507023
 40
0.0065400842507023
 40
0.0081563837459266
 40
0.0081563837459266
 40
0.0096016091877519
 40
0.0096016091877519
 40
0.0108226894108936
 40
0.0108226894108936
 40
0.0118646463035397
 40
0.0118646463035397
 40
0.0118646463035397
 40
0.0118646463035397
 10
1.999557272916847
 20
23.99999849441626
 30
0.0
 10
1.999513512481313
 20
24.01475837639836
 30
0.0
 10
1.999424163707918
 20
24.02919075199353
 30
0.0
 10
1.999253402761456
 20
24.04675570000228
 30
0.0
 10
1.999196850516373
 20
24.05166987405383
 30
0.0
 10
1.999091149929645
 20
24.05972733082127
 30
0.0
 10
1.999042050576922
 20
24.06305924745724
 30
0.0
 10
1.998954621983233
 20
24.06851913180557
 30
0.0
 10
1.998915397065323
 20
24.07075700162021
 30
0.0
 10
1.99885518392297
 20
24.07401363505833
 30
0.0
 10
1.998832157108738
 20
24.07517781409716
 30
0.0
 10
1.998803973822232
 20
24.0765646025492
 30
0.0
 10
1.998796572755311
 20
24.07690723965205
 30
0.0
 10
1.998796572807101
 20
24.07690723724951
 30
0.0
  0
SPLINE
  5
9798
330
978E
100
AcDbEntity
  8
0
100
AcDbSpline
210
0.0
220
0.0
230
1.0
 70
     8
 71
     3
 72
    10
 73
     6
 74
     0
 42
0.000000001
 43
0.0000000001
 40
0.0052676618464652
 40
0.0052676618464652
 40
0.0052676618464652
 40
0.0052676618464652
 40
0.0058868978025609
 40
0.0058868978025609
 40
0.008185552721272
 40
0.008185552721272
 40
0.008185552721272
 40
0.008185552721272
 10
1.999414228066276
 20
24.02852502901269
 30
0.0
 10
1.999398483572446
 20
24.02921804076273
 30
0.0
 10
1.999384018194581
 20
24.0298441292677
 30
0.0
 10
1.999322897808031
 20
24.03245947193536
 30
0.0
 10
1.999295499695596
 20
24.03354692650584
 30
0.0
 10
1.999295499749876
 20
24.03354692432317
 30
0.0
  0
SPLINE
  5
9799
330
978E
100
AcDbEntity
  8
0
100
AcDbSpline
210
0.0
220
0.0
230
1.0
 70
     8
 71
     3
 72
    32
 73
    28
 74
     0
 42
0.000000001
 43
0.0000000001
 40
0.0045473817631062
 40
0.0045473817631062
 40
0.0045473817631062
 40
0.0045473817631062
 40
0.0052697395181439
 40
0.0052697395181439
 40
0.009235452277428
 40
0.009235452277428
 40
0.0117315606315145
 40
0.0117315606315145
 40
0.0138523607184344
 40
0.0138523607184344
 40
0.0172611519297702
 40
0.0172611519297702
 40
0.0261321725259096
 40
0.0261321725259096
 40
0.0527623644122746
 40
0.0527623644122746
 40
0.0889482847294612
 40
0.0889482847294612
 40
0.1145384727650196
 40
0.1145384727650196
 40
0.151818107826529
 40
0.151818107826529
 40
0.1853167196390365
 40
0.1853167196390365
 40
0.2269370649214939
 40
0.2269370649214939
 40
0.2446335212560913
 40
0.2446335212560913
 40
0.2446335212560913
 40
0.2446335212560913
 10
1.999453047720104
 20
24.02279542166041
 30
0.0
 10
1.999422986250217
 20
24.02392487587338
 30
0.0
 10
1.999392437852902
 20
24.02505295152515
 30
0.0
 10
1.999189551827542
 20
24.03241745870716
 30
0.0
 10
1.999004120043756
 20
24.0387590459061
 30
0.0
 10
1.998515703023876
 20
24.05335128891064
 30
0.0
 10
1.998269373612734
 20
24.06029190135406
 30
0.0
 10
1.997729630209382
 20
24.07412658055739
 30
0.0
 10
1.997447670565241
 20
24.08090569270684
 30
0.0
 10
1.996652403114041
 20
24.09873068298561
 30
0.0
 10
1.996098018303943
 20
24.10998894914047
 30
0.0
 10
1.993900550784728
 20
24.15050913592621
 30
0.0
 10
1.99192580899313
 20
24.17997136763244
 30
0.0
 10
1.98242663172371
 20
24.29742877318811
 30
0.0
 10
1.971735198721638
 20
24.38490574189263
 30
0.0
 10
1.936108380035475
 20
24.58974236068356
 30
0.0
 10
1.907051218255704
 20
24.70804920886239
 30
0.0
 10
1.838871182834917
 20
24.90223815823809
 30
0.0
 10
1.804834187997144
 20
24.98109086197207
 30
0.0
 10
1.708090538301759
 20
25.16249453410275
 30
0.0
 10
1.63766927888547
 20
25.26126687699651
 30
0.0
 10
1.493722582771906
 20
25.41704852791337
 30
0.0
 10
1.420228718895649
 20
25.4792742301259
 30
0.0
 10
1.254517310882196
 20
25.59488639181515
 30
0.0
 10
1.160200334009569
 20
25.64438618788897
 30
0.0
 10
1.024260897434712
 20
25.70235777430594
 30
0.0
 10
0.9834047208151853
 20
25.71807338398264
 30
0.0
 10
0.9420912520931954
 20
25.7325971296507
 30
0.0
  0
LINE
  5
979A
330
978E
100
AcDbEntity
  8
0
100
AcDbLine
 10
2.00000000000001
 20
2.000000000000003
 30
0.0
 11
2.00000000000001
 21
24.0
 31
0.0
  0
LINE
  5
979B
330
978E
100
AcDbEntity
  8
0
100
AcDbLine
 10
1.999999999999997
 20
56.99999999999997
 30
0.0
 11
2.000000000000008
 21
26.56249999999996
 31
0.0
  0
LINE
  5
979C
330
978E
100
AcDbEntity
  8
0
100
AcDbLine
 10
0.0
 20
56.99999999999997
 30
0.0
 11
1.999999999999997
 21
56.99999999999997
 31
0.0
  0
LINE
  5
979D
330
978E
100
AcDbEntity
  8
0
100
AcDbLine
 10
0.0
 20
26.56249999999996
 30
0.0
 11
0.0
 21
56.99999999999997
 31
0.0
  0
LINE
  5
979E
330
978E
100
AcDbEntity
  8
0
100
AcDbLine
 10
86.00000000000001
 20
24.0
 30
0.0
 11
46.00000000000001
 21
56.99999999999997
 31
0.0
  0
LINE
  5
979F
330
978E
100
AcDbEntity
  8
0
100
AcDbLine
 10
46.00000000000001
 20
56.99999999999997
 30
0.0
 11
46.0
 21
154.0
 31
0.0
  0
LINE
  5
97A0
330
978E
100
AcDbEntity
  8
0
100
AcDbLine
 10
1.999999999999997
 20
56.99999999999997
 30
0.0
 11
2.00000000000001
 21
154.0
 31
0.0
  0
LINE
  5
97A1
330
978E
100
AcDbEntity
  8
0
100
AcDbLine
 10
86.00000000000001
 20
24.0
 30
0.0
 11
86.0
 21
2.000000000000001
 31
0.0
  0
LINE
  5
97A2
330
978E
100
AcDbEntity
  8
0
100
AcDbLine
 10
4.000000000000003
 20
154.0
 30
0.0
 11
46.0
 21
154.0
 31
0.0
  0
LINE
  5
97A3
330
978E
100
AcDbEntity
  8
0
100
AcDbLine
 10
0.0
 20
154.0
 30
0.0
 11
2.00000000000001
 21
154.0
 31
0.0
  0
LINE
  5
97A4
330
978E
100
AcDbEntity
  8
0
100
AcDbLine
 10
0.0
 20
56.99999999999997
 30
0.0
 11
0.0
 21
154.0
 31
0.0
  0
LINE
  5
97A5
330
978E
100
AcDbEntity
  8
0
100
AcDbLine
 10
2.000000000000006
 20
154.0
 30
0.0
 11
4.000000000000003
 21
154.0
 31
0.0
  0
CIRCLE
  5
97A6
330
978E
100
AcDbEntity
  8
0
100
AcDbCircle
 10
38.5
 20
48.99999999999998
 30
0.0
 40
2.5
  0
CIRCLE
  5
97A7
330
978E
100
AcDbEntity
  8
0
100
AcDbCircle
 10
38.5
 20
68.99999999999998
 30
0.0
 40
2.5
  0
CIRCLE
  5
97A8
330
978E
100
AcDbEntity
  8
0
100
AcDbCircle
 10
38.5
 20
88.99999999999998
 30
0.0
 40
2.5
  0
CIRCLE
  5
97A9
330
978E
100
AcDbEntity
  8
0
100
AcDbCircle
 10
38.5
 20
109.0
 30
0.0
 40
2.5
  0
CIRCLE
  5
97AA
330
978E
100
AcDbEntity
  8
0
100
AcDbCircle
 10
38.5
 20
129.0
 30
0.0
 40
2.5
  0
CIRCLE
  5
97AB
330
978E
100
AcDbEntity
  8
0
100
AcDbCircle
 10
38.5
 20
149.0
 30
0.0
 40
2.5
  0
SPLINE
  5
97AC
330
978E
100
AcDbEntity
  8
0
100
AcDbSpline
210
0.0
220
0.0
230
1.0
 70
     8
 71
     3
 72
     8
 73
     4
 74
     0
 42
0.000000001
 43
0.0000000001
 40
0.0
 40
0.0
 40
0.0
 40
0.0
 40
0.0024158828173706
 40
0.0024158828173706
 40
0.0024158828173706
 40
0.0024158828173706
 10
1.999557272916847
 20
23.99999849441626
 30
0.0
 10
1.999534216595093
 20
24.0077751214967
 30
0.0
 10
1.99949921424133
 20
24.01546438923364
 30
0.0
 10
1.999453047720085
 20
24.02279542166115
 30
0.0
  0
ENDBLK
  5
9790
330
978E
100
AcDbEntity
  8
0
100
AcDbBlockEnd
  0
BLOCK
  5
97AE
330
97AD
100
AcDbEntity
  8
0
100
AcDbBlockBegin
  2
SAE380_72_2-Right
 70
     0
 10
0.0
 20
0.0
 30
0.0
  3
SAE380_72_2-Right
  1

  0
SPLINE
  5
97B0
330
97AD
100
AcDbEntity
  8
0
100
AcDbSpline
210
0.0
220
0.0
230
1.0
 70
     8
 71
     3
 72
    14
 73
    10
 74
     0
 42
0.000000001
 43
0.0000000001
 40
0.0
 40
0.0
 40
0.0
 40
0.0
 40
0.3435149368880196
 40
0.3435149368880196
 40
0.3435149368880196
 40
0.7569946177169982
 40
0.7569946177169982
 40
0.7569946177169982
 40
1.0
 40
1.0
 40
1.0
 40
1.0
 10
-2.000000000000014
 20
26.56249999999995
 30
0.0
 10
-2.000036879631395
 20
26.3024963693093
 30
0.0
 10
-1.996834167074891
 20
26.07529402125722
 30
0.0
 10
-1.998676128322016
 20
25.8440817946153
 30
0.0
 10
-2.000893247482716
 20
25.56577786250178
 30
0.0
 10
-2.001072402909309
 20
25.27139780306569
 30
0.0
 10
-2.001124325805027
 20
24.85792703998322
 30
0.0
 10
-2.001154841314515
 20
24.6149268987326
 30
0.0
 10
-2.000250547667954
 20
24.35822722193972
 30
0.0
 10
-1.999999999992532
 20
24.00000000165236
 30
0.0
  0
SPLINE
  5
97B1
330
97AD
100
AcDbEntity
  8
0
100
AcDbSpline
210
0.0
220
0.0
230
1.0
 70
     8
 71
     3
 72
    14
 73
    10
 74
     0
 42
0.000000001
 43
0.0000000001
 40
-0.4813026532896132
 40
-0.4813026532896132
 40
-0.4813026532896132
 40
-0.4813026532896132
 40
-0.3760960080993577
 40
-0.3760960080993577
 40
-0.3760960080993577
 40
-0.0765284972681958
 40
-0.0765284972681958
 40
-0.0765284972681958
 40
0.0
 40
0.0
 40
0.0
 40
0.0
 10
-0.9454120927216928
 20
25.73176011523298
 30
0.0
 10
-0.8408297879819858
 20
25.76867618608687
 30
0.0
 10
-0.7371129357487697
 20
25.80054090483446
 30
0.0
 10
-0.638861406439279
 20
25.8342366632115
 30
0.0
 10
-0.3590980320120023
 20
25.93018264118965
 30
0.0
 10
-0.1217220476580958
 20
26.04001612967697
 30
0.0
 10
-0.0342615816148956
 20
26.31443386955725
 30
0.0
 10
-0.0119186445651081
 20
26.38453752398394
 30
0.0
 10
-0.0000045452574072
 20
26.46769665104345
 30
0.0
 10
-0.000000000115211
 20
26.56250000004007
 30
0.0
  0
LINE
  5
97B2
330
97AD
100
AcDbEntity
  8
0
100
AcDbLine
 10
-2.000000000000008
 20
26.56249999999996
 30
0.0
 11
0.0
 21
26.56249999999996
 31
0.0
  0
SPLINE
  5
97B3
330
97AD
100
AcDbEntity
  8
0
100
AcDbSpline
210
0.0
220
0.0
230
1.0
 70
     8
 71
     3
 72
    16
 73
    12
 74
     0
 42
0.000000001
 43
0.0000000001
 40
0.0119734590528844
 40
0.0119734590528844
 40
0.0119734590528844
 40
0.0119734590528844
 40
0.0132060105539602
 40
0.0132060105539602
 40
0.0147875485781185
 40
0.0147875485781185
 40
0.0179851231463461
 40
0.0179851231463461
 40
0.0208164923197878
 40
0.0208164923197878
 40
0.0238392903310101
 40
0.0238392903310101
 40
0.0238392903310101
 40
0.0238392903310101
 10
-1.998796572807044
 20
24.07690723725216
 30
0.0
 10
-1.99879657280445
 20
24.07690723737254
 30
0.0
 10
-1.998806859808606
 20
24.07643140311339
 30
0.0
 10
-1.998847228750731
 20
24.07441930806404
 30
0.0
 10
-1.99888225689798
 20
24.07260732539903
 30
0.0
 10
-1.999004373871598
 20
24.06565815139139
 30
0.0
 10
-1.999108337844985
 20
24.058914024977
 30
0.0
 10
-1.999281967768021
 20
24.04429668604564
 30
0.0
 10
-1.999357294644537
 20
24.03644011302762
 30
0.0
 10
-1.999480931971158
 20
24.01925573232106
 30
0.0
 10
-1.999528424413501
 20
24.009728756457
 30
0.0
 10
-1.999557272916848
 20
23.99999849441626
 30
0.0
  0
SPLINE
  5
97B4
330
97AD
100
AcDbEntity
  8
0
100
AcDbSpline
210
0.0
220
0.0
230
1.0
 70
     8
 71
     3
 72
    10
 73
     6
 74
     0
 42
0.000000001
 43
0.0000000001
 40
0.008702136919591
 40
0.008702136919591
 40
0.008702136919591
 40
0.008702136919591
 40
0.0090037601843543
 40
0.0090037601843543
 40
0.0116230169561649
 40
0.0116230169561649
 40
0.0116230169561649
 40
0.0116230169561649
 10
-1.999295499749853
 20
24.03354692432414
 30
0.0
 10
-1.999295499750036
 20
24.03354692431677
 30
0.0
 10
-1.999295947093532
 20
24.03352894117711
 30
0.0
 10
-1.999304557967547
 20
24.03318120920229
 30
0.0
 10
-1.999347677322032
 20
24.03145433548854
 30
0.0
 10
-1.99941422806624
 20
24.02852502901428
 30
0.0
  0
SPLINE
  5
97B5
330
97AD
100
AcDbEntity
  8
0
100
AcDbSpline
210
0.0
220
0.0
230
1.0
 70
     8
 71
     3
 72
    28
 73
    24
 74
     0
 42
0.000000001
 43
0.0000000001
 40
0.0
 40
0.0
 40
0.0
 40
0.0
 40
0.0650016965098178
 40
0.0650016965098178
 40
0.1023228294631289
 40
0.1023228294631289
 40
0.1414747326751055
 40
0.1414747326751055
 40
0.1748987385502804
 40
0.1748987385502804
 40
0.2169239991012184
 40
0.2169239991012184
 40
0.2285779847274169
 40
0.2285779847274169
 40
0.2316609564798699
 40
0.2316609564798699
 40
0.2332824405403504
 40
0.2332824405403504
 40
0.2349101251840798
 40
0.2349101251840798
 40
0.2381878335706932
 40
0.2381878335706932
 40
0.2398272656850216
 40
0.2398272656850216
 40
0.2398272656850216
 40
0.2398272656850216
 10
-0.9420912520932869
 20
25.73259712965068
 30
0.0
 10
-1.093841721501348
 20
25.6792492677821
 30
0.0
 10
-1.24235389871308
 20
25.60988799343406
 30
0.0
 10
-1.466451770998954
 20
25.44171617371998
 30
0.0
 10
-1.547407943193846
 20
25.36594146110962
 30
0.0
 10
-1.695446554656457
 20
25.18241413825468
 30
0.0
 10
-1.763061289547348
 20
25.07040741116221
 30
0.0
 10
-1.860492149633508
 20
24.85077461308988
 30
0.0
 10
-1.895809632777285
 20
24.74321521028056
 30
0.0
 10
-1.955911122107879
 20
24.4995690255186
 30
0.0
 10
-1.976606287622969
 20
24.36174326035652
 30
0.0
 10
-1.991714435017905
 20
24.18425647525155
 30
0.0
 10
-1.994304853257668
 20
24.14540325141705
 30
0.0
 10
-1.996731630421617
 20
24.097011299218
 30
0.0
 10
-1.997194385968645
 20
24.0868758546836
 30
0.0
 10
-1.99780980144857
 20
24.07209790473255
 30
0.0
 10
-1.998006434209546
 20
24.06710670101362
 30
0.0
 10
-1.998355889827063
 20
24.05779769261186
 30
0.0
 10
-1.998509836622272
 20
24.05345153494146
 30
0.0
 10
-1.99890208646914
 20
24.04191342959774
 30
0.0
 10
-1.999078183317471
 20
24.03610937894737
 30
0.0
 10
-1.999308026766932
 20
24.02813339135644
 30
0.0
 10
-1.999381849971087
 20
24.02547250047867
 30
0.0
 10
-1.999452958575209
 20
24.02280293713635
 30
0.0
  0
LINE
  5
97B6
330
97AD
100
AcDbEntity
  8
0
100
AcDbLine
 10
-2.000000000000005
 20
-2.0
 30
0.0
 11
-86.0
 21
-2.0
 31
0.0
  0
LINE
  5
97B7
330
97AD
100
AcDbEntity
  8
0
100
AcDbLine
 10
-2.00000000000001
 20
2.000000000000003
 30
0.0
 11
-2.00000000000001
 21
24.0
 31
0.0
  0
LINE
  5
97B8
330
97AD
100
AcDbEntity
  8
0
100
AcDbLine
 10
-2.00000000000001
 20
2.000000000000004
 30
0.0
 11
-2.000000000000004
 21
-1.999999999999999
 31
0.0
  0
LINE
  5
97B9
330
97AD
100
AcDbEntity
  8
0
100
AcDbLine
 10
-86.0
 20
-2.000000000000007
 30
0.0
 11
-86.0
 21
2.0
 31
0.0
  0
LINE
  5
97BA
330
97AD
100
AcDbEntity
  8
0
100
AcDbLine
 10
0.0
 20
56.99999999999997
 30
0.0
 11
0.0
 21
26.56249999999996
 31
0.0
  0
LINE
  5
97BB
330
97AD
100
AcDbEntity
  8
0
100
AcDbLine
 10
-1.999999999999997
 20
56.99999999999997
 30
0.0
 11
0.0
 21
56.99999999999997
 31
0.0
  0
LINE
  5
97BC
330
97AD
100
AcDbEntity
  8
0
100
AcDbLine
 10
-2.000000000000008
 20
26.56249999999996
 30
0.0
 11
-1.999999999999997
 21
56.99999999999997
 31
0.0
  0
LINE
  5
97BD
330
97AD
100
AcDbEntity
  8
0
100
AcDbLine
 10
0.0
 20
56.99999999999997
 30
0.0
 11
0.0
 21
154.0
 31
0.0
  0
CIRCLE
  5
97BE
330
97AD
100
AcDbEntity
  8
0
100
AcDbCircle
 10
-38.50000000000001
 20
139.0
 30
0.0
 40
2.5
  0
LINE
  5
97BF
330
97AD
100
AcDbEntity
  8
0
100
AcDbLine
 10
-46.00000000000001
 20
56.99999999999997
 30
0.0
 11
-86.00000000000001
 21
24.0
 31
0.0
  0
LINE
  5
97C0
330
97AD
100
AcDbEntity
  8
0
100
AcDbLine
 10
-46.0
 20
154.0
 30
0.0
 11
-46.00000000000001
 21
56.99999999999997
 31
0.0
  0
LINE
  5
97C1
330
97AD
100
AcDbEntity
  8
0
100
AcDbLine
 10
-86.00000000000001
 20
24.0
 30
0.0
 11
-86.0
 21
2.000000000000001
 31
0.0
  0
LINE
  5
97C2
330
97AD
100
AcDbEntity
  8
0
100
AcDbLine
 10
-4.000000000000003
 20
154.0
 30
0.0
 11
-46.0
 21
154.0
 31
0.0
  0
LINE
  5
97C3
330
97AD
100
AcDbEntity
  8
0
100
AcDbLine
 10
-2.000000000000006
 20
154.0
 30
0.0
 11
-4.000000000000003
 21
154.0
 31
0.0
  0
LINE
  5
97C4
330
97AD
100
AcDbEntity
  8
0
100
AcDbLine
 10
0.0
 20
154.0
 30
0.0
 11
-2.00000000000001
 21
154.0
 31
0.0
  0
LINE
  5
97C5
330
97AD
100
AcDbEntity
  8
0
100
AcDbLine
 10
-1.999999999999997
 20
56.99999999999997
 30
0.0
 11
-2.00000000000001
 21
154.0
 31
0.0
  0
CIRCLE
  5
97C6
330
97AD
100
AcDbEntity
  8
0
100
AcDbCircle
 10
-38.50000000000001
 20
38.99999999999998
 30
0.0
 40
2.5
  0
CIRCLE
  5
97C7
330
97AD
100
AcDbEntity
  8
0
100
AcDbCircle
 10
-38.50000000000001
 20
58.99999999999998
 30
0.0
 40
2.5
  0
CIRCLE
  5
97C8
330
97AD
100
AcDbEntity
  8
0
100
AcDbCircle
 10
-38.50000000000001
 20
78.99999999999998
 30
0.0
 40
2.5
  0
CIRCLE
  5
97C9
330
97AD
100
AcDbEntity
  8
0
100
AcDbCircle
 10
-38.50000000000001
 20
98.99999999999998
 30
0.0
 40
2.5
  0
CIRCLE
  5
97CA
330
97AD
100
AcDbEntity
  8
0
100
AcDbCircle
 10
-38.50000000000001
 20
119.0
 30
0.0
 40
2.5
  0
ENDBLK
  5
97AF
330
97AD
100
AcDbEntity
  8
0
100
AcDbBlockEnd
  0
BLOCK
  5
97CC
330
97CB
100
AcDbEntity
  8
0
100
AcDbBlockBegin
  2
SAE380_72_2-Top
 70
     0
 10
0.0
 20
0.0
 30
0.0
  3
SAE380_72_2-Top
  1

  0
LINE
  5
97CE
330
97CB
100
AcDbEntity
  8
0
100
AcDbLine
 10
36.00000000000001
 20
-2.000000000000007
 30
0.0
 11
36.00000000000001
 21
-2.06900476616177
 31
0.0
  0
SPLINE
  5
97CF
330
97CB
100
AcDbEntity
  8
0
100
AcDbSpline
210
0.0
220
0.0
230
1.0
 70
     8
 71
     3
 72
    11
 73
     7
 74
     0
 42
0.000000001
 43
0.0000000001
 40
-1.0
 40
-1.0
 40
-1.0
 40
-1.0
 40
-0.7994286890738648
 40
-0.7994286890738648
 40
-0.7994286890738648
 40
-0.653357377722068
 40
-0.653357377722068
 40
-0.653357377722068
 40
-0.653357377722068
 10
36.00000000000003
 20
-2.000000000000003
 30
0.0
 10
35.99999961270325
 20
-1.999093543231204
 30
0.0
 10
36.12633150600539
 20
-1.919863896634923
 30
0.0
 10
36.33607694563364
 20
-1.790687786204275
 30
0.0
 10
36.4888295565384
 20
-1.696611899883333
 30
0.0
 10
36.68837056420406
 20
-1.577391377851993
 30
0.0
 10
36.91982716790667
 20
-1.445337717162835
 30
0.0
  0
SPLINE
  5
97D0
330
97CB
100
AcDbEntity
  8
0
100
AcDbSpline
210
0.0
220
0.0
230
1.0
 70
     8
 71
     3
 72
    24
 73
    20
 74
     0
 42
0.000000001
 43
0.0000000001
 40
0.0
 40
0.0
 40
0.0
 40
0.0
 40
0.0070452398506545
 40
0.0070452398506545
 40
0.0166405949117789
 40
0.0166405949117789
 40
0.0367140942289007
 40
0.0367140942289007
 40
0.0488284899378899
 40
0.0488284899378899
 40
0.0619943402179719
 40
0.0619943402179719
 40
0.0706188779631621
 40
0.0706188779631621
 40
0.0776906910859198
 40
0.0776906910859198
 40
0.0832065316544968
 40
0.0832065316544968
 40
0.0851314111839375
 40
0.0851314111839375
 40
0.0851314111839375
 40
0.0851314111839375
 10
40.56202985673
 20
-2.000020061973697
 30
0.0
 10
40.54510572274106
 20
-2.000020928437364
 30
0.0
 10
40.52555210341629
 20
-2.000028134291606
 30
0.0
 10
40.47775545402057
 20
-2.00006113207082
 30
0.0
 10
40.44841962908811
 20
-2.000093689688025
 30
0.0
 10
40.35657224072966
 20
-2.000268440249688
 30
0.0
 10
40.29198494498311
 20
-2.000513808506868
 30
0.0
 10
40.196334228403
 20
-2.000879055386691
 30
0.0
 10
40.16273081704373
 20
-2.000996414973291
 30
0.0
 10
40.09182112296932
 20
-2.001409895073694
 30
0.0
 10
40.05225815311736
 20
-2.001735751882037
 30
0.0
 10
39.98348581635438
 20
-2.002882807510714
 30
0.0
 10
39.95529088110291
 20
-2.003502366168558
 30
0.0
 10
39.90345404907086
 20
-2.005128901296193
 30
0.0
 10
39.87967447348554
 20
-2.006056558894785
 30
0.0
 10
39.83787606746816
 20
-2.008135314675778
 30
0.0
 10
39.81951337889929
 20
-2.009206873102023
 30
0.0
 10
39.79591310627652
 20
-2.010819410468716
 30
0.0
 10
39.78986947328566
 20
-2.011255025617347
 30
0.0
 10
39.78400446672249
 20
-2.011698438790838
 30
0.0
  0
SPLINE
  5
97D1
330
97CB
100
AcDbEntity
  8
0
100
AcDbSpline
210
0.0
220
0.0
230
1.0
 70
     8
 71
     3
 72
    20
 73
    16
 74
     0
 42
0.000000001
 43
0.0000000001
 40
0.0641171495507916
 40
0.0641171495507916
 40
0.0641171495507916
 40
0.0641171495507916
 40
0.066336444826821
 40
0.066336444826821
 40
0.0719857389273782
 40
0.0719857389273782
 40
0.0726844053473582
 40
0.0726844053473582
 40
0.0728641130154327
 40
0.0728641130154327
 40
0.0730236562605608
 40
0.0730236562605608
 40
0.0731531586976412
 40
0.0731531586976412
 40
0.0733711842853068
 40
0.0733711842853068
 40
0.0733711842853068
 40
0.0733711842853068
 10
38.00192057166905
 20
-3.912392841647092
 30
0.0
 10
38.00176077704918
 20
-3.917494965459
 30
0.0
 10
38.00160445704198
 20
-3.922755389015957
 30
0.0
 10
38.00107504746115
 20
-3.941895775550538
 30
0.0
 10
38.0007381194615
 20
-3.956122484051923
 30
0.0
 10
38.00038592535649
 20
-3.975346307812712
 30
0.0
 10
38.00034639417365
 20
-3.977574436954424
 30
0.0
 10
38.00029679478758
 20
-3.980480544013784
 30
0.0
 10
38.0002866002768
 20
-3.981083732148283
 30
0.0
 10
38.00026771328306
 20
-3.982212398104884
 30
0.0
 10
38.00025889572316
 20
-3.982744127142971
 30
0.0
 10
38.00024367972973
 20
-3.983669488786902
 30
0.0
 10
38.00023707487369
 20
-3.984074113719353
 30
0.0
 10
38.00022051873368
 20
-3.98509467784533
 30
0.0
 10
38.00021119879156
 20
-3.98567624052533
 30
0.0
 10
38.00020329588541
 20
-3.986173058186756
 30
0.0
  0
SPLINE
  5
97D2
330
97CB
100
AcDbEntity
  8
0
100
AcDbSpline
210
0.0
220
0.0
230
1.0
 70
     8
 71
     3
 72
    14
 73
    10
 74
     0
 42
0.000000001
 43
0.0000000001
 40
0.1124644007742671
 40
0.1124644007742671
 40
0.1124644007742671
 40
0.1124644007742671
 40
0.1134189509696285
 40
0.1134189509696285
 40
0.1156439800573592
 40
0.1156439800573592
 40
0.1181756628958135
 40
0.1181756628958135
 40
0.120371037916931
 40
0.120371037916931
 40
0.120371037916931
 40
0.120371037916931
 10
38.00046661805506
 20
-3.966371371318368
 30
0.0
 10
38.00046661803968
 20
-3.966371372268991
 30
0.0
 10
38.0004628933705
 20
-3.966600491084053
 30
0.0
 10
38.00043931865283
 20
-3.96808736028782
 30
0.0
 10
38.00040385121609
 20
-3.970355094333624
 30
0.0
 10
38.0003132071735
 20
-3.976828361186328
 30
0.0
 10
38.00025632968356
 20
-3.981261247030847
 30
0.0
 10
38.00015736463473
 20
-3.990426609737729
 30
0.0
 10
38.0001137239192
 20
-3.995074694428547
 30
0.0
 10
38.00007561070258
 20
-4.000000545744574
 30
0.0
  0
SPLINE
  5
97D3
330
97CB
100
AcDbEntity
  8
0
100
AcDbSpline
210
0.0
220
0.0
230
1.0
 70
     8
 71
     3
 72
    36
 73
    32
 74
     0
 42
0.000000001
 43
0.0000000001
 40
0.0060573706101608
 40
0.0060573706101608
 40
0.0060573706101608
 40
0.0060573706101608
 40
0.0062396586592626
 40
0.0062396586592626
 40
0.0085854924233013
 40
0.0085854924233013
 40
0.0092115009122547
 40
0.0092115009122547
 40
0.0098395500817582
 40
0.0098395500817582
 40
0.0111071414711349
 40
0.0111071414711349
 40
0.0161326462266027
 40
0.0161326462266027
 40
0.0230241121893762
 40
0.0230241121893762
 40
0.0436994100795606
 40
0.0436994100795606
 40
0.1057223293886245
 40
0.1057223293886245
 40
0.1638974484125462
 40
0.1638974484125462
 40
0.1928509851652766
 40
0.1928509851652766
 40
0.2075025854267389
 40
0.2075025854267389
 40
0.2152389627490065
 40
0.2152389627490065
 40
0.219413834843262
 40
0.219413834843262
 40
0.2237806002703929
 40
0.2237806002703929
 40
0.2237806002703929
 40
0.2237806002703929
 10
35.99996686903187
 20
-3.998253347926232
 30
0.0
 10
35.99996617740149
 20
-3.998213466601292
 30
0.0
 10
35.99996545951704
 20
-3.998172072155955
 30
0.0
 10
35.99995509299394
 20
-3.997574325907478
 30
0.0
 10
35.99994443491303
 20
-3.996962291029734
 30
0.0
 10
35.99989591702649
 20
-3.994156814545952
 30
0.0
 10
35.99988322333234
 20
-3.993422311639655
 30
0.0
 10
35.99985080757358
 20
-3.991542619322169
 30
0.0
 10
35.99983076101603
 20
-3.990378503293308
 30
0.0
 10
35.99976098690575
 20
-3.986314165654141
 30
0.0
 10
35.99970188278014
 20
-3.982854399032016
 30
0.0
 10
35.9994024812497
 20
-3.965183226729541
 30
0.0
 10
35.99914316114368
 20
-3.949428266823801
 30
0.0
 10
35.99856512325137
 20
-3.913030903986081
 30
0.0
 10
35.99824495715477
 20
-3.891873072751149
 30
0.0
 10
35.99703167402753
 20
-3.807354917968923
 30
0.0
 10
35.99627363740553
 20
-3.744128190330207
 30
0.0
 10
35.99386222276674
 20
-3.493665372824801
 30
0.0
 10
35.99340170516767
 20
-3.309131083613476
 30
0.0
 10
35.99381558060413
 20
-2.940240674588409
 30
0.0
 10
35.99468491620407
 20
-2.756039558438985
 30
0.0
 10
35.99654559728241
 20
-2.4852476918896
 30
0.0
 10
35.99721056513693
 20
-2.397091047874411
 30
0.0
 10
35.99846350912854
 20
-2.26407864907851
 30
0.0
 10
35.99895215981546
 20
-2.218568114990582
 30
0.0
 10
35.99940823363694
 20
-2.154905753012918
 30
0.0
 10
35.99950857292148
 20
-2.134022715992041
 30
0.0
 10
35.99957827623252
 20
-2.106007584388854
 30
0.0
 10
35.99958818820256
 20
-2.09687897078336
 30
0.0
 10
35.99959044553219
 20
-2.080664325913032
 30
0.0
 10
35.99958166099983
 20
-2.073542875722364
 30
0.0
 10
35.99957228829787
 20
-2.06900476616177
 30
0.0
  0
SPLINE
  5
97D4
330
97CB
100
AcDbEntity
  8
0
100
AcDbSpline
210
0.0
220
0.0
230
1.0
 70
     8
 71
     3
 72
    12
 73
     8
 74
     0
 42
0.000000001
 43
0.0000000001
 40
0.0
 40
0.0
 40
0.0
 40
0.0
 40
0.0073680638606832
 40
0.0073680638606832
 40
0.0094714794544228
 40
0.0094714794544228
 40
0.0106892344300214
 40
0.0106892344300214
 40
0.0106892344300214
 40
0.0106892344300214
 10
35.99996053853823
 20
-3.999985503002886
 30
0.0
 10
36.00000120689112
 20
-3.988738678365079
 30
0.0
 10
36.00005705426691
 20
-3.976817397484314
 30
0.0
 10
36.00011475911472
 20
-3.966829073051742
 30
0.0
 10
36.00012596496201
 20
-3.96500442991186
 30
0.0
 10
36.00013624741442
 20
-3.963340749432316
 30
0.0
 10
36.00013843227581
 20
-3.962989239758655
 30
0.0
 10
36.00013843227576
 20
-3.962989239766229
 30
0.0
  0
LINE
  5
97D5
330
97CB
100
AcDbEntity
  8
0
100
AcDbLine
 10
-36.00000000000001
 20
-2.000000000000007
 30
0.0
 11
-36.00000000000001
 21
-2.06900476616203
 31
0.0
  0
SPLINE
  5
97D6
330
97CB
100
AcDbEntity
  8
0
100
AcDbSpline
210
0.0
220
0.0
230
1.0
 70
     8
 71
     3
 72
    11
 73
     7
 74
     0
 42
0.000000001
 43
0.0000000001
 40
-1.0
 40
-1.0
 40
-1.0
 40
-1.0
 40
-0.7994286890738648
 40
-0.7994286890738648
 40
-0.7994286890738648
 40
-0.653357377722068
 40
-0.653357377722068
 40
-0.653357377722068
 40
-0.653357377722068
 10
-36.00000000000003
 20
-2.000000000000003
 30
0.0
 10
-35.99999961270325
 20
-1.999093543231204
 30
0.0
 10
-36.12633150600539
 20
-1.919863896634923
 30
0.0
 10
-36.33607694563364
 20
-1.790687786204275
 30
0.0
 10
-36.4888295565384
 20
-1.696611899883333
 30
0.0
 10
-36.68837056420406
 20
-1.577391377851993
 30
0.0
 10
-36.91982716790667
 20
-1.445337717162835
 30
0.0
  0
SPLINE
  5
97D7
330
97CB
100
AcDbEntity
  8
0
100
AcDbSpline
210
0.0
220
0.0
230
1.0
 70
     8
 71
     3
 72
    36
 73
    32
 74
     0
 42
0.000000001
 43
0.0000000001
 40
0.0
 40
0.0
 40
0.0
 40
0.0
 40
0.0038040597972265
 40
0.0038040597972265
 40
0.0084789254120298
 40
0.0084789254120298
 40
0.0158054478100128
 40
0.0158054478100128
 40
0.0260000339413447
 40
0.0260000339413447
 40
0.0495206342833467
 40
0.0495206342833467
 40
0.1201103938952534
 40
0.1201103938952534
 40
0.1694133166020571
 40
0.1694133166020571
 40
0.1942220632777285
 40
0.1942220632777285
 40
0.2064767421816913
 40
0.2064767421816913
 40
0.2126069903417617
 40
0.2126069903417617
 40
0.2135995884949789
 40
0.2135995884949789
 40
0.214411619595732
 40
0.214411619595732
 40
0.2153140026631399
 40
0.2153140026631399
 40
0.2164060137318313
 40
0.2164060137318313
 40
0.2177036796899724
 40
0.2177036796899724
 40
0.2177036796899724
 40
0.2177036796899724
 10
-35.99957228829788
 20
-2.06900476616203
 30
0.0
 10
-35.99958045322437
 20
-2.072958090521554
 30
0.0
 10
-35.99958825487938
 20
-2.07888109280225
 30
0.0
 10
-35.99959053786116
 20
-2.09428544510368
 30
0.0
 10
-35.99958182785673
 20
-2.10440291175054
 30
0.0
 10
-35.9995128732442
 20
-2.13256280960066
 30
0.0
 10
-35.99942216624742
 20
-2.152170789554879
 30
0.0
 10
-35.99908018252472
 20
-2.201629641753858
 30
0.0
 10
-35.99878019266075
 20
-2.232656804412557
 30
0.0
 10
-35.99777927585328
 20
-2.335149022381489
 30
0.0
 10
-35.9971632483251
 20
-2.406783033336854
 30
0.0
 10
-35.99498744723266
 20
-2.695965691754673
 30
0.0
 10
-35.99378539087928
 20
-2.921302521522343
 30
0.0
 10
-35.99346454344019
 20
-3.288674144937775
 30
0.0
 10
-35.99377304809061
 20
-3.436285037138974
 30
0.0
 10
-35.99539840854234
 20
-3.659531188048357
 30
0.0
 10
-35.99614620639083
 20
-3.734714264384729
 30
0.0
 10
-35.99760569272324
 20
-3.848122419005194
 30
0.0
 10
-35.99814328057743
 20
-3.885773929711243
 30
0.0
 10
-35.99902223829006
 20
-3.942030477201337
 30
0.0
 10
-35.99933800762265
 20
-3.961362968037827
 30
0.0
 10
-35.99967856074934
 20
-3.98148000583126
 30
0.0
 10
-35.999725067916
 20
-3.984210244745382
 30
0.0
 10
-35.99979991770999
 20
-3.988584337718669
 30
0.0
 10
-35.99983001208097
 20
-3.9903349620214
 30
0.0
 10
-35.99987944345345
 20
-3.993204266664853
 30
0.0
 10
-35.99989784913183
 20
-3.994268762333146
 30
0.0
 10
-35.99992781112179
 20
-3.996000648856612
 30
0.0
 10
-35.99993798693721
 20
-3.99658762129427
 30
0.0
 10
-35.99995539002256
 20
-3.997591537967268
 30
0.0
 10
-35.99996192061497
 20
-3.997968115493174
 30
0.0
 10
-35.99996686875578
 20
-3.998253422654953
 30
0.0
  0
SPLINE
  5
97D8
330
97CB
100
AcDbEntity
  8
0
100
AcDbSpline
210
0.0
220
0.0
230
1.0
 70
     8
 71
     3
 72
    14
 73
    10
 74
     0
 42
0.000000001
 43
0.0000000001
 40
0.0077867807811632
 40
0.0077867807811632
 40
0.0077867807811632
 40
0.0077867807811632
 40
0.0083979033092925
 40
0.0083979033092925
 40
0.0105249654814099
 40
0.0105249654814099
 40
0.0138644923181042
 40
0.0138644923181042
 40
0.0184801346800563
 40
0.0184801346800563
 40
0.0184801346800563
 40
0.0184801346800563
 10
-36.00013843227574
 20
-3.96298923977007
 30
0.0
 10
-36.00013843227571
 20
-3.962989239775311
 30
0.0
 10
-36.00013788506621
 20
-3.963077842498094
 30
0.0
 10
-36.00013331027572
 20
-3.963815700308142
 30
0.0
 10
-36.00012394049666
 20
-3.965314845110672
 30
0.0
 10
-36.00009364632231
 20
-3.97042476735885
 30
0.0
 10
-36.00006960355326
 20
-3.974738183190354
 30
0.0
 10
-36.00001543374153
 20
-3.985811780791647
 30
0.0
 10
-35.99998601477945
 20
-3.99294005372054
 30
0.0
 10
-35.99996053853821
 20
-3.999985503002887
 30
0.0
  0
SPLINE
  5
97D9
330
97CB
100
AcDbEntity
  8
0
100
AcDbSpline
210
0.0
220
0.0
230
1.0
 70
     8
 71
     3
 72
    14
 73
    10
 74
     0
 42
0.000000001
 43
0.0000000001
 40
0.0
 40
0.0
 40
0.0
 40
0.0
 40
0.0032434846789278
 40
0.0032434846789278
 40
0.0060138646295764
 40
0.0060138646295764
 40
0.0075916569290115
 40
0.0075916569290115
 40
0.0079057527291752
 40
0.0079057527291752
 40
0.0079057527291752
 40
0.0079057527291752
 10
-38.00007561070258
 20
-4.000000545744573
 30
0.0
 10
-38.00013191982198
 20
-3.992723008594436
 30
0.0
 10
-38.00020122245551
 20
-3.986003497154118
 30
0.0
 10
-38.00032918575832
 20
-3.975520321330972
 30
0.0
 10
-38.00038843661513
 20
-3.971430114534415
 30
0.0
 10
-38.00044735462911
 20
-3.967564487781563
 30
0.0
 10
-38.00046151096492
 20
-3.966688239409536
 30
0.0
 10
-38.00046622403441
 20
-3.966395704622291
 30
0.0
 10
-38.00046661805478
 20
-3.966371371335073
 30
0.0
 10
-38.00046661805499
 20
-3.966371371321917
 30
0.0
  0
SPLINE
  5
97DA
330
97CB
100
AcDbEntity
  8
0
100
AcDbSpline
210
0.0
220
0.0
230
1.0
 70
     8
 71
     3
 72
    24
 73
    20
 74
     0
 42
0.000000001
 43
0.0000000001
 40
0.0470124644182711
 40
0.0470124644182711
 40
0.0470124644182711
 40
0.0470124644182711
 40
0.0470594862286087
 40
0.0470594862286087
 40
0.047222267083367
 40
0.047222267083367
 40
0.0473852755894365
 40
0.0473852755894365
 40
0.0477156443693366
 40
0.0477156443693366
 40
0.0480404846317047
 40
0.0480404846317047
 40
0.0485975736598507
 40
0.0485975736598507
 40
0.0497869624268939
 40
0.0497869624268939
 40
0.052845461963622
 40
0.052845461963622
 40
0.0562813693047971
 40
0.0562813693047971
 40
0.0562813693047971
 40
0.0562813693047971
 10
-38.00020328819483
 20
-3.98617350435406
 30
0.0
 10
-38.00020498471795
 20
-3.986066852112796
 30
0.0
 10
-38.00020673790065
 20
-3.985956866507867
 30
0.0
 10
-38.00021482566741
 20
-3.985450355301747
 30
0.0
 10
-38.00022190424474
 20
-3.985009745176272
 30
0.0
 10
-38.00023728141065
 20
-3.984060982577609
 30
0.0
 10
-38.00024569671172
 20
-3.983545742125595
 30
0.0
 10
-38.00027200251257
 20
-3.981950180851343
 30
0.0
 10
-38.00029116770424
 20
-3.980808390414973
 30
0.0
 10
-38.00032816847601
 20
-3.9786444399062
 30
0.0
 10
-38.00034655085988
 20
-3.977588311828463
 30
0.0
 10
-38.00039589246392
 20
-3.974799056241783
 30
0.0
 10
-38.00042683733769
 20
-3.973098995970687
 30
0.0
 10
-38.00052365233618
 20
-3.967911219122821
 30
0.0
 10
-38.00058996950884
 20
-3.964546877803425
 30
0.0
 10
-38.000832065473
 20
-3.952823329172642
 30
0.0
 10
-38.00101736820282
 20
-3.944864404500025
 30
0.0
 10
-38.00143573434635
 20
-3.928560256022006
 30
0.0
 10
-38.00167336136663
 20
-3.920275299959153
 30
0.0
 10
-38.00192055535675
 20
-3.912382579015245
 30
0.0
  0
SPLINE
  5
97DB
330
97CB
100
AcDbEntity
  8
0
100
AcDbSpline
210
0.0
220
0.0
230
1.0
 70
     8
 71
     3
 72
    22
 73
    18
 74
     0
 42
0.000000001
 43
0.0000000001
 40
0.0478714372300714
 40
0.0478714372300714
 40
0.0478714372300714
 40
0.0478714372300714
 40
0.0509143159385522
 40
0.0509143159385522
 40
0.0563767803347904
 40
0.0563767803347904
 40
0.0645907840684103
 40
0.0645907840684103
 40
0.0763651691678505
 40
0.0763651691678505
 40
0.0912951856812681
 40
0.0912951856812681
 40
0.1030602314508785
 40
0.1030602314508785
 40
0.1261855865750563
 40
0.1261855865750563
 40
0.1329877987030301
 40
0.1329877987030301
 40
0.1329877987030301
 40
0.1329877987030301
 10
-39.78400601956289
 20
-2.011697685530136
 30
0.0
 10
-39.79325004183558
 20
-2.010998808008407
 30
0.0
 10
-39.80294149063769
 20
-2.010321376281236
 30
0.0
 10
-39.83036210275172
 20
-2.008558782977527
 30
0.0
 10
-39.84861441002799
 20
-2.007560852147358
 30
0.0
 10
-39.89412250022296
 20
-2.005440889658115
 30
0.0
 10
-39.92171315953608
 20
-2.004484871864617
 30
0.0
 10
-39.98716908336589
 20
-2.002725717473755
 30
0.0
 10
-40.02499984804426
 20
-2.002137209316366
 30
0.0
 10
-40.10564424706458
 20
-2.001256390124856
 30
0.0
 10
-40.14602486079637
 20
-2.001083596416365
 30
0.0
 10
-40.22219734122884
 20
-2.000776233617386
 30
0.0
 10
-40.25771656951073
 20
-2.000641943273688
 30
0.0
 10
-40.36567725017838
 20
-2.000249312167827
 30
0.0
 10
-40.44121989182946
 20
-2.000084894534191
 30
0.0
 10
-40.52688936278047
 20
-2.000027671338731
 30
0.0
 10
-40.54568952596546
 20
-2.000020898548432
 30
0.0
 10
-40.56202985672998
 20
-2.000020061973697
 30
0.0
  0
LINE
  5
97DC
330
97CB
100
AcDbEntity
  8
0
100
AcDbLine
 10
-36.00000000000001
 20
-2.000000000000007
 30
0.0
 11
-34.00000000000002
 21
-2.000000000000004
 31
0.0
  0
LINE
  5
97DD
330
97CB
100
AcDbEntity
  8
0
100
AcDbLine
 10
-36.0
 20
-86.0
 30
0.0
 11
-33.99999999999999
 21
-86.0
 31
0.0
  0
LINE
  5
97DE
330
97CB
100
AcDbEntity
  8
0
100
AcDbLine
 10
34.00000000000002
 20
-2.000000000000005
 30
0.0
 11
-34.00000000000002
 21
-2.000000000000005
 31
0.0
  0
LINE
  5
97DF
330
97CB
100
AcDbEntity
  8
0
100
AcDbLine
 10
-33.99999999999999
 20
-86.0
 30
0.0
 11
33.99999999999999
 21
-86.0
 31
0.0
  0
CIRCLE
  5
97E0
330
97CB
100
AcDbEntity
  8
0
100
AcDbCircle
 10
0.0
 20
-47.99999999999998
 30
0.0
 40
2.5
  0
CIRCLE
  5
97E1
330
97CB
100
AcDbEntity
  8
0
100
AcDbCircle
 10
0.0
 20
-67.99999999999998
 30
0.0
 40
2.5
  0
LINE
  5
97E2
330
97CB
100
AcDbEntity
  8
0
100
AcDbLine
 10
36.00000000000001
 20
-2.000000000000007
 30
0.0
 11
34.00000000000002
 21
-2.000000000000004
 31
0.0
  0
LINE
  5
97E3
330
97CB
100
AcDbEntity
  8
0
100
AcDbLine
 10
40.0
 20
0.0
 30
0.0
 11
77.5
 21
0.0
 31
0.0
  0
ARC
  5
97E4
330
97CB
100
AcDbEntity
  8
0
100
AcDbCircle
 10
40.0
 20
-4.000000000000004
 30
0.0
 40
3.999999999999999
100
AcDbArc
 50
90.00000000000012
 51
180.0
  0
LINE
  5
97E5
330
97CB
100
AcDbEntity
  8
0
100
AcDbLine
 10
35.99999999999999
 20
-86.00000000000001
 30
0.0
 11
36.0
 21
-46.00000000000001
 31
0.0
  0
LINE
  5
97E6
330
97CB
100
AcDbEntity
  8
0
100
AcDbLine
 10
37.99999999999999
 20
-86.00000000000001
 30
0.0
 11
35.99999999999999
 21
-86.00000000000001
 31
0.0
  0
LINE
  5
97E7
330
97CB
100
AcDbEntity
  8
0
100
AcDbLine
 10
38.0
 20
-46.00000000000001
 30
0.0
 11
37.99999999999999
 21
-86.00000000000001
 31
0.0
  0
LINE
  5
97E8
330
97CB
100
AcDbEntity
  8
0
100
AcDbLine
 10
36.0
 20
-46.0
 30
0.0
 11
38.0
 21
-46.0
 31
0.0
  0
LINE
  5
97E9
330
97CB
100
AcDbEntity
  8
0
100
AcDbLine
 10
38.0
 20
-4.000000000000003
 30
0.0
 11
38.0
 21
-46.0
 31
0.0
  0
LINE
  5
97EA
330
97CB
100
AcDbEntity
  8
0
100
AcDbLine
 10
36.0
 20
-46.0
 30
0.0
 11
36.0
 21
-4.000000000000003
 31
0.0
  0
LINE
  5
97EB
330
97CB
100
AcDbEntity
  8
0
100
AcDbLine
 10
36.0
 20
-86.0
 30
0.0
 11
33.99999999999999
 21
-86.0
 31
0.0
  0
ARC
  5
97EC
330
97CB
100
AcDbEntity
  8
0
100
AcDbCircle
 10
40.0
 20
-4.000000000000004
 30
0.0
 40
1.999999999999997
100
AcDbArc
 50
90.00000000000012
 51
180.0
  0
LINE
  5
97ED
330
97CB
100
AcDbEntity
  8
0
100
AcDbLine
 10
77.5
 20
0.0
 30
0.0
 11
77.5
 21
-2.00000000000001
 31
0.0
  0
LINE
  5
97EE
330
97CB
100
AcDbEntity
  8
0
100
AcDbLine
 10
77.5
 20
-2.00000000000001
 30
0.0
 11
40.0
 21
-2.000000000000006
 31
0.0
  0
LINE
  5
97EF
330
97CB
100
AcDbEntity
  8
0
100
AcDbLine
 10
-77.5
 20
-2.00000000000001
 30
0.0
 11
-40.0
 21
-2.000000000000006
 31
0.0
  0
LINE
  5
97F0
330
97CB
100
AcDbEntity
  8
0
100
AcDbLine
 10
-36.0
 20
-46.0
 30
0.0
 11
-36.0
 21
-4.000000000000003
 31
0.0
  0
LINE
  5
97F1
330
97CB
100
AcDbEntity
  8
0
100
AcDbLine
 10
-38.0
 20
-4.000000000000003
 30
0.0
 11
-38.0
 21
-46.0
 31
0.0
  0
LINE
  5
97F2
330
97CB
100
AcDbEntity
  8
0
100
AcDbLine
 10
-40.0
 20
0.0
 30
0.0
 11
-77.5
 21
0.0
 31
0.0
  0
LINE
  5
97F3
330
97CB
100
AcDbEntity
  8
0
100
AcDbLine
 10
-77.5
 20
0.0
 30
0.0
 11
-77.5
 21
-2.00000000000001
 31
0.0
  0
ARC
  5
97F4
330
97CB
100
AcDbEntity
  8
0
100
AcDbCircle
 10
-40.0
 20
-4.000000000000004
 30
0.0
 40
1.999999999999997
100
AcDbArc
 50
0.0
 51
89.99999999999987
  0
ARC
  5
97F5
330
97CB
100
AcDbEntity
  8
0
100
AcDbCircle
 10
-40.0
 20
-4.000000000000004
 30
0.0
 40
3.999999999999999
100
AcDbArc
 50
0.0
 51
89.99999999999987
  0
LINE
  5
97F6
330
97CB
100
AcDbEntity
  8
0
100
AcDbLine
 10
-36.0
 20
-46.00000000000001
 30
0.0
 11
-35.99999999999999
 21
-86.00000000000001
 31
0.0
  0
LINE
  5
97F7
330
97CB
100
AcDbEntity
  8
0
100
AcDbLine
 10
-37.99999999999999
 20
-86.00000000000001
 30
0.0
 11
-38.0
 21
-46.00000000000001
 31
0.0
  0
LINE
  5
97F8
330
97CB
100
AcDbEntity
  8
0
100
AcDbLine
 10
-35.99999999999999
 20
-86.00000000000001
 30
0.0
 11
-37.99999999999999
 21
-86.00000000000001
 31
0.0
  0
LINE
  5
97F9
330
97CB
100
AcDbEntity
  8
0
100
AcDbLine
 10
-38.0
 20
-46.0
 30
0.0
 11
-36.0
 21
-46.0
 31
0.0
  0
ENDBLK
  5
97CD
330
97CB
100
AcDbEntity
  8
0
100
AcDbBlockEnd
  0
BLOCK
  5
97FB
330
97FA
100
AcDbEntity
  8
0
100
AcDbBlockBegin
  2
SAE380_72_2-Bottom
 70
     0
 10
0.0
 20
0.0
 30
0.0
  3
SAE380_72_2-Bottom
  1

  0
SPLINE
  5
97FD
330
97FA
100
AcDbEntity
  8
0
100
AcDbSpline
210
0.0
220
0.0
230
1.0
 70
     8
 71
     3
 72
    14
 73
    10
 74
     0
 42
0.000000001
 43
0.0000000001
 40
0.0
 40
0.0
 40
0.0
 40
0.0
 40
0.3435149368880196
 40
0.3435149368880196
 40
0.3435149368880196
 40
0.7569946177169982
 40
0.7569946177169982
 40
0.7569946177169982
 40
1.0
 40
1.0
 40
1.0
 40
1.0
 10
40.60606060606064
 20
2.000000000000014
 30
0.0
 10
40.28490796720142
 20
2.000036879631395
 30
0.0
 10
39.8724655581668
 20
1.996834167074891
 30
0.0
 10
39.47647444983441
 20
1.998676128322016
 30
0.0
 10
38.99983061429209
 20
2.000893247482716
 30
0.0
 10
38.53729794757881
 20
2.001072402909309
 30
0.0
 10
38.26242807108846
 20
2.001124325805027
 30
0.0
 10
38.10088480182622
 20
2.001154841314515
 30
0.0
 10
37.99999576705054
 20
2.000250547667954
 30
0.0
 10
37.99999999948833
 20
1.999999999992532
 30
0.0
  0
LINE
  5
97FE
330
97FA
100
AcDbEntity
  8
0
100
AcDbLine
 10
40.00221806413543
 20
2.000000000000008
 30
0.0
 11
40.00619229311545
 21
2.000000000000008
 31
0.0
  0
LINE
  5
97FF
330
97FA
100
AcDbEntity
  8
0
100
AcDbLine
 10
40.5620298567299
 20
2.000000000000008
 30
0.0
 11
40.60606060606066
 21
2.000000000000008
 31
0.0
  0
ARC
  5
9800
330
97FA
100
AcDbEntity
  8
0
100
AcDbCircle
 10
40.0
 20
4.000000000000004
 30
0.0
 40
1.999999999999992
100
AcDbArc
 50
182.3975805251243
 51
263.7599709147373
  0
ARC
  5
9801
330
97FA
100
AcDbEntity
  8
0
100
AcDbCircle
 10
40.0
 20
4.000000000000004
 30
0.0
 40
3.999999999999994
100
AcDbArc
 50
219.6927749101254
 51
270.0
  0
LINE
  5
9802
330
97FA
100
AcDbEntity
  8
0
100
AcDbLine
 10
40.60606060606066
 20
0.0
 30
0.0
 11
40.0
 21
0.0
 31
0.0
  0
SPLINE
  5
9803
330
97FA
100
AcDbEntity
  8
0
100
AcDbSpline
210
0.0
220
0.0
230
1.0
 70
     8
 71
     3
 72
    17
 73
    13
 74
     0
 42
0.000000001
 43
0.0000000001
 40
-1.0
 40
-1.0
 40
-1.0
 40
-1.0
 40
-0.7994286890738648
 40
-0.7994286890738648
 40
-0.7994286890738648
 40
-0.3760960080993577
 40
-0.3760960080993577
 40
-0.3760960080993577
 40
-0.0765284972681958
 40
-0.0765284972681958
 40
-0.0765284972681958
 40
0.0
 40
0.0
 40
0.0
 40
0.0
 10
36.00000000000003
 20
2.000000000000003
 30
0.0
 10
35.99999961270325
 20
1.999093543231204
 30
0.0
 10
36.12633150600539
 20
1.919863896634923
 30
0.0
 10
36.33607694563364
 20
1.790687786204275
 30
0.0
 10
36.77877285697812
 20
1.518044261594696
 30
0.0
 10
37.6144500834449
 20
1.034207947878892
 30
0.0
 10
38.48107962101867
 20
0.638861406439279
 30
0.0
 10
39.09434210948544
 20
0.3590980320120023
 30
0.0
 10
39.71765761685154
 20
0.1217220476580958
 30
0.0
 10
40.23393420693763
 20
0.0342615816148956
 30
0.0
 10
40.36582391521879
 20
0.0119186445651081
 30
0.0
 10
40.48832026105031
 20
0.0000045452574072
 30
0.0
 10
40.60606060611086
 20
0.000000000115211
 30
0.0
  0
LINE
  5
9804
330
97FA
100
AcDbEntity
  8
0
100
AcDbLine
 10
40.60606060606068
 20
2.000000000000008
 30
0.0
 11
40.60606060606068
 21
0.0
 31
0.0
  0
SPLINE
  5
9805
330
97FA
100
AcDbEntity
  8
0
100
AcDbSpline
210
0.0
220
0.0
230
1.0
 70
     8
 71
     3
 72
    30
 73
    26
 74
     0
 42
0.000000001
 43
0.0000000001
 40
0.0364728668709559
 40
0.0364728668709559
 40
0.0364728668709559
 40
0.0364728668709559
 40
0.03837981599127
 40
0.03837981599127
 40
0.0414118567231607
 40
0.0414118567231607
 40
0.0445182445885857
 40
0.0445182445885857
 40
0.0472747035535701
 40
0.0472747035535701
 40
0.0509143159386188
 40
0.0509143159386188
 40
0.0563767803348762
 40
0.0563767803348762
 40
0.0645907840685485
 40
0.0645907840685485
 40
0.0763651691680344
 40
0.0763651691680344
 40
0.0912951856814777
 40
0.0912951856814777
 40
0.1030602314259723
 40
0.1030602314259723
 40
0.1261855865355673
 40
0.1261855865355673
 40
0.1329877987032915
 40
0.1329877987032915
 40
0.1329877987032915
 40
0.1329877987032915
 10
39.72383606963568
 20
2.017146192077129
 30
0.0
 10
39.72383606958437
 20
2.017146192082874
 30
0.0
 10
39.72450836879646
 20
2.017070754855381
 30
0.0
 10
39.72768868690044
 20
2.016725559061159
 30
0.0
 10
39.73087807077316
 20
2.016383757551321
 30
0.0
 10
39.74081665144499
 20
2.015388200703301
 30
0.0
 10
39.74771468900332
 20
2.01472551104403
 30
0.0
 10
39.76255940653518
 20
2.01340809245909
 30
0.0
 10
39.77042163544319
 20
2.012749694931712
 30
0.0
 10
39.78945151448225
 20
2.011267017840066
 30
0.0
 10
39.80101766434714
 20
2.010445039579599
 30
0.0
 10
39.83036210275244
 20
2.008558782977484
 30
0.0
 10
39.84861441002878
 20
2.007560852147315
 30
0.0
 10
39.894122500224
 20
2.005440889658072
 30
0.0
 10
39.9217131595373
 20
2.004484871864577
 30
0.0
 10
39.98716908336739
 20
2.002725717473724
 30
0.0
 10
40.02499984804586
 20
2.002137209316342
 30
0.0
 10
40.10564424706624
 20
2.001256390124845
 30
0.0
 10
40.14602486079803
 20
2.001083596416357
 30
0.0
 10
40.22219734115899
 20
2.000776233617668
 30
0.0
 10
40.25771656936003
 20
2.000641943274292
 30
0.0
 10
40.36567724989442
 20
2.000249312168752
 30
0.0
 10
40.44121989149068
 20
2.000084894534658
 30
0.0
 10
40.52688936256206
 20
2.000027671338806
 30
0.0
 10
40.5456895258699
 20
2.000020898548436
 30
0.0
 10
40.5620298567299
 20
2.000020061973696
 30
0.0
  0
SPLINE
  5
9806
330
97FA
100
AcDbEntity
  8
0
100
AcDbSpline
210
0.0
220
0.0
230
1.0
 70
     8
 71
     3
 72
     8
 73
     4
 74
     0
 42
0.000000001
 43
0.0000000001
 40
0.0
 40
0.0
 40
0.0
 40
0.0
 40
0.0235669325449183
 40
0.0235669325449183
 40
0.0235669325449183
 40
0.0235669325449183
 10
38.00000372205763
 20
4.000000039235206
 30
0.0
 10
38.00001364793354
 20
3.999056575905508
 30
0.0
 10
38.00003040545457
 20
3.997773609732948
 30
0.0
 10
38.00003065478384
 20
3.997755179536458
 30
0.0
  0
SPLINE
  5
9807
330
97FA
100
AcDbEntity
  8
0
100
AcDbSpline
210
0.0
220
0.0
230
1.0
 70
     8
 71
     3
 72
     8
 73
     4
 74
     0
 42
0.000000001
 43
0.0000000001
 40
0.0
 40
0.0
 40
0.0
 40
0.0
 40
0.0021922128841543
 40
0.0021922128841543
 40
0.0021922128841543
 40
0.0021922128841543
 10
38.00007561070259
 20
4.000000545744574
 30
0.0
 10
38.00011366902234
 20
3.995081789442327
 30
0.0
 10
38.00015752102221
 20
3.990423534083376
 30
0.0
 10
38.00020349201514
 20
3.98616573011786
 30
0.0
  0
SPLINE
  5
9808
330
97FA
100
AcDbEntity
  8
0
100
AcDbSpline
210
0.0
220
0.0
230
1.0
 70
     8
 71
     3
 72
    44
 73
    40
 74
     0
 42
0.000000001
 43
0.0000000001
 40
0.018095158023101
 40
0.018095158023101
 40
0.018095158023101
 40
0.018095158023101
 40
0.0196576002678161
 40
0.0196576002678161
 40
0.0215652949896086
 40
0.0215652949896086
 40
0.027292650698686
 40
0.027292650698686
 40
0.0444615056165456
 40
0.0444615056165456
 40
0.0458716637354139
 40
0.0458716637354139
 40
0.0463959748398955
 40
0.0463959748398955
 40
0.0467402724775018
 40
0.0467402724775018
 40
0.0470594862173938
 40
0.0470594862173938
 40
0.0472222670720628
 40
0.0472222670720628
 40
0.0473852755783769
 40
0.0473852755783769
 40
0.0477156443590409
 40
0.0477156443590409
 40
0.0480404846215725
 40
0.0480404846215725
 40
0.0485975736369638
 40
0.0485975736369638
 40
0.0497869623474514
 40
0.0497869623474514
 40
0.0528454618048971
 40
0.0528454618048971
 40
0.0608569439363766
 40
0.0608569439363766
 40
0.0725270541317604
 40
0.0725270541317604
 40
0.0777168330525013
 40
0.0777168330525013
 40
0.0804599344317625
 40
0.0804599344317625
 40
0.0804599344317625
 40
0.0804599344317625
 10
38.00002099882529
 20
3.999559716589041
 30
0.0
 10
38.00002099886465
 20
3.999559712928388
 30
0.0
 10
38.00003159370236
 20
3.998586504615835
 30
0.0
 10
38.00004751057683
 20
3.997179173693632
 30
0.0
 10
38.00005560807793
 20
3.996488612039088
 30
0.0
 10
38.00008432070853
 20
3.994095289200499
 30
0.0
 10
38.00009667718009
 20
3.993179402790959
 30
0.0
 10
38.00011457606404
 20
3.991839500290448
 30
0.0
 10
38.00005184384027
 20
3.996173196335663
 30
0.0
 10
38.0001210390486
 20
3.991508538328636
 30
0.0
 10
38.0001274659756
 20
3.991074889074632
 30
0.0
 10
38.00014525703876
 20
3.989901322817714
 30
0.0
 10
38.00015105184609
 20
3.989520423693079
 30
0.0
 10
38.00016443236049
 20
3.988650910909536
 30
0.0
 10
38.00017075323795
 20
3.988241896419435
 30
0.0
 10
38.00018667833068
 20
3.987222674068087
 30
0.0
 10
38.00019624506388
 20
3.986613999630012
 30
0.0
 10
38.00021482566577
 20
3.985450355404089
 30
0.0
 10
38.00022190424304
 20
3.985009745282396
 30
0.0
 10
38.00023728140877
 20
3.984060982693289
 30
0.0
 10
38.00024569670991
 20
3.983545742235143
 30
0.0
 10
38.00027200251069
 20
3.981950180964393
 30
0.0
 10
38.00029116770242
 20
3.980808390522783
 30
0.0
 10
38.00032816847425
 20
3.978644440007843
 30
0.0
 10
38.00034655085804
 20
3.977588311933594
 30
0.0
 10
38.00039589246143
 20
3.974799056380616
 30
0.0
 10
38.00042683733496
 20
3.973098996118354
 30
0.0
 10
38.00052365232957
 20
3.967911219469064
 30
0.0
 10
38.00058996949868
 20
3.964546878317052
 30
0.0
 10
38.00083206545446
 20
3.952823330017786
 30
0.0
 10
38.00101736817847
 20
3.944864405526416
 30
0.0
 10
38.0017304903413
 20
3.917073318883482
 30
0.0
 10
38.00233445979886
 20
3.898814164113846
 30
0.0
 10
38.00383645529541
 20
3.860103826626322
 30
0.0
 10
38.00474895109499
 20
3.842295196810745
 30
0.0
 10
38.00559432138608
 20
3.826960735757849
 30
0.0
 10
38.00582699311142
 20
3.822999217938306
 30
0.0
 10
38.00603368916873
 20
3.819550803532192
 30
0.0
 10
38.00607492123843
 20
3.818880539340488
 30
0.0
 10
38.00607492125948
 20
3.818880538997225
 30
0.0
  0
CIRCLE
  5
9809
330
97FA
100
AcDbEntity
  8
0
100
AcDbCircle
 10
0.0
 20
67.99999999999998
 30
0.0
 40
2.5
  0
CIRCLE
  5
980A
330
97FA
100
AcDbEntity
  8
0
100
AcDbCircle
 10
0.0
 20
47.99999999999998
 30
0.0
 40
2.5
  0
LINE
  5
980B
330
97FA
100
AcDbEntity
  8
0
100
AcDbLine
 10
34.00000000000002
 20
2.000000000000005
 30
0.0
 11
-34.00000000000002
 21
2.000000000000005
 31
0.0
  0
LINE
  5
980C
330
97FA
100
AcDbEntity
  8
0
100
AcDbLine
 10
33.99999999999999
 20
86.0
 30
0.0
 11
-33.99999999999998
 21
86.0
 31
0.0
  0
SPLINE
  5
980D
330
97FA
100
AcDbEntity
  8
0
100
AcDbSpline
210
0.0
220
0.0
230
1.0
 70
     8
 71
     3
 72
    17
 73
    13
 74
     0
 42
0.000000001
 43
0.0000000001
 40
-1.0
 40
-1.0
 40
-1.0
 40
-1.0
 40
-0.7994286890738648
 40
-0.7994286890738648
 40
-0.7994286890738648
 40
-0.3760960080993577
 40
-0.3760960080993577
 40
-0.3760960080993577
 40
-0.0765284972681958
 40
-0.0765284972681958
 40
-0.0765284972681958
 40
0.0
 40
0.0
 40
0.0
 40
0.0
 10
-36.00000000000003
 20
2.000000000000003
 30
0.0
 10
-35.99999961270325
 20
1.999093543231204
 30
0.0
 10
-36.12633150600539
 20
1.919863896634923
 30
0.0
 10
-36.33607694563364
 20
1.790687786204275
 30
0.0
 10
-36.77877285697812
 20
1.518044261594696
 30
0.0
 10
-37.6144500834449
 20
1.034207947878892
 30
0.0
 10
-38.48107962101867
 20
0.638861406439279
 30
0.0
 10
-39.09434210948544
 20
0.3590980320120023
 30
0.0
 10
-39.71765761685154
 20
0.1217220476580958
 30
0.0
 10
-40.23393420693763
 20
0.0342615816148956
 30
0.0
 10
-40.36582391521879
 20
0.0119186445651081
 30
0.0
 10
-40.48832026105031
 20
0.0000045452574072
 30
0.0
 10
-40.60606060611086
 20
0.000000000115211
 30
0.0
  0
LINE
  5
980E
330
97FA
100
AcDbEntity
  8
0
100
AcDbLine
 10
-40.0
 20
0.0
 30
0.0
 11
-40.60606060606066
 21
0.0
 31
0.0
  0
ARC
  5
980F
330
97FA
100
AcDbEntity
  8
0
100
AcDbCircle
 10
-40.0
 20
4.000000000000004
 30
0.0
 40
3.999999999999994
100
AcDbArc
 50
270.0000000000001
 51
320.3072250898746
  0
ARC
  5
9810
330
97FA
100
AcDbEntity
  8
0
100
AcDbCircle
 10
-40.0
 20
4.000000000000004
 30
0.0
 40
1.999999999999992
100
AcDbArc
 50
276.2400290852621
 51
357.6024194749053
  0
LINE
  5
9811
330
97FA
100
AcDbEntity
  8
0
100
AcDbLine
 10
-40.60606060606066
 20
2.000000000000008
 30
0.0
 11
-40.56202985672996
 21
2.000000000000008
 31
0.0
  0
LINE
  5
9812
330
97FA
100
AcDbEntity
  8
0
100
AcDbLine
 10
-40.00619229311543
 20
2.000000000000008
 30
0.0
 11
-40.00221806413522
 21
2.000000000000008
 31
0.0
  0
SPLINE
  5
9813
330
97FA
100
AcDbEntity
  8
0
100
AcDbSpline
210
0.0
220
0.0
230
1.0
 70
     8
 71
     3
 72
    14
 73
    10
 74
     0
 42
0.000000001
 43
0.0000000001
 40
0.0
 40
0.0
 40
0.0
 40
0.0
 40
0.3435149368880196
 40
0.3435149368880196
 40
0.3435149368880196
 40
0.7569946177169982
 40
0.7569946177169982
 40
0.7569946177169982
 40
1.0
 40
1.0
 40
1.0
 40
1.0
 10
-40.60606060606064
 20
2.000000000000014
 30
0.0
 10
-40.28490796720142
 20
2.000036879631395
 30
0.0
 10
-39.8724655581668
 20
1.996834167074891
 30
0.0
 10
-39.47647444983441
 20
1.998676128322016
 30
0.0
 10
-38.99983061429209
 20
2.000893247482716
 30
0.0
 10
-38.53729794757881
 20
2.001072402909309
 30
0.0
 10
-38.26242807108846
 20
2.001124325805027
 30
0.0
 10
-38.10088480182622
 20
2.001154841314515
 30
0.0
 10
-37.99999576705054
 20
2.000250547667954
 30
0.0
 10
-37.99999999948833
 20
1.999999999992532
 30
0.0
  0
LINE
  5
9814
330
97FA
100
AcDbEntity
  8
0
100
AcDbLine
 10
-40.60606060606068
 20
0.0
 30
0.0
 11
-40.60606060606068
 21
2.000000000000008
 31
0.0
  0
SPLINE
  5
9815
330
97FA
100
AcDbEntity
  8
0
100
AcDbSpline
210
0.0
220
0.0
230
1.0
 70
     8
 71
     3
 72
    10
 73
     6
 74
     0
 42
0.000000001
 43
0.0000000001
 40
0.0074469043987117
 40
0.0074469043987117
 40
0.0074469043987117
 40
0.0074469043987117
 40
0.0123317556614169
 40
0.0123317556614169
 40
0.0311370486452443
 40
0.0311370486452443
 40
0.0311370486452443
 40
0.0311370486452443
 10
-38.00003065558712
 20
3.997755118088953
 30
0.0
 10
-38.00003065558633
 20
3.997755118147392
 30
0.0
 10
-38.00002940240202
 20
3.997847936951688
 30
0.0
 10
-38.00002184914304
 20
3.998422265088816
 30
0.0
 10
-38.00001164243529
 20
3.999247200300422
 30
0.0
 10
-38.00000372205767
 20
4.000000039235206
 30
0.0
  0
SPLINE
  5
9816
330
97FA
100
AcDbEntity
  8
0
100
AcDbSpline
210
0.0
220
0.0
230
1.0
 70
     8
 71
     3
 72
    40
 73
    36
 74
     0
 42
0.000000001
 43
0.0000000001
 40
0.039933690961662
 40
0.039933690961662
 40
0.039933690961662
 40
0.039933690961662
 40
0.0469878131027568
 40
0.0469878131027568
 40
0.0558888299429547
 40
0.0558888299429547
 40
0.0663364447581154
 40
0.0663364447581154
 40
0.0719857388548443
 40
0.0719857388548443
 40
0.0726844053234878
 40
0.0726844053234878
 40
0.072864113004577
 40
0.072864113004577
 40
0.0730236562612162
 40
0.0730236562612162
 40
0.0731531586978756
 40
0.0731531586978756
 40
0.0734162396432994
 40
0.0734162396432994
 40
0.073675969681345
 40
0.073675969681345
 40
0.0740295977149196
 40
0.0740295977149196
 40
0.0747108946006205
 40
0.0747108946006205
 40
0.076327038042537
 40
0.076327038042537
 40
0.0811704704430533
 40
0.0811704704430533
 40
0.0956912328947262
 40
0.0956912328947262
 40
0.1014681064629824
 40
0.1014681064629824
 40
0.1022909790363579
 40
0.1022909790363579
 40
0.1022909790363579
 40
0.1022909790363579
 10
-38.00607492125948
 20
3.81888053899752
 30
0.0
 10
-38.00607492126237
 20
3.818880538950382
 30
0.0
 10
-38.00578748733948
 20
3.823572139817167
 30
0.0
 10
-38.00504768257893
 20
3.836773178270524
 30
0.0
 10
-38.00444213955708
 20
3.848146712494248
 30
0.0
 10
-38.00300542410219
 20
3.880404511367986
 30
0.0
 10
-38.00215806978146
 20
3.902739956443007
 30
0.0
 10
-38.00107504747456
 20
3.941895775009479
 30
0.0
 10
-38.00073811947374
 20
3.956122483509524
 30
0.0
 10
-38.00038592536672
 20
3.975346307239457
 30
0.0
 10
-38.00034639418092
 20
3.977574436534662
 30
0.0
 10
-38.00029679479134
 20
3.980480543790769
 30
0.0
 10
-38.00028660027985
 20
3.981083731966552
 30
0.0
 10
-38.0002677132847
 20
3.982212398006055
 30
0.0
 10
-38.00025889572429
 20
3.982744127074703
 30
0.0
 10
-38.00024367973026
 20
3.98366948875495
 30
0.0
 10
-38.00023707487397
 20
3.984074113701804
 30
0.0
 10
-38.00021837230902
 20
3.985226989121026
 30
0.0
 10
-38.00020742253739
 20
3.985912223938483
 30
0.0
 10
-38.0001898150741
 20
3.987022929501429
 30
0.0
 10
-38.00018272847614
 20
3.987474944299755
 30
0.0
 10
-38.00016865664069
 20
3.988377082466847
 30
0.0
 10
-38.00016246641636
 20
3.988778260197253
 30
0.0
 10
-38.00014725162938
 20
3.989768412602579
 30
0.0
 10
-38.00014072349176
 20
3.990199587432067
 30
0.0
 10
-38.00012271310825
 20
3.991392628041626
 30
0.0
 10
-38.00011664033707
 20
3.991804258243275
 30
0.0
 10
-38.00009685278452
 20
3.993143682439878
 30
0.0
 10
-38.00009438915238
 20
3.993322802895877
 30
0.0
 10
-38.00009023549388
 20
3.993612493943001
 30
0.0
 10
-38.00012025228259
 20
3.991345348234556
 30
0.0
 10
-38.00007830664113
 20
3.994605745923545
 30
0.0
 10
-38.00005613662108
 20
3.996362484297693
 30
0.0
 10
-38.00002433212013
 20
3.999250355431096
 30
0.0
 10
-38.00002099881957
 20
3.999559717121027
 30
0.0
 10
-38.00002099882534
 20
3.9995597165845
 30
0.0
  0
SPLINE
  5
9817
330
97FA
100
AcDbEntity
  8
0
100
AcDbSpline
210
0.0
220
0.0
230
1.0
 70
     8
 71
     3
 72
     8
 73
     4
 74
     0
 42
0.000000001
 43
0.0000000001
 40
0.1181762787215819
 40
0.1181762787215819
 40
0.1181762787215819
 40
0.1181762787215819
 40
0.1203710378808341
 40
0.1203710378808341
 40
0.1203710378808341
 40
0.1203710378808341
 10
-38.00020328803094
 20
3.986173546926412
 30
0.0
 10
-38.00015734000134
 20
3.990429224043197
 30
0.0
 10
-38.00011371322744
 20
3.995076076262361
 30
0.0
 10
-38.00007561070259
 20
4.000000545744574
 30
0.0
  0
SPLINE
  5
9818
330
97FA
100
AcDbEntity
  8
0
100
AcDbSpline
210
0.0
220
0.0
230
1.0
 70
     8
 71
     3
 72
    32
 73
    28
 74
     0
 42
0.000000001
 43
0.0000000001
 40
0.0
 40
0.0
 40
0.0
 40
0.0
 40
0.0070452398507558
 40
0.0070452398507558
 40
0.0166405949119572
 40
0.0166405949119572
 40
0.0367140942292869
 40
0.0367140942292869
 40
0.0488284899382908
 40
0.0488284899382908
 40
0.0619943402174286
 40
0.0619943402174286
 40
0.0706188779625427
 40
0.0706188779625427
 40
0.0776906910853918
 40
0.0776906910853918
 40
0.0832065316541038
 40
0.0832065316541038
 40
0.0869816428385295
 40
0.0869816428385295
 40
0.0893395345136205
 40
0.0893395345136205
 40
0.0926179312830742
 40
0.0926179312830742
 40
0.0952548521157264
 40
0.0952548521157264
 40
0.0965320203267197
 40
0.0965320203267197
 40
0.0965320203267197
 40
0.0965320203267197
 10
-40.56202985672996
 20
2.000020061973698
 30
0.0
 10
-40.54510572274076
 20
2.000020928437365
 30
0.0
 10
-40.5255521034157
 20
2.000028134291606
 30
0.0
 10
-40.47775545401941
 20
2.000061132070821
 30
0.0
 10
-40.44841962908669
 20
2.000093689688026
 30
0.0
 10
-40.35657224072729
 20
2.000268440249693
 30
0.0
 10
-40.29198494498007
 20
2.000513808506879
 30
0.0
 10
-40.19633422839958
 20
2.000879055386704
 30
0.0
 10
-40.16273081704044
 20
2.000996414973305
 30
0.0
 10
-40.09182112296844
 20
2.001409895073707
 30
0.0
 10
-40.05225815311939
 20
2.001735751882031
 30
0.0
 10
-39.98348581635989
 20
2.002882807510602
 30
0.0
 10
-39.95529088110878
 20
2.003502366168414
 30
0.0
 10
-39.90345404907677
 20
2.005128901295977
 30
0.0
 10
-39.87967447349118
 20
2.006056558894543
 30
0.0
 10
-39.83787606747298
 20
2.00813531467551
 30
0.0
 10
-39.81951337890361
 20
2.009206873101753
 30
0.0
 10
-39.79004459209104
 20
2.01122038882019
 30
0.0
 10
-39.77830835320766
 20
2.012109549270682
 30
0.0
 10
-39.76105715751749
 20
2.013538564152224
 30
0.0
 10
-39.75481154100305
 20
2.014087788313431
 30
0.0
 10
-39.74169544414948
 20
2.0152951340924
 30
0.0
 10
-39.73541374730639
 20
2.015923299457841
 30
0.0
 10
-39.72807739544516
 20
2.016681793865604
 30
0.0
 10
-39.72587093351072
 20
2.016921975298559
 30
0.0
 10
-39.72413583698422
 20
2.017112587253739
 30
0.0
 10
-39.72383606976705
 20
2.017146192062414
 30
0.0
 10
-39.72383606963405
 20
2.017146192077309
 30
0.0
  0
LINE
  5
9819
330
97FA
100
AcDbEntity
  8
0
100
AcDbLine
 10
-38.00000000000002
 20
2.00000000000001
 30
0.0
 11
-34.00000000000002
 21
2.000000000000004
 31
0.0
  0
LINE
  5
981A
330
97FA
100
AcDbEntity
  8
0
100
AcDbLine
 10
-33.99999999999999
 20
86.0
 30
0.0
 11
-37.99999999999999
 21
86.0
 31
0.0
  0
LINE
  5
981B
330
97FA
100
AcDbEntity
  8
0
100
AcDbLine
 10
-38.00000000000001
 20
2.00000000000001
 30
0.0
 11
-37.99999999999999
 21
86.0
 31
0.0
  0
LINE
  5
981C
330
97FA
100
AcDbEntity
  8
0
100
AcDbLine
 10
38.00000000000002
 20
2.00000000000001
 30
0.0
 11
34.00000000000002
 21
2.000000000000004
 31
0.0
  0
LINE
  5
981D
330
97FA
100
AcDbEntity
  8
0
100
AcDbLine
 10
38.00000000000001
 20
2.00000000000001
 30
0.0
 11
37.99999999999999
 21
86.0
 31
0.0
  0
LINE
  5
981E
330
97FA
100
AcDbEntity
  8
0
100
AcDbLine
 10
33.99999999999999
 20
86.0
 30
0.0
 11
37.99999999999999
 21
86.0
 31
0.0
  0
LINE
  5
981F
330
97FA
100
AcDbEntity
  8
0
100
AcDbLine
 10
77.50000000000006
 20
0.0
 30
0.0
 11
40.60606060606066
 21
0.0
 31
0.0
  0
LINE
  5
9820
330
97FA
100
AcDbEntity
  8
0
100
AcDbLine
 10
77.50000000000006
 20
1.999999999999997
 30
0.0
 11
77.50000000000006
 21
0.0
 31
0.0
  0
LINE
  5
9821
330
97FA
100
AcDbEntity
  8
0
100
AcDbLine
 10
40.60606060606066
 20
2.000000000000008
 30
0.0
 11
77.50000000000006
 21
1.999999999999997
 31
0.0
  0
LINE
  5
9822
330
97FA
100
AcDbEntity
  8
0
100
AcDbLine
 10
-77.50000000000006
 20
1.999999999999997
 30
0.0
 11
-40.60606060606066
 21
2.000000000000008
 31
0.0
  0
LINE
  5
9823
330
97FA
100
AcDbEntity
  8
0
100
AcDbLine
 10
-77.50000000000006
 20
0.0
 30
0.0
 11
-77.50000000000006
 21
1.999999999999997
 31
0.0
  0
LINE
  5
9824
330
97FA
100
AcDbEntity
  8
0
100
AcDbLine
 10
-40.60606060606066
 20
0.0
 30
0.0
 11
-77.50000000000006
 21
0.0
 31
0.0
  0
ENDBLK
  5
97FC
330
97FA
100
AcDbEntity
  8
0
100
AcDbBlockEnd
  0
BLOCK
  5
9826
330
9825
100
AcDbEntity
  8
0
100
AcDbBlockBegin
  2
SAE380_72_2-ISO
 70
     0
 10
0.0
 20
0.0
 30
0.0
  3
SAE380_72_2-ISO
  1

  0
LINE
  5
9828
330
9825
100
AcDbEntity
  8
0
100
AcDbLine
 10
55.6339768425861
 20
-41.36440077733881
 30
0.0
 11
55.37975835923766
 21
-41.51117388713301
 31
0.0
  0
SPLINE
  5
9829
330
9825
100
AcDbEntity
  8
0
100
AcDbSpline
210
0.0
220
0.0
230
1.0
 70
     8
 71
     3
 72
    14
 73
    10
 74
     0
 42
0.000000001
 43
0.0000000001
 40
0.0
 40
0.0
 40
0.0
 40
0.0
 40
0.3435149368880196
 40
0.3435149368880196
 40
0.3435149368880196
 40
0.7569946177169982
 40
0.7569946177169982
 40
0.7569946177169982
 40
1.0
 40
1.0
 40
1.0
 40
1.0
 10
57.47673996931471
 20
-40.33604807598103
 30
0.0
 10
57.24962468274397
 20
-40.41724519172297
 30
0.0
 10
56.96024851823356
 20
-40.43306872175701
 30
0.0
 10
56.67893805695363
 20
-40.46094199879349
 30
0.0
 10
56.34033222863765
 20
-40.49449231190973
 30
0.0
 10
56.01314556146736
 20
-40.54609759335985
 30
0.0
 10
55.81874649282546
 20
-40.77150109798648
 30
0.0
 10
55.7044965739514
 20
-40.90397257687488
 30
0.0
 10
55.63379668548382
 20
-41.07201003299252
 30
0.0
 10
55.63397684222959
 20
-41.36440077577772
 30
0.0
  0
LINE
  5
982A
330
9825
100
AcDbEntity
  8
0
100
AcDbLine
 10
57.0481904049592
 20
-40.08862486963926
 30
0.0
 11
57.47673996931474
 21
-40.33604807598102
 31
0.0
  0
ELLIPSE
  5
982B
330
9825
100
AcDbEntity
  8
0
100
AcDbEllipse
 10
55.6339768425861
 20
-40.90512145056699
 30
0.0
 11
1.999999999999991
 21
-0.0000000000001197
 31
0.0
210
0.0
220
0.0
230
1.0
 40
0.5773502691896258
 41
0.7853981633976855
 42
2.35619449019259
  0
LINE
  5
982C
330
9825
100
AcDbEntity
  8
0
100
AcDbLine
 10
54.21976328021301
 20
-41.31698324228107
 30
0.0
 11
54.21976328021301
 21
-40.08862486963926
 31
0.0
  0
LINE
  5
982D
330
9825
100
AcDbEntity
  8
0
100
AcDbLine
 10
54.21976328021301
 20
-41.42746934612285
 30
0.0
 11
54.21976328021301
 21
-41.31698324228107
 31
0.0
  0
LINE
  5
982E
330
9825
100
AcDbEntity
  8
0
100
AcDbLine
 10
54.21976328021301
 20
-42.18089735826652
 30
0.0
 11
54.21976328021301
 21
-41.42746934612285
 31
0.0
  0
LINE
  5
982F
330
9825
100
AcDbEntity
  8
0
100
AcDbLine
 10
55.37975835923766
 20
-41.51117388713301
 30
0.0
 11
54.21976328021301
 21
-42.18089735826652
 31
0.0
  0
ELLIPSE
  5
9830
330
9825
100
AcDbEntity
  8
0
100
AcDbEllipse
 10
-17.90512840081481
 20
-74.02426401444784
 30
0.0
 11
-2.499999999999999
 21
-0.0000000000001495
 31
0.0
210
0.0
220
0.0
230
1.0
 40
0.5773502691896259
 41
3.74285687026858
 42
5.681921090500121
  0
ELLIPSE
  5
9831
330
9825
100
AcDbEntity
  8
0
100
AcDbEllipse
 10
-3.76299277708386
 20
-65.85929820517057
 30
0.0
 11
-2.499999999999999
 21
-0.0000000000001495
 31
0.0
210
0.0
220
0.0
230
1.0
 40
0.5773502691896259
 41
3.742856870268582
 42
5.681921090500121
  0
LINE
  5
9832
330
9825
100
AcDbEntity
  8
0
100
AcDbLine
 10
-6.591419901830071
 20
-95.25317511856869
 30
0.0
 11
-54.67468102251529
 21
-67.49229136702604
 31
0.0
  0
LINE
  5
9833
330
9825
100
AcDbEntity
  8
0
100
AcDbLine
 10
3.308075034781583
 20
-11.15402728301293
 30
0.0
 11
3.308075034781587
 21
-29.11695206342291
 31
0.0
  0
LINE
  5
9834
330
9825
100
AcDbEntity
  8
0
100
AcDbLine
 10
28.41036576690403
 20
-45.24275953674551
 30
0.0
 11
28.05681237631072
 21
-45.03863539151356
 31
0.0
  0
LINE
  5
9835
330
9825
100
AcDbEntity
  8
0
100
AcDbLine
 10
18.0701398913336
 20
-39.27282734400341
 30
0.0
 11
4.722288597154675
 21
-31.56644180620608
 31
0.0
  0
LINE
  5
9836
330
9825
100
AcDbEntity
  8
0
100
AcDbLine
 10
-54.67468102251527
 20
-65.85929820517058
 30
0.0
 11
-6.591419901830075
 21
-93.62018195671325
 31
0.0
  0
ELLIPSE
  5
9837
330
9825
100
AcDbEntity
  8
0
100
AcDbEllipse
 10
-3.76299277708386
 20
-64.22630504331511
 30
0.0
 11
-2.499999999999999
 21
0.0000000000001492
 31
0.0
210
0.0
220
0.0
230
1.0
 40
0.5773502691896259
 41
0.0
 42
6.283185307179586
  0
ELLIPSE
  5
9838
330
9825
100
AcDbEntity
  8
0
100
AcDbEllipse
 10
-17.90512840081481
 20
-72.39127085259238
 30
0.0
 11
-2.499999999999999
 21
0.0000000000001492
 31
0.0
210
0.0
220
0.0
230
1.0
 40
0.5773502691896259
 41
0.0
 42
6.283185307179586
  0
LINE
  5
9839
330
9825
100
AcDbEntity
  8
0
100
AcDbLine
 10
3.308075034781583
 20
-11.15402728301293
 30
0.0
 11
3.222833128777482
 21
-11.20324172039064
 31
0.0
  0
SPLINE
  5
983A
330
9825
100
AcDbEntity
  8
0
100
AcDbSpline
210
0.0
220
0.0
230
1.0
 70
     8
 71
     3
 72
    11
 73
     7
 74
     0
 42
0.000000001
 43
0.0000000001
 40
-1.0
 40
-1.0
 40
-1.0
 40
-1.0
 40
-0.7994286890738648
 40
-0.7994286890738648
 40
-0.7994286890738648
 40
-0.6581416176286857
 40
-0.6581416176286857
 40
-0.6581416176286857
 40
-0.6581416176286857
 10
3.308075034781574
 20
-11.15402728301291
 30
0.0
 10
3.308716270369829
 20
-10.75941519640861
 30
0.0
 10
3.275409952314989
 20
-10.40066690795909
 30
0.0
 10
3.218438833283716
 20
-10.05933017746548
 30
0.0
 10
3.178307059064784
 20
-9.818884688001269
 30
0.0
 10
3.123856943123795
 20
-9.589048858244035
 30
0.0
 10
3.056727408497112
 20
-9.36625507247573
 30
0.0
  0
ELLIPSE
  5
983B
330
9825
100
AcDbEntity
  8
0
100
AcDbEllipse
 10
-0.9345656523376888
 20
-8.245258213457958
 30
0.0
 11
3.999999999999993
 21
-0.0000000000000001
 31
0.0
210
0.0
220
0.0
230
1.0
 40
0.5773502691896257
 41
6.058746940112505
 42
6.283185307179586
  0
ELLIPSE
  5
983C
330
9825
100
AcDbEntity
  8
0
100
AcDbEllipse
 10
-0.9345656523376888
 20
-8.245258213457958
 30
0.0
 11
3.999999999999994
 21
-0.0000000000000001
 31
0.0
210
0.0
220
0.0
230
1.0
 40
0.5773502691896259
 41
5.497787143782132
 42
6.058746940112505
  0
LINE
  5
983D
330
9825
100
AcDbEntity
  8
0
100
AcDbLine
 10
1.893861472408495
 20
-9.8782513753134
 30
0.0
 11
1.893861472408495
 21
-10.0726777908546
 31
0.0
  0
LINE
  5
983E
330
9825
100
AcDbEntity
  8
0
100
AcDbLine
 10
1.893861472408495
 20
-10.0726777908546
 30
0.0
 11
1.893861472408495
 21
-11.97052386394066
 31
0.0
  0
LINE
  5
983F
330
9825
100
AcDbEntity
  8
0
100
AcDbLine
 10
3.222833128777482
 20
-11.20324172039064
 30
0.0
 11
1.893861472408495
 21
-11.97052386394066
 31
0.0
  0
SPLINE
  5
9840
330
9825
100
AcDbEntity
  8
0
100
AcDbSpline
210
0.0
220
0.0
230
1.0
 70
     8
 71
     3
 72
    16
 73
    12
 74
     0
 42
0.000000001
 43
0.0000000001
 40
0.0
 40
0.0
 40
0.0
 40
0.0
 40
0.035124664056556
 40
0.035124664056556
 40
0.055337822611218
 40
0.055337822611218
 40
0.0803966030567293
 40
0.0803966030567293
 40
0.1060253276712637
 40
0.1060253276712637
 40
0.1164316196678578
 40
0.1164316196678578
 40
0.1164316196678578
 40
0.1164316196678578
 10
3.054061675750294
 20
-8.419285973284083
 30
0.0
 10
3.038867051483586
 20
-8.53537420616767
 30
0.0
 10
3.023937178330347
 20
-8.65360247122676
 30
0.0
 10
3.009084541584226
 20
-8.830967622739178
 30
0.0
 10
3.005508567194836
 20
-8.894480567641371
 30
0.0
 10
3.003264794307121
 20
-9.02557477959268
 30
0.0
 10
3.005998822298239
 20
-9.091427946174842
 30
0.0
 10
3.017863904324054
 20
-9.206868708554685
 30
0.0
 10
3.026915529180089
 20
-9.257474191059493
 30
0.0
 10
3.043760142317459
 20
-9.326326712219605
 30
0.0
 10
3.04915067416053
 20
-9.346053309731683
 30
0.0
 10
3.055261453994755
 20
-9.366360993335707
 30
0.0
  0
ELLIPSE
  5
9841
330
9825
100
AcDbEntity
  8
0
100
AcDbEllipse
 10
4.722288597154684
 20
-29.93344864435064
 30
0.0
 11
1.000000000000105
 21
-1.732050807568816
 31
0.0
210
0.0
220
0.0
230
1.0
 40
0.5773502691896267
 41
3.926990816987
 42
5.497787143781895
  0
LINE
  5
9842
330
9825
100
AcDbEntity
  8
0
100
AcDbLine
 10
4.722288597154675
 20
-31.56644180620608
 30
0.0
 11
-54.67468102251526
 21
-65.85929820517058
 31
0.0
  0
ELLIPSE
  5
9843
330
9825
100
AcDbEntity
  8
0
100
AcDbEllipse
 10
-54.67468102251527
 20
-64.22630504331514
 30
0.0
 11
2.00000000000021
 21
-3.464101615137642
 31
0.0
210
0.0
220
0.0
230
1.0
 40
0.5773502691896259
 41
3.926990816987
 42
5.497787143781893
  0
LINE
  5
9844
330
9825
100
AcDbEntity
  8
0
100
AcDbLine
 10
-56.08889458488839
 20
-63.40980846238739
 30
0.0
 11
3.308075034781587
 21
-29.11695206342291
 31
0.0
  0
LINE
  5
9845
330
9825
100
AcDbEntity
  8
0
100
AcDbLine
 10
-57.50310814726148
 20
-62.59331188145967
 30
0.0
 11
-56.08889458488839
 21
-63.40980846238739
 31
0.0
  0
LINE
  5
9846
330
9825
100
AcDbEntity
  8
0
100
AcDbLine
 10
-54.67468102251527
 20
-67.49229136702604
 30
0.0
 11
-54.67468102251527
 21
-65.85929820517058
 31
0.0
  0
ELLIPSE
  5
9847
330
9825
100
AcDbEntity
  8
0
100
AcDbEllipse
 10
-54.67468102251527
 20
-64.22630504331514
 30
0.0
 11
1.000000000000106
 21
-1.732050807568822
 31
0.0
210
0.0
220
0.0
230
1.0
 40
0.5773502691896259
 41
3.926990816986995
 42
5.497787143781896
  0
LINE
  5
9848
330
9825
100
AcDbEntity
  8
0
100
AcDbLine
 10
55.6339768425861
 20
-59.32732555774877
 30
0.0
 11
55.6339768425861
 21
-41.36440077733881
 31
0.0
  0
ELLIPSE
  5
9849
330
9825
100
AcDbEntity
  8
0
100
AcDbEllipse
 10
52.80554971783992
 20
-57.69433239589332
 30
0.0
 11
1.999999999999993
 21
-3.464101615137757
 31
0.0
210
0.0
220
0.0
230
1.0
 40
0.577350269189625
 41
0.000000000000007
 42
0.785398163397456
  0
LINE
  5
984A
330
9825
100
AcDbEntity
  8
0
100
AcDbLine
 10
-6.591419901830071
 20
-93.62018195671325
 30
0.0
 11
-5.177206339456987
 21
-92.80368537578553
 31
0.0
  0
LINE
  5
984B
330
9825
100
AcDbEntity
  8
0
100
AcDbLine
 10
55.6339768425861
 20
-59.32732555774877
 30
0.0
 11
-3.762992777083882
 21
-93.62018195671325
 31
0.0
  0
ELLIPSE
  5
984C
330
9825
100
AcDbEntity
  8
0
100
AcDbEllipse
 10
-6.591419901830075
 20
-91.98718879485779
 30
0.0
 11
2.000000000000004
 21
-3.46410161513776
 31
0.0
210
0.0
220
0.0
230
1.0
 40
0.577350269189626
 41
5.497787143782137
 42
7.068583470577028
  0
LINE
  5
984D
330
9825
100
AcDbEntity
  8
0
100
AcDbLine
 10
83.56469469945478
 20
-30.54582108004649
 30
0.0
 11
84.97890826182789
 21
-29.72932449911876
 31
0.0
  0
LINE
  5
984E
330
9825
100
AcDbEntity
  8
0
100
AcDbLine
 10
57.47673996931474
 20
-40.33604807598102
 30
0.0
 11
83.56469469945478
 21
-30.54582108004649
 31
0.0
  0
ELLIPSE
  5
984F
330
9825
100
AcDbEntity
  8
0
100
AcDbEllipse
 10
71.19032602869015
 20
41.10175389636149
 30
0.0
 11
-3.25
 21
5.629165124598853
 31
0.0
210
0.0
220
0.0
230
1.0
 40
0.5773502691896258
 41
0.2193254863005896
 42
2.9222671672892
  0
ELLIPSE
  5
9850
330
9825
100
AcDbEntity
  8
0
100
AcDbEllipse
 10
78.96850062174218
 20
40.69350560589763
 30
0.0
 11
1.250000000000129
 21
-2.165063509461021
 31
0.0
210
0.0
220
0.0
230
1.0
 40
0.5773502691896258
 41
3.74285687026858
 42
5.681921090500115
  0
LINE
  5
9851
330
9825
100
AcDbEntity
  8
0
100
AcDbLine
 10
58.46240396733229
 20
64.78015474326555
 30
0.0
 11
84.97890826182782
 21
49.4708438508707
 31
0.0
  0
LINE
  5
9852
330
9825
100
AcDbEntity
  8
0
100
AcDbLine
 10
84.97890826182789
 20
-29.72932449911876
 30
0.0
 11
84.97890826182782
 21
49.4708438508707
 31
0.0
  0
ELLIPSE
  5
9853
330
9825
100
AcDbEntity
  8
0
100
AcDbEllipse
 10
55.6339768425861
 20
63.14716158141011
 30
0.0
 11
3.999999999999998
 21
-0.0000000000002379
 31
0.0
210
0.0
220
0.0
230
1.0
 40
0.5773502691896258
 41
0.7853981633976926
 42
2.356194490192585
  0
ELLIPSE
  5
9854
330
9825
100
AcDbEntity
  8
0
100
AcDbEllipse
 10
28.41036576690403
 20
38.44814000834638
 30
0.0
 11
1.249999999999871
 21
2.16506350946117
 31
0.0
210
0.0
220
0.0
230
1.0
 40
0.5773502691896259
 41
3.742856870268578
 42
5.681921090500118
  0
ELLIPSE
  5
9855
330
9825
100
AcDbEntity
  8
0
100
AcDbEllipse
 10
29.82457932927712
 20
37.63164342741864
 30
0.0
 11
-1.25
 21
-2.165063509461095
 31
0.0
210
0.0
220
0.0
230
1.0
 40
0.5773502691896259
 41
0.0
 42
6.283185307179586
  0
LINE
  5
9856
330
9825
100
AcDbEntity
  8
0
100
AcDbLine
 10
-5.177206339456992
 20
-74.84076059537556
 30
0.0
 11
23.10706490800491
 21
-31.56644180620613
 31
0.0
  0
LINE
  5
9857
330
9825
100
AcDbEntity
  8
0
100
AcDbLine
 10
-3.762992777083891
 20
-75.6572571763033
 30
0.0
 11
-5.177206339456992
 21
-74.84076059537556
 31
0.0
  0
LINE
  5
9858
330
9825
100
AcDbEntity
  8
0
100
AcDbLine
 10
24.52127847037801
 20
-32.38293838713385
 30
0.0
 11
-3.762992777083891
 21
-75.6572571763033
 31
0.0
  0
LINE
  5
9859
330
9825
100
AcDbEntity
  8
0
100
AcDbLine
 10
24.52127847037801
 20
-32.38293838713385
 30
0.0
 11
23.10706490800491
 21
-31.56644180620612
 31
0.0
  0
LINE
  5
985A
330
9825
100
AcDbEntity
  8
0
100
AcDbLine
 10
23.10706490800491
 20
-31.56644180620612
 30
0.0
 11
23.10706490800493
 21
47.63372654378331
 31
0.0
  0
LINE
  5
985B
330
9825
100
AcDbEntity
  8
0
100
AcDbLine
 10
24.52127847037802
 20
46.81722996285556
 30
0.0
 11
24.52127847037801
 21
-32.38293838713385
 31
0.0
  0
LINE
  5
985C
330
9825
100
AcDbEntity
  8
0
100
AcDbLine
 10
23.10706490800493
 20
47.6337265437833
 30
0.0
 11
24.52127847037802
 21
46.81722996285556
 31
0.0
  0
LINE
  5
985D
330
9825
100
AcDbEntity
  8
0
100
AcDbLine
 10
-3.762992777083891
 20
-75.6572571763033
 30
0.0
 11
-3.762992777083882
 21
-93.62018195671325
 31
0.0
  0
LINE
  5
985E
330
9825
100
AcDbEntity
  8
0
100
AcDbLine
 10
54.21976328021301
 20
-40.08862486963926
 30
0.0
 11
54.21976328021301
 21
63.96365816233783
 31
0.0
  0
LINE
  5
985F
330
9825
100
AcDbEntity
  8
0
100
AcDbLine
 10
54.21976328021301
 20
63.96365816233783
 30
0.0
 11
24.52127847037802
 21
46.81722996285556
 31
0.0
  0
LINE
  5
9860
330
9825
100
AcDbEntity
  8
0
100
AcDbLine
 10
23.10706490800493
 20
47.6337265437833
 30
0.0
 11
52.80554971783992
 21
64.78015474326555
 31
0.0
  0
LINE
  5
9861
330
9825
100
AcDbEntity
  8
0
100
AcDbLine
 10
-5.177206339456978
 20
-92.80368537578553
 30
0.0
 11
-5.177206339456992
 21
-74.84076059537556
 31
0.0
  0
LINE
  5
9862
330
9825
100
AcDbEntity
  8
0
100
AcDbLine
 10
-6.591419901830071
 20
-93.62018195671325
 30
0.0
 11
-6.591419901830071
 21
-95.25317511856869
 31
0.0
  0
LINE
  5
9863
330
9825
100
AcDbEntity
  8
0
100
AcDbLine
 10
-5.177206339456978
 20
-92.80368537578553
 30
0.0
 11
-3.762992777083882
 21
-93.62018195671325
 31
0.0
  0
ELLIPSE
  5
9864
330
9825
100
AcDbEntity
  8
0
100
AcDbEllipse
 10
-6.591419901830075
 20
-91.98718879485779
 30
0.0
 11
1.000000000000003
 21
-1.732050807568882
 31
0.0
210
0.0
220
0.0
230
1.0
 40
0.5773502691896259
 41
5.497787143782131
 42
7.068583470577029
  0
LINE
  5
9865
330
9825
100
AcDbEntity
  8
0
100
AcDbLine
 10
57.0481904049592
 20
-40.08862486963926
 30
0.0
 11
57.0481904049592
 21
63.96365816233783
 31
0.0
  0
ELLIPSE
  5
9866
330
9825
100
AcDbEntity
  8
0
100
AcDbEllipse
 10
55.6339768425861
 20
63.14716158141011
 30
0.0
 11
-1.999999999999997
 21
-0.0000000000001193
 31
0.0
210
0.0
220
0.0
230
1.0
 40
0.5773502691896258
 41
3.926990816987004
 42
5.497787143781896
  0
LINE
  5
9867
330
9825
100
AcDbEntity
  8
0
100
AcDbLine
 10
84.97890826182782
 20
49.4708438508707
 30
0.0
 11
83.56469469945473
 21
48.65434726994295
 31
0.0
  0
LINE
  5
9868
330
9825
100
AcDbEntity
  8
0
100
AcDbLine
 10
83.56469469945478
 20
-30.54582108004649
 30
0.0
 11
83.56469469945473
 21
48.65434726994295
 31
0.0
  0
LINE
  5
9869
330
9825
100
AcDbEntity
  8
0
100
AcDbLine
 10
54.21976328021301
 20
63.96365816233783
 30
0.0
 11
52.80554971783992
 21
64.78015474326555
 31
0.0
  0
LINE
  5
986A
330
9825
100
AcDbEntity
  8
0
100
AcDbLine
 10
57.0481904049592
 20
63.96365816233783
 30
0.0
 11
58.46240396733229
 21
64.78015474326555
 31
0.0
  0
LINE
  5
986B
330
9825
100
AcDbEntity
  8
0
100
AcDbLine
 10
83.56469469945473
 20
48.65434726994295
 30
0.0
 11
57.0481904049592
 21
63.96365816233783
 31
0.0
  0
ELLIPSE
  5
986C
330
9825
100
AcDbEntity
  8
0
100
AcDbEllipse
 10
69.77611246631707
 20
40.28525731543378
 30
0.0
 11
-3.249999999999999
 21
5.629165124598848
 31
0.0
210
0.0
220
0.0
230
0.9999999999999996
 40
0.5773502691896258
 41
0.0
 42
6.283185307179586
  0
ELLIPSE
  5
986D
330
9825
100
AcDbEntity
  8
0
100
AcDbEllipse
 10
77.55428705936909
 20
39.8770090249699
 30
0.0
 11
-1.25
 21
2.165063509461095
 31
0.0
210
0.0
220
0.0
230
1.0
 40
0.5773502691896258
 41
0.0
 42
6.283185307179586
  0
LINE
  5
986E
330
9825
100
AcDbEntity
  8
0
100
AcDbLine
 10
-4.591419901830073
 20
-95.45129040999555
 30
0.0
 11
54.80554971783991
 21
-61.15843401103107
 31
0.0
  0
ELLIPSE
  5
986F
330
9825
100
AcDbEntity
  8
0
100
AcDbEllipse
 10
71.19032602869015
 20
-16.0530067685793
 30
0.0
 11
-3.25
 21
5.629165124598853
 31
0.0
210
0.0
220
0.0
230
1.0
 40
0.5773502691896258
 41
0.2193254863005913
 42
2.922267167289199
  0
ELLIPSE
  5
9870
330
9825
100
AcDbEntity
  8
0
100
AcDbEllipse
 10
69.77611246631707
 20
-16.86950334950703
 30
0.0
 11
-3.249999999999999
 21
5.629165124598848
 31
0.0
210
0.0
220
0.0
230
0.9999999999999996
 40
0.5773502691896258
 41
0.0
 42
6.283185307179586
  0
ELLIPSE
  5
9871
330
9825
100
AcDbEntity
  8
0
100
AcDbEllipse
 10
63.41215143563814
 20
-23.80972428739269
 30
0.0
 11
1.250000000000129
 21
-2.165063509461021
 31
0.0
210
0.0
220
0.0
230
1.0
 40
0.5773502691896258
 41
3.742856870268576
 42
5.68192109050012
  0
ELLIPSE
  5
9872
330
9825
100
AcDbEntity
  8
0
100
AcDbEllipse
 10
63.41215143563814
 20
-7.479792668838176
 30
0.0
 11
1.250000000000129
 21
-2.165063509461021
 31
0.0
210
0.0
220
0.0
230
1.0
 40
0.5773502691896258
 41
3.742856870268576
 42
5.68192109050012
  0
ELLIPSE
  5
9873
330
9825
100
AcDbEntity
  8
0
100
AcDbEllipse
 10
63.41215143563814
 20
8.850138949716344
 30
0.0
 11
1.250000000000129
 21
-2.165063509461021
 31
0.0
210
0.0
220
0.0
230
1.0
 40
0.5773502691896258
 41
3.742856870268578
 42
5.68192109050012
  0
ELLIPSE
  5
9874
330
9825
100
AcDbEntity
  8
0
100
AcDbEllipse
 10
63.41215143563814
 20
25.18007056827085
 30
0.0
 11
1.250000000000129
 21
-2.165063509461021
 31
0.0
210
0.0
220
0.0
230
1.0
 40
0.5773502691896258
 41
3.742856870268576
 42
5.68192109050012
  0
ELLIPSE
  5
9875
330
9825
100
AcDbEntity
  8
0
100
AcDbEllipse
 10
63.41215143563814
 20
41.51000218682537
 30
0.0
 11
1.250000000000129
 21
-2.165063509461021
 31
0.0
210
0.0
220
0.0
230
1.0
 40
0.5773502691896258
 41
3.74285687026858
 42
5.681921090500115
  0
ELLIPSE
  5
9876
330
9825
100
AcDbEntity
  8
0
100
AcDbEllipse
 10
61.99793787326504
 20
-24.62622086832042
 30
0.0
 11
-1.25
 21
2.165063509461095
 31
0.0
210
0.0
220
0.0
230
1.0
 40
0.5773502691896258
 41
0.0
 42
6.283185307179586
  0
ELLIPSE
  5
9877
330
9825
100
AcDbEntity
  8
0
100
AcDbEllipse
 10
61.99793787326504
 20
-8.2962892497659
 30
0.0
 11
-1.25
 21
2.165063509461095
 31
0.0
210
0.0
220
0.0
230
1.0
 40
0.5773502691896258
 41
0.0
 42
6.283185307179586
  0
ELLIPSE
  5
9878
330
9825
100
AcDbEntity
  8
0
100
AcDbEllipse
 10
61.99793787326504
 20
8.033642368788616
 30
0.0
 11
-1.25
 21
2.165063509461095
 31
0.0
210
0.0
220
0.0
230
1.0
 40
0.5773502691896258
 41
0.0
 42
6.283185307179586
  0
ELLIPSE
  5
9879
330
9825
100
AcDbEntity
  8
0
100
AcDbEllipse
 10
61.99793787326504
 20
24.36357398734313
 30
0.0
 11
-1.25
 21
2.165063509461095
 31
0.0
210
0.0
220
0.0
230
1.0
 40
0.5773502691896258
 41
0.0
 42
6.283185307179586
  0
ELLIPSE
  5
987A
330
9825
100
AcDbEntity
  8
0
100
AcDbEllipse
 10
61.99793787326504
 20
40.69350560589765
 30
0.0
 11
-1.25
 21
2.165063509461095
 31
0.0
210
0.0
220
0.0
230
1.0
 40
0.5773502691896258
 41
0.0
 42
6.283185307179586
  0
ELLIPSE
  5
987B
330
9825
100
AcDbEntity
  8
0
100
AcDbEllipse
 10
63.41215143563814
 20
57.83993380537989
 30
0.0
 11
1.250000000000129
 21
-2.165063509461021
 31
0.0
210
0.0
220
0.0
230
1.0
 40
0.5773502691896258
 41
3.74285687026858
 42
5.681921090500115
  0
ELLIPSE
  5
987C
330
9825
100
AcDbEntity
  8
0
100
AcDbEllipse
 10
-4.47009955827041
 20
95.39877652805527
 30
0.0
 11
1.25
 21
-2.165063509461096
 31
0.0
210
0.0
220
0.0
230
0.9999999999999998
 40
0.5773502691896259
 41
0.0
 42
6.283185307179586
  0
ELLIPSE
  5
987D
330
9825
100
AcDbEntity
  8
0
100
AcDbEllipse
 10
-3.055885995897322
 20
96.21527310898301
 30
0.0
 11
1.250000000000129
 21
-2.165063509461021
 31
0.0
210
0.0
220
0.0
230
1.0
 40
0.5773502691896259
 41
3.742856870268576
 42
5.681921090500116
  0
ELLIPSE
  5
987E
330
9825
100
AcDbEntity
  8
0
100
AcDbEllipse
 10
61.99793787326504
 20
57.02343722445217
 30
0.0
 11
-1.25
 21
2.165063509461095
 31
0.0
210
0.0
220
0.0
230
1.0
 40
0.5773502691896258
 41
0.0
 42
6.283185307179586
  0
ELLIPSE
  5
987F
330
9825
100
AcDbEntity
  8
0
100
AcDbEllipse
 10
78.96850062174218
 20
-24.62622086832042
 30
0.0
 11
1.250000000000129
 21
-2.165063509461021
 31
0.0
210
0.0
220
0.0
230
1.0
 40
0.5773502691896258
 41
3.742856870268576
 42
5.68192109050012
  0
ELLIPSE
  5
9880
330
9825
100
AcDbEntity
  8
0
100
AcDbEllipse
 10
78.96850062174218
 20
-8.296289249765894
 30
0.0
 11
1.250000000000129
 21
-2.165063509461021
 31
0.0
210
0.0
220
0.0
230
1.0
 40
0.5773502691896258
 41
3.742856870268576
 42
5.681921090500121
  0
ELLIPSE
  5
9881
330
9825
100
AcDbEntity
  8
0
100
AcDbEllipse
 10
78.96850062174218
 20
8.033642368788607
 30
0.0
 11
1.250000000000129
 21
-2.165063509461021
 31
0.0
210
0.0
220
0.0
230
1.0
 40
0.5773502691896258
 41
3.742856870268576
 42
5.68192109050012
  0
ELLIPSE
  5
9882
330
9825
100
AcDbEntity
  8
0
100
AcDbEllipse
 10
78.96850062174218
 20
24.36357398734313
 30
0.0
 11
1.250000000000129
 21
-2.165063509461021
 31
0.0
210
0.0
220
0.0
230
1.0
 40
0.5773502691896258
 41
3.742856870268576
 42
5.68192109050012
  0
ELLIPSE
  5
9883
330
9825
100
AcDbEntity
  8
0
100
AcDbEllipse
 10
77.55428705936909
 20
-25.44271744924814
 30
0.0
 11
-1.25
 21
2.165063509461095
 31
0.0
210
0.0
220
0.0
230
1.0
 40
0.5773502691896258
 41
0.0
 42
6.283185307179586
  0
ELLIPSE
  5
9884
330
9825
100
AcDbEntity
  8
0
100
AcDbEllipse
 10
77.55428705936909
 20
-9.112785830693619
 30
0.0
 11
-1.25
 21
2.165063509461095
 31
0.0
210
0.0
220
0.0
230
1.0
 40
0.5773502691896258
 41
0.0
 42
6.283185307179586
  0
ELLIPSE
  5
9885
330
9825
100
AcDbEntity
  8
0
100
AcDbEllipse
 10
77.55428705936909
 20
7.217145787860879
 30
0.0
 11
-1.25
 21
2.165063509461095
 31
0.0
210
0.0
220
0.0
230
1.0
 40
0.5773502691896258
 41
0.0
 42
6.283185307179586
  0
ELLIPSE
  5
9886
330
9825
100
AcDbEntity
  8
0
100
AcDbEllipse
 10
77.55428705936909
 20
23.5470774064154
 30
0.0
 11
-1.25
 21
2.165063509461095
 31
0.0
210
0.0
220
0.0
230
1.0
 40
0.5773502691896258
 41
0.0
 42
6.283185307179586
  0
LINE
  5
9887
330
9825
100
AcDbEntity
  8
0
100
AcDbLine
 10
-23.23684102131142
 20
28.44870143918245
 30
0.0
 11
-22.52962917732075
 21
27.36668272565187
 31
0.0
  0
LINE
  5
9888
330
9825
100
AcDbEntity
  8
0
100
AcDbLine
 10
-27.80462333742649
 20
-2.172564892807997
 30
0.0
 11
-56.08889458488839
 21
-45.44688368197744
 31
0.0
  0
LINE
  5
9889
330
9825
100
AcDbEntity
  8
0
100
AcDbLine
 10
-29.2188368997996
 20
-1.356068311880269
 30
0.0
 11
-27.80462333742649
 21
-2.172564892807997
 31
0.0
  0
LINE
  5
988A
330
9825
100
AcDbEntity
  8
0
100
AcDbLine
 10
-57.50310814726149
 20
-44.63038710104971
 30
0.0
 11
-29.2188368997996
 21
-1.356068311880269
 31
0.0
  0
LINE
  5
988B
330
9825
100
AcDbEntity
  8
0
100
AcDbLine
 10
-56.08889458488839
 20
-45.44688368197744
 30
0.0
 11
-57.50310814726149
 21
-44.63038710104971
 31
0.0
  0
LINE
  5
988C
330
9825
100
AcDbEntity
  8
0
100
AcDbLine
 10
-27.80462333742649
 20
77.02760345718143
 30
0.0
 11
-27.80462333742649
 21
-2.172564892807997
 31
0.0
  0
LINE
  5
988D
330
9825
100
AcDbEntity
  8
0
100
AcDbLine
 10
-29.21883689979958
 20
77.84410003810916
 30
0.0
 11
-27.80462333742649
 21
77.02760345718143
 31
0.0
  0
LINE
  5
988E
330
9825
100
AcDbEntity
  8
0
100
AcDbLine
 10
-29.2188368997996
 20
-1.356068311880269
 30
0.0
 11
-29.21883689979958
 21
77.84410003810916
 31
0.0
  0
ELLIPSE
  5
988F
330
9825
100
AcDbEntity
  8
0
100
AcDbEllipse
 10
-12.24827415132244
 20
87.64205900924189
 30
0.0
 11
-3.250000000000003
 21
5.629165124598848
 31
0.0
210
0.0
220
0.0
230
1.0
 40
0.5773502691896258
 41
4.71238898038469
 42
7.853981633974483
  0
ELLIPSE
  5
9890
330
9825
100
AcDbEntity
  8
0
100
AcDbEllipse
 10
-10.83406058894935
 20
88.4585555901696
 30
0.0
 11
-3.250000000000002
 21
5.629165124598852
 31
0.0
210
0.0
220
0.0
230
1.0
 40
0.5773502691896258
 41
0.2193254863005913
 42
1.570796326794897
  0
ELLIPSE
  5
9891
330
9825
100
AcDbEntity
  8
0
100
AcDbEllipse
 10
-20.02644874437447
 20
96.21527310898301
 30
0.0
 11
1.25
 21
-2.165063509461096
 31
0.0
210
0.0
220
0.0
230
0.9999999999999998
 40
0.5773502691896259
 41
0.0
 42
6.283185307179586
  0
ELLIPSE
  5
9892
330
9825
100
AcDbEntity
  8
0
100
AcDbEllipse
 10
-18.61223518200137
 20
97.03176968991073
 30
0.0
 11
1.250000000000129
 21
-2.165063509461021
 31
0.0
210
0.0
220
0.0
230
1.0
 40
0.5773502691896259
 41
3.742856870268578
 42
5.681921090500116
  0
LINE
  5
9893
330
9825
100
AcDbEntity
  8
0
100
AcDbLine
 10
0.4796479100354035
 20
94.99052823759141
 30
0.0
 11
0.4796479100354079
 21
96.62352139944687
 31
0.0
  0
ELLIPSE
  5
9894
330
9825
100
AcDbEntity
  8
0
100
AcDbEllipse
 10
-0.9345656523376888
 20
95.80702481851915
 30
0.0
 11
1.999999999999997
 21
0.0000000000000001
 31
0.0
210
0.0
220
0.0
230
1.0
 40
0.5773502691896258
 41
5.49778714378214
 42
7.068583470577029
  0
LINE
  5
9895
330
9825
100
AcDbEntity
  8
0
100
AcDbLine
 10
1.8938614724085
 20
94.17403165666369
 30
0.0
 11
1.893861472408495
 21
-9.8782513753134
 31
0.0
  0
ELLIPSE
  5
9896
330
9825
100
AcDbEntity
  8
0
100
AcDbEllipse
 10
-0.9345656523376888
 20
95.80702481851915
 30
0.0
 11
3.999999999999999
 21
-0.0000000000000003
 31
0.0
210
0.0
220
0.0
230
1.0
 40
0.5773502691896257
 41
5.497787143782137
 42
7.068583470577029
  0
LINE
  5
9897
330
9825
100
AcDbEntity
  8
0
100
AcDbLine
 10
0.4796479100354079
 20
96.62352139944687
 30
0.0
 11
1.893861472408504
 21
97.44001798037459
 31
0.0
  0
LINE
  5
9898
330
9825
100
AcDbEntity
  8
0
100
AcDbLine
 10
0.4796479100354035
 20
94.99052823759141
 30
0.0
 11
1.8938614724085
 21
94.17403165666369
 31
0.0
  0
LINE
  5
9899
330
9825
100
AcDbEntity
  8
0
100
AcDbLine
 10
3.065434347662305
 20
-8.245258213457958
 30
0.0
 11
3.065434347662305
 21
95.80702481851915
 31
0.0
  0
LINE
  5
989A
330
9825
100
AcDbEntity
  8
0
100
AcDbLine
 10
-26.03685638446013
 20
111.9328322918417
 30
0.0
 11
0.4796479100354079
 21
96.62352139944687
 31
0.0
  0
LINE
  5
989B
330
9825
100
AcDbEntity
  8
0
100
AcDbLine
 10
-26.03685638446016
 20
79.68121734519657
 30
0.0
 11
-26.03685638446013
 21
111.9328322918417
 31
0.0
  0
LINE
  5
989C
330
9825
100
AcDbEntity
  8
0
100
AcDbLine
 10
-56.08889458488839
 20
-63.40980846238739
 30
0.0
 11
-56.08889458488839
 21
-45.44688368197744
 31
0.0
  0
LINE
  5
989D
330
9825
100
AcDbEntity
  8
0
100
AcDbLine
 10
-27.80462333742649
 20
77.02760345718143
 30
0.0
 11
1.8938614724085
 21
94.17403165666369
 31
0.0
  0
LINE
  5
989E
330
9825
100
AcDbEntity
  8
0
100
AcDbLine
 10
-57.50310814726149
 20
-44.63038710104971
 30
0.0
 11
-57.50310814726148
 21
-62.59331188145967
 31
0.0
  0
LINE
  5
989F
330
9825
100
AcDbEntity
  8
0
100
AcDbLine
 10
0.4796479100354035
 20
94.99052823759141
 30
0.0
 11
-29.21883689979958
 21
77.84410003810916
 31
0.0
  0
LINE
  5
98A0
330
9825
100
AcDbEntity
  8
0
100
AcDbLine
 10
1.893861472408504
 20
97.44001798037459
 30
0.0
 11
-24.62264282208704
 21
112.7493288727694
 31
0.0
  0
LINE
  5
98A1
330
9825
100
AcDbEntity
  8
0
100
AcDbLine
 10
-24.62264282208704
 20
112.7493288727694
 30
0.0
 11
-26.03685638446013
 21
111.9328322918417
 31
0.0
  0
ELLIPSE
  5
98A2
330
9825
100
AcDbEntity
  8
0
100
AcDbEllipse
 10
28.41036576690403
 20
-43.2015180844262
 30
0.0
 11
1.249999999999871
 21
2.16506350946117
 31
0.0
210
0.0
220
0.0
230
1.0
 40
0.5773502691896259
 41
3.742856870268578
 42
5.681921090500116
  0
ELLIPSE
  5
98A3
330
9825
100
AcDbEntity
  8
0
100
AcDbEllipse
 10
29.82457932927712
 20
-44.01801466535392
 30
0.0
 11
-1.25
 21
-2.165063509461095
 31
0.0
210
0.0
220
0.0
230
1.0
 40
0.5773502691896259
 41
0.0
 42
6.283185307179586
  0
ELLIPSE
  5
98A4
330
9825
100
AcDbEntity
  8
0
100
AcDbEllipse
 10
28.41036576690403
 20
-26.87158646587168
 30
0.0
 11
1.249999999999871
 21
2.16506350946117
 31
0.0
210
0.0
220
0.0
230
1.0
 40
0.5773502691896259
 41
3.742856870268578
 42
5.681921090500118
  0
ELLIPSE
  5
98A5
330
9825
100
AcDbEntity
  8
0
100
AcDbEllipse
 10
29.82457932927712
 20
-27.68808304679942
 30
0.0
 11
-1.25
 21
-2.165063509461095
 31
0.0
210
0.0
220
0.0
230
1.0
 40
0.5773502691896259
 41
0.0
 42
6.283185307179586
  0
ELLIPSE
  5
98A6
330
9825
100
AcDbEntity
  8
0
100
AcDbEllipse
 10
28.41036576690403
 20
-10.54165484731717
 30
0.0
 11
1.249999999999871
 21
2.16506350946117
 31
0.0
210
0.0
220
0.0
230
1.0
 40
0.5773502691896259
 41
3.742856870268578
 42
5.681921090500118
  0
ELLIPSE
  5
98A7
330
9825
100
AcDbEntity
  8
0
100
AcDbEllipse
 10
29.82457932927712
 20
-11.35815142824489
 30
0.0
 11
-1.25
 21
-2.165063509461095
 31
0.0
210
0.0
220
0.0
230
1.0
 40
0.5773502691896259
 41
0.0
 42
6.283185307179586
  0
ELLIPSE
  5
98A8
330
9825
100
AcDbEntity
  8
0
100
AcDbEllipse
 10
28.41036576690403
 20
5.788276771237343
 30
0.0
 11
1.249999999999871
 21
2.16506350946117
 31
0.0
210
0.0
220
0.0
230
1.0
 40
0.5773502691896259
 41
3.742856870268578
 42
5.681921090500118
  0
ELLIPSE
  5
98A9
330
9825
100
AcDbEntity
  8
0
100
AcDbEllipse
 10
29.82457932927712
 20
4.971780190309607
 30
0.0
 11
-1.25
 21
-2.165063509461095
 31
0.0
210
0.0
220
0.0
230
1.0
 40
0.5773502691896259
 41
0.0
 42
6.283185307179586
  0
ELLIPSE
  5
98AA
330
9825
100
AcDbEntity
  8
0
100
AcDbEllipse
 10
28.41036576690403
 20
22.11820838979187
 30
0.0
 11
1.249999999999871
 21
2.16506350946117
 31
0.0
210
0.0
220
0.0
230
1.0
 40
0.5773502691896259
 41
3.742856870268578
 42
5.681921090500118
  0
ELLIPSE
  5
98AB
330
9825
100
AcDbEntity
  8
0
100
AcDbEllipse
 10
29.82457932927712
 20
21.30171180886414
 30
0.0
 11
-1.25
 21
-2.165063509461095
 31
0.0
210
0.0
220
0.0
230
1.0
 40
0.5773502691896259
 41
0.0
 42
6.283185307179586
  0
ELLIPSE
  5
98AC
330
9825
100
AcDbEntity
  8
0
100
AcDbEllipse
 10
-23.91553604090046
 20
-4.826178780823084
 30
0.0
 11
1.24999999999987
 21
2.16506350946117
 31
0.0
210
0.0
220
0.0
230
0.9999999999999998
 40
0.5773502691896258
 41
3.742856870268578
 42
5.681921090500115
  0
ELLIPSE
  5
98AD
330
9825
100
AcDbEntity
  8
0
100
AcDbEllipse
 10
-22.50132247852737
 20
-5.642675361750812
 30
0.0
 11
1.249999999999999
 21
2.165063509461096
 31
0.0
210
0.0
220
0.0
230
1.0
 40
0.5773502691896258
 41
0.0
 42
6.283185307179586
  0
ELLIPSE
  5
98AE
330
9825
100
AcDbEntity
  8
0
100
AcDbEllipse
 10
-23.91553604090046
 20
11.50375283773143
 30
0.0
 11
1.24999999999987
 21
2.16506350946117
 31
0.0
210
0.0
220
0.0
230
0.9999999999999998
 40
0.5773502691896258
 41
3.742856870268578
 42
5.681921090500114
  0
ELLIPSE
  5
98AF
330
9825
100
AcDbEntity
  8
0
100
AcDbEllipse
 10
-22.50132247852737
 20
10.6872562568037
 30
0.0
 11
1.249999999999999
 21
2.165063509461096
 31
0.0
210
0.0
220
0.0
230
1.0
 40
0.5773502691896258
 41
0.0
 42
6.283185307179586
  0
ELLIPSE
  5
98B0
330
9825
100
AcDbEntity
  8
0
100
AcDbEllipse
 10
-23.91553604090046
 20
27.83368445628595
 30
0.0
 11
1.24999999999987
 21
2.16506350946117
 31
0.0
210
0.0
220
0.0
230
0.9999999999999998
 40
0.5773502691896258
 41
3.742856870268578
 42
5.681921090500118
  0
ELLIPSE
  5
98B1
330
9825
100
AcDbEntity
  8
0
100
AcDbEllipse
 10
-22.50132247852737
 20
27.01718787535822
 30
0.0
 11
1.249999999999999
 21
2.165063509461096
 31
0.0
210
0.0
220
0.0
230
1.0
 40
0.5773502691896258
 41
0.0
 42
6.283185307179586
  0
ELLIPSE
  5
98B2
330
9825
100
AcDbEntity
  8
0
100
AcDbEllipse
 10
-23.91553604090046
 20
44.16361607484046
 30
0.0
 11
1.24999999999987
 21
2.16506350946117
 31
0.0
210
0.0
220
0.0
230
0.9999999999999998
 40
0.5773502691896258
 41
3.742856870268578
 42
5.681921090500118
  0
ELLIPSE
  5
98B3
330
9825
100
AcDbEntity
  8
0
100
AcDbEllipse
 10
-22.50132247852737
 20
43.34711949391274
 30
0.0
 11
1.249999999999999
 21
2.165063509461096
 31
0.0
210
0.0
220
0.0
230
1.0
 40
0.5773502691896258
 41
0.0
 42
6.283185307179586
  0
ELLIPSE
  5
98B4
330
9825
100
AcDbEntity
  8
0
100
AcDbEllipse
 10
-23.91553604090046
 20
60.49354769339498
 30
0.0
 11
1.24999999999987
 21
2.16506350946117
 31
0.0
210
0.0
220
0.0
230
0.9999999999999998
 40
0.5773502691896258
 41
3.742856870268578
 42
5.681921090500118
  0
ELLIPSE
  5
98B5
330
9825
100
AcDbEntity
  8
0
100
AcDbEllipse
 10
-22.50132247852737
 20
59.67705111246726
 30
0.0
 11
1.249999999999999
 21
2.165063509461096
 31
0.0
210
0.0
220
0.0
230
1.0
 40
0.5773502691896258
 41
0.0
 42
6.283185307179586
  0
ELLIPSE
  5
98B6
330
9825
100
AcDbEntity
  8
0
100
AcDbEllipse
 10
-23.91553604090046
 20
76.8234793119495
 30
0.0
 11
1.24999999999987
 21
2.16506350946117
 31
0.0
210
0.0
220
0.0
230
0.9999999999999998
 40
0.5773502691896258
 41
3.742856870268578
 42
5.681921090500118
  0
ELLIPSE
  5
98B7
330
9825
100
AcDbEntity
  8
0
100
AcDbEllipse
 10
-22.50132247852737
 20
76.00698273102178
 30
0.0
 11
1.249999999999999
 21
2.165063509461096
 31
0.0
210
0.0
220
0.0
230
1.0
 40
0.5773502691896258
 41
0.0
 42
6.283185307179586
  0
ENDBLK
  5
9827
330
9825
100
AcDbEntity
  8
0
100
AcDbBlockEnd
  0
ENDSEC
  0
SECTION
  2
ENTITIES
  0
INSERT
  5
98B8
330
1F
100
AcDbEntity
  8
0
100
AcDbBlockReference
  2
SAE380_72_2-Front
 10
0.0
 20
0.0
 30
0.0
  0
INSERT
  5
98B9
330
1F
100
AcDbEntity
  8
0
100
AcDbBlockReference
  2
SAE380_72_2-Left
 10
124.3
 20
0.0
 30
0.0
  0
INSERT
  5
98BA
330
1F
100
AcDbEntity
  8
0
100
AcDbBlockReference
  2
SAE380_72_2-Right
 10
-124.3
 20
0.0
 30
0.0
  0
INSERT
  5
98BB
330
1F
100
AcDbEntity
  8
0
100
AcDbBlockReference
  2
SAE380_72_2-Top
 10
0.0
 20
-48.80000000000001
 30
0.0
  0
INSERT
  5
98BC
330
1F
100
AcDbEntity
  8
0
100
AcDbBlockReference
  2
SAE380_72_2-Bottom
 10
0.0
 20
200.8
 30
0.0
  0
INSERT
  5
98BD
330
1F
100
AcDbEntity
  8
0
100
AcDbBlockReference
  2
SAE380_72_2-ISO
 10
181.8031081472616
 20
-161.5493288727694
 30
0.0
  0
MTEXT
  5
98BE
330
1F
100
AcDbEntity
  8
0
100
AcDbMText
 10
0.0
 20
-181.6
 30
0.0
 40
15.53750000000001
 41
0.0
 71
     5
 72
     5
  1
SAE380/72/2
 73
     1
 44
1.0
1001
ACAD
1000
MTEXTBEGIN
1070
    73
1070
     1
1070
    44
1040
1.0
1070
    74
1070
     0
1000
MTEXTEND
  0
ENDSEC
  0
SECTION
  2
OBJECTS
  0
DICTIONARY
  5
C
330
0
100
AcDbDictionary
281
     1
  3
ACAD_CIP_PREVIOUS_PRODUCT_INFO
350
216
  3
ACAD_COLOR
350
6B
  3
ACAD_DETAILVIEWSTYLE
350
21B
  3
ACAD_GROUP
350
D
  3
ACAD_LAYOUT
350
1A
  3
ACAD_MATERIAL
350
6A
  3
ACAD_MLEADERSTYLE
350
12D
  3
ACAD_MLINESTYLE
350
17
  3
ACAD_PLOTSETTINGS
350
19
  3
ACAD_PLOTSTYLENAME
350
E
  3
ACAD_SCALELIST
350
10C
  3
ACAD_SECTIONVIEWSTYLE
350
219
  3
ACAD_TABLESTYLE
350
7E
  3
ACAD_VISUALSTYLE
350
EF
  3
ACDB_RECOMPOSE_DATA
350
99BF
  3
AcDbVariableDictionary
350
5E
  3
DWGPROPS
350
99C0
  0
DICTIONARY
  5
990F
330
8
100
AcDbDictionary
280
     1
281
     1
  0
DICTIONARY
  5
1FF
330
2
100
AcDbDictionary
280
     1
281
     1
  3
ACAD_LAYERSTATES
360
200
  0
DICTIONARY
  5
13C
330
10
100
AcDbDictionary
280
     1
281
     1
  0
DICTIONARY
  5
1CE
330
1F
100
AcDbDictionary
280
     1
281
     1
  3
ACAD_LAYOUTSELFREF
360
9917
  0
DICTIONARY
  5
98C2
330
D2
100
AcDbDictionary
280
     1
281
     1
  3
ACAD_LAYOUTSELFREF
360
9920
  0
DICTIONARY
  5
98C4
330
D6
100
AcDbDictionary
280
     1
281
     1
  3
ACAD_LAYOUTSELFREF
360
9923
  0
XRECORD
  5
216
102
{ACAD_REACTORS
330
C
102
}
330
C
100
AcDbXrecord
280
     1
300
ACD
300
2021
300
87393ACD_2021_0F
  0
DICTIONARY
  5
6B
102
{ACAD_REACTORS
330
C
102
}
330
C
100
AcDbDictionary
281
     1
  0
DICTIONARY
  5
21B
102
{ACAD_REACTORS
330
C
102
}
330
C
100
AcDbDictionary
281
     1
  3
Metric50
350
21C
  0
DICTIONARY
  5
D
102
{ACAD_REACTORS
330
C
102
}
330
C
100
AcDbDictionary
281
     1
  0
DICTIONARY
  5
1A
102
{ACAD_REACTORS
330
C
102
}
330
C
100
AcDbDictionary
281
     1
  3
Layout1
350
D3
  3
Layout2
350
D7
  3
Model
350
22
  0
DICTIONARY
  5
6A
102
{ACAD_REACTORS
330
C
102
}
330
C
100
AcDbDictionary
281
     1
  3
ByBlock
350
ED
  3
ByLayer
350
EC
  3
Global
350
EE
  0
DICTIONARY
  5
12D
102
{ACAD_REACTORS
330
C
102
}
330
C
100
AcDbDictionary
281
     1
  3
Standard
350
12E
  0
DICTIONARY
  5
17
102
{ACAD_REACTORS
330
C
102
}
330
C
100
AcDbDictionary
281
     1
  3
Standard
350
18
  0
DICTIONARY
  5
19
102
{ACAD_REACTORS
330
C
102
}
330
C
100
AcDbDictionary
281
     1
  0
ACDBDICTIONARYWDFLT
  5
E
102
{ACAD_REACTORS
330
C
102
}
330
C
100
AcDbDictionary
281
     1
  3
Normal
350
F
100
AcDbDictionaryWithDefault
340
F
  0
DICTIONARY
  5
10C
102
{ACAD_REACTORS
330
C
102
}
330
C
100
AcDbDictionary
281
     1
  3
A0
350
10D
  3
A1
350
1BE
  3
A2
350
1BF
  3
A3
350
1C0
  3
A4
350
1C1
  3
A5
350
1C2
  3
A6
350
1C3
  3
A7
350
1C4
  3
A8
350
1C5
  3
A9
350
1C6
  3
B0
350
1C7
  3
B1
350
1C8
  3
B2
350
1C9
  3
B3
350
1CA
  3
B4
350
1CB
  3
B5
350
1CC
  3
B6
350
1CD
  0
DICTIONARY
  5
219
102
{ACAD_REACTORS
330
C
102
}
330
C
100
AcDbDictionary
281
     1
  3
Metric50
350
21A
  0
DICTIONARY
  5
7E
102
{ACAD_REACTORS
330
C
102
}
330
C
100
AcDbDictionary
281
     1
  3
Standard
350
7F
  0
DICTIONARY
  5
EF
102
{ACAD_REACTORS
330
C
102
}
330
C
100
AcDbDictionary
281
     1
  3
2dWireframe
350
F5
  3
Basic
350
F4
  3
Brighten
350
FB
  3
ColorChange
350
FF
  3
Conceptual
350
F8
  3
Dim
350
FA
  3
EdgeColorOff
350
1E6
  3
Facepattern
350
FE
  3
Flat
350
F0
  3
FlatWithEdges
350
F1
  3
Gouraud
350
F2
  3
GouraudWithEdges
350
F3
  3
Hidden
350
F7
  3
JitterOff
350
1E4
  3
Linepattern
350
FD
  3
OverhangOff
350
1E5
  3
Realistic
350
F9
  3
Shaded
350
1F3
  3
Shaded with edges
350
1F2
  3
Shades of Gray
350
1EF
  3
Sketchy
350
1F0
  3
Thicken
350
FC
  3
Wireframe
350
F6
  3
X-Ray
350
1F1
  0
XRECORD
  5
99BF
102
{ACAD_REACTORS
330
C
102
}
330
C
100
AcDbXrecord
280
     1
 90
        1
330
7F
  0
DICTIONARY
  5
5E
102
{ACAD_REACTORS
330
C
102
}
330
C
100
AcDbDictionary
281
     1
  3
CANNOSCALE
350
146
  3
CENTEREXE
350
259
  3
CENTERLTYPEFILE
350
25A
  3
CMLEADERSTYLE
350
145
  3
CTABLESTYLE
350
84
  3
CVIEWDETAILSTYLE
350
227
  3
CVIEWSECTIONSTYLE
350
228
  3
DIMASSOC
350
5F
  3
HIDETEXT
350
63
  3
INDEXCTL
350
996C
  3
LAYEREVAL
350
1AE
  3
LAYERNOTIFY
350
1AF
  3
LIGHTINGUNITS
350
996A
  3
MSLTSCALE
350
9969
  3
PSOLHEIGHT
350
99BC
  3
PSOLWIDTH
350
99BB
  3
SORTENTS
350
996B
  3
XCLIPFRAME
350
99BD
  0
XRECORD
  5
99C0
102
{ACAD_REACTORS
330
C
102
}
330
C
100
AcDbXrecord
280
     1
  1
DWGPROPS COOKIE
  2

  3

  4

  6

  7

  8
truole
  9

300
=
301
=
302
=
303
=
304
=
305
=
306
=
307
=
308
=
309
=
 40
0.0078125
 41
2460398.356956019
 42
2460398.374988426
  1

 90
        0
  0
DICTIONARY
  5
200
102
{ACAD_REACTORS
330
1FF
102
}
330
1FF
100
AcDbDictionary
281
     1
  0
XRECORD
  5
9917
102
{ACAD_REACTORS
330
1CE
102
}
330
1CE
100
AcDbXrecord
280
     1
340
1F
  0
XRECORD
  5
9920
102
{ACAD_REACTORS
330
98C2
102
}
330
98C2
100
AcDbXrecord
280
     1
340
D2
  0
XRECORD
  5
9923
102
{ACAD_REACTORS
330
98C4
102
}
330
98C4
100
AcDbXrecord
280
     1
340
D6
  0
ACDBDETAILVIEWSTYLE
  5
21C
102
{ACAD_XDICTIONARY
360
99FF
102
}
102
{ACAD_REACTORS
330
21B
102
}
330
21B
100
AcDbModelDocViewStyle
 70
     0
  3
Metric50
290
     0
100
AcDbDetailViewStyle
 70
     0
 71
     0
 90
        3
 71
     1
340
11
 40
5.0
340
0
 40
5.0
300

 40
0.0
280
     1
 71
     2
340
16
 90
       25
 71
     3
340
11
 40
5.0
 90
        0
 40
15.0
 90
        1
300
%<\AcVar ViewDetailId>% (%<\AcVar ViewScale \f "%sn">%)
 71
     4
340
16
 90
       25
340
16
 90
       25
280
     0
  0
LAYOUT
  5
D3
102
{ACAD_XDICTIONARY
360
99C4
102
}
102
{ACAD_REACTORS
330
1A
102
}
330
1A
100
AcDbPlotSettings
  1

  2
C:\Documents and Settings\basas\Application Data\Autodesk\AutoCAD 2005\R16.1\enu\plotters\Default Windows System Printer.pc3
  4

  6

 40
0.0
 41
0.0
 42
0.0
 43
0.0
 44
0.0
 45
0.0
 46
0.0
 47
0.0
 48
0.0
 49
0.0
140
0.0
141
0.0
142
1.0
143
1.0
 70
   688
 72
     0
 73
     0
 74
     5
  7

 75
    16
147
1.0
148
0.0
149
0.0
100
AcDbLayout
  1
Layout1
 70
     1
 71
     1
 10
0.0
 20
0.0
 11
12.0
 21
9.0
 12
0.0
 22
0.0
 32
0.0
 14
0.0
 24
0.0
 34
0.0
 15
0.0
 25
0.0
 35
0.0
146
0.0
 13
0.0
 23
0.0
 33
0.0
 16
1.0
 26
0.0
 36
0.0
 17
0.0
 27
1.0
 37
0.0
 76
     0
330
D2
  0
LAYOUT
  5
D7
102
{ACAD_XDICTIONARY
360
99C6
102
}
102
{ACAD_REACTORS
330
1A
102
}
330
1A
100
AcDbPlotSettings
  1

  2
C:\Documents and Settings\basas\Application Data\Autodesk\AutoCAD 2005\R16.1\enu\plotters\Default Windows System Printer.pc3
  4

  6

 40
0.0
 41
0.0
 42
0.0
 43
0.0
 44
0.0
 45
0.0
 46
0.0
 47
0.0
 48
0.0
 49
0.0
140
0.0
141
0.0
142
1.0
143
1.0
 70
   688
 72
     0
 73
     0
 74
     5
  7

 75
    16
147
1.0
148
0.0
149
0.0
100
AcDbLayout
  1
Layout2
 70
     1
 71
     2
 10
0.0
 20
0.0
 11
12.0
 21
9.0
 12
0.0
 22
0.0
 32
0.0
 14
0.0
 24
0.0
 34
0.0
 15
0.0
 25
0.0
 35
0.0
146
0.0
 13
0.0
 23
0.0
 33
0.0
 16
1.0
 26
0.0
 36
0.0
 17
0.0
 27
1.0
 37
0.0
 76
     0
330
D6
  0
LAYOUT
  5
22
102
{ACAD_XDICTIONARY
360
99C1
102
}
102
{ACAD_REACTORS
330
1A
102
}
330
1A
100
AcDbPlotSettings
  1

  2
none_device
  4
ISO_A4_(210.00_x_297.00_MM)
  6

 40
7.5
 41
20.0
 42
7.5
 43
20.0
 44
210.0
 45
297.0
 46
11.54999923706054
 47
-13.65000009536743
 48
0.0
 49
0.0
140
0.0
141
0.0
142
1.0
143
8.704084754739808
 70
 11952
 72
     1
 73
     0
 74
     0
  7

 75
     0
147
0.1148885871608098
148
0.0
149
0.0
100
AcDbLayout
  1
Model
 70
     1
 71
     0
 10
0.0
 20
0.0
 11
12.0
 21
9.0
 12
0.0
 22
0.0
 32
0.0
 14
0.0
 24
0.0
 34
0.0
 15
0.0
 25
0.0
 35
0.0
146
0.0
 13
0.0
 23
0.0
 33
0.0
 16
1.0
 26
0.0
 36
0.0
 17
0.0
 27
1.0
 37
0.0
 76
     0
330
1F
331
EA
1001
ACAD_PSEXT
1000
None
1000
None
1000
Not applicable
1000
The layout will not be plotted unless a new plotter configuration name is selected.
1070
     0
  0
MATERIAL
  5
ED
102
{ACAD_XDICTIONARY
360
1F9
102
}
102
{ACAD_REACTORS
330
6A
102
}
330
6A
100
AcDbMaterial
  1
ByBlock
  0
MATERIAL
  5
EC
102
{ACAD_XDICTIONARY
360
1F7
102
}
102
{ACAD_REACTORS
330
6A
102
}
330
6A
100
AcDbMaterial
  1
ByLayer
  0
MATERIAL
  5
EE
102
{ACAD_XDICTIONARY
360
173
102
}
102
{ACAD_REACTORS
330
6A
102
}
330
6A
100
AcDbMaterial
  1
Global
 43
0.0007999999797903
 43
0.0
 43
0.0
 43
0.0
 43
0.0
 43
0.0007999999797903
 43
0.0
 43
0.0
 43
0.0
 43
0.0
 43
1.0
 43
0.0
 43
0.0
 43
0.0
 43
0.0
 43
1.0
 49
0.0007999999797903
 49
0.0
 49
0.0
 49
0.0
 49
0.0
 49
0.0007999999797903
 49
0.0
 49
0.0
 49
0.0
 49
0.0
 49
1.0
 49
0.0
 49
0.0
 49
0.0
 49
0.0
 49
1.0
142
0.0007999999797903
142
0.0
142
0.0
142
0.0
142
0.0
142
0.0007999999797903
142
0.0
142
0.0
142
0.0
142
0.0
142
1.0
142
0.0
142
0.0
142
0.0
142
0.0
142
1.0
144
0.0007999999797903
144
0.0
144
0.0
144
0.0
144
0.0
144
0.0007999999797903
144
0.0
144
0.0
144
0.0
144
0.0
144
1.0
144
0.0
144
0.0
144
0.0
144
0.0
144
1.0
1001
ACAD
1070
    -1
1070
     3
1070
     0
1000

1071
        0
1070
     0
  0
MLEADERSTYLE
  5
12E
102
{ACAD_XDICTIONARY
360
99EB
102
}
102
{ACAD_REACTORS
330
12D
102
}
330
12D
100
AcDbMLeaderStyle
170
     2
171
     1
172
     0
 90
        2
 40
0.0
 41
0.0
173
     1
 91
-1056964608
340
14
 92
       -2
290
     1
 42
2.0
291
     1
 43
8.0
  3
Standard
 44
4.0
300

342
11
174
     1
178
     1
175
     1
176
     0
 93
-1056964608
 45
4.0
292
     0
297
     0
 46
4.0
 94
-1056964608
 47
1.0
 49
1.0
140
1.0
293
     1
141
0.0
294
     1
177
     0
142
1.0
295
     0
296
     0
143
3.75
1001
ACAD_MLEADERVER
1070
     2
  0
MLINESTYLE
  5
18
102
{ACAD_REACTORS
330
17
102
}
330
17
100
AcDbMlineStyle
  2
STANDARD
 70
     0
  3

 62
   256
 51
90.0
 52
90.0
 71
     2
 49
0.5
 62
   256
  6
BYLAYER
 49
-0.5
 62
   256
  6
BYLAYER
  0
ACDBPLACEHOLDER
  5
F
102
{ACAD_REACTORS
330
E
102
}
330
E
  0
SCALE
  5
10D
102
{ACAD_REACTORS
330
10C
102
}
330
10C
100
AcDbScale
 70
     0
300
1:1
140
1.0
141
1.0
290
     1
  0
SCALE
  5
1BE
102
{ACAD_REACTORS
330
10C
102
}
330
10C
100
AcDbScale
 70
     0
300
1:2
140
1.0
141
2.0
290
     0
  0
SCALE
  5
1BF
102
{ACAD_REACTORS
330
10C
102
}
330
10C
100
AcDbScale
 70
     0
300
1:4
140
1.0
141
4.0
290
     0
  0
SCALE
  5
1C0
102
{ACAD_REACTORS
330
10C
102
}
330
10C
100
AcDbScale
 70
     0
300
1:5
140
1.0
141
5.0
290
     0
  0
SCALE
  5
1C1
102
{ACAD_REACTORS
330
10C
102
}
330
10C
100
AcDbScale
 70
     0
300
1:8
140
1.0
141
8.0
290
     0
  0
SCALE
  5
1C2
102
{ACAD_REACTORS
330
10C
102
}
330
10C
100
AcDbScale
 70
     0
300
1:10
140
1.0
141
10.0
290
     0
  0
SCALE
  5
1C3
102
{ACAD_REACTORS
330
10C
102
}
330
10C
100
AcDbScale
 70
     0
300
1:16
140
1.0
141
16.0
290
     0
  0
SCALE
  5
1C4
102
{ACAD_REACTORS
330
10C
102
}
330
10C
100
AcDbScale
 70
     0
300
1:20
140
1.0
141
20.0
290
     0
  0
SCALE
  5
1C5
102
{ACAD_REACTORS
330
10C
102
}
330
10C
100
AcDbScale
 70
     0
300
1:30
140
1.0
141
30.0
290
     0
  0
SCALE
  5
1C6
102
{ACAD_REACTORS
330
10C
102
}
330
10C
100
AcDbScale
 70
     0
300
1:40
140
1.0
141
40.0
290
     0
  0
SCALE
  5
1C7
102
{ACAD_REACTORS
330
10C
102
}
330
10C
100
AcDbScale
 70
     0
300
1:50
140
1.0
141
50.0
290
     0
  0
SCALE
  5
1C8
102
{ACAD_REACTORS
330
10C
102
}
330
10C
100
AcDbScale
 70
     0
300
1:100
140
1.0
141
100.0
290
     0
  0
SCALE
  5
1C9
102
{ACAD_REACTORS
330
10C
102
}
330
10C
100
AcDbScale
 70
     0
300
2:1
140
2.0
141
1.0
290
     0
  0
SCALE
  5
1CA
102
{ACAD_REACTORS
330
10C
102
}
330
10C
100
AcDbScale
 70
     0
300
4:1
140
4.0
141
1.0
290
     0
  0
SCALE
  5
1CB
102
{ACAD_REACTORS
330
10C
102
}
330
10C
100
AcDbScale
 70
     0
300
8:1
140
8.0
141
1.0
290
     0
  0
SCALE
  5
1CC
102
{ACAD_REACTORS
330
10C
102
}
330
10C
100
AcDbScale
 70
     0
300
10:1
140
10.0
141
1.0
290
     0
  0
SCALE
  5
1CD
102
{ACAD_REACTORS
330
10C
102
}
330
10C
100
AcDbScale
 70
     0
300
100:1
140
100.0
141
1.0
290
     0
  0
ACDBSECTIONVIEWSTYLE
  5
21A
102
{ACAD_XDICTIONARY
360
99FD
102
}
102
{ACAD_REACTORS
330
219
102
}
330
219
100
AcDbModelDocViewStyle
 70
     0
  3
Metric50
290
     0
100
AcDbSectionViewStyle
 70
     0
 71
     0
 90
      102
 71
     1
340
11
 40
5.0
340
0
340
0
 40
5.0
300
I, O, Q, S, X, Z
 40
10.0
 90
        0
 40
2.5
 90
        0
 71
     2
340
16
 90
       25
340
16
 90
       50
 40
5.0
 40
2.5
 40
5.0
 71
     3
340
11
 40
5.0
 90
        0
 40
15.0
 90
        1
300
%<\AcVar ViewSectionStartId>%-%<\AcVar ViewSectionEndId>% (%<\AcVar ViewScale \f "%sn">%)
 71
     4
300
ANSI31
 40
1.0
 90
        0
290
     0
290
     0
 90
        6
 40
0.0
 40
1.570796326794896
 40
0.2617993877991494
 40
1.308996938995747
 40
-0.2617993877991494
 40
1.832595714594046
  0
TABLESTYLE
  5
7F
102
{ACAD_XDICTIONARY
360
162
102
}
102
{ACAD_REACTORS
330
7E
102
}
330
7E
100
AcDbTableStyle
  3
Standard
 70
     0
 71
     0
 40
1.5
 41
1.5
280
     0
281
     0
  7
Standard
140
4.5
170
     2
 62
     0
 63
     7
283
     0
274
    -2
284
     1
 64
     0
275
    -2
285
     1
 65
     0
276
    -2
286
     1
 66
     0
277
    -2
287
     1
 67
     0
278
    -2
288
     1
 68
     0
279
    -2
289
     1
 69
     0
  7
Standard
140
6.0
170
     5
 62
     0
 63
     7
283
     0
274
    -2
284
     1
 64
     0
275
    -2
285
     1
 65
     0
276
    -2
286
     1
 66
     0
277
    -2
287
     1
 67
     0
278
    -2
288
     1
 68
     0
279
    -2
289
     1
 69
     0
  7
Standard
140
4.5
170
     5
 62
     0
 63
     7
283
     0
274
    -2
284
     1
 64
     0
275
    -2
285
     1
 65
     0
276
    -2
286
     1
 66
     0
277
    -2
287
     1
 67
     0
278
    -2
288
     1
 68
     0
279
    -2
289
     1
 69
     0
  0
VISUALSTYLE
  5
F5
102
{ACAD_XDICTIONARY
360
99D5
102
}
102
{ACAD_REACTORS
330
EF
102
}
330
EF
100
AcDbVisualStyle
  2
2dWireframe
 70
     4
 71
     0
 72
     2
 73
     1
 90
        0
 40
-0.6
 41
-30.0
 62
     5
 63
     7
 74
     1
 91
        4
 64
     7
 65
   257
 75
     1
175
     1
 42
1.0
 92
        0
 66
   257
 43
1.0
 76
     1
 77
     6
 78
     2
 67
     7
 79
     5
170
     0
171
     0
290
     0
174
     0
 93
        1
 44
0.0
173
     0
291
     0
 45
0.0
1001
ACAD
1000
AcDbSavedByObjectVersion
1070
     0
  0
VISUALSTYLE
  5
F4
102
{ACAD_XDICTIONARY
360
99D3
102
}
102
{ACAD_REACTORS
330
EF
102
}
330
EF
100
AcDbVisualStyle
  2
Basic
 70
     7
 71
     1
 72
     0
 73
     1
 90
        0
 40
-0.6
 41
-30.0
 62
     5
 63
     7
 74
     0
 91
        4
 64
     7
 65
   257
 75
     1
175
     1
 42
1.0
 92
        8
 66
     7
 43
1.0
 76
     1
 77
     6
 78
     2
 67
     7
 79
     5
170
     0
171
     0
290
     0
174
     0
 93
        1
 44
0.0
173
     0
291
     1
 45
0.0
1001
ACAD
1000
AcDbSavedByObjectVersion
1070
     0
  0
VISUALSTYLE
  5
FB
102
{ACAD_XDICTIONARY
360
99E1
102
}
102
{ACAD_REACTORS
330
EF
102
}
330
EF
100
AcDbVisualStyle
  2
Brighten
 70
    12
 71
     2
 72
     2
 73
     1
 90
        0
 40
-0.6
 41
-30.0
 62
     5
 63
     7
 74
     1
 91
        4
 64
     7
 65
   257
 75
     1
175
     1
 42
1.0
 92
        8
 66
     7
 43
1.0
 76
     1
 77
     6
 78
     2
 67
     7
 79
     5
170
     0
171
     0
290
     0
174
     0
 93
        1
 44
50.0
173
     0
291
     1
 45
0.0
1001
ACAD
1000
AcDbSavedByObjectVersion
1070
     0
  0
VISUALSTYLE
  5
FF
102
{ACAD_XDICTIONARY
360
99E9
102
}
102
{ACAD_REACTORS
330
EF
102
}
330
EF
100
AcDbVisualStyle
  2
ColorChange
 70
    16
 71
     2
 72
     2
 73
     3
 90
        0
 40
-0.6
 41
-30.0
 62
     5
 63
     8
 74
     1
 91
        4
 64
     7
 65
   257
 75
     1
175
     1
 42
1.0
 92
        8
 66
     8
 43
1.0
 76
     1
 77
     6
 78
     2
 67
     7
 79
     5
170
     0
171
     0
290
     0
174
     0
 93
        1
 44
0.0
173
     0
291
     1
 45
0.0
1001
ACAD
1000
AcDbSavedByObjectVersion
1070
     0
  0
VISUALSTYLE
  5
F8
102
{ACAD_XDICTIONARY
360
99DB
102
}
102
{ACAD_REACTORS
330
EF
102
}
330
EF
100
AcDbVisualStyle
  2
Conceptual
 70
     9
 71
     3
 72
     2
 73
     1
 90
        0
 40
-0.6
 41
-30.0
 62
     5
 63
     7
 74
     2
 91
        2
 64
     7
 65
   257
 75
     1
175
     1
 42
40.0
 92
        8
 66
     7
 43
1.0
 76
     1
 77
     6
 78
     2
 67
     7
 79
     3
170
     0
171
     0
290
     0
174
     0
 93
        1
 44
0.0
173
     0
291
     0
 45
0.0
1001
ACAD
1000
AcDbSavedByObjectVersion
1070
     0
  0
VISUALSTYLE
  5
FA
102
{ACAD_XDICTIONARY
360
99DF
102
}
102
{ACAD_REACTORS
330
EF
102
}
330
EF
100
AcDbVisualStyle
  2
Dim
 70
    11
 71
     2
 72
     2
 73
     1
 90
        0
 40
-0.6
 41
-30.0
 62
     5
 63
     7
 74
     1
 91
        4
 64
     7
 65
   257
 75
     1
175
     1
 42
1.0
 92
        8
 66
     7
 43
1.0
 76
     1
 77
     6
 78
     2
 67
     7
 79
     5
170
     0
171
     0
290
     0
174
     0
 93
        1
 44
-50.0
173
     0
291
     1
 45
0.0
1001
ACAD
1000
AcDbSavedByObjectVersion
1070
     0
  0
VISUALSTYLE
  5
1E6
102
{ACAD_XDICTIONARY
360
99F1
102
}
102
{ACAD_REACTORS
330
EF
102
}
330
EF
100
AcDbVisualStyle
  2
EdgeColorOff
 70
    22
 71
     2
 72
     2
 73
     0
 90
        0
 40
-0.6
 41
-30.0
 62
     5
 63
     7
 74
     1
 91
        4
 64
     7
 65
   257
 75
     1
175
     1
 42
1.0
 92
        8
 66
     7
 43
1.0
 76
     1
 77
     6
 78
     2
 67
     7
 79
     5
170
     0
171
     0
290
     0
174
     0
 93
        1
 44
0.0
173
     0
291
     1
 45
0.0
1001
ACAD
1000
AcDbSavedByObjectVersion
1070
     0
  0
VISUALSTYLE
  5
FE
102
{ACAD_XDICTIONARY
360
99E7
102
}
102
{ACAD_REACTORS
330
EF
102
}
330
EF
100
AcDbVisualStyle
  2
Facepattern
 70
    15
 71
     2
 72
     2
 73
     1
 90
        0
 40
-0.6
 41
-30.0
 62
     5
 63
     7
 74
     1
 91
        4
 64
     7
 65
   257
 75
     1
175
     1
 42
1.0
 92
        8
 66
     7
 43
1.0
 76
     1
 77
     6
 78
     2
 67
     7
 79
     5
170
     0
171
     0
290
     0
174
     0
 93
        1
 44
0.0
173
     0
291
     1
 45
0.0
1001
ACAD
1000
AcDbSavedByObjectVersion
1070
     0
  0
VISUALSTYLE
  5
F0
102
{ACAD_XDICTIONARY
360
99CB
102
}
102
{ACAD_REACTORS
330
EF
102
}
330
EF
100
AcDbVisualStyle
  2
Flat
 70
     0
 71
     2
 72
     1
 73
     1
 90
        2
 40
-0.6
 41
30.0
 62
     5
 63
     7
 74
     0
 91
        0
 64
     7
 65
   257
 75
     1
175
     1
 42
1.0
 92
        8
 66
     7
 43
1.0
 76
     1
 77
     6
 78
     2
 67
     7
 79
     5
170
     0
171
     0
290
     0
174
     0
 93
       13
 44
0.0
173
     0
291
     1
 45
0.0
1001
ACAD
1000
AcDbSavedByObjectVersion
1070
     0
  0
VISUALSTYLE
  5
F1
102
{ACAD_XDICTIONARY
360
99CD
102
}
102
{ACAD_REACTORS
330
EF
102
}
330
EF
100
AcDbVisualStyle
  2
FlatWithEdges
 70
     1
 71
     2
 72
     1
 73
     1
 90
        2
 40
-0.6
 41
30.0
 62
     5
 63
     7
 74
     1
 91
        0
 64
     7
 65
   257
 75
     1
175
     1
 42
1.0
 92
        0
 66
   257
 43
1.0
 76
     1
 77
     6
 78
     2
 67
     7
 79
     5
170
     0
171
     0
290
     0
174
     0
 93
       13
 44
0.0
173
     0
291
     1
 45
0.0
1001
ACAD
1000
AcDbSavedByObjectVersion
1070
     0
  0
VISUALSTYLE
  5
F2
102
{ACAD_XDICTIONARY
360
99CF
102
}
102
{ACAD_REACTORS
330
EF
102
}
330
EF
100
AcDbVisualStyle
  2
Gouraud
 70
     2
 71
     2
 72
     2
 73
     1
 90
        2
 40
-0.6
 41
30.0
 62
     5
 63
     7
 74
     0
 91
        0
 64
     7
 65
   257
 75
     1
175
     1
 42
1.0
 92
        0
 66
     7
 43
1.0
 76
     1
 77
     6
 78
     2
 67
     7
 79
     5
170
     0
171
     0
290
     0
174
     0
 93
       13
 44
0.0
173
     0
291
     1
 45
0.0
1001
ACAD
1000
AcDbSavedByObjectVersion
1070
     0
  0
VISUALSTYLE
  5
F3
102
{ACAD_XDICTIONARY
360
99D1
102
}
102
{ACAD_REACTORS
330
EF
102
}
330
EF
100
AcDbVisualStyle
  2
GouraudWithEdges
 70
     3
 71
     2
 72
     2
 73
     1
 90
        2
 40
-0.6
 41
30.0
 62
     5
 63
     7
 74
     1
 91
        0
 64
     7
 65
   257
 75
     1
175
     1
 42
1.0
 92
        0
 66
   257
 43
1.0
 76
     1
 77
     6
 78
     2
 67
     7
 79
     5
170
     0
171
     0
290
     0
174
     0
 93
       13
 44
0.0
173
     0
291
     1
 45
0.0
1001
ACAD
1000
AcDbSavedByObjectVersion
1070
     0
  0
VISUALSTYLE
  5
F7
102
{ACAD_XDICTIONARY
360
99D9
102
}
102
{ACAD_REACTORS
330
EF
102
}
330
EF
100
AcDbVisualStyle
  2
Hidden
 70
     6
 71
     1
 72
     2
 73
     2
 90
        0
 40
-0.6
 41
-30.0
 62
     5
 63
     7
 74
     2
 91
        2
 64
     7
 65
   257
 75
     2
175
     1
 42
40.0
 92
        0
 66
   257
 43
1.0
 76
     1
 77
     6
 78
     2
 67
     7
 79
     3
170
     0
171
     0
290
     0
174
     0
 93
        1
 44
0.0
173
     0
291
     0
 45
0.0
1001
ACAD
1000
AcDbSavedByObjectVersion
1070
     0
  0
VISUALSTYLE
  5
1E4
102
{ACAD_XDICTIONARY
360
99ED
102
}
102
{ACAD_REACTORS
330
EF
102
}
330
EF
100
AcDbVisualStyle
  2
JitterOff
 70
    20
 71
     2
 72
     2
 73
     0
 90
        0
 40
-0.6
 41
-30.0
 62
     5
 63
     7
 74
     1
 91
        4
 64
     7
 65
   257
 75
     1
175
     1
 42
1.0
 92
       10
 66
     7
 43
1.0
 76
     1
 77
     6
 78
     2
 67
     7
 79
     5
170
     0
171
     0
290
     0
174
     0
 93
        1
 44
0.0
173
     0
291
     1
 45
0.0
1001
ACAD
1000
AcDbSavedByObjectVersion
1070
     0
  0
VISUALSTYLE
  5
FD
102
{ACAD_XDICTIONARY
360
99E5
102
}
102
{ACAD_REACTORS
330
EF
102
}
330
EF
100
AcDbVisualStyle
  2
Linepattern
 70
    14
 71
     2
 72
     2
 73
     1
 90
        0
 40
-0.6
 41
-30.0
 62
     5
 63
     7
 74
     1
 91
        4
 64
     7
 65
   257
 75
     7
175
     7
 42
1.0
 92
        8
 66
     7
 43
1.0
 76
     1
 77
     6
 78
     2
 67
     7
 79
     5
170
     0
171
     0
290
     0
174
     0
 93
        1
 44
0.0
173
     0
291
     1
 45
0.0
1001
ACAD
1000
AcDbSavedByObjectVersion
1070
     0
  0
VISUALSTYLE
  5
1E5
102
{ACAD_XDICTIONARY
360
99EF
102
}
102
{ACAD_REACTORS
330
EF
102
}
330
EF
100
AcDbVisualStyle
  2
OverhangOff
 70
    21
 71
     2
 72
     2
 73
     0
 90
        0
 40
-0.6
 41
-30.0
 62
     5
 63
     7
 74
     1
 91
        4
 64
     7
 65
   257
 75
     1
175
     1
 42
1.0
 92
        9
 66
     7
 43
1.0
 76
     1
 77
     6
 78
     2
 67
     7
 79
     5
170
     0
171
     0
290
     0
174
     0
 93
        1
 44
0.0
173
     0
291
     1
 45
0.0
1001
ACAD
1000
AcDbSavedByObjectVersion
1070
     0
  0
VISUALSTYLE
  5
F9
102
{ACAD_XDICTIONARY
360
99DD
102
}
102
{ACAD_REACTORS
330
EF
102
}
330
EF
100
AcDbVisualStyle
  2
Realistic
 70
     8
 71
     2
 72
     2
 73
     0
 90
        2
 40
-0.6
 41
30.0
 62
     5
 63
     7
 74
     0
 91
        0
 64
     7
 65
   257
 75
     1
175
     1
 42
1.0
 92
        8
 66
   257
 43
1.0
 76
     1
 77
     6
 78
     2
 67
     7
 79
     3
170
     0
171
     0
290
     0
174
     0
 93
       13
 44
0.0
173
     0
291
     0
 45
0.0
1001
ACAD
1000
AcDbSavedByObjectVersion
1070
     0
  0
VISUALSTYLE
  5
1F3
102
{ACAD_XDICTIONARY
360
99FB
102
}
102
{ACAD_REACTORS
330
EF
102
}
330
EF
100
AcDbVisualStyle
  2
Shaded
 70
    27
 71
     2
 72
     2
 73
     1
 90
        2
 40
-0.6
 41
30.0
 62
     5
 63
     7
 74
     0
 91
        4
 64
     7
 65
   257
 75
     1
175
     1
 42
1.0
 92
        8
 66
   257
 43
1.0
 76
     1
 77
     6
 78
     2
 67
     8
 79
     3
170
     0
171
     0
290
     0
174
     0
 93
        5
 44
0.0
173
     0
291
     0
 45
0.0
1001
ACAD
1000
AcDbSavedByObjectVersion
1070
     0
  0
VISUALSTYLE
  5
1F2
102
{ACAD_XDICTIONARY
360
99F9
102
}
102
{ACAD_REACTORS
330
EF
102
}
330
EF
100
AcDbVisualStyle
  2
Shaded with edges
 70
    26
 71
     2
 72
     2
 73
     1
 90
        2
 40
-0.6
 41
30.0
 62
     5
 63
     7
 74
     1
 91
        2
 64
     7
 65
   257
 75
     2
175
     1
 42
1.0
 92
        8
 66
   257
 43
1.0
 76
     1
 77
     6
 78
     2
 67
     7
 79
     3
170
     0
171
     0
290
     0
174
     0
 93
        5
 44
0.0
173
     0
291
     0
 45
0.0
1001
ACAD
1000
AcDbSavedByObjectVersion
1070
     0
  0
VISUALSTYLE
  5
1EF
102
{ACAD_XDICTIONARY
360
99F3
102
}
102
{ACAD_REACTORS
330
EF
102
}
330
EF
100
AcDbVisualStyle
  2
Shades of Gray
 70
    23
 71
     2
 72
     2
 73
     3
 90
        0
 40
-0.6
 41
-30.0
 62
     5
 63
     7
 74
     2
 91
        2
 64
     7
 65
     7
 75
     1
175
     1
 42
40.0
 92
        8
 66
     7
 43
1.0
 76
     1
 77
     6
 78
     2
 67
     7
 79
     3
170
     0
171
     0
290
     0
174
     0
 93
        1
 44
0.0
173
     0
291
     0
 45
0.0
1001
ACAD
1000
AcDbSavedByObjectVersion
1070
     0
  0
VISUALSTYLE
  5
1F0
102
{ACAD_XDICTIONARY
360
99F5
102
}
102
{ACAD_REACTORS
330
EF
102
}
330
EF
100
AcDbVisualStyle
  2
Sketchy
 70
    24
 71
     1
 72
     2
 73
     2
 90
        0
 40
-0.6
 41
-30.0
 62
     5
 63
     7
 74
     2
 91
        2
 64
     7
 65
     7
 75
     1
175
     1
 42
40.0
 92
       11
 66
     7
 43
1.0
 76
     1
 77
     6
 78
     2
 67
     7
 79
     6
170
     0
171
     0
290
     0
174
     0
 93
        1
 44
0.0
173
     0
291
     0
 45
0.0
1001
ACAD
1000
AcDbSavedByObjectVersion
1070
     0
  0
VISUALSTYLE
  5
FC
102
{ACAD_XDICTIONARY
360
99E3
102
}
102
{ACAD_REACTORS
330
EF
102
}
330
EF
100
AcDbVisualStyle
  2
Thicken
 70
    13
 71
     2
 72
     2
 73
     1
 90
        0
 40
-0.6
 41
-30.0
 62
     5
 63
     7
 74
     1
 91
        4
 64
     7
 65
   257
 75
     1
175
     1
 42
1.0
 92
       12
 66
     7
 43
1.0
 76
     1
 77
     6
 78
     2
 67
     7
 79
     5
170
     0
171
     0
290
     0
174
     0
 93
        1
 44
0.0
173
     0
291
     1
 45
0.0
1001
ACAD
1000
AcDbSavedByObjectVersion
1070
     0
  0
VISUALSTYLE
  5
F6
102
{ACAD_XDICTIONARY
360
99D7
102
}
102
{ACAD_REACTORS
330
EF
102
}
330
EF
100
AcDbVisualStyle
  2
Wireframe
 70
     5
 71
     0
 72
     2
 73
     0
 90
        0
 40
-0.6
 41
-30.0
 62
     5
 63
     7
 74
     1
 91
        4
 64
     7
 65
   257
 75
     1
175
     1
 42
1.0
 92
        0
 66
   257
 43
1.0
 76
     1
 77
     6
 78
     2
 67
     7
 79
     3
170
     0
171
     0
290
     0
174
     0
 93
        1
 44
0.0
173
     0
291
     0
 45
0.0
1001
ACAD
1000
AcDbSavedByObjectVersion
1070
     0
  0
VISUALSTYLE
  5
1F1
102
{ACAD_XDICTIONARY
360
99F7
102
}
102
{ACAD_REACTORS
330
EF
102
}
330
EF
100
AcDbVisualStyle
  2
X-Ray
 70
    25
 71
     2
 72
     2
 73
     1
 90
        1
 40
0.5
 41
-30.0
 62
     5
 63
     7
 74
     1
 91
        0
 64
     7
 65
   257
 75
     1
175
     1
 42
1.0
 92
        8
 66
     7
 43
1.0
 76
     1
 77
     6
 78
     2
 67
     7
 79
     3
170
     0
171
     0
290
     0
174
     0
 93
       13
 44
0.0
173
     0
291
     0
 45
0.0
1001
ACAD
1000
AcDbSavedByObjectVersion
1070
     0
  0
DICTIONARYVAR
  5
146
102
{ACAD_REACTORS
330
5E
102
}
330
5E
100
DictionaryVariables
280
     0
  1
1:1
  0
DICTIONARYVAR
  5
259
102
{ACAD_REACTORS
330
5E
102
}
330
5E
100
DictionaryVariables
280
     0
  1
3.500000
  0
DICTIONARYVAR
  5
25A
102
{ACAD_REACTORS
330
5E
102
}
330
5E
100
DictionaryVariables
280
     0
  1
acadiso.lin
  0
DICTIONARYVAR
  5
145
102
{ACAD_REACTORS
330
5E
102
}
330
5E
100
DictionaryVariables
280
     0
  1
STANDARD
  0
DICTIONARYVAR
  5
84
102
{ACAD_REACTORS
330
5E
102
}
330
5E
100
DictionaryVariables
280
     0
  1
STANDARD
  0
DICTIONARYVAR
  5
227
102
{ACAD_REACTORS
330
5E
102
}
330
5E
100
DictionaryVariables
280
     0
  1
Metric50
  0
DICTIONARYVAR
  5
228
102
{ACAD_REACTORS
330
5E
102
}
330
5E
100
DictionaryVariables
280
     0
  1
Metric50
  0
DICTIONARYVAR
  5
5F
102
{ACAD_REACTORS
330
5E
102
}
330
5E
100
DictionaryVariables
280
     0
  1
2
  0
DICTIONARYVAR
  5
63
102
{ACAD_REACTORS
330
5E
102
}
330
5E
100
DictionaryVariables
280
     0
  1
1
  0
DICTIONARYVAR
  5
996C
102
{ACAD_REACTORS
330
5E
102
}
330
5E
100
DictionaryVariables
280
     0
  1
0
  0
DICTIONARYVAR
  5
1AE
102
{ACAD_REACTORS
330
5E
102
}
330
5E
100
DictionaryVariables
280
     0
  1
0
  0
DICTIONARYVAR
  5
1AF
102
{ACAD_REACTORS
330
5E
102
}
330
5E
100
DictionaryVariables
280
     0
  1
0
  0
DICTIONARYVAR
  5
996A
102
{ACAD_REACTORS
330
5E
102
}
330
5E
100
DictionaryVariables
280
     0
  1
2
  0
DICTIONARYVAR
  5
9969
102
{ACAD_REACTORS
330
5E
102
}
330
5E
100
DictionaryVariables
280
     0
  1
1
  0
DICTIONARYVAR
  5
99BC
102
{ACAD_REACTORS
330
5E
102
}
330
5E
100
DictionaryVariables
280
     0
  1
80.000000
  0
DICTIONARYVAR
  5
99BB
102
{ACAD_REACTORS
330
5E
102
}
330
5E
100
DictionaryVariables
280
     0
  1
5.000000
  0
DICTIONARYVAR
  5
996B
102
{ACAD_REACTORS
330
5E
102
}
330
5E
100
DictionaryVariables
280
     0
  1
127
  0
DICTIONARYVAR
  5
99BD
102
{ACAD_REACTORS
330
5E
102
}
330
5E
100
DictionaryVariables
280
     0
  1
2
  0
DICTIONARY
  5
99FF
330
21C
100
AcDbDictionary
280
     1
281
     1
  3
ACAD_XREC_ROUNDTRIP
360
9A00
  0
DICTIONARY
  5
99C4
330
D3
100
AcDbDictionary
280
     1
281
     1
  3
ACAD_XREC_ROUNDTRIP
360
99C5
  0
DICTIONARY
  5
99C6
330
D7
100
AcDbDictionary
280
     1
281
     1
  3
ACAD_XREC_ROUNDTRIP
360
99C7
  0
DICTIONARY
  5
99C1
330
22
100
AcDbDictionary
280
     1
281
     1
  3
ACAD_XREC_ROUNDTRIP
360
99C2
  0
DICTIONARY
  5
1F9
330
ED
100
AcDbDictionary
280
     1
281
     1
  3
ACAD_XREC_ROUNDTRIP
360
99C9
  3
FBXASSET
360
1FA
  0
DICTIONARY
  5
1F7
330
EC
100
AcDbDictionary
280
     1
281
     1
  3
ACAD_XREC_ROUNDTRIP
360
99C8
  3
FBXASSET
360
1F8
  0
DICTIONARY
  5
173
330
EE
100
AcDbDictionary
280
     1
281
     1
  3
ACAD_XREC_ROUNDTRIP
360
99CA
  3
BUMPTILE
360
175
  3
DIFFUSETILE
360
174
  3
FBXASSET
360
1FB
  3
OPACITYTILE
360
176
  3
REFLECTIONTILE
360
177
  0
DICTIONARY
  5
99EB
330
12E
100
AcDbDictionary
280
     1
281
     1
  3
ACAD_XREC_ROUNDTRIP
360
99EC
  0
DICTIONARY
  5
99FD
330
21A
100
AcDbDictionary
280
     1
281
     1
  3
ACAD_XREC_ROUNDTRIP
360
99FE
  0
DICTIONARY
  5
162
330
7F
100
AcDbDictionary
280
     1
281
     1
  3
ACAD_ROUNDTRIP_2008_TABLESTYLE_CELLSTYLEMAP
360
99BE
  3
ACAD_XREC_ROUNDTRIP
360
99C3
  0
DICTIONARY
  5
99D5
330
F5
100
AcDbDictionary
280
     1
281
     1
  3
ACAD_XREC_ROUNDTRIP
360
99D6
  0
DICTIONARY
  5
99D3
330
F4
100
AcDbDictionary
280
     1
281
     1
  3
ACAD_XREC_ROUNDTRIP
360
99D4
  0
DICTIONARY
  5
99E1
330
FB
100
AcDbDictionary
280
     1
281
     1
  3
ACAD_XREC_ROUNDTRIP
360
99E2
  0
DICTIONARY
  5
99E9
330
FF
100
AcDbDictionary
280
     1
281
     1
  3
ACAD_XREC_ROUNDTRIP
360
99EA
  0
DICTIONARY
  5
99DB
330
F8
100
AcDbDictionary
280
     1
281
     1
  3
ACAD_XREC_ROUNDTRIP
360
99DC
  0
DICTIONARY
  5
99DF
330
FA
100
AcDbDictionary
280
     1
281
     1
  3
ACAD_XREC_ROUNDTRIP
360
99E0
  0
DICTIONARY
  5
99F1
330
1E6
100
AcDbDictionary
280
     1
281
     1
  3
ACAD_XREC_ROUNDTRIP
360
99F2
  0
DICTIONARY
  5
99E7
330
FE
100
AcDbDictionary
280
     1
281
     1
  3
ACAD_XREC_ROUNDTRIP
360
99E8
  0
DICTIONARY
  5
99CB
330
F0
100
AcDbDictionary
280
     1
281
     1
  3
ACAD_XREC_ROUNDTRIP
360
99CC
  0
DICTIONARY
  5
99CD
330
F1
100
AcDbDictionary
280
     1
281
     1
  3
ACAD_XREC_ROUNDTRIP
360
99CE
  0
DICTIONARY
  5
99CF
330
F2
100
AcDbDictionary
280
     1
281
     1
  3
ACAD_XREC_ROUNDTRIP
360
99D0
  0
DICTIONARY
  5
99D1
330
F3
100
AcDbDictionary
280
     1
281
     1
  3
ACAD_XREC_ROUNDTRIP
360
99D2
  0
DICTIONARY
  5
99D9
330
F7
100
AcDbDictionary
280
     1
281
     1
  3
ACAD_XREC_ROUNDTRIP
360
99DA
  0
DICTIONARY
  5
99ED
330
1E4
100
AcDbDictionary
280
     1
281
     1
  3
ACAD_XREC_ROUNDTRIP
360
99EE
  0
DICTIONARY
  5
99E5
330
FD
100
AcDbDictionary
280
     1
281
     1
  3
ACAD_XREC_ROUNDTRIP
360
99E6
  0
DICTIONARY
  5
99EF
330
1E5
100
AcDbDictionary
280
     1
281
     1
  3
ACAD_XREC_ROUNDTRIP
360
99F0
  0
DICTIONARY
  5
99DD
330
F9
100
AcDbDictionary
280
     1
281
     1
  3
ACAD_XREC_ROUNDTRIP
360
99DE
  0
DICTIONARY
  5
99FB
330
1F3
100
AcDbDictionary
280
     1
281
     1
  3
ACAD_XREC_ROUNDTRIP
360
99FC
  0
DICTIONARY
  5
99F9
330
1F2
100
AcDbDictionary
280
     1
281
     1
  3
ACAD_XREC_ROUNDTRIP
360
99FA
  0
DICTIONARY
  5
99F3
330
1EF
100
AcDbDictionary
280
     1
281
     1
  3
ACAD_XREC_ROUNDTRIP
360
99F4
  0
DICTIONARY
  5
99F5
330
1F0
100
AcDbDictionary
280
     1
281
     1
  3
ACAD_XREC_ROUNDTRIP
360
99F6
  0
DICTIONARY
  5
99E3
330
FC
100
AcDbDictionary
280
     1
281
     1
  3
ACAD_XREC_ROUNDTRIP
360
99E4
  0
DICTIONARY
  5
99D7
330
F6
100
AcDbDictionary
280
     1
281
     1
  3
ACAD_XREC_ROUNDTRIP
360
99D8
  0
DICTIONARY
  5
99F7
330
1F1
100
AcDbDictionary
280
     1
281
     1
  3
ACAD_XREC_ROUNDTRIP
360
99F8
  0
XRECORD
  5
9A00
102
{ACAD_REACTORS
330
99FF
102
}
330
99FF
100
AcDbXrecord
280
     1
102
DISPLAYNAME
  1
Metric50
102
FLAGS
 90
        0
  0
XRECORD
  5
99C5
102
{ACAD_REACTORS
330
99C4
102
}
330
99C4
100
AcDbXrecord
280
     1
102
SHADEPLOT
 70
     0
102
SHADEPLOTRESLEVEL
 70
     2
102
SHADEPLOTCUSTOMDPI
 70
   300
  0
XRECORD
  5
99C7
102
{ACAD_REACTORS
330
99C6
102
}
330
99C6
100
AcDbXrecord
280
     1
102
SHADEPLOT
 70
     0
102
SHADEPLOTRESLEVEL
 70
     2
102
SHADEPLOTCUSTOMDPI
 70
   300
  0
XRECORD
  5
99C2
102
{ACAD_REACTORS
330
99C1
102
}
330
99C1
100
AcDbXrecord
280
     1
102
SHADEPLOT
 70
     0
102
SHADEPLOTRESLEVEL
 70
     2
102
SHADEPLOTCUSTOMDPI
 70
   300
  0
XRECORD
  5
99C9
102
{ACAD_REACTORS
330
1F9
102
}
330
1F9
100
AcDbXrecord
280
     1
102
MATERIAL
148
0.0
149
0.0
149
0.0
 93
        0
 94
       63
282
     0
 72
     1
 77
     1
171
     1
175
     1
179
     1
273
     0
  0
XRECORD
  5
1FA
102
{ACAD_REACTORS
330
1F9
102
}
330
1F9
100
AcDbXrecord
280
     1
 70
     1
 90
429727718
  1
D62C5603-E3A1-4AEA-B7FB-FE5D8D0755AF
310
504B03040A0000080000CC70623B3DEE336E79000000790000001B0000006175746F6465736B2D64657369676E2D7061636B6167652E786D6C3C3F786D6C2076657273696F6E3D22312E302220656E636F64696E673D227574662D3822203F3E3C666F726D6174733E3C666F726D61743E687474703A2F2F736368656D612E
310
6175746F6465736B2E636F6D2F64657369676E2D7061636B6167652F323030393C2F666F726D61743E3C2F666F726D6174733E504B0304140006080800CC70623BD486FD9CA0000000F4000000130000005B436F6E74656E745F54797065735D2E786D6C7D8EC10E82300C865F65E91D8A1E8C310C0EEA1BF002731658846E
310
D98AC1B77784ABF1D8FE5FBFBF75BBCE937A534CCEB38643598122B6FEE978D0B0485F9C41B54DDD7D022595594E1A469170414C76A4D9A4D207E29CF43ECE46F218070CC6BECC4078ACAA135ACF422C856C0E68EA1BF5669944DDD7BCDE7B1F8E415D77AECB980613C2E4AC91FC167A2B244592486606FC29C8FD7F045B9A
310
EF7053A7E60B504B0304140006080800CC70623B853B8169EB0000007C01000008000000636F72652E786D6C8D90416EC3201045AF62CDB6C206821CC7C244919D9CA01740401C94182C03558F5F9C3852BBEB6A467FFE9B197D7EFC9E1EC5975982F5AE035262288C535E5B377690E21535501C055FBC8FBF6C503839990E
310
5619041F179FE64D52DE45E362569DD7661365082642A11EB9E920A89B99642953CC8E702F67A9EE7234257977194EC9EAE275C4EABCCF5EAD5940D4AC6F0E35A568B8F43562CD7046CD199FD07E60174276A7BE677B5EADB0E0D14EEFFB6A31321A0D82627C4084204C3F096B71DD52F6819B16635EADF63F509AF53FA164
310
5DDCD1EDDD17164090FCC8732078B56691CB33A85CD7DCC40F504B0304140006080800CC70623B55019EA25F0000007C00000007000000636E782E786D6C4DCB3B0E80201045D1AD90E915ED2CF8AC45050C11660C8261F98AB1B07AC9C97D42D718D865D3E909258CFD00CCE24AC6E326A164D74DC0B4128928FF32603847
310
2BA13128B1252AC747C6BAB984FC68F0B87FE8960A5C09FE86CFB69FBA01504B0304140006080800CC70623BDBABAAF470010000D40300000C0000006662782F636F72652E786D6CC553D16E823014FD95A6AF4B694182CC941A83FA05FB810A9511A125A5257EFE2E82712ECEB8A7F100CD39F7F69E734AF9FADC366850B6
310
AF8DCE7018308C942E4C59EB2AC3DE1D498AD15A706B8CFB56869196ADCAF00863C12B6B7C374385D14E6907A836A59A41D9F7CA615434B0C8705F7CAA5606D23BA8E84F41278B93AC54100640439DE0BDB320004D43C63716C7C399D30917DCFBBA9CD9BA8469F5B156168B24CED3F7248AC8769F27244EB73B92EED8862C
310
B7F13E0C179B3C8F979C8ECD82BBBABDAA2BAC924E9558448CBD9330242CFA08E3154B5651FCC6D215639C8EE5774DBE2B5F6CF2B5768B68963BB5F5588420E442FC700B1139D4CB01F450C1E918227C2E09DF070D8140C84E1E9AAB8F1340832A9CB13130A5F1376A908D57309505ECF2A0DF179C4E9D30F5B239B87E3823
310
7A79C6F31DE1A8A5AEC08474B03C7837EAE4938639B44E5932B833D2C6B6B279CDC613877FA26EE21F4A2A4C63EC7F29A2F301D1F9F7A0E37D145F504B0304140006080800CC70623B9C113CC27E0000009D0000000B0000006662782F636E782E786D6C4DCCDF0A83201C86E15B91DFB94BFB330DD428C8FB886521330DA7
310
6397BF1A1DECE883878F57749FCDA1B7892F1BBC047A23808C7F84D9FA55424E0BE6803A256208E9EF06C84F9B91703228B1C690F78B66B34CD9A5439DF5CF0BFBF65E35BCA1B8D6A5C6F540381E886698B5741C695F9503EBA150A2F8958E3DC3EA0B504B0304140006080800CC70623B7DF2F77C2A010000120200003100
310
00006662782F41393633353835312D344632462D344230382D423046372D3739314545314133324237412F636F72652E786D6C8D51DB8EC22014FC15C2939B0D2DB4B45643319AE817EC0F6041255A68B86CFCFC856D4D76DF7CE190393373060EDB3DC707F856CE6B6B7A480A0C81328395DA5C7B18C3057510EC3873D686
310
3F34088C18550F330C39BB3A1BA7051AAC09CA84841A2BD5020AEF55806078A44B0FFD7053A328440C89E1EFC52486BBB8AA8214A99D789CF9E05200300FC927E4FB4D5B375D43103D5527440FB843077C5AA3F5861C8F645F5787F59E95B390B318B55CE45AA638FAA2957BD7248B390B7A7CC51F9C124149C82B8C378810
310
84AB2F42B7B8DD56F413775B8C5999E9FF4471926F8AA236A1AE96B8B3CC434E5839373893369E1FAF30EA395917409EB7F26AF8801C171837A4A6AC9C89E9F9C9B1A58BA30FD6A5EF5DDDCF894B9AD9B6A59C957943A9FCAE2FD5BC4DFE03504B0304140006080800CC70623BAD7543B64E01000033030000300000006662
310
782F41393633353835312D344632462D344230382D423046372D3739314545314133324237412F636E782E786D6CD593CD6EC32010845F0571AD6CE3D48AD20813A9873E410FBD12D82434182C7EAAE6EDBB2424CD25871E7B41D6EC30B3FA84F9E67BB2E40B4234DE8DB46F1925E094D7C6ED479AD3AE5951B2113C789FEE
310
6C943839C1488B4C05DF079FE72A69D8C96C13AAD6B8631503449F83828872B949AC57D26200B826A308D316B4064D6E46FCDA41C05550DC9E483A00797BFD207EFB092A45DE9514C1BBD22178396BD39D891265658C238DEA00936C654E5E433CB65A26D9F6EDB5EBC14EBF49A45CB856E66048291F6939A9A81BB5C89177
310
38143CA680F4AA299D66A042CEB3354A2684DC9D8D178FE0D9B8B41CAAD720F880EE7EF93C0C18769E099ECC04D5A102C8049A8A05632F4DDF376CF1DE0F6BB65C2F8627B65A33C6BB62177CEBBDAD973006829F89F22E814B54F4BC2BE347F8AA8F681390B50FA73F804400B5F542E796F19FF974E7F78DB802FE05E20750
310
4B0304140006080800CC70623BE75B7789680500003C100000340000006662782F41393633353835312D344632462D344230382D423046372D3739314545314133324237412F6F626A656374732E786D6CAD575B8F9B3818FD2B887D06C22499CB8AA1CA655245D5B455A356FB305264C061D8018C6C3393D95FBFC7600890
310
A4CD5EF210B0B1BFEBF98E3F7B1FF6596ABC522E1296DF9BAE3D320D9A872C4AF2F8DE2CE5CEBA358D0FBEC719939D65A691938CDE9B6ADAF4BD98B3B2D05311DD91329583D9D5FC0F438434A7A611A644887B5384CF34233629258BA878B12322891DEFF6B66BD70BFB62634E8AE781D082709A4B588AF91C528CDA28B73F
310
1C998EEF39EABBEFA97FBD6A7C7E9553F9D3D79FE442923C3C523610337627CB87ABE99D359D4CC6D6E4FACAB5E6ABF9D2726FC6A3C5F56271377BB88362213924694B38DD99FE47C48627A1E7D49F5A8BB5E1A74C0A599ED3B0F21F1E56366B89112D681E218F0915D0D6F17AD41FBA2A369DCF6335D62ABBD39779D5DDD1
310
11D4D8DE3CBB96B2E04FB8202E41051754A1AA8E8F76B4C6DFE810B580B1547F4B84911149794252234D024EF8BBE963A95AE27B3D310A9D5C215C7960FAEE415ED75694C6AFB17BCACA5D99A60A9AA65F217B0BFC53292ACB92BF283FAD0D3621576592CB5BED907C2FA8E9DF794E35E97BEA31BED21FEB401ABB94C44839
310
DCACBF0E1C5DA8DA5B2F4DFFD32AD86F543D9E565E7056502E157C00AD2671CD534549AB752FCA9CDA00677A313F04E51B22FF19E57B300579E3C97EB29F682D92935CEC18CF901B7B54FD8C51F362B56FC72FE0B3C1EAE335EDCCBF5AEC39ADB17DC238973F804BA5E6F6BFE7AF1FB32E523BE9F3BD571418E3631DCA4D48
310
5250CF639223210A9446CA30052EDF057BD35F8329C1ECD84552BF0DC8D18BE7BCE23BFE6BD960AB4A7DE79923A103BEBD80F911CBAA2C60DB19B01CF164A5583B772EE6D3FFA56666CBCDA74DC97724A48F9A58967497E489C4D979006FD7A05E227A1EBDD0F737C623387A9C844D3709995625106D157315F8B8392CD4E0
310
A0B9A720C4BE9829CEF37EA1E13111214D53925356365ADA634861B52519DD27A00AEB808EAF0628E6F435519D446F45CF2C9CF5214F0A15B2F6D06B79DA3EE3CBF7F56780D2F4E7EF73A0F5E5B02A38D07DC852C6B7C1FBB6664213E0C39E3EBA7FF4E1AD23EA2829407C85E586727488B751B2DB9502BC7B228A3FD68B6E
310
A65A22397E690AA8D158D7E404EC8CDA235CC3B7D1898680131CEC2CDF2638C65196279577750F15884AEE19F94199155B92B13297978469D4F8D358DF0AEF7631E28DC8F0D9F437D5D39A83B2231A1D52D543813A824EF8D44BCFF2FA6A31BD1E8DAD87F1CCB526B3879935BF59CDADD5C37479BB1CDD4CA7B3556B516589
310
EF352754B706114D9C885EC9131DE6EFEB43D99AFE2391C2F958179413D7CFEF6B1B6DB1E7600F00DE6E5C67454A339A4BA2E0FBA85ED26F045D454F463DBFCE484C2F90F2E5E3666003662ED8F755951A7D1BECD5B30B550B2785C8E7320B7292A4838DDA71BBC863ED7613CAF659337A3354231D4FF4A182A54904C2898C
310
98B28C4AD0CE056CCF332A80986E571EE9DBC305BB5FEB7E509220A58D25CF042D712A806AC0AD0C657FDEF80D2D9CEAA2EE4D1C76F60BFE74219A06527D6F82DF6412526107381E55E353090704D085B52408A8913C4ED159D79BDA71BB4BC506F4831350EB6F975CD22D69BF7AC49B91A2C0A9DDA3D5CA36AD20FC478E37
310
E61844E2352865EBCB61A275A65283CAAA9DD27703B4102F5AF51EF5F573B75CBB5AD38BC845F7A49F82A0966A49C2E3EA5EA0ECD326CD965F1DB402C6FA8B51A4658C5C5E2EC9E214602E55810345408596591009A82E7E7FFACA19EEA299B14A0081A705CB3296EBC14CDF658DCD336EA6D1136881AAEB87B81AB9EE53D5
310
F5EB8BC8362082DA24122F98680A4E7930C01A0079749CEA14382A0783E5EBA5A10F8C098456A03D6A4AEB6BB881E2513747552A5DB22C7EDAF83BD5528081A365F7FF06504B0304140006080000CC70623B000000000000000000000000350000006662782F41393633353835312D344632462D344230382D423046372D37
310
39314545314133324237412F76657274696365732E62696E504B0304140006080800CC70623BF270F1330600000004000000360000006662782F41393633353835312D344632462D344230382D423046372D3739314545314133324237412F747269616E676C65732E62696E636660600000504B0304140006080000CC7062
310
3B000000000000000000000000370000006662782F41393633353835312D344632462D344230382D423046372D3739314545314133324237412F617474726962757465732E62696E504B0304140006080800CC70623B08DA0BD19000000041010000360000006662782F41393633353835312D344632462D344230382D4230
310
46372D3739314545314133324237412F6469726563746F72792E786D6C858F410AC3201045AF22B36F53E9A60B35CBEEBAE80D244E44489C6234F4F835464A48035D0DF398FF9F8AF63D0E6CC63039F212F8F9020C7D47C6792B21C5FE7403D62A1188E2E60C98D7234A5830286103A55745067B9D86B8A3CF9C7F90C11DE6
310
07FB144396D7B6A82D282E9A152AD114D5EF2CB866EEE831B8EEA07A7BB5A8D7D61A2BAAEB7FD5F70921FF497D00504B0304140006080800CC70623BEDD1DC58FD000000A00100003B0000006662782F41393633353835312D344632462D344230382D423046372D3739314545314133324237412F7265736F75726365732F
310
636F72652E786D6C8D504B6E833010BD0A9A6D65B00922041947112427E8052C33A156828DFCA97AFC9A40A576D7CDCCE87D344F8F9FBFE667F689CE6B6B3A6039850C8DB2A336530731DC4903D95970676DF82583CCC8193B5861107C72362E3BA4AC096842428D1D7107A5F7182053CF7474E0D507CE32973124857FE48B
310
540F3961CEF244279DE03EB81420DB9EAC1384436FA353E879B1B182C7A8C75DA3C7F453DF353A1075D537A7BA6464B8F535A99AE14A9A2BBD90E350DD183B5CFABE3AF262350B1EF4FC9351399401471025A527C218A1E53BAB5A5AB765F5469B96525EACF23FA6B88CFF34456DC2A1DCE36E360F82A5202F42F062ED2BAD
310
579969AFDD8A6F504B010214000A0000080000CC70623B3DEE336E79000000790000001B00000000000000000000000000000000006175746F6465736B2D64657369676E2D7061636B6167652E786D6C504B01021400140006080800CC70623BD486FD9CA0000000F40000001300000000000000000000000000B20000005B
310
436F6E74656E745F54797065735D2E786D6C504B01021400140006080800CC70623B853B8169EB0000007C010000080000000000000000000000000083010000636F72652E786D6C504B01021400140006080800CC70623B55019EA25F0000007C000000070000000000000000000000000094020000636E782E786D6C504B
310
01021400140006080800CC70623BDBABAAF470010000D40300000C00000000000000000000000000180300006662782F636F72652E786D6C504B01021400140006080800CC70623B9C113CC27E0000009D0000000B00000000000000000000000000B20400006662782F636E782E786D6C504B01021400140006080800CC70
310
623B7DF2F77C2A010000120200003100000000000000000000000000590500006662782F41393633353835312D344632462D344230382D423046372D3739314545314133324237412F636F72652E786D6C504B01021400140006080800CC70623BAD7543B64E010000330300003000000000000000000000000000D2060000
310
6662782F41393633353835312D344632462D344230382D423046372D3739314545314133324237412F636E782E786D6C504B01021400140006080800CC70623BE75B7789680500003C10000034000000000000000000000000006E0800006662782F41393633353835312D344632462D344230382D423046372D3739314545
310
314133324237412F6F626A656374732E786D6C504B01021400140006080000CC70623B0000000000000000000000003500000000000000000000000000280E00006662782F41393633353835312D344632462D344230382D423046372D3739314545314133324237412F76657274696365732E62696E504B01021400140006
310
080800CC70623BF270F133060000000400000036000000000000000000000000007B0E00006662782F41393633353835312D344632462D344230382D423046372D3739314545314133324237412F747269616E676C65732E62696E504B01021400140006080000CC70623B0000000000000000000000003700000000000000
310
000000000000D50E00006662782F41393633353835312D344632462D344230382D423046372D3739314545314133324237412F617474726962757465732E62696E504B01021400140006080800CC70623B08DA0BD1900000004101000036000000000000000000000000002A0F00006662782F41393633353835312D344632
310
462D344230382D423046372D3739314545314133324237412F6469726563746F72792E786D6C504B01021400140006080800CC70623BEDD1DC58FD000000A00100003B000000000000000000000000000E1000006662782F41393633353835312D344632462D344230382D423046372D3739314545314133324237412F7265
310
736F75726365732F636F72652E786D6C504B0506000000000E000E0080040000641100000000
  0
XRECORD
  5
99C8
102
{ACAD_REACTORS
330
1F7
102
}
330
1F7
100
AcDbXrecord
280
     1
102
MATERIAL
148
0.0
149
0.0
149
0.0
 93
        0
 94
       63
282
     0
 72
     1
 77
     1
171
     1
175
     1
179
     1
273
     0
  0
XRECORD
  5
1F8
102
{ACAD_REACTORS
330
1F7
102
}
330
1F7
100
AcDbXrecord
280
     1
 70
     1
 90
429727718
  1
30362254-06B7-45E0-A893-8CFA70E3D6BC
310
504B03040A0000080000CC70623B3DEE336E79000000790000001B0000006175746F6465736B2D64657369676E2D7061636B6167652E786D6C3C3F786D6C2076657273696F6E3D22312E302220656E636F64696E673D227574662D3822203F3E3C666F726D6174733E3C666F726D61743E687474703A2F2F736368656D612E
310
6175746F6465736B2E636F6D2F64657369676E2D7061636B6167652F323030393C2F666F726D61743E3C2F666F726D6174733E504B0304140006080800CC70623BD486FD9CA0000000F4000000130000005B436F6E74656E745F54797065735D2E786D6C7D8EC10E82300C865F65E91D8A1E8C310C0EEA1BF002731658846E
310
D98AC1B77784ABF1D8FE5FBFBF75BBCE937A534CCEB38643598122B6FEE978D0B0485F9C41B54DDD7D022595594E1A469170414C76A4D9A4D207E29CF43ECE46F218070CC6BECC4078ACAA135ACF422C856C0E68EA1BF5669944DDD7BCDE7B1F8E415D77AECB980613C2E4AC91FC167A2B244592486606FC29C8FD7F045B9A
310
EF7053A7E60B504B0304140006080800CC70623B1EC5D7A3EB0000007C01000008000000636F72652E786D6C8D90416EC3201045AF82665B6103C6756C6122AB4D4ED00B204C5C94182C03558F5F9C3852BBEB6A467FFE9B197D71FC9E6FE8CBACC17AD7032D0820E3B41FAD9B7A48F1820F808E52ACDEC75F36404ECDA687
310
4D0629A6D5A76597B477D1B89855E747B38B2A041301E95B6E7A08FAD3CCAA50296647B8168BD2573599823EBB0CA76447F43862C7BCCF5EAC59410E4DDD9C7973C2755553CCCFA4C603E3040F1565ED3B1FDE4E432BCA0D9622DAF9795FAF464533826484B498524CD807E51D79ED187F21878E10516EF63F505AC67F42C9
310
BA58B1FDDD071640D2FCC87D2045B96591CB3DA85CB7DCE40F504B0304140006080800CC70623B55019EA25F0000007C00000007000000636E782E786D6C4DCB3B0E80201045D1AD90E915ED2CF8AC45050C11660C8261F98AB1B07AC9C97D42D718D865D3E909258CFD00CCE24AC6E326A164D74DC0B4128928FF32603847
310
2BA13128B1252AC747C6BAB984FC68F0B87FE8960A5C09FE86CFB69FBA01504B0304140006080800CC70623B8C9102E971010000D40300000C0000006662782F636F72652E786D6CC5535B6E833010BC8AE5DF0A6C08340F1947A84D4ED00B38C6A128602363A31CBFCB234A53A551FA553EC09AD9F5CE8C31DB9E9B1AF5CA
310
7695D1198E428A91D2D214952E33ECDD315861B4E5CC1AE3BE9561A445A3323CC098B3D21ADFCE9034DA29ED00D5A6503328BA4E398C640D8B0C77F253352214DE4145770A5B214FA2546114020D759C75CE8200340D19DE981F0F6746269C33EFAB6266AB02A655C74A59CCF365BADC27CB5D902ED22848F6340DF238A141
310
BE88E2F57B92BFEDF23523433367AE6A2EEAA455C2A902F398D2751045018D3FA264435F3771F242571B4A1919CA6F9A7C5B3CD9E42BED16F12C776AEB308F40C848FC700B1139D4891EF410CEC810227CC6846F8386402064270EF5C5C709A05E49676C024C61FC95EA45ED154CA5211D1FF4FB8291A913A68E9B83EBBB33
310
E2A7673CDE118E5AE8124C0807CB8377834E366998436B950D7A7746DAD846D4CFD978E0F04FD455FC5D49D2D4C6FE9722321F10997F0F32DC47FE05504B0304140006080800CC70623BFFEA85907E0000009D0000000B0000006662782F636E782E786D6C4DCCD10A83201886E15B91FFDC95D95A811AB6F23E625948A6C3
310
E9D8E5AF46073BFAE0E1E365ED67B3E8ADC3CB78C7815C7240DA3DFC64DCC221C519D7805AC182F7F1EF06C88D9BE6703008B6049F9E274D7A1E938DBB5AE3D6131B2589BA0D3D965551E0B2EA732C9B9A624AAEB41E3A557677029960D9AFB4EF11165F504B0304140006080800CC70623B4FEEA4082C0100001202000031
310
0000006662782F39464131463745442D413632322D343644302D413938332D3331353338454246344243312F636F72652E786D6C8D515B6EC32010BC0AE2AB55850DD871ED0813254D72825EC00192A2C460F1A872FC42ED48ED5F7E00CDCECCCEB26C731F6FE05B39AFADE921293004CA082BB5B9F43086336A21D870E6AC
310
0D7F68109861543DCC30E4ECE26C9C164858139409093556AA051CBC570102714B8F1E7AF1A5C6A11862480C7F2DA6415C878B2A4891CA89C7990F2E050073937C42DE1DB7E4F87ED8A36D4329AA9B3D46DBAEAD504556557BD81DEBDD0761E52CE42C462D17B996298E3E6BE59E35C962CE821E1FF18553435012728A7187
310
0841987E927A8D9B35ADDF70BBC6989599FE4F1427F9A4286A132ABAC49D651EF234CD5CE04CDA78BA3DC2A8FB645D00B9DF8B57E215725C60BCA2A463E54C4CE327C7A65E1C7DB02E7DEFCBF594B864C5CA6CDBD49C957943E9FA5D5FBAF336F90F504B0304140006080800CC70623BAD7543B64E01000033030000300000
310
006662782F39464131463745442D413632322D343644302D413938332D3331353338454246344243312F636E782E786D6CD593CD6EC32010845F0571AD6CE3D48AD20813A9873E410FBD12D82434182C7EAAE6EDBB2424CD25871E7B41D6EC30B3FA84F9E67BB2E40B4234DE8DB46F1925E094D7C6ED479AD3AE5951B2113C
310
789FEE6C943839C1488B4C05DF079FE72A69D8C96C13AAD6B8631503449F83828872B949AC57D26200B826A308D316B4064D6E46FCDA41C05550DC9E483A00797BFD207EFB092A45DE9514C1BBD22178396BD39D891265658C238DEA00936C654E5E433CB65A26D9F6EDB5EBC14EBF49A45CB856E66048291F6939A9A81BB5
310
C8917738143CA680F4AA299D66A042CEB3354A2684DC9D8D178FE0D9B8B41CAAD720F880EE7EF93C0C18769E099ECC04D5A102C8049A8A05632F4DDF376CF1DE0F6BB65C2F8627B65A33C6BB62177CEBBDAD973006829F89F22E814B54F4BC2BE347F8AA8F681390B50FA73F804400B5F542E796F19FF974E7F78DB802FE05
310
E207504B0304140006080800CC70623B16AB87BA640500003C100000340000006662782F39464131463745442D413632322D343644302D413938332D3331353338454246344243312F6F626A656374732E786D6CAD575B6FA33818FD2B887DE6924B3BED8A326A92B68A663B534DD4D13E548A0C38942D60649B369D5FBFC7
310
600890A493BDE42160637FD7F31D7FF63E6FB3D478A55C242CBF3247B66B1A340F5994E4F19559CA8D75611A9F7D8F33263BCB4C232719BD32D5B4E97B316765A1A722BA21652A07B3B7B33F0D11D29C9A46981221AE4C113ED38CD8A4942CA2E2C58E882476BCD9DA23BB5ED8171B73523C0F841684D35CC252CCE79062D4
310
468DFA43D7747CCF51DF7D4FFDEB5593E3AB9CCA9FBEFE241792E4E19EB28198C968BAB8199F5D5A67D3E9C49A9E8F47D6EC76B6B0469F26EEFC7C3EBFBCBEB98462213924694B38DD98FE1D62C393D073EA4FADC5DAF04326852CCF6958F90F0F2B9BB5C48816348F90C7840A68EB78EDF68723159BCEE7891A6B95DDE9D3
310
BCEAEEE8086A6C6F9E5D4B59F0175C10A7A0820BAA5055C7473B5AE3CFDD452D602CD5DF12616444529E90D448938013FE6EFA58AA96F85E4F8C42275708571E98FE6827AF6B2B4AE3D7D83D64E5A64C53054DD3AF90BD06FEA9149565C94FCA0F6B834DC85599E4F2423B24DF0B6AFA979E534DFA9E7A4CC6FA631D486393
310
921829879BF5D781A373557BCB85E97FB90DB62B558F8795179C15944B051F40AB495CF35451D26A4727654E6D8033BD98EF82F21D91FF8AF2DD9982BCF1643BDD4EB516C9492E368C67C88DED563FC36D5EACF66DFF057C3658BDBFA69DF9578B3DA735B64F18C7F20770A9D45CFCF7FCF563D6456A277DBEF78A02637CA2
310
43B90A490AEAB94F72244481D24819A6C0E59B606BFA4B3025981DBB48EAB701D97BF19C577CC77F2D1B6C55A9EF3C732474C0B727303F625995056C3B02963D9EAC146BE78EC5FCEC7FA999EBC5EACBAAE41B12D27B4D2C0BBA49F244E2ECDC81B76B502F113D8F5EE8FB1BE3111CDD4FC2AA9B844CAB1288B68AB90A7CDC
310
1C166AB0D3DC5310625FCC14E779BFD0709F8890A629C9292B1B2DED31A4B0DA928CEE135085754027E3018A397D4D5427D15BD1330B677DC8934285AC3DF45A9EB68FF8F2B8FC0A509AFEECFD0FF2DE25CC6047F7214B195F07EFEB9A094D800F7BFAE8FED187B78EA8A3A400F115961BCAD1215E47C966530AF0EE8128FE
310
58CEBB996A8964FFA529A046635D9353B0336A8F700DDF46271A024E70B0B37C9DE01847591E54DED53D54202AB947E4076556AC49C6CA5C9E1226B7F1A7B1BE15DEED62C41B91E1B3E9AFAAA735036547343A925075041DF0A9979E893B391F8FCFA6967B3EFB644DCF6E5CEBFAE272625DCC6FAF3FB93793C5F90CE1EF57
310
407342756B10D1C489E8953CD1617E5CEECAD6F4EF8914CE5D5D504E5C3F1F9736DA62CFC11E00BCDDB8CC8A9466349744C1F75EBDA4DF09BA8A9E8C7A7E9991989E20E5DBDD6A6003664ED8F7A04A8DBE0DF6EAD9B9AA858342E47399053949D2C146EDB85DE4B176BB0965FBAC19BD19AA918E27FA50C1D22402E144464C
310
59462568E704B6E71915404CB72B8FF4EDE184DDAF753F284990D2C6926782963815403548A70C657FDEF80D2D9CEAA2AE4C1C76F60BFE74219A06527D6582DF6412526107381E55E353090704D085B52408D0933C4ED159D79BDA71BB4BC506F4831350EB6F979CD22D69BF7AC49B91A2C0A9DDA3D5CA36AD20FC478E37E6
310
1844E2352865EBCB6EA275A652E3836BE04EFB400BF1A2556F515F1FBB35B2AB35BD889C744FFA1004B5544B121E57F70215746DD2F5E2C1412B602CBF19455AC6C8E5E9922C4E01E65215385004546899059180EAFCF7A707CE7017CD8CDB0410789AB32C63B91E5CEBBBACB17AC6CD347A022D5075FD106377347AAABA7E
310
7D11590744509B44E205134DC1290F06580320F78E537D3D73540E06CB970B431F185308AD40BBD794D6D77003C5A36E8EAA54BA64597CD8F83BD552A080A365F7FF06504B0304140006080000CC70623B000000000000000000000000350000006662782F39464131463745442D413632322D343644302D413938332D3331
310
353338454246344243312F76657274696365732E62696E504B0304140006080800CC70623BF270F1330600000004000000360000006662782F39464131463745442D413632322D343644302D413938332D3331353338454246344243312F747269616E676C65732E62696E636660600000504B0304140006080000CC70623B
310
000000000000000000000000370000006662782F39464131463745442D413632322D343644302D413938332D3331353338454246344243312F617474726962757465732E62696E504B0304140006080800CC70623B08DA0BD19000000041010000360000006662782F39464131463745442D413632322D343644302D413938
310
332D3331353338454246344243312F6469726563746F72792E786D6C858F410AC3201045AF22B36F53E9A60B35CBEEBAE80D244E44489C6234F4F835464A48035D0DF398FF9F8AF63D0E6CC63039F212F8F9020C7D47C6792B21C5FE7403D62A1188E2E60C98D7234A5830286103A55745067B9D86B8A3CF9C7F90C11DE607
310
FB144396D7B6A82D282E9A152AD114D5EF2CB866EEE831B8EEA07A7BB5A8D7D61A2BAAEB7FD5F70921FF497D00504B0304140006080800CC70623B0D6EF93BFE000000A00100003B0000006662782F39464131463745442D413632322D343644302D413938332D3331353338454246344243312F7265736F75726365732F63
310
6F72652E786D6C8D50596E833010BD0A9ADFCA60B334011947A8694ED00B586642AC041B79A97AFC9A40A5F6AF3F33A3B7689E1E3F7DCD8FEC139DD7D6F4C0720A191A65476DA61E62B892236427C19DB5E1970C322367EC618541F0C9D9B8EC90B226A009093576C41D94DE63804C3DD2D18357379C652E63480A7FCF17A9
310
EE72C29CE5894E3AC17D702940B63D59270887DE46A7D0F36263058F518FBB468FE9A7BE6A7420864373B8D4873369AA8691FA421B3294352543C5CAF65C0F6FEF43CB8BD52C78D0F34F46E550061C419494B6843142CB0F5677F4B52BEB177AEC28E5C52AFF638ACBF84F53D42654E51E77B379102C05791282176B5F693D
310
CB4C7BED567C03504B010214000A0000080000CC70623B3DEE336E79000000790000001B00000000000000000000000000000000006175746F6465736B2D64657369676E2D7061636B6167652E786D6C504B01021400140006080800CC70623BD486FD9CA0000000F40000001300000000000000000000000000B20000005B
310
436F6E74656E745F54797065735D2E786D6C504B01021400140006080800CC70623B1EC5D7A3EB0000007C010000080000000000000000000000000083010000636F72652E786D6C504B01021400140006080800CC70623B55019EA25F0000007C000000070000000000000000000000000094020000636E782E786D6C504B
310
01021400140006080800CC70623B8C9102E971010000D40300000C00000000000000000000000000180300006662782F636F72652E786D6C504B01021400140006080800CC70623BFFEA85907E0000009D0000000B00000000000000000000000000B30400006662782F636E782E786D6C504B01021400140006080800CC70
310
623B4FEEA4082C0100001202000031000000000000000000000000005A0500006662782F39464131463745442D413632322D343644302D413938332D3331353338454246344243312F636F72652E786D6C504B01021400140006080800CC70623BAD7543B64E010000330300003000000000000000000000000000D5060000
310
6662782F39464131463745442D413632322D343644302D413938332D3331353338454246344243312F636E782E786D6C504B01021400140006080800CC70623B16AB87BA640500003C1000003400000000000000000000000000710800006662782F39464131463745442D413632322D343644302D413938332D3331353338
310
454246344243312F6F626A656374732E786D6C504B01021400140006080000CC70623B0000000000000000000000003500000000000000000000000000270E00006662782F39464131463745442D413632322D343644302D413938332D3331353338454246344243312F76657274696365732E62696E504B01021400140006
310
080800CC70623BF270F133060000000400000036000000000000000000000000007A0E00006662782F39464131463745442D413632322D343644302D413938332D3331353338454246344243312F747269616E676C65732E62696E504B01021400140006080000CC70623B0000000000000000000000003700000000000000
310
000000000000D40E00006662782F39464131463745442D413632322D343644302D413938332D3331353338454246344243312F617474726962757465732E62696E504B01021400140006080800CC70623B08DA0BD190000000410100003600000000000000000000000000290F00006662782F39464131463745442D413632
310
322D343644302D413938332D3331353338454246344243312F6469726563746F72792E786D6C504B01021400140006080800CC70623B0D6EF93BFE000000A00100003B000000000000000000000000000D1000006662782F39464131463745442D413632322D343644302D413938332D3331353338454246344243312F7265
310
736F75726365732F636F72652E786D6C504B0506000000000E000E0080040000641100000000
  0
XRECORD
  5
99CA
102
{ACAD_REACTORS
330
173
102
}
330
173
100
AcDbXrecord
280
     1
102
MATERIAL
148
0.0
149
0.0
149
0.0
 93
        0
 94
       63
282
     0
 72
     1
 77
     1
171
     1
175
     1
179
     1
273
     0
  0
XRECORD
  5
175
102
{ACAD_REACTORS
330
173
102
}
330
173
100
AcDbXrecord
280
     1
270
     1
271
     1
  0
XRECORD
  5
174
102
{ACAD_REACTORS
330
173
102
}
330
173
100
AcDbXrecord
280
     1
270
     1
271
     1
  0
XRECORD
  5
1FB
102
{ACAD_REACTORS
330
173
102
}
330
173
100
AcDbXrecord
280
     1
 70
     0
 90
1673772943
  1
ECE7A1D2-D628-4531-984C-D00F80459256
310
504B03040A0000080000CC70623B3DEE336E79000000790000001B0000006175746F6465736B2D64657369676E2D7061636B6167652E786D6C3C3F786D6C2076657273696F6E3D22312E302220656E636F64696E673D227574662D3822203F3E3C666F726D6174733E3C666F726D61743E687474703A2F2F736368656D612E
310
6175746F6465736B2E636F6D2F64657369676E2D7061636B6167652F323030393C2F666F726D61743E3C2F666F726D6174733E504B0304140006080800CC70623BD486FD9CA0000000F4000000130000005B436F6E74656E745F54797065735D2E786D6C7D8EC10E82300C865F65E91D8A1E8C310C0EEA1BF002731658846E
310
D98AC1B77784ABF1D8FE5FBFBF75BBCE937A534CCEB38643598122B6FEE978D0B0485F9C41B54DDD7D022595594E1A469170414C76A4D9A4D207E29CF43ECE46F218070CC6BECC4078ACAA135ACF422C856C0E68EA1BF5669944DDD7BCDE7B1F8E415D77AECB980613C2E4AC91FC167A2B244592486606FC29C8FD7F045B9A
310
EF7053A7E60B504B0304140006080800CC70623BD9DDAED0EC0000007C01000008000000636F72652E786D6C8D90416EC3201045AF82665B61836D9CD8C2444DD39CA01740405C94182C03558F5F9C3852BBEB6A467FFE9B197D7EF89E6EE8CB2CC17A37002D0820E394D7D68D03A478C17B4007C117EFE32F1B20272733C0
310
2A83E0E3E2D3BC49CABB685CCCAAF3DA6CA20CC14440EA969B0182FA34932C648AD911AEC52CD5558EA6A0CF2EC329598D1E47ACCEFBECC59A050463A7EA5833865FEBDD0E37353BE3EE8DBDE3F6786A48D375FBF6CC78B9C282473B3DEFABC5C86834888A900E538A49F5419B9EB47DD5BC907D4F082F57FB1F28CDFA9F50
310
B22ED6D5F6EE030B20687EE43E10BC5CB3C8E51E54AE6B6EE207504B0304140006080800CC70623B55019EA25F0000007C00000007000000636E782E786D6C4DCB3B0E80201045D1AD90E915ED2CF8AC45050C11660C8261F98AB1B07AC9C97D42D718D865D3E909258CFD00CCE24AC6E326A164D74DC0B4128928FF326038
310
472BA13128B1252AC747C6BAB984FC68F0B87FE8960A5C09FE86CFB69FBA01504B0304140006080800CC70623BA24EB22D72010000D40300000C0000006662782F636F72652E786D6CC5535B6E833010BC8AE5DF0A6C5E49888CA3A6694ED00B38E05014B091B1518EDFE511A5A9D228FD2A1F60CDEC7A67C6986DCE4D8D7A
310
69BA4AAB0C073EC548AA5C17952A33ECECD15B61B4E1CC686DBF9561A44423333CC098B3D268D7CE50AE9595CA02AA74216750749DB418E5352C32DCE59FB211BE70162ABA93DF8AFC244AE9073ED050C759670D0840D390E18DF9F1706664C23973AE2A66B62A605A75ACA4C13C4976E1364A12EF355A2EBD384AF65EFA96
310
BC7B8BED2EA6719AAE16FB8491A199335B351775B991C2CA02F390D2D40B028F861F41BCA68B7518BFD0D59A524686F29B26D7164F36B94AD9289CE54E6D1DE6010819891F6E21228B3AD1831EC219194284CF98F06DD01008846CC5A1BEF83801D4CBDC6A1303536877A57A513B0953A94FC707FDBE6064EA84A9E3E6E0FA
310
EE8CF0E9198F7784A316AA0413C2C2F2E0ECA0934D1AE6D05A69BCDE9E91D2A611F573361E38FC1375157F5752AE6B6DFE4B11990F88CCBF0719EE23FF02504B0304140006080800CC70623B408A7D3B7C0000009D0000000B0000006662782F636E782E786D6C4DCCD10A83201886E15B91FFDC552A92A0064DBC8F581632
310
D3703A76F9ABD1C18E3E78F878E5F0D9027ABBFCF2292AE86E2D20171F69F6715550CB827B40839639A5F2770314A7CD293819B45C73AAFB45B35BA61ACAA1C1C7E7855C58C15BC331339661262CC762340413D68D77DA5B42298546CBE6573AF60CEB2F504B0304140006080800CC70623B449FB9BD290100001202000031
310
0000006662782F36394639363044362D344446342D343946362D394244322D3234314243333846323333332F636F72652E786D6C8D515B6EC32010BC0AE22B55850D98B871848994463E412FE002495162B07854397EA176A4F62F3F2C9A9D991D587EB84F37F0AD7D30CEF6905418026DA553C65E7A98E219ED203808EE9D
310
8B7F6810D871D23D2C3014FCE25D9A57483A1BB58D19B54EE9151C43D0110279CB971E06F9A5A7B11A53CC8C70ADE6515EC78BAE4895DB992778883E0700CB907242D17643D7E2538BD869608875438BBAE38922CAC8F1BDD90DB4691A5E2F42C153326A951B95E398B3D1FE599322163C9AE9115F7A3D46ADA0A018778810
310
84E907617BDCEE297BC5BB3DC6BC2EF47FA234AB2745C9D8D8D035EE220B50105E2F0DC1954B9FB747187D9F9D8FA0CCDB042D5FA0C015C65B42DF78BD10F3F3B363CB56C7109DCFDFBBB97E662ED92EB62D13BC2E1BCAE5777DB9966D8A1F504B0304140006080800CC70623BAD7543B64E01000033030000300000006662
310
782F36394639363044362D344446342D343946362D394244322D3234314243333846323333332F636E782E786D6CD593CD6EC32010845F0571AD6CE3D48AD20813A9873E410FBD12D82434182C7EAAE6EDBB2424CD25871E7B41D6EC30B3FA84F9E67BB2E40B4234DE8DB46F1925E094D7C6ED479AD3AE5951B2113C789FEE
310
6C943839C1488B4C05DF079FE72A69D8C96C13AAD6B8631503449F83828872B949AC57D26200B826A308D316B4064D6E46FCDA41C05550DC9E483A00797BFD207EFB092A45DE9514C1BBD22178396BD39D891265658C238DEA00936C654E5E433CB65A26D9F6EDB5EBC14EBF49A45CB856E66048291F6939A9A81BB5C89177
310
38143CA680F4AA299D66A042CEB3354A2684DC9D8D178FE0D9B8B41CAAD720F880EE7EF93C0C18769E099ECC04D5A102C8049A8A05632F4DDF376CF1DE0F6BB65C2F8627B65A33C6BB62177CEBBDAD973006829F89F22E814B54F4BC2BE347F8AA8F681390B50FA73F804400B5F542E796F19FF974E7F78DB802FE05E20750
310
4B0304140006080800CC70623B8D05915C650500003B100000340000006662782F36394639363044362D344446342D343946362D394244322D3234314243333846323333332F6F626A656374732E786D6CAD575B6FA33814FE2B887D06429276DA1565D4266D158D3A339A6846FB502932E050B66023DB74D2FDF5FB190C01
310
9276B2973C046C8ECFF53B17071F77456EBD502133CEAE6CDF9DD81665314F32965ED995DA3A17B6F5310C04E7AA47665B8C14F4CAD6DB7618A48257A5D94AE89654B91AEDDEDDFC61C998326A5B714EA4BCB265FC440BE2924AF184CA6737218AB8E976E7FA6E4338649B0A523E8D98964450A6A029F619B8588D52FE7039
310
B1BD30F0F4F730D0FF866AF6369557DB33949F31A9088B0F848DD8CCFCF9F2767A76E99CCDE733677E3EF59D9BBB9BA5E37F984D16E78BC5E5F5ED25044B25C0C96822E8D60EEFE11B91C581D77CEA34368A1F5329E68CD1B8B61F16D63A1B8E092D294B10C78C4A48EB593D192E7DED9BDEE7995E1B91FDEDD3ACEA9FE831
310
6A756F9F7D4D79F4274C90A7A04248AA51D5F8C718DAE06FB2F75AC4796EBE65D22A88A22223B995679120E2D50E41AA49C260C046A35368846B0BECD0DFF3EBEB8AD4F835768F69B9ADF25C43D30E6B646F807FAA64AD59F61715C7A54127C4AACA98BA3006A9D792DAE165E0D59B61A01FB3A9F9D838D2DAE62445C86166
310
F37564E842E7DE6A69879FEEA2DD5AE7E371E1A5E025154AC307D06A03D73EB5978C58FFA4C8E9033066E0F3BD53BEC1F39F91BE7B55103791EDE6BBB991A2046172CB4581D8B893FA674DDA17A77B3B7C413D1B511FD2743BFF8A38F03A658705E3ADF8015C3A3417FF3D7E439FF591DA0B5F18BC20C1B8981957AE6392A3
310
F43C640C01D1A0B4728E2DD4F26DB4B3C3152A252A3B4E913CEC1C72F012782FF88EFF8637AA552DBEF76408E8A8DE9E50F9E1CB3A2DA0DB1B6039A893B56063DC5B3E3FFB5F72E67AB9FEB4AEC496C4F4C1149625DD662C53E89D7BF0F6151A046260D1337DFDC94502430F83B0EE07A130A224BCAD7DAE1D9FB6CD422FF6
310
920702629C4BB9AE79C12F243C6432A6794E18E5552BA56B431AAB5D91317302B2B071E86C3A42B1A02F999E24061403B5D0EB639195DA655DD3EBEAB4FB862DDF579F014AD0E73C22F99E28DA57FB98E75C6CA2D74D53086D600F4786E0FE3144B771A8A7B900F03594DB8A633CBC49B2EDB69228BB479CF863B5E807AAAB
310
23872F6DFEB4129B949CA33823F58830E86D65621E10047D9DB34D862E8EAC3C2ABC2F7B2C40D67CDFE01F5545B92105AF983AC54D93D69E56FB8E797F88913F898A9FEC705D3F9D1B54EC8426FB500D40A03BD0119B06E1B95DDC7EB8F6975367793EBD70E66733DFB9BC982F9CE564727731999F5D4ECFCE3B8D6A4DC2A0
310
6D50FD148437D110834A64C6CDDF57FBACB5C307A2A477DFE4939736CFEF2B175371E0E10CF0DD1D5C15654E0BCA14D1E87DD02FF93782A162C0A3D95F1524A52770F972BF1EE9809D13CE7DD599467F8ECE9ADD85CE85A34CD45355448C64F9E8A031DC2D596ACC6E5DD93D9B82DE2EF5CAF81363A8E47996A0DE24564A79
310
4115AACE09C55E14540231FDA13C319787134EBF34E3A022514E5B4D9E0826E25C02D5805B15ABE1BEF51B26383D445DD9E875EE33FE4C22DA16427D65A3BCA92CA6D28DD01DF5DC53330704308475351050232CCD31583787BA75774AFB06E5070DD0C8EF484E19968C5D83BA5B90B244D31E54D55A372320FE4786B7EA58
310
44E135AA5467CB7EA333A61683CC6A8C3257034C10CF46F40EF9F5BE59BE5BD30C3C72D235E95D10345C1D45445A5F0BB47E46A5EBE5570F9380B5FA629579952296A773720405982B9DE04011506178964401AA8BDF1FBF0A8EAB6861DD6580C0E38217056766716DAEB2D6FA0917D3E4116581EADB879C4E7CFFB11EFACD
310
3D641311495D92C8676CB409A72D18610D803CE8A626049E8EC1887CB5B44CC39883690DDA8399B4B9855B481E7D71D4A9D22F96E5BB73BF5793020C02137BF837504B0304140006080000CC70623B000000000000000000000000350000006662782F36394639363044362D344446342D343946362D394244322D32343142
310
43333846323333332F76657274696365732E62696E504B0304140006080800CC70623BF270F1330600000004000000360000006662782F36394639363044362D344446342D343946362D394244322D3234314243333846323333332F747269616E676C65732E62696E636660600000504B0304140006080000CC70623B0000
310
00000000000000000000370000006662782F36394639363044362D344446342D343946362D394244322D3234314243333846323333332F617474726962757465732E62696E504B0304140006080800CC70623B08DA0BD19000000041010000360000006662782F36394639363044362D344446342D343946362D394244322D
310
3234314243333846323333332F6469726563746F72792E786D6C858F410AC3201045AF22B36F53E9A60B35CBEEBAE80D244E44489C6234F4F835464A48035D0DF398FF9F8AF63D0E6CC63039F212F8F9020C7D47C6792B21C5FE7403D62A1188E2E60C98D7234A5830286103A55745067B9D86B8A3CF9C7F90C11DE607FB14
310
4396D7B6A82D282E9A152AD114D5EF2CB866EEE831B8EEA07A7BB5A8D7D61A2BAAEB7FD5F70921FF497D00504B0304140006080800CC70623BCA768048FE000000A00100003B0000006662782F36394639363044362D344446342D343946362D394244322D3234314243333846323333332F7265736F75726365732F636F72
310
652E786D6C8D50596E833010BD0A9ADFCA60D600328E9AA639412F609909B1126CE4A5EAF16B0295DABFFECC8CDEA2797AECF8353F924FB44E193D409E5248504B332A3D0D10FC95B4901C39B3C6F85F3248B49871801506CE266BC2B243D2688FDA47549B11775038871E12F988C7004EDE7016A9083E2ADC3D5D84BC8B09
310
D33C8D74D471E6BC8D0192EDC93A815B742658898E651BCB59086ADC356A8C3FD555A1055ED7E7E254D615792D0F075295F585746FF53B694EE78A565DD736979A65AB9933AFE69F8CD2A2F038022F28ED489E135A7CE4554F9BBEA85E68DB53CAB255FEC71496F19FA6A0B42F8B3DEE6673C0F318E4497096AD7DC5F52C33
310
EEB55BFE0D504B010214000A0000080000CC70623B3DEE336E79000000790000001B00000000000000000000000000000000006175746F6465736B2D64657369676E2D7061636B6167652E786D6C504B01021400140006080800CC70623BD486FD9CA0000000F40000001300000000000000000000000000B20000005B436F
310
6E74656E745F54797065735D2E786D6C504B01021400140006080800CC70623BD9DDAED0EC0000007C010000080000000000000000000000000083010000636F72652E786D6C504B01021400140006080800CC70623B55019EA25F0000007C000000070000000000000000000000000095020000636E782E786D6C504B0102
310
1400140006080800CC70623BA24EB22D72010000D40300000C00000000000000000000000000190300006662782F636F72652E786D6C504B01021400140006080800CC70623B408A7D3B7C0000009D0000000B00000000000000000000000000B50400006662782F636E782E786D6C504B01021400140006080800CC70623B
310
449FB9BD290100001202000031000000000000000000000000005A0500006662782F36394639363044362D344446342D343946362D394244322D3234314243333846323333332F636F72652E786D6C504B01021400140006080800CC70623BAD7543B64E010000330300003000000000000000000000000000D20600006662
310
782F36394639363044362D344446342D343946362D394244322D3234314243333846323333332F636E782E786D6C504B01021400140006080800CC70623B8D05915C650500003B10000034000000000000000000000000006E0800006662782F36394639363044362D344446342D343946362D394244322D32343142433338
310
46323333332F6F626A656374732E786D6C504B01021400140006080000CC70623B0000000000000000000000003500000000000000000000000000250E00006662782F36394639363044362D344446342D343946362D394244322D3234314243333846323333332F76657274696365732E62696E504B010214001400060808
310
00CC70623BF270F13306000000040000003600000000000000000000000000780E00006662782F36394639363044362D344446342D343946362D394244322D3234314243333846323333332F747269616E676C65732E62696E504B01021400140006080000CC70623B00000000000000000000000037000000000000000000
310
00000000D20E00006662782F36394639363044362D344446342D343946362D394244322D3234314243333846323333332F617474726962757465732E62696E504B01021400140006080800CC70623B08DA0BD190000000410100003600000000000000000000000000270F00006662782F36394639363044362D344446342D
310
343946362D394244322D3234314243333846323333332F6469726563746F72792E786D6C504B01021400140006080800CC70623BCA768048FE000000A00100003B000000000000000000000000000B1000006662782F36394639363044362D344446342D343946362D394244322D3234314243333846323333332F7265736F
310
75726365732F636F72652E786D6C504B0506000000000E000E0080040000621100000000
  0
XRECORD
  5
176
102
{ACAD_REACTORS
330
173
102
}
330
173
100
AcDbXrecord
280
     1
270
     1
271
     1
  0
XRECORD
  5
177
102
{ACAD_REACTORS
330
173
102
}
330
173
100
AcDbXrecord
280
     1
270
     1
271
     1
  0
XRECORD
  5
99EC
102
{ACAD_REACTORS
330
99EB
102
}
330
99EB
100
AcDbXrecord
280
     1
102
ACAD_ROUNDTRIP_2012_MLEADER_STYLE
298
     1
  0
XRECORD
  5
99FE
102
{ACAD_REACTORS
330
99FD
102
}
330
99FD
100
AcDbXrecord
280
     1
102
DISPLAYNAME
  1
Metric50
102
FLAGS
 90
        0
  0
CELLSTYLEMAP
  5
99BE
102
{ACAD_REACTORS
330
162
102
}
330
162
100
AcDbCellStyleMap
 90
        3
300
CELLSTYLE
  1
TABLEFORMAT_BEGIN
 90
        5
170
     1
 91
        0
 92
    32768
 62
   257
 93
        1
300
CONTENTFORMAT
  1
CONTENTFORMAT_BEGIN
 90
        0
 91
        0
 92
      512
 93
        0
300

 40
0.0
140
1.0
 94
        5
 62
     0
340
11
144
6.0
309
CONTENTFORMAT_END
171
     1
301
MARGIN
  1
CELLMARGIN_BEGIN
 40
1.5
 40
1.5
 40
1.5
 40
1.5
 40
4.5
 40
4.5
309
CELLMARGIN_END
 94
        6
 95
        1
302
GRIDFORMAT
  1
GRIDFORMAT_BEGIN
 90
        0
 91
        1
 62
     0
 92
       -2
340
14
 93
        0
 40
1.125
309
GRIDFORMAT_END
 95
        2
302
GRIDFORMAT
  1
GRIDFORMAT_BEGIN
 90
        0
 91
        1
 62
     0
 92
       -2
340
14
 93
        0
 40
1.125
309
GRIDFORMAT_END
 95
        4
302
GRIDFORMAT
  1
GRIDFORMAT_BEGIN
 90
        0
 91
        1
 62
     0
 92
       -2
340
14
 93
        0
 40
1.125
309
GRIDFORMAT_END
 95
        8
302
GRIDFORMAT
  1
GRIDFORMAT_BEGIN
 90
        0
 91
        1
 62
     0
 92
       -2
340
14
 93
        0
 40
1.125
309
GRIDFORMAT_END
 95
       16
302
GRIDFORMAT
  1
GRIDFORMAT_BEGIN
 90
        0
 91
        1
 62
     0
 92
       -2
340
14
 93
        0
 40
1.125
309
GRIDFORMAT_END
 95
       32
302
GRIDFORMAT
  1
GRIDFORMAT_BEGIN
 90
        0
 91
        1
 62
     0
 92
       -2
340
14
 93
        0
 40
1.125
309
GRIDFORMAT_END
309
TABLEFORMAT_END
  1
CELLSTYLE_BEGIN
 90
        1
 91
        1
300
_TITLE
309
CELLSTYLE_END
300
CELLSTYLE
  1
TABLEFORMAT_BEGIN
 90
        5
170
     1
 91
        0
 92
        0
 62
   257
 93
        1
300
CONTENTFORMAT
  1
CONTENTFORMAT_BEGIN
 90
        0
 91
        0
 92
      512
 93
        0
300

 40
0.0
140
1.0
 94
        5
 62
     0
340
11
144
4.5
309
CONTENTFORMAT_END
171
     1
301
MARGIN
  1
CELLMARGIN_BEGIN
 40
1.5
 40
1.5
 40
1.5
 40
1.5
 40
4.5
 40
4.5
309
CELLMARGIN_END
 94
        6
 95
        1
302
GRIDFORMAT
  1
GRIDFORMAT_BEGIN
 90
        0
 91
        1
 62
     0
 92
       -2
340
14
 93
        0
 40
1.125
309
GRIDFORMAT_END
 95
        2
302
GRIDFORMAT
  1
GRIDFORMAT_BEGIN
 90
        0
 91
        1
 62
     0
 92
       -2
340
14
 93
        0
 40
1.125
309
GRIDFORMAT_END
 95
        4
302
GRIDFORMAT
  1
GRIDFORMAT_BEGIN
 90
        0
 91
        1
 62
     0
 92
       -2
340
14
 93
        0
 40
1.125
309
GRIDFORMAT_END
 95
        8
302
GRIDFORMAT
  1
GRIDFORMAT_BEGIN
 90
        0
 91
        1
 62
     0
 92
       -2
340
14
 93
        0
 40
1.125
309
GRIDFORMAT_END
 95
       16
302
GRIDFORMAT
  1
GRIDFORMAT_BEGIN
 90
        0
 91
        1
 62
     0
 92
       -2
340
14
 93
        0
 40
1.125
309
GRIDFORMAT_END
 95
       32
302
GRIDFORMAT
  1
GRIDFORMAT_BEGIN
 90
        0
 91
        1
 62
     0
 92
       -2
340
14
 93
        0
 40
1.125
309
GRIDFORMAT_END
309
TABLEFORMAT_END
  1
CELLSTYLE_BEGIN
 90
        2
 91
        1
300
_HEADER
309
CELLSTYLE_END
300
CELLSTYLE
  1
TABLEFORMAT_BEGIN
 90
        5
170
     1
 91
        0
 92
        0
 62
   257
 93
        1
300
CONTENTFORMAT
  1
CONTENTFORMAT_BEGIN
 90
        0
 91
        0
 92
      512
 93
        0
300

 40
0.0
140
1.0
 94
        2
 62
     0
340
11
144
4.5
309
CONTENTFORMAT_END
171
     1
301
MARGIN
  1
CELLMARGIN_BEGIN
 40
1.5
 40
1.5
 40
1.5
 40
1.5
 40
4.5
 40
4.5
309
CELLMARGIN_END
 94
        6
 95
        1
302
GRIDFORMAT
  1
GRIDFORMAT_BEGIN
 90
        0
 91
        1
 62
     0
 92
       -2
340
14
 93
        0
 40
1.125
309
GRIDFORMAT_END
 95
        2
302
GRIDFORMAT
  1
GRIDFORMAT_BEGIN
 90
        0
 91
        1
 62
     0
 92
       -2
340
14
 93
        0
 40
1.125
309
GRIDFORMAT_END
 95
        4
302
GRIDFORMAT
  1
GRIDFORMAT_BEGIN
 90
        0
 91
        1
 62
     0
 92
       -2
340
14
 93
        0
 40
1.125
309
GRIDFORMAT_END
 95
        8
302
GRIDFORMAT
  1
GRIDFORMAT_BEGIN
 90
        0
 91
        1
 62
     0
 92
       -2
340
14
 93
        0
 40
1.125
309
GRIDFORMAT_END
 95
       16
302
GRIDFORMAT
  1
GRIDFORMAT_BEGIN
 90
        0
 91
        1
 62
     0
 92
       -2
340
14
 93
        0
 40
1.125
309
GRIDFORMAT_END
 95
       32
302
GRIDFORMAT
  1
GRIDFORMAT_BEGIN
 90
        0
 91
        1
 62
     0
 92
       -2
340
14
 93
        0
 40
1.125
309
GRIDFORMAT_END
309
TABLEFORMAT_END
  1
CELLSTYLE_BEGIN
 90
        3
 91
        2
300
_DATA
309
CELLSTYLE_END
  0
XRECORD
  5
99C3
102
{ACAD_REACTORS
330
162
102
}
330
162
100
AcDbXrecord
280
     1
102
ACAD_ROUNDTRIP_PRE2007_TABLESTYLE
 90
      512
 91
        0
  1

 92
      512
 93
        0
  2

 94
      512
 95
        0
  3

  0
XRECORD
  5
99D6
102
{ACAD_REACTORS
330
99D5
102
}
330
99D5
100
AcDbXrecord
280
     1
102
RTVSPost2010Prop28
280
     1
102
RTVSPost2010PropOp28
 70
     1
102
RTVSPost2010Prop29
280
     1
102
RTVSPost2010PropOp29
 70
     1
102
RTVSPost2010Prop30
280
     0
102
RTVSPost2010PropOp30
 70
     1
102
RTVSPost2010Prop31
280
     0
102
RTVSPost2010PropOp31
 70
     1
102
RTVSPost2010Prop32
280
     0
102
RTVSPost2010PropOp32
 70
     1
102
RTVSPost2010Prop33
280
     0
102
RTVSPost2010PropOp33
 70
     1
102
RTVSPost2010Prop34
280
     0
102
RTVSPost2010PropOp34
 70
     1
102
RTVSPost2010Prop35
280
     0
102
RTVSPost2010PropOp35
 70
     1
102
RTVSPost2010Prop36
280
     0
102
RTVSPost2010PropOp36
 70
     1
102
RTVSPost2010Prop37
 90
       50
102
RTVSPost2010PropOp37
 70
     1
102
RTVSPost2010Prop38
140
0.0
102
RTVSPost2010PropOp38
 70
     1
102
RTVSPost2010Prop39
140
1.0
102
RTVSPost2010PropOp39
 70
     1
102
RTVSPost2010Prop40
 90
        0
102
RTVSPost2010PropOp40
 70
     1
102
RTVSPost2010Prop41ColorIndex
 90
       18
102
RTVSPost2010Prop41ColorRGB
 90
        0
102
RTVSPost2010PropOp41
 70
     1
102
RTVSPost2010Prop42
 90
       50
102
RTVSPost2010PropOp42
 70
     1
102
RTVSPost2010Prop43
 90
        3
102
RTVSPost2010PropOp43
 70
     1
102
RTVSPost2010Prop44ColorIndex
 90
        5
102
RTVSPost2010Prop44ColorRGB
 90
      255
102
RTVSPost2010PropOp44
 70
     1
102
RTVSPost2010Prop45
280
     0
102
RTVSPost2010PropOp45
 70
     1
102
RTVSPost2010Prop46
 90
       50
102
RTVSPost2010PropOp46
 70
     1
102
RTVSPost2010Prop47
 90
       50
102
RTVSPost2010PropOp47
 70
     1
102
RTVSPost2010Prop48
 90
       50
102
RTVSPost2010PropOp48
 70
     1
102
RTVSPost2010Prop49
280
     0
102
RTVSPost2010PropOp49
 70
     1
102
RTVSPost2010Prop50
 90
       50
102
RTVSPost2010PropOp50
 70
     1
102
RTVSPost2010Prop51ColorIndex
 90
      256
102
RTVSPost2010Prop51ColorRGB
 90
-16777216
102
RTVSPost2010PropOp51
 70
     0
102
RTVSPost2010Prop52
140
1.0
102
RTVSPost2010PropOp52
 70
     0
102
RTVSPost2010Prop53
 90
        2
102
RTVSPost2010PropOp53
 70
     1
102
RTVSPost2010Prop54
  1
strokes_ogs.tif
102
RTVSPost2010PropOp54
 70
     1
102
RTVSPost2010Prop55
280
     0
102
RTVSPost2010PropOp55
 70
     1
102
RTVSPost2010Prop56
140
1.0
102
RTVSPost2010PropOp56
 70
     1
102
RTVSPost2010Prop57
140
1.0
102
RTVSPost2010PropOp57
 70
     1
102
RTVSPropertyOp0
 70
     1
102
RTVSPropertyOp1
 70
     1
102
RTVSPropertyOp2
 70
     1
102
RTVSPropertyOp3
 70
     1
102
RTVSPropertyOp4
 70
     1
102
RTVSPropertyOp5
 70
     1
102
RTVSPropertyOp6
 70
     1
102
RTVSPropertyOp7
 70
     1
102
RTVSPropertyOp8
 70
     1
102
RTVSPropertyOp9
 70
     1
102
RTVSPropertyOp10
 70
     1
102
RTVSPropertyOp11
 70
     1
102
RTVSPropertyOp12
 70
     1
102
RTVSPropertyOp13
 70
     1
102
RTVSPropertyOp14
 70
     1
102
RTVSPropertyOp15
 70
     1
102
RTVSPropertyOp16
 70
     1
102
RTVSPropertyOp17
 70
     1
102
RTVSPropertyOp18
 70
     1
102
RTVSPropertyOp19
 70
     1
102
RTVSPropertyOp20
 70
     1
102
RTVSPropertyOp21
 70
     1
102
RTVSPropertyOp22
 70
     1
102
RTVSPropertyOp23
 70
     1
102
RTVSPropertyOp24
 70
     1
102
RTVSPropertyOp25
 70
     1
102
RTVSPropertyOp26
 70
     1
102
RTVSPropertyOp27
 70
     1
102
RTVSPropertyOp28
 70
     1
102
RTVSPropertyOp29
 70
     1
102
RTVSPropertyOp30
 70
     1
102
RTVSPropertyOp31
 70
     1
102
RTVSPropertyOp32
 70
     1
102
RTVSPropertyOp33
 70
     1
102
RTVSPropertyOp34
 70
     1
102
RTVSPropertyOp35
 70
     1
102
RTVSPropertyOp36
 70
     1
102
RTVSPropertyOp37
 70
     1
102
RTVSPropertyOp38
 70
     1
102
RTVSPropertyOp39
 70
     1
102
RTVSPropertyOp40
 70
     1
102
RTVSPropertyOp41
 70
     1
102
RTVSPropertyOp42
 70
     1
102
RTVSPropertyOp43
 70
     1
102
RTVSPropertyOp44
 70
     1
102
RTVSPropertyOp45
 70
     1
102
RTVSPropertyOp46
 70
     1
102
RTVSPropertyOp47
 70
     1
102
RTVSPropertyOp48
 70
     1
102
RTVSPropertyOp49
 70
     1
102
RTVSPropertyOp50
 70
     1
102
RTVSPropertyOp51
 70
     0
102
RTVSPropertyOp52
 70
     0
102
RTVSPropertyOp53
 70
     1
102
RTVSPropertyOp54
 70
     1
102
RTVSPropertyOp55
 70
     1
102
RTVSPropertyOp56
 70
     1
102
RTVSPropertyOp57
 70
     1
102
RTVSPropertyOp58
 70
     1
102
RTVSPropertyOp59
 70
     1
102
RTVSPropertyOp60
 70
     1
102
RTVSPropertyOp61
 70
     1
102
RTVSPropertyOp62
 70
     1
  0
XRECORD
  5
99D4
102
{ACAD_REACTORS
330
99D3
102
}
330
99D3
100
AcDbXrecord
280
     1
102
RTVSPost2010Prop28
280
     0
102
RTVSPost2010PropOp28
 70
     1
102
RTVSPost2010Prop29
280
     1
102
RTVSPost2010PropOp29
 70
     1
102
RTVSPost2010Prop30
280
     1
102
RTVSPost2010PropOp30
 70
     1
102
RTVSPost2010Prop31
280
     0
102
RTVSPost2010PropOp31
 70
     1
102
RTVSPost2010Prop32
280
     0
102
RTVSPost2010PropOp32
 70
     1
102
RTVSPost2010Prop33
280
     0
102
RTVSPost2010PropOp33
 70
     1
102
RTVSPost2010Prop34
280
     0
102
RTVSPost2010PropOp34
 70
     1
102
RTVSPost2010Prop35
280
     0
102
RTVSPost2010PropOp35
 70
     1
102
RTVSPost2010Prop36
280
     0
102
RTVSPost2010PropOp36
 70
     1
102
RTVSPost2010Prop37
 90
       50
102
RTVSPost2010PropOp37
 70
     1
102
RTVSPost2010Prop38
140
0.0
102
RTVSPost2010PropOp38
 70
     1
102
RTVSPost2010Prop39
140
1.0
102
RTVSPost2010PropOp39
 70
     1
102
RTVSPost2010Prop40
 90
        0
102
RTVSPost2010PropOp40
 70
     1
102
RTVSPost2010Prop41ColorIndex
 90
       18
102
RTVSPost2010Prop41ColorRGB
 90
        0
102
RTVSPost2010PropOp41
 70
     1
102
RTVSPost2010Prop42
 90
       50
102
RTVSPost2010PropOp42
 70
     1
102
RTVSPost2010Prop43
 90
        3
102
RTVSPost2010PropOp43
 70
     1
102
RTVSPost2010Prop44ColorIndex
 90
        5
102
RTVSPost2010Prop44ColorRGB
 90
      255
102
RTVSPost2010PropOp44
 70
     1
102
RTVSPost2010Prop45
280
     0
102
RTVSPost2010PropOp45
 70
     1
102
RTVSPost2010Prop46
 90
       50
102
RTVSPost2010PropOp46
 70
     1
102
RTVSPost2010Prop47
 90
       50
102
RTVSPost2010PropOp47
 70
     1
102
RTVSPost2010Prop48
 90
       50
102
RTVSPost2010PropOp48
 70
     1
102
RTVSPost2010Prop49
280
     0
102
RTVSPost2010PropOp49
 70
     1
102
RTVSPost2010Prop50
 90
       50
102
RTVSPost2010PropOp50
 70
     1
102
RTVSPost2010Prop51ColorIndex
 90
      256
102
RTVSPost2010Prop51ColorRGB
 90
-16777216
102
RTVSPost2010PropOp51
 70
     0
102
RTVSPost2010Prop52
140
1.0
102
RTVSPost2010PropOp52
 70
     0
102
RTVSPost2010Prop53
 90
        2
102
RTVSPost2010PropOp53
 70
     1
102
RTVSPost2010Prop54
  1
strokes_ogs.tif
102
RTVSPost2010PropOp54
 70
     1
102
RTVSPost2010Prop55
280
     0
102
RTVSPost2010PropOp55
 70
     1
102
RTVSPost2010Prop56
140
1.0
102
RTVSPost2010PropOp56
 70
     1
102
RTVSPost2010Prop57
140
1.0
102
RTVSPost2010PropOp57
 70
     1
102
RTVSPropertyOp0
 70
     1
102
RTVSPropertyOp1
 70
     1
102
RTVSPropertyOp2
 70
     1
102
RTVSPropertyOp3
 70
     1
102
RTVSPropertyOp4
 70
     1
102
RTVSPropertyOp5
 70
     1
102
RTVSPropertyOp6
 70
     1
102
RTVSPropertyOp7
 70
     1
102
RTVSPropertyOp8
 70
     1
102
RTVSPropertyOp9
 70
     1
102
RTVSPropertyOp10
 70
     1
102
RTVSPropertyOp11
 70
     1
102
RTVSPropertyOp12
 70
     1
102
RTVSPropertyOp13
 70
     1
102
RTVSPropertyOp14
 70
     1
102
RTVSPropertyOp15
 70
     1
102
RTVSPropertyOp16
 70
     1
102
RTVSPropertyOp17
 70
     1
102
RTVSPropertyOp18
 70
     1
102
RTVSPropertyOp19
 70
     1
102
RTVSPropertyOp20
 70
     1
102
RTVSPropertyOp21
 70
     1
102
RTVSPropertyOp22
 70
     1
102
RTVSPropertyOp23
 70
     1
102
RTVSPropertyOp24
 70
     1
102
RTVSPropertyOp25
 70
     1
102
RTVSPropertyOp26
 70
     1
102
RTVSPropertyOp27
 70
     1
102
RTVSPropertyOp28
 70
     1
102
RTVSPropertyOp29
 70
     1
102
RTVSPropertyOp30
 70
     1
102
RTVSPropertyOp31
 70
     1
102
RTVSPropertyOp32
 70
     1
102
RTVSPropertyOp33
 70
     1
102
RTVSPropertyOp34
 70
     1
102
RTVSPropertyOp35
 70
     1
102
RTVSPropertyOp36
 70
     1
102
RTVSPropertyOp37
 70
     1
102
RTVSPropertyOp38
 70
     1
102
RTVSPropertyOp39
 70
     1
102
RTVSPropertyOp40
 70
     1
102
RTVSPropertyOp41
 70
     1
102
RTVSPropertyOp42
 70
     1
102
RTVSPropertyOp43
 70
     1
102
RTVSPropertyOp44
 70
     1
102
RTVSPropertyOp45
 70
     1
102
RTVSPropertyOp46
 70
     1
102
RTVSPropertyOp47
 70
     1
102
RTVSPropertyOp48
 70
     1
102
RTVSPropertyOp49
 70
     1
102
RTVSPropertyOp50
 70
     1
102
RTVSPropertyOp51
 70
     0
102
RTVSPropertyOp52
 70
     0
102
RTVSPropertyOp53
 70
     1
102
RTVSPropertyOp54
 70
     1
102
RTVSPropertyOp55
 70
     1
102
RTVSPropertyOp56
 70
     1
102
RTVSPropertyOp57
 70
     1
102
RTVSPropertyOp58
 70
     1
102
RTVSPropertyOp59
 70
     1
102
RTVSPropertyOp60
 70
     1
102
RTVSPropertyOp61
 70
     1
102
RTVSPropertyOp62
 70
     1
  0
XRECORD
  5
99E2
102
{ACAD_REACTORS
330
99E1
102
}
330
99E1
100
AcDbXrecord
280
     1
102
RTVSPost2010Prop28
280
     0
102
RTVSPost2010PropOp28
 70
     1
102
RTVSPost2010Prop29
280
     1
102
RTVSPost2010PropOp29
 70
     1
102
RTVSPost2010Prop30
280
     1
102
RTVSPost2010PropOp30
 70
     1
102
RTVSPost2010Prop31
280
     0
102
RTVSPost2010PropOp31
 70
     1
102
RTVSPost2010Prop32
280
     0
102
RTVSPost2010PropOp32
 70
     1
102
RTVSPost2010Prop33
280
     0
102
RTVSPost2010PropOp33
 70
     1
102
RTVSPost2010Prop34
280
     0
102
RTVSPost2010PropOp34
 70
     1
102
RTVSPost2010Prop35
280
     0
102
RTVSPost2010PropOp35
 70
     1
102
RTVSPost2010Prop36
280
     0
102
RTVSPost2010PropOp36
 70
     1
102
RTVSPost2010Prop37
 90
       50
102
RTVSPost2010PropOp37
 70
     1
102
RTVSPost2010Prop38
140
0.0
102
RTVSPost2010PropOp38
 70
     1
102
RTVSPost2010Prop39
140
1.0
102
RTVSPost2010PropOp39
 70
     1
102
RTVSPost2010Prop40
 90
        0
102
RTVSPost2010PropOp40
 70
     1
102
RTVSPost2010Prop41ColorIndex
 90
       18
102
RTVSPost2010Prop41ColorRGB
 90
        0
102
RTVSPost2010PropOp41
 70
     1
102
RTVSPost2010Prop42
 90
       50
102
RTVSPost2010PropOp42
 70
     1
102
RTVSPost2010Prop43
 90
        3
102
RTVSPost2010PropOp43
 70
     1
102
RTVSPost2010Prop44ColorIndex
 90
        5
102
RTVSPost2010Prop44ColorRGB
 90
      255
102
RTVSPost2010PropOp44
 70
     1
102
RTVSPost2010Prop45
280
     0
102
RTVSPost2010PropOp45
 70
     1
102
RTVSPost2010Prop46
 90
       50
102
RTVSPost2010PropOp46
 70
     1
102
RTVSPost2010Prop47
 90
       50
102
RTVSPost2010PropOp47
 70
     1
102
RTVSPost2010Prop48
 90
       50
102
RTVSPost2010PropOp48
 70
     1
102
RTVSPost2010Prop49
280
     0
102
RTVSPost2010PropOp49
 70
     1
102
RTVSPost2010Prop50
 90
       50
102
RTVSPost2010PropOp50
 70
     1
102
RTVSPost2010Prop51ColorIndex
 90
      256
102
RTVSPost2010Prop51ColorRGB
 90
-16777216
102
RTVSPost2010PropOp51
 70
     0
102
RTVSPost2010Prop52
140
1.0
102
RTVSPost2010PropOp52
 70
     0
102
RTVSPost2010Prop53
 90
        2
102
RTVSPost2010PropOp53
 70
     1
102
RTVSPost2010Prop54
  1
strokes_ogs.tif
102
RTVSPost2010PropOp54
 70
     1
102
RTVSPost2010Prop55
280
     0
102
RTVSPost2010PropOp55
 70
     1
102
RTVSPost2010Prop56
140
1.0
102
RTVSPost2010PropOp56
 70
     1
102
RTVSPost2010Prop57
140
1.0
102
RTVSPost2010PropOp57
 70
     1
102
RTVSPropertyOp0
 70
     1
102
RTVSPropertyOp1
 70
     1
102
RTVSPropertyOp2
 70
     1
102
RTVSPropertyOp3
 70
     1
102
RTVSPropertyOp4
 70
     1
102
RTVSPropertyOp5
 70
     1
102
RTVSPropertyOp6
 70
     1
102
RTVSPropertyOp7
 70
     1
102
RTVSPropertyOp8
 70
     1
102
RTVSPropertyOp9
 70
     1
102
RTVSPropertyOp10
 70
     1
102
RTVSPropertyOp11
 70
     1
102
RTVSPropertyOp12
 70
     1
102
RTVSPropertyOp13
 70
     1
102
RTVSPropertyOp14
 70
     1
102
RTVSPropertyOp15
 70
     1
102
RTVSPropertyOp16
 70
     1
102
RTVSPropertyOp17
 70
     1
102
RTVSPropertyOp18
 70
     1
102
RTVSPropertyOp19
 70
     1
102
RTVSPropertyOp20
 70
     1
102
RTVSPropertyOp21
 70
     1
102
RTVSPropertyOp22
 70
     1
102
RTVSPropertyOp23
 70
     1
102
RTVSPropertyOp24
 70
     1
102
RTVSPropertyOp25
 70
     1
102
RTVSPropertyOp26
 70
     1
102
RTVSPropertyOp27
 70
     1
102
RTVSPropertyOp28
 70
     1
102
RTVSPropertyOp29
 70
     1
102
RTVSPropertyOp30
 70
     1
102
RTVSPropertyOp31
 70
     1
102
RTVSPropertyOp32
 70
     1
102
RTVSPropertyOp33
 70
     1
102
RTVSPropertyOp34
 70
     1
102
RTVSPropertyOp35
 70
     1
102
RTVSPropertyOp36
 70
     1
102
RTVSPropertyOp37
 70
     1
102
RTVSPropertyOp38
 70
     1
102
RTVSPropertyOp39
 70
     1
102
RTVSPropertyOp40
 70
     1
102
RTVSPropertyOp41
 70
     1
102
RTVSPropertyOp42
 70
     1
102
RTVSPropertyOp43
 70
     1
102
RTVSPropertyOp44
 70
     1
102
RTVSPropertyOp45
 70
     1
102
RTVSPropertyOp46
 70
     1
102
RTVSPropertyOp47
 70
     1
102
RTVSPropertyOp48
 70
     1
102
RTVSPropertyOp49
 70
     1
102
RTVSPropertyOp50
 70
     1
102
RTVSPropertyOp51
 70
     0
102
RTVSPropertyOp52
 70
     0
102
RTVSPropertyOp53
 70
     1
102
RTVSPropertyOp54
 70
     1
102
RTVSPropertyOp55
 70
     1
102
RTVSPropertyOp56
 70
     1
102
RTVSPropertyOp57
 70
     1
102
RTVSPropertyOp58
 70
     1
102
RTVSPropertyOp59
 70
     1
102
RTVSPropertyOp60
 70
     1
102
RTVSPropertyOp61
 70
     1
102
RTVSPropertyOp62
 70
     1
  0
XRECORD
  5
99EA
102
{ACAD_REACTORS
330
99E9
102
}
330
99E9
100
AcDbXrecord
280
     1
102
RTVSPost2010Prop28
280
     0
102
RTVSPost2010PropOp28
 70
     1
102
RTVSPost2010Prop29
280
     1
102
RTVSPost2010PropOp29
 70
     1
102
RTVSPost2010Prop30
280
     1
102
RTVSPost2010PropOp30
 70
     1
102
RTVSPost2010Prop31
280
     0
102
RTVSPost2010PropOp31
 70
     1
102
RTVSPost2010Prop32
280
     0
102
RTVSPost2010PropOp32
 70
     1
102
RTVSPost2010Prop33
280
     0
102
RTVSPost2010PropOp33
 70
     1
102
RTVSPost2010Prop34
280
     0
102
RTVSPost2010PropOp34
 70
     1
102
RTVSPost2010Prop35
280
     0
102
RTVSPost2010PropOp35
 70
     1
102
RTVSPost2010Prop36
280
     0
102
RTVSPost2010PropOp36
 70
     1
102
RTVSPost2010Prop37
 90
       50
102
RTVSPost2010PropOp37
 70
     1
102
RTVSPost2010Prop38
140
0.0
102
RTVSPost2010PropOp38
 70
     1
102
RTVSPost2010Prop39
140
1.0
102
RTVSPost2010PropOp39
 70
     1
102
RTVSPost2010Prop40
 90
        0
102
RTVSPost2010PropOp40
 70
     1
102
RTVSPost2010Prop41ColorIndex
 90
       18
102
RTVSPost2010Prop41ColorRGB
 90
        0
102
RTVSPost2010PropOp41
 70
     1
102
RTVSPost2010Prop42
 90
       50
102
RTVSPost2010PropOp42
 70
     1
102
RTVSPost2010Prop43
 90
        3
102
RTVSPost2010PropOp43
 70
     1
102
RTVSPost2010Prop44ColorIndex
 90
        5
102
RTVSPost2010Prop44ColorRGB
 90
      255
102
RTVSPost2010PropOp44
 70
     1
102
RTVSPost2010Prop45
280
     0
102
RTVSPost2010PropOp45
 70
     1
102
RTVSPost2010Prop46
 90
       50
102
RTVSPost2010PropOp46
 70
     1
102
RTVSPost2010Prop47
 90
       50
102
RTVSPost2010PropOp47
 70
     1
102
RTVSPost2010Prop48
 90
       50
102
RTVSPost2010PropOp48
 70
     1
102
RTVSPost2010Prop49
280
     0
102
RTVSPost2010PropOp49
 70
     1
102
RTVSPost2010Prop50
 90
       50
102
RTVSPost2010PropOp50
 70
     1
102
RTVSPost2010Prop51ColorIndex
 90
      256
102
RTVSPost2010Prop51ColorRGB
 90
-16777216
102
RTVSPost2010PropOp51
 70
     0
102
RTVSPost2010Prop52
140
1.0
102
RTVSPost2010PropOp52
 70
     0
102
RTVSPost2010Prop53
 90
        2
102
RTVSPost2010PropOp53
 70
     1
102
RTVSPost2010Prop54
  1
strokes_ogs.tif
102
RTVSPost2010PropOp54
 70
     1
102
RTVSPost2010Prop55
280
     0
102
RTVSPost2010PropOp55
 70
     1
102
RTVSPost2010Prop56
140
1.0
102
RTVSPost2010PropOp56
 70
     1
102
RTVSPost2010Prop57
140
1.0
102
RTVSPost2010PropOp57
 70
     1
102
RTVSPropertyOp0
 70
     1
102
RTVSPropertyOp1
 70
     1
102
RTVSPropertyOp2
 70
     1
102
RTVSPropertyOp3
 70
     1
102
RTVSPropertyOp4
 70
     1
102
RTVSPropertyOp5
 70
     1
102
RTVSPropertyOp6
 70
     1
102
RTVSPropertyOp7
 70
     1
102
RTVSPropertyOp8
 70
     1
102
RTVSPropertyOp9
 70
     1
102
RTVSPropertyOp10
 70
     1
102
RTVSPropertyOp11
 70
     1
102
RTVSPropertyOp12
 70
     1
102
RTVSPropertyOp13
 70
     1
102
RTVSPropertyOp14
 70
     1
102
RTVSPropertyOp15
 70
     1
102
RTVSPropertyOp16
 70
     1
102
RTVSPropertyOp17
 70
     1
102
RTVSPropertyOp18
 70
     1
102
RTVSPropertyOp19
 70
     1
102
RTVSPropertyOp20
 70
     1
102
RTVSPropertyOp21
 70
     1
102
RTVSPropertyOp22
 70
     1
102
RTVSPropertyOp23
 70
     1
102
RTVSPropertyOp24
 70
     1
102
RTVSPropertyOp25
 70
     1
102
RTVSPropertyOp26
 70
     1
102
RTVSPropertyOp27
 70
     1
102
RTVSPropertyOp28
 70
     1
102
RTVSPropertyOp29
 70
     1
102
RTVSPropertyOp30
 70
     1
102
RTVSPropertyOp31
 70
     1
102
RTVSPropertyOp32
 70
     1
102
RTVSPropertyOp33
 70
     1
102
RTVSPropertyOp34
 70
     1
102
RTVSPropertyOp35
 70
     1
102
RTVSPropertyOp36
 70
     1
102
RTVSPropertyOp37
 70
     1
102
RTVSPropertyOp38
 70
     1
102
RTVSPropertyOp39
 70
     1
102
RTVSPropertyOp40
 70
     1
102
RTVSPropertyOp41
 70
     1
102
RTVSPropertyOp42
 70
     1
102
RTVSPropertyOp43
 70
     1
102
RTVSPropertyOp44
 70
     1
102
RTVSPropertyOp45
 70
     1
102
RTVSPropertyOp46
 70
     1
102
RTVSPropertyOp47
 70
     1
102
RTVSPropertyOp48
 70
     1
102
RTVSPropertyOp49
 70
     1
102
RTVSPropertyOp50
 70
     1
102
RTVSPropertyOp51
 70
     0
102
RTVSPropertyOp52
 70
     0
102
RTVSPropertyOp53
 70
     1
102
RTVSPropertyOp54
 70
     1
102
RTVSPropertyOp55
 70
     1
102
RTVSPropertyOp56
 70
     1
102
RTVSPropertyOp57
 70
     1
102
RTVSPropertyOp58
 70
     1
102
RTVSPropertyOp59
 70
     1
102
RTVSPropertyOp60
 70
     1
102
RTVSPropertyOp61
 70
     1
102
RTVSPropertyOp62
 70
     1
  0
XRECORD
  5
99DC
102
{ACAD_REACTORS
330
99DB
102
}
330
99DB
100
AcDbXrecord
280
     1
102
RTVSPost2010Prop28
280
     0
102
RTVSPost2010PropOp28
 70
     1
102
RTVSPost2010Prop29
280
     1
102
RTVSPost2010PropOp29
 70
     1
102
RTVSPost2010Prop30
280
     1
102
RTVSPost2010PropOp30
 70
     1
102
RTVSPost2010Prop31
280
     0
102
RTVSPost2010PropOp31
 70
     1
102
RTVSPost2010Prop32
280
     0
102
RTVSPost2010PropOp32
 70
     1
102
RTVSPost2010Prop33
280
     0
102
RTVSPost2010PropOp33
 70
     1
102
RTVSPost2010Prop34
280
     0
102
RTVSPost2010PropOp34
 70
     1
102
RTVSPost2010Prop35
280
     0
102
RTVSPost2010PropOp35
 70
     1
102
RTVSPost2010Prop36
280
     0
102
RTVSPost2010PropOp36
 70
     1
102
RTVSPost2010Prop37
 90
       50
102
RTVSPost2010PropOp37
 70
     1
102
RTVSPost2010Prop38
140
0.0
102
RTVSPost2010PropOp38
 70
     1
102
RTVSPost2010Prop39
140
1.0
102
RTVSPost2010PropOp39
 70
     1
102
RTVSPost2010Prop40
 90
        0
102
RTVSPost2010PropOp40
 70
     1
102
RTVSPost2010Prop41ColorIndex
 90
       18
102
RTVSPost2010Prop41ColorRGB
 90
        0
102
RTVSPost2010PropOp41
 70
     1
102
RTVSPost2010Prop42
 90
       50
102
RTVSPost2010PropOp42
 70
     1
102
RTVSPost2010Prop43
 90
        3
102
RTVSPost2010PropOp43
 70
     1
102
RTVSPost2010Prop44ColorIndex
 90
        5
102
RTVSPost2010Prop44ColorRGB
 90
      255
102
RTVSPost2010PropOp44
 70
     1
102
RTVSPost2010Prop45
280
     0
102
RTVSPost2010PropOp45
 70
     1
102
RTVSPost2010Prop46
 90
       50
102
RTVSPost2010PropOp46
 70
     1
102
RTVSPost2010Prop47
 90
       50
102
RTVSPost2010PropOp47
 70
     1
102
RTVSPost2010Prop48
 90
       50
102
RTVSPost2010PropOp48
 70
     1
102
RTVSPost2010Prop49
280
     0
102
RTVSPost2010PropOp49
 70
     1
102
RTVSPost2010Prop50
 90
       50
102
RTVSPost2010PropOp50
 70
     1
102
RTVSPost2010Prop51ColorIndex
 90
      256
102
RTVSPost2010Prop51ColorRGB
 90
-16777216
102
RTVSPost2010PropOp51
 70
     0
102
RTVSPost2010Prop52
140
1.0
102
RTVSPost2010PropOp52
 70
     0
102
RTVSPost2010Prop53
 90
        2
102
RTVSPost2010PropOp53
 70
     1
102
RTVSPost2010Prop54
  1
strokes_ogs.tif
102
RTVSPost2010PropOp54
 70
     1
102
RTVSPost2010Prop55
280
     0
102
RTVSPost2010PropOp55
 70
     1
102
RTVSPost2010Prop56
140
1.0
102
RTVSPost2010PropOp56
 70
     1
102
RTVSPost2010Prop57
140
1.0
102
RTVSPost2010PropOp57
 70
     1
102
RTVSPropertyOp0
 70
     1
102
RTVSPropertyOp1
 70
     1
102
RTVSPropertyOp2
 70
     1
102
RTVSPropertyOp3
 70
     1
102
RTVSPropertyOp4
 70
     1
102
RTVSPropertyOp5
 70
     1
102
RTVSPropertyOp6
 70
     1
102
RTVSPropertyOp7
 70
     1
102
RTVSPropertyOp8
 70
     1
102
RTVSPropertyOp9
 70
     1
102
RTVSPropertyOp10
 70
     1
102
RTVSPropertyOp11
 70
     1
102
RTVSPropertyOp12
 70
     1
102
RTVSPropertyOp13
 70
     1
102
RTVSPropertyOp14
 70
     1
102
RTVSPropertyOp15
 70
     1
102
RTVSPropertyOp16
 70
     1
102
RTVSPropertyOp17
 70
     1
102
RTVSPropertyOp18
 70
     1
102
RTVSPropertyOp19
 70
     1
102
RTVSPropertyOp20
 70
     1
102
RTVSPropertyOp21
 70
     1
102
RTVSPropertyOp22
 70
     1
102
RTVSPropertyOp23
 70
     1
102
RTVSPropertyOp24
 70
     1
102
RTVSPropertyOp25
 70
     1
102
RTVSPropertyOp26
 70
     1
102
RTVSPropertyOp27
 70
     1
102
RTVSPropertyOp28
 70
     1
102
RTVSPropertyOp29
 70
     1
102
RTVSPropertyOp30
 70
     1
102
RTVSPropertyOp31
 70
     1
102
RTVSPropertyOp32
 70
     1
102
RTVSPropertyOp33
 70
     1
102
RTVSPropertyOp34
 70
     1
102
RTVSPropertyOp35
 70
     1
102
RTVSPropertyOp36
 70
     1
102
RTVSPropertyOp37
 70
     1
102
RTVSPropertyOp38
 70
     1
102
RTVSPropertyOp39
 70
     1
102
RTVSPropertyOp40
 70
     1
102
RTVSPropertyOp41
 70
     1
102
RTVSPropertyOp42
 70
     1
102
RTVSPropertyOp43
 70
     1
102
RTVSPropertyOp44
 70
     1
102
RTVSPropertyOp45
 70
     1
102
RTVSPropertyOp46
 70
     1
102
RTVSPropertyOp47
 70
     1
102
RTVSPropertyOp48
 70
     1
102
RTVSPropertyOp49
 70
     1
102
RTVSPropertyOp50
 70
     1
102
RTVSPropertyOp51
 70
     0
102
RTVSPropertyOp52
 70
     0
102
RTVSPropertyOp53
 70
     1
102
RTVSPropertyOp54
 70
     1
102
RTVSPropertyOp55
 70
     1
102
RTVSPropertyOp56
 70
     1
102
RTVSPropertyOp57
 70
     1
102
RTVSPropertyOp58
 70
     1
102
RTVSPropertyOp59
 70
     1
102
RTVSPropertyOp60
 70
     1
102
RTVSPropertyOp61
 70
     1
102
RTVSPropertyOp62
 70
     1
  0
XRECORD
  5
99E0
102
{ACAD_REACTORS
330
99DF
102
}
330
99DF
100
AcDbXrecord
280
     1
102
RTVSPost2010Prop28
280
     0
102
RTVSPost2010PropOp28
 70
     1
102
RTVSPost2010Prop29
280
     1
102
RTVSPost2010PropOp29
 70
     1
102
RTVSPost2010Prop30
280
     1
102
RTVSPost2010PropOp30
 70
     1
102
RTVSPost2010Prop31
280
     0
102
RTVSPost2010PropOp31
 70
     1
102
RTVSPost2010Prop32
280
     0
102
RTVSPost2010PropOp32
 70
     1
102
RTVSPost2010Prop33
280
     0
102
RTVSPost2010PropOp33
 70
     1
102
RTVSPost2010Prop34
280
     0
102
RTVSPost2010PropOp34
 70
     1
102
RTVSPost2010Prop35
280
     0
102
RTVSPost2010PropOp35
 70
     1
102
RTVSPost2010Prop36
280
     0
102
RTVSPost2010PropOp36
 70
     1
102
RTVSPost2010Prop37
 90
       50
102
RTVSPost2010PropOp37
 70
     1
102
RTVSPost2010Prop38
140
0.0
102
RTVSPost2010PropOp38
 70
     1
102
RTVSPost2010Prop39
140
1.0
102
RTVSPost2010PropOp39
 70
     1
102
RTVSPost2010Prop40
 90
        0
102
RTVSPost2010PropOp40
 70
     1
102
RTVSPost2010Prop41ColorIndex
 90
       18
102
RTVSPost2010Prop41ColorRGB
 90
        0
102
RTVSPost2010PropOp41
 70
     1
102
RTVSPost2010Prop42
 90
       50
102
RTVSPost2010PropOp42
 70
     1
102
RTVSPost2010Prop43
 90
        3
102
RTVSPost2010PropOp43
 70
     1
102
RTVSPost2010Prop44ColorIndex
 90
        5
102
RTVSPost2010Prop44ColorRGB
 90
      255
102
RTVSPost2010PropOp44
 70
     1
102
RTVSPost2010Prop45
280
     0
102
RTVSPost2010PropOp45
 70
     1
102
RTVSPost2010Prop46
 90
       50
102
RTVSPost2010PropOp46
 70
     1
102
RTVSPost2010Prop47
 90
       50
102
RTVSPost2010PropOp47
 70
     1
102
RTVSPost2010Prop48
 90
       50
102
RTVSPost2010PropOp48
 70
     1
102
RTVSPost2010Prop49
280
     0
102
RTVSPost2010PropOp49
 70
     1
102
RTVSPost2010Prop50
 90
       50
102
RTVSPost2010PropOp50
 70
     1
102
RTVSPost2010Prop51ColorIndex
 90
      256
102
RTVSPost2010Prop51ColorRGB
 90
-16777216
102
RTVSPost2010PropOp51
 70
     0
102
RTVSPost2010Prop52
140
1.0
102
RTVSPost2010PropOp52
 70
     0
102
RTVSPost2010Prop53
 90
        2
102
RTVSPost2010PropOp53
 70
     1
102
RTVSPost2010Prop54
  1
strokes_ogs.tif
102
RTVSPost2010PropOp54
 70
     1
102
RTVSPost2010Prop55
280
     0
102
RTVSPost2010PropOp55
 70
     1
102
RTVSPost2010Prop56
140
1.0
102
RTVSPost2010PropOp56
 70
     1
102
RTVSPost2010Prop57
140
1.0
102
RTVSPost2010PropOp57
 70
     1
102
RTVSPropertyOp0
 70
     1
102
RTVSPropertyOp1
 70
     1
102
RTVSPropertyOp2
 70
     1
102
RTVSPropertyOp3
 70
     1
102
RTVSPropertyOp4
 70
     1
102
RTVSPropertyOp5
 70
     1
102
RTVSPropertyOp6
 70
     1
102
RTVSPropertyOp7
 70
     1
102
RTVSPropertyOp8
 70
     1
102
RTVSPropertyOp9
 70
     1
102
RTVSPropertyOp10
 70
     1
102
RTVSPropertyOp11
 70
     1
102
RTVSPropertyOp12
 70
     1
102
RTVSPropertyOp13
 70
     1
102
RTVSPropertyOp14
 70
     1
102
RTVSPropertyOp15
 70
     1
102
RTVSPropertyOp16
 70
     1
102
RTVSPropertyOp17
 70
     1
102
RTVSPropertyOp18
 70
     1
102
RTVSPropertyOp19
 70
     1
102
RTVSPropertyOp20
 70
     1
102
RTVSPropertyOp21
 70
     1
102
RTVSPropertyOp22
 70
     1
102
RTVSPropertyOp23
 70
     1
102
RTVSPropertyOp24
 70
     1
102
RTVSPropertyOp25
 70
     1
102
RTVSPropertyOp26
 70
     1
102
RTVSPropertyOp27
 70
     1
102
RTVSPropertyOp28
 70
     1
102
RTVSPropertyOp29
 70
     1
102
RTVSPropertyOp30
 70
     1
102
RTVSPropertyOp31
 70
     1
102
RTVSPropertyOp32
 70
     1
102
RTVSPropertyOp33
 70
     1
102
RTVSPropertyOp34
 70
     1
102
RTVSPropertyOp35
 70
     1
102
RTVSPropertyOp36
 70
     1
102
RTVSPropertyOp37
 70
     1
102
RTVSPropertyOp38
 70
     1
102
RTVSPropertyOp39
 70
     1
102
RTVSPropertyOp40
 70
     1
102
RTVSPropertyOp41
 70
     1
102
RTVSPropertyOp42
 70
     1
102
RTVSPropertyOp43
 70
     1
102
RTVSPropertyOp44
 70
     1
102
RTVSPropertyOp45
 70
     1
102
RTVSPropertyOp46
 70
     1
102
RTVSPropertyOp47
 70
     1
102
RTVSPropertyOp48
 70
     1
102
RTVSPropertyOp49
 70
     1
102
RTVSPropertyOp50
 70
     1
102
RTVSPropertyOp51
 70
     0
102
RTVSPropertyOp52
 70
     0
102
RTVSPropertyOp53
 70
     1
102
RTVSPropertyOp54
 70
     1
102
RTVSPropertyOp55
 70
     1
102
RTVSPropertyOp56
 70
     1
102
RTVSPropertyOp57
 70
     1
102
RTVSPropertyOp58
 70
     1
102
RTVSPropertyOp59
 70
     1
102
RTVSPropertyOp60
 70
     1
102
RTVSPropertyOp61
 70
     1
102
RTVSPropertyOp62
 70
     1
  0
XRECORD
  5
99F2
102
{ACAD_REACTORS
330
99F1
102
}
330
99F1
100
AcDbXrecord
280
     1
102
RTVSPost2010Prop28
280
     0
102
RTVSPost2010PropOp28
 70
     1
102
RTVSPost2010Prop29
280
     1
102
RTVSPost2010PropOp29
 70
     1
102
RTVSPost2010Prop30
280
     1
102
RTVSPost2010PropOp30
 70
     1
102
RTVSPost2010Prop31
280
     0
102
RTVSPost2010PropOp31
 70
     1
102
RTVSPost2010Prop32
280
     0
102
RTVSPost2010PropOp32
 70
     1
102
RTVSPost2010Prop33
280
     0
102
RTVSPost2010PropOp33
 70
     1
102
RTVSPost2010Prop34
280
     0
102
RTVSPost2010PropOp34
 70
     1
102
RTVSPost2010Prop35
280
     0
102
RTVSPost2010PropOp35
 70
     1
102
RTVSPost2010Prop36
280
     0
102
RTVSPost2010PropOp36
 70
     1
102
RTVSPost2010Prop37
 90
       50
102
RTVSPost2010PropOp37
 70
     1
102
RTVSPost2010Prop38
140
0.0
102
RTVSPost2010PropOp38
 70
     1
102
RTVSPost2010Prop39
140
1.0
102
RTVSPost2010PropOp39
 70
     1
102
RTVSPost2010Prop40
 90
        0
102
RTVSPost2010PropOp40
 70
     1
102
RTVSPost2010Prop41ColorIndex
 90
       18
102
RTVSPost2010Prop41ColorRGB
 90
        0
102
RTVSPost2010PropOp41
 70
     1
102
RTVSPost2010Prop42
 90
       50
102
RTVSPost2010PropOp42
 70
     1
102
RTVSPost2010Prop43
 90
        3
102
RTVSPost2010PropOp43
 70
     1
102
RTVSPost2010Prop44ColorIndex
 90
        5
102
RTVSPost2010Prop44ColorRGB
 90
      255
102
RTVSPost2010PropOp44
 70
     1
102
RTVSPost2010Prop45
280
     0
102
RTVSPost2010PropOp45
 70
     1
102
RTVSPost2010Prop46
 90
       50
102
RTVSPost2010PropOp46
 70
     1
102
RTVSPost2010Prop47
 90
       50
102
RTVSPost2010PropOp47
 70
     1
102
RTVSPost2010Prop48
 90
       50
102
RTVSPost2010PropOp48
 70
     1
102
RTVSPost2010Prop49
280
     0
102
RTVSPost2010PropOp49
 70
     1
102
RTVSPost2010Prop50
 90
       50
102
RTVSPost2010PropOp50
 70
     1
102
RTVSPost2010Prop51ColorIndex
 90
      256
102
RTVSPost2010Prop51ColorRGB
 90
-16777216
102
RTVSPost2010PropOp51
 70
     0
102
RTVSPost2010Prop52
140
1.0
102
RTVSPost2010PropOp52
 70
     0
102
RTVSPost2010Prop53
 90
        2
102
RTVSPost2010PropOp53
 70
     1
102
RTVSPost2010Prop54
  1
strokes_ogs.tif
102
RTVSPost2010PropOp54
 70
     1
102
RTVSPost2010Prop55
280
     0
102
RTVSPost2010PropOp55
 70
     1
102
RTVSPost2010Prop56
140
1.0
102
RTVSPost2010PropOp56
 70
     1
102
RTVSPost2010Prop57
140
1.0
102
RTVSPost2010PropOp57
 70
     1
102
RTVSPropertyOp0
 70
     0
102
RTVSPropertyOp1
 70
     0
102
RTVSPropertyOp2
 70
     0
102
RTVSPropertyOp3
 70
     0
102
RTVSPropertyOp4
 70
     0
102
RTVSPropertyOp5
 70
     0
102
RTVSPropertyOp6
 70
     0
102
RTVSPropertyOp7
 70
     0
102
RTVSPropertyOp8
 70
     0
102
RTVSPropertyOp9
 70
     0
102
RTVSPropertyOp10
 70
     0
102
RTVSPropertyOp11
 70
     0
102
RTVSPropertyOp12
 70
     0
102
RTVSPropertyOp13
 70
     0
102
RTVSPropertyOp14
 70
     2
102
RTVSPropertyOp15
 70
     0
102
RTVSPropertyOp16
 70
     0
102
RTVSPropertyOp17
 70
     0
102
RTVSPropertyOp18
 70
     0
102
RTVSPropertyOp19
 70
     0
102
RTVSPropertyOp20
 70
     0
102
RTVSPropertyOp21
 70
     0
102
RTVSPropertyOp22
 70
     0
102
RTVSPropertyOp23
 70
     0
102
RTVSPropertyOp24
 70
     0
102
RTVSPropertyOp25
 70
     0
102
RTVSPropertyOp26
 70
     0
102
RTVSPropertyOp27
 70
     0
102
RTVSPropertyOp28
 70
     1
102
RTVSPropertyOp29
 70
     1
102
RTVSPropertyOp30
 70
     1
102
RTVSPropertyOp31
 70
     1
102
RTVSPropertyOp32
 70
     1
102
RTVSPropertyOp33
 70
     1
102
RTVSPropertyOp34
 70
     1
102
RTVSPropertyOp35
 70
     1
102
RTVSPropertyOp36
 70
     1
102
RTVSPropertyOp37
 70
     1
102
RTVSPropertyOp38
 70
     1
102
RTVSPropertyOp39
 70
     1
102
RTVSPropertyOp40
 70
     1
102
RTVSPropertyOp41
 70
     1
102
RTVSPropertyOp42
 70
     1
102
RTVSPropertyOp43
 70
     1
102
RTVSPropertyOp44
 70
     1
102
RTVSPropertyOp45
 70
     1
102
RTVSPropertyOp46
 70
     1
102
RTVSPropertyOp47
 70
     1
102
RTVSPropertyOp48
 70
     1
102
RTVSPropertyOp49
 70
     1
102
RTVSPropertyOp50
 70
     1
102
RTVSPropertyOp51
 70
     0
102
RTVSPropertyOp52
 70
     0
102
RTVSPropertyOp53
 70
     1
102
RTVSPropertyOp54
 70
     1
102
RTVSPropertyOp55
 70
     1
102
RTVSPropertyOp56
 70
     1
102
RTVSPropertyOp57
 70
     1
102
RTVSPropertyOp58
 70
     1
102
RTVSPropertyOp59
 70
     1
102
RTVSPropertyOp60
 70
     1
102
RTVSPropertyOp61
 70
     1
102
RTVSPropertyOp62
 70
     1
  0
XRECORD
  5
99E8
102
{ACAD_REACTORS
330
99E7
102
}
330
99E7
100
AcDbXrecord
280
     1
102
RTVSPost2010Prop28
280
     0
102
RTVSPost2010PropOp28
 70
     1
102
RTVSPost2010Prop29
280
     1
102
RTVSPost2010PropOp29
 70
     1
102
RTVSPost2010Prop30
280
     1
102
RTVSPost2010PropOp30
 70
     1
102
RTVSPost2010Prop31
280
     0
102
RTVSPost2010PropOp31
 70
     1
102
RTVSPost2010Prop32
280
     0
102
RTVSPost2010PropOp32
 70
     1
102
RTVSPost2010Prop33
280
     0
102
RTVSPost2010PropOp33
 70
     1
102
RTVSPost2010Prop34
280
     0
102
RTVSPost2010PropOp34
 70
     1
102
RTVSPost2010Prop35
280
     0
102
RTVSPost2010PropOp35
 70
     1
102
RTVSPost2010Prop36
280
     0
102
RTVSPost2010PropOp36
 70
     1
102
RTVSPost2010Prop37
 90
       50
102
RTVSPost2010PropOp37
 70
     1
102
RTVSPost2010Prop38
140
0.0
102
RTVSPost2010PropOp38
 70
     1
102
RTVSPost2010Prop39
140
1.0
102
RTVSPost2010PropOp39
 70
     1
102
RTVSPost2010Prop40
 90
        0
102
RTVSPost2010PropOp40
 70
     1
102
RTVSPost2010Prop41ColorIndex
 90
       18
102
RTVSPost2010Prop41ColorRGB
 90
        0
102
RTVSPost2010PropOp41
 70
     1
102
RTVSPost2010Prop42
 90
       50
102
RTVSPost2010PropOp42
 70
     1
102
RTVSPost2010Prop43
 90
        3
102
RTVSPost2010PropOp43
 70
     1
102
RTVSPost2010Prop44ColorIndex
 90
        5
102
RTVSPost2010Prop44ColorRGB
 90
      255
102
RTVSPost2010PropOp44
 70
     1
102
RTVSPost2010Prop45
280
     0
102
RTVSPost2010PropOp45
 70
     1
102
RTVSPost2010Prop46
 90
       50
102
RTVSPost2010PropOp46
 70
     1
102
RTVSPost2010Prop47
 90
       50
102
RTVSPost2010PropOp47
 70
     1
102
RTVSPost2010Prop48
 90
       50
102
RTVSPost2010PropOp48
 70
     1
102
RTVSPost2010Prop49
280
     0
102
RTVSPost2010PropOp49
 70
     1
102
RTVSPost2010Prop50
 90
       50
102
RTVSPost2010PropOp50
 70
     1
102
RTVSPost2010Prop51ColorIndex
 90
      256
102
RTVSPost2010Prop51ColorRGB
 90
-16777216
102
RTVSPost2010PropOp51
 70
     0
102
RTVSPost2010Prop52
140
1.0
102
RTVSPost2010PropOp52
 70
     0
102
RTVSPost2010Prop53
 90
        2
102
RTVSPost2010PropOp53
 70
     1
102
RTVSPost2010Prop54
  1
strokes_ogs.tif
102
RTVSPost2010PropOp54
 70
     1
102
RTVSPost2010Prop55
280
     0
102
RTVSPost2010PropOp55
 70
     1
102
RTVSPost2010Prop56
140
1.0
102
RTVSPost2010PropOp56
 70
     1
102
RTVSPost2010Prop57
140
1.0
102
RTVSPost2010PropOp57
 70
     1
102
RTVSPropertyOp0
 70
     1
102
RTVSPropertyOp1
 70
     1
102
RTVSPropertyOp2
 70
     1
102
RTVSPropertyOp3
 70
     1
102
RTVSPropertyOp4
 70
     1
102
RTVSPropertyOp5
 70
     1
102
RTVSPropertyOp6
 70
     1
102
RTVSPropertyOp7
 70
     1
102
RTVSPropertyOp8
 70
     1
102
RTVSPropertyOp9
 70
     1
102
RTVSPropertyOp10
 70
     1
102
RTVSPropertyOp11
 70
     1
102
RTVSPropertyOp12
 70
     1
102
RTVSPropertyOp13
 70
     1
102
RTVSPropertyOp14
 70
     1
102
RTVSPropertyOp15
 70
     1
102
RTVSPropertyOp16
 70
     1
102
RTVSPropertyOp17
 70
     1
102
RTVSPropertyOp18
 70
     1
102
RTVSPropertyOp19
 70
     1
102
RTVSPropertyOp20
 70
     1
102
RTVSPropertyOp21
 70
     1
102
RTVSPropertyOp22
 70
     1
102
RTVSPropertyOp23
 70
     1
102
RTVSPropertyOp24
 70
     1
102
RTVSPropertyOp25
 70
     1
102
RTVSPropertyOp26
 70
     1
102
RTVSPropertyOp27
 70
     1
102
RTVSPropertyOp28
 70
     1
102
RTVSPropertyOp29
 70
     1
102
RTVSPropertyOp30
 70
     1
102
RTVSPropertyOp31
 70
     1
102
RTVSPropertyOp32
 70
     1
102
RTVSPropertyOp33
 70
     1
102
RTVSPropertyOp34
 70
     1
102
RTVSPropertyOp35
 70
     1
102
RTVSPropertyOp36
 70
     1
102
RTVSPropertyOp37
 70
     1
102
RTVSPropertyOp38
 70
     1
102
RTVSPropertyOp39
 70
     1
102
RTVSPropertyOp40
 70
     1
102
RTVSPropertyOp41
 70
     1
102
RTVSPropertyOp42
 70
     1
102
RTVSPropertyOp43
 70
     1
102
RTVSPropertyOp44
 70
     1
102
RTVSPropertyOp45
 70
     1
102
RTVSPropertyOp46
 70
     1
102
RTVSPropertyOp47
 70
     1
102
RTVSPropertyOp48
 70
     1
102
RTVSPropertyOp49
 70
     1
102
RTVSPropertyOp50
 70
     1
102
RTVSPropertyOp51
 70
     0
102
RTVSPropertyOp52
 70
     0
102
RTVSPropertyOp53
 70
     1
102
RTVSPropertyOp54
 70
     1
102
RTVSPropertyOp55
 70
     1
102
RTVSPropertyOp56
 70
     1
102
RTVSPropertyOp57
 70
     1
102
RTVSPropertyOp58
 70
     1
102
RTVSPropertyOp59
 70
     1
102
RTVSPropertyOp60
 70
     1
102
RTVSPropertyOp61
 70
     1
102
RTVSPropertyOp62
 70
     1
  0
XRECORD
  5
99CC
102
{ACAD_REACTORS
330
99CB
102
}
330
99CB
100
AcDbXrecord
280
     1
102
RTVSPost2010Prop28
280
     0
102
RTVSPost2010PropOp28
 70
     1
102
RTVSPost2010Prop29
280
     1
102
RTVSPost2010PropOp29
 70
     1
102
RTVSPost2010Prop30
280
     1
102
RTVSPost2010PropOp30
 70
     1
102
RTVSPost2010Prop31
280
     0
102
RTVSPost2010PropOp31
 70
     1
102
RTVSPost2010Prop32
280
     0
102
RTVSPost2010PropOp32
 70
     1
102
RTVSPost2010Prop33
280
     0
102
RTVSPost2010PropOp33
 70
     1
102
RTVSPost2010Prop34
280
     0
102
RTVSPost2010PropOp34
 70
     1
102
RTVSPost2010Prop35
280
     0
102
RTVSPost2010PropOp35
 70
     1
102
RTVSPost2010Prop36
280
     0
102
RTVSPost2010PropOp36
 70
     1
102
RTVSPost2010Prop37
 90
       50
102
RTVSPost2010PropOp37
 70
     1
102
RTVSPost2010Prop38
140
0.0
102
RTVSPost2010PropOp38
 70
     1
102
RTVSPost2010Prop39
140
1.0
102
RTVSPost2010PropOp39
 70
     1
102
RTVSPost2010Prop40
 90
        0
102
RTVSPost2010PropOp40
 70
     1
102
RTVSPost2010Prop41ColorIndex
 90
       18
102
RTVSPost2010Prop41ColorRGB
 90
        0
102
RTVSPost2010PropOp41
 70
     1
102
RTVSPost2010Prop42
 90
       50
102
RTVSPost2010PropOp42
 70
     1
102
RTVSPost2010Prop43
 90
        3
102
RTVSPost2010PropOp43
 70
     1
102
RTVSPost2010Prop44ColorIndex
 90
        5
102
RTVSPost2010Prop44ColorRGB
 90
      255
102
RTVSPost2010PropOp44
 70
     1
102
RTVSPost2010Prop45
280
     0
102
RTVSPost2010PropOp45
 70
     1
102
RTVSPost2010Prop46
 90
       50
102
RTVSPost2010PropOp46
 70
     1
102
RTVSPost2010Prop47
 90
       50
102
RTVSPost2010PropOp47
 70
     1
102
RTVSPost2010Prop48
 90
       50
102
RTVSPost2010PropOp48
 70
     1
102
RTVSPost2010Prop49
280
     0
102
RTVSPost2010PropOp49
 70
     1
102
RTVSPost2010Prop50
 90
       50
102
RTVSPost2010PropOp50
 70
     1
102
RTVSPost2010Prop51ColorIndex
 90
      256
102
RTVSPost2010Prop51ColorRGB
 90
-16777216
102
RTVSPost2010PropOp51
 70
     0
102
RTVSPost2010Prop52
140
1.0
102
RTVSPost2010PropOp52
 70
     0
102
RTVSPost2010Prop53
 90
        2
102
RTVSPost2010PropOp53
 70
     1
102
RTVSPost2010Prop54
  1
strokes_ogs.tif
102
RTVSPost2010PropOp54
 70
     1
102
RTVSPost2010Prop55
280
     0
102
RTVSPost2010PropOp55
 70
     1
102
RTVSPost2010Prop56
140
1.0
102
RTVSPost2010PropOp56
 70
     1
102
RTVSPost2010Prop57
140
1.0
102
RTVSPost2010PropOp57
 70
     1
102
RTVSPropertyOp0
 70
     1
102
RTVSPropertyOp1
 70
     1
102
RTVSPropertyOp2
 70
     1
102
RTVSPropertyOp3
 70
     1
102
RTVSPropertyOp4
 70
     1
102
RTVSPropertyOp5
 70
     1
102
RTVSPropertyOp6
 70
     1
102
RTVSPropertyOp7
 70
     1
102
RTVSPropertyOp8
 70
     1
102
RTVSPropertyOp9
 70
     1
102
RTVSPropertyOp10
 70
     1
102
RTVSPropertyOp11
 70
     1
102
RTVSPropertyOp12
 70
     1
102
RTVSPropertyOp13
 70
     1
102
RTVSPropertyOp14
 70
     1
102
RTVSPropertyOp15
 70
     1
102
RTVSPropertyOp16
 70
     1
102
RTVSPropertyOp17
 70
     1
102
RTVSPropertyOp18
 70
     1
102
RTVSPropertyOp19
 70
     1
102
RTVSPropertyOp20
 70
     1
102
RTVSPropertyOp21
 70
     1
102
RTVSPropertyOp22
 70
     1
102
RTVSPropertyOp23
 70
     1
102
RTVSPropertyOp24
 70
     1
102
RTVSPropertyOp25
 70
     1
102
RTVSPropertyOp26
 70
     1
102
RTVSPropertyOp27
 70
     1
102
RTVSPropertyOp28
 70
     1
102
RTVSPropertyOp29
 70
     1
102
RTVSPropertyOp30
 70
     1
102
RTVSPropertyOp31
 70
     1
102
RTVSPropertyOp32
 70
     1
102
RTVSPropertyOp33
 70
     1
102
RTVSPropertyOp34
 70
     1
102
RTVSPropertyOp35
 70
     1
102
RTVSPropertyOp36
 70
     1
102
RTVSPropertyOp37
 70
     1
102
RTVSPropertyOp38
 70
     1
102
RTVSPropertyOp39
 70
     1
102
RTVSPropertyOp40
 70
     1
102
RTVSPropertyOp41
 70
     1
102
RTVSPropertyOp42
 70
     1
102
RTVSPropertyOp43
 70
     1
102
RTVSPropertyOp44
 70
     1
102
RTVSPropertyOp45
 70
     1
102
RTVSPropertyOp46
 70
     1
102
RTVSPropertyOp47
 70
     1
102
RTVSPropertyOp48
 70
     1
102
RTVSPropertyOp49
 70
     1
102
RTVSPropertyOp50
 70
     1
102
RTVSPropertyOp51
 70
     0
102
RTVSPropertyOp52
 70
     0
102
RTVSPropertyOp53
 70
     1
102
RTVSPropertyOp54
 70
     1
102
RTVSPropertyOp55
 70
     1
102
RTVSPropertyOp56
 70
     1
102
RTVSPropertyOp57
 70
     1
102
RTVSPropertyOp58
 70
     1
102
RTVSPropertyOp59
 70
     1
102
RTVSPropertyOp60
 70
     1
102
RTVSPropertyOp61
 70
     1
102
RTVSPropertyOp62
 70
     1
  0
XRECORD
  5
99CE
102
{ACAD_REACTORS
330
99CD
102
}
330
99CD
100
AcDbXrecord
280
     1
102
RTVSPost2010Prop28
280
     0
102
RTVSPost2010PropOp28
 70
     1
102
RTVSPost2010Prop29
280
     1
102
RTVSPost2010PropOp29
 70
     1
102
RTVSPost2010Prop30
280
     1
102
RTVSPost2010PropOp30
 70
     1
102
RTVSPost2010Prop31
280
     0
102
RTVSPost2010PropOp31
 70
     1
102
RTVSPost2010Prop32
280
     0
102
RTVSPost2010PropOp32
 70
     1
102
RTVSPost2010Prop33
280
     0
102
RTVSPost2010PropOp33
 70
     1
102
RTVSPost2010Prop34
280
     0
102
RTVSPost2010PropOp34
 70
     1
102
RTVSPost2010Prop35
280
     0
102
RTVSPost2010PropOp35
 70
     1
102
RTVSPost2010Prop36
280
     0
102
RTVSPost2010PropOp36
 70
     1
102
RTVSPost2010Prop37
 90
       50
102
RTVSPost2010PropOp37
 70
     1
102
RTVSPost2010Prop38
140
0.0
102
RTVSPost2010PropOp38
 70
     1
102
RTVSPost2010Prop39
140
1.0
102
RTVSPost2010PropOp39
 70
     1
102
RTVSPost2010Prop40
 90
        0
102
RTVSPost2010PropOp40
 70
     1
102
RTVSPost2010Prop41ColorIndex
 90
       18
102
RTVSPost2010Prop41ColorRGB
 90
        0
102
RTVSPost2010PropOp41
 70
     1
102
RTVSPost2010Prop42
 90
       50
102
RTVSPost2010PropOp42
 70
     1
102
RTVSPost2010Prop43
 90
        3
102
RTVSPost2010PropOp43
 70
     1
102
RTVSPost2010Prop44ColorIndex
 90
        5
102
RTVSPost2010Prop44ColorRGB
 90
      255
102
RTVSPost2010PropOp44
 70
     1
102
RTVSPost2010Prop45
280
     0
102
RTVSPost2010PropOp45
 70
     1
102
RTVSPost2010Prop46
 90
       50
102
RTVSPost2010PropOp46
 70
     1
102
RTVSPost2010Prop47
 90
       50
102
RTVSPost2010PropOp47
 70
     1
102
RTVSPost2010Prop48
 90
       50
102
RTVSPost2010PropOp48
 70
     1
102
RTVSPost2010Prop49
280
     0
102
RTVSPost2010PropOp49
 70
     1
102
RTVSPost2010Prop50
 90
       50
102
RTVSPost2010PropOp50
 70
     1
102
RTVSPost2010Prop51ColorIndex
 90
      256
102
RTVSPost2010Prop51ColorRGB
 90
-16777216
102
RTVSPost2010PropOp51
 70
     0
102
RTVSPost2010Prop52
140
1.0
102
RTVSPost2010PropOp52
 70
     0
102
RTVSPost2010Prop53
 90
        2
102
RTVSPost2010PropOp53
 70
     1
102
RTVSPost2010Prop54
  1
strokes_ogs.tif
102
RTVSPost2010PropOp54
 70
     1
102
RTVSPost2010Prop55
280
     0
102
RTVSPost2010PropOp55
 70
     1
102
RTVSPost2010Prop56
140
1.0
102
RTVSPost2010PropOp56
 70
     1
102
RTVSPost2010Prop57
140
1.0
102
RTVSPost2010PropOp57
 70
     1
102
RTVSPropertyOp0
 70
     1
102
RTVSPropertyOp1
 70
     1
102
RTVSPropertyOp2
 70
     1
102
RTVSPropertyOp3
 70
     1
102
RTVSPropertyOp4
 70
     1
102
RTVSPropertyOp5
 70
     1
102
RTVSPropertyOp6
 70
     1
102
RTVSPropertyOp7
 70
     1
102
RTVSPropertyOp8
 70
     1
102
RTVSPropertyOp9
 70
     1
102
RTVSPropertyOp10
 70
     1
102
RTVSPropertyOp11
 70
     1
102
RTVSPropertyOp12
 70
     1
102
RTVSPropertyOp13
 70
     1
102
RTVSPropertyOp14
 70
     1
102
RTVSPropertyOp15
 70
     1
102
RTVSPropertyOp16
 70
     1
102
RTVSPropertyOp17
 70
     1
102
RTVSPropertyOp18
 70
     1
102
RTVSPropertyOp19
 70
     1
102
RTVSPropertyOp20
 70
     1
102
RTVSPropertyOp21
 70
     1
102
RTVSPropertyOp22
 70
     1
102
RTVSPropertyOp23
 70
     1
102
RTVSPropertyOp24
 70
     1
102
RTVSPropertyOp25
 70
     1
102
RTVSPropertyOp26
 70
     1
102
RTVSPropertyOp27
 70
     1
102
RTVSPropertyOp28
 70
     1
102
RTVSPropertyOp29
 70
     1
102
RTVSPropertyOp30
 70
     1
102
RTVSPropertyOp31
 70
     1
102
RTVSPropertyOp32
 70
     1
102
RTVSPropertyOp33
 70
     1
102
RTVSPropertyOp34
 70
     1
102
RTVSPropertyOp35
 70
     1
102
RTVSPropertyOp36
 70
     1
102
RTVSPropertyOp37
 70
     1
102
RTVSPropertyOp38
 70
     1
102
RTVSPropertyOp39
 70
     1
102
RTVSPropertyOp40
 70
     1
102
RTVSPropertyOp41
 70
     1
102
RTVSPropertyOp42
 70
     1
102
RTVSPropertyOp43
 70
     1
102
RTVSPropertyOp44
 70
     1
102
RTVSPropertyOp45
 70
     1
102
RTVSPropertyOp46
 70
     1
102
RTVSPropertyOp47
 70
     1
102
RTVSPropertyOp48
 70
     1
102
RTVSPropertyOp49
 70
     1
102
RTVSPropertyOp50
 70
     1
102
RTVSPropertyOp51
 70
     0
102
RTVSPropertyOp52
 70
     0
102
RTVSPropertyOp53
 70
     1
102
RTVSPropertyOp54
 70
     1
102
RTVSPropertyOp55
 70
     1
102
RTVSPropertyOp56
 70
     1
102
RTVSPropertyOp57
 70
     1
102
RTVSPropertyOp58
 70
     1
102
RTVSPropertyOp59
 70
     1
102
RTVSPropertyOp60
 70
     1
102
RTVSPropertyOp61
 70
     1
102
RTVSPropertyOp62
 70
     1
  0
XRECORD
  5
99D0
102
{ACAD_REACTORS
330
99CF
102
}
330
99CF
100
AcDbXrecord
280
     1
102
RTVSPost2010Prop28
280
     0
102
RTVSPost2010PropOp28
 70
     1
102
RTVSPost2010Prop29
280
     1
102
RTVSPost2010PropOp29
 70
     1
102
RTVSPost2010Prop30
280
     1
102
RTVSPost2010PropOp30
 70
     1
102
RTVSPost2010Prop31
280
     0
102
RTVSPost2010PropOp31
 70
     1
102
RTVSPost2010Prop32
280
     0
102
RTVSPost2010PropOp32
 70
     1
102
RTVSPost2010Prop33
280
     0
102
RTVSPost2010PropOp33
 70
     1
102
RTVSPost2010Prop34
280
     0
102
RTVSPost2010PropOp34
 70
     1
102
RTVSPost2010Prop35
280
     0
102
RTVSPost2010PropOp35
 70
     1
102
RTVSPost2010Prop36
280
     0
102
RTVSPost2010PropOp36
 70
     1
102
RTVSPost2010Prop37
 90
       50
102
RTVSPost2010PropOp37
 70
     1
102
RTVSPost2010Prop38
140
0.0
102
RTVSPost2010PropOp38
 70
     1
102
RTVSPost2010Prop39
140
1.0
102
RTVSPost2010PropOp39
 70
     1
102
RTVSPost2010Prop40
 90
        0
102
RTVSPost2010PropOp40
 70
     1
102
RTVSPost2010Prop41ColorIndex
 90
       18
102
RTVSPost2010Prop41ColorRGB
 90
        0
102
RTVSPost2010PropOp41
 70
     1
102
RTVSPost2010Prop42
 90
       50
102
RTVSPost2010PropOp42
 70
     1
102
RTVSPost2010Prop43
 90
        3
102
RTVSPost2010PropOp43
 70
     1
102
RTVSPost2010Prop44ColorIndex
 90
        5
102
RTVSPost2010Prop44ColorRGB
 90
      255
102
RTVSPost2010PropOp44
 70
     1
102
RTVSPost2010Prop45
280
     0
102
RTVSPost2010PropOp45
 70
     1
102
RTVSPost2010Prop46
 90
       50
102
RTVSPost2010PropOp46
 70
     1
102
RTVSPost2010Prop47
 90
       50
102
RTVSPost2010PropOp47
 70
     1
102
RTVSPost2010Prop48
 90
       50
102
RTVSPost2010PropOp48
 70
     1
102
RTVSPost2010Prop49
280
     0
102
RTVSPost2010PropOp49
 70
     1
102
RTVSPost2010Prop50
 90
       50
102
RTVSPost2010PropOp50
 70
     1
102
RTVSPost2010Prop51ColorIndex
 90
      256
102
RTVSPost2010Prop51ColorRGB
 90
-16777216
102
RTVSPost2010PropOp51
 70
     0
102
RTVSPost2010Prop52
140
1.0
102
RTVSPost2010PropOp52
 70
     0
102
RTVSPost2010Prop53
 90
        2
102
RTVSPost2010PropOp53
 70
     1
102
RTVSPost2010Prop54
  1
strokes_ogs.tif
102
RTVSPost2010PropOp54
 70
     1
102
RTVSPost2010Prop55
280
     0
102
RTVSPost2010PropOp55
 70
     1
102
RTVSPost2010Prop56
140
1.0
102
RTVSPost2010PropOp56
 70
     1
102
RTVSPost2010Prop57
140
1.0
102
RTVSPost2010PropOp57
 70
     1
102
RTVSPropertyOp0
 70
     1
102
RTVSPropertyOp1
 70
     1
102
RTVSPropertyOp2
 70
     1
102
RTVSPropertyOp3
 70
     1
102
RTVSPropertyOp4
 70
     1
102
RTVSPropertyOp5
 70
     1
102
RTVSPropertyOp6
 70
     1
102
RTVSPropertyOp7
 70
     1
102
RTVSPropertyOp8
 70
     1
102
RTVSPropertyOp9
 70
     1
102
RTVSPropertyOp10
 70
     1
102
RTVSPropertyOp11
 70
     1
102
RTVSPropertyOp12
 70
     1
102
RTVSPropertyOp13
 70
     1
102
RTVSPropertyOp14
 70
     1
102
RTVSPropertyOp15
 70
     1
102
RTVSPropertyOp16
 70
     1
102
RTVSPropertyOp17
 70
     1
102
RTVSPropertyOp18
 70
     1
102
RTVSPropertyOp19
 70
     1
102
RTVSPropertyOp20
 70
     1
102
RTVSPropertyOp21
 70
     1
102
RTVSPropertyOp22
 70
     1
102
RTVSPropertyOp23
 70
     1
102
RTVSPropertyOp24
 70
     1
102
RTVSPropertyOp25
 70
     1
102
RTVSPropertyOp26
 70
     1
102
RTVSPropertyOp27
 70
     1
102
RTVSPropertyOp28
 70
     1
102
RTVSPropertyOp29
 70
     1
102
RTVSPropertyOp30
 70
     1
102
RTVSPropertyOp31
 70
     1
102
RTVSPropertyOp32
 70
     1
102
RTVSPropertyOp33
 70
     1
102
RTVSPropertyOp34
 70
     1
102
RTVSPropertyOp35
 70
     1
102
RTVSPropertyOp36
 70
     1
102
RTVSPropertyOp37
 70
     1
102
RTVSPropertyOp38
 70
     1
102
RTVSPropertyOp39
 70
     1
102
RTVSPropertyOp40
 70
     1
102
RTVSPropertyOp41
 70
     1
102
RTVSPropertyOp42
 70
     1
102
RTVSPropertyOp43
 70
     1
102
RTVSPropertyOp44
 70
     1
102
RTVSPropertyOp45
 70
     1
102
RTVSPropertyOp46
 70
     1
102
RTVSPropertyOp47
 70
     1
102
RTVSPropertyOp48
 70
     1
102
RTVSPropertyOp49
 70
     1
102
RTVSPropertyOp50
 70
     1
102
RTVSPropertyOp51
 70
     0
102
RTVSPropertyOp52
 70
     0
102
RTVSPropertyOp53
 70
     1
102
RTVSPropertyOp54
 70
     1
102
RTVSPropertyOp55
 70
     1
102
RTVSPropertyOp56
 70
     1
102
RTVSPropertyOp57
 70
     1
102
RTVSPropertyOp58
 70
     1
102
RTVSPropertyOp59
 70
     1
102
RTVSPropertyOp60
 70
     1
102
RTVSPropertyOp61
 70
     1
102
RTVSPropertyOp62
 70
     1
  0
XRECORD
  5
99D2
102
{ACAD_REACTORS
330
99D1
102
}
330
99D1
100
AcDbXrecord
280
     1
102
RTVSPost2010Prop28
280
     0
102
RTVSPost2010PropOp28
 70
     1
102
RTVSPost2010Prop29
280
     1
102
RTVSPost2010PropOp29
 70
     1
102
RTVSPost2010Prop30
280
     1
102
RTVSPost2010PropOp30
 70
     1
102
RTVSPost2010Prop31
280
     0
102
RTVSPost2010PropOp31
 70
     1
102
RTVSPost2010Prop32
280
     0
102
RTVSPost2010PropOp32
 70
     1
102
RTVSPost2010Prop33
280
     0
102
RTVSPost2010PropOp33
 70
     1
102
RTVSPost2010Prop34
280
     0
102
RTVSPost2010PropOp34
 70
     1
102
RTVSPost2010Prop35
280
     0
102
RTVSPost2010PropOp35
 70
     1
102
RTVSPost2010Prop36
280
     0
102
RTVSPost2010PropOp36
 70
     1
102
RTVSPost2010Prop37
 90
       50
102
RTVSPost2010PropOp37
 70
     1
102
RTVSPost2010Prop38
140
0.0
102
RTVSPost2010PropOp38
 70
     1
102
RTVSPost2010Prop39
140
1.0
102
RTVSPost2010PropOp39
 70
     1
102
RTVSPost2010Prop40
 90
        0
102
RTVSPost2010PropOp40
 70
     1
102
RTVSPost2010Prop41ColorIndex
 90
       18
102
RTVSPost2010Prop41ColorRGB
 90
        0
102
RTVSPost2010PropOp41
 70
     1
102
RTVSPost2010Prop42
 90
       50
102
RTVSPost2010PropOp42
 70
     1
102
RTVSPost2010Prop43
 90
        3
102
RTVSPost2010PropOp43
 70
     1
102
RTVSPost2010Prop44ColorIndex
 90
        5
102
RTVSPost2010Prop44ColorRGB
 90
      255
102
RTVSPost2010PropOp44
 70
     1
102
RTVSPost2010Prop45
280
     0
102
RTVSPost2010PropOp45
 70
     1
102
RTVSPost2010Prop46
 90
       50
102
RTVSPost2010PropOp46
 70
     1
102
RTVSPost2010Prop47
 90
       50
102
RTVSPost2010PropOp47
 70
     1
102
RTVSPost2010Prop48
 90
       50
102
RTVSPost2010PropOp48
 70
     1
102
RTVSPost2010Prop49
280
     0
102
RTVSPost2010PropOp49
 70
     1
102
RTVSPost2010Prop50
 90
       50
102
RTVSPost2010PropOp50
 70
     1
102
RTVSPost2010Prop51ColorIndex
 90
      256
102
RTVSPost2010Prop51ColorRGB
 90
-16777216
102
RTVSPost2010PropOp51
 70
     0
102
RTVSPost2010Prop52
140
1.0
102
RTVSPost2010PropOp52
 70
     0
102
RTVSPost2010Prop53
 90
        2
102
RTVSPost2010PropOp53
 70
     1
102
RTVSPost2010Prop54
  1
strokes_ogs.tif
102
RTVSPost2010PropOp54
 70
     1
102
RTVSPost2010Prop55
280
     0
102
RTVSPost2010PropOp55
 70
     1
102
RTVSPost2010Prop56
140
1.0
102
RTVSPost2010PropOp56
 70
     1
102
RTVSPost2010Prop57
140
1.0
102
RTVSPost2010PropOp57
 70
     1
102
RTVSPropertyOp0
 70
     1
102
RTVSPropertyOp1
 70
     1
102
RTVSPropertyOp2
 70
     1
102
RTVSPropertyOp3
 70
     1
102
RTVSPropertyOp4
 70
     1
102
RTVSPropertyOp5
 70
     1
102
RTVSPropertyOp6
 70
     1
102
RTVSPropertyOp7
 70
     1
102
RTVSPropertyOp8
 70
     1
102
RTVSPropertyOp9
 70
     1
102
RTVSPropertyOp10
 70
     1
102
RTVSPropertyOp11
 70
     1
102
RTVSPropertyOp12
 70
     1
102
RTVSPropertyOp13
 70
     1
102
RTVSPropertyOp14
 70
     1
102
RTVSPropertyOp15
 70
     1
102
RTVSPropertyOp16
 70
     1
102
RTVSPropertyOp17
 70
     1
102
RTVSPropertyOp18
 70
     1
102
RTVSPropertyOp19
 70
     1
102
RTVSPropertyOp20
 70
     1
102
RTVSPropertyOp21
 70
     1
102
RTVSPropertyOp22
 70
     1
102
RTVSPropertyOp23
 70
     1
102
RTVSPropertyOp24
 70
     1
102
RTVSPropertyOp25
 70
     1
102
RTVSPropertyOp26
 70
     1
102
RTVSPropertyOp27
 70
     1
102
RTVSPropertyOp28
 70
     1
102
RTVSPropertyOp29
 70
     1
102
RTVSPropertyOp30
 70
     1
102
RTVSPropertyOp31
 70
     1
102
RTVSPropertyOp32
 70
     1
102
RTVSPropertyOp33
 70
     1
102
RTVSPropertyOp34
 70
     1
102
RTVSPropertyOp35
 70
     1
102
RTVSPropertyOp36
 70
     1
102
RTVSPropertyOp37
 70
     1
102
RTVSPropertyOp38
 70
     1
102
RTVSPropertyOp39
 70
     1
102
RTVSPropertyOp40
 70
     1
102
RTVSPropertyOp41
 70
     1
102
RTVSPropertyOp42
 70
     1
102
RTVSPropertyOp43
 70
     1
102
RTVSPropertyOp44
 70
     1
102
RTVSPropertyOp45
 70
     1
102
RTVSPropertyOp46
 70
     1
102
RTVSPropertyOp47
 70
     1
102
RTVSPropertyOp48
 70
     1
102
RTVSPropertyOp49
 70
     1
102
RTVSPropertyOp50
 70
     1
102
RTVSPropertyOp51
 70
     0
102
RTVSPropertyOp52
 70
     0
102
RTVSPropertyOp53
 70
     1
102
RTVSPropertyOp54
 70
     1
102
RTVSPropertyOp55
 70
     1
102
RTVSPropertyOp56
 70
     1
102
RTVSPropertyOp57
 70
     1
102
RTVSPropertyOp58
 70
     1
102
RTVSPropertyOp59
 70
     1
102
RTVSPropertyOp60
 70
     1
102
RTVSPropertyOp61
 70
     1
102
RTVSPropertyOp62
 70
     1
  0
XRECORD
  5
99DA
102
{ACAD_REACTORS
330
99D9
102
}
330
99D9
100
AcDbXrecord
280
     1
102
RTVSPost2010Prop28
280
     0
102
RTVSPost2010PropOp28
 70
     1
102
RTVSPost2010Prop29
280
     1
102
RTVSPost2010PropOp29
 70
     1
102
RTVSPost2010Prop30
280
     1
102
RTVSPost2010PropOp30
 70
     1
102
RTVSPost2010Prop31
280
     0
102
RTVSPost2010PropOp31
 70
     1
102
RTVSPost2010Prop32
280
     0
102
RTVSPost2010PropOp32
 70
     1
102
RTVSPost2010Prop33
280
     0
102
RTVSPost2010PropOp33
 70
     1
102
RTVSPost2010Prop34
280
     0
102
RTVSPost2010PropOp34
 70
     1
102
RTVSPost2010Prop35
280
     0
102
RTVSPost2010PropOp35
 70
     1
102
RTVSPost2010Prop36
280
     0
102
RTVSPost2010PropOp36
 70
     1
102
RTVSPost2010Prop37
 90
       50
102
RTVSPost2010PropOp37
 70
     1
102
RTVSPost2010Prop38
140
0.0
102
RTVSPost2010PropOp38
 70
     1
102
RTVSPost2010Prop39
140
1.0
102
RTVSPost2010PropOp39
 70
     1
102
RTVSPost2010Prop40
 90
        0
102
RTVSPost2010PropOp40
 70
     1
102
RTVSPost2010Prop41ColorIndex
 90
       18
102
RTVSPost2010Prop41ColorRGB
 90
        0
102
RTVSPost2010PropOp41
 70
     1
102
RTVSPost2010Prop42
 90
       50
102
RTVSPost2010PropOp42
 70
     1
102
RTVSPost2010Prop43
 90
        3
102
RTVSPost2010PropOp43
 70
     1
102
RTVSPost2010Prop44ColorIndex
 90
        5
102
RTVSPost2010Prop44ColorRGB
 90
      255
102
RTVSPost2010PropOp44
 70
     1
102
RTVSPost2010Prop45
280
     0
102
RTVSPost2010PropOp45
 70
     1
102
RTVSPost2010Prop46
 90
       50
102
RTVSPost2010PropOp46
 70
     1
102
RTVSPost2010Prop47
 90
       50
102
RTVSPost2010PropOp47
 70
     1
102
RTVSPost2010Prop48
 90
       50
102
RTVSPost2010PropOp48
 70
     1
102
RTVSPost2010Prop49
280
     0
102
RTVSPost2010PropOp49
 70
     1
102
RTVSPost2010Prop50
 90
       50
102
RTVSPost2010PropOp50
 70
     1
102
RTVSPost2010Prop51ColorIndex
 90
      256
102
RTVSPost2010Prop51ColorRGB
 90
-16777216
102
RTVSPost2010PropOp51
 70
     0
102
RTVSPost2010Prop52
140
1.0
102
RTVSPost2010PropOp52
 70
     0
102
RTVSPost2010Prop53
 90
        2
102
RTVSPost2010PropOp53
 70
     1
102
RTVSPost2010Prop54
  1
strokes_ogs.tif
102
RTVSPost2010PropOp54
 70
     1
102
RTVSPost2010Prop55
280
     0
102
RTVSPost2010PropOp55
 70
     1
102
RTVSPost2010Prop56
140
1.0
102
RTVSPost2010PropOp56
 70
     1
102
RTVSPost2010Prop57
140
1.0
102
RTVSPost2010PropOp57
 70
     1
102
RTVSPropertyOp0
 70
     1
102
RTVSPropertyOp1
 70
     1
102
RTVSPropertyOp2
 70
     1
102
RTVSPropertyOp3
 70
     1
102
RTVSPropertyOp4
 70
     1
102
RTVSPropertyOp5
 70
     1
102
RTVSPropertyOp6
 70
     1
102
RTVSPropertyOp7
 70
     1
102
RTVSPropertyOp8
 70
     1
102
RTVSPropertyOp9
 70
     1
102
RTVSPropertyOp10
 70
     1
102
RTVSPropertyOp11
 70
     1
102
RTVSPropertyOp12
 70
     1
102
RTVSPropertyOp13
 70
     1
102
RTVSPropertyOp14
 70
     1
102
RTVSPropertyOp15
 70
     1
102
RTVSPropertyOp16
 70
     1
102
RTVSPropertyOp17
 70
     1
102
RTVSPropertyOp18
 70
     1
102
RTVSPropertyOp19
 70
     1
102
RTVSPropertyOp20
 70
     1
102
RTVSPropertyOp21
 70
     1
102
RTVSPropertyOp22
 70
     1
102
RTVSPropertyOp23
 70
     1
102
RTVSPropertyOp24
 70
     1
102
RTVSPropertyOp25
 70
     1
102
RTVSPropertyOp26
 70
     1
102
RTVSPropertyOp27
 70
     1
102
RTVSPropertyOp28
 70
     1
102
RTVSPropertyOp29
 70
     1
102
RTVSPropertyOp30
 70
     1
102
RTVSPropertyOp31
 70
     1
102
RTVSPropertyOp32
 70
     1
102
RTVSPropertyOp33
 70
     1
102
RTVSPropertyOp34
 70
     1
102
RTVSPropertyOp35
 70
     1
102
RTVSPropertyOp36
 70
     1
102
RTVSPropertyOp37
 70
     1
102
RTVSPropertyOp38
 70
     1
102
RTVSPropertyOp39
 70
     1
102
RTVSPropertyOp40
 70
     1
102
RTVSPropertyOp41
 70
     1
102
RTVSPropertyOp42
 70
     1
102
RTVSPropertyOp43
 70
     1
102
RTVSPropertyOp44
 70
     1
102
RTVSPropertyOp45
 70
     1
102
RTVSPropertyOp46
 70
     1
102
RTVSPropertyOp47
 70
     1
102
RTVSPropertyOp48
 70
     1
102
RTVSPropertyOp49
 70
     1
102
RTVSPropertyOp50
 70
     1
102
RTVSPropertyOp51
 70
     0
102
RTVSPropertyOp52
 70
     0
102
RTVSPropertyOp53
 70
     1
102
RTVSPropertyOp54
 70
     1
102
RTVSPropertyOp55
 70
     1
102
RTVSPropertyOp56
 70
     1
102
RTVSPropertyOp57
 70
     1
102
RTVSPropertyOp58
 70
     1
102
RTVSPropertyOp59
 70
     1
102
RTVSPropertyOp60
 70
     1
102
RTVSPropertyOp61
 70
     1
102
RTVSPropertyOp62
 70
     1
  0
XRECORD
  5
99EE
102
{ACAD_REACTORS
330
99ED
102
}
330
99ED
100
AcDbXrecord
280
     1
102
RTVSPost2010Prop28
280
     0
102
RTVSPost2010PropOp28
 70
     1
102
RTVSPost2010Prop29
280
     1
102
RTVSPost2010PropOp29
 70
     1
102
RTVSPost2010Prop30
280
     1
102
RTVSPost2010PropOp30
 70
     1
102
RTVSPost2010Prop31
280
     0
102
RTVSPost2010PropOp31
 70
     1
102
RTVSPost2010Prop32
280
     0
102
RTVSPost2010PropOp32
 70
     1
102
RTVSPost2010Prop33
280
     0
102
RTVSPost2010PropOp33
 70
     1
102
RTVSPost2010Prop34
280
     0
102
RTVSPost2010PropOp34
 70
     1
102
RTVSPost2010Prop35
280
     0
102
RTVSPost2010PropOp35
 70
     1
102
RTVSPost2010Prop36
280
     0
102
RTVSPost2010PropOp36
 70
     1
102
RTVSPost2010Prop37
 90
       50
102
RTVSPost2010PropOp37
 70
     1
102
RTVSPost2010Prop38
140
0.0
102
RTVSPost2010PropOp38
 70
     1
102
RTVSPost2010Prop39
140
1.0
102
RTVSPost2010PropOp39
 70
     1
102
RTVSPost2010Prop40
 90
        0
102
RTVSPost2010PropOp40
 70
     1
102
RTVSPost2010Prop41ColorIndex
 90
       18
102
RTVSPost2010Prop41ColorRGB
 90
        0
102
RTVSPost2010PropOp41
 70
     1
102
RTVSPost2010Prop42
 90
       50
102
RTVSPost2010PropOp42
 70
     1
102
RTVSPost2010Prop43
 90
        3
102
RTVSPost2010PropOp43
 70
     1
102
RTVSPost2010Prop44ColorIndex
 90
        5
102
RTVSPost2010Prop44ColorRGB
 90
      255
102
RTVSPost2010PropOp44
 70
     1
102
RTVSPost2010Prop45
280
     0
102
RTVSPost2010PropOp45
 70
     1
102
RTVSPost2010Prop46
 90
       50
102
RTVSPost2010PropOp46
 70
     1
102
RTVSPost2010Prop47
 90
       50
102
RTVSPost2010PropOp47
 70
     1
102
RTVSPost2010Prop48
 90
       50
102
RTVSPost2010PropOp48
 70
     1
102
RTVSPost2010Prop49
280
     0
102
RTVSPost2010PropOp49
 70
     1
102
RTVSPost2010Prop50
 90
       50
102
RTVSPost2010PropOp50
 70
     1
102
RTVSPost2010Prop51ColorIndex
 90
      256
102
RTVSPost2010Prop51ColorRGB
 90
-16777216
102
RTVSPost2010PropOp51
 70
     0
102
RTVSPost2010Prop52
140
1.0
102
RTVSPost2010PropOp52
 70
     0
102
RTVSPost2010Prop53
 90
        2
102
RTVSPost2010PropOp53
 70
     1
102
RTVSPost2010Prop54
  1
strokes_ogs.tif
102
RTVSPost2010PropOp54
 70
     1
102
RTVSPost2010Prop55
280
     0
102
RTVSPost2010PropOp55
 70
     1
102
RTVSPost2010Prop56
140
1.0
102
RTVSPost2010PropOp56
 70
     1
102
RTVSPost2010Prop57
140
1.0
102
RTVSPost2010PropOp57
 70
     1
102
RTVSPropertyOp0
 70
     0
102
RTVSPropertyOp1
 70
     0
102
RTVSPropertyOp2
 70
     0
102
RTVSPropertyOp3
 70
     0
102
RTVSPropertyOp4
 70
     0
102
RTVSPropertyOp5
 70
     0
102
RTVSPropertyOp6
 70
     0
102
RTVSPropertyOp7
 70
     0
102
RTVSPropertyOp8
 70
     0
102
RTVSPropertyOp9
 70
     0
102
RTVSPropertyOp10
 70
     0
102
RTVSPropertyOp11
 70
     0
102
RTVSPropertyOp12
 70
     0
102
RTVSPropertyOp13
 70
     0
102
RTVSPropertyOp14
 70
     2
102
RTVSPropertyOp15
 70
     0
102
RTVSPropertyOp16
 70
     0
102
RTVSPropertyOp17
 70
     0
102
RTVSPropertyOp18
 70
     0
102
RTVSPropertyOp19
 70
     0
102
RTVSPropertyOp20
 70
     0
102
RTVSPropertyOp21
 70
     0
102
RTVSPropertyOp22
 70
     0
102
RTVSPropertyOp23
 70
     0
102
RTVSPropertyOp24
 70
     0
102
RTVSPropertyOp25
 70
     0
102
RTVSPropertyOp26
 70
     0
102
RTVSPropertyOp27
 70
     0
102
RTVSPropertyOp28
 70
     1
102
RTVSPropertyOp29
 70
     1
102
RTVSPropertyOp30
 70
     1
102
RTVSPropertyOp31
 70
     1
102
RTVSPropertyOp32
 70
     1
102
RTVSPropertyOp33
 70
     1
102
RTVSPropertyOp34
 70
     1
102
RTVSPropertyOp35
 70
     1
102
RTVSPropertyOp36
 70
     1
102
RTVSPropertyOp37
 70
     1
102
RTVSPropertyOp38
 70
     1
102
RTVSPropertyOp39
 70
     1
102
RTVSPropertyOp40
 70
     1
102
RTVSPropertyOp41
 70
     1
102
RTVSPropertyOp42
 70
     1
102
RTVSPropertyOp43
 70
     1
102
RTVSPropertyOp44
 70
     1
102
RTVSPropertyOp45
 70
     1
102
RTVSPropertyOp46
 70
     1
102
RTVSPropertyOp47
 70
     1
102
RTVSPropertyOp48
 70
     1
102
RTVSPropertyOp49
 70
     1
102
RTVSPropertyOp50
 70
     1
102
RTVSPropertyOp51
 70
     0
102
RTVSPropertyOp52
 70
     0
102
RTVSPropertyOp53
 70
     1
102
RTVSPropertyOp54
 70
     1
102
RTVSPropertyOp55
 70
     1
102
RTVSPropertyOp56
 70
     1
102
RTVSPropertyOp57
 70
     1
102
RTVSPropertyOp58
 70
     1
102
RTVSPropertyOp59
 70
     1
102
RTVSPropertyOp60
 70
     1
102
RTVSPropertyOp61
 70
     1
102
RTVSPropertyOp62
 70
     1
  0
XRECORD
  5
99E6
102
{ACAD_REACTORS
330
99E5
102
}
330
99E5
100
AcDbXrecord
280
     1
102
RTVSPost2010Prop28
280
     0
102
RTVSPost2010PropOp28
 70
     1
102
RTVSPost2010Prop29
280
     1
102
RTVSPost2010PropOp29
 70
     1
102
RTVSPost2010Prop30
280
     1
102
RTVSPost2010PropOp30
 70
     1
102
RTVSPost2010Prop31
280
     0
102
RTVSPost2010PropOp31
 70
     1
102
RTVSPost2010Prop32
280
     0
102
RTVSPost2010PropOp32
 70
     1
102
RTVSPost2010Prop33
280
     0
102
RTVSPost2010PropOp33
 70
     1
102
RTVSPost2010Prop34
280
     0
102
RTVSPost2010PropOp34
 70
     1
102
RTVSPost2010Prop35
280
     0
102
RTVSPost2010PropOp35
 70
     1
102
RTVSPost2010Prop36
280
     0
102
RTVSPost2010PropOp36
 70
     1
102
RTVSPost2010Prop37
 90
       50
102
RTVSPost2010PropOp37
 70
     1
102
RTVSPost2010Prop38
140
0.0
102
RTVSPost2010PropOp38
 70
     1
102
RTVSPost2010Prop39
140
1.0
102
RTVSPost2010PropOp39
 70
     1
102
RTVSPost2010Prop40
 90
        0
102
RTVSPost2010PropOp40
 70
     1
102
RTVSPost2010Prop41ColorIndex
 90
       18
102
RTVSPost2010Prop41ColorRGB
 90
        0
102
RTVSPost2010PropOp41
 70
     1
102
RTVSPost2010Prop42
 90
       50
102
RTVSPost2010PropOp42
 70
     1
102
RTVSPost2010Prop43
 90
        3
102
RTVSPost2010PropOp43
 70
     1
102
RTVSPost2010Prop44ColorIndex
 90
        5
102
RTVSPost2010Prop44ColorRGB
 90
      255
102
RTVSPost2010PropOp44
 70
     1
102
RTVSPost2010Prop45
280
     0
102
RTVSPost2010PropOp45
 70
     1
102
RTVSPost2010Prop46
 90
       50
102
RTVSPost2010PropOp46
 70
     1
102
RTVSPost2010Prop47
 90
       50
102
RTVSPost2010PropOp47
 70
     1
102
RTVSPost2010Prop48
 90
       50
102
RTVSPost2010PropOp48
 70
     1
102
RTVSPost2010Prop49
280
     0
102
RTVSPost2010PropOp49
 70
     1
102
RTVSPost2010Prop50
 90
       50
102
RTVSPost2010PropOp50
 70
     1
102
RTVSPost2010Prop51ColorIndex
 90
      256
102
RTVSPost2010Prop51ColorRGB
 90
-16777216
102
RTVSPost2010PropOp51
 70
     0
102
RTVSPost2010Prop52
140
1.0
102
RTVSPost2010PropOp52
 70
     0
102
RTVSPost2010Prop53
 90
        2
102
RTVSPost2010PropOp53
 70
     1
102
RTVSPost2010Prop54
  1
strokes_ogs.tif
102
RTVSPost2010PropOp54
 70
     1
102
RTVSPost2010Prop55
280
     0
102
RTVSPost2010PropOp55
 70
     1
102
RTVSPost2010Prop56
140
1.0
102
RTVSPost2010PropOp56
 70
     1
102
RTVSPost2010Prop57
140
1.0
102
RTVSPost2010PropOp57
 70
     1
102
RTVSPropertyOp0
 70
     1
102
RTVSPropertyOp1
 70
     1
102
RTVSPropertyOp2
 70
     1
102
RTVSPropertyOp3
 70
     1
102
RTVSPropertyOp4
 70
     1
102
RTVSPropertyOp5
 70
     1
102
RTVSPropertyOp6
 70
     1
102
RTVSPropertyOp7
 70
     1
102
RTVSPropertyOp8
 70
     1
102
RTVSPropertyOp9
 70
     1
102
RTVSPropertyOp10
 70
     1
102
RTVSPropertyOp11
 70
     1
102
RTVSPropertyOp12
 70
     1
102
RTVSPropertyOp13
 70
     1
102
RTVSPropertyOp14
 70
     1
102
RTVSPropertyOp15
 70
     1
102
RTVSPropertyOp16
 70
     1
102
RTVSPropertyOp17
 70
     1
102
RTVSPropertyOp18
 70
     1
102
RTVSPropertyOp19
 70
     1
102
RTVSPropertyOp20
 70
     1
102
RTVSPropertyOp21
 70
     1
102
RTVSPropertyOp22
 70
     1
102
RTVSPropertyOp23
 70
     1
102
RTVSPropertyOp24
 70
     1
102
RTVSPropertyOp25
 70
     1
102
RTVSPropertyOp26
 70
     1
102
RTVSPropertyOp27
 70
     1
102
RTVSPropertyOp28
 70
     1
102
RTVSPropertyOp29
 70
     1
102
RTVSPropertyOp30
 70
     1
102
RTVSPropertyOp31
 70
     1
102
RTVSPropertyOp32
 70
     1
102
RTVSPropertyOp33
 70
     1
102
RTVSPropertyOp34
 70
     1
102
RTVSPropertyOp35
 70
     1
102
RTVSPropertyOp36
 70
     1
102
RTVSPropertyOp37
 70
     1
102
RTVSPropertyOp38
 70
     1
102
RTVSPropertyOp39
 70
     1
102
RTVSPropertyOp40
 70
     1
102
RTVSPropertyOp41
 70
     1
102
RTVSPropertyOp42
 70
     1
102
RTVSPropertyOp43
 70
     1
102
RTVSPropertyOp44
 70
     1
102
RTVSPropertyOp45
 70
     1
102
RTVSPropertyOp46
 70
     1
102
RTVSPropertyOp47
 70
     1
102
RTVSPropertyOp48
 70
     1
102
RTVSPropertyOp49
 70
     1
102
RTVSPropertyOp50
 70
     1
102
RTVSPropertyOp51
 70
     0
102
RTVSPropertyOp52
 70
     0
102
RTVSPropertyOp53
 70
     1
102
RTVSPropertyOp54
 70
     1
102
RTVSPropertyOp55
 70
     1
102
RTVSPropertyOp56
 70
     1
102
RTVSPropertyOp57
 70
     1
102
RTVSPropertyOp58
 70
     1
102
RTVSPropertyOp59
 70
     1
102
RTVSPropertyOp60
 70
     1
102
RTVSPropertyOp61
 70
     1
102
RTVSPropertyOp62
 70
     1
  0
XRECORD
  5
99F0
102
{ACAD_REACTORS
330
99EF
102
}
330
99EF
100
AcDbXrecord
280
     1
102
RTVSPost2010Prop28
280
     0
102
RTVSPost2010PropOp28
 70
     1
102
RTVSPost2010Prop29
280
     1
102
RTVSPost2010PropOp29
 70
     1
102
RTVSPost2010Prop30
280
     1
102
RTVSPost2010PropOp30
 70
     1
102
RTVSPost2010Prop31
280
     0
102
RTVSPost2010PropOp31
 70
     1
102
RTVSPost2010Prop32
280
     0
102
RTVSPost2010PropOp32
 70
     1
102
RTVSPost2010Prop33
280
     0
102
RTVSPost2010PropOp33
 70
     1
102
RTVSPost2010Prop34
280
     0
102
RTVSPost2010PropOp34
 70
     1
102
RTVSPost2010Prop35
280
     0
102
RTVSPost2010PropOp35
 70
     1
102
RTVSPost2010Prop36
280
     0
102
RTVSPost2010PropOp36
 70
     1
102
RTVSPost2010Prop37
 90
       50
102
RTVSPost2010PropOp37
 70
     1
102
RTVSPost2010Prop38
140
0.0
102
RTVSPost2010PropOp38
 70
     1
102
RTVSPost2010Prop39
140
1.0
102
RTVSPost2010PropOp39
 70
     1
102
RTVSPost2010Prop40
 90
        0
102
RTVSPost2010PropOp40
 70
     1
102
RTVSPost2010Prop41ColorIndex
 90
       18
102
RTVSPost2010Prop41ColorRGB
 90
        0
102
RTVSPost2010PropOp41
 70
     1
102
RTVSPost2010Prop42
 90
       50
102
RTVSPost2010PropOp42
 70
     1
102
RTVSPost2010Prop43
 90
        3
102
RTVSPost2010PropOp43
 70
     1
102
RTVSPost2010Prop44ColorIndex
 90
        5
102
RTVSPost2010Prop44ColorRGB
 90
      255
102
RTVSPost2010PropOp44
 70
     1
102
RTVSPost2010Prop45
280
     0
102
RTVSPost2010PropOp45
 70
     1
102
RTVSPost2010Prop46
 90
       50
102
RTVSPost2010PropOp46
 70
     1
102
RTVSPost2010Prop47
 90
       50
102
RTVSPost2010PropOp47
 70
     1
102
RTVSPost2010Prop48
 90
       50
102
RTVSPost2010PropOp48
 70
     1
102
RTVSPost2010Prop49
280
     0
102
RTVSPost2010PropOp49
 70
     1
102
RTVSPost2010Prop50
 90
       50
102
RTVSPost2010PropOp50
 70
     1
102
RTVSPost2010Prop51ColorIndex
 90
      256
102
RTVSPost2010Prop51ColorRGB
 90
-16777216
102
RTVSPost2010PropOp51
 70
     0
102
RTVSPost2010Prop52
140
1.0
102
RTVSPost2010PropOp52
 70
     0
102
RTVSPost2010Prop53
 90
        2
102
RTVSPost2010PropOp53
 70
     1
102
RTVSPost2010Prop54
  1
strokes_ogs.tif
102
RTVSPost2010PropOp54
 70
     1
102
RTVSPost2010Prop55
280
     0
102
RTVSPost2010PropOp55
 70
     1
102
RTVSPost2010Prop56
140
1.0
102
RTVSPost2010PropOp56
 70
     1
102
RTVSPost2010Prop57
140
1.0
102
RTVSPost2010PropOp57
 70
     1
102
RTVSPropertyOp0
 70
     0
102
RTVSPropertyOp1
 70
     0
102
RTVSPropertyOp2
 70
     0
102
RTVSPropertyOp3
 70
     0
102
RTVSPropertyOp4
 70
     0
102
RTVSPropertyOp5
 70
     0
102
RTVSPropertyOp6
 70
     0
102
RTVSPropertyOp7
 70
     0
102
RTVSPropertyOp8
 70
     0
102
RTVSPropertyOp9
 70
     0
102
RTVSPropertyOp10
 70
     0
102
RTVSPropertyOp11
 70
     0
102
RTVSPropertyOp12
 70
     0
102
RTVSPropertyOp13
 70
     0
102
RTVSPropertyOp14
 70
     2
102
RTVSPropertyOp15
 70
     0
102
RTVSPropertyOp16
 70
     0
102
RTVSPropertyOp17
 70
     0
102
RTVSPropertyOp18
 70
     0
102
RTVSPropertyOp19
 70
     0
102
RTVSPropertyOp20
 70
     0
102
RTVSPropertyOp21
 70
     0
102
RTVSPropertyOp22
 70
     0
102
RTVSPropertyOp23
 70
     0
102
RTVSPropertyOp24
 70
     0
102
RTVSPropertyOp25
 70
     0
102
RTVSPropertyOp26
 70
     0
102
RTVSPropertyOp27
 70
     0
102
RTVSPropertyOp28
 70
     1
102
RTVSPropertyOp29
 70
     1
102
RTVSPropertyOp30
 70
     1
102
RTVSPropertyOp31
 70
     1
102
RTVSPropertyOp32
 70
     1
102
RTVSPropertyOp33
 70
     1
102
RTVSPropertyOp34
 70
     1
102
RTVSPropertyOp35
 70
     1
102
RTVSPropertyOp36
 70
     1
102
RTVSPropertyOp37
 70
     1
102
RTVSPropertyOp38
 70
     1
102
RTVSPropertyOp39
 70
     1
102
RTVSPropertyOp40
 70
     1
102
RTVSPropertyOp41
 70
     1
102
RTVSPropertyOp42
 70
     1
102
RTVSPropertyOp43
 70
     1
102
RTVSPropertyOp44
 70
     1
102
RTVSPropertyOp45
 70
     1
102
RTVSPropertyOp46
 70
     1
102
RTVSPropertyOp47
 70
     1
102
RTVSPropertyOp48
 70
     1
102
RTVSPropertyOp49
 70
     1
102
RTVSPropertyOp50
 70
     1
102
RTVSPropertyOp51
 70
     0
102
RTVSPropertyOp52
 70
     0
102
RTVSPropertyOp53
 70
     1
102
RTVSPropertyOp54
 70
     1
102
RTVSPropertyOp55
 70
     1
102
RTVSPropertyOp56
 70
     1
102
RTVSPropertyOp57
 70
     1
102
RTVSPropertyOp58
 70
     1
102
RTVSPropertyOp59
 70
     1
102
RTVSPropertyOp60
 70
     1
102
RTVSPropertyOp61
 70
     1
102
RTVSPropertyOp62
 70
     1
  0
XRECORD
  5
99DE
102
{ACAD_REACTORS
330
99DD
102
}
330
99DD
100
AcDbXrecord
280
     1
102
RTVSPost2010Prop28
280
     0
102
RTVSPost2010PropOp28
 70
     1
102
RTVSPost2010Prop29
280
     1
102
RTVSPost2010PropOp29
 70
     1
102
RTVSPost2010Prop30
280
     1
102
RTVSPost2010PropOp30
 70
     1
102
RTVSPost2010Prop31
280
     0
102
RTVSPost2010PropOp31
 70
     1
102
RTVSPost2010Prop32
280
     0
102
RTVSPost2010PropOp32
 70
     1
102
RTVSPost2010Prop33
280
     0
102
RTVSPost2010PropOp33
 70
     1
102
RTVSPost2010Prop34
280
     0
102
RTVSPost2010PropOp34
 70
     1
102
RTVSPost2010Prop35
280
     0
102
RTVSPost2010PropOp35
 70
     1
102
RTVSPost2010Prop36
280
     0
102
RTVSPost2010PropOp36
 70
     1
102
RTVSPost2010Prop37
 90
       50
102
RTVSPost2010PropOp37
 70
     1
102
RTVSPost2010Prop38
140
0.0
102
RTVSPost2010PropOp38
 70
     1
102
RTVSPost2010Prop39
140
1.0
102
RTVSPost2010PropOp39
 70
     1
102
RTVSPost2010Prop40
 90
        0
102
RTVSPost2010PropOp40
 70
     1
102
RTVSPost2010Prop41ColorIndex
 90
       18
102
RTVSPost2010Prop41ColorRGB
 90
        0
102
RTVSPost2010PropOp41
 70
     1
102
RTVSPost2010Prop42
 90
       50
102
RTVSPost2010PropOp42
 70
     1
102
RTVSPost2010Prop43
 90
        3
102
RTVSPost2010PropOp43
 70
     1
102
RTVSPost2010Prop44ColorIndex
 90
        5
102
RTVSPost2010Prop44ColorRGB
 90
      255
102
RTVSPost2010PropOp44
 70
     1
102
RTVSPost2010Prop45
280
     0
102
RTVSPost2010PropOp45
 70
     1
102
RTVSPost2010Prop46
 90
       50
102
RTVSPost2010PropOp46
 70
     1
102
RTVSPost2010Prop47
 90
       50
102
RTVSPost2010PropOp47
 70
     1
102
RTVSPost2010Prop48
 90
       50
102
RTVSPost2010PropOp48
 70
     1
102
RTVSPost2010Prop49
280
     0
102
RTVSPost2010PropOp49
 70
     1
102
RTVSPost2010Prop50
 90
       50
102
RTVSPost2010PropOp50
 70
     1
102
RTVSPost2010Prop51ColorIndex
 90
      256
102
RTVSPost2010Prop51ColorRGB
 90
-16777216
102
RTVSPost2010PropOp51
 70
     0
102
RTVSPost2010Prop52
140
1.0
102
RTVSPost2010PropOp52
 70
     0
102
RTVSPost2010Prop53
 90
        2
102
RTVSPost2010PropOp53
 70
     1
102
RTVSPost2010Prop54
  1
strokes_ogs.tif
102
RTVSPost2010PropOp54
 70
     1
102
RTVSPost2010Prop55
280
     0
102
RTVSPost2010PropOp55
 70
     1
102
RTVSPost2010Prop56
140
1.0
102
RTVSPost2010PropOp56
 70
     1
102
RTVSPost2010Prop57
140
1.0
102
RTVSPost2010PropOp57
 70
     1
102
RTVSPropertyOp0
 70
     1
102
RTVSPropertyOp1
 70
     1
102
RTVSPropertyOp2
 70
     1
102
RTVSPropertyOp3
 70
     1
102
RTVSPropertyOp4
 70
     1
102
RTVSPropertyOp5
 70
     1
102
RTVSPropertyOp6
 70
     1
102
RTVSPropertyOp7
 70
     1
102
RTVSPropertyOp8
 70
     1
102
RTVSPropertyOp9
 70
     1
102
RTVSPropertyOp10
 70
     1
102
RTVSPropertyOp11
 70
     1
102
RTVSPropertyOp12
 70
     1
102
RTVSPropertyOp13
 70
     1
102
RTVSPropertyOp14
 70
     1
102
RTVSPropertyOp15
 70
     1
102
RTVSPropertyOp16
 70
     1
102
RTVSPropertyOp17
 70
     1
102
RTVSPropertyOp18
 70
     1
102
RTVSPropertyOp19
 70
     1
102
RTVSPropertyOp20
 70
     1
102
RTVSPropertyOp21
 70
     1
102
RTVSPropertyOp22
 70
     1
102
RTVSPropertyOp23
 70
     1
102
RTVSPropertyOp24
 70
     1
102
RTVSPropertyOp25
 70
     1
102
RTVSPropertyOp26
 70
     1
102
RTVSPropertyOp27
 70
     1
102
RTVSPropertyOp28
 70
     1
102
RTVSPropertyOp29
 70
     1
102
RTVSPropertyOp30
 70
     1
102
RTVSPropertyOp31
 70
     1
102
RTVSPropertyOp32
 70
     1
102
RTVSPropertyOp33
 70
     1
102
RTVSPropertyOp34
 70
     1
102
RTVSPropertyOp35
 70
     1
102
RTVSPropertyOp36
 70
     1
102
RTVSPropertyOp37
 70
     1
102
RTVSPropertyOp38
 70
     1
102
RTVSPropertyOp39
 70
     1
102
RTVSPropertyOp40
 70
     1
102
RTVSPropertyOp41
 70
     1
102
RTVSPropertyOp42
 70
     1
102
RTVSPropertyOp43
 70
     1
102
RTVSPropertyOp44
 70
     1
102
RTVSPropertyOp45
 70
     1
102
RTVSPropertyOp46
 70
     1
102
RTVSPropertyOp47
 70
     1
102
RTVSPropertyOp48
 70
     1
102
RTVSPropertyOp49
 70
     1
102
RTVSPropertyOp50
 70
     1
102
RTVSPropertyOp51
 70
     0
102
RTVSPropertyOp52
 70
     0
102
RTVSPropertyOp53
 70
     1
102
RTVSPropertyOp54
 70
     1
102
RTVSPropertyOp55
 70
     1
102
RTVSPropertyOp56
 70
     1
102
RTVSPropertyOp57
 70
     1
102
RTVSPropertyOp58
 70
     1
102
RTVSPropertyOp59
 70
     1
102
RTVSPropertyOp60
 70
     1
102
RTVSPropertyOp61
 70
     1
102
RTVSPropertyOp62
 70
     1
  0
XRECORD
  5
99FC
102
{ACAD_REACTORS
330
99FB
102
}
330
99FB
100
AcDbXrecord
280
     1
102
RTVSPost2010Prop28
280
     0
102
RTVSPost2010PropOp28
 70
     1
102
RTVSPost2010Prop29
280
     1
102
RTVSPost2010PropOp29
 70
     1
102
RTVSPost2010Prop30
280
     1
102
RTVSPost2010PropOp30
 70
     1
102
RTVSPost2010Prop31
280
     0
102
RTVSPost2010PropOp31
 70
     1
102
RTVSPost2010Prop32
280
     0
102
RTVSPost2010PropOp32
 70
     1
102
RTVSPost2010Prop33
280
     0
102
RTVSPost2010PropOp33
 70
     1
102
RTVSPost2010Prop34
280
     0
102
RTVSPost2010PropOp34
 70
     1
102
RTVSPost2010Prop35
280
     0
102
RTVSPost2010PropOp35
 70
     1
102
RTVSPost2010Prop36
280
     0
102
RTVSPost2010PropOp36
 70
     1
102
RTVSPost2010Prop37
 90
       50
102
RTVSPost2010PropOp37
 70
     1
102
RTVSPost2010Prop38
140
0.0
102
RTVSPost2010PropOp38
 70
     1
102
RTVSPost2010Prop39
140
1.0
102
RTVSPost2010PropOp39
 70
     1
102
RTVSPost2010Prop40
 90
        0
102
RTVSPost2010PropOp40
 70
     1
102
RTVSPost2010Prop41ColorIndex
 90
       18
102
RTVSPost2010Prop41ColorRGB
 90
        0
102
RTVSPost2010PropOp41
 70
     1
102
RTVSPost2010Prop42
 90
       50
102
RTVSPost2010PropOp42
 70
     1
102
RTVSPost2010Prop43
 90
        3
102
RTVSPost2010PropOp43
 70
     1
102
RTVSPost2010Prop44ColorIndex
 90
        5
102
RTVSPost2010Prop44ColorRGB
 90
      255
102
RTVSPost2010PropOp44
 70
     1
102
RTVSPost2010Prop45
280
     0
102
RTVSPost2010PropOp45
 70
     1
102
RTVSPost2010Prop46
 90
       50
102
RTVSPost2010PropOp46
 70
     1
102
RTVSPost2010Prop47
 90
       50
102
RTVSPost2010PropOp47
 70
     1
102
RTVSPost2010Prop48
 90
       50
102
RTVSPost2010PropOp48
 70
     1
102
RTVSPost2010Prop49
280
     0
102
RTVSPost2010PropOp49
 70
     1
102
RTVSPost2010Prop50
 90
       50
102
RTVSPost2010PropOp50
 70
     1
102
RTVSPost2010Prop51ColorIndex
 90
      256
102
RTVSPost2010Prop51ColorRGB
 90
-16777216
102
RTVSPost2010PropOp51
 70
     0
102
RTVSPost2010Prop52
140
1.0
102
RTVSPost2010PropOp52
 70
     0
102
RTVSPost2010Prop53
 90
        2
102
RTVSPost2010PropOp53
 70
     1
102
RTVSPost2010Prop54
  1
strokes_ogs.tif
102
RTVSPost2010PropOp54
 70
     1
102
RTVSPost2010Prop55
280
     0
102
RTVSPost2010PropOp55
 70
     1
102
RTVSPost2010Prop56
140
1.0
102
RTVSPost2010PropOp56
 70
     1
102
RTVSPost2010Prop57
140
1.0
102
RTVSPost2010PropOp57
 70
     1
102
RTVSPropertyOp0
 70
     1
102
RTVSPropertyOp1
 70
     1
102
RTVSPropertyOp2
 70
     1
102
RTVSPropertyOp3
 70
     1
102
RTVSPropertyOp4
 70
     1
102
RTVSPropertyOp5
 70
     1
102
RTVSPropertyOp6
 70
     1
102
RTVSPropertyOp7
 70
     1
102
RTVSPropertyOp8
 70
     1
102
RTVSPropertyOp9
 70
     1
102
RTVSPropertyOp10
 70
     1
102
RTVSPropertyOp11
 70
     1
102
RTVSPropertyOp12
 70
     1
102
RTVSPropertyOp13
 70
     1
102
RTVSPropertyOp14
 70
     1
102
RTVSPropertyOp15
 70
     1
102
RTVSPropertyOp16
 70
     1
102
RTVSPropertyOp17
 70
     1
102
RTVSPropertyOp18
 70
     1
102
RTVSPropertyOp19
 70
     1
102
RTVSPropertyOp20
 70
     1
102
RTVSPropertyOp21
 70
     1
102
RTVSPropertyOp22
 70
     1
102
RTVSPropertyOp23
 70
     1
102
RTVSPropertyOp24
 70
     1
102
RTVSPropertyOp25
 70
     1
102
RTVSPropertyOp26
 70
     1
102
RTVSPropertyOp27
 70
     1
102
RTVSPropertyOp28
 70
     1
102
RTVSPropertyOp29
 70
     1
102
RTVSPropertyOp30
 70
     1
102
RTVSPropertyOp31
 70
     1
102
RTVSPropertyOp32
 70
     1
102
RTVSPropertyOp33
 70
     1
102
RTVSPropertyOp34
 70
     1
102
RTVSPropertyOp35
 70
     1
102
RTVSPropertyOp36
 70
     1
102
RTVSPropertyOp37
 70
     1
102
RTVSPropertyOp38
 70
     1
102
RTVSPropertyOp39
 70
     1
102
RTVSPropertyOp40
 70
     1
102
RTVSPropertyOp41
 70
     1
102
RTVSPropertyOp42
 70
     1
102
RTVSPropertyOp43
 70
     1
102
RTVSPropertyOp44
 70
     1
102
RTVSPropertyOp45
 70
     1
102
RTVSPropertyOp46
 70
     1
102
RTVSPropertyOp47
 70
     1
102
RTVSPropertyOp48
 70
     1
102
RTVSPropertyOp49
 70
     1
102
RTVSPropertyOp50
 70
     1
102
RTVSPropertyOp51
 70
     0
102
RTVSPropertyOp52
 70
     0
102
RTVSPropertyOp53
 70
     1
102
RTVSPropertyOp54
 70
     1
102
RTVSPropertyOp55
 70
     1
102
RTVSPropertyOp56
 70
     1
102
RTVSPropertyOp57
 70
     1
102
RTVSPropertyOp58
 70
     1
102
RTVSPropertyOp59
 70
     1
102
RTVSPropertyOp60
 70
     1
102
RTVSPropertyOp61
 70
     1
102
RTVSPropertyOp62
 70
     1
  0
XRECORD
  5
99FA
102
{ACAD_REACTORS
330
99F9
102
}
330
99F9
100
AcDbXrecord
280
     1
102
RTVSPost2010Prop28
280
     0
102
RTVSPost2010PropOp28
 70
     1
102
RTVSPost2010Prop29
280
     1
102
RTVSPost2010PropOp29
 70
     1
102
RTVSPost2010Prop30
280
     1
102
RTVSPost2010PropOp30
 70
     1
102
RTVSPost2010Prop31
280
     0
102
RTVSPost2010PropOp31
 70
     1
102
RTVSPost2010Prop32
280
     0
102
RTVSPost2010PropOp32
 70
     1
102
RTVSPost2010Prop33
280
     0
102
RTVSPost2010PropOp33
 70
     1
102
RTVSPost2010Prop34
280
     0
102
RTVSPost2010PropOp34
 70
     1
102
RTVSPost2010Prop35
280
     0
102
RTVSPost2010PropOp35
 70
     1
102
RTVSPost2010Prop36
280
     0
102
RTVSPost2010PropOp36
 70
     1
102
RTVSPost2010Prop37
 90
       50
102
RTVSPost2010PropOp37
 70
     1
102
RTVSPost2010Prop38
140
0.0
102
RTVSPost2010PropOp38
 70
     1
102
RTVSPost2010Prop39
140
1.0
102
RTVSPost2010PropOp39
 70
     1
102
RTVSPost2010Prop40
 90
        0
102
RTVSPost2010PropOp40
 70
     1
102
RTVSPost2010Prop41ColorIndex
 90
       18
102
RTVSPost2010Prop41ColorRGB
 90
        0
102
RTVSPost2010PropOp41
 70
     1
102
RTVSPost2010Prop42
 90
       50
102
RTVSPost2010PropOp42
 70
     1
102
RTVSPost2010Prop43
 90
        3
102
RTVSPost2010PropOp43
 70
     1
102
RTVSPost2010Prop44ColorIndex
 90
        5
102
RTVSPost2010Prop44ColorRGB
 90
      255
102
RTVSPost2010PropOp44
 70
     1
102
RTVSPost2010Prop45
280
     0
102
RTVSPost2010PropOp45
 70
     1
102
RTVSPost2010Prop46
 90
       50
102
RTVSPost2010PropOp46
 70
     1
102
RTVSPost2010Prop47
 90
       50
102
RTVSPost2010PropOp47
 70
     1
102
RTVSPost2010Prop48
 90
       50
102
RTVSPost2010PropOp48
 70
     1
102
RTVSPost2010Prop49
280
     0
102
RTVSPost2010PropOp49
 70
     1
102
RTVSPost2010Prop50
 90
       50
102
RTVSPost2010PropOp50
 70
     1
102
RTVSPost2010Prop51ColorIndex
 90
      256
102
RTVSPost2010Prop51ColorRGB
 90
-16777216
102
RTVSPost2010PropOp51
 70
     0
102
RTVSPost2010Prop52
140
1.0
102
RTVSPost2010PropOp52
 70
     0
102
RTVSPost2010Prop53
 90
        2
102
RTVSPost2010PropOp53
 70
     1
102
RTVSPost2010Prop54
  1
strokes_ogs.tif
102
RTVSPost2010PropOp54
 70
     1
102
RTVSPost2010Prop55
280
     0
102
RTVSPost2010PropOp55
 70
     1
102
RTVSPost2010Prop56
140
1.0
102
RTVSPost2010PropOp56
 70
     1
102
RTVSPost2010Prop57
140
1.0
102
RTVSPost2010PropOp57
 70
     1
102
RTVSPropertyOp0
 70
     1
102
RTVSPropertyOp1
 70
     1
102
RTVSPropertyOp2
 70
     1
102
RTVSPropertyOp3
 70
     1
102
RTVSPropertyOp4
 70
     1
102
RTVSPropertyOp5
 70
     1
102
RTVSPropertyOp6
 70
     1
102
RTVSPropertyOp7
 70
     1
102
RTVSPropertyOp8
 70
     1
102
RTVSPropertyOp9
 70
     1
102
RTVSPropertyOp10
 70
     1
102
RTVSPropertyOp11
 70
     1
102
RTVSPropertyOp12
 70
     1
102
RTVSPropertyOp13
 70
     1
102
RTVSPropertyOp14
 70
     1
102
RTVSPropertyOp15
 70
     1
102
RTVSPropertyOp16
 70
     1
102
RTVSPropertyOp17
 70
     1
102
RTVSPropertyOp18
 70
     1
102
RTVSPropertyOp19
 70
     1
102
RTVSPropertyOp20
 70
     1
102
RTVSPropertyOp21
 70
     1
102
RTVSPropertyOp22
 70
     1
102
RTVSPropertyOp23
 70
     1
102
RTVSPropertyOp24
 70
     1
102
RTVSPropertyOp25
 70
     1
102
RTVSPropertyOp26
 70
     1
102
RTVSPropertyOp27
 70
     1
102
RTVSPropertyOp28
 70
     1
102
RTVSPropertyOp29
 70
     1
102
RTVSPropertyOp30
 70
     1
102
RTVSPropertyOp31
 70
     1
102
RTVSPropertyOp32
 70
     1
102
RTVSPropertyOp33
 70
     1
102
RTVSPropertyOp34
 70
     1
102
RTVSPropertyOp35
 70
     1
102
RTVSPropertyOp36
 70
     1
102
RTVSPropertyOp37
 70
     1
102
RTVSPropertyOp38
 70
     1
102
RTVSPropertyOp39
 70
     1
102
RTVSPropertyOp40
 70
     1
102
RTVSPropertyOp41
 70
     1
102
RTVSPropertyOp42
 70
     1
102
RTVSPropertyOp43
 70
     1
102
RTVSPropertyOp44
 70
     1
102
RTVSPropertyOp45
 70
     1
102
RTVSPropertyOp46
 70
     1
102
RTVSPropertyOp47
 70
     1
102
RTVSPropertyOp48
 70
     1
102
RTVSPropertyOp49
 70
     1
102
RTVSPropertyOp50
 70
     1
102
RTVSPropertyOp51
 70
     0
102
RTVSPropertyOp52
 70
     0
102
RTVSPropertyOp53
 70
     1
102
RTVSPropertyOp54
 70
     1
102
RTVSPropertyOp55
 70
     1
102
RTVSPropertyOp56
 70
     1
102
RTVSPropertyOp57
 70
     1
102
RTVSPropertyOp58
 70
     1
102
RTVSPropertyOp59
 70
     1
102
RTVSPropertyOp60
 70
     1
102
RTVSPropertyOp61
 70
     1
102
RTVSPropertyOp62
 70
     1
  0
XRECORD
  5
99F4
102
{ACAD_REACTORS
330
99F3
102
}
330
99F3
100
AcDbXrecord
280
     1
102
RTVSPost2010Prop28
280
     0
102
RTVSPost2010PropOp28
 70
     1
102
RTVSPost2010Prop29
280
     1
102
RTVSPost2010PropOp29
 70
     1
102
RTVSPost2010Prop30
280
     1
102
RTVSPost2010PropOp30
 70
     1
102
RTVSPost2010Prop31
280
     0
102
RTVSPost2010PropOp31
 70
     1
102
RTVSPost2010Prop32
280
     0
102
RTVSPost2010PropOp32
 70
     1
102
RTVSPost2010Prop33
280
     0
102
RTVSPost2010PropOp33
 70
     1
102
RTVSPost2010Prop34
280
     0
102
RTVSPost2010PropOp34
 70
     1
102
RTVSPost2010Prop35
280
     0
102
RTVSPost2010PropOp35
 70
     1
102
RTVSPost2010Prop36
280
     0
102
RTVSPost2010PropOp36
 70
     1
102
RTVSPost2010Prop37
 90
       50
102
RTVSPost2010PropOp37
 70
     1
102
RTVSPost2010Prop38
140
0.0
102
RTVSPost2010PropOp38
 70
     1
102
RTVSPost2010Prop39
140
1.0
102
RTVSPost2010PropOp39
 70
     1
102
RTVSPost2010Prop40
 90
        0
102
RTVSPost2010PropOp40
 70
     1
102
RTVSPost2010Prop41ColorIndex
 90
       18
102
RTVSPost2010Prop41ColorRGB
 90
        0
102
RTVSPost2010PropOp41
 70
     1
102
RTVSPost2010Prop42
 90
       50
102
RTVSPost2010PropOp42
 70
     1
102
RTVSPost2010Prop43
 90
        3
102
RTVSPost2010PropOp43
 70
     1
102
RTVSPost2010Prop44ColorIndex
 90
        5
102
RTVSPost2010Prop44ColorRGB
 90
      255
102
RTVSPost2010PropOp44
 70
     1
102
RTVSPost2010Prop45
280
     0
102
RTVSPost2010PropOp45
 70
     1
102
RTVSPost2010Prop46
 90
       50
102
RTVSPost2010PropOp46
 70
     1
102
RTVSPost2010Prop47
 90
       50
102
RTVSPost2010PropOp47
 70
     1
102
RTVSPost2010Prop48
 90
       50
102
RTVSPost2010PropOp48
 70
     1
102
RTVSPost2010Prop49
280
     0
102
RTVSPost2010PropOp49
 70
     1
102
RTVSPost2010Prop50
 90
       50
102
RTVSPost2010PropOp50
 70
     1
102
RTVSPost2010Prop51ColorIndex
 90
      256
102
RTVSPost2010Prop51ColorRGB
 90
-16777216
102
RTVSPost2010PropOp51
 70
     0
102
RTVSPost2010Prop52
140
1.0
102
RTVSPost2010PropOp52
 70
     0
102
RTVSPost2010Prop53
 90
        2
102
RTVSPost2010PropOp53
 70
     1
102
RTVSPost2010Prop54
  1
strokes_ogs.tif
102
RTVSPost2010PropOp54
 70
     1
102
RTVSPost2010Prop55
280
     0
102
RTVSPost2010PropOp55
 70
     1
102
RTVSPost2010Prop56
140
1.0
102
RTVSPost2010PropOp56
 70
     1
102
RTVSPost2010Prop57
140
1.0
102
RTVSPost2010PropOp57
 70
     1
102
RTVSPropertyOp0
 70
     1
102
RTVSPropertyOp1
 70
     1
102
RTVSPropertyOp2
 70
     1
102
RTVSPropertyOp3
 70
     1
102
RTVSPropertyOp4
 70
     1
102
RTVSPropertyOp5
 70
     1
102
RTVSPropertyOp6
 70
     1
102
RTVSPropertyOp7
 70
     1
102
RTVSPropertyOp8
 70
     1
102
RTVSPropertyOp9
 70
     1
102
RTVSPropertyOp10
 70
     1
102
RTVSPropertyOp11
 70
     1
102
RTVSPropertyOp12
 70
     1
102
RTVSPropertyOp13
 70
     1
102
RTVSPropertyOp14
 70
     1
102
RTVSPropertyOp15
 70
     1
102
RTVSPropertyOp16
 70
     1
102
RTVSPropertyOp17
 70
     1
102
RTVSPropertyOp18
 70
     1
102
RTVSPropertyOp19
 70
     1
102
RTVSPropertyOp20
 70
     1
102
RTVSPropertyOp21
 70
     1
102
RTVSPropertyOp22
 70
     1
102
RTVSPropertyOp23
 70
     1
102
RTVSPropertyOp24
 70
     1
102
RTVSPropertyOp25
 70
     1
102
RTVSPropertyOp26
 70
     1
102
RTVSPropertyOp27
 70
     1
102
RTVSPropertyOp28
 70
     1
102
RTVSPropertyOp29
 70
     1
102
RTVSPropertyOp30
 70
     1
102
RTVSPropertyOp31
 70
     1
102
RTVSPropertyOp32
 70
     1
102
RTVSPropertyOp33
 70
     1
102
RTVSPropertyOp34
 70
     1
102
RTVSPropertyOp35
 70
     1
102
RTVSPropertyOp36
 70
     1
102
RTVSPropertyOp37
 70
     1
102
RTVSPropertyOp38
 70
     1
102
RTVSPropertyOp39
 70
     1
102
RTVSPropertyOp40
 70
     1
102
RTVSPropertyOp41
 70
     1
102
RTVSPropertyOp42
 70
     1
102
RTVSPropertyOp43
 70
     1
102
RTVSPropertyOp44
 70
     1
102
RTVSPropertyOp45
 70
     1
102
RTVSPropertyOp46
 70
     1
102
RTVSPropertyOp47
 70
     1
102
RTVSPropertyOp48
 70
     1
102
RTVSPropertyOp49
 70
     1
102
RTVSPropertyOp50
 70
     1
102
RTVSPropertyOp51
 70
     0
102
RTVSPropertyOp52
 70
     0
102
RTVSPropertyOp53
 70
     1
102
RTVSPropertyOp54
 70
     1
102
RTVSPropertyOp55
 70
     1
102
RTVSPropertyOp56
 70
     1
102
RTVSPropertyOp57
 70
     1
102
RTVSPropertyOp58
 70
     1
102
RTVSPropertyOp59
 70
     1
102
RTVSPropertyOp60
 70
     1
102
RTVSPropertyOp61
 70
     1
102
RTVSPropertyOp62
 70
     1
  0
XRECORD
  5
99F6
102
{ACAD_REACTORS
330
99F5
102
}
330
99F5
100
AcDbXrecord
280
     1
102
RTVSPost2010Prop28
280
     0
102
RTVSPost2010PropOp28
 70
     1
102
RTVSPost2010Prop29
280
     1
102
RTVSPost2010PropOp29
 70
     1
102
RTVSPost2010Prop30
280
     1
102
RTVSPost2010PropOp30
 70
     1
102
RTVSPost2010Prop31
280
     0
102
RTVSPost2010PropOp31
 70
     1
102
RTVSPost2010Prop32
280
     0
102
RTVSPost2010PropOp32
 70
     1
102
RTVSPost2010Prop33
280
     0
102
RTVSPost2010PropOp33
 70
     1
102
RTVSPost2010Prop34
280
     0
102
RTVSPost2010PropOp34
 70
     1
102
RTVSPost2010Prop35
280
     0
102
RTVSPost2010PropOp35
 70
     1
102
RTVSPost2010Prop36
280
     0
102
RTVSPost2010PropOp36
 70
     1
102
RTVSPost2010Prop37
 90
       50
102
RTVSPost2010PropOp37
 70
     1
102
RTVSPost2010Prop38
140
0.0
102
RTVSPost2010PropOp38
 70
     1
102
RTVSPost2010Prop39
140
1.0
102
RTVSPost2010PropOp39
 70
     1
102
RTVSPost2010Prop40
 90
        0
102
RTVSPost2010PropOp40
 70
     1
102
RTVSPost2010Prop41ColorIndex
 90
       18
102
RTVSPost2010Prop41ColorRGB
 90
        0
102
RTVSPost2010PropOp41
 70
     1
102
RTVSPost2010Prop42
 90
       50
102
RTVSPost2010PropOp42
 70
     1
102
RTVSPost2010Prop43
 90
        3
102
RTVSPost2010PropOp43
 70
     1
102
RTVSPost2010Prop44ColorIndex
 90
        5
102
RTVSPost2010Prop44ColorRGB
 90
      255
102
RTVSPost2010PropOp44
 70
     1
102
RTVSPost2010Prop45
280
     0
102
RTVSPost2010PropOp45
 70
     1
102
RTVSPost2010Prop46
 90
       50
102
RTVSPost2010PropOp46
 70
     1
102
RTVSPost2010Prop47
 90
       50
102
RTVSPost2010PropOp47
 70
     1
102
RTVSPost2010Prop48
 90
       50
102
RTVSPost2010PropOp48
 70
     1
102
RTVSPost2010Prop49
280
     0
102
RTVSPost2010PropOp49
 70
     1
102
RTVSPost2010Prop50
 90
       50
102
RTVSPost2010PropOp50
 70
     1
102
RTVSPost2010Prop51ColorIndex
 90
      256
102
RTVSPost2010Prop51ColorRGB
 90
-16777216
102
RTVSPost2010PropOp51
 70
     0
102
RTVSPost2010Prop52
140
1.0
102
RTVSPost2010PropOp52
 70
     0
102
RTVSPost2010Prop53
 90
        2
102
RTVSPost2010PropOp53
 70
     1
102
RTVSPost2010Prop54
  1
strokes_ogs.tif
102
RTVSPost2010PropOp54
 70
     1
102
RTVSPost2010Prop55
280
     0
102
RTVSPost2010PropOp55
 70
     1
102
RTVSPost2010Prop56
140
1.0
102
RTVSPost2010PropOp56
 70
     1
102
RTVSPost2010Prop57
140
1.0
102
RTVSPost2010PropOp57
 70
     1
102
RTVSPropertyOp0
 70
     1
102
RTVSPropertyOp1
 70
     1
102
RTVSPropertyOp2
 70
     1
102
RTVSPropertyOp3
 70
     1
102
RTVSPropertyOp4
 70
     1
102
RTVSPropertyOp5
 70
     1
102
RTVSPropertyOp6
 70
     1
102
RTVSPropertyOp7
 70
     1
102
RTVSPropertyOp8
 70
     1
102
RTVSPropertyOp9
 70
     1
102
RTVSPropertyOp10
 70
     1
102
RTVSPropertyOp11
 70
     1
102
RTVSPropertyOp12
 70
     1
102
RTVSPropertyOp13
 70
     1
102
RTVSPropertyOp14
 70
     1
102
RTVSPropertyOp15
 70
     1
102
RTVSPropertyOp16
 70
     1
102
RTVSPropertyOp17
 70
     1
102
RTVSPropertyOp18
 70
     1
102
RTVSPropertyOp19
 70
     1
102
RTVSPropertyOp20
 70
     1
102
RTVSPropertyOp21
 70
     1
102
RTVSPropertyOp22
 70
     1
102
RTVSPropertyOp23
 70
     1
102
RTVSPropertyOp24
 70
     1
102
RTVSPropertyOp25
 70
     1
102
RTVSPropertyOp26
 70
     1
102
RTVSPropertyOp27
 70
     1
102
RTVSPropertyOp28
 70
     1
102
RTVSPropertyOp29
 70
     1
102
RTVSPropertyOp30
 70
     1
102
RTVSPropertyOp31
 70
     1
102
RTVSPropertyOp32
 70
     1
102
RTVSPropertyOp33
 70
     1
102
RTVSPropertyOp34
 70
     1
102
RTVSPropertyOp35
 70
     1
102
RTVSPropertyOp36
 70
     1
102
RTVSPropertyOp37
 70
     1
102
RTVSPropertyOp38
 70
     1
102
RTVSPropertyOp39
 70
     1
102
RTVSPropertyOp40
 70
     1
102
RTVSPropertyOp41
 70
     1
102
RTVSPropertyOp42
 70
     1
102
RTVSPropertyOp43
 70
     1
102
RTVSPropertyOp44
 70
     1
102
RTVSPropertyOp45
 70
     1
102
RTVSPropertyOp46
 70
     1
102
RTVSPropertyOp47
 70
     1
102
RTVSPropertyOp48
 70
     1
102
RTVSPropertyOp49
 70
     1
102
RTVSPropertyOp50
 70
     1
102
RTVSPropertyOp51
 70
     0
102
RTVSPropertyOp52
 70
     0
102
RTVSPropertyOp53
 70
     1
102
RTVSPropertyOp54
 70
     1
102
RTVSPropertyOp55
 70
     1
102
RTVSPropertyOp56
 70
     1
102
RTVSPropertyOp57
 70
     1
102
RTVSPropertyOp58
 70
     1
102
RTVSPropertyOp59
 70
     1
102
RTVSPropertyOp60
 70
     1
102
RTVSPropertyOp61
 70
     1
102
RTVSPropertyOp62
 70
     1
  0
XRECORD
  5
99E4
102
{ACAD_REACTORS
330
99E3
102
}
330
99E3
100
AcDbXrecord
280
     1
102
RTVSPost2010Prop28
280
     0
102
RTVSPost2010PropOp28
 70
     1
102
RTVSPost2010Prop29
280
     1
102
RTVSPost2010PropOp29
 70
     1
102
RTVSPost2010Prop30
280
     1
102
RTVSPost2010PropOp30
 70
     1
102
RTVSPost2010Prop31
280
     0
102
RTVSPost2010PropOp31
 70
     1
102
RTVSPost2010Prop32
280
     0
102
RTVSPost2010PropOp32
 70
     1
102
RTVSPost2010Prop33
280
     0
102
RTVSPost2010PropOp33
 70
     1
102
RTVSPost2010Prop34
280
     0
102
RTVSPost2010PropOp34
 70
     1
102
RTVSPost2010Prop35
280
     0
102
RTVSPost2010PropOp35
 70
     1
102
RTVSPost2010Prop36
280
     0
102
RTVSPost2010PropOp36
 70
     1
102
RTVSPost2010Prop37
 90
       50
102
RTVSPost2010PropOp37
 70
     1
102
RTVSPost2010Prop38
140
0.0
102
RTVSPost2010PropOp38
 70
     1
102
RTVSPost2010Prop39
140
1.0
102
RTVSPost2010PropOp39
 70
     1
102
RTVSPost2010Prop40
 90
        0
102
RTVSPost2010PropOp40
 70
     1
102
RTVSPost2010Prop41ColorIndex
 90
       18
102
RTVSPost2010Prop41ColorRGB
 90
        0
102
RTVSPost2010PropOp41
 70
     1
102
RTVSPost2010Prop42
 90
       50
102
RTVSPost2010PropOp42
 70
     1
102
RTVSPost2010Prop43
 90
        3
102
RTVSPost2010PropOp43
 70
     1
102
RTVSPost2010Prop44ColorIndex
 90
        5
102
RTVSPost2010Prop44ColorRGB
 90
      255
102
RTVSPost2010PropOp44
 70
     1
102
RTVSPost2010Prop45
280
     0
102
RTVSPost2010PropOp45
 70
     1
102
RTVSPost2010Prop46
 90
       50
102
RTVSPost2010PropOp46
 70
     1
102
RTVSPost2010Prop47
 90
       50
102
RTVSPost2010PropOp47
 70
     1
102
RTVSPost2010Prop48
 90
       50
102
RTVSPost2010PropOp48
 70
     1
102
RTVSPost2010Prop49
280
     0
102
RTVSPost2010PropOp49
 70
     1
102
RTVSPost2010Prop50
 90
       50
102
RTVSPost2010PropOp50
 70
     1
102
RTVSPost2010Prop51ColorIndex
 90
      256
102
RTVSPost2010Prop51ColorRGB
 90
-16777216
102
RTVSPost2010PropOp51
 70
     0
102
RTVSPost2010Prop52
140
1.0
102
RTVSPost2010PropOp52
 70
     0
102
RTVSPost2010Prop53
 90
        2
102
RTVSPost2010PropOp53
 70
     1
102
RTVSPost2010Prop54
  1
strokes_ogs.tif
102
RTVSPost2010PropOp54
 70
     1
102
RTVSPost2010Prop55
280
     0
102
RTVSPost2010PropOp55
 70
     1
102
RTVSPost2010Prop56
140
1.0
102
RTVSPost2010PropOp56
 70
     1
102
RTVSPost2010Prop57
140
1.0
102
RTVSPost2010PropOp57
 70
     1
102
RTVSPropertyOp0
 70
     1
102
RTVSPropertyOp1
 70
     1
102
RTVSPropertyOp2
 70
     1
102
RTVSPropertyOp3
 70
     1
102
RTVSPropertyOp4
 70
     1
102
RTVSPropertyOp5
 70
     1
102
RTVSPropertyOp6
 70
     1
102
RTVSPropertyOp7
 70
     1
102
RTVSPropertyOp8
 70
     1
102
RTVSPropertyOp9
 70
     1
102
RTVSPropertyOp10
 70
     1
102
RTVSPropertyOp11
 70
     1
102
RTVSPropertyOp12
 70
     1
102
RTVSPropertyOp13
 70
     1
102
RTVSPropertyOp14
 70
     1
102
RTVSPropertyOp15
 70
     1
102
RTVSPropertyOp16
 70
     1
102
RTVSPropertyOp17
 70
     1
102
RTVSPropertyOp18
 70
     1
102
RTVSPropertyOp19
 70
     1
102
RTVSPropertyOp20
 70
     1
102
RTVSPropertyOp21
 70
     1
102
RTVSPropertyOp22
 70
     1
102
RTVSPropertyOp23
 70
     1
102
RTVSPropertyOp24
 70
     1
102
RTVSPropertyOp25
 70
     1
102
RTVSPropertyOp26
 70
     1
102
RTVSPropertyOp27
 70
     1
102
RTVSPropertyOp28
 70
     1
102
RTVSPropertyOp29
 70
     1
102
RTVSPropertyOp30
 70
     1
102
RTVSPropertyOp31
 70
     1
102
RTVSPropertyOp32
 70
     1
102
RTVSPropertyOp33
 70
     1
102
RTVSPropertyOp34
 70
     1
102
RTVSPropertyOp35
 70
     1
102
RTVSPropertyOp36
 70
     1
102
RTVSPropertyOp37
 70
     1
102
RTVSPropertyOp38
 70
     1
102
RTVSPropertyOp39
 70
     1
102
RTVSPropertyOp40
 70
     1
102
RTVSPropertyOp41
 70
     1
102
RTVSPropertyOp42
 70
     1
102
RTVSPropertyOp43
 70
     1
102
RTVSPropertyOp44
 70
     1
102
RTVSPropertyOp45
 70
     1
102
RTVSPropertyOp46
 70
     1
102
RTVSPropertyOp47
 70
     1
102
RTVSPropertyOp48
 70
     1
102
RTVSPropertyOp49
 70
     1
102
RTVSPropertyOp50
 70
     1
102
RTVSPropertyOp51
 70
     0
102
RTVSPropertyOp52
 70
     0
102
RTVSPropertyOp53
 70
     1
102
RTVSPropertyOp54
 70
     1
102
RTVSPropertyOp55
 70
     1
102
RTVSPropertyOp56
 70
     1
102
RTVSPropertyOp57
 70
     1
102
RTVSPropertyOp58
 70
     1
102
RTVSPropertyOp59
 70
     1
102
RTVSPropertyOp60
 70
     1
102
RTVSPropertyOp61
 70
     1
102
RTVSPropertyOp62
 70
     1
  0
XRECORD
  5
99D8
102
{ACAD_REACTORS
330
99D7
102
}
330
99D7
100
AcDbXrecord
280
     1
102
RTVSPost2010Prop28
280
     0
102
RTVSPost2010PropOp28
 70
     1
102
RTVSPost2010Prop29
280
     1
102
RTVSPost2010PropOp29
 70
     1
102
RTVSPost2010Prop30
280
     1
102
RTVSPost2010PropOp30
 70
     1
102
RTVSPost2010Prop31
280
     0
102
RTVSPost2010PropOp31
 70
     1
102
RTVSPost2010Prop32
280
     0
102
RTVSPost2010PropOp32
 70
     1
102
RTVSPost2010Prop33
280
     0
102
RTVSPost2010PropOp33
 70
     1
102
RTVSPost2010Prop34
280
     0
102
RTVSPost2010PropOp34
 70
     1
102
RTVSPost2010Prop35
280
     0
102
RTVSPost2010PropOp35
 70
     1
102
RTVSPost2010Prop36
280
     0
102
RTVSPost2010PropOp36
 70
     1
102
RTVSPost2010Prop37
 90
       50
102
RTVSPost2010PropOp37
 70
     1
102
RTVSPost2010Prop38
140
0.0
102
RTVSPost2010PropOp38
 70
     1
102
RTVSPost2010Prop39
140
1.0
102
RTVSPost2010PropOp39
 70
     1
102
RTVSPost2010Prop40
 90
        0
102
RTVSPost2010PropOp40
 70
     1
102
RTVSPost2010Prop41ColorIndex
 90
       18
102
RTVSPost2010Prop41ColorRGB
 90
        0
102
RTVSPost2010PropOp41
 70
     1
102
RTVSPost2010Prop42
 90
       50
102
RTVSPost2010PropOp42
 70
     1
102
RTVSPost2010Prop43
 90
        3
102
RTVSPost2010PropOp43
 70
     1
102
RTVSPost2010Prop44ColorIndex
 90
        5
102
RTVSPost2010Prop44ColorRGB
 90
      255
102
RTVSPost2010PropOp44
 70
     1
102
RTVSPost2010Prop45
280
     0
102
RTVSPost2010PropOp45
 70
     1
102
RTVSPost2010Prop46
 90
       50
102
RTVSPost2010PropOp46
 70
     1
102
RTVSPost2010Prop47
 90
       50
102
RTVSPost2010PropOp47
 70
     1
102
RTVSPost2010Prop48
 90
       50
102
RTVSPost2010PropOp48
 70
     1
102
RTVSPost2010Prop49
280
     0
102
RTVSPost2010PropOp49
 70
     1
102
RTVSPost2010Prop50
 90
       50
102
RTVSPost2010PropOp50
 70
     1
102
RTVSPost2010Prop51ColorIndex
 90
      256
102
RTVSPost2010Prop51ColorRGB
 90
-16777216
102
RTVSPost2010PropOp51
 70
     0
102
RTVSPost2010Prop52
140
1.0
102
RTVSPost2010PropOp52
 70
     0
102
RTVSPost2010Prop53
 90
        2
102
RTVSPost2010PropOp53
 70
     1
102
RTVSPost2010Prop54
  1
strokes_ogs.tif
102
RTVSPost2010PropOp54
 70
     1
102
RTVSPost2010Prop55
280
     0
102
RTVSPost2010PropOp55
 70
     1
102
RTVSPost2010Prop56
140
1.0
102
RTVSPost2010PropOp56
 70
     1
102
RTVSPost2010Prop57
140
1.0
102
RTVSPost2010PropOp57
 70
     1
102
RTVSPropertyOp0
 70
     1
102
RTVSPropertyOp1
 70
     1
102
RTVSPropertyOp2
 70
     1
102
RTVSPropertyOp3
 70
     1
102
RTVSPropertyOp4
 70
     1
102
RTVSPropertyOp5
 70
     1
102
RTVSPropertyOp6
 70
     1
102
RTVSPropertyOp7
 70
     1
102
RTVSPropertyOp8
 70
     1
102
RTVSPropertyOp9
 70
     1
102
RTVSPropertyOp10
 70
     1
102
RTVSPropertyOp11
 70
     1
102
RTVSPropertyOp12
 70
     1
102
RTVSPropertyOp13
 70
     1
102
RTVSPropertyOp14
 70
     1
102
RTVSPropertyOp15
 70
     1
102
RTVSPropertyOp16
 70
     1
102
RTVSPropertyOp17
 70
     1
102
RTVSPropertyOp18
 70
     1
102
RTVSPropertyOp19
 70
     1
102
RTVSPropertyOp20
 70
     1
102
RTVSPropertyOp21
 70
     1
102
RTVSPropertyOp22
 70
     1
102
RTVSPropertyOp23
 70
     1
102
RTVSPropertyOp24
 70
     1
102
RTVSPropertyOp25
 70
     1
102
RTVSPropertyOp26
 70
     1
102
RTVSPropertyOp27
 70
     1
102
RTVSPropertyOp28
 70
     1
102
RTVSPropertyOp29
 70
     1
102
RTVSPropertyOp30
 70
     1
102
RTVSPropertyOp31
 70
     1
102
RTVSPropertyOp32
 70
     1
102
RTVSPropertyOp33
 70
     1
102
RTVSPropertyOp34
 70
     1
102
RTVSPropertyOp35
 70
     1
102
RTVSPropertyOp36
 70
     1
102
RTVSPropertyOp37
 70
     1
102
RTVSPropertyOp38
 70
     1
102
RTVSPropertyOp39
 70
     1
102
RTVSPropertyOp40
 70
     1
102
RTVSPropertyOp41
 70
     1
102
RTVSPropertyOp42
 70
     1
102
RTVSPropertyOp43
 70
     1
102
RTVSPropertyOp44
 70
     1
102
RTVSPropertyOp45
 70
     1
102
RTVSPropertyOp46
 70
     1
102
RTVSPropertyOp47
 70
     1
102
RTVSPropertyOp48
 70
     1
102
RTVSPropertyOp49
 70
     1
102
RTVSPropertyOp50
 70
     1
102
RTVSPropertyOp51
 70
     0
102
RTVSPropertyOp52
 70
     0
102
RTVSPropertyOp53
 70
     1
102
RTVSPropertyOp54
 70
     1
102
RTVSPropertyOp55
 70
     1
102
RTVSPropertyOp56
 70
     1
102
RTVSPropertyOp57
 70
     1
102
RTVSPropertyOp58
 70
     1
102
RTVSPropertyOp59
 70
     1
102
RTVSPropertyOp60
 70
     1
102
RTVSPropertyOp61
 70
     1
102
RTVSPropertyOp62
 70
     1
  0
XRECORD
  5
99F8
102
{ACAD_REACTORS
330
99F7
102
}
330
99F7
100
AcDbXrecord
280
     1
102
RTVSPost2010Prop28
280
     0
102
RTVSPost2010PropOp28
 70
     1
102
RTVSPost2010Prop29
280
     1
102
RTVSPost2010PropOp29
 70
     1
102
RTVSPost2010Prop30
280
     1
102
RTVSPost2010PropOp30
 70
     1
102
RTVSPost2010Prop31
280
     0
102
RTVSPost2010PropOp31
 70
     1
102
RTVSPost2010Prop32
280
     0
102
RTVSPost2010PropOp32
 70
     1
102
RTVSPost2010Prop33
280
     0
102
RTVSPost2010PropOp33
 70
     1
102
RTVSPost2010Prop34
280
     0
102
RTVSPost2010PropOp34
 70
     1
102
RTVSPost2010Prop35
280
     0
102
RTVSPost2010PropOp35
 70
     1
102
RTVSPost2010Prop36
280
     0
102
RTVSPost2010PropOp36
 70
     1
102
RTVSPost2010Prop37
 90
       50
102
RTVSPost2010PropOp37
 70
     1
102
RTVSPost2010Prop38
140
0.0
102
RTVSPost2010PropOp38
 70
     1
102
RTVSPost2010Prop39
140
1.0
102
RTVSPost2010PropOp39
 70
     1
102
RTVSPost2010Prop40
 90
        0
102
RTVSPost2010PropOp40
 70
     1
102
RTVSPost2010Prop41ColorIndex
 90
       18
102
RTVSPost2010Prop41ColorRGB
 90
        0
102
RTVSPost2010PropOp41
 70
     1
102
RTVSPost2010Prop42
 90
       50
102
RTVSPost2010PropOp42
 70
     1
102
RTVSPost2010Prop43
 90
        3
102
RTVSPost2010PropOp43
 70
     1
102
RTVSPost2010Prop44ColorIndex
 90
        5
102
RTVSPost2010Prop44ColorRGB
 90
      255
102
RTVSPost2010PropOp44
 70
     1
102
RTVSPost2010Prop45
280
     0
102
RTVSPost2010PropOp45
 70
     1
102
RTVSPost2010Prop46
 90
       50
102
RTVSPost2010PropOp46
 70
     1
102
RTVSPost2010Prop47
 90
       50
102
RTVSPost2010PropOp47
 70
     1
102
RTVSPost2010Prop48
 90
       50
102
RTVSPost2010PropOp48
 70
     1
102
RTVSPost2010Prop49
280
     0
102
RTVSPost2010PropOp49
 70
     1
102
RTVSPost2010Prop50
 90
       50
102
RTVSPost2010PropOp50
 70
     1
102
RTVSPost2010Prop51ColorIndex
 90
      256
102
RTVSPost2010Prop51ColorRGB
 90
-16777216
102
RTVSPost2010PropOp51
 70
     0
102
RTVSPost2010Prop52
140
1.0
102
RTVSPost2010PropOp52
 70
     0
102
RTVSPost2010Prop53
 90
        2
102
RTVSPost2010PropOp53
 70
     1
102
RTVSPost2010Prop54
  1
strokes_ogs.tif
102
RTVSPost2010PropOp54
 70
     1
102
RTVSPost2010Prop55
280
     0
102
RTVSPost2010PropOp55
 70
     1
102
RTVSPost2010Prop56
140
1.0
102
RTVSPost2010PropOp56
 70
     1
102
RTVSPost2010Prop57
140
1.0
102
RTVSPost2010PropOp57
 70
     1
102
RTVSPropertyOp0
 70
     1
102
RTVSPropertyOp1
 70
     1
102
RTVSPropertyOp2
 70
     1
102
RTVSPropertyOp3
 70
     1
102
RTVSPropertyOp4
 70
     1
102
RTVSPropertyOp5
 70
     1
102
RTVSPropertyOp6
 70
     1
102
RTVSPropertyOp7
 70
     1
102
RTVSPropertyOp8
 70
     1
102
RTVSPropertyOp9
 70
     1
102
RTVSPropertyOp10
 70
     1
102
RTVSPropertyOp11
 70
     1
102
RTVSPropertyOp12
 70
     1
102
RTVSPropertyOp13
 70
     1
102
RTVSPropertyOp14
 70
     1
102
RTVSPropertyOp15
 70
     1
102
RTVSPropertyOp16
 70
     1
102
RTVSPropertyOp17
 70
     1
102
RTVSPropertyOp18
 70
     1
102
RTVSPropertyOp19
 70
     1
102
RTVSPropertyOp20
 70
     1
102
RTVSPropertyOp21
 70
     1
102
RTVSPropertyOp22
 70
     1
102
RTVSPropertyOp23
 70
     1
102
RTVSPropertyOp24
 70
     1
102
RTVSPropertyOp25
 70
     1
102
RTVSPropertyOp26
 70
     1
102
RTVSPropertyOp27
 70
     1
102
RTVSPropertyOp28
 70
     1
102
RTVSPropertyOp29
 70
     1
102
RTVSPropertyOp30
 70
     1
102
RTVSPropertyOp31
 70
     1
102
RTVSPropertyOp32
 70
     1
102
RTVSPropertyOp33
 70
     1
102
RTVSPropertyOp34
 70
     1
102
RTVSPropertyOp35
 70
     1
102
RTVSPropertyOp36
 70
     1
102
RTVSPropertyOp37
 70
     1
102
RTVSPropertyOp38
 70
     1
102
RTVSPropertyOp39
 70
     1
102
RTVSPropertyOp40
 70
     1
102
RTVSPropertyOp41
 70
     1
102
RTVSPropertyOp42
 70
     1
102
RTVSPropertyOp43
 70
     1
102
RTVSPropertyOp44
 70
     1
102
RTVSPropertyOp45
 70
     1
102
RTVSPropertyOp46
 70
     1
102
RTVSPropertyOp47
 70
     1
102
RTVSPropertyOp48
 70
     1
102
RTVSPropertyOp49
 70
     1
102
RTVSPropertyOp50
 70
     1
102
RTVSPropertyOp51
 70
     0
102
RTVSPropertyOp52
 70
     0
102
RTVSPropertyOp53
 70
     1
102
RTVSPropertyOp54
 70
     1
102
RTVSPropertyOp55
 70
     1
102
RTVSPropertyOp56
 70
     1
102
RTVSPropertyOp57
 70
     1
102
RTVSPropertyOp58
 70
     1
102
RTVSPropertyOp59
 70
     1
102
RTVSPropertyOp60
 70
     1
102
RTVSPropertyOp61
 70
     1
102
RTVSPropertyOp62
 70
     1
  0
ENDSEC
  0
EOF
