  0
SECTION
  2
HEADER
  9
$ACADVER
  1
AC1015
  9
$ACADMAINTVER
 70
    18
  9
$DWGCODEPAGE
  3
ANSI_1252
  9
$INSBASE
 10
0.0
 20
0.0
 30
0.0
  9
$EXTMIN
 10
-211.7239372568716
 20
-256.6029964333901
 30
-0.0015258207003583
  9
$EXTMAX
 10
271.0107429919424
 20
284.2065589041525
 30
0.0000000349246037
  9
$LIMMIN
 10
0.0
 20
0.0
  9
$LIMMAX
 10
420.0
 20
297.0
  9
$ORTHOMODE
 70
     0
  9
$REGENMODE
 70
     1
  9
$FILLMODE
 70
     1
  9
$QTEXTMODE
 70
     0
  9
$MIRRTEXT
 70
     0
  9
$LTSCALE
 40
1.0
  9
$ATTMODE
 70
     1
  9
$TEXTSIZE
 40
2.5
  9
$TRACEWID
 40
1.0
  9
$TEXTSTYLE
  7
Standard
  9
$CLAYER
  8
0
  9
$CELTYPE
  6
ByLayer
  9
$CECOLOR
 62
   256
  9
$CELTSCALE
 40
1.0
  9
$DISPSILH
 70
     0
  9
$DIMSCALE
 40
1.0
  9
$DIMASZ
 40
2.5
  9
$DIMEXO
 40
0.625
  9
$DIMDLI
 40
3.75
  9
$DIMRND
 40
0.0
  9
$DIMDLE
 40
0.0
  9
$DIMEXE
 40
1.25
  9
$DIMTP
 40
0.0
  9
$DIMTM
 40
0.0
  9
$DIMTXT
 40
2.5
  9
$DIMCEN
 40
2.5
  9
$DIMTSZ
 40
0.0
  9
$DIMTOL
 70
     0
  9
$DIMLIM
 70
     0
  9
$DIMTIH
 70
     0
  9
$DIMTOH
 70
     0
  9
$DIMSE1
 70
     0
  9
$DIMSE2
 70
     0
  9
$DIMTAD
 70
     1
  9
$DIMZIN
 70
     8
  9
$DIMBLK
  1

  9
$DIMASO
 70
     1
  9
$DIMSHO
 70
     1
  9
$DIMPOST
  1

  9
$DIMAPOST
  1

  9
$DIMALT
 70
     0
  9
$DIMALTD
 70
     3
  9
$DIMALTF
 40
0.03937007874016
  9
$DIMLFAC
 40
1.0
  9
$DIMTOFL
 70
     1
  9
$DIMTVP
 40
0.0
  9
$DIMTIX
 70
     0
  9
$DIMSOXD
 70
     0
  9
$DIMSAH
 70
     0
  9
$DIMBLK1
  1

  9
$DIMBLK2
  1

  9
$DIMSTYLE
  2
ISO-25
  9
$DIMCLRD
 70
     0
  9
$DIMCLRE
 70
     0
  9
$DIMCLRT
 70
     0
  9
$DIMTFAC
 40
1.0
  9
$DIMGAP
 40
0.625
  9
$DIMJUST
 70
     0
  9
$DIMSD1
 70
     0
  9
$DIMSD2
 70
     0
  9
$DIMTOLJ
 70
     0
  9
$DIMTZIN
 70
     8
  9
$DIMALTZ
 70
     0
  9
$DIMALTTZ
 70
     0
  9
$DIMUPT
 70
     0
  9
$DIMDEC
 70
     2
  9
$DIMTDEC
 70
     2
  9
$DIMALTU
 70
     2
  9
$DIMALTTD
 70
     3
  9
$DIMTXSTY
  7
Standard
  9
$DIMAUNIT
 70
     0
  9
$DIMADEC
 70
     0
  9
$DIMALTRND
 40
0.0
  9
$DIMAZIN
 70
     0
  9
$DIMDSEP
 70
    44
  9
$DIMATFIT
 70
     3
  9
$DIMFRAC
 70
     0
  9
$DIMLDRBLK
  1

  9
$DIMLUNIT
 70
     2
  9
$DIMLWD
 70
    -2
  9
$DIMLWE
 70
    -2
  9
$DIMTMOVE
 70
     0
  9
$LUNITS
 70
     2
  9
$LUPREC
 70
     4
  9
$SKETCHINC
 40
1.0
  9
$FILLETRAD
 40
0.0
  9
$AUNITS
 70
     0
  9
$AUPREC
 70
     0
  9
$MENU
  1
.
  9
$ELEVATION
 40
0.0
  9
$PELEVATION
 40
0.0
  9
$THICKNESS
 40
0.0
  9
$LIMCHECK
 70
     0
  9
$CHAMFERA
 40
0.0
  9
$CHAMFERB
 40
0.0
  9
$CHAMFERC
 40
0.0
  9
$CHAMFERD
 40
0.0
  9
$SKPOLY
 70
     0
  9
$TDCREATE
 40
2460398.356956019
  9
$TDUCREATE
 40
2460398.065289352
  9
$TDUPDATE
 40
2460398.375057871
  9
$TDUUPDATE
 40
2460398.083391204
  9
$TDINDWG
 40
0.0078009259
  9
$TDUSRTIMER
 40
0.0078009259
  9
$USRTIMER
 70
     1
  9
$ANGBASE
 50
0.0
  9
$ANGDIR
 70
     0
  9
$PDMODE
 70
     0
  9
$PDSIZE
 40
0.0
  9
$PLINEWID
 40
0.0
  9
$SPLFRAME
 70
     0
  9
$SPLINETYPE
 70
     6
  9
$SPLINESEGS
 70
     8
  9
$HANDSEED
  5
9C35
  9
$SURFTAB1
 70
     6
  9
$SURFTAB2
 70
     6
  9
$SURFTYPE
 70
     6
  9
$SURFU
 70
     6
  9
$SURFV
 70
     6
  9
$UCSBASE
  2

  9
$UCSNAME
  2

  9
$UCSORG
 10
0.0
 20
0.0
 30
0.0
  9
$UCSXDIR
 10
1.0
 20
0.0
 30
0.0
  9
$UCSYDIR
 10
0.0
 20
1.0
 30
0.0
  9
$UCSORTHOREF
  2

  9
$UCSORTHOVIEW
 70
     0
  9
$UCSORGTOP
 10
0.0
 20
0.0
 30
0.0
  9
$UCSORGBOTTOM
 10
0.0
 20
0.0
 30
0.0
  9
$UCSORGLEFT
 10
0.0
 20
0.0
 30
0.0
  9
$UCSORGRIGHT
 10
0.0
 20
0.0
 30
0.0
  9
$UCSORGFRONT
 10
0.0
 20
0.0
 30
0.0
  9
$UCSORGBACK
 10
0.0
 20
0.0
 30
0.0
  9
$PUCSBASE
  2

  9
$PUCSNAME
  2

  9
$PUCSORG
 10
0.0
 20
0.0
 30
0.0
  9
$PUCSXDIR
 10
1.0
 20
0.0
 30
0.0
  9
$PUCSYDIR
 10
0.0
 20
1.0
 30
0.0
  9
$PUCSORTHOREF
  2

  9
$PUCSORTHOVIEW
 70
     0
  9
$PUCSORGTOP
 10
0.0
 20
0.0
 30
0.0
  9
$PUCSORGBOTTOM
 10
0.0
 20
0.0
 30
0.0
  9
$PUCSORGLEFT
 10
0.0
 20
0.0
 30
0.0
  9
$PUCSORGRIGHT
 10
0.0
 20
0.0
 30
0.0
  9
$PUCSORGFRONT
 10
0.0
 20
0.0
 30
0.0
  9
$PUCSORGBACK
 10
0.0
 20
0.0
 30
0.0
  9
$USERI1
 70
     0
  9
$USERI2
 70
     0
  9
$USERI3
 70
     0
  9
$USERI4
 70
     0
  9
$USERI5
 70
     0
  9
$USERR1
 40
0.0
  9
$USERR2
 40
0.0
  9
$USERR3
 40
0.0
  9
$USERR4
 40
0.0
  9
$USERR5
 40
0.0
  9
$WORLDVIEW
 70
     1
  9
$SHADEDGE
 70
     3
  9
$SHADEDIF
 70
    70
  9
$TILEMODE
 70
     1
  9
$MAXACTVP
 70
    48
  9
$PINSBASE
 10
0.0
 20
0.0
 30
0.0
  9
$PLIMCHECK
 70
     0
  9
$PEXTMIN
 10
0.0
 20
0.0
 30
0.0
  9
$PEXTMAX
 10
0.0
 20
0.0
 30
0.0
  9
$PLIMMIN
 10
0.0
 20
0.0
  9
$PLIMMAX
 10
12.0
 20
9.0
  9
$UNITMODE
 70
     0
  9
$VISRETAIN
 70
     1
  9
$PLINEGEN
 70
     0
  9
$PSLTSCALE
 70
     1
  9
$TREEDEPTH
 70
  3020
  9
$CMLSTYLE
  2
Standard
  9
$CMLJUST
 70
     0
  9
$CMLSCALE
 40
20.0
  9
$PROXYGRAPHICS
 70
     1
  9
$MEASUREMENT
 70
     1
  9
$CELWEIGHT
370
    -1
  9
$ENDCAPS
280
     0
  9
$JOINSTYLE
280
     0
  9
$LWDISPLAY
290
     0
  9
$INSUNITS
 70
     4
  9
$HYPERLINKBASE
  1

  9
$STYLESHEET
  1

  9
$XEDIT
290
     1
  9
$CEPSNTYPE
380
     0
  9
$PSTYLEMODE
290
     1
  9
$FINGERPRINTGUID
  2
{6C1266EE-7BC1-BF4A-B059-A6E7702B10CE}
  9
$VERSIONGUID
  2
{A6C4E79B-59F3-1040-B68E-FDDA64A32A9A}
  9
$EXTNAMES
290
     1
  9
$PSVPSCALE
 40
0.0
  9
$OLESTARTUP
290
     0
  0
ENDSEC
  0
SECTION
  2
CLASSES
  0
CLASS
  1
ACDBDICTIONARYWDFLT
  2
AcDbDictionaryWithDefault
  3
ObjectDBX Classes
 90
        0
280
     0
281
     0
  0
CLASS
  1
ACDBPLACEHOLDER
  2
AcDbPlaceHolder
  3
ObjectDBX Classes
 90
        0
280
     0
281
     0
  0
CLASS
  1
LAYOUT
  2
AcDbLayout
  3
ObjectDBX Classes
 90
        0
280
     0
281
     0
  0
CLASS
  1
DICTIONARYVAR
  2
AcDbDictionaryVar
  3
ObjectDBX Classes
 90
        0
280
     0
281
     0
  0
CLASS
  1
TABLESTYLE
  2
AcDbTableStyle
  3
ObjectDBX Classes
 90
     4095
280
     0
281
     0
  0
CLASS
  1
MATERIAL
  2
AcDbMaterial
  3
ObjectDBX Classes
 90
     1153
280
     0
281
     0
  0
CLASS
  1
VISUALSTYLE
  2
AcDbVisualStyle
  3
ObjectDBX Classes
 90
     4095
280
     0
281
     0
  0
CLASS
  1
SCALE
  2
AcDbScale
  3
ObjectDBX Classes
 90
     1153
280
     0
281
     0
  0
CLASS
  1
MLEADERSTYLE
  2
AcDbMLeaderStyle
  3
ACDB_MLEADERSTYLE_CLASS
 90
     4095
280
     0
281
     0
  0
CLASS
  1
CELLSTYLEMAP
  2
AcDbCellStyleMap
  3
ObjectDBX Classes
 90
     1152
280
     0
281
     0
  0
CLASS
  1
EXACXREFPANELOBJECT
  2
ExAcXREFPanelObject
  3
EXAC_ESW
 90
    33793
280
     0
281
     0
  0
CLASS
  1
NPOCOLLECTION
  2
AcDbImpNonPersistentObjectsCollection
  3
ObjectDBX Classes
 90
    33921
280
     0
281
     0
  0
CLASS
  1
LAYER_INDEX
  2
AcDbLayerIndex
  3
ObjectDBX Classes
 90
    32768
280
     0
281
     0
  0
CLASS
  1
SPATIAL_INDEX
  2
AcDbSpatialIndex
  3
ObjectDBX Classes
 90
    32768
280
     0
281
     0
  0
CLASS
  1
IDBUFFER
  2
AcDbIdBuffer
  3
ObjectDBX Classes
 90
    32768
280
     0
281
     0
  0
CLASS
  1
ACDBSECTIONVIEWSTYLE
  2
AcDbSectionViewStyle
  3
ObjectDBX Classes
 90
     1025
280
     0
281
     0
  0
CLASS
  1
ACDBDETAILVIEWSTYLE
  2
AcDbDetailViewStyle
  3
ObjectDBX Classes
 90
     1025
280
     0
281
     0
  0
CLASS
  1
XRECORD
  2
AcDbXrecord
  3
ObjectDBX Classes
 90
        0
280
     0
281
     0
  0
ENDSEC
  0
SECTION
  2
TABLES
  0
TABLE
  2
VPORT
  5
8
102
{ACAD_XDICTIONARY
360
9B43
102
}
330
0
100
AcDbSymbolTable
 70
     1
  0
VPORT
  5
EA
330
8
100
AcDbSymbolTableRecord
100
AcDbViewportTableRecord
  2
*Active
 70
     0
 10
0.0
 20
0.0
 11
1.0
 21
1.0
 12
29.64340286753532
 22
13.80178123538121
 13
0.0
 23
0.0
 14
10.0
 24
10.0
 15
10.0
 25
10.0
 16
0.0
 26
0.0
 36
1.0
 17
0.0
 27
0.0
 37
0.0
 40
575.101952146264
 41
0.9846153846153846
 42
50.0
 43
0.0
 44
0.0
 50
0.0
 51
0.0
 71
     0
 72
  1000
 73
     1
 74
     3
 75
     0
 76
     1
 77
     0
 78
     0
281
     0
 65
     1
110
0.0
120
0.0
130
0.0
111
1.0
121
0.0
131
0.0
112
0.0
122
1.0
132
0.0
 79
     0
146
0.0
1001
ACAD_NAV_VCDISPLAY
1070
     3
  0
ENDTAB
  0
TABLE
  2
LTYPE
  5
5
330
0
100
AcDbSymbolTable
 70
     1
  0
LTYPE
  5
14
330
5
100
AcDbSymbolTableRecord
100
AcDbLinetypeTableRecord
  2
ByBlock
 70
     0
  3

 72
    65
 73
     0
 40
0.0
  0
LTYPE
  5
15
330
5
100
AcDbSymbolTableRecord
100
AcDbLinetypeTableRecord
  2
ByLayer
 70
     0
  3

 72
    65
 73
     0
 40
0.0
  0
LTYPE
  5
16
330
5
100
AcDbSymbolTableRecord
100
AcDbLinetypeTableRecord
  2
Continuous
 70
     0
  3
Solid line
 72
    65
 73
     0
 40
0.0
  0
ENDTAB
  0
TABLE
  2
LAYER
  5
2
102
{ACAD_XDICTIONARY
360
1FF
102
}
330
0
100
AcDbSymbolTable
 70
     1
  0
LAYER
  5
10
102
{ACAD_XDICTIONARY
360
13C
102
}
330
2
100
AcDbSymbolTableRecord
100
AcDbLayerTableRecord
  2
0
 70
     0
 62
     7
  6
Continuous
370
    -3
390
F
  0
ENDTAB
  0
TABLE
  2
STYLE
  5
3
330
0
100
AcDbSymbolTable
 70
     1
  0
STYLE
  5
11
330
3
100
AcDbSymbolTableRecord
100
AcDbTextStyleTableRecord
  2
Standard
 70
     0
 40
0.0
 41
1.0
 50
0.0
 71
     0
 42
2.5
  3
arial.ttf
  4

1001
ACAD
1000
Arial
1071
       34
  0
ENDTAB
  0
TABLE
  2
VIEW
  5
6
330
0
100
AcDbSymbolTable
 70
     0
  0
ENDTAB
  0
TABLE
  2
UCS
  5
7
330
0
100
AcDbSymbolTable
 70
     0
  0
ENDTAB
  0
TABLE
  2
APPID
  5
9
330
0
100
AcDbSymbolTable
 70
     8
  0
APPID
  5
12
330
9
100
AcDbSymbolTableRecord
100
AcDbRegAppTableRecord
  2
ACAD
 70
     0
  0
APPID
  5
9E
330
9
100
AcDbSymbolTableRecord
100
AcDbRegAppTableRecord
  2
ACAD_PSEXT
 70
     0
  0
APPID
  5
133
330
9
100
AcDbSymbolTableRecord
100
AcDbRegAppTableRecord
  2
AcadAnnoPO
 70
     0
  0
APPID
  5
134
330
9
100
AcDbSymbolTableRecord
100
AcDbRegAppTableRecord
  2
AcadAnnotative
 70
     0
  0
APPID
  5
135
330
9
100
AcDbSymbolTableRecord
100
AcDbRegAppTableRecord
  2
ACAD_DSTYLE_DIMJAG
 70
     0
  0
APPID
  5
136
330
9
100
AcDbSymbolTableRecord
100
AcDbRegAppTableRecord
  2
ACAD_DSTYLE_DIMTALN
 70
     0
  0
APPID
  5
165
330
9
100
AcDbSymbolTableRecord
100
AcDbRegAppTableRecord
  2
ACAD_MLEADERVER
 70
     0
  0
APPID
  5
217
330
9
100
AcDbSymbolTableRecord
100
AcDbRegAppTableRecord
  2
ACAD_NAV_VCDISPLAY
 70
     0
  0
ENDTAB
  0
TABLE
  2
DIMSTYLE
  5
A
330
0
100
AcDbSymbolTable
 70
     1
100
AcDbDimStyleTable
 71
     0
  0
DIMSTYLE
105
27
330
A
100
AcDbSymbolTableRecord
100
AcDbDimStyleTableRecord
  2
ISO-25
 70
     0
 41
2.5
 42
0.625
 43
3.75
 44
1.25
 73
     0
 74
     0
 77
     1
 78
     8
140
2.5
141
2.5
143
0.03937007874016
147
0.625
171
     3
172
     1
271
     2
272
     2
274
     3
278
    44
283
     0
284
     8
340
11
  0
ENDTAB
  0
TABLE
  2
BLOCK_RECORD
  5
1
330
0
100
AcDbSymbolTable
 70
     7
  0
BLOCK_RECORD
  5
1F
102
{ACAD_XDICTIONARY
360
1CE
102
}
330
1
100
AcDbSymbolTableRecord
100
AcDbBlockTableRecord
  2
*Model_Space
340
22
  0
BLOCK_RECORD
  5
D2
102
{ACAD_XDICTIONARY
360
9AF6
102
}
330
1
100
AcDbSymbolTableRecord
100
AcDbBlockTableRecord
  2
*Paper_Space
340
D3
  0
BLOCK_RECORD
  5
D6
102
{ACAD_XDICTIONARY
360
9AF8
102
}
330
1
100
AcDbSymbolTableRecord
100
AcDbBlockTableRecord
  2
*Paper_Space0
340
D7
  0
BLOCK_RECORD
  5
9970
330
1
100
AcDbSymbolTableRecord
100
AcDbBlockTableRecord
  2
SAE380_76_2-Front
340
0
102
{BLKREFS
331
9AEC
102
}
  0
BLOCK_RECORD
  5
99C2
330
1
100
AcDbSymbolTableRecord
100
AcDbBlockTableRecord
  2
SAE380_76_2-Left
340
0
102
{BLKREFS
331
9AED
102
}
  0
BLOCK_RECORD
  5
99E1
330
1
100
AcDbSymbolTableRecord
100
AcDbBlockTableRecord
  2
SAE380_76_2-Right
340
0
102
{BLKREFS
331
9AEE
102
}
  0
BLOCK_RECORD
  5
9A00
330
1
100
AcDbSymbolTableRecord
100
AcDbBlockTableRecord
  2
SAE380_76_2-Top
340
0
102
{BLKREFS
331
9AEF
102
}
  0
BLOCK_RECORD
  5
9A2F
330
1
100
AcDbSymbolTableRecord
100
AcDbBlockTableRecord
  2
SAE380_76_2-Bottom
340
0
102
{BLKREFS
331
9AF0
102
}
  0
BLOCK_RECORD
  5
9A58
330
1
100
AcDbSymbolTableRecord
100
AcDbBlockTableRecord
  2
SAE380_76_2-ISO
340
0
102
{BLKREFS
331
9AF1
102
}
  0
ENDTAB
  0
ENDSEC
  0
SECTION
  2
BLOCKS
  0
BLOCK
  5
20
330
1F
100
AcDbEntity
  8
0
100
AcDbBlockBegin
  2
*Model_Space
 70
     0
 10
0.0
 20
0.0
 30
0.0
  3
*Model_Space
  1

  0
ENDBLK
  5
21
330
1F
100
AcDbEntity
  8
0
100
AcDbBlockEnd
  0
BLOCK
  5
D4
330
D2
100
AcDbEntity
 67
     1
  8
0
100
AcDbBlockBegin
  2
*Paper_Space
 70
     0
 10
0.0
 20
0.0
 30
0.0
  3
*Paper_Space
  1

  0
ENDBLK
  5
D5
330
D2
100
AcDbEntity
 67
     1
  8
0
100
AcDbBlockEnd
  0
BLOCK
  5
D8
330
D6
100
AcDbEntity
 67
     1
  8
0
100
AcDbBlockBegin
  2
*Paper_Space0
 70
     0
 10
0.0
 20
0.0
 30
0.0
  3
*Paper_Space0
  1

  0
ENDBLK
  5
D9
330
D6
100
AcDbEntity
 67
     1
  8
0
100
AcDbBlockEnd
  0
BLOCK
  5
9971
330
9970
100
AcDbEntity
  8
0
100
AcDbBlockBegin
  2
SAE380_76_2-Front
 70
     0
 10
0.0
 20
0.0
 30
0.0
  3
SAE380_76_2-Front
  1

  0
SPLINE
  5
9973
330
9970
100
AcDbEntity
  8
0
100
AcDbSpline
210
0.0
220
0.0
230
1.0
 70
     8
 71
     3
 72
    14
 73
    10
 74
     0
 42
0.000000001
 43
0.0000000001
 40
0.0
 40
0.0
 40
0.0
 40
0.0
 40
0.3435200981511151
 40
0.3435200981511151
 40
0.3435200981511151
 40
0.7570126784224815
 40
0.7570126784224815
 40
0.7570126784224815
 40
0.9986524670523987
 40
0.9986524670523987
 40
0.9986524670523987
 40
0.9986524670523987
 10
42.60606060606067
 20
24.5624999999999
 30
0.0
 10
42.28489980915902
 20
24.3024897645968
 30
0.0
 10
41.87245083140106
 20
24.07528645944824
 30
0.0
 10
41.47645528966905
 20
23.84407071612072
 30
0.0
 10
40.999798409306
 20
23.56575805021725
 30
0.0
 10
40.53725519000479
 20
23.27136822435335
 30
0.0
 10
40.26239207666145
 20
22.85787278959713
 30
0.0
 10
40.10176557988888
 20
22.61623133284267
 30
0.0
 10
40.00111646567932
 20
22.36104046107283
 30
0.0
 10
40.00000922966436
 20
22.00594994994837
 30
0.0
  0
LINE
  5
9974
330
9970
100
AcDbEntity
  8
0
100
AcDbLine
 10
40.0
 20
24.56249999999994
 30
0.0
 11
42.0
 21
24.56249999999994
 31
0.0
  0
SPLINE
  5
9975
330
9970
100
AcDbEntity
  8
0
100
AcDbSpline
210
0.0
220
0.0
230
1.0
 70
     8
 71
     3
 72
    20
 73
    16
 74
     0
 42
0.000000001
 43
0.0000000001
 40
0.0120727937227944
 40
0.0120727937227944
 40
0.0120727937227944
 40
0.0120727937227944
 40
0.012428850875748
 40
0.012428850875748
 40
0.0135302217256735
 40
0.0135302217256735
 40
0.0142261533871711
 40
0.0142261533871711
 40
0.015309416038659
 40
0.015309416038659
 40
0.0162525248894119
 40
0.0162525248894119
 40
0.0174015733535507
 40
0.0174015733535507
 40
0.0202445336739406
 40
0.0202445336739406
 40
0.0202445336739406
 40
0.0202445336739406
 10
40.00029164702529
 20
22.05864902333223
 30
0.0
 10
40.000291647025
 20
22.05864902330663
 30
0.0
 10
40.00029123369318
 20
22.05861294219507
 30
0.0
 10
40.00028772502047
 20
22.05830125778195
 30
0.0
 10
40.00028065344619
 20
22.05767569685454
 30
0.0
 10
40.00026146072325
 20
22.05580875755073
 30
0.0
 10
40.00025209701938
 20
22.05487008330734
 30
0.0
 10
40.0002244704141
 20
22.05189819479295
 30
0.0
 10
40.00020362500274
 20
22.04947455979693
 30
0.0
 10
40.00016554779841
 20
22.04422649455584
 30
0.0
 10
40.00014800683266
 20
22.04146120925403
 30
0.0
 10
40.0001144692186
 20
22.03509374010117
 30
0.0
 10
40.0000995666793
 20
22.0314513500818
 30
0.0
 10
40.00006174351591
 20
22.01867994133396
 30
0.0
 10
40.00005914615842
 20
22.0093157901606
 30
0.0
 10
40.0000743150159
 20
22.00000007787121
 30
0.0
  0
SPLINE
  5
9976
330
9970
100
AcDbEntity
  8
0
100
AcDbSpline
210
0.0
220
0.0
230
1.0
 70
     8
 71
     3
 72
    20
 73
    16
 74
     0
 42
0.000000001
 43
0.0000000001
 40
0.005332931743968
 40
0.005332931743968
 40
0.005332931743968
 40
0.005332931743968
 40
0.0056476384614391
 40
0.0056476384614391
 40
0.0060463985893807
 40
0.0060463985893807
 40
0.0065307473178375
 40
0.0065307473178375
 40
0.0071940330531288
 40
0.0071940330531288
 40
0.0085673555252462
 40
0.0085673555252462
 40
0.0106389960220053
 40
0.0106389960220053
 40
0.0111024458553523
 40
0.0111024458553523
 40
0.0111024458553523
 40
0.0111024458553523
 10
40.00010883933627
 20
22.04546313415475
 30
0.0
 10
40.00010883931769
 20
22.04546313116393
 30
0.0
 10
40.00010796018871
 20
22.04532230019696
 30
0.0
 10
40.00010437335129
 20
22.04473468108385
 30
0.0
 10
40.00010121339555
 20
22.04421103314511
 30
0.0
 10
40.00009286789385
 20
22.04276717279754
 30
0.0
 10
40.00008734603706
 20
22.04177610092214
 30
0.0
 10
40.00007384262082
 20
22.03918105356405
 30
0.0
 10
40.00006571149193
 20
22.03748299300847
 30
0.0
 10
40.00004298010638
 20
22.03216377976295
 30
0.0
 10
40.00002983085941
 20
22.02823236334628
 30
0.0
 10
40.00000644319726
 20
22.01793194620904
 30
0.0
 10
40.00000107524842
 20
22.01126252390758
 30
0.0
 10
40.00000622906568
 20
22.00302763768356
 30
0.0
 10
40.00000763232314
 20
22.00151582248351
 30
0.0
 10
40.00000948370932
 20
22.00000001349923
 30
0.0
  0
SPLINE
  5
9977
330
9970
100
AcDbEntity
  8
0
100
AcDbSpline
210
0.0
220
0.0
230
1.0
 70
     8
 71
     3
 72
     8
 73
     4
 74
     0
 42
0.000000001
 43
0.0000000001
 40
0.0
 40
0.0
 40
0.0
 40
0.0
 40
0.0015511722894452
 40
0.0015511722894452
 40
0.0015511722894452
 40
0.0015511722894452
 10
37.99955984654368
 20
22.00000111615404
 30
0.0
 10
37.99956565327763
 20
22.0044688109634
 30
0.0
 10
37.9995707664153
 20
22.00884708255183
 30
0.0
 10
37.99957512909033
 20
22.01307591318528
 30
0.0
  0
SPLINE
  5
9978
330
9970
100
AcDbEntity
  8
0
100
AcDbSpline
210
0.0
220
0.0
230
1.0
 70
     8
 71
     3
 72
    16
 73
    12
 74
     0
 42
0.000000001
 43
0.0000000001
 40
0.0
 40
0.0
 40
0.0
 40
0.0
 40
0.0021186908388884
 40
0.0021186908388884
 40
0.0037963630043592
 40
0.0037963630043592
 40
0.0060490253809972
 40
0.0060490253809972
 40
0.0082160884130645
 40
0.0082160884130645
 40
0.0100715299888187
 40
0.0100715299888187
 40
0.0100715299888187
 40
0.0100715299888187
 10
37.99977770485082
 20
21.99999658161608
 30
0.0
 10
37.99967060337789
 20
22.00696252207649
 30
0.0
 10
37.99956026516363
 20
22.01406431016303
 30
0.0
 10
37.99936153565643
 20
22.02670812137654
 30
0.0
 10
37.99927271955181
 20
22.03230570408027
 30
0.0
 10
37.9990710829669
 20
22.04490249870708
 30
0.0
 10
37.99895812999558
 20
22.0518727500713
 30
0.0
 10
37.99876083650418
 20
22.06395004153758
 30
0.0
 10
37.99867338946109
 20
22.06925360712853
 30
0.0
 10
37.99853375459424
 20
22.07766822590404
 30
0.0
 10
37.99847718641353
 20
22.08105234019997
 30
0.0
 10
37.99842789893379
 20
22.08398349789103
 30
0.0
  0
SPLINE
  5
9979
330
9970
100
AcDbEntity
  8
0
100
AcDbSpline
210
0.0
220
0.0
230
1.0
 70
     8
 71
     3
 72
    34
 73
    30
 74
     0
 42
0.000000001
 43
0.0000000001
 40
0.0018828273599895
 40
0.0018828273599895
 40
0.0018828273599895
 40
0.0018828273599895
 40
0.0067931738726685
 40
0.0067931738726685
 40
0.0148581943798533
 40
0.0148581943798533
 40
0.0216571888438503
 40
0.0216571888438503
 40
0.0241183128618839
 40
0.0241183128618839
 40
0.0262726967821682
 40
0.0262726967821682
 40
0.0291188418903925
 40
0.0291188418903925
 40
0.0315306234464352
 40
0.0315306234464352
 40
0.0346499154823284
 40
0.0346499154823284
 40
0.0395922397026924
 40
0.0395922397026924
 40
0.0489104512774617
 40
0.0489104512774617
 40
0.0719044114404466
 40
0.0719044114404466
 40
0.1414596712512024
 40
0.1414596712512024
 40
0.2235217454660687
 40
0.2235217454660687
 40
0.2662178312111797
 40
0.2662178312111797
 40
0.2662178312111797
 40
0.2662178312111797
 10
37.99993407926215
 20
22.00382191537514
 30
0.0
 10
37.99986407575507
 20
22.00784047581378
 30
0.0
 10
37.99976229034291
 20
22.01358824998719
 30
0.0
 10
37.99943617379567
 20
22.03150107652034
 30
0.0
 10
37.99917378799884
 20
22.04547921442754
 30
0.0
 10
37.99862147074902
 20
22.07412873909644
 30
0.0
 10
37.99834194620107
 20
22.08837019593585
 30
0.0
 10
37.99789286036067
 20
22.11130037403441
 30
0.0
 10
37.99776555609877
 20
22.11780854036087
 30
0.0
 10
37.99751099031485
 20
22.13092331031326
 30
0.0
 10
37.99738412343712
 20
22.1374991461072
 30
0.0
 10
37.99708152970817
 20
22.15339591606547
 30
0.0
 10
37.9968990546725
 20
22.16315157114779
 30
0.0
 10
37.99658162006482
 20
22.18063317227459
 30
0.0
 10
37.9964405564129
 20
22.18860705028608
 30
0.0
 10
37.9961397238198
 20
22.2061286148967
 30
0.0
 10
37.99598366074388
 20
22.2156163302622
 30
0.0
 10
37.99561587365993
 20
22.23896508135609
 30
0.0
 10
37.99542142375661
 20
22.25234662119369
 30
0.0
 10
37.9949261532671
 20
22.28909274581306
 30
0.0
 10
37.99467857968334
 20
22.31110300225376
 30
0.0
 10
37.99397364941642
 20
22.38486037623791
 30
0.0
 10
37.993730719607
 20
22.43326604848959
 30
0.0
 10
37.99330505692707
 20
22.63521424233458
 30
0.0
 10
37.99455179204591
 20
22.81150031297372
 30
0.0
 10
37.99793248616578
 20
23.23289605858691
 30
0.0
 10
37.99943758562087
 20
23.48828696207171
 30
0.0
 10
37.9999870859691
 20
23.89232271235986
 30
0.0
 10
37.99998190891825
 20
24.03403623340976
 30
0.0
 10
37.99998937019959
 20
24.17586296000308
 30
0.0
  0
SPLINE
  5
997A
330
9970
100
AcDbEntity
  8
0
100
AcDbSpline
210
0.0
220
0.0
230
1.0
 70
     8
 71
     3
 72
    12
 73
     8
 74
     0
 42
0.000000001
 43
0.0000000001
 40
0.0
 40
0.0
 40
0.0
 40
0.0
 40
0.0030444953498265
 40
0.0030444953498265
 40
0.0059484402632608
 40
0.0059484402632608
 40
0.0076998808255381
 40
0.0076998808255381
 40
0.0076998808255381
 40
0.0076998808255381
 10
37.99994094380465
 20
21.99999986651922
 30
0.0
 10
37.99992879107769
 20
22.00696353295189
 30
0.0
 10
37.9999175081995
 20
22.01275350427327
 30
0.0
 10
37.99989987691458
 20
22.02087155436058
 30
0.0
 10
37.99989321270219
 20
22.02345635064732
 30
0.0
 10
37.99988739352409
 20
22.02557939686677
 30
0.0
 10
37.99988626658515
 20
22.02594036137053
 30
0.0
 10
37.9998862665852
 20
22.02594036135346
 30
0.0
  0
SPLINE
  5
997B
330
9970
100
AcDbEntity
  8
0
100
AcDbSpline
210
0.0
220
0.0
230
1.0
 70
     8
 71
     3
 72
     8
 73
     4
 74
     0
 42
0.000000001
 43
0.0000000001
 40
0.0
 40
0.0
 40
0.0
 40
0.0
 40
0.0007120106150896
 40
0.0007120106150896
 40
0.0007120106150896
 40
0.0007120106150896
 10
42.60611379963716
 20
24.56243160914637
 30
0.0
 10
42.60533817504254
 20
24.56182867006519
 30
0.0
 10
42.604538672701
 20
24.56120755249909
 30
0.0
 10
42.6037331977325
 20
24.56058166059115
 30
0.0
  0
SPLINE
  5
997C
330
9970
100
AcDbEntity
  8
0
100
AcDbSpline
210
0.0
220
0.0
230
1.0
 70
     8
 71
     3
 72
     8
 73
     4
 74
     0
 42
0.000000001
 43
0.0000000001
 40
0.0001369350464948
 40
0.0001369350464948
 40
0.0001369350464948
 40
0.0001369350464948
 40
0.0006732100684119
 40
0.0006732100684119
 40
0.0006732100684119
 40
0.0006732100684119
 10
42.60523147098287
 20
24.56174578009616
 30
0.0
 10
42.6040841106855
 20
24.56082244663786
 30
0.0
 10
42.60290028316561
 20
24.55987069023592
 30
0.0
 10
42.60168732652899
 20
24.55889643450213
 30
0.0
  0
LINE
  5
997D
330
9970
100
AcDbEntity
  8
0
100
AcDbLine
 10
35.99999999999997
 20
-2.0
 30
0.0
 11
-35.99999999999997
 21
-2.000000000000007
 31
0.0
  0
LINE
  5
997E
330
9970
100
AcDbEntity
  8
0
100
AcDbLine
 10
-35.99999999999997
 20
0.0
 30
0.0
 11
35.99999999999997
 21
0.0
 31
0.0
  0
LINE
  5
997F
330
9970
100
AcDbEntity
  8
0
100
AcDbLine
 10
-42.0
 20
24.56249999999994
 30
0.0
 11
-40.0
 21
24.56249999999994
 31
0.0
  0
SPLINE
  5
9980
330
9970
100
AcDbEntity
  8
0
100
AcDbSpline
210
0.0
220
0.0
230
1.0
 70
     8
 71
     3
 72
    14
 73
    10
 74
     0
 42
0.000000001
 43
0.0000000001
 40
0.0
 40
0.0
 40
0.0
 40
0.0
 40
0.3435200981511151
 40
0.3435200981511151
 40
0.3435200981511151
 40
0.7570126784224815
 40
0.7570126784224815
 40
0.7570126784224815
 40
0.9986524670531375
 40
0.9986524670531375
 40
0.9986524670531375
 40
0.9986524670531375
 10
-42.60606060606067
 20
24.5624999999999
 30
0.0
 10
-42.28489980915902
 20
24.3024897645968
 30
0.0
 10
-41.87245083140106
 20
24.07528645944824
 30
0.0
 10
-41.47645528966905
 20
23.84407071612072
 30
0.0
 10
-40.999798409306
 20
23.56575805021725
 30
0.0
 10
-40.53725519000479
 20
23.27136822435335
 30
0.0
 10
-40.26239207666145
 20
22.85787278959713
 30
0.0
 10
-40.10176557988839
 20
22.61623133284193
 30
0.0
 10
-40.00111646567872
 20
22.36104046107127
 30
0.0
 10
-40.00000922966435
 20
22.00594994994512
 30
0.0
  0
SPLINE
  5
9981
330
9970
100
AcDbEntity
  8
0
100
AcDbSpline
210
0.0
220
0.0
230
1.0
 70
     8
 71
     3
 72
    30
 73
    26
 74
     0
 42
0.000000001
 43
0.0000000001
 40
0.0
 40
0.0
 40
0.0
 40
0.0
 40
0.0655513996522043
 40
0.0655513996522043
 40
0.1471085804467541
 40
0.1471085804467541
 40
0.1864949364108874
 40
0.1864949364108874
 40
0.2244264001008253
 40
0.2244264001008253
 40
0.2338931540240349
 40
0.2338931540240349
 40
0.236042131597528
 40
0.236042131597528
 40
0.2376761107295547
 40
0.2376761107295547
 40
0.2393127189340992
 40
0.2393127189340992
 40
0.2426366893762733
 40
0.2426366893762733
 40
0.2492656452865659
 40
0.2492656452865659
 40
0.2559083705956546
 40
0.2559083705956546
 40
0.264371706921761
 40
0.264371706921761
 40
0.264371706921761
 40
0.264371706921761
 10
-37.99998937019959
 20
24.17586296000309
 30
0.0
 10
-37.99997791487701
 20
23.95811605711873
 30
0.0
 10
-37.99997499599623
 20
23.73955104589308
 30
0.0
 10
-37.99847087045484
 20
23.27766021622434
 30
0.0
 10
-37.99618403849636
 20
23.03633561840356
 30
0.0
 10
-37.9939977531119
 20
22.72033846693119
 30
0.0
 10
-37.99356174420797
 20
22.62409137646804
 30
0.0
 10
-37.99357531581492
 20
22.45119387875091
 30
0.0
 10
-37.99385397701938
 20
22.37644614818017
 30
0.0
 10
-37.99531453410681
 20
22.25916004875305
 30
0.0
 10
-37.99567939060686
 20
22.23369000780656
 30
0.0
 10
-37.99628189517488
 20
22.19778986026955
 30
0.0
 10
-37.99640074961948
 20
22.19090212774401
 30
0.0
 10
-37.99661976315615
 20
22.17853715287444
 30
0.0
 10
-37.99671829927221
 20
22.17307686536096
 30
0.0
 10
-37.99691819147947
 20
22.16217704860042
 30
0.0
 10
-37.99702051810701
 20
22.15668495994506
 30
0.0
 10
-37.99732539131549
 20
22.14051371449049
 30
0.0
 10
-37.9975261424286
 20
22.13012392523194
 30
0.0
 10
-37.99806193230828
 20
22.10259271570824
 30
0.0
 10
-37.99835888444378
 20
22.0875552480163
 30
0.0
 10
-37.99888986310774
 20
22.06027099379585
 30
0.0
 10
-37.99912802460678
 20
22.04785041854846
 30
0.0
 10
-37.9995981129115
 20
22.02276476367523
 30
0.0
 10
-37.99981347016931
 20
22.01073788924322
 30
0.0
 10
-37.99993407916465
 20
22.00381431416162
 30
0.0
  0
SPLINE
  5
9982
330
9970
100
AcDbEntity
  8
0
100
AcDbSpline
210
0.0
220
0.0
230
1.0
 70
     8
 71
     3
 72
     8
 73
     4
 74
     0
 42
0.000000001
 43
0.0000000001
 40
0.0195591966753101
 40
0.0195591966753101
 40
0.0195591966753101
 40
0.0195591966753101
 40
0.0211163438541608
 40
0.0211163438541608
 40
0.0211163438541608
 40
0.0211163438541608
 10
-37.99957522640565
 20
22.01307778046738
 30
0.0
 10
-37.99957087694071
 20
22.00886175464547
 30
0.0
 10
-37.99956567564434
 20
22.00448601987218
 30
0.0
 10
-37.9995598465437
 20
22.00000111615406
 30
0.0
  0
SPLINE
  5
9983
330
9970
100
AcDbEntity
  8
0
100
AcDbSpline
210
0.0
220
0.0
230
1.0
 70
     8
 71
     3
 72
    16
 73
    12
 74
     0
 42
0.000000001
 43
0.0000000001
 40
0.0328453671150639
 40
0.0328453671150639
 40
0.0328453671150639
 40
0.0328453671150639
 40
0.034612174951224
 40
0.034612174951224
 40
0.0362943918736983
 40
0.0362943918736983
 40
0.0388726355056021
 40
0.0388726355056021
 40
0.0410449487513871
 40
0.0410449487513871
 40
0.0429128596624199
 40
0.0429128596624199
 40
0.0429128596624199
 40
0.0429128596624199
 10
-37.99842789914503
 20
22.08398349519047
 30
0.0
 10
-37.99847484521244
 20
22.08119158277735
 30
0.0
 10
-37.9985283564759
 20
22.07799109648743
 30
0.0
 10
-37.99864665532109
 20
22.07086662707268
 30
0.0
 10
-37.99871142259159
 20
22.06694586524902
 30
0.0
 10
-37.99889097014234
 20
22.05600293380407
 30
0.0
 10
-37.99901757413084
 20
22.0482218233745
 30
0.0
 10
-37.99925928463327
 20
22.03315935064197
 30
0.0
 10
-37.99937543018055
 20
22.02584026825047
 30
0.0
 10
-37.99958650293828
 20
22.01237473121615
 30
0.0
 10
-37.99968328049865
 20
22.00613799496091
 30
0.0
 10
-37.99977770485079
 20
21.99999658161607
 30
0.0
  0
SPLINE
  5
9984
330
9970
100
AcDbEntity
  8
0
100
AcDbSpline
210
0.0
220
0.0
230
1.0
 70
     8
 71
     3
 72
    12
 73
     8
 74
     0
 42
0.000000001
 43
0.0000000001
 40
0.0138145630714449
 40
0.0138145630714449
 40
0.0138145630714449
 40
0.0138145630714449
 40
0.0169919977509262
 40
0.0169919977509262
 40
0.0189384595127619
 40
0.0189384595127619
 40
0.0215156446135278
 40
0.0215156446135278
 40
0.0215156446135278
 40
0.0215156446135278
 10
-37.99988626658518
 20
22.02594036135664
 30
0.0
 10
-37.99988626662711
 20
22.02594034784234
 30
0.0
 10
-37.99989009832567
 20
22.02472197080069
 30
0.0
 10
-37.99990126035965
 20
22.0201654261346
 30
0.0
 10
-37.9999066642769
 20
22.01781767439765
 30
0.0
 10
-37.99992101843319
 20
22.01095160624614
 30
0.0
 10
-37.99993065644228
 20
22.00589465541354
 30
0.0
 10
-37.99994094380463
 20
21.99999986651921
 30
0.0
  0
SPLINE
  5
9985
330
9970
100
AcDbEntity
  8
0
100
AcDbSpline
210
0.0
220
0.0
230
1.0
 70
     8
 71
     3
 72
    16
 73
    12
 74
     0
 42
0.000000001
 43
0.0000000001
 40
0.0
 40
0.0
 40
0.0
 40
0.0
 40
0.0041147701376007
 40
0.0041147701376007
 40
0.005066910487306
 40
0.005066910487306
 40
0.0058958097625801
 40
0.0058958097625801
 40
0.0067234516688891
 40
0.0067234516688891
 40
0.0081601476166919
 40
0.0081601476166919
 40
0.0081601476166919
 40
0.0081601476166919
 10
-40.00007431501592
 20
22.00000007787119
 30
0.0
 10
-40.00005236030858
 20
22.01348321179466
 30
0.0
 10
-40.00007089001984
 20
22.02743611950937
 30
0.0
 10
-40.00015518626369
 20
22.04264323905672
 30
0.0
 10
-40.00017334253709
 20
22.04537391439546
 30
0.0
 10
-40.0002068035994
 20
22.04980909451665
 30
0.0
 10
-40.00022231882113
 20
22.05162998386106
 30
0.0
 10
-40.0002491448235
 20
22.05457669176919
 30
0.0
 10
-40.0002606660299
 20
22.05573299464486
 30
0.0
 10
-40.00028457044054
 20
22.05805391642259
 30
0.0
 10
-40.00029164702539
 20
22.05864902334049
 30
0.0
 10
-40.00029164702529
 20
22.05864902333168
 30
0.0
  0
SPLINE
  5
9986
330
9970
100
AcDbEntity
  8
0
100
AcDbSpline
210
0.0
220
0.0
230
1.0
 70
     8
 71
     3
 72
    18
 73
    14
 74
     0
 42
0.000000001
 43
0.0000000001
 40
0.0
 40
0.0
 40
0.0
 40
0.0
 40
0.0020456842549087
 40
0.0020456842549087
 40
0.003710379913394
 40
0.003710379913394
 40
0.0047886574663502
 40
0.0047886574663502
 40
0.0054058580114905
 40
0.0054058580114905
 40
0.005671359360991
 40
0.005671359360991
 40
0.0057658587369173
 40
0.0057658587369173
 40
0.0057658587369173
 40
0.0057658587369173
 10
-40.00000948370933
 20
22.00000001349922
 30
0.0
 10
-40.00000131162408
 20
22.00669084894574
 30
0.0
 10
-40.00000211672954
 20
22.01335086240593
 30
0.0
 10
-40.0000199570907
 20
22.02478352048804
 30
0.0
 10
-40.0000340505978
 20
22.02972464713768
 30
0.0
 10
-40.00006334256505
 20
22.03706867863427
 30
0.0
 10
-40.00007727322376
 20
22.0399193464441
 30
0.0
 10
-40.00009604289446
 20
22.04334273319609
 30
0.0
 10
-40.00010217954226
 20
22.04437249629313
 30
0.0
 10
-40.00010716091107
 20
22.04519218266153
 30
0.0
 10
-40.0001081841618
 20
22.04535741747007
 30
0.0
 10
-40.00010876159559
 20
22.04545062464195
 30
0.0
 10
-40.00010883935305
 20
22.04546313685587
 30
0.0
 10
-40.00010883933636
 20
22.04546313416873
 30
0.0
  0
SPLINE
  5
9987
330
9970
100
AcDbEntity
  8
0
100
AcDbSpline
210
0.0
220
0.0
230
1.0
 70
     8
 71
     3
 72
     8
 73
     4
 74
     0
 42
0.000000001
 43
0.0000000001
 40
0.0
 40
0.0
 40
0.0
 40
0.0
 40
0.0007418618412967
 40
0.0007418618412967
 40
0.0007418618412967
 40
0.0007418618412967
 10
-40.00001228473428
 20
21.99999999359672
 30
0.0
 10
-40.00000823587388
 20
22.00154343845862
 30
0.0
 10
-40.00000411639131
 20
22.00317715696908
 30
0.0
 10
-39.99999998544272
 20
22.00485798905806
 30
0.0
  0
SPLINE
  5
9988
330
9970
100
AcDbEntity
  8
0
100
AcDbSpline
210
0.0
220
0.0
230
1.0
 70
     8
 71
     3
 72
     8
 73
     4
 74
     0
 42
0.000000001
 43
0.0000000001
 40
0.281685225537652
 40
0.281685225537652
 40
0.281685225537652
 40
0.281685225537652
 40
0.2822215443394132
 40
0.2822215443394132
 40
0.2822215443394132
 40
0.2822215443394132
 10
-42.60168789897181
 20
24.55889695713702
 30
0.0
 10
-42.60290107440972
 20
24.55987138861364
 30
0.0
 10
-42.60408416329995
 20
24.56082249213599
 30
0.0
 10
-42.60523151411833
 20
24.56174581796612
 30
0.0
  0
SPLINE
  5
9989
330
9970
100
AcDbEntity
  8
0
100
AcDbSpline
210
0.0
220
0.0
230
1.0
 70
     8
 71
     3
 72
     8
 73
     4
 74
     0
 42
0.000000001
 43
0.0000000001
 40
0.0169266926258086
 40
0.0169266926258086
 40
0.0169266926258086
 40
0.0169266926258086
 40
0.0176395326789494
 40
0.0176395326789494
 40
0.0176395326789494
 40
0.0176395326789494
 10
-42.60373955754931
 20
24.56058633468592
 30
0.0
 10
-42.60454415560464
 20
24.56121154519111
 30
0.0
 10
-42.60533727149906
 20
24.56182796768715
 30
0.0
 10
-42.60611379963717
 20
24.56243160914637
 30
0.0
  0
ARC
  5
998A
330
9970
100
AcDbEntity
  8
0
100
AcDbCircle
 10
-35.99999999999997
 20
2.0
 30
0.0
 40
4.000000000000007
100
AcDbArc
 50
180.0
 51
270.0
  0
ARC
  5
998B
330
9970
100
AcDbEntity
  8
0
100
AcDbCircle
 10
-35.99999999999997
 20
2.0
 30
0.0
 40
2.00000000000001
100
AcDbArc
 50
180.0
 51
270.0
  0
ARC
  5
998C
330
9970
100
AcDbEntity
  8
0
100
AcDbCircle
 10
35.99999999999997
 20
2.0
 30
0.0
 40
4.000000000000007
100
AcDbArc
 50
270.0
 51
0.0
  0
LINE
  5
998D
330
9970
100
AcDbEntity
  8
0
100
AcDbLine
 10
42.60606060606066
 20
24.56249999999994
 30
0.0
 11
79.50000000000009
 21
54.99999999999996
 31
0.0
  0
LINE
  5
998E
330
9970
100
AcDbEntity
  8
0
100
AcDbLine
 10
37.99999999999998
 20
21.99999999999999
 30
0.0
 11
37.99999999999999
 21
54.99999999999996
 31
0.0
  0
LINE
  5
998F
330
9970
100
AcDbEntity
  8
0
100
AcDbLine
 10
39.99999999999998
 20
21.99999999999999
 30
0.0
 11
37.99999999999998
 21
21.99999999999999
 31
0.0
  0
LINE
  5
9990
330
9970
100
AcDbEntity
  8
0
100
AcDbLine
 10
40.0
 20
54.99999999999996
 30
0.0
 11
39.99999999999998
 21
21.99999999999999
 31
0.0
  0
LINE
  5
9991
330
9970
100
AcDbEntity
  8
0
100
AcDbLine
 10
40.0
 20
54.99999999999996
 30
0.0
 11
37.99999999999999
 21
54.99999999999996
 31
0.0
  0
LINE
  5
9992
330
9970
100
AcDbEntity
  8
0
100
AcDbLine
 10
37.99999999999999
 20
54.99999999999996
 30
0.0
 11
37.99999999999999
 21
152.0
 31
0.0
  0
LINE
  5
9993
330
9970
100
AcDbEntity
  8
0
100
AcDbLine
 10
40.0
 20
152.0
 30
0.0
 11
40.0
 21
54.99999999999996
 31
0.0
  0
LINE
  5
9994
330
9970
100
AcDbEntity
  8
0
100
AcDbLine
 10
37.99999999999999
 20
152.0
 30
0.0
 11
40.0
 21
152.0
 31
0.0
  0
LINE
  5
9995
330
9970
100
AcDbEntity
  8
0
100
AcDbLine
 10
39.99999999999998
 20
21.99999999999999
 30
0.0
 11
39.99999999999999
 21
1.999999999999999
 31
0.0
  0
LINE
  5
9996
330
9970
100
AcDbEntity
  8
0
100
AcDbLine
 10
37.99999999999998
 20
2.0
 30
0.0
 11
37.99999999999998
 21
21.99999999999999
 31
0.0
  0
ARC
  5
9997
330
9970
100
AcDbEntity
  8
0
100
AcDbCircle
 10
35.99999999999997
 20
2.0
 30
0.0
 40
2.00000000000001
100
AcDbArc
 50
270.0
 51
0.0
  0
LINE
  5
9998
330
9970
100
AcDbEntity
  8
0
100
AcDbLine
 10
41.99999999999999
 20
152.0
 30
0.0
 11
40.0
 21
152.0
 31
0.0
  0
LINE
  5
9999
330
9970
100
AcDbEntity
  8
0
100
AcDbLine
 10
79.50000000000009
 20
54.99999999999996
 30
0.0
 11
79.50000000000002
 21
152.0
 31
0.0
  0
LINE
  5
999A
330
9970
100
AcDbEntity
  8
0
100
AcDbLine
 10
79.50000000000002
 20
152.0
 30
0.0
 11
41.99999999999999
 21
152.0
 31
0.0
  0
CIRCLE
  5
999B
330
9970
100
AcDbEntity
  8
0
100
AcDbCircle
 10
60.00000000000003
 20
132.0
 30
0.0
 40
6.5
  0
CIRCLE
  5
999C
330
9970
100
AcDbEntity
  8
0
100
AcDbCircle
 10
71.00000000000003
 20
137.0
 30
0.0
 40
2.5
  0
LINE
  5
999D
330
9970
100
AcDbEntity
  8
0
100
AcDbLine
 10
-79.50000000000009
 20
54.99999999999996
 30
0.0
 11
-42.60606060606066
 21
24.56249999999994
 31
0.0
  0
LINE
  5
999E
330
9970
100
AcDbEntity
  8
0
100
AcDbLine
 10
-37.99999999999999
 20
54.99999999999996
 30
0.0
 11
-37.99999999999998
 21
21.99999999999999
 31
0.0
  0
LINE
  5
999F
330
9970
100
AcDbEntity
  8
0
100
AcDbLine
 10
-40.0
 20
54.99999999999996
 30
0.0
 11
-37.99999999999999
 21
54.99999999999996
 31
0.0
  0
LINE
  5
99A0
330
9970
100
AcDbEntity
  8
0
100
AcDbLine
 10
-39.99999999999998
 20
21.99999999999999
 30
0.0
 11
-40.0
 21
54.99999999999996
 31
0.0
  0
LINE
  5
99A1
330
9970
100
AcDbEntity
  8
0
100
AcDbLine
 10
-37.99999999999998
 20
21.99999999999999
 30
0.0
 11
-39.99999999999998
 21
21.99999999999999
 31
0.0
  0
LINE
  5
99A2
330
9970
100
AcDbEntity
  8
0
100
AcDbLine
 10
-37.99999999999999
 20
152.0
 30
0.0
 11
-37.99999999999999
 21
54.99999999999996
 31
0.0
  0
LINE
  5
99A3
330
9970
100
AcDbEntity
  8
0
100
AcDbLine
 10
-40.0
 20
152.0
 30
0.0
 11
-37.99999999999999
 21
152.0
 31
0.0
  0
LINE
  5
99A4
330
9970
100
AcDbEntity
  8
0
100
AcDbLine
 10
-40.0
 20
54.99999999999996
 30
0.0
 11
-40.0
 21
152.0
 31
0.0
  0
CIRCLE
  5
99A5
330
9970
100
AcDbEntity
  8
0
100
AcDbCircle
 10
-60.00000000000003
 20
61.99999999999999
 30
0.0
 40
6.5
  0
CIRCLE
  5
99A6
330
9970
100
AcDbEntity
  8
0
100
AcDbCircle
 10
60.00000000000003
 20
61.99999999999999
 30
0.0
 40
6.5
  0
CIRCLE
  5
99A7
330
9970
100
AcDbEntity
  8
0
100
AcDbCircle
 10
-60.00000000000003
 20
132.0
 30
0.0
 40
6.5
  0
CIRCLE
  5
99A8
330
9970
100
AcDbEntity
  8
0
100
AcDbCircle
 10
-49.00000000000002
 20
46.99999999999999
 30
0.0
 40
2.5
  0
CIRCLE
  5
99A9
330
9970
100
AcDbEntity
  8
0
100
AcDbCircle
 10
-49.00000000000002
 20
67.0
 30
0.0
 40
2.5
  0
CIRCLE
  5
99AA
330
9970
100
AcDbEntity
  8
0
100
AcDbCircle
 10
-49.00000000000002
 20
87.0
 30
0.0
 40
2.5
  0
CIRCLE
  5
99AB
330
9970
100
AcDbEntity
  8
0
100
AcDbCircle
 10
-49.00000000000002
 20
107.0
 30
0.0
 40
2.5
  0
CIRCLE
  5
99AC
330
9970
100
AcDbEntity
  8
0
100
AcDbCircle
 10
-49.00000000000002
 20
127.0
 30
0.0
 40
2.5
  0
CIRCLE
  5
99AD
330
9970
100
AcDbEntity
  8
0
100
AcDbCircle
 10
49.00000000000002
 20
46.99999999999999
 30
0.0
 40
2.5
  0
CIRCLE
  5
99AE
330
9970
100
AcDbEntity
  8
0
100
AcDbCircle
 10
49.00000000000002
 20
67.0
 30
0.0
 40
2.5
  0
CIRCLE
  5
99AF
330
9970
100
AcDbEntity
  8
0
100
AcDbCircle
 10
49.00000000000002
 20
87.0
 30
0.0
 40
2.5
  0
CIRCLE
  5
99B0
330
9970
100
AcDbEntity
  8
0
100
AcDbCircle
 10
49.00000000000002
 20
107.0
 30
0.0
 40
2.5
  0
CIRCLE
  5
99B1
330
9970
100
AcDbEntity
  8
0
100
AcDbCircle
 10
49.00000000000002
 20
127.0
 30
0.0
 40
2.5
  0
CIRCLE
  5
99B2
330
9970
100
AcDbEntity
  8
0
100
AcDbCircle
 10
-49.00000000000002
 20
147.0
 30
0.0
 40
2.5
  0
CIRCLE
  5
99B3
330
9970
100
AcDbEntity
  8
0
100
AcDbCircle
 10
49.00000000000002
 20
147.0
 30
0.0
 40
2.5
  0
CIRCLE
  5
99B4
330
9970
100
AcDbEntity
  8
0
100
AcDbCircle
 10
-71.00000000000003
 20
57.0
 30
0.0
 40
2.5
  0
CIRCLE
  5
99B5
330
9970
100
AcDbEntity
  8
0
100
AcDbCircle
 10
-71.00000000000003
 20
77.0
 30
0.0
 40
2.5
  0
CIRCLE
  5
99B6
330
9970
100
AcDbEntity
  8
0
100
AcDbCircle
 10
-71.00000000000003
 20
97.0
 30
0.0
 40
2.5
  0
CIRCLE
  5
99B7
330
9970
100
AcDbEntity
  8
0
100
AcDbCircle
 10
-71.00000000000003
 20
117.0
 30
0.0
 40
2.5
  0
CIRCLE
  5
99B8
330
9970
100
AcDbEntity
  8
0
100
AcDbCircle
 10
71.00000000000003
 20
57.0
 30
0.0
 40
2.5
  0
CIRCLE
  5
99B9
330
9970
100
AcDbEntity
  8
0
100
AcDbCircle
 10
71.00000000000003
 20
77.0
 30
0.0
 40
2.5
  0
CIRCLE
  5
99BA
330
9970
100
AcDbEntity
  8
0
100
AcDbCircle
 10
71.00000000000003
 20
97.0
 30
0.0
 40
2.5
  0
CIRCLE
  5
99BB
330
9970
100
AcDbEntity
  8
0
100
AcDbCircle
 10
71.00000000000003
 20
117.0
 30
0.0
 40
2.5
  0
CIRCLE
  5
99BC
330
9970
100
AcDbEntity
  8
0
100
AcDbCircle
 10
-71.00000000000003
 20
137.0
 30
0.0
 40
2.5
  0
LINE
  5
99BD
330
9970
100
AcDbEntity
  8
0
100
AcDbLine
 10
-79.50000000000002
 20
152.0
 30
0.0
 11
-41.99999999999999
 21
152.0
 31
0.0
  0
LINE
  5
99BE
330
9970
100
AcDbEntity
  8
0
100
AcDbLine
 10
-79.50000000000009
 20
54.99999999999996
 30
0.0
 11
-79.50000000000002
 21
152.0
 31
0.0
  0
LINE
  5
99BF
330
9970
100
AcDbEntity
  8
0
100
AcDbLine
 10
-37.99999999999998
 20
2.0
 30
0.0
 11
-37.99999999999998
 21
21.99999999999999
 31
0.0
  0
LINE
  5
99C0
330
9970
100
AcDbEntity
  8
0
100
AcDbLine
 10
-39.99999999999998
 20
21.99999999999999
 30
0.0
 11
-39.99999999999999
 21
1.999999999999999
 31
0.0
  0
LINE
  5
99C1
330
9970
100
AcDbEntity
  8
0
100
AcDbLine
 10
-41.99999999999999
 20
152.0
 30
0.0
 11
-40.0
 21
152.0
 31
0.0
  0
ENDBLK
  5
9972
330
9970
100
AcDbEntity
  8
0
100
AcDbBlockEnd
  0
BLOCK
  5
99C3
330
99C2
100
AcDbEntity
  8
0
100
AcDbBlockBegin
  2
SAE380_76_2-Left
 70
     0
 10
0.0
 20
0.0
 30
0.0
  3
SAE380_76_2-Left
  1

  0
LINE
  5
99C5
330
99C2
100
AcDbEntity
  8
0
100
AcDbLine
 10
1.999999999999998
 20
-2.0
 30
0.0
 11
85.99999999999997
 21
-2.000000000000007
 31
0.0
  0
LINE
  5
99C6
330
99C2
100
AcDbEntity
  8
0
100
AcDbLine
 10
2.000000000000003
 20
2.000000000000004
 30
0.0
 11
1.999999999999998
 21
-1.999999999999999
 31
0.0
  0
LINE
  5
99C7
330
99C2
100
AcDbEntity
  8
0
100
AcDbLine
 10
85.99999999999997
 20
-2.000000000000007
 30
0.0
 11
85.99999999999997
 21
2.0
 31
0.0
  0
SPLINE
  5
99C8
330
99C2
100
AcDbEntity
  8
0
100
AcDbSpline
210
0.0
220
0.0
230
1.0
 70
     8
 71
     3
 72
    14
 73
    10
 74
     0
 42
0.000000001
 43
0.0000000001
 40
-0.481302653296821
 40
-0.481302653296821
 40
-0.481302653296821
 40
-0.481302653296821
 40
-0.3760960080940916
 40
-0.3760960080940916
 40
-0.3760960080940916
 40
-0.0765284972623525
 40
-0.0765284972623525
 40
-0.0765284972623525
 40
0.0
 40
0.0
 40
0.0
 40
0.0
 10
0.9454120927437974
 20
23.7317601152252
 30
0.0
 10
0.8408297879914973
 20
23.7686761860842
 30
0.0
 10
0.737112935745479
 20
23.80054090483525
 30
0.0
 10
0.6388614064245615
 20
23.83423666321651
 30
0.0
 10
0.3590980319973792
 20
23.93018264119548
 30
0.0
 10
0.1217220476474714
 20
24.04001612968557
 30
0.0
 10
0.034261581609799
 20
24.31443386957311
 30
0.0
 10
0.0119186445631727
 20
24.38453752399617
 30
0.0
 10
0.0000045452574064
 20
24.4676966510506
 30
0.0
 10
0.0000000001152108
 20
24.56250000004003
 30
0.0
  0
SPLINE
  5
99C9
330
99C2
100
AcDbEntity
  8
0
100
AcDbSpline
210
0.0
220
0.0
230
1.0
 70
     8
 71
     3
 72
    14
 73
    10
 74
     0
 42
0.000000001
 43
0.0000000001
 40
0.0
 40
0.0
 40
0.0
 40
0.0
 40
0.3435200981511151
 40
0.3435200981511151
 40
0.3435200981511151
 40
0.7570126784224815
 40
0.7570126784224815
 40
0.7570126784224815
 40
1.0
 40
1.0
 40
1.0
 40
1.0
 10
2.000000000000022
 20
24.5624999999999
 30
0.0
 10
2.000036880568223
 20
24.3024897645968
 30
0.0
 10
1.99683446875656
 20
24.07528645944824
 30
0.0
 10
1.998675713778533
 20
23.84407071612072
 30
0.0
 10
2.00089200668001
 20
23.56575805021725
 30
0.0
 10
2.001072608838248
 20
23.27136822435335
 30
0.0
 10
2.001124351808501
 20
22.85787278959713
 30
0.0
 10
2.001154758365601
 20
22.61488379059257
 30
0.0
 10
2.000250524317265
 20
22.35819383536332
 30
0.0
 10
1.999999999992522
 20
22.00000000165212
 30
0.0
  0
LINE
  5
99CA
330
99C2
100
AcDbEntity
  8
0
100
AcDbLine
 10
0.0
 20
24.56249999999994
 30
0.0
 11
2.000000000000002
 21
24.56249999999994
 31
0.0
  0
SPLINE
  5
99CB
330
99C2
100
AcDbEntity
  8
0
100
AcDbSpline
210
0.0
220
0.0
230
1.0
 70
     8
 71
     3
 72
    18
 73
    14
 74
     0
 42
0.000000001
 43
0.0000000001
 40
0.0
 40
0.0
 40
0.0
 40
0.0
 40
0.0048729671372588
 40
0.0048729671372588
 40
0.007035382119712
 40
0.007035382119712
 40
0.0087994749876003
 40
0.0087994749876003
 40
0.0102139388701426
 40
0.0102139388701426
 40
0.0113405492800872
 40
0.0113405492800872
 40
0.0120695907493068
 40
0.0120695907493068
 40
0.0120695907493068
 40
0.0120695907493068
 10
1.999551536423691
 20
21.9999985700837
 30
0.0
 10
1.999501455261159
 20
22.01555893162739
 30
0.0
 10
1.999399311237755
 20
22.03064387495268
 30
0.0
 10
1.999203740487967
 20
22.04934394062743
 30
0.0
 10
1.999136854850812
 20
22.05473692732213
 30
0.0
 10
1.999013998696472
 20
22.06343421114762
 30
0.0
 10
1.998957798438323
 20
22.06697466864016
 30
0.0
 10
1.99886616390335
 20
22.0723059605167
 30
0.0
 10
1.998828540631318
 20
22.0743231451171
 30
0.0
 10
1.998775561642709
 20
22.07703972280927
 30
0.0
 10
1.998757115883553
 20
22.07793180565745
 30
0.0
 10
1.998739470220958
 20
22.07876888588562
 30
0.0
 10
1.998735706105073
 20
22.07894058273722
 30
0.0
 10
1.998735706096237
 20
22.07894058314077
 30
0.0
  0
SPLINE
  5
99CC
330
99C2
100
AcDbEntity
  8
0
100
AcDbSpline
210
0.0
220
0.0
230
1.0
 70
     8
 71
     3
 72
    10
 73
     6
 74
     0
 42
0.000000001
 43
0.0000000001
 40
0.0055721015163525
 40
0.0055721015163525
 40
0.0055721015163525
 40
0.0055721015163525
 40
0.0058869817894514
 40
0.0058869817894514
 40
0.008185619624681
 40
0.008185619624681
 40
0.008185619624681
 40
0.008185619624681
 10
1.999391963122103
 20
22.02949797455307
 30
0.0
 10
1.99938462307975
 20
22.02981640093135
 30
0.0
 10
1.999377641801927
 20
22.03011697545113
 30
0.0
 10
1.999322897386922
 20
22.0324594884789
 30
0.0
 10
1.999295499695548
 20
22.03354692650885
 30
0.0
 10
1.999295499749833
 20
22.03354692432602
 30
0.0
  0
SPLINE
  5
99CD
330
99C2
100
AcDbEntity
  8
0
100
AcDbSpline
210
0.0
220
0.0
230
1.0
 70
     8
 71
     3
 72
    32
 73
    28
 74
     0
 42
0.000000001
 43
0.0000000001
 40
0.0046834359873517
 40
0.0046834359873517
 40
0.0046834359873517
 40
0.0046834359873517
 40
0.0052696777035352
 40
0.0052696777035352
 40
0.0092353419869683
 40
0.0092353419869683
 40
0.0117315295958853
 40
0.0117315295958853
 40
0.0138523049098765
 40
0.0138523049098765
 40
0.0172610380189346
 40
0.0172610380189346
 40
0.0261317804565722
 40
0.0261317804565722
 40
0.0527611344663961
 40
0.0527611344663961
 40
0.0889478525095536
 40
0.0889478525095536
 40
0.1145383731200347
 40
0.1145383731200347
 40
0.1518180759414456
 40
0.1518180759414456
 40
0.1853166833606472
 40
0.1853166833606472
 40
0.2269370119444933
 40
0.2269370119444933
 40
0.2446335247694053
 40
0.2446335247694053
 40
0.2446335247694053
 40
0.2446335247694053
 10
1.999436007956583
 20
22.0234335277385
 30
0.0
 10
1.999411455209601
 20
22.0243499694854
 30
0.0
 10
1.999386556182509
 20
22.02526644569677
 30
0.0
 10
1.999189563848483
 20
22.03241704303301
 30
0.0
 10
1.999004136320841
 20
22.03875849955191
 30
0.0
 10
1.998515728987418
 20
22.05335055100519
 30
0.0
 10
1.998269395344872
 20
22.06029132527238
 30
0.0
 10
1.997729648283409
 20
22.07412613346889
 30
0.0
 10
1.997447693308435
 20
22.08090515590758
 30
0.0
 10
1.996652441747629
 20
22.09872986052066
 30
0.0
 10
1.996098069565791
 20
22.10998793058311
 30
0.0
 10
1.993900677153068
 20
22.15050699654899
 30
0.0
 10
1.991926019997589
 20
22.17996830571145
 30
0.0
 10
1.982427286279084
 20
22.29742203892434
 30
0.0
 10
1.971736415980398
 20
22.38489629993718
 30
0.0
 10
1.936110602267093
 20
22.58973290379635
 30
0.0
 10
1.907053286847238
 20
22.70804246020937
 30
0.0
 10
1.838872455590667
 20
22.90223513919428
 30
0.0
 10
1.80483513735569
 20
22.98108896190189
 30
0.0
 10
1.708090980064044
 20
23.16249388048376
 30
0.0
 10
1.637669621391764
 20
23.26126646621218
 30
0.0
 10
1.49372281866464
 20
23.41704830868383
 30
0.0
 10
1.420228969340579
 20
23.47927402988007
 30
0.0
 10
1.254517615619764
 20
23.59488621091836
 30
0.0
 10
1.160200679682942
 20
23.64438601470506
 30
0.0
 10
1.024261158460051
 20
23.70235767394964
 30
0.0
 10
0.9834048527164958
 20
23.71807333761245
 30
0.0
 10
0.942091252114759
 20
23.73259712964309
 30
0.0
  0
LINE
  5
99CE
330
99C2
100
AcDbEntity
  8
0
100
AcDbLine
 10
2.000000000000003
 20
2.000000000000003
 30
0.0
 11
2.000000000000003
 21
21.99999999999999
 31
0.0
  0
LINE
  5
99CF
330
99C2
100
AcDbEntity
  8
0
100
AcDbLine
 10
1.999999999999992
 20
54.99999999999996
 30
0.0
 11
2.000000000000002
 21
24.56249999999994
 31
0.0
  0
LINE
  5
99D0
330
99C2
100
AcDbEntity
  8
0
100
AcDbLine
 10
0.0
 20
54.99999999999996
 30
0.0
 11
1.999999999999992
 21
54.99999999999996
 31
0.0
  0
LINE
  5
99D1
330
99C2
100
AcDbEntity
  8
0
100
AcDbLine
 10
0.0
 20
24.56249999999994
 30
0.0
 11
0.0
 21
54.99999999999996
 31
0.0
  0
LINE
  5
99D2
330
99C2
100
AcDbEntity
  8
0
100
AcDbLine
 10
86.0
 20
21.99999999999999
 30
0.0
 11
46.0
 21
54.99999999999996
 31
0.0
  0
LINE
  5
99D3
330
99C2
100
AcDbEntity
  8
0
100
AcDbLine
 10
46.0
 20
54.99999999999996
 30
0.0
 11
45.99999999999997
 21
152.0
 31
0.0
  0
LINE
  5
99D4
330
99C2
100
AcDbEntity
  8
0
100
AcDbLine
 10
1.999999999999992
 20
54.99999999999996
 30
0.0
 11
2.00000000000001
 21
152.0
 31
0.0
  0
LINE
  5
99D5
330
99C2
100
AcDbEntity
  8
0
100
AcDbLine
 10
86.0
 20
21.99999999999999
 30
0.0
 11
85.99999999999997
 21
1.999999999999999
 31
0.0
  0
LINE
  5
99D6
330
99C2
100
AcDbEntity
  8
0
100
AcDbLine
 10
4.000000000000003
 20
152.0
 30
0.0
 11
45.99999999999997
 21
152.0
 31
0.0
  0
LINE
  5
99D7
330
99C2
100
AcDbEntity
  8
0
100
AcDbLine
 10
0.0
 20
152.0
 30
0.0
 11
2.00000000000001
 21
152.0
 31
0.0
  0
LINE
  5
99D8
330
99C2
100
AcDbEntity
  8
0
100
AcDbLine
 10
0.0
 20
54.99999999999996
 30
0.0
 11
0.0
 21
152.0
 31
0.0
  0
LINE
  5
99D9
330
99C2
100
AcDbEntity
  8
0
100
AcDbLine
 10
2.000000000000002
 20
152.0
 30
0.0
 11
4.000000000000003
 21
152.0
 31
0.0
  0
CIRCLE
  5
99DA
330
99C2
100
AcDbEntity
  8
0
100
AcDbCircle
 10
38.49999999999997
 20
46.99999999999999
 30
0.0
 40
2.5
  0
CIRCLE
  5
99DB
330
99C2
100
AcDbEntity
  8
0
100
AcDbCircle
 10
38.49999999999997
 20
67.0
 30
0.0
 40
2.5
  0
CIRCLE
  5
99DC
330
99C2
100
AcDbEntity
  8
0
100
AcDbCircle
 10
38.49999999999997
 20
87.0
 30
0.0
 40
2.5
  0
CIRCLE
  5
99DD
330
99C2
100
AcDbEntity
  8
0
100
AcDbCircle
 10
38.49999999999997
 20
107.0
 30
0.0
 40
2.5
  0
CIRCLE
  5
99DE
330
99C2
100
AcDbEntity
  8
0
100
AcDbCircle
 10
38.49999999999997
 20
127.0
 30
0.0
 40
2.5
  0
CIRCLE
  5
99DF
330
99C2
100
AcDbEntity
  8
0
100
AcDbCircle
 10
38.49999999999997
 20
147.0
 30
0.0
 40
2.5
  0
SPLINE
  5
99E0
330
99C2
100
AcDbEntity
  8
0
100
AcDbSpline
210
0.0
220
0.0
230
1.0
 70
     8
 71
     3
 72
     8
 73
     4
 74
     0
 42
0.000000001
 43
0.0000000001
 40
0.0
 40
0.0
 40
0.0
 40
0.0
 40
0.0025091698128753
 40
0.0025091698128753
 40
0.0025091698128753
 40
0.0025091698128753
 10
1.999551536423691
 20
21.9999985700837
 30
0.0
 10
1.999525748820845
 20
22.00801085261365
 30
0.0
 10
1.999486860785194
 20
22.01590008296506
 30
0.0
 10
1.999436007956575
 20
22.02343352773877
 30
0.0
  0
ENDBLK
  5
99C4
330
99C2
100
AcDbEntity
  8
0
100
AcDbBlockEnd
  0
BLOCK
  5
99E2
330
99E1
100
AcDbEntity
  8
0
100
AcDbBlockBegin
  2
SAE380_76_2-Right
 70
     0
 10
0.0
 20
0.0
 30
0.0
  3
SAE380_76_2-Right
  1

  0
SPLINE
  5
99E4
330
99E1
100
AcDbEntity
  8
0
100
AcDbSpline
210
0.0
220
0.0
230
1.0
 70
     8
 71
     3
 72
    14
 73
    10
 74
     0
 42
0.000000001
 43
0.0000000001
 40
0.0
 40
0.0
 40
0.0
 40
0.0
 40
0.3435200981511151
 40
0.3435200981511151
 40
0.3435200981511151
 40
0.7570126784224815
 40
0.7570126784224815
 40
0.7570126784224815
 40
1.0
 40
1.0
 40
1.0
 40
1.0
 10
-2.000000000000022
 20
24.5624999999999
 30
0.0
 10
-2.000036880568223
 20
24.3024897645968
 30
0.0
 10
-1.99683446875656
 20
24.07528645944824
 30
0.0
 10
-1.998675713778533
 20
23.84407071612072
 30
0.0
 10
-2.00089200668001
 20
23.56575805021725
 30
0.0
 10
-2.001072608838248
 20
23.27136822435335
 30
0.0
 10
-2.001124351808501
 20
22.85787278959713
 30
0.0
 10
-2.001154758365601
 20
22.61488379059257
 30
0.0
 10
-2.000250524317265
 20
22.35819383536332
 30
0.0
 10
-1.999999999992522
 20
22.00000000165212
 30
0.0
  0
SPLINE
  5
99E5
330
99E1
100
AcDbEntity
  8
0
100
AcDbSpline
210
0.0
220
0.0
230
1.0
 70
     8
 71
     3
 72
    14
 73
    10
 74
     0
 42
0.000000001
 43
0.0000000001
 40
-0.4813026532968516
 40
-0.4813026532968516
 40
-0.4813026532968516
 40
-0.4813026532968516
 40
-0.3760960080940916
 40
-0.3760960080940916
 40
-0.3760960080940916
 40
-0.0765284972623525
 40
-0.0765284972623525
 40
-0.0765284972623525
 40
0.0
 40
0.0
 40
0.0
 40
0.0
 10
-0.9454120927438889
 20
23.73176011522517
 30
0.0
 10
-0.8408297879915577
 20
23.76867618608418
 30
0.0
 10
-0.7371129357455076
 20
23.80054090483523
 30
0.0
 10
-0.6388614064245615
 20
23.83423666321651
 30
0.0
 10
-0.3590980319973792
 20
23.93018264119548
 30
0.0
 10
-0.1217220476474714
 20
24.04001612968557
 30
0.0
 10
-0.034261581609799
 20
24.31443386957311
 30
0.0
 10
-0.0119186445631727
 20
24.38453752399617
 30
0.0
 10
-0.0000045452574064
 20
24.4676966510506
 30
0.0
 10
-0.0000000001152108
 20
24.56250000004003
 30
0.0
  0
LINE
  5
99E6
330
99E1
100
AcDbEntity
  8
0
100
AcDbLine
 10
-2.000000000000002
 20
24.56249999999994
 30
0.0
 11
0.0
 21
24.56249999999994
 31
0.0
  0
SPLINE
  5
99E7
330
99E1
100
AcDbEntity
  8
0
100
AcDbSpline
210
0.0
220
0.0
230
1.0
 70
     8
 71
     3
 72
    18
 73
    14
 74
     0
 42
0.000000001
 43
0.0000000001
 40
0.0122744830586836
 40
0.0122744830586836
 40
0.0122744830586836
 40
0.0122744830586836
 40
0.0127922476648188
 40
0.0127922476648188
 40
0.0141039698238208
 40
0.0141039698238208
 40
0.0167552321432434
 40
0.0167552321432434
 40
0.0193828999275646
 40
0.0193828999275646
 40
0.0227949751866317
 40
0.0227949751866317
 40
0.0243496808521414
 40
0.0243496808521414
 40
0.0243496808521414
 40
0.0243496808521414
 10
-1.998735706096174
 20
22.07894058314366
 30
0.0
 10
-1.99873570609691
 20
22.07894058311008
 30
0.0
 10
-1.998737581482943
 20
22.07885499785829
 30
0.0
 10
-1.998750171843686
 20
22.07826494217691
 30
0.0
 10
-1.998770288867272
 20
22.07730702858168
 30
0.0
 10
-1.998852036456372
 20
22.07312427130241
 30
0.0
 10
-1.998935149899549
 20
22.06852994821293
 30
0.0
 10
-1.999099882286154
 20
22.0576034213775
 30
0.0
 10
-1.99918372970756
 20
22.0511682876246
 30
0.0
 10
-1.999352847326725
 20
22.03519352392623
 30
0.0
 10
-1.999433043625409
 20
22.02512813658236
 30
0.0
 10
-1.999514685042038
 20
22.00985788595196
 30
0.0
 10
-1.999535558177805
 20
22.004963057134
 30
0.0
 10
-1.999551536423693
 20
21.99999857008372
 30
0.0
  0
SPLINE
  5
99E8
330
99E1
100
AcDbEntity
  8
0
100
AcDbSpline
210
0.0
220
0.0
230
1.0
 70
     8
 71
     3
 72
    10
 73
     6
 74
     0
 42
0.000000001
 43
0.0000000001
 40
0.0087021004709712
 40
0.0087021004709712
 40
0.0087021004709712
 40
0.0087021004709712
 40
0.0090037045881434
 40
0.0090037045881434
 40
0.0113147471173339
 40
0.0113147471173339
 40
0.0113147471173339
 40
0.0113147471173339
 10
-1.999295499749813
 20
22.03354692432684
 30
0.0
 10
-1.999295499749996
 20
22.03354692431946
 30
0.0
 10
-1.999295947036497
 20
22.03352894347039
 30
0.0
 10
-1.999303648737617
 20
22.03321792661994
 30
0.0
 10
-1.999337717462117
 20
22.03185081447201
 30
0.0
 10
-1.999391669511446
 20
22.02951071077544
 30
0.0
  0
SPLINE
  5
99E9
330
99E1
100
AcDbEntity
  8
0
100
AcDbSpline
210
0.0
220
0.0
230
1.0
 70
     8
 71
     3
 72
    28
 73
    24
 74
     0
 42
0.000000001
 43
0.0000000001
 40
0.0
 40
0.0
 40
0.0
 40
0.0
 40
0.0650016965114159
 40
0.0650016965114159
 40
0.102322829463216
 40
0.102322829463216
 40
0.1414747326729361
 40
0.1414747326729361
 40
0.1748987385470186
 40
0.1748987385470186
 40
0.2169239990972944
 40
0.2169239990972944
 40
0.2285779872538244
 40
0.2285779872538244
 40
0.2316609599469662
 40
0.2316609599469662
 40
0.2332824440219014
 40
0.2332824440219014
 40
0.2349101286708775
 40
0.2349101286708775
 40
0.2381878369308056
 40
0.2381878369308056
 40
0.2396958410857771
 40
0.2396958410857771
 40
0.2396958410857771
 40
0.2396958410857771
 10
-0.9420912521148487
 20
23.73259712964307
 30
0.0
 10
-1.093841721525256
 20
23.6792492677727
 30
0.0
 10
-1.242353898743079
 20
23.60988799342006
 30
0.0
 10
-1.466451771028794
 20
23.44171617369735
 30
0.0
 10
-1.54740794322002
 20
23.36594146108652
 30
0.0
 10
-1.695446554673035
 20
23.18241413823501
 30
0.0
 10
-1.763061289558379
 20
23.07040741114737
 30
0.0
 10
-1.860492149638336
 20
22.85077461308355
 30
0.0
 10
-1.895809632780227
 20
22.74321521027755
 30
0.0
 10
-1.95591112210848
 20
22.4995690255215
 30
0.0
 10
-1.976606287622946
 20
22.36174326036205
 30
0.0
 10
-1.991714435729867
 20
22.18425646689269
 30
0.0
 10
-1.994304854392412
 20
22.14540323427776
 30
0.0
 10
-1.996731631749866
 20
22.09701127128417
 30
0.0
 10
-1.997194387349778
 20
22.08687582366437
 30
0.0
 10
-1.997809802748077
 20
22.07209787240318
 30
0.0
 10
-1.998006435431864
 20
22.06710666948902
 30
0.0
 10
-1.99835589086692
 20
22.05779766387595
 30
0.0
 10
-1.998509837557469
 20
22.05345150820257
 30
0.0
 10
-1.998902087114487
 20
22.04191340906942
 30
0.0
 10
-1.999078183843585
 20
22.0361093615202
 30
0.0
 10
-1.999301883835442
 20
22.02834656192115
 30
0.0
 10
-1.999369996016767
 20
22.02589910429068
 30
0.0
 10
-1.999435804976023
 20
22.02344478823781
 30
0.0
  0
LINE
  5
99EA
330
99E1
100
AcDbEntity
  8
0
100
AcDbLine
 10
-1.999999999999998
 20
-2.0
 30
0.0
 11
-85.99999999999997
 21
-2.0
 31
0.0
  0
LINE
  5
99EB
330
99E1
100
AcDbEntity
  8
0
100
AcDbLine
 10
-2.000000000000003
 20
2.000000000000003
 30
0.0
 11
-2.000000000000003
 21
21.99999999999999
 31
0.0
  0
LINE
  5
99EC
330
99E1
100
AcDbEntity
  8
0
100
AcDbLine
 10
-2.000000000000003
 20
2.000000000000004
 30
0.0
 11
-1.999999999999998
 21
-1.999999999999999
 31
0.0
  0
LINE
  5
99ED
330
99E1
100
AcDbEntity
  8
0
100
AcDbLine
 10
-85.99999999999997
 20
-2.000000000000007
 30
0.0
 11
-85.99999999999997
 21
2.0
 31
0.0
  0
LINE
  5
99EE
330
99E1
100
AcDbEntity
  8
0
100
AcDbLine
 10
0.0
 20
54.99999999999996
 30
0.0
 11
0.0
 21
24.56249999999994
 31
0.0
  0
LINE
  5
99EF
330
99E1
100
AcDbEntity
  8
0
100
AcDbLine
 10
-1.999999999999992
 20
54.99999999999996
 30
0.0
 11
0.0
 21
54.99999999999996
 31
0.0
  0
LINE
  5
99F0
330
99E1
100
AcDbEntity
  8
0
100
AcDbLine
 10
-2.000000000000002
 20
24.56249999999994
 30
0.0
 11
-1.999999999999992
 21
54.99999999999996
 31
0.0
  0
LINE
  5
99F1
330
99E1
100
AcDbEntity
  8
0
100
AcDbLine
 10
0.0
 20
54.99999999999996
 30
0.0
 11
0.0
 21
152.0
 31
0.0
  0
CIRCLE
  5
99F2
330
99E1
100
AcDbEntity
  8
0
100
AcDbCircle
 10
-38.49999999999999
 20
136.9999999999999
 30
0.0
 40
2.5
  0
LINE
  5
99F3
330
99E1
100
AcDbEntity
  8
0
100
AcDbLine
 10
-46.0
 20
54.99999999999996
 30
0.0
 11
-86.0
 21
21.99999999999999
 31
0.0
  0
LINE
  5
99F4
330
99E1
100
AcDbEntity
  8
0
100
AcDbLine
 10
-45.99999999999997
 20
152.0
 30
0.0
 11
-46.0
 21
54.99999999999996
 31
0.0
  0
LINE
  5
99F5
330
99E1
100
AcDbEntity
  8
0
100
AcDbLine
 10
-86.0
 20
21.99999999999999
 30
0.0
 11
-85.99999999999997
 21
1.999999999999999
 31
0.0
  0
LINE
  5
99F6
330
99E1
100
AcDbEntity
  8
0
100
AcDbLine
 10
-4.000000000000003
 20
152.0
 30
0.0
 11
-45.99999999999997
 21
152.0
 31
0.0
  0
LINE
  5
99F7
330
99E1
100
AcDbEntity
  8
0
100
AcDbLine
 10
-2.000000000000002
 20
152.0
 30
0.0
 11
-4.000000000000003
 21
152.0
 31
0.0
  0
LINE
  5
99F8
330
99E1
100
AcDbEntity
  8
0
100
AcDbLine
 10
0.0
 20
152.0
 30
0.0
 11
-2.00000000000001
 21
152.0
 31
0.0
  0
LINE
  5
99F9
330
99E1
100
AcDbEntity
  8
0
100
AcDbLine
 10
-1.999999999999992
 20
54.99999999999996
 30
0.0
 11
-2.00000000000001
 21
152.0
 31
0.0
  0
CIRCLE
  5
99FA
330
99E1
100
AcDbEntity
  8
0
100
AcDbCircle
 10
-38.49999999999999
 20
36.99999999999997
 30
0.0
 40
2.5
  0
CIRCLE
  5
99FB
330
99E1
100
AcDbEntity
  8
0
100
AcDbCircle
 10
-38.49999999999999
 20
56.99999999999997
 30
0.0
 40
2.5
  0
CIRCLE
  5
99FC
330
99E1
100
AcDbEntity
  8
0
100
AcDbCircle
 10
-38.49999999999999
 20
76.99999999999997
 30
0.0
 40
2.5
  0
CIRCLE
  5
99FD
330
99E1
100
AcDbEntity
  8
0
100
AcDbCircle
 10
-38.49999999999999
 20
96.99999999999997
 30
0.0
 40
2.5
  0
CIRCLE
  5
99FE
330
99E1
100
AcDbEntity
  8
0
100
AcDbCircle
 10
-38.49999999999999
 20
116.9999999999999
 30
0.0
 40
2.5
  0
SPLINE
  5
99FF
330
99E1
100
AcDbEntity
  8
0
100
AcDbSpline
210
0.0
220
0.0
230
1.0
 70
     8
 71
     3
 72
    10
 73
     6
 74
     0
 42
0.000000001
 43
0.0000000001
 40
0.021827490005361
 40
0.021827490005361
 40
0.021827490005361
 40
0.021827490005361
 40
0.0227949751866317
 40
0.0227949751866317
 40
0.0243496808521414
 40
0.0243496808521414
 40
0.0243496808521414
 40
0.0243496808521414
 10
-1.999435804976023
 20
22.0234447882378
 30
0.0
 10
-1.999455385072858
 20
22.02055264625346
 30
0.0
 10
-1.999473226552753
 20
22.01761230213276
 30
0.0
 10
-1.999514685042038
 20
22.00985788595196
 30
0.0
 10
-1.999535558177805
 20
22.004963057134
 30
0.0
 10
-1.999551536423693
 20
21.99999857008372
 30
0.0
  0
ENDBLK
  5
99E3
330
99E1
100
AcDbEntity
  8
0
100
AcDbBlockEnd
  0
BLOCK
  5
9A01
330
9A00
100
AcDbEntity
  8
0
100
AcDbBlockBegin
  2
SAE380_76_2-Top
 70
     0
 10
0.0
 20
0.0
 30
0.0
  3
SAE380_76_2-Top
  1

  0
LINE
  5
9A03
330
9A00
100
AcDbEntity
  8
0
100
AcDbLine
 10
38.0
 20
-2.0
 30
0.0
 11
38.0
 21
-2.069004766161835
 31
0.0
  0
SPLINE
  5
9A04
330
9A00
100
AcDbEntity
  8
0
100
AcDbSpline
210
0.0
220
0.0
230
1.0
 70
     8
 71
     3
 72
    11
 73
     7
 74
     0
 42
0.000000001
 43
0.0000000001
 40
-1.0
 40
-1.0
 40
-1.0
 40
-1.0
 40
-0.7994286890708625
 40
-0.7994286890708625
 40
-0.7994286890708625
 40
-0.6533573777220379
 40
-0.6533573777220379
 40
-0.6533573777220379
 40
-0.6533573777220379
 10
38.0
 20
-1.999999999999992
 30
0.0
 10
37.99999961270334
 20
-1.999093543230908
 30
0.0
 10
38.12633150600904
 20
-1.919863896632353
 30
0.0
 10
38.33607694564306
 20
-1.790687786198459
 30
0.0
 10
38.48882955654662
 20
-1.696611899878475
 30
0.0
 10
38.688370564209
 20
-1.577391377849477
 30
0.0
 10
38.91982716790702
 20
-1.445337717163158
 30
0.0
  0
SPLINE
  5
9A05
330
9A00
100
AcDbEntity
  8
0
100
AcDbSpline
210
0.0
220
0.0
230
1.0
 70
     8
 71
     3
 72
    24
 73
    20
 74
     0
 42
0.000000001
 43
0.0000000001
 40
0.0
 40
0.0
 40
0.0
 40
0.0
 40
0.0062834381473136
 40
0.0062834381473136
 40
0.0147058049776768
 40
0.0147058049776768
 40
0.0373755793431637
 40
0.0373755793431637
 40
0.0501947865569892
 40
0.0501947865569892
 40
0.0667265035158786
 40
0.0667265035158786
 40
0.0742906733992431
 40
0.0742906733992431
 40
0.0802483921763656
 40
0.0802483921763656
 40
0.0850816717476551
 40
0.0850816717476551
 40
0.0856957592842555
 40
0.0856957592842555
 40
0.0856957592842555
 40
0.0856957592842555
 10
42.56214430292479
 20
-2.000020290751278
 30
0.0
 10
42.54700960597632
 20
-2.000021425462895
 30
0.0
 10
42.52948500200978
 20
-2.000028425796077
 30
0.0
 10
42.48709187819236
 20
-2.000060615575898
 30
0.0
 10
42.46142391804309
 20
-2.000092345611946
 30
0.0
 10
42.36626722188834
 20
-2.00025784153545
 30
0.0
 10
42.29520834534902
 20
-2.000490386301501
 30
0.0
 10
42.18816022253101
 20
-2.000912253181395
 30
0.0
 10
42.15315286392577
 20
-2.001031881989131
 30
0.0
 10
42.07005262604007
 20
-2.001571974333014
 30
0.0
 10
42.01830295897432
 20
-2.002077321685413
 30
0.0
 10
41.93976339615208
 20
-2.004016812787406
 30
0.0
 10
41.91447637132049
 20
-2.004811672102453
 30
0.0
 10
41.86944309153754
 20
-2.006675242072384
 30
0.0
 10
41.84947739913931
 20
-2.007658890901856
 30
0.0
 10
41.81421215990423
 20
-2.009735979553272
 30
0.0
 10
41.79857684732576
 20
-2.010784990525271
 30
0.0
 10
41.78191517669854
 20
-2.012048873442216
 30
0.0
 10
41.7800472166636
 20
-2.01219290986133
 30
0.0
 10
41.77819292855258
 20
-2.012337841299652
 30
0.0
  0
SPLINE
  5
9A06
330
9A00
100
AcDbEntity
  8
0
100
AcDbSpline
210
0.0
220
0.0
230
1.0
 70
     8
 71
     3
 72
    10
 73
     6
 74
     0
 42
0.000000001
 43
0.0000000001
 40
0.066212955463889
 40
0.066212955463889
 40
0.066212955463889
 40
0.066212955463889
 40
0.067441337812074
 40
0.067441337812074
 40
0.0706012009817123
 40
0.0706012009817123
 40
0.0706012009817123
 40
0.0706012009817123
 10
40.00189270279117
 20
-3.913021602194976
 30
0.0
 10
40.00179633194881
 20
-3.91613779670469
 30
0.0
 10
40.00170141118355
 20
-3.919304412349965
 30
0.0
 10
40.00137023799644
 20
-3.930825836919877
 30
0.0
 10
40.00114394123166
 20
-3.939519343931128
 30
0.0
 10
40.00093640231779
 20
-3.94847738866615
 30
0.0
  0
SPLINE
  5
9A07
330
9A00
100
AcDbEntity
  8
0
100
AcDbSpline
210
0.0
220
0.0
230
1.0
 70
     8
 71
     3
 72
    16
 73
    12
 74
     0
 42
0.000000001
 43
0.0000000001
 40
0.0298160532321521
 40
0.0298160532321521
 40
0.0298160532321521
 40
0.0298160532321521
 40
0.0305405617066092
 40
0.0305405617066092
 40
0.0359537581685494
 40
0.0359537581685494
 40
0.0382249003944813
 40
0.0382249003944813
 40
0.0413340210712684
 40
0.0413340210712684
 40
0.0433661955779962
 40
0.0433661955779962
 40
0.0433661955779962
 40
0.0433661955779962
 10
40.0011477196238
 20
-3.937776707732625
 30
0.0
 10
40.00114771962526
 20
-3.937776707666817
 30
0.0
 10
40.00114687916378
 20
-3.937814367646192
 30
0.0
 10
40.00113196454129
 20
-3.93848992899651
 30
0.0
 10
40.00105779501885
 20
-3.941612143421957
 30
0.0
 10
40.00087662477847
 20
-3.951851202089986
 30
0.0
 10
40.00081397908751
 20
-3.955643224877627
 30
0.0
 10
40.0006607032085
 20
-3.966444199330778
 30
0.0
 10
40.00056980504569
 20
-3.974140967153738
 30
0.0
 10
40.00045087403979
 20
-3.988060772958909
 30
0.0
 10
40.00041102192132
 20
-3.99392693497722
 30
0.0
 10
40.00037993280727
 20
-4.000001916177668
 30
0.0
  0
SPLINE
  5
9A08
330
9A00
100
AcDbEntity
  8
0
100
AcDbSpline
210
0.0
220
0.0
230
1.0
 70
     8
 71
     3
 72
    36
 73
    32
 74
     0
 42
0.000000001
 43
0.0000000001
 40
0.0060573700846867
 40
0.0060573700846867
 40
0.0060573700846867
 40
0.0060573700846867
 40
0.0062396568242059
 40
0.0062396568242059
 40
0.0085854898732233
 40
0.0085854898732233
 40
0.0092114981675397
 40
0.0092114981675397
 40
0.0098395471445228
 40
0.0098395471445228
 40
0.0111071382340626
 40
0.0111071382340626
 40
0.0161326417013205
 40
0.0161326417013205
 40
0.0230240862711509
 40
0.0230240862711509
 40
0.0436993199598475
 40
0.0436993199598475
 40
0.1057220467789248
 40
0.1057220467789248
 40
0.1638973093592492
 40
0.1638973093592492
 40
0.1928509142019232
 40
0.1928509142019232
 40
0.2075025496481127
 40
0.2075025496481127
 40
0.2152389430339892
 40
0.2152389430339892
 40
0.219413824397521
 40
0.219413824397521
 40
0.2237806000550981
 40
0.2237806000550981
 40
0.2237806000550981
 40
0.2237806000550981
 10
37.99996686903232
 20
-3.998253347955589
 30
0.0
 10
37.99996617740694
 20
-3.998213466918576
 30
0.0
 10
37.99996545952768
 20
-3.998172072773176
 30
0.0
 10
37.9999550930194
 20
-3.997574327378795
 30
0.0
 10
37.99994443494241
 20
-3.996962292714104
 30
0.0
 10
37.99989591715983
 20
-3.994156822262262
 30
0.0
 10
37.99988322349577
 20
-3.993422321104466
 30
0.0
 10
37.99985080780741
 20
-3.99154263289655
 30
0.0
 10
37.99983076129088
 20
-3.99037851927244
 30
0.0
 10
37.99976098728585
 20
-3.986314187861225
 30
0.0
 10
37.99970188319985
 20
-3.982854423675657
 30
0.0
 10
37.99940248181826
 20
-3.965183260799568
 30
0.0
 10
37.99914316174019
 20
-3.949428303451621
 30
0.0
 10
37.99856512491916
 20
-3.913031010287443
 30
0.0
 10
37.99824495974932
 20
-3.891873244945168
 30
0.0
 10
37.99703167989334
 20
-3.807355352246965
 30
0.0
 10
37.99627364472353
 20
-3.744128817762433
 30
0.0
 10
37.99386223231973
 20
-3.493666763144717
 30
0.0
 10
37.99340170944037
 20
-3.309133054111564
 30
0.0
 10
37.99381557205201
 20
-2.940242875856199
 30
0.0
 10
37.99468490571476
 20
-2.756041323967245
 30
0.0
 10
37.99654558909717
 20
-2.485248764064582
 30
0.0
 10
37.99721055780219
 20
-2.397091903778771
 30
0.0
 10
37.99846350366917
 20
-2.264079189520555
 30
0.0
 10
37.99895215599096
 20
-2.218568542053422
 30
0.0
 10
37.99940823226727
 20
-2.154906000575255
 30
0.0
 10
37.99950857223251
 20
-2.134022905291507
 30
0.0
 10
37.99957827607764
 20
-2.106007693887814
 30
0.0
 10
37.99958818814918
 20
-2.096879053098671
 30
0.0
 10
37.99959044557132
 20
-2.080664359036592
 30
0.0
 10
37.99958166102174
 20
-2.073542886353648
 30
0.0
 10
37.99957228829783
 20
-2.069004766161835
 30
0.0
  0
SPLINE
  5
9A09
330
9A00
100
AcDbEntity
  8
0
100
AcDbSpline
210
0.0
220
0.0
230
1.0
 70
     8
 71
     3
 72
    12
 73
     8
 74
     0
 42
0.000000001
 43
0.0000000001
 40
0.0
 40
0.0
 40
0.0
 40
0.0
 40
0.0073680638611523
 40
0.0073680638611523
 40
0.0094714794550888
 40
0.0094714794550888
 40
0.0106892344295345
 40
0.0106892344295345
 40
0.0106892344295345
 40
0.0106892344295345
 10
37.99996053853824
 20
-3.999985503002888
 30
0.0
 10
38.00000120689114
 20
-3.988738678365067
 30
0.0
 10
38.00005705426696
 20
-3.976817397485042
 30
0.0
 10
38.00011475911475
 20
-3.966829073054581
 30
0.0
 10
38.00012596496203
 20
-3.965004429915378
 30
0.0
 10
38.00013624741442
 20
-3.963340749438108
 30
0.0
 10
38.00013843227583
 20
-3.962989239761334
 30
0.0
 10
38.00013843227578
 20
-3.96298923976898
 30
0.0
  0
LINE
  5
9A0A
330
9A00
100
AcDbEntity
  8
0
100
AcDbLine
 10
-38.0
 20
-2.0
 30
0.0
 11
-38.0
 21
-2.069004766162897
 31
0.0
  0
SPLINE
  5
9A0B
330
9A00
100
AcDbEntity
  8
0
100
AcDbSpline
210
0.0
220
0.0
230
1.0
 70
     8
 71
     3
 72
    11
 73
     7
 74
     0
 42
0.000000001
 43
0.0000000001
 40
-1.0
 40
-1.0
 40
-1.0
 40
-1.0
 40
-0.7994286890708625
 40
-0.7994286890708625
 40
-0.7994286890708625
 40
-0.6533573777220379
 40
-0.6533573777220379
 40
-0.6533573777220379
 40
-0.6533573777220379
 10
-38.0
 20
-1.999999999999992
 30
0.0
 10
-37.99999961270334
 20
-1.999093543230908
 30
0.0
 10
-38.12633150600904
 20
-1.919863896632353
 30
0.0
 10
-38.33607694564306
 20
-1.790687786198459
 30
0.0
 10
-38.48882955654662
 20
-1.696611899878475
 30
0.0
 10
-38.688370564209
 20
-1.577391377849477
 30
0.0
 10
-38.91982716790702
 20
-1.445337717163158
 30
0.0
  0
SPLINE
  5
9A0C
330
9A00
100
AcDbEntity
  8
0
100
AcDbSpline
210
0.0
220
0.0
230
1.0
 70
     8
 71
     3
 72
    36
 73
    32
 74
     0
 42
0.000000001
 43
0.0000000001
 40
0.0
 40
0.0
 40
0.0
 40
0.0
 40
0.0038040597952742
 40
0.0038040597952742
 40
0.0084789254088146
 40
0.0084789254088146
 40
0.0158054478062177
 40
0.0158054478062177
 40
0.0260000339339991
 40
0.0260000339339991
 40
0.0495206342463819
 40
0.0495206342463819
 40
0.1201103937697713
 40
0.1201103937697713
 40
0.1694133165310254
 40
0.1694133165310254
 40
0.1942220632343653
 40
0.1942220632343653
 40
0.2064767421543278
 40
0.2064767421543278
 40
0.2126069903349889
 40
0.2126069903349889
 40
0.2135995883859045
 40
0.2135995883859045
 40
0.2144116194849881
 40
0.2144116194849881
 40
0.2153140026466314
 40
0.2153140026466314
 40
0.2164060137940786
 40
0.2164060137940786
 40
0.2177036802297806
 40
0.2177036802297806
 40
0.2177036802297806
 40
0.2177036802297806
 10
-37.99957228829781
 20
-2.069004766162897
 30
0.0
 10
-37.9995804532243
 20
-2.072958090519412
 30
0.0
 10
-37.99958825487931
 20
-2.078881092796287
 30
0.0
 10
-37.9995905378611
 20
-2.094285445088472
 30
0.0
 10
-37.99958182785672
 20
-2.104402911731351
 30
0.0
 10
-37.99951287324426
 20
-2.132562809571974
 30
0.0
 10
-37.99942216624754
 20
-2.152170789522535
 30
0.0
 10
-37.99908018252502
 20
-2.201629641706118
 30
0.0
 10
-37.99878019266126
 20
-2.232656804352556
 30
0.0
 10
-37.99777927585458
 20
-2.335149022220879
 30
0.0
 10
-37.99716324832672
 20
-2.406783033088192
 30
0.0
 10
-37.99498744723627
 20
-2.695965691126989
 30
0.0
 10
-37.99378539088272
 20
-2.921302520613547
 30
0.0
 10
-37.99346454343807
 20
-3.288674143960562
 30
0.0
 10
-37.9937730480864
 20
-3.436285036332096
 30
0.0
 10
-37.99539840853672
 20
-3.659531187487074
 30
0.0
 10
-37.9961462063853
 20
-3.734714263918708
 30
0.0
 10
-37.99760569271823
 20
-3.848122418654577
 30
0.0
 10
-37.99814328057313
 20
-3.885773929425215
 30
0.0
 10
-37.9990222382861
 20
-3.942030476957529
 30
0.0
 10
-37.99933800762058
 20
-3.961362967908232
 30
0.0
 10
-37.99967856073804
 20
-3.98148000516662
 30
0.0
 10
-37.99972506789845
 20
-3.984210243716109
 30
0.0
 10
-37.99979991768772
 20
-3.988584336421168
 30
0.0
 10
-37.99983001205867
 20
-3.990334960724552
 30
0.0
 10
-37.99987944343597
 20
-3.993204265652605
 30
0.0
 10
-37.99989784911802
 20
-3.994268761535335
 30
0.0
 10
-37.99992781111249
 20
-3.996000648321061
 30
0.0
 10
-37.99993798692737
 20
-3.996587620727444
 30
0.0
 10
-37.99995539001867
 20
-3.997591537744508
 30
0.0
 10
-37.99996192061345
 20
-3.997968115407163
 30
0.0
 10
-37.9999668687558
 20
-3.998253422658655
 30
0.0
  0
SPLINE
  5
9A0D
330
9A00
100
AcDbEntity
  8
0
100
AcDbSpline
210
0.0
220
0.0
230
1.0
 70
     8
 71
     3
 72
    14
 73
    10
 74
     0
 42
0.000000001
 43
0.0000000001
 40
0.0077867807820252
 40
0.0077867807820252
 40
0.0077867807820252
 40
0.0077867807820252
 40
0.0083979033522229
 40
0.0083979033522229
 40
0.010524965533577
 40
0.010524965533577
 40
0.0138644924119928
 40
0.0138644924119928
 40
0.0184801346806871
 40
0.0184801346806871
 40
0.0184801346806871
 40
0.0184801346806871
 10
-38.00013843227581
 20
-3.962989239769409
 30
0.0
 10
-38.00013843227578
 20
-3.96298923977461
 30
0.0
 10
-38.00013788506612
 20
-3.963077842516393
 30
0.0
 10
-38.00013331027526
 20
-3.963815700387534
 30
0.0
 10
-38.000123940496
 20
-3.965314845228038
 30
0.0
 10
-38.00009364632106
 20
-3.970424767585858
 30
0.0
 10
-38.00006960355162
 20
-3.974738183502488
 30
0.0
 10
-38.00001543374035
 20
-3.985811781082825
 30
0.0
 10
-37.99998601477896
 20
-3.992940053863875
 30
0.0
 10
-37.99996053853824
 20
-3.999985503002887
 30
0.0
  0
SPLINE
  5
9A0E
330
9A00
100
AcDbEntity
  8
0
100
AcDbSpline
210
0.0
220
0.0
230
1.0
 70
     8
 71
     3
 72
    10
 73
     6
 74
     0
 42
0.000000001
 43
0.0000000001
 40
0.0391468930933743
 40
0.0391468930933743
 40
0.0391468930933743
 40
0.0391468930933743
 40
0.0421811296674989
 40
0.0421811296674989
 40
0.0435358095554516
 40
0.0435358095554516
 40
0.0435358095554516
 40
0.0435358095554516
 10
-40.00093621535877
 20
-3.948531415690913
 30
0.0
 10
-40.00113567189074
 20
-3.939922232464946
 30
0.0
 10
-40.00135221355269
 20
-3.931518919551694
 30
0.0
 10
-40.00168205166676
 20
-3.91995404256991
 30
0.0
 10
-40.00178646736836
 20
-3.916452236703743
 30
0.0
 10
-40.00189265549536
 20
-3.913018595882047
 30
0.0
  0
SPLINE
  5
9A0F
330
9A00
100
AcDbEntity
  8
0
100
AcDbSpline
210
0.0
220
0.0
230
1.0
 70
     8
 71
     3
 72
    14
 73
    10
 74
     0
 42
0.000000001
 43
0.0000000001
 40
0.0
 40
0.0
 40
0.0
 40
0.0
 40
0.0042629590732086
 40
0.0042629590732086
 40
0.0078984680025138
 40
0.0078984680025138
 40
0.0110131178193181
 40
0.0110131178193181
 40
0.0135447394007941
 40
0.0135447394007941
 40
0.0135447394007941
 40
0.0135447394007941
 10
-40.00037993280728
 20
-4.000001916177668
 30
0.0
 10
-40.00044514946085
 20
-3.987258228988211
 30
0.0
 10
-40.00055430095887
 20
-3.975277107443204
 30
0.0
 10
-40.00077809153911
 20
-3.957593797025999
 30
0.0
 10
-40.0008854766791
 20
-3.951225734388204
 30
0.0
 10
-40.0010336057142
 20
-3.943153125035057
 30
0.0
 10
-40.00108435725697
 20
-3.940732005541451
 30
0.0
 10
-40.0011372905415
 20
-3.938236590068258
 30
0.0
 10
-40.00114771962741
 20
-3.937776707572059
 30
0.0
 10
-40.00114771962381
 20
-3.937776707733746
 30
0.0
  0
SPLINE
  5
9A10
330
9A00
100
AcDbEntity
  8
0
100
AcDbSpline
210
0.0
220
0.0
230
1.0
 70
     8
 71
     3
 72
    22
 73
    18
 74
     0
 42
0.000000001
 43
0.0000000001
 40
0.0482163191143651
 40
0.0482163191143651
 40
0.0482163191143651
 40
0.0482163191143651
 40
0.0509981141114125
 40
0.0509981141114125
 40
0.0569754082521312
 40
0.0569754082521312
 40
0.0655197410146273
 40
0.0655197410146273
 40
0.0767721192100579
 40
0.0767721192100579
 40
0.0903671150074786
 40
0.0903671150074786
 40
0.1102392319214971
 40
0.1102392319214971
 40
0.129295451384945
 40
0.129295451384945
 40
0.1339206631669088
 40
0.1339206631669088
 40
0.1339206631669088
 40
0.1339206631669088
 10
-41.7781916780757
 20
-2.012338267875933
 30
0.0
 10
-41.7865904692254
 20
-2.011681817093414
 30
0.0
 10
-41.79531792578033
 20
-2.011044009105289
 30
0.0
 10
-41.8231670487387
 20
-2.009151312354082
 30
0.0
 10
-41.84302349585098
 20
-2.008007798590166
 30
0.0
 10
-41.89123820117665
 20
-2.005661044486958
 30
0.0
 10
-41.92006915312533
 20
-2.004616214318308
 30
0.0
 10
-41.98510336326511
 20
-2.00280653252244
 30
0.0
 10
-42.02144266141881
 20
-2.002204352159656
 30
0.0
 10
-42.09667311604945
 20
-2.001331199098425
 30
0.0
 10
-42.134167312924
 20
-2.001142643710959
 30
0.0
 10
-42.22829247962531
 20
-2.000739711459258
 30
0.0
 10
-42.29211666755159
 20
-2.000484285739699
 30
0.0
 10
-42.41127173623868
 20
-2.000161538228641
 30
0.0
 10
-42.47219145560229
 20
-2.000063587342268
 30
0.0
 10
-42.53854611812158
 20
-2.000025166697027
 30
0.0
 10
-42.55100371762702
 20
-2.000021126007617
 30
0.0
 10
-42.56214430292468
 20
-2.000020290751278
 30
0.0
  0
LINE
  5
9A11
330
9A00
100
AcDbEntity
  8
0
100
AcDbLine
 10
-38.0
 20
-2.0
 30
0.0
 11
-36.0
 21
-1.999999999999998
 31
0.0
  0
LINE
  5
9A12
330
9A00
100
AcDbEntity
  8
0
100
AcDbLine
 10
-37.99999999999999
 20
-85.99999999999997
 30
0.0
 11
-35.99999999999997
 21
-85.99999999999997
 31
0.0
  0
LINE
  5
9A13
330
9A00
100
AcDbEntity
  8
0
100
AcDbLine
 10
36.00000000000001
 20
-1.999999999999998
 30
0.0
 11
-36.00000000000001
 21
-1.999999999999998
 31
0.0
  0
LINE
  5
9A14
330
9A00
100
AcDbEntity
  8
0
100
AcDbLine
 10
-35.99999999999997
 20
-85.99999999999997
 30
0.0
 11
35.99999999999997
 21
-85.99999999999997
 31
0.0
  0
CIRCLE
  5
9A15
330
9A00
100
AcDbEntity
  8
0
100
AcDbCircle
 10
0.0
 20
-47.99999999999998
 30
0.0
 40
2.5
  0
CIRCLE
  5
9A16
330
9A00
100
AcDbEntity
  8
0
100
AcDbCircle
 10
0.0
 20
-67.99999999999998
 30
0.0
 40
2.5
  0
LINE
  5
9A17
330
9A00
100
AcDbEntity
  8
0
100
AcDbLine
 10
38.0
 20
-2.0
 30
0.0
 11
36.0
 21
-1.999999999999998
 31
0.0
  0
LINE
  5
9A18
330
9A00
100
AcDbEntity
  8
0
100
AcDbLine
 10
41.99999999999999
 20
0.0
 30
0.0
 11
79.50000000000002
 21
0.0
 31
0.0
  0
ARC
  5
9A19
330
9A00
100
AcDbEntity
  8
0
100
AcDbCircle
 10
42.0
 20
-4.000000000000004
 30
0.0
 40
3.999999999999999
100
AcDbArc
 50
90.00000000000012
 51
180.0
  0
LINE
  5
9A1A
330
9A00
100
AcDbEntity
  8
0
100
AcDbLine
 10
37.99999999999998
 20
-86.0
 30
0.0
 11
37.99999999999999
 21
-46.0
 31
0.0
  0
LINE
  5
9A1B
330
9A00
100
AcDbEntity
  8
0
100
AcDbLine
 10
39.99999999999998
 20
-86.0
 30
0.0
 11
37.99999999999998
 21
-86.0
 31
0.0
  0
LINE
  5
9A1C
330
9A00
100
AcDbEntity
  8
0
100
AcDbLine
 10
40.0
 20
-46.0
 30
0.0
 11
39.99999999999998
 21
-86.0
 31
0.0
  0
LINE
  5
9A1D
330
9A00
100
AcDbEntity
  8
0
100
AcDbLine
 10
37.99999999999999
 20
-45.99999999999997
 30
0.0
 11
40.0
 21
-45.99999999999997
 31
0.0
  0
LINE
  5
9A1E
330
9A00
100
AcDbEntity
  8
0
100
AcDbLine
 10
40.0
 20
-4.000000000000003
 30
0.0
 11
40.0
 21
-45.99999999999997
 31
0.0
  0
LINE
  5
9A1F
330
9A00
100
AcDbEntity
  8
0
100
AcDbLine
 10
37.99999999999999
 20
-45.99999999999997
 30
0.0
 11
38.0
 21
-4.000000000000003
 31
0.0
  0
LINE
  5
9A20
330
9A00
100
AcDbEntity
  8
0
100
AcDbLine
 10
37.99999999999999
 20
-85.99999999999997
 30
0.0
 11
35.99999999999997
 21
-85.99999999999997
 31
0.0
  0
ARC
  5
9A21
330
9A00
100
AcDbEntity
  8
0
100
AcDbCircle
 10
42.0
 20
-4.000000000000004
 30
0.0
 40
2.000000000000001
100
AcDbArc
 50
90.00000000000026
 51
180.0
  0
LINE
  5
9A22
330
9A00
100
AcDbEntity
  8
0
100
AcDbLine
 10
79.50000000000002
 20
0.0
 30
0.0
 11
79.50000000000002
 21
-2.00000000000001
 31
0.0
  0
LINE
  5
9A23
330
9A00
100
AcDbEntity
  8
0
100
AcDbLine
 10
79.50000000000002
 20
-2.00000000000001
 30
0.0
 11
41.99999999999999
 21
-2.000000000000001
 31
0.0
  0
LINE
  5
9A24
330
9A00
100
AcDbEntity
  8
0
100
AcDbLine
 10
-79.50000000000002
 20
-2.00000000000001
 30
0.0
 11
-41.99999999999999
 21
-2.000000000000001
 31
0.0
  0
LINE
  5
9A25
330
9A00
100
AcDbEntity
  8
0
100
AcDbLine
 10
-37.99999999999999
 20
-45.99999999999997
 30
0.0
 11
-38.0
 21
-4.000000000000003
 31
0.0
  0
LINE
  5
9A26
330
9A00
100
AcDbEntity
  8
0
100
AcDbLine
 10
-40.0
 20
-4.000000000000003
 30
0.0
 11
-40.0
 21
-45.99999999999997
 31
0.0
  0
LINE
  5
9A27
330
9A00
100
AcDbEntity
  8
0
100
AcDbLine
 10
-41.99999999999999
 20
0.0
 30
0.0
 11
-79.50000000000002
 21
0.0
 31
0.0
  0
LINE
  5
9A28
330
9A00
100
AcDbEntity
  8
0
100
AcDbLine
 10
-79.50000000000002
 20
0.0
 30
0.0
 11
-79.50000000000002
 21
-2.00000000000001
 31
0.0
  0
ARC
  5
9A29
330
9A00
100
AcDbEntity
  8
0
100
AcDbCircle
 10
-42.0
 20
-4.000000000000004
 30
0.0
 40
2.000000000000001
100
AcDbArc
 50
0.0
 51
89.99999999999975
  0
ARC
  5
9A2A
330
9A00
100
AcDbEntity
  8
0
100
AcDbCircle
 10
-42.0
 20
-4.000000000000004
 30
0.0
 40
3.999999999999999
100
AcDbArc
 50
0.0
 51
89.99999999999987
  0
LINE
  5
9A2B
330
9A00
100
AcDbEntity
  8
0
100
AcDbLine
 10
-37.99999999999999
 20
-46.0
 30
0.0
 11
-37.99999999999998
 21
-86.0
 31
0.0
  0
LINE
  5
9A2C
330
9A00
100
AcDbEntity
  8
0
100
AcDbLine
 10
-39.99999999999998
 20
-86.0
 30
0.0
 11
-40.0
 21
-46.0
 31
0.0
  0
LINE
  5
9A2D
330
9A00
100
AcDbEntity
  8
0
100
AcDbLine
 10
-37.99999999999998
 20
-86.0
 30
0.0
 11
-39.99999999999998
 21
-86.0
 31
0.0
  0
LINE
  5
9A2E
330
9A00
100
AcDbEntity
  8
0
100
AcDbLine
 10
-40.0
 20
-45.99999999999997
 30
0.0
 11
-37.99999999999999
 21
-45.99999999999997
 31
0.0
  0
ENDBLK
  5
9A02
330
9A00
100
AcDbEntity
  8
0
100
AcDbBlockEnd
  0
BLOCK
  5
9A30
330
9A2F
100
AcDbEntity
  8
0
100
AcDbBlockBegin
  2
SAE380_76_2-Bottom
 70
     0
 10
0.0
 20
0.0
 30
0.0
  3
SAE380_76_2-Bottom
  1

  0
SPLINE
  5
9A32
330
9A2F
100
AcDbEntity
  8
0
100
AcDbSpline
210
0.0
220
0.0
230
1.0
 70
     8
 71
     3
 72
    14
 73
    10
 74
     0
 42
0.000000001
 43
0.0000000001
 40
0.0
 40
0.0
 40
0.0
 40
0.0
 40
0.3435200981511151
 40
0.3435200981511151
 40
0.3435200981511151
 40
0.7570126784224815
 40
0.7570126784224815
 40
0.7570126784224815
 40
1.0
 40
1.0
 40
1.0
 40
1.0
 10
42.60606060606067
 20
2.000000000000022
 30
0.0
 10
42.28489980915902
 20
2.000036880568223
 30
0.0
 10
41.87245083140106
 20
1.99683446875656
 30
0.0
 10
41.47645528966905
 20
1.998675713778533
 30
0.0
 10
40.999798409306
 20
2.00089200668001
 30
0.0
 10
40.53725519000479
 20
2.001072608838248
 30
0.0
 10
40.26239207666145
 20
2.001124351808501
 30
0.0
 10
40.10086982717412
 20
2.001154758365601
 30
0.0
 10
39.99999576744521
 20
2.000250524317265
 30
0.0
 10
39.99999999948855
 20
1.999999999992522
 30
0.0
  0
LINE
  5
9A33
330
9A2F
100
AcDbEntity
  8
0
100
AcDbLine
 10
42.00008656731575
 20
2.000000000000002
 30
0.0
 11
42.00614404889737
 21
2.000000000000002
 31
0.0
  0
LINE
  5
9A34
330
9A2F
100
AcDbEntity
  8
0
100
AcDbLine
 10
42.56214430292483
 20
2.000000000000002
 30
0.0
 11
42.60606060606066
 21
2.000000000000002
 31
0.0
  0
ARC
  5
9A35
330
9A2F
100
AcDbEntity
  8
0
100
AcDbCircle
 10
42.0
 20
4.000000000000004
 30
0.0
 40
2.000000000000001
100
AcDbArc
 50
182.3401701236605
 51
263.5960493833064
  0
ARC
  5
9A36
330
9A2F
100
AcDbEntity
  8
0
100
AcDbCircle
 10
42.0
 20
4.000000000000004
 30
0.0
 40
4.000000000000002
100
AcDbArc
 50
219.6927749101279
 51
270.0
  0
LINE
  5
9A37
330
9A2F
100
AcDbEntity
  8
0
100
AcDbLine
 10
42.60606060606066
 20
0.0
 30
0.0
 11
42.0
 21
0.0
 31
0.0
  0
SPLINE
  5
9A38
330
9A2F
100
AcDbEntity
  8
0
100
AcDbSpline
210
0.0
220
0.0
230
1.0
 70
     8
 71
     3
 72
    17
 73
    13
 74
     0
 42
0.000000001
 43
0.0000000001
 40
-1.0
 40
-1.0
 40
-1.0
 40
-1.0
 40
-0.7994286890708625
 40
-0.7994286890708625
 40
-0.7994286890708625
 40
-0.3760960080940916
 40
-0.3760960080940916
 40
-0.3760960080940916
 40
-0.0765284972623525
 40
-0.0765284972623525
 40
-0.0765284972623525
 40
0.0
 40
0.0
 40
0.0
 40
0.0
 10
38.0
 20
1.999999999999992
 30
0.0
 10
37.99999961270334
 20
1.999093543230908
 30
0.0
 10
38.12633150600904
 20
1.919863896632353
 30
0.0
 10
38.33607694564306
 20
1.790687786198459
 30
0.0
 10
38.77877285699546
 20
1.518044261584651
 30
0.0
 10
39.61445008347276
 20
1.034207947865394
 30
0.0
 10
40.48107962105107
 20
0.6388614064245615
 30
0.0
 10
41.09434210951897
 20
0.3590980319973792
 30
0.0
 10
41.71765761688499
 20
0.1217220476474714
 30
0.0
 10
42.2339342069679
 20
0.034261581609799
 30
0.0
 10
42.36582391523794
 20
0.0119186445631727
 30
0.0
 10
42.4883202610593
 20
0.0000045452574064
 30
0.0
 10
42.60606060611087
 20
0.0000000001152108
 30
0.0
  0
LINE
  5
9A39
330
9A2F
100
AcDbEntity
  8
0
100
AcDbLine
 10
42.60606060606066
 20
2.000000000000002
 30
0.0
 11
42.60606060606066
 21
0.0
 31
0.0
  0
SPLINE
  5
9A3A
330
9A2F
100
AcDbEntity
  8
0
100
AcDbSpline
210
0.0
220
0.0
230
1.0
 70
     8
 71
     3
 72
    30
 73
    26
 74
     0
 42
0.000000001
 43
0.0000000001
 40
0.037153197555
 40
0.037153197555
 40
0.037153197555
 40
0.037153197555
 40
0.0389576293205395
 40
0.0389576293205395
 40
0.0414215886368844
 40
0.0414215886368844
 40
0.0438497378545144
 40
0.0438497378545144
 40
0.0468758300719045
 40
0.0468758300719045
 40
0.0509981141110952
 40
0.0509981141110952
 40
0.0569754082517482
 40
0.0569754082517482
 40
0.0655197410140866
 40
0.0655197410140866
 40
0.0767721192093593
 40
0.0767721192093593
 40
0.0903671150066599
 40
0.0903671150066599
 40
0.110239231922886
 40
0.110239231922886
 40
0.1292954513874188
 40
0.1292954513874188
 40
0.1339206631669252
 40
0.1339206631669252
 40
0.1339206631669252
 40
0.1339206631669252
 10
41.71468571209388
 20
2.018273760983992
 30
0.0
 10
41.71468571208854
 20
2.018273760984604
 30
0.0
 10
41.71540137643112
 20
2.018191408058136
 30
0.0
 10
41.71874704338201
 20
2.017819617029825
 30
0.0
 10
41.72207948293682
 20
2.017455168538448
 30
0.0
 10
41.7307235986007
 20
2.016557734541445
 30
0.0
 10
41.73604197508142
 20
2.016024329668124
 30
0.0
 10
41.74925582137375
 20
2.014769517268002
 30
0.0
 10
41.75757181547422
 20
2.014024113019055
 30
0.0
 10
41.77820419911835
 20
2.012306018644243
 30
0.0
 10
41.79105590222973
 20
2.011333666992912
 30
0.0
 10
41.82316704873515
 20
2.009151312354302
 30
0.0
 10
41.84302349584716
 20
2.008007798590374
 30
0.0
 10
41.89123820117204
 20
2.005661044487148
 30
0.0
 10
41.9200691531202
 20
2.00461621431848
 30
0.0
 10
41.98510336325909
 20
2.002806532522564
 30
0.0
 10
42.02144266141246
 20
2.002204352159753
 30
0.0
 10
42.09667311604279
 20
2.001331199098473
 30
0.0
 10
42.13416731291744
 20
2.001142643710992
 30
0.0
 10
42.22829247962407
 20
2.000739711459255
 30
0.0
 10
42.29211666755756
 20
2.00048428573967
 30
0.0
 10
42.41127173625444
 20
2.000161538228608
 30
0.0
 10
42.47219145562273
 20
2.000063587342241
 30
0.0
 10
42.53854611813491
 20
2.000025166697022
 30
0.0
 10
42.55100371763308
 20
2.000021126007617
 30
0.0
 10
42.56214430292482
 20
2.000020290751278
 30
0.0
  0
SPLINE
  5
9A3B
330
9A2F
100
AcDbEntity
  8
0
100
AcDbSpline
210
0.0
220
0.0
230
1.0
 70
     8
 71
     3
 72
    24
 73
    20
 74
     0
 42
0.000000001
 43
0.0000000001
 40
0.03311536269149
 40
0.03311536269149
 40
0.03311536269149
 40
0.03311536269149
 40
0.0333579967202513
 40
0.0333579967202513
 40
0.0337600052120014
 40
0.0337600052120014
 40
0.0341648171980431
 40
0.0341648171980431
 40
0.0357847129687861
 40
0.0357847129687861
 40
0.042181129325212
 40
0.042181129325212
 40
0.0486118975107447
 40
0.0486118975107447
 40
0.0550433031842901
 40
0.0550433031842901
 40
0.0645500675047599
 40
0.0645500675047599
 40
0.0674557418461747
 40
0.0674557418461747
 40
0.0674557418461747
 40
0.0674557418461747
 10
40.00005054002766
 20
3.996317537949484
 30
0.0
 10
40.00005244087103
 20
3.996182800276574
 30
0.0
 10
40.00005506241419
 20
3.995998210839521
 30
0.0
 10
40.00006279273597
 20
3.995453684789273
 30
0.0
 10
40.00006949496921
 20
3.994982753272966
 30
0.0
 10
40.00008934841422
 20
3.993609731187605
 30
0.0
 10
40.0001028393755
 20
3.992686234431719
 30
0.0
 10
40.00017878646292
 20
3.987597454943149
 30
0.0
 10
40.00025925314827
 20
3.982563180403269
 30
0.0
 10
40.00067030921328
 20
3.958996065232062
 30
0.0
 10
40.00109953721739
 20
3.940378328813461
 30
0.0
 10
40.00206353239703
 20
3.906578457282716
 30
0.0
 10
40.0026045096438
 20
3.891108201910705
 30
0.0
 10
40.00365397731943
 20
3.864701940413922
 30
0.0
 10
40.00416859992842
 20
3.853554936026679
 30
0.0
 10
40.00523791453499
 20
3.831991398789921
 30
0.0
 10
40.00569683980308
 20
3.824230919917933
 30
0.0
 10
40.00591618077535
 20
3.820508826505628
 30
0.0
 10
40.00594192710642
 20
3.820082347560722
 30
0.0
 10
40.00594192710625
 20
3.820082347563615
 30
0.0
  0
SPLINE
  5
9A3C
330
9A2F
100
AcDbEntity
  8
0
100
AcDbSpline
210
0.0
220
0.0
230
1.0
 70
     8
 71
     3
 72
    10
 73
     6
 74
     0
 42
0.000000001
 43
0.0000000001
 40
0.0
 40
0.0
 40
0.0
 40
0.0
 40
0.0042629590736392
 40
0.0042629590736392
 40
0.0074741982845881
 40
0.0074741982845881
 40
0.0074741982845881
 40
0.0074741982845881
 10
40.00037993280728
 20
4.000001916177668
 30
0.0
 10
40.00044514946086
 20
3.987258228987013
 30
0.0
 10
40.0005543009589
 20
3.975277107440768
 30
0.0
 10
40.0007660705287
 20
3.958543663899465
 30
0.0
 10
40.00086108440082
 20
3.952702520309935
 30
0.0
 10
40.0009362479371
 20
3.948482298010778
 30
0.0
  0
SPLINE
  5
9A3D
330
9A2F
100
AcDbEntity
  8
0
100
AcDbSpline
210
0.0
220
0.0
230
1.0
 70
     8
 71
     3
 72
     8
 73
     4
 74
     0
 42
0.000000001
 43
0.0000000001
 40
0.0
 40
0.0
 40
0.0
 40
0.0
 40
0.0034296909717601
 40
0.0034296909717601
 40
0.0034296909717601
 40
0.0034296909717601
 10
40.00006462070005
 20
3.999999780186871
 30
0.0
 10
40.00004298616625
 20
3.994303237332825
 30
0.0
 10
40.00002047254575
 20
3.987666424343724
 30
0.0
 10
39.99999999999998
 20
3.980806637208383
 30
0.0
  0
CIRCLE
  5
9A3E
330
9A2F
100
AcDbEntity
  8
0
100
AcDbCircle
 10
0.0
 20
67.99999999999998
 30
0.0
 40
2.5
  0
CIRCLE
  5
9A3F
330
9A2F
100
AcDbEntity
  8
0
100
AcDbCircle
 10
0.0
 20
47.99999999999998
 30
0.0
 40
2.5
  0
LINE
  5
9A40
330
9A2F
100
AcDbEntity
  8
0
100
AcDbLine
 10
36.00000000000001
 20
1.999999999999998
 30
0.0
 11
-36.00000000000001
 21
1.999999999999998
 31
0.0
  0
LINE
  5
9A41
330
9A2F
100
AcDbEntity
  8
0
100
AcDbLine
 10
35.99999999999997
 20
85.99999999999997
 30
0.0
 11
-35.99999999999997
 21
85.99999999999997
 31
0.0
  0
SPLINE
  5
9A42
330
9A2F
100
AcDbEntity
  8
0
100
AcDbSpline
210
0.0
220
0.0
230
1.0
 70
     8
 71
     3
 72
    17
 73
    13
 74
     0
 42
0.000000001
 43
0.0000000001
 40
-1.0
 40
-1.0
 40
-1.0
 40
-1.0
 40
-0.7994286890708625
 40
-0.7994286890708625
 40
-0.7994286890708625
 40
-0.3760960080940916
 40
-0.3760960080940916
 40
-0.3760960080940916
 40
-0.0765284972623525
 40
-0.0765284972623525
 40
-0.0765284972623525
 40
0.0
 40
0.0
 40
0.0
 40
0.0
 10
-38.0
 20
1.999999999999992
 30
0.0
 10
-37.99999961270334
 20
1.999093543230908
 30
0.0
 10
-38.12633150600904
 20
1.919863896632353
 30
0.0
 10
-38.33607694564306
 20
1.790687786198459
 30
0.0
 10
-38.77877285699546
 20
1.518044261584651
 30
0.0
 10
-39.61445008347276
 20
1.034207947865394
 30
0.0
 10
-40.48107962105107
 20
0.6388614064245615
 30
0.0
 10
-41.09434210951897
 20
0.3590980319973792
 30
0.0
 10
-41.71765761688499
 20
0.1217220476474714
 30
0.0
 10
-42.2339342069679
 20
0.034261581609799
 30
0.0
 10
-42.36582391523794
 20
0.0119186445631727
 30
0.0
 10
-42.4883202610593
 20
0.0000045452574064
 30
0.0
 10
-42.60606060611087
 20
0.0000000001152108
 30
0.0
  0
LINE
  5
9A43
330
9A2F
100
AcDbEntity
  8
0
100
AcDbLine
 10
-42.0
 20
0.0
 30
0.0
 11
-42.60606060606066
 21
0.0
 31
0.0
  0
ARC
  5
9A44
330
9A2F
100
AcDbEntity
  8
0
100
AcDbCircle
 10
-42.0
 20
4.000000000000004
 30
0.0
 40
4.000000000000002
100
AcDbArc
 50
270.0
 51
320.3072250898721
  0
ARC
  5
9A45
330
9A2F
100
AcDbEntity
  8
0
100
AcDbCircle
 10
-42.0
 20
4.000000000000004
 30
0.0
 40
2.0
100
AcDbArc
 50
276.4039506167625
 51
357.6598298764197
  0
SPLINE
  5
9A46
330
9A2F
100
AcDbEntity
  8
0
100
AcDbSpline
210
0.0
220
0.0
230
1.0
 70
     8
 71
     3
 72
    14
 73
    10
 74
     0
 42
0.000000001
 43
0.0000000001
 40
0.0
 40
0.0
 40
0.0
 40
0.0
 40
0.3435200981511151
 40
0.3435200981511151
 40
0.3435200981511151
 40
0.7570126784224815
 40
0.7570126784224815
 40
0.7570126784224815
 40
1.0
 40
1.0
 40
1.0
 40
1.0
 10
-42.60606060606067
 20
2.000000000000022
 30
0.0
 10
-42.28489980915902
 20
2.000036880568223
 30
0.0
 10
-41.87245083140106
 20
1.99683446875656
 30
0.0
 10
-41.47645528966905
 20
1.998675713778533
 30
0.0
 10
-40.999798409306
 20
2.00089200668001
 30
0.0
 10
-40.53725519000479
 20
2.001072608838248
 30
0.0
 10
-40.26239207666145
 20
2.001124351808501
 30
0.0
 10
-40.10086982717412
 20
2.001154758365601
 30
0.0
 10
-39.99999576744521
 20
2.000250524317265
 30
0.0
 10
-39.99999999948855
 20
1.999999999992522
 30
0.0
  0
LINE
  5
9A47
330
9A2F
100
AcDbEntity
  8
0
100
AcDbLine
 10
-42.60606060606066
 20
0.0
 30
0.0
 11
-42.60606060606066
 21
2.000000000000002
 31
0.0
  0
SPLINE
  5
9A48
330
9A2F
100
AcDbEntity
  8
0
100
AcDbSpline
210
0.0
220
0.0
230
1.0
 70
     8
 71
     3
 72
    10
 73
     6
 74
     0
 42
0.000000001
 43
0.0000000001
 40
0.0192480434058995
 40
0.0192480434058995
 40
0.0192480434058995
 40
0.0192480434058995
 40
0.0195090936813723
 40
0.0195090936813723
 40
0.0226780110981628
 40
0.0226780110981628
 40
0.0226780110981628
 40
0.0226780110981628
 10
-40.00000000238916
 20
3.98080644926853
 30
0.0
 10
-40.00000156126239
 20
3.981328784819719
 30
0.0
 10
-40.00000312971269
 20
3.98185039724669
 30
0.0
 10
-40.00002390984024
 20
3.98868351866295
 30
0.0
 10
-40.00004463112911
 20
3.994736368988875
 30
0.0
 10
-40.00006462070004
 20
3.999999780186869
 30
0.0
  0
SPLINE
  5
9A49
330
9A2F
100
AcDbEntity
  8
0
100
AcDbSpline
210
0.0
220
0.0
230
1.0
 70
     8
 71
     3
 72
    14
 73
    10
 74
     0
 42
0.000000001
 43
0.0000000001
 40
0.0358655440960545
 40
0.0358655440960545
 40
0.0358655440960545
 40
0.0358655440960545
 40
0.0359537581661167
 40
0.0359537581661167
 40
0.0382249003899608
 40
0.0382249003899608
 40
0.0413340210652586
 40
0.0413340210652586
 40
0.0433661955685537
 40
0.0433661955685537
 40
0.0433661955685537
 40
0.0433661955685537
 10
-40.00093636722151
 20
3.948475628031222
 30
0.0
 10
-40.00093431024019
 20
3.948591121778056
 30
0.0
 10
-40.00093225027341
 20
3.94870745891602
 30
0.0
 10
-40.00087662477789
 20
3.951851202122472
 30
0.0
 10
-40.00081397908702
 20
3.955643224909391
 30
0.0
 10
-40.00066070320811
 20
3.966444199362652
 30
0.0
 10
-40.00056980504537
 20
3.974140967184574
 30
0.0
 10
-40.00045087403964
 20
3.988060772979561
 30
0.0
 10
-40.0004110219213
 20
3.993926934987519
 30
0.0
 10
-40.00037993280731
 20
4.000001916177668
 30
0.0
  0
SPLINE
  5
9A4A
330
9A2F
100
AcDbEntity
  8
0
100
AcDbSpline
210
0.0
220
0.0
230
1.0
 70
     8
 71
     3
 72
    26
 73
    22
 74
     0
 42
0.000000001
 43
0.0000000001
 40
0.0423486644411375
 40
0.0423486644411375
 40
0.0423486644411375
 40
0.0423486644411375
 40
0.0483636525230099
 40
0.0483636525230099
 40
0.0586880654936638
 40
0.0586880654936638
 40
0.0674413377975742
 40
0.0674413377975742
 40
0.0715211993701149
 40
0.0715211993701149
 40
0.0739353544617385
 40
0.0739353544617385
 40
0.0748404278857026
 40
0.0748404278857026
 40
0.0755203182319605
 40
0.0755203182319605
 40
0.0758686408718307
 40
0.0758686408718307
 40
0.0761955792832778
 40
0.0761955792832778
 40
0.0766405262816516
 40
0.0766405262816516
 40
0.0766405262816516
 40
0.0766405262816516
 10
-40.00594192710609
 20
3.82008234756626
 30
0.0
 10
-40.0059419273998
 20
3.820082342682819
 30
0.0
 10
-40.00582793433572
 20
3.821949407125107
 30
0.0
 10
-40.00523926447276
 20
3.832329602532166
 30
0.0
 10
-40.00453527003347
 20
3.845111577000049
 30
0.0
 10
-40.00303841274944
 20
3.879316905701904
 30
0.0
 10
-40.00226930142447
 20
3.899547666263729
 30
0.0
 10
-40.0013008073347
 20
3.933241310635773
 30
0.0
 10
-40.00101327310147
 20
3.944620215283154
 30
0.0
 10
-40.00061012479537
 20
3.963309120286225
 30
0.0
 10
-40.00047172805245
 20
3.970404374595224
 30
0.0
 10
-40.00030096617877
 20
3.98016365839467
 30
0.0
 10
-40.00025634565488
 20
3.982828158039596
 30
0.0
 10
-40.00018293884964
 20
3.987404481098352
 30
0.0
 10
-40.00015262213516
 20
3.989363710632904
 30
0.0
 10
-40.00011259011682
 20
3.992028814535172
 30
0.0
 10
-40.0001000417877
 20
3.992879465021865
 30
0.0
 10
-40.000080171153
 20
3.994241778283869
 30
0.0
 10
-40.00007255575114
 20
3.994771470514066
 30
0.0
 10
-40.00005909357838
 20
3.995712469830412
 30
0.0
 10
-40.00005431345308
 20
3.996050569934986
 30
0.0
 10
-40.0000508050472
 20
3.996299256624201
 30
0.0
  0
SPLINE
  5
9A4B
330
9A2F
100
AcDbEntity
  8
0
100
AcDbSpline
210
0.0
220
0.0
230
1.0
 70
     8
 71
     3
 72
    32
 73
    28
 74
     0
 42
0.000000001
 43
0.0000000001
 40
0.0
 40
0.0
 40
0.0
 40
0.0
 40
0.0062834381473108
 40
0.0062834381473108
 40
0.0147058049776052
 40
0.0147058049776052
 40
0.0373755793431468
 40
0.0373755793431468
 40
0.0501947865570109
 40
0.0501947865570109
 40
0.0667265035159023
 40
0.0667265035159023
 40
0.0742906733992309
 40
0.0742906733992309
 40
0.0802483921763481
 40
0.0802483921763481
 40
0.0850816717476329
 40
0.0850816717476329
 40
0.0887113810579609
 40
0.0887113810579609
 40
0.0911689436830673
 40
0.0911689436830673
 40
0.0929311549010062
 40
0.0929311549010062
 40
0.0957602881654243
 40
0.0957602881654243
 40
0.0967606331284293
 40
0.0967606331284293
 40
0.0967606331284293
 40
0.0967606331284293
 10
-42.56214430292467
 20
2.000020290751279
 30
0.0
 10
-42.5470096059762
 20
2.000021425462897
 30
0.0
 10
-42.52948500200974
 20
2.000028425796076
 30
0.0
 10
-42.4870918781925
 20
2.000060615575897
 30
0.0
 10
-42.46142391804347
 20
2.000092345611946
 30
0.0
 10
-42.36626722188874
 20
2.000257841535449
 30
0.0
 10
-42.29520834534924
 20
2.000490386301501
 30
0.0
 10
-42.18816022253095
 20
2.000912253181397
 30
0.0
 10
-42.15315286392563
 20
2.001031881989131
 30
0.0
 10
-42.07005262603985
 20
2.001571974333015
 30
0.0
 10
-42.01830295897403
 20
2.002077321685416
 30
0.0
 10
-41.93976339615187
 20
2.004016812787411
 30
0.0
 10
-41.9144763713204
 20
2.004811672102456
 30
0.0
 10
-41.8694430915376
 20
2.006675242072381
 30
0.0
 10
-41.84947739913939
 20
2.00765889090185
 30
0.0
 10
-41.81421215990434
 20
2.009735979553263
 30
0.0
 10
-41.7985768473259
 20
2.010784990525262
 30
0.0
 10
-41.7726914001962
 20
2.012748549591856
 30
0.0
 10
-41.76194954852557
 20
2.013641638501339
 30
0.0
 10
-41.74571513729762
 20
2.015098923771852
 30
0.0
 10
-41.73958229717956
 20
2.015681741010346
 30
0.0
 10
-41.73045851060869
 20
2.016586131840372
 30
0.0
 10
-41.72703716691501
 20
2.016937915776702
 30
0.0
 10
-41.71963202195914
 20
2.017717595591147
 30
0.0
 10
-41.71655527015237
 20
2.018062224881794
 30
0.0
 10
-41.71490106791559
 20
2.018249034667763
 30
0.0
 10
-41.71468570212919
 20
2.018273762126745
 30
0.0
 10
-41.7146857120933
 20
2.018273760984059
 30
0.0
  0
LINE
  5
9A4C
330
9A2F
100
AcDbEntity
  8
0
100
AcDbLine
 10
-40.0
 20
2.000000000000003
 30
0.0
 11
-36.0
 21
1.999999999999998
 31
0.0
  0
LINE
  5
9A4D
330
9A2F
100
AcDbEntity
  8
0
100
AcDbLine
 10
-35.99999999999997
 20
85.99999999999997
 30
0.0
 11
-39.99999999999999
 21
85.99999999999997
 31
0.0
  0
LINE
  5
9A4E
330
9A2F
100
AcDbEntity
  8
0
100
AcDbLine
 10
-40.0
 20
2.000000000000003
 30
0.0
 11
-39.99999999999999
 21
85.99999999999997
 31
0.0
  0
LINE
  5
9A4F
330
9A2F
100
AcDbEntity
  8
0
100
AcDbLine
 10
40.0
 20
2.000000000000003
 30
0.0
 11
36.0
 21
1.999999999999998
 31
0.0
  0
LINE
  5
9A50
330
9A2F
100
AcDbEntity
  8
0
100
AcDbLine
 10
40.0
 20
2.000000000000003
 30
0.0
 11
39.99999999999999
 21
85.99999999999997
 31
0.0
  0
LINE
  5
9A51
330
9A2F
100
AcDbEntity
  8
0
100
AcDbLine
 10
35.99999999999997
 20
85.99999999999997
 30
0.0
 11
39.99999999999999
 21
85.99999999999997
 31
0.0
  0
LINE
  5
9A52
330
9A2F
100
AcDbEntity
  8
0
100
AcDbLine
 10
79.50000000000009
 20
0.0
 30
0.0
 11
42.60606060606066
 21
0.0
 31
0.0
  0
LINE
  5
9A53
330
9A2F
100
AcDbEntity
  8
0
100
AcDbLine
 10
79.50000000000009
 20
1.999999999999992
 30
0.0
 11
79.50000000000009
 21
0.0
 31
0.0
  0
LINE
  5
9A54
330
9A2F
100
AcDbEntity
  8
0
100
AcDbLine
 10
42.60606060606066
 20
2.000000000000002
 30
0.0
 11
79.50000000000009
 21
1.999999999999992
 31
0.0
  0
LINE
  5
9A55
330
9A2F
100
AcDbEntity
  8
0
100
AcDbLine
 10
-79.50000000000009
 20
1.999999999999992
 30
0.0
 11
-42.60606060606066
 21
2.000000000000002
 31
0.0
  0
LINE
  5
9A56
330
9A2F
100
AcDbEntity
  8
0
100
AcDbLine
 10
-79.50000000000009
 20
0.0
 30
0.0
 11
-79.50000000000009
 21
1.999999999999992
 31
0.0
  0
LINE
  5
9A57
330
9A2F
100
AcDbEntity
  8
0
100
AcDbLine
 10
-42.60606060606066
 20
0.0
 30
0.0
 11
-79.50000000000009
 21
0.0
 31
0.0
  0
ENDBLK
  5
9A31
330
9A2F
100
AcDbEntity
  8
0
100
AcDbBlockEnd
  0
BLOCK
  5
9A59
330
9A58
100
AcDbEntity
  8
0
100
AcDbBlockBegin
  2
SAE380_76_2-ISO
 70
     0
 10
0.0
 20
0.0
 30
0.0
  3
SAE380_76_2-ISO
  1

  0
LINE
  5
9A5B
330
9A58
100
AcDbEntity
  8
0
100
AcDbLine
 10
57.04819040495919
 20
-42.99739393919431
 30
0.0
 11
56.79621774059156
 21
-43.1428704247954
 31
0.0
  0
SPLINE
  5
9A5C
330
9A58
100
AcDbEntity
  8
0
100
AcDbSpline
210
0.0
220
0.0
230
1.0
 70
     8
 71
     3
 72
    14
 73
    10
 74
     0
 42
0.000000001
 43
0.0000000001
 40
0.0
 40
0.0
 40
0.0
 40
0.0
 40
0.3435200981511151
 40
0.3435200981511151
 40
0.3435200981511151
 40
0.7570126784224815
 40
0.7570126784224815
 40
0.7570126784224815
 40
1.0
 40
1.0
 40
1.0
 40
1.0
 10
58.8909535316878
 20
-41.96904123783659
 30
0.0
 10
58.66383247584749
 20
-42.05024041617924
 30
0.0
 10
58.37445145388956
 20
-42.06606216878779
 30
0.0
 10
58.09313836417036
 20
-42.09393621486052
 30
0.0
 10
57.75452389602668
 20
-42.12748799624172
 30
0.0
 10
57.42732874405615
 20
-42.17909753449649
 30
0.0
 10
57.2329345849079
 20
-42.40452387104933
 30
0.0
 10
57.11869960630018
 20
-42.53699478913947
 30
0.0
 10
57.0480102646474
 20
-42.70503044550175
 30
0.0
 10
57.04819040460282
 20
-42.99739393763352
 30
0.0
  0
LINE
  5
9A5D
330
9A58
100
AcDbEntity
  8
0
100
AcDbLine
 10
58.46240396733229
 20
-41.7216180314948
 30
0.0
 11
58.8909535316878
 21
-41.96904123783656
 31
0.0
  0
ELLIPSE
  5
9A5E
330
9A58
100
AcDbEntity
  8
0
100
AcDbEllipse
 10
57.04819040495919
 20
-42.53811461242252
 30
0.0
 11
2.0
 21
-0.0000000000001192
 31
0.0
210
0.0
220
0.0
230
1.0
 40
0.5773502691896262
 41
0.7853981633976952
 42
2.35619449019259
  0
LINE
  5
9A5F
330
9A58
100
AcDbEntity
  8
0
100
AcDbLine
 10
55.63397684258609
 20
-41.9169763383688
 30
0.0
 11
55.63397684258609
 21
-41.72161803149479
 31
0.0
  0
LINE
  5
9A60
330
9A58
100
AcDbEntity
  8
0
100
AcDbLine
 10
55.63397684258609
 20
-42.93819448537934
 30
0.0
 11
55.63397684258609
 21
-41.9169763383688
 31
0.0
  0
LINE
  5
9A61
330
9A58
100
AcDbEntity
  8
0
100
AcDbLine
 10
55.63397684258609
 20
-42.95013448469278
 30
0.0
 11
55.63397684258609
 21
-42.93819448537934
 31
0.0
  0
LINE
  5
9A62
330
9A58
100
AcDbEntity
  8
0
100
AcDbLine
 10
55.63397684258609
 20
-43.81389052012204
 30
0.0
 11
55.63397684258609
 21
-42.95013448469278
 31
0.0
  0
LINE
  5
9A63
330
9A58
100
AcDbEntity
  8
0
100
AcDbLine
 10
56.79621774059156
 20
-43.1428704247954
 30
0.0
 11
55.63397684258609
 21
-43.81389052012204
 31
0.0
  0
ELLIPSE
  5
9A64
330
9A58
100
AcDbEntity
  8
0
100
AcDbEllipse
 10
-17.90512840081483
 20
-73.20776743352017
 30
0.0
 11
-2.5
 21
-0.0000000000001492
 31
0.0
210
0.0
220
0.0
230
1.0
 40
0.577350269189626
 41
3.742856870268582
 42
5.681921090500122
  0
ELLIPSE
  5
9A65
330
9A58
100
AcDbEntity
  8
0
100
AcDbEllipse
 10
-3.762992777083877
 20
-65.04280162424291
 30
0.0
 11
-2.5
 21
-0.0000000000001492
 31
0.0
210
0.0
220
0.0
230
1.0
 40
0.577350269189626
 41
3.742856870268582
 42
5.681921090500122
  0
LINE
  5
9A66
330
9A58
100
AcDbEntity
  8
0
100
AcDbLine
 10
-5.177206339456987
 20
-95.25317511856878
 30
0.0
 11
-56.08889458488835
 21
-65.85929820517065
 31
0.0
  0
LINE
  5
9A67
330
9A58
100
AcDbEntity
  8
0
100
AcDbLine
 10
1.893861472408486
 20
-11.15402728301299
 30
0.0
 11
1.893861472408491
 21
-27.48395890156751
 31
0.0
  0
LINE
  5
9A68
330
9A58
100
AcDbEntity
  8
0
100
AcDbLine
 10
30.88523950105693
 20
-45.85513197244136
 30
0.0
 11
29.82457932927712
 21
-45.24275953674557
 31
0.0
  0
LINE
  5
9A69
330
9A58
100
AcDbEntity
  8
0
100
AcDbLine
 10
20.25926499473307
 20
-39.72022273081318
 30
0.0
 11
3.308075034781579
 21
-29.93344864435069
 31
0.0
  0
LINE
  5
9A6A
330
9A58
100
AcDbEntity
  8
0
100
AcDbLine
 10
-56.08889458488836
 20
-64.22630504331521
 30
0.0
 11
-5.177206339456992
 21
-93.62018195671332
 31
0.0
  0
ELLIPSE
  5
9A6B
330
9A58
100
AcDbEntity
  8
0
100
AcDbEllipse
 10
-3.762992777083877
 20
-63.40980846238746
 30
0.0
 11
-2.499999999999999
 21
0.0000000000001492
 31
0.0
210
0.0
220
0.0
230
1.0
 40
0.5773502691896261
 41
0.0
 42
6.283185307179586
  0
ELLIPSE
  5
9A6C
330
9A58
100
AcDbEntity
  8
0
100
AcDbEllipse
 10
-17.90512840081483
 20
-71.57477427166472
 30
0.0
 11
-2.499999999999999
 21
0.0000000000001492
 31
0.0
210
0.0
220
0.0
230
1.0
 40
0.5773502691896261
 41
0.0
 42
6.283185307179586
  0
LINE
  5
9A6D
330
9A58
100
AcDbEntity
  8
0
100
AcDbLine
 10
1.893861472408486
 20
-11.15402728301299
 30
0.0
 11
1.808619566401752
 21
-11.20324172039222
 31
0.0
  0
SPLINE
  5
9A6E
330
9A58
100
AcDbEntity
  8
0
100
AcDbSpline
210
0.0
220
0.0
230
1.0
 70
     8
 71
     3
 72
    11
 73
     7
 74
     0
 42
0.000000001
 43
0.0000000001
 40
-1.0
 40
-1.0
 40
-1.0
 40
-1.0
 40
-0.7994286890708625
 40
-0.7994286890708625
 40
-0.7994286890708625
 40
-0.658141617624994
 40
-0.658141617624994
 40
-0.658141617624994
 40
-0.658141617624994
 10
1.893861472408491
 20
-11.15402728301299
 30
0.0
 10
1.894502707996861
 20
-10.75941519640288
 30
0.0
 10
1.861196389941119
 20
-10.40066690794804
 30
0.0
 10
1.804225270908057
 20
-10.05933017745023
 30
0.0
 10
1.764093496688272
 20
-9.818884687985477
 30
0.0
 10
1.709643380746177
 20
-9.589048858227648
 30
0.0
 10
1.642513846118323
 20
-9.36625507245866
 30
0.0
  0
ELLIPSE
  5
9A6F
330
9A58
100
AcDbEntity
  8
0
100
AcDbEllipse
 10
-2.348779214710803
 20
-8.245258213458015
 30
0.0
 11
4.0
 21
0.0000000000000001
 31
0.0
210
0.0
220
0.0
230
1.0
 40
0.5773502691896261
 41
6.058746940105185
 42
6.283185307179587
  0
ELLIPSE
  5
9A70
330
9A58
100
AcDbEntity
  8
0
100
AcDbEllipse
 10
-2.348779214710803
 20
-8.245258213458015
 30
0.0
 11
4.000000000000002
 21
-0.0000000000000001
 31
0.0
210
0.0
220
0.0
230
1.0
 40
0.5773502691896261
 41
5.497787143782137
 42
6.058746940105185
  0
LINE
  5
9A71
330
9A58
100
AcDbEntity
  8
0
100
AcDbLine
 10
0.4796479100353901
 20
-9.87825137531348
 30
0.0
 11
0.4796479100353901
 21
-10.07267779087742
 31
0.0
  0
LINE
  5
9A72
330
9A58
100
AcDbEntity
  8
0
100
AcDbLine
 10
0.4796479100353901
 20
-10.07267779087742
 30
0.0
 11
0.4796479100353901
 21
-11.97052386394072
 31
0.0
  0
LINE
  5
9A73
330
9A58
100
AcDbEntity
  8
0
100
AcDbLine
 10
1.808619566401752
 20
-11.20324172039222
 30
0.0
 11
0.4796479100353946
 21
-11.97052386394072
 31
0.0
  0
SPLINE
  5
9A74
330
9A58
100
AcDbEntity
  8
0
100
AcDbSpline
210
0.0
220
0.0
230
1.0
 70
     8
 71
     3
 72
    16
 73
    12
 74
     0
 42
0.000000001
 43
0.0000000001
 40
0.0
 40
0.0
 40
0.0
 40
0.0
 40
0.0351246640463808
 40
0.0351246640463808
 40
0.0553378226024757
 40
0.0553378226024757
 40
0.0803966030467986
 40
0.0803966030467986
 40
0.1060253276570498
 40
0.1060253276570498
 40
0.1164316196676886
 40
0.1164316196676886
 40
0.1164316196676886
 40
0.1164316196676886
 10
1.639848113376678
 20
-8.419285973287271
 30
0.0
 10
1.624653489114122
 20
-8.535374206137182
 30
0.0
 10
1.609723615964608
 20
-8.653602471160519
 30
0.0
 10
1.594870979214748
 20
-8.83096762264989
 30
0.0
 10
1.591295004822508
 20
-8.894480567559416
 30
0.0
 10
1.589051231929388
 20
-9.025574779517286
 30
0.0
 10
1.591785259917268
 20
-9.09142794610009
 30
0.0
 10
1.603650341936218
 20
-9.206868708472883
 30
0.0
 10
1.61270196678787
 20
-9.257474190971638
 30
0.0
 10
1.629546579924574
 20
-9.326326712150194
 30
0.0
 10
1.634937111773853
 20
-9.346053309687466
 30
0.0
 10
1.641047891616205
 20
-9.366360993318227
 30
0.0
  0
ELLIPSE
  5
9A75
330
9A58
100
AcDbEntity
  8
0
100
AcDbEllipse
 10
3.308075034781587
 20
-28.30045548249524
 30
0.0
 11
1.000000000000105
 21
-1.732050807568817
 31
0.0
210
0.0
220
0.0
230
1.0
 40
0.5773502691896266
 41
3.926990816987
 42
5.497787143781897
  0
LINE
  5
9A76
330
9A58
100
AcDbEntity
  8
0
100
AcDbLine
 10
3.308075034781579
 20
-29.93344864435069
 30
0.0
 11
-56.08889458488836
 21
-64.22630504331521
 31
0.0
  0
ELLIPSE
  5
9A77
330
9A58
100
AcDbEntity
  8
0
100
AcDbEllipse
 10
-56.08889458488836
 20
-62.59331188145974
 30
0.0
 11
2.00000000000021
 21
-3.464101615137643
 31
0.0
210
0.0
220
0.0
230
1.0
 40
0.5773502691896257
 41
3.926990816987002
 42
5.497787143781897
  0
LINE
  5
9A78
330
9A58
100
AcDbEntity
  8
0
100
AcDbLine
 10
-57.50310814726148
 20
-61.77681530053201
 30
0.0
 11
1.893861472408504
 21
-27.48395890156751
 31
0.0
  0
LINE
  5
9A79
330
9A58
100
AcDbEntity
  8
0
100
AcDbLine
 10
-58.91732170963457
 20
-60.96031871960429
 30
0.0
 11
-57.50310814726148
 21
-61.77681530053201
 31
0.0
  0
LINE
  5
9A7A
330
9A58
100
AcDbEntity
  8
0
100
AcDbLine
 10
-56.08889458488836
 20
-65.85929820517065
 30
0.0
 11
-56.08889458488836
 21
-64.22630504331521
 31
0.0
  0
ELLIPSE
  5
9A7B
330
9A58
100
AcDbEntity
  8
0
100
AcDbEllipse
 10
-56.08889458488836
 20
-62.59331188145974
 30
0.0
 11
1.000000000000108
 21
-1.732050807568827
 31
0.0
210
0.0
220
0.0
230
1.0
 40
0.5773502691896257
 41
3.926990816987
 42
5.497787143781897
  0
LINE
  5
9A7C
330
9A58
100
AcDbEntity
  8
0
100
AcDbLine
 10
57.04819040495919
 20
-59.32732555774883
 30
0.0
 11
57.04819040495919
 21
-42.99739393919431
 31
0.0
  0
ELLIPSE
  5
9A7D
330
9A58
100
AcDbEntity
  8
0
100
AcDbEllipse
 10
54.219763280213
 20
-57.69433239589338
 30
0.0
 11
1.999999999999996
 21
-3.464101615137757
 31
0.0
210
0.0
220
0.0
230
1.0
 40
0.577350269189625
 41
0.0
 42
0.7853981633974474
  0
LINE
  5
9A7E
330
9A58
100
AcDbEntity
  8
0
100
AcDbLine
 10
-5.177206339456987
 20
-93.62018195671332
 30
0.0
 11
-3.762992777083895
 21
-92.8036853757856
 31
0.0
  0
LINE
  5
9A7F
330
9A58
100
AcDbEntity
  8
0
100
AcDbLine
 10
57.04819040495919
 20
-59.32732555774883
 30
0.0
 11
-2.348779214710798
 21
-93.62018195671332
 31
0.0
  0
ELLIPSE
  5
9A80
330
9A58
100
AcDbEntity
  8
0
100
AcDbEllipse
 10
-5.177206339456987
 20
-91.98718879485786
 30
0.0
 11
2.000000000000003
 21
-3.464101615137762
 31
0.0
210
0.0
220
0.0
230
1.0
 40
0.5773502691896258
 41
5.497787143782137
 42
7.068583470577034
  0
LINE
  5
9A81
330
9A58
100
AcDbEntity
  8
0
100
AcDbLine
 10
84.97890826182786
 20
-32.178814241902
 30
0.0
 11
86.39312182420097
 21
-31.36231766097427
 31
0.0
  0
LINE
  5
9A82
330
9A58
100
AcDbEntity
  8
0
100
AcDbLine
 10
58.8909535316878
 20
-41.96904123783655
 30
0.0
 11
84.97890826182786
 21
-32.178814241902
 31
0.0
  0
ELLIPSE
  5
9A83
330
9A58
100
AcDbEntity
  8
0
100
AcDbEllipse
 10
72.60453959106325
 20
39.46876073450603
 30
0.0
 11
-3.249999999999998
 21
5.629165124598853
 31
0.0
210
0.0
220
0.0
230
1.0
 40
0.5773502691896258
 41
0.2193254863005896
 42
2.9222671672892
  0
ELLIPSE
  5
9A84
330
9A58
100
AcDbEntity
  8
0
100
AcDbEllipse
 10
80.38271418411527
 20
39.06051244404215
 30
0.0
 11
1.250000000000128
 21
-2.165063509461023
 31
0.0
210
0.0
220
0.0
230
0.9999999999999998
 40
0.5773502691896254
 41
3.742856870268578
 42
5.681921090500122
  0
LINE
  5
9A85
330
9A58
100
AcDbEntity
  8
0
100
AcDbLine
 10
59.87661752970537
 20
63.1471615814101
 30
0.0
 11
86.39312182420091
 21
47.83785068901519
 31
0.0
  0
LINE
  5
9A86
330
9A58
100
AcDbEntity
  8
0
100
AcDbLine
 10
86.39312182420097
 20
-31.36231766097427
 30
0.0
 11
86.39312182420091
 21
47.83785068901519
 31
0.0
  0
ELLIPSE
  5
9A87
330
9A58
100
AcDbEntity
  8
0
100
AcDbEllipse
 10
57.04819040495919
 20
61.51416841955463
 30
0.0
 11
3.999999999999998
 21
-0.0000000000002381
 31
0.0
210
0.0
220
0.0
230
1.0
 40
0.5773502691896261
 41
0.7853981633976872
 42
2.356194490192585
  0
ELLIPSE
  5
9A88
330
9A58
100
AcDbEntity
  8
0
100
AcDbEllipse
 10
29.82457932927712
 20
36.81514684649092
 30
0.0
 11
1.24999999999987
 21
2.165063509461171
 31
0.0
210
0.0
220
0.0
230
1.0
 40
0.577350269189626
 41
3.742856870268578
 42
5.681921090500118
  0
ELLIPSE
  5
9A89
330
9A58
100
AcDbEntity
  8
0
100
AcDbEllipse
 10
31.23879289165021
 20
35.9986502655632
 30
0.0
 11
-1.25
 21
-2.165063509461097
 31
0.0
210
0.0
220
0.0
230
0.9999999999999998
 40
0.5773502691896259
 41
0.0
 42
6.283185307179586
  0
LINE
  5
9A8A
330
9A58
100
AcDbEntity
  8
0
100
AcDbLine
 10
-3.762992777083908
 20
-76.47375375723107
 30
0.0
 11
24.52127847037801
 21
-33.19943496806162
 31
0.0
  0
LINE
  5
9A8B
330
9A58
100
AcDbEntity
  8
0
100
AcDbLine
 10
-2.348779214710816
 20
-77.29025033815881
 30
0.0
 11
-3.762992777083908
 21
-76.47375375723107
 31
0.0
  0
LINE
  5
9A8C
330
9A58
100
AcDbEntity
  8
0
100
AcDbLine
 10
25.9354920327511
 20
-34.01593154898935
 30
0.0
 11
-2.348779214710816
 21
-77.29025033815881
 31
0.0
  0
LINE
  5
9A8D
330
9A58
100
AcDbEntity
  8
0
100
AcDbLine
 10
25.9354920327511
 20
-34.01593154898935
 30
0.0
 11
24.52127847037801
 21
-33.19943496806162
 31
0.0
  0
LINE
  5
9A8E
330
9A58
100
AcDbEntity
  8
0
100
AcDbLine
 10
24.52127847037801
 20
-33.19943496806162
 30
0.0
 11
24.52127847037802
 21
46.00073338192784
 31
0.0
  0
LINE
  5
9A8F
330
9A58
100
AcDbEntity
  8
0
100
AcDbLine
 10
25.93549203275112
 20
45.18423680100013
 30
0.0
 11
25.9354920327511
 21
-34.01593154898935
 31
0.0
  0
LINE
  5
9A90
330
9A58
100
AcDbEntity
  8
0
100
AcDbLine
 10
24.52127847037802
 20
46.00073338192784
 30
0.0
 11
25.93549203275112
 21
45.18423680100013
 31
0.0
  0
LINE
  5
9A91
330
9A58
100
AcDbEntity
  8
0
100
AcDbLine
 10
-2.348779214710816
 20
-77.29025033815881
 30
0.0
 11
-2.348779214710794
 21
-93.62018195671332
 31
0.0
  0
LINE
  5
9A92
330
9A58
100
AcDbEntity
  8
0
100
AcDbLine
 10
55.63397684258609
 20
-41.72161803149479
 30
0.0
 11
55.63397684258609
 21
62.33066500048235
 31
0.0
  0
LINE
  5
9A93
330
9A58
100
AcDbEntity
  8
0
100
AcDbLine
 10
55.63397684258609
 20
62.33066500048235
 30
0.0
 11
25.93549203275112
 21
45.18423680100013
 31
0.0
  0
LINE
  5
9A94
330
9A58
100
AcDbEntity
  8
0
100
AcDbLine
 10
24.52127847037802
 20
46.00073338192784
 30
0.0
 11
54.219763280213
 21
63.1471615814101
 31
0.0
  0
LINE
  5
9A95
330
9A58
100
AcDbEntity
  8
0
100
AcDbLine
 10
-3.762992777083891
 20
-92.8036853757856
 30
0.0
 11
-3.762992777083908
 21
-76.47375375723107
 31
0.0
  0
LINE
  5
9A96
330
9A58
100
AcDbEntity
  8
0
100
AcDbLine
 10
-5.177206339456987
 20
-93.62018195671332
 30
0.0
 11
-5.177206339456987
 21
-95.25317511856878
 31
0.0
  0
LINE
  5
9A97
330
9A58
100
AcDbEntity
  8
0
100
AcDbLine
 10
-3.762992777083891
 20
-92.8036853757856
 30
0.0
 11
-2.348779214710794
 21
-93.62018195671332
 31
0.0
  0
ELLIPSE
  5
9A98
330
9A58
100
AcDbEntity
  8
0
100
AcDbEllipse
 10
-5.177206339456987
 20
-91.98718879485786
 30
0.0
 11
1.000000000000005
 21
-1.732050807568887
 31
0.0
210
0.0
220
0.0
230
1.0
 40
0.5773502691896255
 41
5.497787143782134
 42
7.06858347057703
  0
LINE
  5
9A99
330
9A58
100
AcDbEntity
  8
0
100
AcDbLine
 10
58.46240396733229
 20
-41.72161803149479
 30
0.0
 11
58.46240396733228
 21
62.33066500048235
 31
0.0
  0
ELLIPSE
  5
9A9A
330
9A58
100
AcDbEntity
  8
0
100
AcDbEllipse
 10
57.04819040495919
 20
61.51416841955463
 30
0.0
 11
-2.000000000000001
 21
-0.0000000000001195
 31
0.0
210
0.0
220
0.0
230
1.0
 40
0.5773502691896259
 41
3.926990816987
 42
5.497787143781896
  0
LINE
  5
9A9B
330
9A58
100
AcDbEntity
  8
0
100
AcDbLine
 10
86.39312182420091
 20
47.83785068901519
 30
0.0
 11
84.97890826182782
 21
47.02135410808748
 31
0.0
  0
LINE
  5
9A9C
330
9A58
100
AcDbEntity
  8
0
100
AcDbLine
 10
84.97890826182786
 20
-32.178814241902
 30
0.0
 11
84.97890826182782
 21
47.02135410808748
 31
0.0
  0
LINE
  5
9A9D
330
9A58
100
AcDbEntity
  8
0
100
AcDbLine
 10
55.63397684258609
 20
62.33066500048235
 30
0.0
 11
54.219763280213
 21
63.1471615814101
 31
0.0
  0
LINE
  5
9A9E
330
9A58
100
AcDbEntity
  8
0
100
AcDbLine
 10
58.46240396733228
 20
62.33066500048235
 30
0.0
 11
59.87661752970537
 21
63.1471615814101
 31
0.0
  0
LINE
  5
9A9F
330
9A58
100
AcDbEntity
  8
0
100
AcDbLine
 10
84.97890826182782
 20
47.02135410808748
 30
0.0
 11
58.46240396733228
 21
62.33066500048235
 31
0.0
  0
ELLIPSE
  5
9AA0
330
9A58
100
AcDbEntity
  8
0
100
AcDbEllipse
 10
71.19032602869015
 20
38.65226415357829
 30
0.0
 11
-3.249999999999998
 21
5.629165124598853
 31
0.0
210
0.0
220
0.0
230
1.0
 40
0.5773502691896255
 41
0.0
 42
6.283185307179586
  0
ELLIPSE
  5
9AA1
330
9A58
100
AcDbEntity
  8
0
100
AcDbEllipse
 10
78.96850062174218
 20
38.24401586311443
 30
0.0
 11
-1.249999999999999
 21
2.165063509461097
 31
0.0
210
0.0
220
0.0
230
1.0
 40
0.5773502691896255
 41
0.0
 42
6.283185307179586
  0
LINE
  5
9AA2
330
9A58
100
AcDbEntity
  8
0
100
AcDbLine
 10
-3.177206339456986
 20
-95.45129040999562
 30
0.0
 11
56.219763280213
 21
-61.15843401103114
 31
0.0
  0
ELLIPSE
  5
9AA3
330
9A58
100
AcDbEntity
  8
0
100
AcDbEllipse
 10
72.60453959106325
 20
-17.68599993043481
 30
0.0
 11
-3.249999999999998
 21
5.629165124598853
 31
0.0
210
0.0
220
0.0
230
1.0
 40
0.5773502691896255
 41
0.2193254863005926
 42
2.9222671672892
  0
ELLIPSE
  5
9AA4
330
9A58
100
AcDbEntity
  8
0
100
AcDbEllipse
 10
71.19032602869015
 20
-18.50249651136254
 30
0.0
 11
-3.249999999999998
 21
5.629165124598853
 31
0.0
210
0.0
220
0.0
230
1.0
 40
0.5773502691896255
 41
0.0
 42
6.283185307179586
  0
ELLIPSE
  5
9AA5
330
9A58
100
AcDbEntity
  8
0
100
AcDbEllipse
 10
64.82636499801123
 20
-25.44271744924821
 30
0.0
 11
1.250000000000128
 21
-2.165063509461023
 31
0.0
210
0.0
220
0.0
230
0.9999999999999998
 40
0.5773502691896254
 41
3.742856870268578
 42
5.681921090500122
  0
ELLIPSE
  5
9AA6
330
9A58
100
AcDbEntity
  8
0
100
AcDbEllipse
 10
64.82636499801123
 20
-9.112785830693685
 30
0.0
 11
1.250000000000128
 21
-2.165063509461023
 31
0.0
210
0.0
220
0.0
230
0.9999999999999998
 40
0.5773502691896254
 41
3.74285687026858
 42
5.681921090500122
  0
ELLIPSE
  5
9AA7
330
9A58
100
AcDbEntity
  8
0
100
AcDbEllipse
 10
64.82636499801123
 20
7.217145787860834
 30
0.0
 11
1.250000000000128
 21
-2.165063509461023
 31
0.0
210
0.0
220
0.0
230
0.9999999999999998
 40
0.5773502691896254
 41
3.74285687026858
 42
5.681921090500122
  0
ELLIPSE
  5
9AA8
330
9A58
100
AcDbEntity
  8
0
100
AcDbEllipse
 10
64.82636499801123
 20
23.54707740641536
 30
0.0
 11
1.250000000000128
 21
-2.165063509461023
 31
0.0
210
0.0
220
0.0
230
0.9999999999999998
 40
0.5773502691896254
 41
3.742856870268578
 42
5.681921090500122
  0
ELLIPSE
  5
9AA9
330
9A58
100
AcDbEntity
  8
0
100
AcDbEllipse
 10
64.82636499801123
 20
39.87700902496989
 30
0.0
 11
1.250000000000128
 21
-2.165063509461023
 31
0.0
210
0.0
220
0.0
230
0.9999999999999998
 40
0.5773502691896254
 41
3.742856870268578
 42
5.681921090500122
  0
ELLIPSE
  5
9AAA
330
9A58
100
AcDbEntity
  8
0
100
AcDbEllipse
 10
63.41215143563814
 20
-26.25921403017593
 30
0.0
 11
-1.249999999999999
 21
2.165063509461097
 31
0.0
210
0.0
220
0.0
230
1.0
 40
0.5773502691896255
 41
0.0
 42
6.283185307179586
  0
ELLIPSE
  5
9AAB
330
9A58
100
AcDbEntity
  8
0
100
AcDbEllipse
 10
63.41215143563814
 20
-9.929282411621409
 30
0.0
 11
-1.249999999999999
 21
2.165063509461097
 31
0.0
210
0.0
220
0.0
230
1.0
 40
0.5773502691896255
 41
0.0
 42
6.283185307179586
  0
ELLIPSE
  5
9AAC
330
9A58
100
AcDbEntity
  8
0
100
AcDbEllipse
 10
63.41215143563814
 20
6.400649206933115
 30
0.0
 11
-1.249999999999999
 21
2.165063509461097
 31
0.0
210
0.0
220
0.0
230
1.0
 40
0.5773502691896255
 41
0.0
 42
6.283185307179586
  0
ELLIPSE
  5
9AAD
330
9A58
100
AcDbEntity
  8
0
100
AcDbEllipse
 10
63.41215143563814
 20
22.73058082548763
 30
0.0
 11
-1.249999999999999
 21
2.165063509461097
 31
0.0
210
0.0
220
0.0
230
1.0
 40
0.5773502691896255
 41
0.0
 42
6.283185307179586
  0
ELLIPSE
  5
9AAE
330
9A58
100
AcDbEntity
  8
0
100
AcDbEllipse
 10
63.41215143563814
 20
39.06051244404217
 30
0.0
 11
-1.249999999999999
 21
2.165063509461097
 31
0.0
210
0.0
220
0.0
230
1.0
 40
0.5773502691896255
 41
0.0
 42
6.283185307179586
  0
ELLIPSE
  5
9AAF
330
9A58
100
AcDbEntity
  8
0
100
AcDbEllipse
 10
64.82636499801123
 20
56.20694064352441
 30
0.0
 11
1.250000000000128
 21
-2.165063509461023
 31
0.0
210
0.0
220
0.0
230
0.9999999999999998
 40
0.5773502691896254
 41
3.742856870268578
 42
5.681921090500122
  0
ELLIPSE
  5
9AB0
330
9A58
100
AcDbEntity
  8
0
100
AcDbEllipse
 10
-5.884313120643542
 20
95.39877652805529
 30
0.0
 11
1.249999999999999
 21
-2.165063509461097
 31
0.0
210
0.0
220
0.0
230
0.9999999999999998
 40
0.5773502691896259
 41
0.0
 42
6.283185307179586
  0
ELLIPSE
  5
9AB1
330
9A58
100
AcDbEntity
  8
0
100
AcDbEllipse
 10
-4.470099558270455
 20
96.21527310898301
 30
0.0
 11
1.250000000000129
 21
-2.165063509461022
 31
0.0
210
0.0
220
0.0
230
1.0
 40
0.5773502691896259
 41
3.742856870268578
 42
5.681921090500118
  0
ELLIPSE
  5
9AB2
330
9A58
100
AcDbEntity
  8
0
100
AcDbEllipse
 10
63.41215143563814
 20
55.39044406259669
 30
0.0
 11
-1.249999999999999
 21
2.165063509461097
 31
0.0
210
0.0
220
0.0
230
1.0
 40
0.5773502691896255
 41
0.0
 42
6.283185307179586
  0
ELLIPSE
  5
9AB3
330
9A58
100
AcDbEntity
  8
0
100
AcDbEllipse
 10
80.38271418411527
 20
-26.25921403017593
 30
0.0
 11
1.250000000000128
 21
-2.165063509461023
 31
0.0
210
0.0
220
0.0
230
0.9999999999999998
 40
0.5773502691896254
 41
3.742856870268578
 42
5.681921090500122
  0
ELLIPSE
  5
9AB4
330
9A58
100
AcDbEntity
  8
0
100
AcDbEllipse
 10
80.38271418411527
 20
-9.929282411621418
 30
0.0
 11
1.250000000000128
 21
-2.165063509461023
 31
0.0
210
0.0
220
0.0
230
0.9999999999999998
 40
0.5773502691896254
 41
3.74285687026858
 42
5.681921090500122
  0
ELLIPSE
  5
9AB5
330
9A58
100
AcDbEntity
  8
0
100
AcDbEllipse
 10
80.38271418411527
 20
6.400649206933106
 30
0.0
 11
1.250000000000128
 21
-2.165063509461023
 31
0.0
210
0.0
220
0.0
230
0.9999999999999998
 40
0.5773502691896254
 41
3.74285687026858
 42
5.681921090500122
  0
ELLIPSE
  5
9AB6
330
9A58
100
AcDbEntity
  8
0
100
AcDbEllipse
 10
80.38271418411527
 20
22.73058082548762
 30
0.0
 11
1.250000000000128
 21
-2.165063509461023
 31
0.0
210
0.0
220
0.0
230
0.9999999999999998
 40
0.5773502691896254
 41
3.742856870268578
 42
5.681921090500122
  0
ELLIPSE
  5
9AB7
330
9A58
100
AcDbEntity
  8
0
100
AcDbEllipse
 10
78.96850062174218
 20
-27.07571061110366
 30
0.0
 11
-1.249999999999999
 21
2.165063509461097
 31
0.0
210
0.0
220
0.0
230
1.0
 40
0.5773502691896255
 41
0.0
 42
6.283185307179586
  0
ELLIPSE
  5
9AB8
330
9A58
100
AcDbEntity
  8
0
100
AcDbEllipse
 10
78.96850062174218
 20
-10.74577899254914
 30
0.0
 11
-1.249999999999999
 21
2.165063509461097
 31
0.0
210
0.0
220
0.0
230
1.0
 40
0.5773502691896255
 41
0.0
 42
6.283185307179586
  0
ELLIPSE
  5
9AB9
330
9A58
100
AcDbEntity
  8
0
100
AcDbEllipse
 10
78.96850062174218
 20
5.584152626005378
 30
0.0
 11
-1.249999999999999
 21
2.165063509461097
 31
0.0
210
0.0
220
0.0
230
1.0
 40
0.5773502691896255
 41
0.0
 42
6.283185307179586
  0
ELLIPSE
  5
9ABA
330
9A58
100
AcDbEntity
  8
0
100
AcDbEllipse
 10
78.96850062174218
 20
21.9140842445599
 30
0.0
 11
-1.249999999999999
 21
2.165063509461097
 31
0.0
210
0.0
220
0.0
230
1.0
 40
0.5773502691896255
 41
0.0
 42
6.283185307179586
  0
LINE
  5
9ABB
330
9A58
100
AcDbEntity
  8
0
100
AcDbLine
 10
-24.65105458368454
 20
28.44870143918241
 30
0.0
 11
-23.94384273969387
 21
27.36668272565184
 31
0.0
  0
LINE
  5
9ABC
330
9A58
100
AcDbEntity
  8
0
100
AcDbLine
 10
-29.2188368997996
 20
-2.172564892808024
 30
0.0
 11
-57.50310814726148
 21
-45.4468836819775
 31
0.0
  0
LINE
  5
9ABD
330
9A58
100
AcDbEntity
  8
0
100
AcDbLine
 10
-30.63305046217269
 20
-1.356068311880305
 30
0.0
 11
-29.2188368997996
 21
-2.172564892808024
 31
0.0
  0
LINE
  5
9ABE
330
9A58
100
AcDbEntity
  8
0
100
AcDbLine
 10
-58.91732170963457
 20
-44.63038710104977
 30
0.0
 11
-30.63305046217269
 21
-1.356068311880305
 31
0.0
  0
LINE
  5
9ABF
330
9A58
100
AcDbEntity
  8
0
100
AcDbLine
 10
-57.50310814726148
 20
-45.4468836819775
 30
0.0
 11
-58.91732170963457
 21
-44.63038710104977
 31
0.0
  0
LINE
  5
9AC0
330
9A58
100
AcDbEntity
  8
0
100
AcDbLine
 10
-29.21883689979958
 20
77.02760345718144
 30
0.0
 11
-29.2188368997996
 21
-2.172564892808024
 31
0.0
  0
LINE
  5
9AC1
330
9A58
100
AcDbEntity
  8
0
100
AcDbLine
 10
-30.63305046217267
 20
77.84410003810916
 30
0.0
 11
-29.21883689979958
 21
77.02760345718144
 31
0.0
  0
LINE
  5
9AC2
330
9A58
100
AcDbEntity
  8
0
100
AcDbLine
 10
-30.63305046217269
 20
-1.356068311880305
 30
0.0
 11
-30.63305046217267
 21
77.84410003810916
 31
0.0
  0
ELLIPSE
  5
9AC3
330
9A58
100
AcDbEntity
  8
0
100
AcDbEllipse
 10
-13.66248771369557
 20
87.64205900924189
 30
0.0
 11
-3.250000000000017
 21
5.629165124598844
 31
0.0
210
0.0
220
0.0
230
1.0
 40
0.5773502691896259
 41
4.712388980384689
 42
7.853981633974489
  0
ELLIPSE
  5
9AC4
330
9A58
100
AcDbEntity
  8
0
100
AcDbEllipse
 10
-12.24827415132248
 20
88.4585555901696
 30
0.0
 11
-3.25
 21
5.629165124598854
 31
0.0
210
0.0
220
0.0
230
1.0
 40
0.5773502691896257
 41
0.219325486300593
 42
1.570796326794903
  0
ELLIPSE
  5
9AC5
330
9A58
100
AcDbEntity
  8
0
100
AcDbEllipse
 10
-21.4406623067476
 20
96.21527310898301
 30
0.0
 11
1.249999999999999
 21
-2.165063509461097
 31
0.0
210
0.0
220
0.0
230
0.9999999999999998
 40
0.5773502691896259
 41
0.0
 42
6.283185307179586
  0
ELLIPSE
  5
9AC6
330
9A58
100
AcDbEntity
  8
0
100
AcDbEllipse
 10
-20.0264487443745
 20
97.03176968991073
 30
0.0
 11
1.250000000000129
 21
-2.165063509461022
 31
0.0
210
0.0
220
0.0
230
1.0
 40
0.5773502691896259
 41
3.742856870268576
 42
5.681921090500117
  0
LINE
  5
9AC7
330
9A58
100
AcDbEntity
  8
0
100
AcDbLine
 10
-0.9345656523377066
 20
94.99052823759143
 30
0.0
 11
-0.9345656523376977
 21
96.62352139944687
 31
0.0
  0
ELLIPSE
  5
9AC8
330
9A58
100
AcDbEntity
  8
0
100
AcDbEllipse
 10
-2.348779214710803
 20
95.80702481851915
 30
0.0
 11
2.000000000000001
 21
-0.0000000000000003
 31
0.0
210
0.0
220
0.0
230
1.0
 40
0.5773502691896259
 41
5.497787143782129
 42
7.068583470577026
  0
LINE
  5
9AC9
330
9A58
100
AcDbEntity
  8
0
100
AcDbLine
 10
0.4796479100353857
 20
94.17403165666369
 30
0.0
 11
0.4796479100353901
 21
-9.878251375313471
 31
0.0
  0
ELLIPSE
  5
9ACA
330
9A58
100
AcDbEntity
  8
0
100
AcDbEllipse
 10
-2.348779214710803
 20
95.80702481851915
 30
0.0
 11
3.999999999999999
 21
0.0000000000000001
 31
0.0
210
0.0
220
0.0
230
1.0
 40
0.577350269189626
 41
5.497787143782137
 42
7.068583470577034
  0
LINE
  5
9ACB
330
9A58
100
AcDbEntity
  8
0
100
AcDbLine
 10
-0.9345656523376977
 20
96.62352139944687
 30
0.0
 11
0.4796479100353946
 21
97.44001798037459
 31
0.0
  0
LINE
  5
9ACC
330
9A58
100
AcDbEntity
  8
0
100
AcDbLine
 10
-0.9345656523377066
 20
94.99052823759141
 30
0.0
 11
0.4796479100353857
 21
94.17403165666369
 31
0.0
  0
LINE
  5
9ACD
330
9A58
100
AcDbEntity
  8
0
100
AcDbLine
 10
1.6512207852892
 20
-8.245258213458015
 30
0.0
 11
1.6512207852892
 21
95.80702481851915
 31
0.0
  0
LINE
  5
9ACE
330
9A58
100
AcDbEntity
  8
0
100
AcDbLine
 10
-27.45106994683326
 20
111.9328322918417
 30
0.0
 11
-0.9345656523376977
 21
96.62352139944687
 31
0.0
  0
LINE
  5
9ACF
330
9A58
100
AcDbEntity
  8
0
100
AcDbLine
 10
-27.45106994683329
 20
79.68121734519654
 30
0.0
 11
-27.45106994683326
 21
111.9328322918417
 31
0.0
  0
LINE
  5
9AD0
330
9A58
100
AcDbEntity
  8
0
100
AcDbLine
 10
-57.50310814726148
 20
-61.77681530053201
 30
0.0
 11
-57.50310814726148
 21
-45.4468836819775
 31
0.0
  0
LINE
  5
9AD1
330
9A58
100
AcDbEntity
  8
0
100
AcDbLine
 10
-29.21883689979958
 20
77.02760345718144
 30
0.0
 11
0.4796479100353857
 21
94.17403165666369
 31
0.0
  0
LINE
  5
9AD2
330
9A58
100
AcDbEntity
  8
0
100
AcDbLine
 10
-58.91732170963457
 20
-44.63038710104977
 30
0.0
 11
-58.91732170963457
 21
-60.96031871960429
 31
0.0
  0
LINE
  5
9AD3
330
9A58
100
AcDbEntity
  8
0
100
AcDbLine
 10
-0.9345656523377066
 20
94.99052823759141
 30
0.0
 11
-30.63305046217267
 21
77.84410003810916
 31
0.0
  0
LINE
  5
9AD4
330
9A58
100
AcDbEntity
  8
0
100
AcDbLine
 10
0.4796479100353946
 20
97.44001798037459
 30
0.0
 11
-26.03685638446016
 21
112.7493288727694
 31
0.0
  0
LINE
  5
9AD5
330
9A58
100
AcDbEntity
  8
0
100
AcDbLine
 10
-26.03685638446016
 20
112.7493288727694
 30
0.0
 11
-27.45106994683326
 21
111.9328322918417
 31
0.0
  0
ELLIPSE
  5
9AD6
330
9A58
100
AcDbEntity
  8
0
100
AcDbEllipse
 10
29.82457932927712
 20
-44.8345112462817
 30
0.0
 11
1.24999999999987
 21
2.165063509461171
 31
0.0
210
0.0
220
0.0
230
1.0
 40
0.577350269189626
 41
3.742856870268578
 42
5.681921090500114
  0
ELLIPSE
  5
9AD7
330
9A58
100
AcDbEntity
  8
0
100
AcDbEllipse
 10
31.23879289165021
 20
-45.65100782720943
 30
0.0
 11
-1.25
 21
-2.165063509461097
 31
0.0
210
0.0
220
0.0
230
0.9999999999999998
 40
0.5773502691896259
 41
0.0
 42
6.283185307179586
  0
ELLIPSE
  5
9AD8
330
9A58
100
AcDbEntity
  8
0
100
AcDbEllipse
 10
29.82457932927712
 20
-28.50457962772719
 30
0.0
 11
1.24999999999987
 21
2.165063509461171
 31
0.0
210
0.0
220
0.0
230
1.0
 40
0.577350269189626
 41
3.742856870268578
 42
5.681921090500118
  0
ELLIPSE
  5
9AD9
330
9A58
100
AcDbEntity
  8
0
100
AcDbEllipse
 10
31.23879289165021
 20
-29.32107620865491
 30
0.0
 11
-1.25
 21
-2.165063509461097
 31
0.0
210
0.0
220
0.0
230
0.9999999999999998
 40
0.5773502691896259
 41
0.0
 42
6.283185307179586
  0
ELLIPSE
  5
9ADA
330
9A58
100
AcDbEntity
  8
0
100
AcDbEllipse
 10
29.82457932927712
 20
-12.17464800917266
 30
0.0
 11
1.24999999999987
 21
2.165063509461171
 31
0.0
210
0.0
220
0.0
230
1.0
 40
0.577350269189626
 41
3.742856870268578
 42
5.681921090500118
  0
ELLIPSE
  5
9ADB
330
9A58
100
AcDbEntity
  8
0
100
AcDbEllipse
 10
31.23879289165021
 20
-12.99114459010038
 30
0.0
 11
-1.25
 21
-2.165063509461097
 31
0.0
210
0.0
220
0.0
230
0.9999999999999998
 40
0.5773502691896259
 41
0.0
 42
6.283185307179586
  0
ELLIPSE
  5
9ADC
330
9A58
100
AcDbEntity
  8
0
100
AcDbEllipse
 10
29.82457932927712
 20
4.15528360938187
 30
0.0
 11
1.24999999999987
 21
2.165063509461171
 31
0.0
210
0.0
220
0.0
230
1.0
 40
0.577350269189626
 41
3.742856870268578
 42
5.681921090500117
  0
ELLIPSE
  5
9ADD
330
9A58
100
AcDbEntity
  8
0
100
AcDbEllipse
 10
31.23879289165021
 20
3.338787028454142
 30
0.0
 11
-1.25
 21
-2.165063509461097
 31
0.0
210
0.0
220
0.0
230
0.9999999999999998
 40
0.5773502691896259
 41
0.0
 42
6.283185307179586
  0
ELLIPSE
  5
9ADE
330
9A58
100
AcDbEntity
  8
0
100
AcDbEllipse
 10
29.82457932927712
 20
20.48521522793639
 30
0.0
 11
1.24999999999987
 21
2.165063509461171
 31
0.0
210
0.0
220
0.0
230
1.0
 40
0.577350269189626
 41
3.742856870268578
 42
5.681921090500118
  0
ELLIPSE
  5
9ADF
330
9A58
100
AcDbEntity
  8
0
100
AcDbEllipse
 10
31.23879289165021
 20
19.66871864700867
 30
0.0
 11
-1.25
 21
-2.165063509461097
 31
0.0
210
0.0
220
0.0
230
0.9999999999999998
 40
0.5773502691896259
 41
0.0
 42
6.283185307179586
  0
ELLIPSE
  5
9AE0
330
9A58
100
AcDbEntity
  8
0
100
AcDbEllipse
 10
-25.32974960327357
 20
-4.826178780823111
 30
0.0
 11
1.24999999999987
 21
2.165063509461172
 31
0.0
210
0.0
220
0.0
230
1.0
 40
0.5773502691896254
 41
3.742856870268582
 42
5.681921090500115
  0
ELLIPSE
  5
9AE1
330
9A58
100
AcDbEntity
  8
0
100
AcDbEllipse
 10
-23.91553604090046
 20
-5.642675361750835
 30
0.0
 11
1.249999999999999
 21
2.165063509461098
 31
0.0
210
0.0
220
0.0
230
1.0
 40
0.5773502691896255
 41
0.0
 42
6.283185307179586
  0
ELLIPSE
  5
9AE2
330
9A58
100
AcDbEntity
  8
0
100
AcDbEllipse
 10
-25.32974960327357
 20
11.50375283773141
 30
0.0
 11
1.24999999999987
 21
2.165063509461172
 31
0.0
210
0.0
220
0.0
230
1.0
 40
0.5773502691896254
 41
3.742856870268582
 42
5.681921090500115
  0
ELLIPSE
  5
9AE3
330
9A58
100
AcDbEntity
  8
0
100
AcDbEllipse
 10
-23.91553604090046
 20
10.68725625680369
 30
0.0
 11
1.249999999999999
 21
2.165063509461098
 31
0.0
210
0.0
220
0.0
230
1.0
 40
0.5773502691896255
 41
0.0
 42
6.283185307179586
  0
ELLIPSE
  5
9AE4
330
9A58
100
AcDbEntity
  8
0
100
AcDbEllipse
 10
-25.32974960327357
 20
27.83368445628594
 30
0.0
 11
1.24999999999987
 21
2.165063509461172
 31
0.0
210
0.0
220
0.0
230
1.0
 40
0.5773502691896254
 41
3.742856870268582
 42
5.681921090500117
  0
ELLIPSE
  5
9AE5
330
9A58
100
AcDbEntity
  8
0
100
AcDbEllipse
 10
-23.91553604090046
 20
27.01718787535822
 30
0.0
 11
1.249999999999999
 21
2.165063509461098
 31
0.0
210
0.0
220
0.0
230
1.0
 40
0.5773502691896255
 41
0.0
 42
6.283185307179586
  0
ELLIPSE
  5
9AE6
330
9A58
100
AcDbEntity
  8
0
100
AcDbEllipse
 10
-25.32974960327357
 20
44.16361607484046
 30
0.0
 11
1.24999999999987
 21
2.165063509461172
 31
0.0
210
0.0
220
0.0
230
1.0
 40
0.5773502691896254
 41
3.742856870268582
 42
5.681921090500117
  0
ELLIPSE
  5
9AE7
330
9A58
100
AcDbEntity
  8
0
100
AcDbEllipse
 10
-23.91553604090046
 20
43.34711949391272
 30
0.0
 11
1.249999999999999
 21
2.165063509461098
 31
0.0
210
0.0
220
0.0
230
1.0
 40
0.5773502691896255
 41
0.0
 42
6.283185307179586
  0
ELLIPSE
  5
9AE8
330
9A58
100
AcDbEntity
  8
0
100
AcDbEllipse
 10
-25.32974960327357
 20
60.49354769339498
 30
0.0
 11
1.24999999999987
 21
2.165063509461172
 31
0.0
210
0.0
220
0.0
230
1.0
 40
0.5773502691896254
 41
3.742856870268582
 42
5.681921090500117
  0
ELLIPSE
  5
9AE9
330
9A58
100
AcDbEntity
  8
0
100
AcDbEllipse
 10
-23.91553604090046
 20
59.67705111246726
 30
0.0
 11
1.249999999999999
 21
2.165063509461098
 31
0.0
210
0.0
220
0.0
230
1.0
 40
0.5773502691896255
 41
0.0
 42
6.283185307179586
  0
ELLIPSE
  5
9AEA
330
9A58
100
AcDbEntity
  8
0
100
AcDbEllipse
 10
-25.32974960327357
 20
76.82347931194951
 30
0.0
 11
1.24999999999987
 21
2.165063509461172
 31
0.0
210
0.0
220
0.0
230
1.0
 40
0.5773502691896254
 41
3.742856870268582
 42
5.681921090500117
  0
ELLIPSE
  5
9AEB
330
9A58
100
AcDbEntity
  8
0
100
AcDbEllipse
 10
-23.91553604090046
 20
76.00698273102178
 30
0.0
 11
1.249999999999999
 21
2.165063509461098
 31
0.0
210
0.0
220
0.0
230
1.0
 40
0.5773502691896255
 41
0.0
 42
6.283185307179586
  0
ENDBLK
  5
9A5A
330
9A58
100
AcDbEntity
  8
0
100
AcDbBlockEnd
  0
ENDSEC
  0
SECTION
  2
ENTITIES
  0
INSERT
  5
9AEC
330
1F
100
AcDbEntity
  8
0
100
AcDbBlockReference
  2
SAE380_76_2-Front
 10
0.0
 20
0.0
 30
0.0
  0
INSERT
  5
9AED
330
1F
100
AcDbEntity
  8
0
100
AcDbBlockReference
  2
SAE380_76_2-Left
 10
125.7000000000001
 20
0.0
 30
0.0
  0
INSERT
  5
9AEE
330
1F
100
AcDbEntity
  8
0
100
AcDbBlockReference
  2
SAE380_76_2-Right
 10
-125.7000000000001
 20
0.0
 30
0.0
  0
INSERT
  5
9AEF
330
1F
100
AcDbEntity
  8
0
100
AcDbBlockReference
  2
SAE380_76_2-Top
 10
0.0
 20
-48.20000000000001
 30
0.0
  0
INSERT
  5
9AF0
330
1F
100
AcDbEntity
  8
0
100
AcDbBlockReference
  2
SAE380_76_2-Bottom
 10
0.0
 20
198.2
 30
0.0
  0
INSERT
  5
9AF1
330
1F
100
AcDbEntity
  8
0
100
AcDbBlockReference
  2
SAE380_76_2-ISO
 10
184.6173217096347
 20
-160.9493288727695
 30
0.0
  0
MTEXT
  5
9AF2
330
1F
100
AcDbEntity
  8
0
100
AcDbMText
 10
0.0
 20
-180.4
 30
0.0
 40
15.4
 41
0.0
 71
     5
 72
     5
  1
SAE380/76/2
 73
     1
 44
1.0
1001
ACAD
1000
MTEXTBEGIN
1070
    73
1070
     1
1070
    44
1040
1.0
1070
    74
1070
     0
1000
MTEXTEND
  0
ENDSEC
  0
SECTION
  2
OBJECTS
  0
DICTIONARY
  5
C
330
0
100
AcDbDictionary
281
     1
  3
ACAD_CIP_PREVIOUS_PRODUCT_INFO
350
216
  3
ACAD_COLOR
350
6B
  3
ACAD_DETAILVIEWSTYLE
350
21B
  3
ACAD_GROUP
350
D
  3
ACAD_LAYOUT
350
1A
  3
ACAD_MATERIAL
350
6A
  3
ACAD_MLEADERSTYLE
350
12D
  3
ACAD_MLINESTYLE
350
17
  3
ACAD_PLOTSETTINGS
350
19
  3
ACAD_PLOTSTYLENAME
350
E
  3
ACAD_SCALELIST
350
10C
  3
ACAD_SECTIONVIEWSTYLE
350
219
  3
ACAD_TABLESTYLE
350
7E
  3
ACAD_VISUALSTYLE
350
EF
  3
ACDB_RECOMPOSE_DATA
350
9BF3
  3
AcDbVariableDictionary
350
5E
  3
DWGPROPS
350
9BF4
  0
DICTIONARY
  5
9B43
330
8
100
AcDbDictionary
280
     1
281
     1
  0
DICTIONARY
  5
1FF
330
2
100
AcDbDictionary
280
     1
281
     1
  3
ACAD_LAYERSTATES
360
200
  0
DICTIONARY
  5
13C
330
10
100
AcDbDictionary
280
     1
281
     1
  0
DICTIONARY
  5
1CE
330
1F
100
AcDbDictionary
280
     1
281
     1
  3
ACAD_LAYOUTSELFREF
360
9B4B
  0
DICTIONARY
  5
9AF6
330
D2
100
AcDbDictionary
280
     1
281
     1
  3
ACAD_LAYOUTSELFREF
360
9B54
  0
DICTIONARY
  5
9AF8
330
D6
100
AcDbDictionary
280
     1
281
     1
  3
ACAD_LAYOUTSELFREF
360
9B57
  0
XRECORD
  5
216
102
{ACAD_REACTORS
330
C
102
}
330
C
100
AcDbXrecord
280
     1
300
ACD
300
2021
300
87393ACD_2021_0F
  0
DICTIONARY
  5
6B
102
{ACAD_REACTORS
330
C
102
}
330
C
100
AcDbDictionary
281
     1
  0
DICTIONARY
  5
21B
102
{ACAD_REACTORS
330
C
102
}
330
C
100
AcDbDictionary
281
     1
  3
Metric50
350
21C
  0
DICTIONARY
  5
D
102
{ACAD_REACTORS
330
C
102
}
330
C
100
AcDbDictionary
281
     1
  0
DICTIONARY
  5
1A
102
{ACAD_REACTORS
330
C
102
}
330
C
100
AcDbDictionary
281
     1
  3
Layout1
350
D3
  3
Layout2
350
D7
  3
Model
350
22
  0
DICTIONARY
  5
6A
102
{ACAD_REACTORS
330
C
102
}
330
C
100
AcDbDictionary
281
     1
  3
ByBlock
350
ED
  3
ByLayer
350
EC
  3
Global
350
EE
  0
DICTIONARY
  5
12D
102
{ACAD_REACTORS
330
C
102
}
330
C
100
AcDbDictionary
281
     1
  3
Standard
350
12E
  0
DICTIONARY
  5
17
102
{ACAD_REACTORS
330
C
102
}
330
C
100
AcDbDictionary
281
     1
  3
Standard
350
18
  0
DICTIONARY
  5
19
102
{ACAD_REACTORS
330
C
102
}
330
C
100
AcDbDictionary
281
     1
  0
ACDBDICTIONARYWDFLT
  5
E
102
{ACAD_REACTORS
330
C
102
}
330
C
100
AcDbDictionary
281
     1
  3
Normal
350
F
100
AcDbDictionaryWithDefault
340
F
  0
DICTIONARY
  5
10C
102
{ACAD_REACTORS
330
C
102
}
330
C
100
AcDbDictionary
281
     1
  3
A0
350
10D
  3
A1
350
1BE
  3
A2
350
1BF
  3
A3
350
1C0
  3
A4
350
1C1
  3
A5
350
1C2
  3
A6
350
1C3
  3
A7
350
1C4
  3
A8
350
1C5
  3
A9
350
1C6
  3
B0
350
1C7
  3
B1
350
1C8
  3
B2
350
1C9
  3
B3
350
1CA
  3
B4
350
1CB
  3
B5
350
1CC
  3
B6
350
1CD
  0
DICTIONARY
  5
219
102
{ACAD_REACTORS
330
C
102
}
330
C
100
AcDbDictionary
281
     1
  3
Metric50
350
21A
  0
DICTIONARY
  5
7E
102
{ACAD_REACTORS
330
C
102
}
330
C
100
AcDbDictionary
281
     1
  3
Standard
350
7F
  0
DICTIONARY
  5
EF
102
{ACAD_REACTORS
330
C
102
}
330
C
100
AcDbDictionary
281
     1
  3
2dWireframe
350
F5
  3
Basic
350
F4
  3
Brighten
350
FB
  3
ColorChange
350
FF
  3
Conceptual
350
F8
  3
Dim
350
FA
  3
EdgeColorOff
350
1E6
  3
Facepattern
350
FE
  3
Flat
350
F0
  3
FlatWithEdges
350
F1
  3
Gouraud
350
F2
  3
GouraudWithEdges
350
F3
  3
Hidden
350
F7
  3
JitterOff
350
1E4
  3
Linepattern
350
FD
  3
OverhangOff
350
1E5
  3
Realistic
350
F9
  3
Shaded
350
1F3
  3
Shaded with edges
350
1F2
  3
Shades of Gray
350
1EF
  3
Sketchy
350
1F0
  3
Thicken
350
FC
  3
Wireframe
350
F6
  3
X-Ray
350
1F1
  0
XRECORD
  5
9BF3
102
{ACAD_REACTORS
330
C
102
}
330
C
100
AcDbXrecord
280
     1
 90
        1
330
7F
  0
DICTIONARY
  5
5E
102
{ACAD_REACTORS
330
C
102
}
330
C
100
AcDbDictionary
281
     1
  3
CANNOSCALE
350
146
  3
CENTEREXE
350
259
  3
CENTERLTYPEFILE
350
25A
  3
CMLEADERSTYLE
350
145
  3
CTABLESTYLE
350
84
  3
CVIEWDETAILSTYLE
350
227
  3
CVIEWSECTIONSTYLE
350
228
  3
DIMASSOC
350
5F
  3
HIDETEXT
350
63
  3
INDEXCTL
350
9BA0
  3
LAYEREVAL
350
1AE
  3
LAYERNOTIFY
350
1AF
  3
LIGHTINGUNITS
350
9B9E
  3
MSLTSCALE
350
9B9D
  3
PSOLHEIGHT
350
9BF0
  3
PSOLWIDTH
350
9BEF
  3
SORTENTS
350
9B9F
  3
XCLIPFRAME
350
9BF1
  0
XRECORD
  5
9BF4
102
{ACAD_REACTORS
330
C
102
}
330
C
100
AcDbXrecord
280
     1
  1
DWGPROPS COOKIE
  2

  3

  4

  6

  7

  8
truole
  9

300
=
301
=
302
=
303
=
304
=
305
=
306
=
307
=
308
=
309
=
 40
0.0078009259259259
 41
2460398.356956019
 42
2460398.375057871
  1

 90
        0
  0
DICTIONARY
  5
200
102
{ACAD_REACTORS
330
1FF
102
}
330
1FF
100
AcDbDictionary
281
     1
  0
XRECORD
  5
9B4B
102
{ACAD_REACTORS
330
1CE
102
}
330
1CE
100
AcDbXrecord
280
     1
340
1F
  0
XRECORD
  5
9B54
102
{ACAD_REACTORS
330
9AF6
102
}
330
9AF6
100
AcDbXrecord
280
     1
340
D2
  0
XRECORD
  5
9B57
102
{ACAD_REACTORS
330
9AF8
102
}
330
9AF8
100
AcDbXrecord
280
     1
340
D6
  0
ACDBDETAILVIEWSTYLE
  5
21C
102
{ACAD_XDICTIONARY
360
9C33
102
}
102
{ACAD_REACTORS
330
21B
102
}
330
21B
100
AcDbModelDocViewStyle
 70
     0
  3
Metric50
290
     0
100
AcDbDetailViewStyle
 70
     0
 71
     0
 90
        3
 71
     1
340
11
 40
5.0
340
0
 40
5.0
300

 40
0.0
280
     1
 71
     2
340
16
 90
       25
 71
     3
340
11
 40
5.0
 90
        0
 40
15.0
 90
        1
300
%<\AcVar ViewDetailId>% (%<\AcVar ViewScale \f "%sn">%)
 71
     4
340
16
 90
       25
340
16
 90
       25
280
     0
  0
LAYOUT
  5
D3
102
{ACAD_XDICTIONARY
360
9BF8
102
}
102
{ACAD_REACTORS
330
1A
102
}
330
1A
100
AcDbPlotSettings
  1

  2
C:\Documents and Settings\basas\Application Data\Autodesk\AutoCAD 2005\R16.1\enu\plotters\Default Windows System Printer.pc3
  4

  6

 40
0.0
 41
0.0
 42
0.0
 43
0.0
 44
0.0
 45
0.0
 46
0.0
 47
0.0
 48
0.0
 49
0.0
140
0.0
141
0.0
142
1.0
143
1.0
 70
   688
 72
     0
 73
     0
 74
     5
  7

 75
    16
147
1.0
148
0.0
149
0.0
100
AcDbLayout
  1
Layout1
 70
     1
 71
     1
 10
0.0
 20
0.0
 11
12.0
 21
9.0
 12
0.0
 22
0.0
 32
0.0
 14
0.0
 24
0.0
 34
0.0
 15
0.0
 25
0.0
 35
0.0
146
0.0
 13
0.0
 23
0.0
 33
0.0
 16
1.0
 26
0.0
 36
0.0
 17
0.0
 27
1.0
 37
0.0
 76
     0
330
D2
  0
LAYOUT
  5
D7
102
{ACAD_XDICTIONARY
360
9BFA
102
}
102
{ACAD_REACTORS
330
1A
102
}
330
1A
100
AcDbPlotSettings
  1

  2
C:\Documents and Settings\basas\Application Data\Autodesk\AutoCAD 2005\R16.1\enu\plotters\Default Windows System Printer.pc3
  4

  6

 40
0.0
 41
0.0
 42
0.0
 43
0.0
 44
0.0
 45
0.0
 46
0.0
 47
0.0
 48
0.0
 49
0.0
140
0.0
141
0.0
142
1.0
143
1.0
 70
   688
 72
     0
 73
     0
 74
     5
  7

 75
    16
147
1.0
148
0.0
149
0.0
100
AcDbLayout
  1
Layout2
 70
     1
 71
     2
 10
0.0
 20
0.0
 11
12.0
 21
9.0
 12
0.0
 22
0.0
 32
0.0
 14
0.0
 24
0.0
 34
0.0
 15
0.0
 25
0.0
 35
0.0
146
0.0
 13
0.0
 23
0.0
 33
0.0
 16
1.0
 26
0.0
 36
0.0
 17
0.0
 27
1.0
 37
0.0
 76
     0
330
D6
  0
LAYOUT
  5
22
102
{ACAD_XDICTIONARY
360
9BF5
102
}
102
{ACAD_REACTORS
330
1A
102
}
330
1A
100
AcDbPlotSettings
  1

  2
none_device
  4
ISO_A4_(210.00_x_297.00_MM)
  6

 40
7.5
 41
20.0
 42
7.5
 43
20.0
 44
210.0
 45
297.0
 46
11.54999923706054
 47
-13.65000009536743
 48
0.0
 49
0.0
140
0.0
141
0.0
142
1.0
143
8.704084754739808
 70
 11952
 72
     1
 73
     0
 74
     0
  7

 75
     0
147
0.1148885871608098
148
0.0
149
0.0
100
AcDbLayout
  1
Model
 70
     1
 71
     0
 10
0.0
 20
0.0
 11
12.0
 21
9.0
 12
0.0
 22
0.0
 32
0.0
 14
0.0
 24
0.0
 34
0.0
 15
0.0
 25
0.0
 35
0.0
146
0.0
 13
0.0
 23
0.0
 33
0.0
 16
1.0
 26
0.0
 36
0.0
 17
0.0
 27
1.0
 37
0.0
 76
     0
330
1F
331
EA
1001
ACAD_PSEXT
1000
None
1000
None
1000
Not applicable
1000
The layout will not be plotted unless a new plotter configuration name is selected.
1070
     0
  0
MATERIAL
  5
ED
102
{ACAD_XDICTIONARY
360
1F9
102
}
102
{ACAD_REACTORS
330
6A
102
}
330
6A
100
AcDbMaterial
  1
ByBlock
  0
MATERIAL
  5
EC
102
{ACAD_XDICTIONARY
360
1F7
102
}
102
{ACAD_REACTORS
330
6A
102
}
330
6A
100
AcDbMaterial
  1
ByLayer
  0
MATERIAL
  5
EE
102
{ACAD_XDICTIONARY
360
173
102
}
102
{ACAD_REACTORS
330
6A
102
}
330
6A
100
AcDbMaterial
  1
Global
 43
0.0007999999797903
 43
0.0
 43
0.0
 43
0.0
 43
0.0
 43
0.0007999999797903
 43
0.0
 43
0.0
 43
0.0
 43
0.0
 43
1.0
 43
0.0
 43
0.0
 43
0.0
 43
0.0
 43
1.0
 49
0.0007999999797903
 49
0.0
 49
0.0
 49
0.0
 49
0.0
 49
0.0007999999797903
 49
0.0
 49
0.0
 49
0.0
 49
0.0
 49
1.0
 49
0.0
 49
0.0
 49
0.0
 49
0.0
 49
1.0
142
0.0007999999797903
142
0.0
142
0.0
142
0.0
142
0.0
142
0.0007999999797903
142
0.0
142
0.0
142
0.0
142
0.0
142
1.0
142
0.0
142
0.0
142
0.0
142
0.0
142
1.0
144
0.0007999999797903
144
0.0
144
0.0
144
0.0
144
0.0
144
0.0007999999797903
144
0.0
144
0.0
144
0.0
144
0.0
144
1.0
144
0.0
144
0.0
144
0.0
144
0.0
144
1.0
1001
ACAD
1070
    -1
1070
     3
1070
     0
1000

1071
        0
1070
     0
  0
MLEADERSTYLE
  5
12E
102
{ACAD_XDICTIONARY
360
9C1F
102
}
102
{ACAD_REACTORS
330
12D
102
}
330
12D
100
AcDbMLeaderStyle
170
     2
171
     1
172
     0
 90
        2
 40
0.0
 41
0.0
173
     1
 91
-1056964608
340
14
 92
       -2
290
     1
 42
2.0
291
     1
 43
8.0
  3
Standard
 44
4.0
300

342
11
174
     1
178
     1
175
     1
176
     0
 93
-1056964608
 45
4.0
292
     0
297
     0
 46
4.0
 94
-1056964608
 47
1.0
 49
1.0
140
1.0
293
     1
141
0.0
294
     1
177
     0
142
1.0
295
     0
296
     0
143
3.75
1001
ACAD_MLEADERVER
1070
     2
  0
MLINESTYLE
  5
18
102
{ACAD_REACTORS
330
17
102
}
330
17
100
AcDbMlineStyle
  2
STANDARD
 70
     0
  3

 62
   256
 51
90.0
 52
90.0
 71
     2
 49
0.5
 62
   256
  6
BYLAYER
 49
-0.5
 62
   256
  6
BYLAYER
  0
ACDBPLACEHOLDER
  5
F
102
{ACAD_REACTORS
330
E
102
}
330
E
  0
SCALE
  5
10D
102
{ACAD_REACTORS
330
10C
102
}
330
10C
100
AcDbScale
 70
     0
300
1:1
140
1.0
141
1.0
290
     1
  0
SCALE
  5
1BE
102
{ACAD_REACTORS
330
10C
102
}
330
10C
100
AcDbScale
 70
     0
300
1:2
140
1.0
141
2.0
290
     0
  0
SCALE
  5
1BF
102
{ACAD_REACTORS
330
10C
102
}
330
10C
100
AcDbScale
 70
     0
300
1:4
140
1.0
141
4.0
290
     0
  0
SCALE
  5
1C0
102
{ACAD_REACTORS
330
10C
102
}
330
10C
100
AcDbScale
 70
     0
300
1:5
140
1.0
141
5.0
290
     0
  0
SCALE
  5
1C1
102
{ACAD_REACTORS
330
10C
102
}
330
10C
100
AcDbScale
 70
     0
300
1:8
140
1.0
141
8.0
290
     0
  0
SCALE
  5
1C2
102
{ACAD_REACTORS
330
10C
102
}
330
10C
100
AcDbScale
 70
     0
300
1:10
140
1.0
141
10.0
290
     0
  0
SCALE
  5
1C3
102
{ACAD_REACTORS
330
10C
102
}
330
10C
100
AcDbScale
 70
     0
300
1:16
140
1.0
141
16.0
290
     0
  0
SCALE
  5
1C4
102
{ACAD_REACTORS
330
10C
102
}
330
10C
100
AcDbScale
 70
     0
300
1:20
140
1.0
141
20.0
290
     0
  0
SCALE
  5
1C5
102
{ACAD_REACTORS
330
10C
102
}
330
10C
100
AcDbScale
 70
     0
300
1:30
140
1.0
141
30.0
290
     0
  0
SCALE
  5
1C6
102
{ACAD_REACTORS
330
10C
102
}
330
10C
100
AcDbScale
 70
     0
300
1:40
140
1.0
141
40.0
290
     0
  0
SCALE
  5
1C7
102
{ACAD_REACTORS
330
10C
102
}
330
10C
100
AcDbScale
 70
     0
300
1:50
140
1.0
141
50.0
290
     0
  0
SCALE
  5
1C8
102
{ACAD_REACTORS
330
10C
102
}
330
10C
100
AcDbScale
 70
     0
300
1:100
140
1.0
141
100.0
290
     0
  0
SCALE
  5
1C9
102
{ACAD_REACTORS
330
10C
102
}
330
10C
100
AcDbScale
 70
     0
300
2:1
140
2.0
141
1.0
290
     0
  0
SCALE
  5
1CA
102
{ACAD_REACTORS
330
10C
102
}
330
10C
100
AcDbScale
 70
     0
300
4:1
140
4.0
141
1.0
290
     0
  0
SCALE
  5
1CB
102
{ACAD_REACTORS
330
10C
102
}
330
10C
100
AcDbScale
 70
     0
300
8:1
140
8.0
141
1.0
290
     0
  0
SCALE
  5
1CC
102
{ACAD_REACTORS
330
10C
102
}
330
10C
100
AcDbScale
 70
     0
300
10:1
140
10.0
141
1.0
290
     0
  0
SCALE
  5
1CD
102
{ACAD_REACTORS
330
10C
102
}
330
10C
100
AcDbScale
 70
     0
300
100:1
140
100.0
141
1.0
290
     0
  0
ACDBSECTIONVIEWSTYLE
  5
21A
102
{ACAD_XDICTIONARY
360
9C31
102
}
102
{ACAD_REACTORS
330
219
102
}
330
219
100
AcDbModelDocViewStyle
 70
     0
  3
Metric50
290
     0
100
AcDbSectionViewStyle
 70
     0
 71
     0
 90
      102
 71
     1
340
11
 40
5.0
340
0
340
0
 40
5.0
300
I, O, Q, S, X, Z
 40
10.0
 90
        0
 40
2.5
 90
        0
 71
     2
340
16
 90
       25
340
16
 90
       50
 40
5.0
 40
2.5
 40
5.0
 71
     3
340
11
 40
5.0
 90
        0
 40
15.0
 90
        1
300
%<\AcVar ViewSectionStartId>%-%<\AcVar ViewSectionEndId>% (%<\AcVar ViewScale \f "%sn">%)
 71
     4
300
ANSI31
 40
1.0
 90
        0
290
     0
290
     0
 90
        6
 40
0.0
 40
1.570796326794896
 40
0.2617993877991494
 40
1.308996938995747
 40
-0.2617993877991494
 40
1.832595714594046
  0
TABLESTYLE
  5
7F
102
{ACAD_XDICTIONARY
360
162
102
}
102
{ACAD_REACTORS
330
7E
102
}
330
7E
100
AcDbTableStyle
  3
Standard
 70
     0
 71
     0
 40
1.5
 41
1.5
280
     0
281
     0
  7
Standard
140
4.5
170
     2
 62
     0
 63
     7
283
     0
274
    -2
284
     1
 64
     0
275
    -2
285
     1
 65
     0
276
    -2
286
     1
 66
     0
277
    -2
287
     1
 67
     0
278
    -2
288
     1
 68
     0
279
    -2
289
     1
 69
     0
  7
Standard
140
6.0
170
     5
 62
     0
 63
     7
283
     0
274
    -2
284
     1
 64
     0
275
    -2
285
     1
 65
     0
276
    -2
286
     1
 66
     0
277
    -2
287
     1
 67
     0
278
    -2
288
     1
 68
     0
279
    -2
289
     1
 69
     0
  7
Standard
140
4.5
170
     5
 62
     0
 63
     7
283
     0
274
    -2
284
     1
 64
     0
275
    -2
285
     1
 65
     0
276
    -2
286
     1
 66
     0
277
    -2
287
     1
 67
     0
278
    -2
288
     1
 68
     0
279
    -2
289
     1
 69
     0
  0
VISUALSTYLE
  5
F5
102
{ACAD_XDICTIONARY
360
9C09
102
}
102
{ACAD_REACTORS
330
EF
102
}
330
EF
100
AcDbVisualStyle
  2
2dWireframe
 70
     4
 71
     0
 72
     2
 73
     1
 90
        0
 40
-0.6
 41
-30.0
 62
     5
 63
     7
 74
     1
 91
        4
 64
     7
 65
   257
 75
     1
175
     1
 42
1.0
 92
        0
 66
   257
 43
1.0
 76
     1
 77
     6
 78
     2
 67
     7
 79
     5
170
     0
171
     0
290
     0
174
     0
 93
        1
 44
0.0
173
     0
291
     0
 45
0.0
1001
ACAD
1000
AcDbSavedByObjectVersion
1070
     0
  0
VISUALSTYLE
  5
F4
102
{ACAD_XDICTIONARY
360
9C07
102
}
102
{ACAD_REACTORS
330
EF
102
}
330
EF
100
AcDbVisualStyle
  2
Basic
 70
     7
 71
     1
 72
     0
 73
     1
 90
        0
 40
-0.6
 41
-30.0
 62
     5
 63
     7
 74
     0
 91
        4
 64
     7
 65
   257
 75
     1
175
     1
 42
1.0
 92
        8
 66
     7
 43
1.0
 76
     1
 77
     6
 78
     2
 67
     7
 79
     5
170
     0
171
     0
290
     0
174
     0
 93
        1
 44
0.0
173
     0
291
     1
 45
0.0
1001
ACAD
1000
AcDbSavedByObjectVersion
1070
     0
  0
VISUALSTYLE
  5
FB
102
{ACAD_XDICTIONARY
360
9C15
102
}
102
{ACAD_REACTORS
330
EF
102
}
330
EF
100
AcDbVisualStyle
  2
Brighten
 70
    12
 71
     2
 72
     2
 73
     1
 90
        0
 40
-0.6
 41
-30.0
 62
     5
 63
     7
 74
     1
 91
        4
 64
     7
 65
   257
 75
     1
175
     1
 42
1.0
 92
        8
 66
     7
 43
1.0
 76
     1
 77
     6
 78
     2
 67
     7
 79
     5
170
     0
171
     0
290
     0
174
     0
 93
        1
 44
50.0
173
     0
291
     1
 45
0.0
1001
ACAD
1000
AcDbSavedByObjectVersion
1070
     0
  0
VISUALSTYLE
  5
FF
102
{ACAD_XDICTIONARY
360
9C1D
102
}
102
{ACAD_REACTORS
330
EF
102
}
330
EF
100
AcDbVisualStyle
  2
ColorChange
 70
    16
 71
     2
 72
     2
 73
     3
 90
        0
 40
-0.6
 41
-30.0
 62
     5
 63
     8
 74
     1
 91
        4
 64
     7
 65
   257
 75
     1
175
     1
 42
1.0
 92
        8
 66
     8
 43
1.0
 76
     1
 77
     6
 78
     2
 67
     7
 79
     5
170
     0
171
     0
290
     0
174
     0
 93
        1
 44
0.0
173
     0
291
     1
 45
0.0
1001
ACAD
1000
AcDbSavedByObjectVersion
1070
     0
  0
VISUALSTYLE
  5
F8
102
{ACAD_XDICTIONARY
360
9C0F
102
}
102
{ACAD_REACTORS
330
EF
102
}
330
EF
100
AcDbVisualStyle
  2
Conceptual
 70
     9
 71
     3
 72
     2
 73
     1
 90
        0
 40
-0.6
 41
-30.0
 62
     5
 63
     7
 74
     2
 91
        2
 64
     7
 65
   257
 75
     1
175
     1
 42
40.0
 92
        8
 66
     7
 43
1.0
 76
     1
 77
     6
 78
     2
 67
     7
 79
     3
170
     0
171
     0
290
     0
174
     0
 93
        1
 44
0.0
173
     0
291
     0
 45
0.0
1001
ACAD
1000
AcDbSavedByObjectVersion
1070
     0
  0
VISUALSTYLE
  5
FA
102
{ACAD_XDICTIONARY
360
9C13
102
}
102
{ACAD_REACTORS
330
EF
102
}
330
EF
100
AcDbVisualStyle
  2
Dim
 70
    11
 71
     2
 72
     2
 73
     1
 90
        0
 40
-0.6
 41
-30.0
 62
     5
 63
     7
 74
     1
 91
        4
 64
     7
 65
   257
 75
     1
175
     1
 42
1.0
 92
        8
 66
     7
 43
1.0
 76
     1
 77
     6
 78
     2
 67
     7
 79
     5
170
     0
171
     0
290
     0
174
     0
 93
        1
 44
-50.0
173
     0
291
     1
 45
0.0
1001
ACAD
1000
AcDbSavedByObjectVersion
1070
     0
  0
VISUALSTYLE
  5
1E6
102
{ACAD_XDICTIONARY
360
9C25
102
}
102
{ACAD_REACTORS
330
EF
102
}
330
EF
100
AcDbVisualStyle
  2
EdgeColorOff
 70
    22
 71
     2
 72
     2
 73
     0
 90
        0
 40
-0.6
 41
-30.0
 62
     5
 63
     7
 74
     1
 91
        4
 64
     7
 65
   257
 75
     1
175
     1
 42
1.0
 92
        8
 66
     7
 43
1.0
 76
     1
 77
     6
 78
     2
 67
     7
 79
     5
170
     0
171
     0
290
     0
174
     0
 93
        1
 44
0.0
173
     0
291
     1
 45
0.0
1001
ACAD
1000
AcDbSavedByObjectVersion
1070
     0
  0
VISUALSTYLE
  5
FE
102
{ACAD_XDICTIONARY
360
9C1B
102
}
102
{ACAD_REACTORS
330
EF
102
}
330
EF
100
AcDbVisualStyle
  2
Facepattern
 70
    15
 71
     2
 72
     2
 73
     1
 90
        0
 40
-0.6
 41
-30.0
 62
     5
 63
     7
 74
     1
 91
        4
 64
     7
 65
   257
 75
     1
175
     1
 42
1.0
 92
        8
 66
     7
 43
1.0
 76
     1
 77
     6
 78
     2
 67
     7
 79
     5
170
     0
171
     0
290
     0
174
     0
 93
        1
 44
0.0
173
     0
291
     1
 45
0.0
1001
ACAD
1000
AcDbSavedByObjectVersion
1070
     0
  0
VISUALSTYLE
  5
F0
102
{ACAD_XDICTIONARY
360
9BFF
102
}
102
{ACAD_REACTORS
330
EF
102
}
330
EF
100
AcDbVisualStyle
  2
Flat
 70
     0
 71
     2
 72
     1
 73
     1
 90
        2
 40
-0.6
 41
30.0
 62
     5
 63
     7
 74
     0
 91
        0
 64
     7
 65
   257
 75
     1
175
     1
 42
1.0
 92
        8
 66
     7
 43
1.0
 76
     1
 77
     6
 78
     2
 67
     7
 79
     5
170
     0
171
     0
290
     0
174
     0
 93
       13
 44
0.0
173
     0
291
     1
 45
0.0
1001
ACAD
1000
AcDbSavedByObjectVersion
1070
     0
  0
VISUALSTYLE
  5
F1
102
{ACAD_XDICTIONARY
360
9C01
102
}
102
{ACAD_REACTORS
330
EF
102
}
330
EF
100
AcDbVisualStyle
  2
FlatWithEdges
 70
     1
 71
     2
 72
     1
 73
     1
 90
        2
 40
-0.6
 41
30.0
 62
     5
 63
     7
 74
     1
 91
        0
 64
     7
 65
   257
 75
     1
175
     1
 42
1.0
 92
        0
 66
   257
 43
1.0
 76
     1
 77
     6
 78
     2
 67
     7
 79
     5
170
     0
171
     0
290
     0
174
     0
 93
       13
 44
0.0
173
     0
291
     1
 45
0.0
1001
ACAD
1000
AcDbSavedByObjectVersion
1070
     0
  0
VISUALSTYLE
  5
F2
102
{ACAD_XDICTIONARY
360
9C03
102
}
102
{ACAD_REACTORS
330
EF
102
}
330
EF
100
AcDbVisualStyle
  2
Gouraud
 70
     2
 71
     2
 72
     2
 73
     1
 90
        2
 40
-0.6
 41
30.0
 62
     5
 63
     7
 74
     0
 91
        0
 64
     7
 65
   257
 75
     1
175
     1
 42
1.0
 92
        0
 66
     7
 43
1.0
 76
     1
 77
     6
 78
     2
 67
     7
 79
     5
170
     0
171
     0
290
     0
174
     0
 93
       13
 44
0.0
173
     0
291
     1
 45
0.0
1001
ACAD
1000
AcDbSavedByObjectVersion
1070
     0
  0
VISUALSTYLE
  5
F3
102
{ACAD_XDICTIONARY
360
9C05
102
}
102
{ACAD_REACTORS
330
EF
102
}
330
EF
100
AcDbVisualStyle
  2
GouraudWithEdges
 70
     3
 71
     2
 72
     2
 73
     1
 90
        2
 40
-0.6
 41
30.0
 62
     5
 63
     7
 74
     1
 91
        0
 64
     7
 65
   257
 75
     1
175
     1
 42
1.0
 92
        0
 66
   257
 43
1.0
 76
     1
 77
     6
 78
     2
 67
     7
 79
     5
170
     0
171
     0
290
     0
174
     0
 93
       13
 44
0.0
173
     0
291
     1
 45
0.0
1001
ACAD
1000
AcDbSavedByObjectVersion
1070
     0
  0
VISUALSTYLE
  5
F7
102
{ACAD_XDICTIONARY
360
9C0D
102
}
102
{ACAD_REACTORS
330
EF
102
}
330
EF
100
AcDbVisualStyle
  2
Hidden
 70
     6
 71
     1
 72
     2
 73
     2
 90
        0
 40
-0.6
 41
-30.0
 62
     5
 63
     7
 74
     2
 91
        2
 64
     7
 65
   257
 75
     2
175
     1
 42
40.0
 92
        0
 66
   257
 43
1.0
 76
     1
 77
     6
 78
     2
 67
     7
 79
     3
170
     0
171
     0
290
     0
174
     0
 93
        1
 44
0.0
173
     0
291
     0
 45
0.0
1001
ACAD
1000
AcDbSavedByObjectVersion
1070
     0
  0
VISUALSTYLE
  5
1E4
102
{ACAD_XDICTIONARY
360
9C21
102
}
102
{ACAD_REACTORS
330
EF
102
}
330
EF
100
AcDbVisualStyle
  2
JitterOff
 70
    20
 71
     2
 72
     2
 73
     0
 90
        0
 40
-0.6
 41
-30.0
 62
     5
 63
     7
 74
     1
 91
        4
 64
     7
 65
   257
 75
     1
175
     1
 42
1.0
 92
       10
 66
     7
 43
1.0
 76
     1
 77
     6
 78
     2
 67
     7
 79
     5
170
     0
171
     0
290
     0
174
     0
 93
        1
 44
0.0
173
     0
291
     1
 45
0.0
1001
ACAD
1000
AcDbSavedByObjectVersion
1070
     0
  0
VISUALSTYLE
  5
FD
102
{ACAD_XDICTIONARY
360
9C19
102
}
102
{ACAD_REACTORS
330
EF
102
}
330
EF
100
AcDbVisualStyle
  2
Linepattern
 70
    14
 71
     2
 72
     2
 73
     1
 90
        0
 40
-0.6
 41
-30.0
 62
     5
 63
     7
 74
     1
 91
        4
 64
     7
 65
   257
 75
     7
175
     7
 42
1.0
 92
        8
 66
     7
 43
1.0
 76
     1
 77
     6
 78
     2
 67
     7
 79
     5
170
     0
171
     0
290
     0
174
     0
 93
        1
 44
0.0
173
     0
291
     1
 45
0.0
1001
ACAD
1000
AcDbSavedByObjectVersion
1070
     0
  0
VISUALSTYLE
  5
1E5
102
{ACAD_XDICTIONARY
360
9C23
102
}
102
{ACAD_REACTORS
330
EF
102
}
330
EF
100
AcDbVisualStyle
  2
OverhangOff
 70
    21
 71
     2
 72
     2
 73
     0
 90
        0
 40
-0.6
 41
-30.0
 62
     5
 63
     7
 74
     1
 91
        4
 64
     7
 65
   257
 75
     1
175
     1
 42
1.0
 92
        9
 66
     7
 43
1.0
 76
     1
 77
     6
 78
     2
 67
     7
 79
     5
170
     0
171
     0
290
     0
174
     0
 93
        1
 44
0.0
173
     0
291
     1
 45
0.0
1001
ACAD
1000
AcDbSavedByObjectVersion
1070
     0
  0
VISUALSTYLE
  5
F9
102
{ACAD_XDICTIONARY
360
9C11
102
}
102
{ACAD_REACTORS
330
EF
102
}
330
EF
100
AcDbVisualStyle
  2
Realistic
 70
     8
 71
     2
 72
     2
 73
     0
 90
        2
 40
-0.6
 41
30.0
 62
     5
 63
     7
 74
     0
 91
        0
 64
     7
 65
   257
 75
     1
175
     1
 42
1.0
 92
        8
 66
   257
 43
1.0
 76
     1
 77
     6
 78
     2
 67
     7
 79
     3
170
     0
171
     0
290
     0
174
     0
 93
       13
 44
0.0
173
     0
291
     0
 45
0.0
1001
ACAD
1000
AcDbSavedByObjectVersion
1070
     0
  0
VISUALSTYLE
  5
1F3
102
{ACAD_XDICTIONARY
360
9C2F
102
}
102
{ACAD_REACTORS
330
EF
102
}
330
EF
100
AcDbVisualStyle
  2
Shaded
 70
    27
 71
     2
 72
     2
 73
     1
 90
        2
 40
-0.6
 41
30.0
 62
     5
 63
     7
 74
     0
 91
        4
 64
     7
 65
   257
 75
     1
175
     1
 42
1.0
 92
        8
 66
   257
 43
1.0
 76
     1
 77
     6
 78
     2
 67
     8
 79
     3
170
     0
171
     0
290
     0
174
     0
 93
        5
 44
0.0
173
     0
291
     0
 45
0.0
1001
ACAD
1000
AcDbSavedByObjectVersion
1070
     0
  0
VISUALSTYLE
  5
1F2
102
{ACAD_XDICTIONARY
360
9C2D
102
}
102
{ACAD_REACTORS
330
EF
102
}
330
EF
100
AcDbVisualStyle
  2
Shaded with edges
 70
    26
 71
     2
 72
     2
 73
     1
 90
        2
 40
-0.6
 41
30.0
 62
     5
 63
     7
 74
     1
 91
        2
 64
     7
 65
   257
 75
     2
175
     1
 42
1.0
 92
        8
 66
   257
 43
1.0
 76
     1
 77
     6
 78
     2
 67
     7
 79
     3
170
     0
171
     0
290
     0
174
     0
 93
        5
 44
0.0
173
     0
291
     0
 45
0.0
1001
ACAD
1000
AcDbSavedByObjectVersion
1070
     0
  0
VISUALSTYLE
  5
1EF
102
{ACAD_XDICTIONARY
360
9C27
102
}
102
{ACAD_REACTORS
330
EF
102
}
330
EF
100
AcDbVisualStyle
  2
Shades of Gray
 70
    23
 71
     2
 72
     2
 73
     3
 90
        0
 40
-0.6
 41
-30.0
 62
     5
 63
     7
 74
     2
 91
        2
 64
     7
 65
     7
 75
     1
175
     1
 42
40.0
 92
        8
 66
     7
 43
1.0
 76
     1
 77
     6
 78
     2
 67
     7
 79
     3
170
     0
171
     0
290
     0
174
     0
 93
        1
 44
0.0
173
     0
291
     0
 45
0.0
1001
ACAD
1000
AcDbSavedByObjectVersion
1070
     0
  0
VISUALSTYLE
  5
1F0
102
{ACAD_XDICTIONARY
360
9C29
102
}
102
{ACAD_REACTORS
330
EF
102
}
330
EF
100
AcDbVisualStyle
  2
Sketchy
 70
    24
 71
     1
 72
     2
 73
     2
 90
        0
 40
-0.6
 41
-30.0
 62
     5
 63
     7
 74
     2
 91
        2
 64
     7
 65
     7
 75
     1
175
     1
 42
40.0
 92
       11
 66
     7
 43
1.0
 76
     1
 77
     6
 78
     2
 67
     7
 79
     6
170
     0
171
     0
290
     0
174
     0
 93
        1
 44
0.0
173
     0
291
     0
 45
0.0
1001
ACAD
1000
AcDbSavedByObjectVersion
1070
     0
  0
VISUALSTYLE
  5
FC
102
{ACAD_XDICTIONARY
360
9C17
102
}
102
{ACAD_REACTORS
330
EF
102
}
330
EF
100
AcDbVisualStyle
  2
Thicken
 70
    13
 71
     2
 72
     2
 73
     1
 90
        0
 40
-0.6
 41
-30.0
 62
     5
 63
     7
 74
     1
 91
        4
 64
     7
 65
   257
 75
     1
175
     1
 42
1.0
 92
       12
 66
     7
 43
1.0
 76
     1
 77
     6
 78
     2
 67
     7
 79
     5
170
     0
171
     0
290
     0
174
     0
 93
        1
 44
0.0
173
     0
291
     1
 45
0.0
1001
ACAD
1000
AcDbSavedByObjectVersion
1070
     0
  0
VISUALSTYLE
  5
F6
102
{ACAD_XDICTIONARY
360
9C0B
102
}
102
{ACAD_REACTORS
330
EF
102
}
330
EF
100
AcDbVisualStyle
  2
Wireframe
 70
     5
 71
     0
 72
     2
 73
     0
 90
        0
 40
-0.6
 41
-30.0
 62
     5
 63
     7
 74
     1
 91
        4
 64
     7
 65
   257
 75
     1
175
     1
 42
1.0
 92
        0
 66
   257
 43
1.0
 76
     1
 77
     6
 78
     2
 67
     7
 79
     3
170
     0
171
     0
290
     0
174
     0
 93
        1
 44
0.0
173
     0
291
     0
 45
0.0
1001
ACAD
1000
AcDbSavedByObjectVersion
1070
     0
  0
VISUALSTYLE
  5
1F1
102
{ACAD_XDICTIONARY
360
9C2B
102
}
102
{ACAD_REACTORS
330
EF
102
}
330
EF
100
AcDbVisualStyle
  2
X-Ray
 70
    25
 71
     2
 72
     2
 73
     1
 90
        1
 40
0.5
 41
-30.0
 62
     5
 63
     7
 74
     1
 91
        0
 64
     7
 65
   257
 75
     1
175
     1
 42
1.0
 92
        8
 66
     7
 43
1.0
 76
     1
 77
     6
 78
     2
 67
     7
 79
     3
170
     0
171
     0
290
     0
174
     0
 93
       13
 44
0.0
173
     0
291
     0
 45
0.0
1001
ACAD
1000
AcDbSavedByObjectVersion
1070
     0
  0
DICTIONARYVAR
  5
146
102
{ACAD_REACTORS
330
5E
102
}
330
5E
100
DictionaryVariables
280
     0
  1
1:1
  0
DICTIONARYVAR
  5
259
102
{ACAD_REACTORS
330
5E
102
}
330
5E
100
DictionaryVariables
280
     0
  1
3.500000
  0
DICTIONARYVAR
  5
25A
102
{ACAD_REACTORS
330
5E
102
}
330
5E
100
DictionaryVariables
280
     0
  1
acadiso.lin
  0
DICTIONARYVAR
  5
145
102
{ACAD_REACTORS
330
5E
102
}
330
5E
100
DictionaryVariables
280
     0
  1
STANDARD
  0
DICTIONARYVAR
  5
84
102
{ACAD_REACTORS
330
5E
102
}
330
5E
100
DictionaryVariables
280
     0
  1
STANDARD
  0
DICTIONARYVAR
  5
227
102
{ACAD_REACTORS
330
5E
102
}
330
5E
100
DictionaryVariables
280
     0
  1
Metric50
  0
DICTIONARYVAR
  5
228
102
{ACAD_REACTORS
330
5E
102
}
330
5E
100
DictionaryVariables
280
     0
  1
Metric50
  0
DICTIONARYVAR
  5
5F
102
{ACAD_REACTORS
330
5E
102
}
330
5E
100
DictionaryVariables
280
     0
  1
2
  0
DICTIONARYVAR
  5
63
102
{ACAD_REACTORS
330
5E
102
}
330
5E
100
DictionaryVariables
280
     0
  1
1
  0
DICTIONARYVAR
  5
9BA0
102
{ACAD_REACTORS
330
5E
102
}
330
5E
100
DictionaryVariables
280
     0
  1
0
  0
DICTIONARYVAR
  5
1AE
102
{ACAD_REACTORS
330
5E
102
}
330
5E
100
DictionaryVariables
280
     0
  1
0
  0
DICTIONARYVAR
  5
1AF
102
{ACAD_REACTORS
330
5E
102
}
330
5E
100
DictionaryVariables
280
     0
  1
0
  0
DICTIONARYVAR
  5
9B9E
102
{ACAD_REACTORS
330
5E
102
}
330
5E
100
DictionaryVariables
280
     0
  1
2
  0
DICTIONARYVAR
  5
9B9D
102
{ACAD_REACTORS
330
5E
102
}
330
5E
100
DictionaryVariables
280
     0
  1
1
  0
DICTIONARYVAR
  5
9BF0
102
{ACAD_REACTORS
330
5E
102
}
330
5E
100
DictionaryVariables
280
     0
  1
80.000000
  0
DICTIONARYVAR
  5
9BEF
102
{ACAD_REACTORS
330
5E
102
}
330
5E
100
DictionaryVariables
280
     0
  1
5.000000
  0
DICTIONARYVAR
  5
9B9F
102
{ACAD_REACTORS
330
5E
102
}
330
5E
100
DictionaryVariables
280
     0
  1
127
  0
DICTIONARYVAR
  5
9BF1
102
{ACAD_REACTORS
330
5E
102
}
330
5E
100
DictionaryVariables
280
     0
  1
2
  0
DICTIONARY
  5
9C33
330
21C
100
AcDbDictionary
280
     1
281
     1
  3
ACAD_XREC_ROUNDTRIP
360
9C34
  0
DICTIONARY
  5
9BF8
330
D3
100
AcDbDictionary
280
     1
281
     1
  3
ACAD_XREC_ROUNDTRIP
360
9BF9
  0
DICTIONARY
  5
9BFA
330
D7
100
AcDbDictionary
280
     1
281
     1
  3
ACAD_XREC_ROUNDTRIP
360
9BFB
  0
DICTIONARY
  5
9BF5
330
22
100
AcDbDictionary
280
     1
281
     1
  3
ACAD_XREC_ROUNDTRIP
360
9BF6
  0
DICTIONARY
  5
1F9
330
ED
100
AcDbDictionary
280
     1
281
     1
  3
ACAD_XREC_ROUNDTRIP
360
9BFD
  3
FBXASSET
360
1FA
  0
DICTIONARY
  5
1F7
330
EC
100
AcDbDictionary
280
     1
281
     1
  3
ACAD_XREC_ROUNDTRIP
360
9BFC
  3
FBXASSET
360
1F8
  0
DICTIONARY
  5
173
330
EE
100
AcDbDictionary
280
     1
281
     1
  3
ACAD_XREC_ROUNDTRIP
360
9BFE
  3
BUMPTILE
360
175
  3
DIFFUSETILE
360
174
  3
FBXASSET
360
1FB
  3
OPACITYTILE
360
176
  3
REFLECTIONTILE
360
177
  0
DICTIONARY
  5
9C1F
330
12E
100
AcDbDictionary
280
     1
281
     1
  3
ACAD_XREC_ROUNDTRIP
360
9C20
  0
DICTIONARY
  5
9C31
330
21A
100
AcDbDictionary
280
     1
281
     1
  3
ACAD_XREC_ROUNDTRIP
360
9C32
  0
DICTIONARY
  5
162
330
7F
100
AcDbDictionary
280
     1
281
     1
  3
ACAD_ROUNDTRIP_2008_TABLESTYLE_CELLSTYLEMAP
360
9BF2
  3
ACAD_XREC_ROUNDTRIP
360
9BF7
  0
DICTIONARY
  5
9C09
330
F5
100
AcDbDictionary
280
     1
281
     1
  3
ACAD_XREC_ROUNDTRIP
360
9C0A
  0
DICTIONARY
  5
9C07
330
F4
100
AcDbDictionary
280
     1
281
     1
  3
ACAD_XREC_ROUNDTRIP
360
9C08
  0
DICTIONARY
  5
9C15
330
FB
100
AcDbDictionary
280
     1
281
     1
  3
ACAD_XREC_ROUNDTRIP
360
9C16
  0
DICTIONARY
  5
9C1D
330
FF
100
AcDbDictionary
280
     1
281
     1
  3
ACAD_XREC_ROUNDTRIP
360
9C1E
  0
DICTIONARY
  5
9C0F
330
F8
100
AcDbDictionary
280
     1
281
     1
  3
ACAD_XREC_ROUNDTRIP
360
9C10
  0
DICTIONARY
  5
9C13
330
FA
100
AcDbDictionary
280
     1
281
     1
  3
ACAD_XREC_ROUNDTRIP
360
9C14
  0
DICTIONARY
  5
9C25
330
1E6
100
AcDbDictionary
280
     1
281
     1
  3
ACAD_XREC_ROUNDTRIP
360
9C26
  0
DICTIONARY
  5
9C1B
330
FE
100
AcDbDictionary
280
     1
281
     1
  3
ACAD_XREC_ROUNDTRIP
360
9C1C
  0
DICTIONARY
  5
9BFF
330
F0
100
AcDbDictionary
280
     1
281
     1
  3
ACAD_XREC_ROUNDTRIP
360
9C00
  0
DICTIONARY
  5
9C01
330
F1
100
AcDbDictionary
280
     1
281
     1
  3
ACAD_XREC_ROUNDTRIP
360
9C02
  0
DICTIONARY
  5
9C03
330
F2
100
AcDbDictionary
280
     1
281
     1
  3
ACAD_XREC_ROUNDTRIP
360
9C04
  0
DICTIONARY
  5
9C05
330
F3
100
AcDbDictionary
280
     1
281
     1
  3
ACAD_XREC_ROUNDTRIP
360
9C06
  0
DICTIONARY
  5
9C0D
330
F7
100
AcDbDictionary
280
     1
281
     1
  3
ACAD_XREC_ROUNDTRIP
360
9C0E
  0
DICTIONARY
  5
9C21
330
1E4
100
AcDbDictionary
280
     1
281
     1
  3
ACAD_XREC_ROUNDTRIP
360
9C22
  0
DICTIONARY
  5
9C19
330
FD
100
AcDbDictionary
280
     1
281
     1
  3
ACAD_XREC_ROUNDTRIP
360
9C1A
  0
DICTIONARY
  5
9C23
330
1E5
100
AcDbDictionary
280
     1
281
     1
  3
ACAD_XREC_ROUNDTRIP
360
9C24
  0
DICTIONARY
  5
9C11
330
F9
100
AcDbDictionary
280
     1
281
     1
  3
ACAD_XREC_ROUNDTRIP
360
9C12
  0
DICTIONARY
  5
9C2F
330
1F3
100
AcDbDictionary
280
     1
281
     1
  3
ACAD_XREC_ROUNDTRIP
360
9C30
  0
DICTIONARY
  5
9C2D
330
1F2
100
AcDbDictionary
280
     1
281
     1
  3
ACAD_XREC_ROUNDTRIP
360
9C2E
  0
DICTIONARY
  5
9C27
330
1EF
100
AcDbDictionary
280
     1
281
     1
  3
ACAD_XREC_ROUNDTRIP
360
9C28
  0
DICTIONARY
  5
9C29
330
1F0
100
AcDbDictionary
280
     1
281
     1
  3
ACAD_XREC_ROUNDTRIP
360
9C2A
  0
DICTIONARY
  5
9C17
330
FC
100
AcDbDictionary
280
     1
281
     1
  3
ACAD_XREC_ROUNDTRIP
360
9C18
  0
DICTIONARY
  5
9C0B
330
F6
100
AcDbDictionary
280
     1
281
     1
  3
ACAD_XREC_ROUNDTRIP
360
9C0C
  0
DICTIONARY
  5
9C2B
330
1F1
100
AcDbDictionary
280
     1
281
     1
  3
ACAD_XREC_ROUNDTRIP
360
9C2C
  0
XRECORD
  5
9C34
102
{ACAD_REACTORS
330
9C33
102
}
330
9C33
100
AcDbXrecord
280
     1
102
DISPLAYNAME
  1
Metric50
102
FLAGS
 90
        0
  0
XRECORD
  5
9BF9
102
{ACAD_REACTORS
330
9BF8
102
}
330
9BF8
100
AcDbXrecord
280
     1
102
SHADEPLOT
 70
     0
102
SHADEPLOTRESLEVEL
 70
     2
102
SHADEPLOTCUSTOMDPI
 70
   300
  0
XRECORD
  5
9BFB
102
{ACAD_REACTORS
330
9BFA
102
}
330
9BFA
100
AcDbXrecord
280
     1
102
SHADEPLOT
 70
     0
102
SHADEPLOTRESLEVEL
 70
     2
102
SHADEPLOTCUSTOMDPI
 70
   300
  0
XRECORD
  5
9BF6
102
{ACAD_REACTORS
330
9BF5
102
}
330
9BF5
100
AcDbXrecord
280
     1
102
SHADEPLOT
 70
     0
102
SHADEPLOTRESLEVEL
 70
     2
102
SHADEPLOTCUSTOMDPI
 70
   300
  0
XRECORD
  5
9BFD
102
{ACAD_REACTORS
330
1F9
102
}
330
1F9
100
AcDbXrecord
280
     1
102
MATERIAL
148
0.0
149
0.0
149
0.0
 93
        0
 94
       63
282
     0
 72
     1
 77
     1
171
     1
175
     1
179
     1
273
     0
  0
XRECORD
  5
1FA
102
{ACAD_REACTORS
330
1F9
102
}
330
1F9
100
AcDbXrecord
280
     1
 70
     1
 90
429727718
  1
D62C5603-E3A1-4AEA-B7FB-FE5D8D0755AF
310
504B03040A0000080000CC70623B3DEE336E79000000790000001B0000006175746F6465736B2D64657369676E2D7061636B6167652E786D6C3C3F786D6C2076657273696F6E3D22312E302220656E636F64696E673D227574662D3822203F3E3C666F726D6174733E3C666F726D61743E687474703A2F2F736368656D612E
310
6175746F6465736B2E636F6D2F64657369676E2D7061636B6167652F323030393C2F666F726D61743E3C2F666F726D6174733E504B0304140006080800CC70623BD486FD9CA0000000F4000000130000005B436F6E74656E745F54797065735D2E786D6C7D8EC10E82300C865F65E91D8A1E8C310C0EEA1BF002731658846E
310
D98AC1B77784ABF1D8FE5FBFBF75BBCE937A534CCEB38643598122B6FEE978D0B0485F9C41B54DDD7D022595594E1A469170414C76A4D9A4D207E29CF43ECE46F218070CC6BECC4078ACAA135ACF422C856C0E68EA1BF5669944DDD7BCDE7B1F8E415D77AECB980613C2E4AC91FC167A2B244592486606FC29C8FD7F045B9A
310
EF7053A7E60B504B0304140006080800CC70623B853B8169EB0000007C01000008000000636F72652E786D6C8D90416EC3201045AF62CDB6C206821CC7C244919D9CA01740401C94182C03558F5F9C3852BBEB6A467FFE9B197D7EFC9E1EC5975982F5AE035262288C535E5B377690E21535501C055FBC8FBF6C503839990E
310
5619041F179FE64D52DE45E362569DD7661365082642A11EB9E920A89B99642953CC8E702F67A9EE7234257977194EC9EAE275C4EABCCF5EAD5940D4AC6F0E35A568B8F43562CD7046CD199FD07E60174276A7BE677B5EADB0E0D14EEFFB6A31321A0D82627C4084204C3F096B71DD52F6819B16635EADF63F509AF53FA164
310
5DDCD1EDDD17164090FCC8732078B56691CB33A85CD7DCC40F504B0304140006080800CC70623B55019EA25F0000007C00000007000000636E782E786D6C4DCB3B0E80201045D1AD90E915ED2CF8AC45050C11660C8261F98AB1B07AC9C97D42D718D865D3E909258CFD00CCE24AC6E326A164D74DC0B4128928FF32603847
310
2BA13128B1252AC747C6BAB984FC68F0B87FE8960A5C09FE86CFB69FBA01504B0304140006080800CC70623BDBABAAF470010000D40300000C0000006662782F636F72652E786D6CC553D16E823014FD95A6AF4B694182CC941A83FA05FB810A9511A125A5257EFE2E82712ECEB8A7F100CD39F7F69E734AF9FADC366850B6
310
AF8DCE7018308C942E4C59EB2AC3DE1D498AD15A706B8CFB56869196ADCAF00863C12B6B7C374385D14E6907A836A59A41D9F7CA615434B0C8705F7CAA5606D23BA8E84F41278B93AC54100640439DE0BDB320004D43C63716C7C399D30917DCFBBA9CD9BA8469F5B156168B24CED3F7248AC8769F27244EB73B92EED8862C
310
B7F13E0C179B3C8F979C8ECD82BBBABDAA2BAC924E9558448CBD9330242CFA08E3154B5651FCC6D215639C8EE5774DBE2B5F6CF2B5768B68963BB5F5588420E442FC700B1139D4CB01F450C1E918227C2E09DF070D8140C84E1E9AAB8F1340832A9CB13130A5F1376A908D57309505ECF2A0DF179C4E9D30F5B239B87E3823
310
7A79C6F31DE1A8A5AEC08474B03C7837EAE4938639B44E5932B833D2C6B6B279CDC613877FA26EE21F4A2A4C63EC7F29A2F301D1F9F7A0E37D145F504B0304140006080800CC70623B9C113CC27E0000009D0000000B0000006662782F636E782E786D6C4DCCDF0A83201C86E15B91DFB94BFB330DD428C8FB886521330DA7
310
6397BF1A1DECE883878F57749FCDA1B7892F1BBC047A23808C7F84D9FA55424E0BE6803A256208E9EF06C84F9B91703228B1C690F78B66B34CD9A5439DF5CF0BFBF65E35BCA1B8D6A5C6F540381E886698B5741C695F9503EBA150A2F8958E3DC3EA0B504B0304140006080800CC70623B7DF2F77C2A010000120200003100
310
00006662782F41393633353835312D344632462D344230382D423046372D3739314545314133324237412F636F72652E786D6C8D51DB8EC22014FC15C2939B0D2DB4B45643319AE817EC0F6041255A68B86CFCFC856D4D76DF7CE190393373060EDB3DC707F856CE6B6B7A480A0C81328395DA5C7B18C3057510EC3873D686
310
3F34088C18550F330C39BB3A1BA7051AAC09CA84841A2BD5020AEF55806078A44B0FFD7053A328440C89E1EFC52486BBB8AA8214A99D789CF9E05200300FC927E4FB4D5B375D43103D5527440FB843077C5AA3F5861C8F645F5787F59E95B390B318B55CE45AA638FAA2957BD7248B390B7A7CC51F9C124149C82B8C378810
310
84AB2F42B7B8DD56F413775B8C5999E9FF4471926F8AA236A1AE96B8B3CC434E5839373893369E1FAF30EA395917409EB7F26AF8801C171837A4A6AC9C89E9F9C9B1A58BA30FD6A5EF5DDDCF894B9AD9B6A59C957943A9FCAE2FD5BC4DFE03504B0304140006080800CC70623BAD7543B64E01000033030000300000006662
310
782F41393633353835312D344632462D344230382D423046372D3739314545314133324237412F636E782E786D6CD593CD6EC32010845F0571AD6CE3D48AD20813A9873E410FBD12D82434182C7EAAE6EDBB2424CD25871E7B41D6EC30B3FA84F9E67BB2E40B4234DE8DB46F1925E094D7C6ED479AD3AE5951B2113C789FEE
310
6C943839C1488B4C05DF079FE72A69D8C96C13AAD6B8631503449F83828872B949AC57D26200B826A308D316B4064D6E46FCDA41C05550DC9E483A00797BFD207EFB092A45DE9514C1BBD22178396BD39D891265658C238DEA00936C654E5E433CB65A26D9F6EDB5EBC14EBF49A45CB856E66048291F6939A9A81BB5C89177
310
38143CA680F4AA299D66A042CEB3354A2684DC9D8D178FE0D9B8B41CAAD720F880EE7EF93C0C18769E099ECC04D5A102C8049A8A05632F4DDF376CF1DE0F6BB65C2F8627B65A33C6BB62177CEBBDAD973006829F89F22E814B54F4BC2BE347F8AA8F681390B50FA73F804400B5F542E796F19FF974E7F78DB802FE05E20750
310
4B0304140006080800CC70623BE75B7789680500003C100000340000006662782F41393633353835312D344632462D344230382D423046372D3739314545314133324237412F6F626A656374732E786D6CAD575B8F9B3818FD2B887D06C22499CB8AA1CA655245D5B455A356FB305264C061D8018C6C3393D95FBFC7600890
310
A4CD5EF210B0B1BFEBF98E3F7B1FF6596ABC522E1296DF9BAE3D320D9A872C4AF2F8DE2CE5CEBA358D0FBEC719939D65A691938CDE9B6ADAF4BD98B3B2D05311DD91329583D9D5FC0F438434A7A611A644887B5384CF34233629258BA878B12322891DEFF6B66BD70BFB62634E8AE781D082709A4B588AF91C528CDA28B73F
310
1C998EEF39EABBEFA97FBD6A7C7E9553F9D3D79FE442923C3C523610337627CB87ABE99D359D4CC6D6E4FACAB5E6ABF9D2726FC6A3C5F56271377BB88362213924694B38DD99FE47C48627A1E7D49F5A8BB5E1A74C0A599ED3B0F21F1E56366B89112D681E218F0915D0D6F17AD41FBA2A369DCF6335D62ABBD39779D5DDD1
310
11D4D8DE3CBB96B2E04FB8202E41051754A1AA8E8F76B4C6DFE810B580B1547F4B84911149794252234D024EF8BBE963A95AE27B3D310A9D5C215C7960FAEE415ED75694C6AFB17BCACA5D99A60A9AA65F217B0BFC53292ACB92BF283FAD0D3621576592CB5BED907C2FA8E9DF794E35E97BEA31BED21FEB401ABB94C44839
310
DCACBF0E1C5DA8DA5B2F4DFFD32AD86F543D9E565E7056502E157C00AD2671CD534549AB752FCA9CDA00677A313F04E51B22FF19E57B300579E3C97EB29F682D92935CEC18CF901B7B54FD8C51F362B56FC72FE0B3C1EAE335EDCCBF5AEC39ADB17DC238973F804BA5E6F6BFE7AF1FB32E523BE9F3BD571418E3631DCA4D48
310
5250CF639223210A9446CA30052EDF057BD35F8329C1ECD84552BF0DC8D18BE7BCE23BFE6BD960AB4A7DE79923A103BEBD80F911CBAA2C60DB19B01CF164A5583B772EE6D3FFA56666CBCDA74DC97724A48F9A58967497E489C4D979006FD7A05E227A1EBDD0F737C623387A9C844D3709995625106D157315F8B8392CD4E0
310
A0B9A720C4BE9829CEF37EA1E13111214D53925356365ADA634861B52519DD27A00AEB808EAF0628E6F435519D446F45CF2C9CF5214F0A15B2F6D06B79DA3EE3CBF7F56780D2F4E7EF73A0F5E5B02A38D07DC852C6B7C1FBB6664213E0C39E3EBA7FF4E1AD23EA2829407C85E586727488B751B2DB9502BC7B228A3FD68B6E
310
A65A22397E690AA8D158D7E404EC8CDA235CC3B7D1898680131CEC2CDF2638C65196279577750F15884AEE19F94199155B92B13297978469D4F8D358DF0AEF7631E28DC8F0D9F437D5D39A83B2231A1D52D543813A824EF8D44BCFF2FA6A31BD1E8DAD87F1CCB526B3879935BF59CDADD5C37479BB1CDD4CA7B3556B516589
310
EF352754B706114D9C885EC9131DE6EFEB43D99AFE2391C2F958179413D7CFEF6B1B6DB1E7600F00DE6E5C67454A339A4BA2E0FBA85ED26F045D454F463DBFCE484C2F90F2E5E3666003662ED8F755951A7D1BECD5B30B550B2785C8E7320B7292A4838DDA71BBC863ED7613CAF659337A3354231D4FF4A182A54904C2898C
310
98B28C4AD0CE056CCF332A80986E571EE9DBC305BB5FEB7E509220A58D25CF042D712A806AC0AD0C657FDEF80D2D9CEAA2EE4D1C76F60BFE74219A06527D6F82DF6412526107381E55E353090704D085B52408A8913C4ED159D79BDA71BB4BC506F4831350EB6F975CD22D69BF7AC49B91A2C0A9DDA3D5CA36AD20FC478E37
310
E61844E2352865EBCB61A275A65283CAAA9DD27703B4102F5AF51EF5F573B75CBB5AD38BC845F7A49F82A0966A49C2E3EA5EA0ECD326CD965F1DB402C6FA8B51A4658C5C5E2EC9E214602E55810345408596591009A82E7E7FFACA19EEA299B14A0081A705CB3296EBC14CDF658DCD336EA6D1136881AAEB87B81AB9EE53D5
310
F5EB8BC8362082DA24122F98680A4E7930C01A0079749CEA14382A0783E5EBA5A10F8C098456A03D6A4AEB6BB881E2513747552A5DB22C7EDAF83BD5528081A365F7FF06504B0304140006080000CC70623B000000000000000000000000350000006662782F41393633353835312D344632462D344230382D423046372D37
310
39314545314133324237412F76657274696365732E62696E504B0304140006080800CC70623BF270F1330600000004000000360000006662782F41393633353835312D344632462D344230382D423046372D3739314545314133324237412F747269616E676C65732E62696E636660600000504B0304140006080000CC7062
310
3B000000000000000000000000370000006662782F41393633353835312D344632462D344230382D423046372D3739314545314133324237412F617474726962757465732E62696E504B0304140006080800CC70623B08DA0BD19000000041010000360000006662782F41393633353835312D344632462D344230382D4230
310
46372D3739314545314133324237412F6469726563746F72792E786D6C858F410AC3201045AF22B36F53E9A60B35CBEEBAE80D244E44489C6234F4F835464A48035D0DF398FF9F8AF63D0E6CC63039F212F8F9020C7D47C6792B21C5FE7403D62A1188E2E60C98D7234A5830286103A55745067B9D86B8A3CF9C7F90C11DE6
310
07FB144396D7B6A82D282E9A152AD114D5EF2CB866EEE831B8EEA07A7BB5A8D7D61A2BAAEB7FD5F70921FF497D00504B0304140006080800CC70623BEDD1DC58FD000000A00100003B0000006662782F41393633353835312D344632462D344230382D423046372D3739314545314133324237412F7265736F75726365732F
310
636F72652E786D6C8D504B6E833010BD0A9A6D65B00922041947112427E8052C33A156828DFCA97AFC9A40A576D7CDCCE87D344F8F9FBFE667F689CE6B6B3A6039850C8DB2A336530731DC4903D95970676DF82583CCC8193B5861107C72362E3BA4AC096842428D1D7107A5F7182053CF7474E0D507CE32973124857FE48B
310
540F3961CEF244279DE03EB81420DB9EAC1384436FA353E879B1B182C7A8C75DA3C7F453DF353A1075D537A7BA6464B8F535A99AE14A9A2BBD90E350DD183B5CFABE3AF262350B1EF4FC9351399401471025A527C218A1E53BAB5A5AB765F5469B96525EACF23FA6B88CFF34456DC2A1DCE36E360F82A5202F42F062ED2BAD
310
579969AFDD8A6F504B010214000A0000080000CC70623B3DEE336E79000000790000001B00000000000000000000000000000000006175746F6465736B2D64657369676E2D7061636B6167652E786D6C504B01021400140006080800CC70623BD486FD9CA0000000F40000001300000000000000000000000000B20000005B
310
436F6E74656E745F54797065735D2E786D6C504B01021400140006080800CC70623B853B8169EB0000007C010000080000000000000000000000000083010000636F72652E786D6C504B01021400140006080800CC70623B55019EA25F0000007C000000070000000000000000000000000094020000636E782E786D6C504B
310
01021400140006080800CC70623BDBABAAF470010000D40300000C00000000000000000000000000180300006662782F636F72652E786D6C504B01021400140006080800CC70623B9C113CC27E0000009D0000000B00000000000000000000000000B20400006662782F636E782E786D6C504B01021400140006080800CC70
310
623B7DF2F77C2A010000120200003100000000000000000000000000590500006662782F41393633353835312D344632462D344230382D423046372D3739314545314133324237412F636F72652E786D6C504B01021400140006080800CC70623BAD7543B64E010000330300003000000000000000000000000000D2060000
310
6662782F41393633353835312D344632462D344230382D423046372D3739314545314133324237412F636E782E786D6C504B01021400140006080800CC70623BE75B7789680500003C10000034000000000000000000000000006E0800006662782F41393633353835312D344632462D344230382D423046372D3739314545
310
314133324237412F6F626A656374732E786D6C504B01021400140006080000CC70623B0000000000000000000000003500000000000000000000000000280E00006662782F41393633353835312D344632462D344230382D423046372D3739314545314133324237412F76657274696365732E62696E504B01021400140006
310
080800CC70623BF270F133060000000400000036000000000000000000000000007B0E00006662782F41393633353835312D344632462D344230382D423046372D3739314545314133324237412F747269616E676C65732E62696E504B01021400140006080000CC70623B0000000000000000000000003700000000000000
310
000000000000D50E00006662782F41393633353835312D344632462D344230382D423046372D3739314545314133324237412F617474726962757465732E62696E504B01021400140006080800CC70623B08DA0BD1900000004101000036000000000000000000000000002A0F00006662782F41393633353835312D344632
310
462D344230382D423046372D3739314545314133324237412F6469726563746F72792E786D6C504B01021400140006080800CC70623BEDD1DC58FD000000A00100003B000000000000000000000000000E1000006662782F41393633353835312D344632462D344230382D423046372D3739314545314133324237412F7265
310
736F75726365732F636F72652E786D6C504B0506000000000E000E0080040000641100000000
  0
XRECORD
  5
9BFC
102
{ACAD_REACTORS
330
1F7
102
}
330
1F7
100
AcDbXrecord
280
     1
102
MATERIAL
148
0.0
149
0.0
149
0.0
 93
        0
 94
       63
282
     0
 72
     1
 77
     1
171
     1
175
     1
179
     1
273
     0
  0
XRECORD
  5
1F8
102
{ACAD_REACTORS
330
1F7
102
}
330
1F7
100
AcDbXrecord
280
     1
 70
     1
 90
429727718
  1
30362254-06B7-45E0-A893-8CFA70E3D6BC
310
504B03040A0000080000CC70623B3DEE336E79000000790000001B0000006175746F6465736B2D64657369676E2D7061636B6167652E786D6C3C3F786D6C2076657273696F6E3D22312E302220656E636F64696E673D227574662D3822203F3E3C666F726D6174733E3C666F726D61743E687474703A2F2F736368656D612E
310
6175746F6465736B2E636F6D2F64657369676E2D7061636B6167652F323030393C2F666F726D61743E3C2F666F726D6174733E504B0304140006080800CC70623BD486FD9CA0000000F4000000130000005B436F6E74656E745F54797065735D2E786D6C7D8EC10E82300C865F65E91D8A1E8C310C0EEA1BF002731658846E
310
D98AC1B77784ABF1D8FE5FBFBF75BBCE937A534CCEB38643598122B6FEE978D0B0485F9C41B54DDD7D022595594E1A469170414C76A4D9A4D207E29CF43ECE46F218070CC6BECC4078ACAA135ACF422C856C0E68EA1BF5669944DDD7BCDE7B1F8E415D77AECB980613C2E4AC91FC167A2B244592486606FC29C8FD7F045B9A
310
EF7053A7E60B504B0304140006080800CC70623B1EC5D7A3EB0000007C01000008000000636F72652E786D6C8D90416EC3201045AF82665B6103C6756C6122AB4D4ED00B204C5C94182C03558F5F9C3852BBEB6A467FFE9B197D71FC9E6FE8CBACC17AD7032D0820E3B41FAD9B7A48F1820F808E52ACDEC75F36404ECDA687
310
4D0629A6D5A76597B477D1B89855E747B38B2A041301E95B6E7A08FAD3CCAA50296647B8168BD2573599823EBB0CA76447F43862C7BCCF5EAC59410E4DDD9C7973C2755553CCCFA4C603E3040F1565ED3B1FDE4E432BCA0D9622DAF9795FAF464533826484B498524CD807E51D79ED187F21878E10516EF63F505AC67F42C9
310
BA58B1FDDD071640D2FCC87D2045B96591CB3DA85CB7DCE40F504B0304140006080800CC70623B55019EA25F0000007C00000007000000636E782E786D6C4DCB3B0E80201045D1AD90E915ED2CF8AC45050C11660C8261F98AB1B07AC9C97D42D718D865D3E909258CFD00CCE24AC6E326A164D74DC0B4128928FF32603847
310
2BA13128B1252AC747C6BAB984FC68F0B87FE8960A5C09FE86CFB69FBA01504B0304140006080800CC70623B8C9102E971010000D40300000C0000006662782F636F72652E786D6CC5535B6E833010BC8AE5DF0A6C08340F1947A84D4ED00B38C6A128602363A31CBFCB234A53A551FA553EC09AD9F5CE8C31DB9E9B1AF5CA
310
7695D1198E428A91D2D214952E33ECDD315861B4E5CC1AE3BE9561A445A3323CC098B3D21ADFCE9034DA29ED00D5A6503328BA4E398C640D8B0C77F253352214DE4145770A5B214FA2546114020D759C75CE8200340D19DE981F0F6746269C33EFAB6266AB02A655C74A59CCF365BADC27CB5D902ED22848F6340DF238A141
310
BE88E2F57B92BFEDF23523433367AE6A2EEAA455C2A902F398D2751045018D3FA264435F3771F242571B4A1919CA6F9A7C5B3CD9E42BED16F12C776AEB308F40C848FC700B1139D4891EF410CEC810227CC6846F8386402064270EF5C5C709A05E49676C024C61FC95EA45ED154CA5211D1FF4FB8291A913A68E9B83EBBB33
310
E2A7673CDE118E5AE8124C0807CB8377834E366998436B950D7A7746DAD846D4CFD978E0F04FD455FC5D49D2D4C6FE9722321F10997F0F32DC47FE05504B0304140006080800CC70623BFFEA85907E0000009D0000000B0000006662782F636E782E786D6C4DCCD10A83201886E15B91FFDC95D95A811AB6F23E625948A6C3
310
E9D8E5AF46073BFAE0E1E365ED67B3E8ADC3CB78C7815C7240DA3DFC64DCC221C519D7805AC182F7F1EF06C88D9BE6703008B6049F9E274D7A1E938DBB5AE3D6131B2589BA0D3D965551E0B2EA732C9B9A624AAEB41E3A557677029960D9AFB4EF11165F504B0304140006080800CC70623B4FEEA4082C0100001202000031
310
0000006662782F39464131463745442D413632322D343644302D413938332D3331353338454246344243312F636F72652E786D6C8D515B6EC32010BC0AE2AB55850DD871ED0813254D72825EC00192A2C460F1A872FC42ED48ED5F7E00CDCECCCEB26C731F6FE05B39AFADE921293004CA082BB5B9F43086336A21D870E6AC
310
0D7F68109861543DCC30E4ECE26C9C164858139409093556AA051CBC570102714B8F1E7AF1A5C6A11862480C7F2DA6415C878B2A4891CA89C7990F2E050073937C42DE1DB7E4F87ED8A36D4329AA9B3D46DBAEAD504556557BD81DEBDD0761E52CE42C462D17B996298E3E6BE59E35C962CE821E1FF18553435012728A7187
310
0841987E927A8D9B35ADDF70BBC6989599FE4F1427F9A4286A132ABAC49D651EF234CD5CE04CDA78BA3DC2A8FB645D00B9DF8B57E215725C60BCA2A463E54C4CE327C7A65E1C7DB02E7DEFCBF594B864C5CA6CDBD49C957943E9FA5D5FBAF336F90F504B0304140006080800CC70623BAD7543B64E01000033030000300000
310
006662782F39464131463745442D413632322D343644302D413938332D3331353338454246344243312F636E782E786D6CD593CD6EC32010845F0571AD6CE3D48AD20813A9873E410FBD12D82434182C7EAAE6EDBB2424CD25871E7B41D6EC30B3FA84F9E67BB2E40B4234DE8DB46F1925E094D7C6ED479AD3AE5951B2113C
310
789FEE6C943839C1488B4C05DF079FE72A69D8C96C13AAD6B8631503449F83828872B949AC57D26200B826A308D316B4064D6E46FCDA41C05550DC9E483A00797BFD207EFB092A45DE9514C1BBD22178396BD39D891265658C238DEA00936C654E5E433CB65A26D9F6EDB5EBC14EBF49A45CB856E66048291F6939A9A81BB5
310
C8917738143CA680F4AA299D66A042CEB3354A2684DC9D8D178FE0D9B8B41CAAD720F880EE7EF93C0C18769E099ECC04D5A102C8049A8A05632F4DDF376CF1DE0F6BB65C2F8627B65A33C6BB62177CEBBDAD973006829F89F22E814B54F4BC2BE347F8AA8F681390B50FA73F804400B5F542E796F19FF974E7F78DB802FE05
310
E207504B0304140006080800CC70623B16AB87BA640500003C100000340000006662782F39464131463745442D413632322D343644302D413938332D3331353338454246344243312F6F626A656374732E786D6CAD575B6FA33818FD2B887DE6924B3BED8A326A92B68A663B534DD4D13E548A0C38942D60649B369D5FBFC7
310
600890A493BDE42160637FD7F31D7FF63E6FB3D478A55C242CBF3247B66B1A340F5994E4F19559CA8D75611A9F7D8F33263BCB4C232719BD32D5B4E97B316765A1A722BA21652A07B3B7B33F0D11D29C9A46981221AE4C113ED38CD8A4942CA2E2C58E882476BCD9DA23BB5ED8171B73523C0F841684D35CC252CCE79062D4
310
468DFA43D7747CCF51DF7D4FFDEB5593E3AB9CCA9FBEFE241792E4E19EB28198C968BAB8199F5D5A67D3E9C49A9E8F47D6EC76B6B0469F26EEFC7C3EBFBCBEB98462213924694B38DD98FE1D62C393D073EA4FADC5DAF04326852CCF6958F90F0F2B9BB5C48816348F90C7840A68EB78EDF68723159BCEE7891A6B95DDE9D3
310
BCEAEEE8086A6C6F9E5D4B59F0175C10A7A0820BAA5055C7473B5AE3CFDD452D602CD5DF12616444529E90D448938013FE6EFA58AA96F85E4F8C42275708571E98FE6827AF6B2B4AE3D7D83D64E5A64C53054DD3AF90BD06FEA9149565C94FCA0F6B834DC85599E4F2423B24DF0B6AFA979E534DFA9E7A4CC6FA631D486393
310
921829879BF5D781A373557BCB85E97FB90DB62B558F8795179C15944B051F40AB495CF35451D26A4727654E6D8033BD98EF82F21D91FF8AF2DD9982BCF1643BDD4EB516C9492E368C67C88DED563FC36D5EACF66DFF057C3658BDBFA69DF9578B3DA735B64F18C7F20770A9D45CFCF7FCF563D6456A277DBEF78A02637CA2
310
43B90A490AEAB94F72244481D24819A6C0E59B606BFA4B3025981DBB48EAB701D97BF19C577CC77F2D1B6C55A9EF3C732474C0B727303F625995056C3B02963D9EAC146BE78EC5FCEC7FA999EBC5EACBAAE41B12D27B4D2C0BBA49F244E2ECDC81B76B502F113D8F5EE8FB1BE3111CDD4FC2AA9B844CAB1288B68AB90A7CDC
310
1C166AB0D3DC5310625FCC14E779BFD0709F8890A629C9292B1B2DED31A4B0DA928CEE135085754027E3018A397D4D5427D15BD1330B677DC8934285AC3DF45A9EB68FF8F2B8FC0A509AFEECFD0FF2DE25CC6047F7214B195F07EFEB9A094D800F7BFAE8FED187B78EA8A3A400F115961BCAD1215E47C966530AF0EE8128FE
310
58CEBB996A8964FFA529A046635D9353B0336A8F700DDF46271A024E70B0B37C9DE01847591E54DED53D54202AB947E4076556AC49C6CA5C9E1226B7F1A7B1BE15DEED62C41B91E1B3E9AFAAA735036547343A925075041DF0A9979E893B391F8FCFA6967B3EFB644DCF6E5CEBFAE272625DCC6FAF3FB93793C5F90CE1EF57
310
407342756B10D1C489E8953CD1617E5CEECAD6F4EF8914CE5D5D504E5C3F1F9736DA62CFC11E00BCDDB8CC8A9466349744C1F75EBDA4DF09BA8A9E8C7A7E9991989E20E5DBDD6A6003664ED8F7A04A8DBE0DF6EAD9B9AA858342E47399053949D2C146EDB85DE4B176BB0965FBAC19BD19AA918E27FA50C1D22402E144464C
310
59462568E704B6E71915404CB72B8FF4EDE184DDAF753F284990D2C6926782963815403548A70C657FDEF80D2D9CEAA2AE4C1C76F60BFE74219A06527D6582DF6412526107381E55E353090704D085B52408D0933C4ED159D79BDA71BB4BC506F4831350EB6F979CD22D69BF7AC49B91A2C0A9DDA3D5CA36AD20FC478E37E6
310
1844E2352865EBCB6EA275A652E3836BE04EFB400BF1A2556F515F1FBB35B2AB35BD889C744FFA1004B5544B121E57F70215746DD2F5E2C1412B602CBF19455AC6C8E5E9922C4E01E65215385004546899059180EAFCF7A707CE7017CD8CDB0410789AB32C63B91E5CEBBBACB17AC6CD347A022D5075FD106377347AAABA7E
310
7D11590744509B44E205134DC1290F06580320F78E537D3D73540E06CB970B431F185308AD40BBD794D6D77003C5A36E8EAA54BA64597CD8F83BD552A080A365F7FF06504B0304140006080000CC70623B000000000000000000000000350000006662782F39464131463745442D413632322D343644302D413938332D3331
310
353338454246344243312F76657274696365732E62696E504B0304140006080800CC70623BF270F1330600000004000000360000006662782F39464131463745442D413632322D343644302D413938332D3331353338454246344243312F747269616E676C65732E62696E636660600000504B0304140006080000CC70623B
310
000000000000000000000000370000006662782F39464131463745442D413632322D343644302D413938332D3331353338454246344243312F617474726962757465732E62696E504B0304140006080800CC70623B08DA0BD19000000041010000360000006662782F39464131463745442D413632322D343644302D413938
310
332D3331353338454246344243312F6469726563746F72792E786D6C858F410AC3201045AF22B36F53E9A60B35CBEEBAE80D244E44489C6234F4F835464A48035D0DF398FF9F8AF63D0E6CC63039F212F8F9020C7D47C6792B21C5FE7403D62A1188E2E60C98D7234A5830286103A55745067B9D86B8A3CF9C7F90C11DE607
310
FB144396D7B6A82D282E9A152AD114D5EF2CB866EEE831B8EEA07A7BB5A8D7D61A2BAAEB7FD5F70921FF497D00504B0304140006080800CC70623B0D6EF93BFE000000A00100003B0000006662782F39464131463745442D413632322D343644302D413938332D3331353338454246344243312F7265736F75726365732F63
310
6F72652E786D6C8D50596E833010BD0A9ADFCA60B334011947A8694ED00B586642AC041B79A97AFC9A40A5F6AF3F33A3B7689E1E3F7DCD8FEC139DD7D6F4C0720A191A65476DA61E62B892236427C19DB5E1970C322367EC618541F0C9D9B8EC90B226A009093576C41D94DE63804C3DD2D18357379C652E63480A7FCF17A9
310
EE72C29CE5894E3AC17D702940B63D59270887DE46A7D0F36263058F518FBB468FE9A7BE6A7420864373B8D4873369AA8691FA421B3294352543C5CAF65C0F6FEF43CB8BD52C78D0F34F46E550061C419494B6843142CB0F5677F4B52BEB177AEC28E5C52AFF638ACBF84F53D42654E51E77B379102C05791282176B5F693D
310
CB4C7BED567C03504B010214000A0000080000CC70623B3DEE336E79000000790000001B00000000000000000000000000000000006175746F6465736B2D64657369676E2D7061636B6167652E786D6C504B01021400140006080800CC70623BD486FD9CA0000000F40000001300000000000000000000000000B20000005B
310
436F6E74656E745F54797065735D2E786D6C504B01021400140006080800CC70623B1EC5D7A3EB0000007C010000080000000000000000000000000083010000636F72652E786D6C504B01021400140006080800CC70623B55019EA25F0000007C000000070000000000000000000000000094020000636E782E786D6C504B
310
01021400140006080800CC70623B8C9102E971010000D40300000C00000000000000000000000000180300006662782F636F72652E786D6C504B01021400140006080800CC70623BFFEA85907E0000009D0000000B00000000000000000000000000B30400006662782F636E782E786D6C504B01021400140006080800CC70
310
623B4FEEA4082C0100001202000031000000000000000000000000005A0500006662782F39464131463745442D413632322D343644302D413938332D3331353338454246344243312F636F72652E786D6C504B01021400140006080800CC70623BAD7543B64E010000330300003000000000000000000000000000D5060000
310
6662782F39464131463745442D413632322D343644302D413938332D3331353338454246344243312F636E782E786D6C504B01021400140006080800CC70623B16AB87BA640500003C1000003400000000000000000000000000710800006662782F39464131463745442D413632322D343644302D413938332D3331353338
310
454246344243312F6F626A656374732E786D6C504B01021400140006080000CC70623B0000000000000000000000003500000000000000000000000000270E00006662782F39464131463745442D413632322D343644302D413938332D3331353338454246344243312F76657274696365732E62696E504B01021400140006
310
080800CC70623BF270F133060000000400000036000000000000000000000000007A0E00006662782F39464131463745442D413632322D343644302D413938332D3331353338454246344243312F747269616E676C65732E62696E504B01021400140006080000CC70623B0000000000000000000000003700000000000000
310
000000000000D40E00006662782F39464131463745442D413632322D343644302D413938332D3331353338454246344243312F617474726962757465732E62696E504B01021400140006080800CC70623B08DA0BD190000000410100003600000000000000000000000000290F00006662782F39464131463745442D413632
310
322D343644302D413938332D3331353338454246344243312F6469726563746F72792E786D6C504B01021400140006080800CC70623B0D6EF93BFE000000A00100003B000000000000000000000000000D1000006662782F39464131463745442D413632322D343644302D413938332D3331353338454246344243312F7265
310
736F75726365732F636F72652E786D6C504B0506000000000E000E0080040000641100000000
  0
XRECORD
  5
9BFE
102
{ACAD_REACTORS
330
173
102
}
330
173
100
AcDbXrecord
280
     1
102
MATERIAL
148
0.0
149
0.0
149
0.0
 93
        0
 94
       63
282
     0
 72
     1
 77
     1
171
     1
175
     1
179
     1
273
     0
  0
XRECORD
  5
175
102
{ACAD_REACTORS
330
173
102
}
330
173
100
AcDbXrecord
280
     1
270
     1
271
     1
  0
XRECORD
  5
174
102
{ACAD_REACTORS
330
173
102
}
330
173
100
AcDbXrecord
280
     1
270
     1
271
     1
  0
XRECORD
  5
1FB
102
{ACAD_REACTORS
330
173
102
}
330
173
100
AcDbXrecord
280
     1
 70
     0
 90
1673772943
  1
ECE7A1D2-D628-4531-984C-D00F80459256
310
504B03040A0000080000CC70623B3DEE336E79000000790000001B0000006175746F6465736B2D64657369676E2D7061636B6167652E786D6C3C3F786D6C2076657273696F6E3D22312E302220656E636F64696E673D227574662D3822203F3E3C666F726D6174733E3C666F726D61743E687474703A2F2F736368656D612E
310
6175746F6465736B2E636F6D2F64657369676E2D7061636B6167652F323030393C2F666F726D61743E3C2F666F726D6174733E504B0304140006080800CC70623BD486FD9CA0000000F4000000130000005B436F6E74656E745F54797065735D2E786D6C7D8EC10E82300C865F65E91D8A1E8C310C0EEA1BF002731658846E
310
D98AC1B77784ABF1D8FE5FBFBF75BBCE937A534CCEB38643598122B6FEE978D0B0485F9C41B54DDD7D022595594E1A469170414C76A4D9A4D207E29CF43ECE46F218070CC6BECC4078ACAA135ACF422C856C0E68EA1BF5669944DDD7BCDE7B1F8E415D77AECB980613C2E4AC91FC167A2B244592486606FC29C8FD7F045B9A
310
EF7053A7E60B504B0304140006080800CC70623BD9DDAED0EC0000007C01000008000000636F72652E786D6C8D90416EC3201045AF82665B61836D9CD8C2444DD39CA01740405C94182C03558F5F9C3852BBEB6A467FFE9B197D7EF89E6EE8CB2CC17A37002D0820E394D7D68D03A478C17B4007C117EFE32F1B20272733C0
310
2A83E0E3E2D3BC49CABB685CCCAAF3DA6CA20CC14440EA969B0182FA34932C648AD911AEC52CD5558EA6A0CF2EC329598D1E47ACCEFBECC59A050463A7EA5833865FEBDD0E37353BE3EE8DBDE3F6786A48D375FBF6CC78B9C282473B3DEFABC5C86834888A900E538A49F5419B9EB47DD5BC907D4F082F57FB1F28CDFA9F50
310
B22ED6D5F6EE030B20687EE43E10BC5CB3C8E51E54AE6B6EE207504B0304140006080800CC70623B55019EA25F0000007C00000007000000636E782E786D6C4DCB3B0E80201045D1AD90E915ED2CF8AC45050C11660C8261F98AB1B07AC9C97D42D718D865D3E909258CFD00CCE24AC6E326A164D74DC0B4128928FF326038
310
472BA13128B1252AC747C6BAB984FC68F0B87FE8960A5C09FE86CFB69FBA01504B0304140006080800CC70623BA24EB22D72010000D40300000C0000006662782F636F72652E786D6CC5535B6E833010BC8AE5DF0A6C5E49888CA3A6694ED00B38E05014B091B1518EDFE511A5A9D228FD2A1F60CDEC7A67C6986DCE4D8D7A
310
69BA4AAB0C073EC548AA5C17952A33ECECD15B61B4E1CC686DBF9561A44423333CC098B3D268D7CE50AE9595CA02AA74216750749DB418E5352C32DCE59FB211BE70162ABA93DF8AFC244AE9073ED050C759670D0840D390E18DF9F1706664C23973AE2A66B62A605A75ACA4C13C4976E1364A12EF355A2EBD384AF65EFA96
310
BC7B8BED2EA6719AAE16FB8491A199335B351775B991C2CA02F390D2D40B028F861F41BCA68B7518BFD0D59A524686F29B26D7164F36B94AD9289CE54E6D1DE6010819891F6E21228B3AD1831EC219194284CF98F06DD01008846CC5A1BEF83801D4CBDC6A1303536877A57A513B0953A94FC707FDBE6064EA84A9E3E6E0FA
310
EE8CF0E9198F7784A316AA0413C2C2F2E0ECA0934D1AE6D05A69BCDE9E91D2A611F573361E38FC1375157F5752AE6B6DFE4B11990F88CCBF0719EE23FF02504B0304140006080800CC70623B408A7D3B7C0000009D0000000B0000006662782F636E782E786D6C4DCCD10A83201886E15B91FFDC552A92A0064DBC8F581632
310
D3703A76F9ABD1C18E3E78F878E5F0D9027ABBFCF2292AE86E2D20171F69F6715550CB827B40839639A5F2770314A7CD293819B45C73AAFB45B35BA61ACAA1C1C7E7855C58C15BC331339661262CC762340413D68D77DA5B42298546CBE6573AF60CEB2F504B0304140006080800CC70623B449FB9BD290100001202000031
310
0000006662782F36394639363044362D344446342D343946362D394244322D3234314243333846323333332F636F72652E786D6C8D515B6EC32010BC0AE22B55850D98B871848994463E412FE002495162B07854397EA176A4F62F3F2C9A9D991D587EB84F37F0AD7D30CEF6905418026DA553C65E7A98E219ED203808EE9D
310
8B7F6810D871D23D2C3014FCE25D9A57483A1BB58D19B54EE9151C43D0110279CB971E06F9A5A7B11A53CC8C70ADE6515EC78BAE4895DB992778883E0700CB907242D17643D7E2538BD869608875438BBAE38922CAC8F1BDD90DB4691A5E2F42C153326A951B95E398B3D1FE599322163C9AE9115F7A3D46ADA0A018778810
310
84E907617BDCEE297BC5BB3DC6BC2EF47FA234AB2745C9D8D8D035EE220B50105E2F0DC1954B9FB747187D9F9D8FA0CCDB042D5FA0C015C65B42DF78BD10F3F3B363CB56C7109DCFDFBBB97E662ED92EB62D13BC2E1BCAE5777DB9966D8A1F504B0304140006080800CC70623BAD7543B64E01000033030000300000006662
310
782F36394639363044362D344446342D343946362D394244322D3234314243333846323333332F636E782E786D6CD593CD6EC32010845F0571AD6CE3D48AD20813A9873E410FBD12D82434182C7EAAE6EDBB2424CD25871E7B41D6EC30B3FA84F9E67BB2E40B4234DE8DB46F1925E094D7C6ED479AD3AE5951B2113C789FEE
310
6C943839C1488B4C05DF079FE72A69D8C96C13AAD6B8631503449F83828872B949AC57D26200B826A308D316B4064D6E46FCDA41C05550DC9E483A00797BFD207EFB092A45DE9514C1BBD22178396BD39D891265658C238DEA00936C654E5E433CB65A26D9F6EDB5EBC14EBF49A45CB856E66048291F6939A9A81BB5C89177
310
38143CA680F4AA299D66A042CEB3354A2684DC9D8D178FE0D9B8B41CAAD720F880EE7EF93C0C18769E099ECC04D5A102C8049A8A05632F4DDF376CF1DE0F6BB65C2F8627B65A33C6BB62177CEBBDAD973006829F89F22E814B54F4BC2BE347F8AA8F681390B50FA73F804400B5F542E796F19FF974E7F78DB802FE05E20750
310
4B0304140006080800CC70623B8D05915C650500003B100000340000006662782F36394639363044362D344446342D343946362D394244322D3234314243333846323333332F6F626A656374732E786D6CAD575B6FA33814FE2B887D06429276DA1565D4266D158D3A339A6846FB502932E050B66023DB74D2FDF5FB190C01
310
9276B2973C046C8ECFF53B17071F77456EBD502133CEAE6CDF9DD81665314F32965ED995DA3A17B6F5310C04E7AA47665B8C14F4CAD6DB7618A48257A5D94AE89654B91AEDDEDDFC61C998326A5B714EA4BCB265FC440BE2924AF184CA6737218AB8E976E7FA6E4338649B0A523E8D98964450A6A029F619B8588D52FE7039
310
B1BD30F0F4F730D0FF866AF6369557DB33949F31A9088B0F848DD8CCFCF9F2767A76E99CCDE733677E3EF59D9BBB9BA5E37F984D16E78BC5E5F5ED25044B25C0C96822E8D60EEFE11B91C581D77CEA34368A1F5329E68CD1B8B61F16D63A1B8E092D294B10C78C4A48EB593D192E7DED9BDEE7995E1B91FDEDD3ACEA9FE831
310
6A756F9F7D4D79F4274C90A7A04248AA51D5F8C718DAE06FB2F75AC4796EBE65D22A88A22223B995679120E2D50E41AA49C260C046A35368846B0BECD0DFF3EBEB8AD4F835768F69B9ADF25C43D30E6B646F807FAA64AD59F61715C7A54127C4AACA98BA3006A9D792DAE165E0D59B61A01FB3A9F9D838D2DAE62445C86166
310
F37564E842E7DE6A69879FEEA2DD5AE7E371E1A5E025154AC307D06A03D73EB5978C58FFA4C8E9033066E0F3BD53BEC1F39F91BE7B55103791EDE6BBB991A2046172CB4581D8B893FA674DDA17A77B3B7C413D1B511FD2743BFF8A38F03A658705E3ADF8015C3A3417FF3D7E439FF591DA0B5F18BC20C1B8981957AE6392A3
310
F43C640C01D1A0B4728E2DD4F26DB4B3C3152A252A3B4E913CEC1C72F012782FF88EFF8637AA552DBEF76408E8A8DE9E50F9E1CB3A2DA0DB1B6039A893B56063DC5B3E3FFB5F72E67AB9FEB4AEC496C4F4C1149625DD662C53E89D7BF0F6151A046260D1337DFDC94502430F83B0EE07A130A224BCAD7DAE1D9FB6CD422FF6
310
920702629C4BB9AE79C12F243C6432A6794E18E5552BA56B431AAB5D91317302B2B071E86C3A42B1A02F999E24061403B5D0EB639195DA655DD3EBEAB4FB862DDF579F014AD0E73C22F99E28DA57FB98E75C6CA2D74D53086D600F4786E0FE3144B771A8A7B900F03594DB8A633CBC49B2EDB69228BB479CF863B5E807AAAB
310
23872F6DFEB4129B949CA33823F58830E86D65621E10047D9DB34D862E8EAC3C2ABC2F7B2C40D67CDFE01F5545B92105AF983AC54D93D69E56FB8E797F88913F898A9FEC705D3F9D1B54EC8426FB500D40A03BD0119B06E1B95DDC7EB8F6975367793EBD70E66733DFB9BC982F9CE564727731999F5D4ECFCE3B8D6A4DC2A0
310
6D50FD148437D110834A64C6CDDF57FBACB5C307A2A477DFE4939736CFEF2B175371E0E10CF0DD1D5C15654E0BCA14D1E87DD02FF93782A162C0A3D95F1524A52770F972BF1EE9809D13CE7DD599467F8ECE9ADD85CE85A34CD45355448C64F9E8A031DC2D596ACC6E5DD93D9B82DE2EF5CAF81363A8E47996A0DE24564A79
310
4115AACE09C55E14540231FDA13C319787134EBF34E3A022514E5B4D9E0826E25C02D5805B15ABE1BEF51B26383D445DD9E875EE33FE4C22DA16427D65A3BCA92CA6D28DD01DF5DC53330704308475351050232CCD31583787BA75774AFB06E5070DD0C8EF484E19968C5D83BA5B90B244D31E54D55A372320FE4786B7EA58
310
44E135AA5467CB7EA333A61683CC6A8C3257034C10CF46F40EF9F5BE59BE5BD30C3C72D235E95D10345C1D45445A5F0BB47E46A5EBE5570F9380B5FA629579952296A773720405982B9DE04011506178964401AA8BDF1FBF0A8EAB6861DD6580C0E38217056766716DAEB2D6FA0917D3E4116581EADB879C4E7CFFB11EFACD
310
3D641311495D92C8676CB409A72D18610D803CE8A626049E8EC1887CB5B44CC39883690DDA8399B4B9855B481E7D71D4A9D22F96E5BB73BF5793020C02137BF837504B0304140006080000CC70623B000000000000000000000000350000006662782F36394639363044362D344446342D343946362D394244322D32343142
310
43333846323333332F76657274696365732E62696E504B0304140006080800CC70623BF270F1330600000004000000360000006662782F36394639363044362D344446342D343946362D394244322D3234314243333846323333332F747269616E676C65732E62696E636660600000504B0304140006080000CC70623B0000
310
00000000000000000000370000006662782F36394639363044362D344446342D343946362D394244322D3234314243333846323333332F617474726962757465732E62696E504B0304140006080800CC70623B08DA0BD19000000041010000360000006662782F36394639363044362D344446342D343946362D394244322D
310
3234314243333846323333332F6469726563746F72792E786D6C858F410AC3201045AF22B36F53E9A60B35CBEEBAE80D244E44489C6234F4F835464A48035D0DF398FF9F8AF63D0E6CC63039F212F8F9020C7D47C6792B21C5FE7403D62A1188E2E60C98D7234A5830286103A55745067B9D86B8A3CF9C7F90C11DE607FB14
310
4396D7B6A82D282E9A152AD114D5EF2CB866EEE831B8EEA07A7BB5A8D7D61A2BAAEB7FD5F70921FF497D00504B0304140006080800CC70623BCA768048FE000000A00100003B0000006662782F36394639363044362D344446342D343946362D394244322D3234314243333846323333332F7265736F75726365732F636F72
310
652E786D6C8D50596E833010BD0A9ADFCA60D600328E9AA639412F609909B1126CE4A5EAF16B0295DABFFECC8CDEA2797AECF8353F924FB44E193D409E5248504B332A3D0D10FC95B4901C39B3C6F85F3248B49871801506CE266BC2B243D2688FDA47549B11775038871E12F988C7004EDE7016A9083E2ADC3D5D84BC8B09
310
D33C8D74D471E6BC8D0192EDC93A815B742658898E651BCB59086ADC356A8C3FD555A1055ED7E7E254D615792D0F075295F585746FF53B694EE78A565DD736979A65AB9933AFE69F8CD2A2F038022F28ED489E135A7CE4554F9BBEA85E68DB53CAB255FEC71496F19FA6A0B42F8B3DEE6673C0F318E4497096AD7DC5F52C33
310
EEB55BFE0D504B010214000A0000080000CC70623B3DEE336E79000000790000001B00000000000000000000000000000000006175746F6465736B2D64657369676E2D7061636B6167652E786D6C504B01021400140006080800CC70623BD486FD9CA0000000F40000001300000000000000000000000000B20000005B436F
310
6E74656E745F54797065735D2E786D6C504B01021400140006080800CC70623BD9DDAED0EC0000007C010000080000000000000000000000000083010000636F72652E786D6C504B01021400140006080800CC70623B55019EA25F0000007C000000070000000000000000000000000095020000636E782E786D6C504B0102
310
1400140006080800CC70623BA24EB22D72010000D40300000C00000000000000000000000000190300006662782F636F72652E786D6C504B01021400140006080800CC70623B408A7D3B7C0000009D0000000B00000000000000000000000000B50400006662782F636E782E786D6C504B01021400140006080800CC70623B
310
449FB9BD290100001202000031000000000000000000000000005A0500006662782F36394639363044362D344446342D343946362D394244322D3234314243333846323333332F636F72652E786D6C504B01021400140006080800CC70623BAD7543B64E010000330300003000000000000000000000000000D20600006662
310
782F36394639363044362D344446342D343946362D394244322D3234314243333846323333332F636E782E786D6C504B01021400140006080800CC70623B8D05915C650500003B10000034000000000000000000000000006E0800006662782F36394639363044362D344446342D343946362D394244322D32343142433338
310
46323333332F6F626A656374732E786D6C504B01021400140006080000CC70623B0000000000000000000000003500000000000000000000000000250E00006662782F36394639363044362D344446342D343946362D394244322D3234314243333846323333332F76657274696365732E62696E504B010214001400060808
310
00CC70623BF270F13306000000040000003600000000000000000000000000780E00006662782F36394639363044362D344446342D343946362D394244322D3234314243333846323333332F747269616E676C65732E62696E504B01021400140006080000CC70623B00000000000000000000000037000000000000000000
310
00000000D20E00006662782F36394639363044362D344446342D343946362D394244322D3234314243333846323333332F617474726962757465732E62696E504B01021400140006080800CC70623B08DA0BD190000000410100003600000000000000000000000000270F00006662782F36394639363044362D344446342D
310
343946362D394244322D3234314243333846323333332F6469726563746F72792E786D6C504B01021400140006080800CC70623BCA768048FE000000A00100003B000000000000000000000000000B1000006662782F36394639363044362D344446342D343946362D394244322D3234314243333846323333332F7265736F
310
75726365732F636F72652E786D6C504B0506000000000E000E0080040000621100000000
  0
XRECORD
  5
176
102
{ACAD_REACTORS
330
173
102
}
330
173
100
AcDbXrecord
280
     1
270
     1
271
     1
  0
XRECORD
  5
177
102
{ACAD_REACTORS
330
173
102
}
330
173
100
AcDbXrecord
280
     1
270
     1
271
     1
  0
XRECORD
  5
9C20
102
{ACAD_REACTORS
330
9C1F
102
}
330
9C1F
100
AcDbXrecord
280
     1
102
ACAD_ROUNDTRIP_2012_MLEADER_STYLE
298
     1
  0
XRECORD
  5
9C32
102
{ACAD_REACTORS
330
9C31
102
}
330
9C31
100
AcDbXrecord
280
     1
102
DISPLAYNAME
  1
Metric50
102
FLAGS
 90
        0
  0
CELLSTYLEMAP
  5
9BF2
102
{ACAD_REACTORS
330
162
102
}
330
162
100
AcDbCellStyleMap
 90
        3
300
CELLSTYLE
  1
TABLEFORMAT_BEGIN
 90
        5
170
     1
 91
        0
 92
    32768
 62
   257
 93
        1
300
CONTENTFORMAT
  1
CONTENTFORMAT_BEGIN
 90
        0
 91
        0
 92
      512
 93
        0
300

 40
0.0
140
1.0
 94
        5
 62
     0
340
11
144
6.0
309
CONTENTFORMAT_END
171
     1
301
MARGIN
  1
CELLMARGIN_BEGIN
 40
1.5
 40
1.5
 40
1.5
 40
1.5
 40
4.5
 40
4.5
309
CELLMARGIN_END
 94
        6
 95
        1
302
GRIDFORMAT
  1
GRIDFORMAT_BEGIN
 90
        0
 91
        1
 62
     0
 92
       -2
340
14
 93
        0
 40
1.125
309
GRIDFORMAT_END
 95
        2
302
GRIDFORMAT
  1
GRIDFORMAT_BEGIN
 90
        0
 91
        1
 62
     0
 92
       -2
340
14
 93
        0
 40
1.125
309
GRIDFORMAT_END
 95
        4
302
GRIDFORMAT
  1
GRIDFORMAT_BEGIN
 90
        0
 91
        1
 62
     0
 92
       -2
340
14
 93
        0
 40
1.125
309
GRIDFORMAT_END
 95
        8
302
GRIDFORMAT
  1
GRIDFORMAT_BEGIN
 90
        0
 91
        1
 62
     0
 92
       -2
340
14
 93
        0
 40
1.125
309
GRIDFORMAT_END
 95
       16
302
GRIDFORMAT
  1
GRIDFORMAT_BEGIN
 90
        0
 91
        1
 62
     0
 92
       -2
340
14
 93
        0
 40
1.125
309
GRIDFORMAT_END
 95
       32
302
GRIDFORMAT
  1
GRIDFORMAT_BEGIN
 90
        0
 91
        1
 62
     0
 92
       -2
340
14
 93
        0
 40
1.125
309
GRIDFORMAT_END
309
TABLEFORMAT_END
  1
CELLSTYLE_BEGIN
 90
        1
 91
        1
300
_TITLE
309
CELLSTYLE_END
300
CELLSTYLE
  1
TABLEFORMAT_BEGIN
 90
        5
170
     1
 91
        0
 92
        0
 62
   257
 93
        1
300
CONTENTFORMAT
  1
CONTENTFORMAT_BEGIN
 90
        0
 91
        0
 92
      512
 93
        0
300

 40
0.0
140
1.0
 94
        5
 62
     0
340
11
144
4.5
309
CONTENTFORMAT_END
171
     1
301
MARGIN
  1
CELLMARGIN_BEGIN
 40
1.5
 40
1.5
 40
1.5
 40
1.5
 40
4.5
 40
4.5
309
CELLMARGIN_END
 94
        6
 95
        1
302
GRIDFORMAT
  1
GRIDFORMAT_BEGIN
 90
        0
 91
        1
 62
     0
 92
       -2
340
14
 93
        0
 40
1.125
309
GRIDFORMAT_END
 95
        2
302
GRIDFORMAT
  1
GRIDFORMAT_BEGIN
 90
        0
 91
        1
 62
     0
 92
       -2
340
14
 93
        0
 40
1.125
309
GRIDFORMAT_END
 95
        4
302
GRIDFORMAT
  1
GRIDFORMAT_BEGIN
 90
        0
 91
        1
 62
     0
 92
       -2
340
14
 93
        0
 40
1.125
309
GRIDFORMAT_END
 95
        8
302
GRIDFORMAT
  1
GRIDFORMAT_BEGIN
 90
        0
 91
        1
 62
     0
 92
       -2
340
14
 93
        0
 40
1.125
309
GRIDFORMAT_END
 95
       16
302
GRIDFORMAT
  1
GRIDFORMAT_BEGIN
 90
        0
 91
        1
 62
     0
 92
       -2
340
14
 93
        0
 40
1.125
309
GRIDFORMAT_END
 95
       32
302
GRIDFORMAT
  1
GRIDFORMAT_BEGIN
 90
        0
 91
        1
 62
     0
 92
       -2
340
14
 93
        0
 40
1.125
309
GRIDFORMAT_END
309
TABLEFORMAT_END
  1
CELLSTYLE_BEGIN
 90
        2
 91
        1
300
_HEADER
309
CELLSTYLE_END
300
CELLSTYLE
  1
TABLEFORMAT_BEGIN
 90
        5
170
     1
 91
        0
 92
        0
 62
   257
 93
        1
300
CONTENTFORMAT
  1
CONTENTFORMAT_BEGIN
 90
        0
 91
        0
 92
      512
 93
        0
300

 40
0.0
140
1.0
 94
        2
 62
     0
340
11
144
4.5
309
CONTENTFORMAT_END
171
     1
301
MARGIN
  1
CELLMARGIN_BEGIN
 40
1.5
 40
1.5
 40
1.5
 40
1.5
 40
4.5
 40
4.5
309
CELLMARGIN_END
 94
        6
 95
        1
302
GRIDFORMAT
  1
GRIDFORMAT_BEGIN
 90
        0
 91
        1
 62
     0
 92
       -2
340
14
 93
        0
 40
1.125
309
GRIDFORMAT_END
 95
        2
302
GRIDFORMAT
  1
GRIDFORMAT_BEGIN
 90
        0
 91
        1
 62
     0
 92
       -2
340
14
 93
        0
 40
1.125
309
GRIDFORMAT_END
 95
        4
302
GRIDFORMAT
  1
GRIDFORMAT_BEGIN
 90
        0
 91
        1
 62
     0
 92
       -2
340
14
 93
        0
 40
1.125
309
GRIDFORMAT_END
 95
        8
302
GRIDFORMAT
  1
GRIDFORMAT_BEGIN
 90
        0
 91
        1
 62
     0
 92
       -2
340
14
 93
        0
 40
1.125
309
GRIDFORMAT_END
 95
       16
302
GRIDFORMAT
  1
GRIDFORMAT_BEGIN
 90
        0
 91
        1
 62
     0
 92
       -2
340
14
 93
        0
 40
1.125
309
GRIDFORMAT_END
 95
       32
302
GRIDFORMAT
  1
GRIDFORMAT_BEGIN
 90
        0
 91
        1
 62
     0
 92
       -2
340
14
 93
        0
 40
1.125
309
GRIDFORMAT_END
309
TABLEFORMAT_END
  1
CELLSTYLE_BEGIN
 90
        3
 91
        2
300
_DATA
309
CELLSTYLE_END
  0
XRECORD
  5
9BF7
102
{ACAD_REACTORS
330
162
102
}
330
162
100
AcDbXrecord
280
     1
102
ACAD_ROUNDTRIP_PRE2007_TABLESTYLE
 90
      512
 91
        0
  1

 92
      512
 93
        0
  2

 94
      512
 95
        0
  3

  0
XRECORD
  5
9C0A
102
{ACAD_REACTORS
330
9C09
102
}
330
9C09
100
AcDbXrecord
280
     1
102
RTVSPost2010Prop28
280
     1
102
RTVSPost2010PropOp28
 70
     1
102
RTVSPost2010Prop29
280
     1
102
RTVSPost2010PropOp29
 70
     1
102
RTVSPost2010Prop30
280
     0
102
RTVSPost2010PropOp30
 70
     1
102
RTVSPost2010Prop31
280
     0
102
RTVSPost2010PropOp31
 70
     1
102
RTVSPost2010Prop32
280
     0
102
RTVSPost2010PropOp32
 70
     1
102
RTVSPost2010Prop33
280
     0
102
RTVSPost2010PropOp33
 70
     1
102
RTVSPost2010Prop34
280
     0
102
RTVSPost2010PropOp34
 70
     1
102
RTVSPost2010Prop35
280
     0
102
RTVSPost2010PropOp35
 70
     1
102
RTVSPost2010Prop36
280
     0
102
RTVSPost2010PropOp36
 70
     1
102
RTVSPost2010Prop37
 90
       50
102
RTVSPost2010PropOp37
 70
     1
102
RTVSPost2010Prop38
140
0.0
102
RTVSPost2010PropOp38
 70
     1
102
RTVSPost2010Prop39
140
1.0
102
RTVSPost2010PropOp39
 70
     1
102
RTVSPost2010Prop40
 90
        0
102
RTVSPost2010PropOp40
 70
     1
102
RTVSPost2010Prop41ColorIndex
 90
       18
102
RTVSPost2010Prop41ColorRGB
 90
        0
102
RTVSPost2010PropOp41
 70
     1
102
RTVSPost2010Prop42
 90
       50
102
RTVSPost2010PropOp42
 70
     1
102
RTVSPost2010Prop43
 90
        3
102
RTVSPost2010PropOp43
 70
     1
102
RTVSPost2010Prop44ColorIndex
 90
        5
102
RTVSPost2010Prop44ColorRGB
 90
      255
102
RTVSPost2010PropOp44
 70
     1
102
RTVSPost2010Prop45
280
     0
102
RTVSPost2010PropOp45
 70
     1
102
RTVSPost2010Prop46
 90
       50
102
RTVSPost2010PropOp46
 70
     1
102
RTVSPost2010Prop47
 90
       50
102
RTVSPost2010PropOp47
 70
     1
102
RTVSPost2010Prop48
 90
       50
102
RTVSPost2010PropOp48
 70
     1
102
RTVSPost2010Prop49
280
     0
102
RTVSPost2010PropOp49
 70
     1
102
RTVSPost2010Prop50
 90
       50
102
RTVSPost2010PropOp50
 70
     1
102
RTVSPost2010Prop51ColorIndex
 90
      256
102
RTVSPost2010Prop51ColorRGB
 90
-16777216
102
RTVSPost2010PropOp51
 70
     0
102
RTVSPost2010Prop52
140
1.0
102
RTVSPost2010PropOp52
 70
     0
102
RTVSPost2010Prop53
 90
        2
102
RTVSPost2010PropOp53
 70
     1
102
RTVSPost2010Prop54
  1
strokes_ogs.tif
102
RTVSPost2010PropOp54
 70
     1
102
RTVSPost2010Prop55
280
     0
102
RTVSPost2010PropOp55
 70
     1
102
RTVSPost2010Prop56
140
1.0
102
RTVSPost2010PropOp56
 70
     1
102
RTVSPost2010Prop57
140
1.0
102
RTVSPost2010PropOp57
 70
     1
102
RTVSPropertyOp0
 70
     1
102
RTVSPropertyOp1
 70
     1
102
RTVSPropertyOp2
 70
     1
102
RTVSPropertyOp3
 70
     1
102
RTVSPropertyOp4
 70
     1
102
RTVSPropertyOp5
 70
     1
102
RTVSPropertyOp6
 70
     1
102
RTVSPropertyOp7
 70
     1
102
RTVSPropertyOp8
 70
     1
102
RTVSPropertyOp9
 70
     1
102
RTVSPropertyOp10
 70
     1
102
RTVSPropertyOp11
 70
     1
102
RTVSPropertyOp12
 70
     1
102
RTVSPropertyOp13
 70
     1
102
RTVSPropertyOp14
 70
     1
102
RTVSPropertyOp15
 70
     1
102
RTVSPropertyOp16
 70
     1
102
RTVSPropertyOp17
 70
     1
102
RTVSPropertyOp18
 70
     1
102
RTVSPropertyOp19
 70
     1
102
RTVSPropertyOp20
 70
     1
102
RTVSPropertyOp21
 70
     1
102
RTVSPropertyOp22
 70
     1
102
RTVSPropertyOp23
 70
     1
102
RTVSPropertyOp24
 70
     1
102
RTVSPropertyOp25
 70
     1
102
RTVSPropertyOp26
 70
     1
102
RTVSPropertyOp27
 70
     1
102
RTVSPropertyOp28
 70
     1
102
RTVSPropertyOp29
 70
     1
102
RTVSPropertyOp30
 70
     1
102
RTVSPropertyOp31
 70
     1
102
RTVSPropertyOp32
 70
     1
102
RTVSPropertyOp33
 70
     1
102
RTVSPropertyOp34
 70
     1
102
RTVSPropertyOp35
 70
     1
102
RTVSPropertyOp36
 70
     1
102
RTVSPropertyOp37
 70
     1
102
RTVSPropertyOp38
 70
     1
102
RTVSPropertyOp39
 70
     1
102
RTVSPropertyOp40
 70
     1
102
RTVSPropertyOp41
 70
     1
102
RTVSPropertyOp42
 70
     1
102
RTVSPropertyOp43
 70
     1
102
RTVSPropertyOp44
 70
     1
102
RTVSPropertyOp45
 70
     1
102
RTVSPropertyOp46
 70
     1
102
RTVSPropertyOp47
 70
     1
102
RTVSPropertyOp48
 70
     1
102
RTVSPropertyOp49
 70
     1
102
RTVSPropertyOp50
 70
     1
102
RTVSPropertyOp51
 70
     0
102
RTVSPropertyOp52
 70
     0
102
RTVSPropertyOp53
 70
     1
102
RTVSPropertyOp54
 70
     1
102
RTVSPropertyOp55
 70
     1
102
RTVSPropertyOp56
 70
     1
102
RTVSPropertyOp57
 70
     1
102
RTVSPropertyOp58
 70
     1
102
RTVSPropertyOp59
 70
     1
102
RTVSPropertyOp60
 70
     1
102
RTVSPropertyOp61
 70
     1
102
RTVSPropertyOp62
 70
     1
  0
XRECORD
  5
9C08
102
{ACAD_REACTORS
330
9C07
102
}
330
9C07
100
AcDbXrecord
280
     1
102
RTVSPost2010Prop28
280
     0
102
RTVSPost2010PropOp28
 70
     1
102
RTVSPost2010Prop29
280
     1
102
RTVSPost2010PropOp29
 70
     1
102
RTVSPost2010Prop30
280
     1
102
RTVSPost2010PropOp30
 70
     1
102
RTVSPost2010Prop31
280
     0
102
RTVSPost2010PropOp31
 70
     1
102
RTVSPost2010Prop32
280
     0
102
RTVSPost2010PropOp32
 70
     1
102
RTVSPost2010Prop33
280
     0
102
RTVSPost2010PropOp33
 70
     1
102
RTVSPost2010Prop34
280
     0
102
RTVSPost2010PropOp34
 70
     1
102
RTVSPost2010Prop35
280
     0
102
RTVSPost2010PropOp35
 70
     1
102
RTVSPost2010Prop36
280
     0
102
RTVSPost2010PropOp36
 70
     1
102
RTVSPost2010Prop37
 90
       50
102
RTVSPost2010PropOp37
 70
     1
102
RTVSPost2010Prop38
140
0.0
102
RTVSPost2010PropOp38
 70
     1
102
RTVSPost2010Prop39
140
1.0
102
RTVSPost2010PropOp39
 70
     1
102
RTVSPost2010Prop40
 90
        0
102
RTVSPost2010PropOp40
 70
     1
102
RTVSPost2010Prop41ColorIndex
 90
       18
102
RTVSPost2010Prop41ColorRGB
 90
        0
102
RTVSPost2010PropOp41
 70
     1
102
RTVSPost2010Prop42
 90
       50
102
RTVSPost2010PropOp42
 70
     1
102
RTVSPost2010Prop43
 90
        3
102
RTVSPost2010PropOp43
 70
     1
102
RTVSPost2010Prop44ColorIndex
 90
        5
102
RTVSPost2010Prop44ColorRGB
 90
      255
102
RTVSPost2010PropOp44
 70
     1
102
RTVSPost2010Prop45
280
     0
102
RTVSPost2010PropOp45
 70
     1
102
RTVSPost2010Prop46
 90
       50
102
RTVSPost2010PropOp46
 70
     1
102
RTVSPost2010Prop47
 90
       50
102
RTVSPost2010PropOp47
 70
     1
102
RTVSPost2010Prop48
 90
       50
102
RTVSPost2010PropOp48
 70
     1
102
RTVSPost2010Prop49
280
     0
102
RTVSPost2010PropOp49
 70
     1
102
RTVSPost2010Prop50
 90
       50
102
RTVSPost2010PropOp50
 70
     1
102
RTVSPost2010Prop51ColorIndex
 90
      256
102
RTVSPost2010Prop51ColorRGB
 90
-16777216
102
RTVSPost2010PropOp51
 70
     0
102
RTVSPost2010Prop52
140
1.0
102
RTVSPost2010PropOp52
 70
     0
102
RTVSPost2010Prop53
 90
        2
102
RTVSPost2010PropOp53
 70
     1
102
RTVSPost2010Prop54
  1
strokes_ogs.tif
102
RTVSPost2010PropOp54
 70
     1
102
RTVSPost2010Prop55
280
     0
102
RTVSPost2010PropOp55
 70
     1
102
RTVSPost2010Prop56
140
1.0
102
RTVSPost2010PropOp56
 70
     1
102
RTVSPost2010Prop57
140
1.0
102
RTVSPost2010PropOp57
 70
     1
102
RTVSPropertyOp0
 70
     1
102
RTVSPropertyOp1
 70
     1
102
RTVSPropertyOp2
 70
     1
102
RTVSPropertyOp3
 70
     1
102
RTVSPropertyOp4
 70
     1
102
RTVSPropertyOp5
 70
     1
102
RTVSPropertyOp6
 70
     1
102
RTVSPropertyOp7
 70
     1
102
RTVSPropertyOp8
 70
     1
102
RTVSPropertyOp9
 70
     1
102
RTVSPropertyOp10
 70
     1
102
RTVSPropertyOp11
 70
     1
102
RTVSPropertyOp12
 70
     1
102
RTVSPropertyOp13
 70
     1
102
RTVSPropertyOp14
 70
     1
102
RTVSPropertyOp15
 70
     1
102
RTVSPropertyOp16
 70
     1
102
RTVSPropertyOp17
 70
     1
102
RTVSPropertyOp18
 70
     1
102
RTVSPropertyOp19
 70
     1
102
RTVSPropertyOp20
 70
     1
102
RTVSPropertyOp21
 70
     1
102
RTVSPropertyOp22
 70
     1
102
RTVSPropertyOp23
 70
     1
102
RTVSPropertyOp24
 70
     1
102
RTVSPropertyOp25
 70
     1
102
RTVSPropertyOp26
 70
     1
102
RTVSPropertyOp27
 70
     1
102
RTVSPropertyOp28
 70
     1
102
RTVSPropertyOp29
 70
     1
102
RTVSPropertyOp30
 70
     1
102
RTVSPropertyOp31
 70
     1
102
RTVSPropertyOp32
 70
     1
102
RTVSPropertyOp33
 70
     1
102
RTVSPropertyOp34
 70
     1
102
RTVSPropertyOp35
 70
     1
102
RTVSPropertyOp36
 70
     1
102
RTVSPropertyOp37
 70
     1
102
RTVSPropertyOp38
 70
     1
102
RTVSPropertyOp39
 70
     1
102
RTVSPropertyOp40
 70
     1
102
RTVSPropertyOp41
 70
     1
102
RTVSPropertyOp42
 70
     1
102
RTVSPropertyOp43
 70
     1
102
RTVSPropertyOp44
 70
     1
102
RTVSPropertyOp45
 70
     1
102
RTVSPropertyOp46
 70
     1
102
RTVSPropertyOp47
 70
     1
102
RTVSPropertyOp48
 70
     1
102
RTVSPropertyOp49
 70
     1
102
RTVSPropertyOp50
 70
     1
102
RTVSPropertyOp51
 70
     0
102
RTVSPropertyOp52
 70
     0
102
RTVSPropertyOp53
 70
     1
102
RTVSPropertyOp54
 70
     1
102
RTVSPropertyOp55
 70
     1
102
RTVSPropertyOp56
 70
     1
102
RTVSPropertyOp57
 70
     1
102
RTVSPropertyOp58
 70
     1
102
RTVSPropertyOp59
 70
     1
102
RTVSPropertyOp60
 70
     1
102
RTVSPropertyOp61
 70
     1
102
RTVSPropertyOp62
 70
     1
  0
XRECORD
  5
9C16
102
{ACAD_REACTORS
330
9C15
102
}
330
9C15
100
AcDbXrecord
280
     1
102
RTVSPost2010Prop28
280
     0
102
RTVSPost2010PropOp28
 70
     1
102
RTVSPost2010Prop29
280
     1
102
RTVSPost2010PropOp29
 70
     1
102
RTVSPost2010Prop30
280
     1
102
RTVSPost2010PropOp30
 70
     1
102
RTVSPost2010Prop31
280
     0
102
RTVSPost2010PropOp31
 70
     1
102
RTVSPost2010Prop32
280
     0
102
RTVSPost2010PropOp32
 70
     1
102
RTVSPost2010Prop33
280
     0
102
RTVSPost2010PropOp33
 70
     1
102
RTVSPost2010Prop34
280
     0
102
RTVSPost2010PropOp34
 70
     1
102
RTVSPost2010Prop35
280
     0
102
RTVSPost2010PropOp35
 70
     1
102
RTVSPost2010Prop36
280
     0
102
RTVSPost2010PropOp36
 70
     1
102
RTVSPost2010Prop37
 90
       50
102
RTVSPost2010PropOp37
 70
     1
102
RTVSPost2010Prop38
140
0.0
102
RTVSPost2010PropOp38
 70
     1
102
RTVSPost2010Prop39
140
1.0
102
RTVSPost2010PropOp39
 70
     1
102
RTVSPost2010Prop40
 90
        0
102
RTVSPost2010PropOp40
 70
     1
102
RTVSPost2010Prop41ColorIndex
 90
       18
102
RTVSPost2010Prop41ColorRGB
 90
        0
102
RTVSPost2010PropOp41
 70
     1
102
RTVSPost2010Prop42
 90
       50
102
RTVSPost2010PropOp42
 70
     1
102
RTVSPost2010Prop43
 90
        3
102
RTVSPost2010PropOp43
 70
     1
102
RTVSPost2010Prop44ColorIndex
 90
        5
102
RTVSPost2010Prop44ColorRGB
 90
      255
102
RTVSPost2010PropOp44
 70
     1
102
RTVSPost2010Prop45
280
     0
102
RTVSPost2010PropOp45
 70
     1
102
RTVSPost2010Prop46
 90
       50
102
RTVSPost2010PropOp46
 70
     1
102
RTVSPost2010Prop47
 90
       50
102
RTVSPost2010PropOp47
 70
     1
102
RTVSPost2010Prop48
 90
       50
102
RTVSPost2010PropOp48
 70
     1
102
RTVSPost2010Prop49
280
     0
102
RTVSPost2010PropOp49
 70
     1
102
RTVSPost2010Prop50
 90
       50
102
RTVSPost2010PropOp50
 70
     1
102
RTVSPost2010Prop51ColorIndex
 90
      256
102
RTVSPost2010Prop51ColorRGB
 90
-16777216
102
RTVSPost2010PropOp51
 70
     0
102
RTVSPost2010Prop52
140
1.0
102
RTVSPost2010PropOp52
 70
     0
102
RTVSPost2010Prop53
 90
        2
102
RTVSPost2010PropOp53
 70
     1
102
RTVSPost2010Prop54
  1
strokes_ogs.tif
102
RTVSPost2010PropOp54
 70
     1
102
RTVSPost2010Prop55
280
     0
102
RTVSPost2010PropOp55
 70
     1
102
RTVSPost2010Prop56
140
1.0
102
RTVSPost2010PropOp56
 70
     1
102
RTVSPost2010Prop57
140
1.0
102
RTVSPost2010PropOp57
 70
     1
102
RTVSPropertyOp0
 70
     1
102
RTVSPropertyOp1
 70
     1
102
RTVSPropertyOp2
 70
     1
102
RTVSPropertyOp3
 70
     1
102
RTVSPropertyOp4
 70
     1
102
RTVSPropertyOp5
 70
     1
102
RTVSPropertyOp6
 70
     1
102
RTVSPropertyOp7
 70
     1
102
RTVSPropertyOp8
 70
     1
102
RTVSPropertyOp9
 70
     1
102
RTVSPropertyOp10
 70
     1
102
RTVSPropertyOp11
 70
     1
102
RTVSPropertyOp12
 70
     1
102
RTVSPropertyOp13
 70
     1
102
RTVSPropertyOp14
 70
     1
102
RTVSPropertyOp15
 70
     1
102
RTVSPropertyOp16
 70
     1
102
RTVSPropertyOp17
 70
     1
102
RTVSPropertyOp18
 70
     1
102
RTVSPropertyOp19
 70
     1
102
RTVSPropertyOp20
 70
     1
102
RTVSPropertyOp21
 70
     1
102
RTVSPropertyOp22
 70
     1
102
RTVSPropertyOp23
 70
     1
102
RTVSPropertyOp24
 70
     1
102
RTVSPropertyOp25
 70
     1
102
RTVSPropertyOp26
 70
     1
102
RTVSPropertyOp27
 70
     1
102
RTVSPropertyOp28
 70
     1
102
RTVSPropertyOp29
 70
     1
102
RTVSPropertyOp30
 70
     1
102
RTVSPropertyOp31
 70
     1
102
RTVSPropertyOp32
 70
     1
102
RTVSPropertyOp33
 70
     1
102
RTVSPropertyOp34
 70
     1
102
RTVSPropertyOp35
 70
     1
102
RTVSPropertyOp36
 70
     1
102
RTVSPropertyOp37
 70
     1
102
RTVSPropertyOp38
 70
     1
102
RTVSPropertyOp39
 70
     1
102
RTVSPropertyOp40
 70
     1
102
RTVSPropertyOp41
 70
     1
102
RTVSPropertyOp42
 70
     1
102
RTVSPropertyOp43
 70
     1
102
RTVSPropertyOp44
 70
     1
102
RTVSPropertyOp45
 70
     1
102
RTVSPropertyOp46
 70
     1
102
RTVSPropertyOp47
 70
     1
102
RTVSPropertyOp48
 70
     1
102
RTVSPropertyOp49
 70
     1
102
RTVSPropertyOp50
 70
     1
102
RTVSPropertyOp51
 70
     0
102
RTVSPropertyOp52
 70
     0
102
RTVSPropertyOp53
 70
     1
102
RTVSPropertyOp54
 70
     1
102
RTVSPropertyOp55
 70
     1
102
RTVSPropertyOp56
 70
     1
102
RTVSPropertyOp57
 70
     1
102
RTVSPropertyOp58
 70
     1
102
RTVSPropertyOp59
 70
     1
102
RTVSPropertyOp60
 70
     1
102
RTVSPropertyOp61
 70
     1
102
RTVSPropertyOp62
 70
     1
  0
XRECORD
  5
9C1E
102
{ACAD_REACTORS
330
9C1D
102
}
330
9C1D
100
AcDbXrecord
280
     1
102
RTVSPost2010Prop28
280
     0
102
RTVSPost2010PropOp28
 70
     1
102
RTVSPost2010Prop29
280
     1
102
RTVSPost2010PropOp29
 70
     1
102
RTVSPost2010Prop30
280
     1
102
RTVSPost2010PropOp30
 70
     1
102
RTVSPost2010Prop31
280
     0
102
RTVSPost2010PropOp31
 70
     1
102
RTVSPost2010Prop32
280
     0
102
RTVSPost2010PropOp32
 70
     1
102
RTVSPost2010Prop33
280
     0
102
RTVSPost2010PropOp33
 70
     1
102
RTVSPost2010Prop34
280
     0
102
RTVSPost2010PropOp34
 70
     1
102
RTVSPost2010Prop35
280
     0
102
RTVSPost2010PropOp35
 70
     1
102
RTVSPost2010Prop36
280
     0
102
RTVSPost2010PropOp36
 70
     1
102
RTVSPost2010Prop37
 90
       50
102
RTVSPost2010PropOp37
 70
     1
102
RTVSPost2010Prop38
140
0.0
102
RTVSPost2010PropOp38
 70
     1
102
RTVSPost2010Prop39
140
1.0
102
RTVSPost2010PropOp39
 70
     1
102
RTVSPost2010Prop40
 90
        0
102
RTVSPost2010PropOp40
 70
     1
102
RTVSPost2010Prop41ColorIndex
 90
       18
102
RTVSPost2010Prop41ColorRGB
 90
        0
102
RTVSPost2010PropOp41
 70
     1
102
RTVSPost2010Prop42
 90
       50
102
RTVSPost2010PropOp42
 70
     1
102
RTVSPost2010Prop43
 90
        3
102
RTVSPost2010PropOp43
 70
     1
102
RTVSPost2010Prop44ColorIndex
 90
        5
102
RTVSPost2010Prop44ColorRGB
 90
      255
102
RTVSPost2010PropOp44
 70
     1
102
RTVSPost2010Prop45
280
     0
102
RTVSPost2010PropOp45
 70
     1
102
RTVSPost2010Prop46
 90
       50
102
RTVSPost2010PropOp46
 70
     1
102
RTVSPost2010Prop47
 90
       50
102
RTVSPost2010PropOp47
 70
     1
102
RTVSPost2010Prop48
 90
       50
102
RTVSPost2010PropOp48
 70
     1
102
RTVSPost2010Prop49
280
     0
102
RTVSPost2010PropOp49
 70
     1
102
RTVSPost2010Prop50
 90
       50
102
RTVSPost2010PropOp50
 70
     1
102
RTVSPost2010Prop51ColorIndex
 90
      256
102
RTVSPost2010Prop51ColorRGB
 90
-16777216
102
RTVSPost2010PropOp51
 70
     0
102
RTVSPost2010Prop52
140
1.0
102
RTVSPost2010PropOp52
 70
     0
102
RTVSPost2010Prop53
 90
        2
102
RTVSPost2010PropOp53
 70
     1
102
RTVSPost2010Prop54
  1
strokes_ogs.tif
102
RTVSPost2010PropOp54
 70
     1
102
RTVSPost2010Prop55
280
     0
102
RTVSPost2010PropOp55
 70
     1
102
RTVSPost2010Prop56
140
1.0
102
RTVSPost2010PropOp56
 70
     1
102
RTVSPost2010Prop57
140
1.0
102
RTVSPost2010PropOp57
 70
     1
102
RTVSPropertyOp0
 70
     1
102
RTVSPropertyOp1
 70
     1
102
RTVSPropertyOp2
 70
     1
102
RTVSPropertyOp3
 70
     1
102
RTVSPropertyOp4
 70
     1
102
RTVSPropertyOp5
 70
     1
102
RTVSPropertyOp6
 70
     1
102
RTVSPropertyOp7
 70
     1
102
RTVSPropertyOp8
 70
     1
102
RTVSPropertyOp9
 70
     1
102
RTVSPropertyOp10
 70
     1
102
RTVSPropertyOp11
 70
     1
102
RTVSPropertyOp12
 70
     1
102
RTVSPropertyOp13
 70
     1
102
RTVSPropertyOp14
 70
     1
102
RTVSPropertyOp15
 70
     1
102
RTVSPropertyOp16
 70
     1
102
RTVSPropertyOp17
 70
     1
102
RTVSPropertyOp18
 70
     1
102
RTVSPropertyOp19
 70
     1
102
RTVSPropertyOp20
 70
     1
102
RTVSPropertyOp21
 70
     1
102
RTVSPropertyOp22
 70
     1
102
RTVSPropertyOp23
 70
     1
102
RTVSPropertyOp24
 70
     1
102
RTVSPropertyOp25
 70
     1
102
RTVSPropertyOp26
 70
     1
102
RTVSPropertyOp27
 70
     1
102
RTVSPropertyOp28
 70
     1
102
RTVSPropertyOp29
 70
     1
102
RTVSPropertyOp30
 70
     1
102
RTVSPropertyOp31
 70
     1
102
RTVSPropertyOp32
 70
     1
102
RTVSPropertyOp33
 70
     1
102
RTVSPropertyOp34
 70
     1
102
RTVSPropertyOp35
 70
     1
102
RTVSPropertyOp36
 70
     1
102
RTVSPropertyOp37
 70
     1
102
RTVSPropertyOp38
 70
     1
102
RTVSPropertyOp39
 70
     1
102
RTVSPropertyOp40
 70
     1
102
RTVSPropertyOp41
 70
     1
102
RTVSPropertyOp42
 70
     1
102
RTVSPropertyOp43
 70
     1
102
RTVSPropertyOp44
 70
     1
102
RTVSPropertyOp45
 70
     1
102
RTVSPropertyOp46
 70
     1
102
RTVSPropertyOp47
 70
     1
102
RTVSPropertyOp48
 70
     1
102
RTVSPropertyOp49
 70
     1
102
RTVSPropertyOp50
 70
     1
102
RTVSPropertyOp51
 70
     0
102
RTVSPropertyOp52
 70
     0
102
RTVSPropertyOp53
 70
     1
102
RTVSPropertyOp54
 70
     1
102
RTVSPropertyOp55
 70
     1
102
RTVSPropertyOp56
 70
     1
102
RTVSPropertyOp57
 70
     1
102
RTVSPropertyOp58
 70
     1
102
RTVSPropertyOp59
 70
     1
102
RTVSPropertyOp60
 70
     1
102
RTVSPropertyOp61
 70
     1
102
RTVSPropertyOp62
 70
     1
  0
XRECORD
  5
9C10
102
{ACAD_REACTORS
330
9C0F
102
}
330
9C0F
100
AcDbXrecord
280
     1
102
RTVSPost2010Prop28
280
     0
102
RTVSPost2010PropOp28
 70
     1
102
RTVSPost2010Prop29
280
     1
102
RTVSPost2010PropOp29
 70
     1
102
RTVSPost2010Prop30
280
     1
102
RTVSPost2010PropOp30
 70
     1
102
RTVSPost2010Prop31
280
     0
102
RTVSPost2010PropOp31
 70
     1
102
RTVSPost2010Prop32
280
     0
102
RTVSPost2010PropOp32
 70
     1
102
RTVSPost2010Prop33
280
     0
102
RTVSPost2010PropOp33
 70
     1
102
RTVSPost2010Prop34
280
     0
102
RTVSPost2010PropOp34
 70
     1
102
RTVSPost2010Prop35
280
     0
102
RTVSPost2010PropOp35
 70
     1
102
RTVSPost2010Prop36
280
     0
102
RTVSPost2010PropOp36
 70
     1
102
RTVSPost2010Prop37
 90
       50
102
RTVSPost2010PropOp37
 70
     1
102
RTVSPost2010Prop38
140
0.0
102
RTVSPost2010PropOp38
 70
     1
102
RTVSPost2010Prop39
140
1.0
102
RTVSPost2010PropOp39
 70
     1
102
RTVSPost2010Prop40
 90
        0
102
RTVSPost2010PropOp40
 70
     1
102
RTVSPost2010Prop41ColorIndex
 90
       18
102
RTVSPost2010Prop41ColorRGB
 90
        0
102
RTVSPost2010PropOp41
 70
     1
102
RTVSPost2010Prop42
 90
       50
102
RTVSPost2010PropOp42
 70
     1
102
RTVSPost2010Prop43
 90
        3
102
RTVSPost2010PropOp43
 70
     1
102
RTVSPost2010Prop44ColorIndex
 90
        5
102
RTVSPost2010Prop44ColorRGB
 90
      255
102
RTVSPost2010PropOp44
 70
     1
102
RTVSPost2010Prop45
280
     0
102
RTVSPost2010PropOp45
 70
     1
102
RTVSPost2010Prop46
 90
       50
102
RTVSPost2010PropOp46
 70
     1
102
RTVSPost2010Prop47
 90
       50
102
RTVSPost2010PropOp47
 70
     1
102
RTVSPost2010Prop48
 90
       50
102
RTVSPost2010PropOp48
 70
     1
102
RTVSPost2010Prop49
280
     0
102
RTVSPost2010PropOp49
 70
     1
102
RTVSPost2010Prop50
 90
       50
102
RTVSPost2010PropOp50
 70
     1
102
RTVSPost2010Prop51ColorIndex
 90
      256
102
RTVSPost2010Prop51ColorRGB
 90
-16777216
102
RTVSPost2010PropOp51
 70
     0
102
RTVSPost2010Prop52
140
1.0
102
RTVSPost2010PropOp52
 70
     0
102
RTVSPost2010Prop53
 90
        2
102
RTVSPost2010PropOp53
 70
     1
102
RTVSPost2010Prop54
  1
strokes_ogs.tif
102
RTVSPost2010PropOp54
 70
     1
102
RTVSPost2010Prop55
280
     0
102
RTVSPost2010PropOp55
 70
     1
102
RTVSPost2010Prop56
140
1.0
102
RTVSPost2010PropOp56
 70
     1
102
RTVSPost2010Prop57
140
1.0
102
RTVSPost2010PropOp57
 70
     1
102
RTVSPropertyOp0
 70
     1
102
RTVSPropertyOp1
 70
     1
102
RTVSPropertyOp2
 70
     1
102
RTVSPropertyOp3
 70
     1
102
RTVSPropertyOp4
 70
     1
102
RTVSPropertyOp5
 70
     1
102
RTVSPropertyOp6
 70
     1
102
RTVSPropertyOp7
 70
     1
102
RTVSPropertyOp8
 70
     1
102
RTVSPropertyOp9
 70
     1
102
RTVSPropertyOp10
 70
     1
102
RTVSPropertyOp11
 70
     1
102
RTVSPropertyOp12
 70
     1
102
RTVSPropertyOp13
 70
     1
102
RTVSPropertyOp14
 70
     1
102
RTVSPropertyOp15
 70
     1
102
RTVSPropertyOp16
 70
     1
102
RTVSPropertyOp17
 70
     1
102
RTVSPropertyOp18
 70
     1
102
RTVSPropertyOp19
 70
     1
102
RTVSPropertyOp20
 70
     1
102
RTVSPropertyOp21
 70
     1
102
RTVSPropertyOp22
 70
     1
102
RTVSPropertyOp23
 70
     1
102
RTVSPropertyOp24
 70
     1
102
RTVSPropertyOp25
 70
     1
102
RTVSPropertyOp26
 70
     1
102
RTVSPropertyOp27
 70
     1
102
RTVSPropertyOp28
 70
     1
102
RTVSPropertyOp29
 70
     1
102
RTVSPropertyOp30
 70
     1
102
RTVSPropertyOp31
 70
     1
102
RTVSPropertyOp32
 70
     1
102
RTVSPropertyOp33
 70
     1
102
RTVSPropertyOp34
 70
     1
102
RTVSPropertyOp35
 70
     1
102
RTVSPropertyOp36
 70
     1
102
RTVSPropertyOp37
 70
     1
102
RTVSPropertyOp38
 70
     1
102
RTVSPropertyOp39
 70
     1
102
RTVSPropertyOp40
 70
     1
102
RTVSPropertyOp41
 70
     1
102
RTVSPropertyOp42
 70
     1
102
RTVSPropertyOp43
 70
     1
102
RTVSPropertyOp44
 70
     1
102
RTVSPropertyOp45
 70
     1
102
RTVSPropertyOp46
 70
     1
102
RTVSPropertyOp47
 70
     1
102
RTVSPropertyOp48
 70
     1
102
RTVSPropertyOp49
 70
     1
102
RTVSPropertyOp50
 70
     1
102
RTVSPropertyOp51
 70
     0
102
RTVSPropertyOp52
 70
     0
102
RTVSPropertyOp53
 70
     1
102
RTVSPropertyOp54
 70
     1
102
RTVSPropertyOp55
 70
     1
102
RTVSPropertyOp56
 70
     1
102
RTVSPropertyOp57
 70
     1
102
RTVSPropertyOp58
 70
     1
102
RTVSPropertyOp59
 70
     1
102
RTVSPropertyOp60
 70
     1
102
RTVSPropertyOp61
 70
     1
102
RTVSPropertyOp62
 70
     1
  0
XRECORD
  5
9C14
102
{ACAD_REACTORS
330
9C13
102
}
330
9C13
100
AcDbXrecord
280
     1
102
RTVSPost2010Prop28
280
     0
102
RTVSPost2010PropOp28
 70
     1
102
RTVSPost2010Prop29
280
     1
102
RTVSPost2010PropOp29
 70
     1
102
RTVSPost2010Prop30
280
     1
102
RTVSPost2010PropOp30
 70
     1
102
RTVSPost2010Prop31
280
     0
102
RTVSPost2010PropOp31
 70
     1
102
RTVSPost2010Prop32
280
     0
102
RTVSPost2010PropOp32
 70
     1
102
RTVSPost2010Prop33
280
     0
102
RTVSPost2010PropOp33
 70
     1
102
RTVSPost2010Prop34
280
     0
102
RTVSPost2010PropOp34
 70
     1
102
RTVSPost2010Prop35
280
     0
102
RTVSPost2010PropOp35
 70
     1
102
RTVSPost2010Prop36
280
     0
102
RTVSPost2010PropOp36
 70
     1
102
RTVSPost2010Prop37
 90
       50
102
RTVSPost2010PropOp37
 70
     1
102
RTVSPost2010Prop38
140
0.0
102
RTVSPost2010PropOp38
 70
     1
102
RTVSPost2010Prop39
140
1.0
102
RTVSPost2010PropOp39
 70
     1
102
RTVSPost2010Prop40
 90
        0
102
RTVSPost2010PropOp40
 70
     1
102
RTVSPost2010Prop41ColorIndex
 90
       18
102
RTVSPost2010Prop41ColorRGB
 90
        0
102
RTVSPost2010PropOp41
 70
     1
102
RTVSPost2010Prop42
 90
       50
102
RTVSPost2010PropOp42
 70
     1
102
RTVSPost2010Prop43
 90
        3
102
RTVSPost2010PropOp43
 70
     1
102
RTVSPost2010Prop44ColorIndex
 90
        5
102
RTVSPost2010Prop44ColorRGB
 90
      255
102
RTVSPost2010PropOp44
 70
     1
102
RTVSPost2010Prop45
280
     0
102
RTVSPost2010PropOp45
 70
     1
102
RTVSPost2010Prop46
 90
       50
102
RTVSPost2010PropOp46
 70
     1
102
RTVSPost2010Prop47
 90
       50
102
RTVSPost2010PropOp47
 70
     1
102
RTVSPost2010Prop48
 90
       50
102
RTVSPost2010PropOp48
 70
     1
102
RTVSPost2010Prop49
280
     0
102
RTVSPost2010PropOp49
 70
     1
102
RTVSPost2010Prop50
 90
       50
102
RTVSPost2010PropOp50
 70
     1
102
RTVSPost2010Prop51ColorIndex
 90
      256
102
RTVSPost2010Prop51ColorRGB
 90
-16777216
102
RTVSPost2010PropOp51
 70
     0
102
RTVSPost2010Prop52
140
1.0
102
RTVSPost2010PropOp52
 70
     0
102
RTVSPost2010Prop53
 90
        2
102
RTVSPost2010PropOp53
 70
     1
102
RTVSPost2010Prop54
  1
strokes_ogs.tif
102
RTVSPost2010PropOp54
 70
     1
102
RTVSPost2010Prop55
280
     0
102
RTVSPost2010PropOp55
 70
     1
102
RTVSPost2010Prop56
140
1.0
102
RTVSPost2010PropOp56
 70
     1
102
RTVSPost2010Prop57
140
1.0
102
RTVSPost2010PropOp57
 70
     1
102
RTVSPropertyOp0
 70
     1
102
RTVSPropertyOp1
 70
     1
102
RTVSPropertyOp2
 70
     1
102
RTVSPropertyOp3
 70
     1
102
RTVSPropertyOp4
 70
     1
102
RTVSPropertyOp5
 70
     1
102
RTVSPropertyOp6
 70
     1
102
RTVSPropertyOp7
 70
     1
102
RTVSPropertyOp8
 70
     1
102
RTVSPropertyOp9
 70
     1
102
RTVSPropertyOp10
 70
     1
102
RTVSPropertyOp11
 70
     1
102
RTVSPropertyOp12
 70
     1
102
RTVSPropertyOp13
 70
     1
102
RTVSPropertyOp14
 70
     1
102
RTVSPropertyOp15
 70
     1
102
RTVSPropertyOp16
 70
     1
102
RTVSPropertyOp17
 70
     1
102
RTVSPropertyOp18
 70
     1
102
RTVSPropertyOp19
 70
     1
102
RTVSPropertyOp20
 70
     1
102
RTVSPropertyOp21
 70
     1
102
RTVSPropertyOp22
 70
     1
102
RTVSPropertyOp23
 70
     1
102
RTVSPropertyOp24
 70
     1
102
RTVSPropertyOp25
 70
     1
102
RTVSPropertyOp26
 70
     1
102
RTVSPropertyOp27
 70
     1
102
RTVSPropertyOp28
 70
     1
102
RTVSPropertyOp29
 70
     1
102
RTVSPropertyOp30
 70
     1
102
RTVSPropertyOp31
 70
     1
102
RTVSPropertyOp32
 70
     1
102
RTVSPropertyOp33
 70
     1
102
RTVSPropertyOp34
 70
     1
102
RTVSPropertyOp35
 70
     1
102
RTVSPropertyOp36
 70
     1
102
RTVSPropertyOp37
 70
     1
102
RTVSPropertyOp38
 70
     1
102
RTVSPropertyOp39
 70
     1
102
RTVSPropertyOp40
 70
     1
102
RTVSPropertyOp41
 70
     1
102
RTVSPropertyOp42
 70
     1
102
RTVSPropertyOp43
 70
     1
102
RTVSPropertyOp44
 70
     1
102
RTVSPropertyOp45
 70
     1
102
RTVSPropertyOp46
 70
     1
102
RTVSPropertyOp47
 70
     1
102
RTVSPropertyOp48
 70
     1
102
RTVSPropertyOp49
 70
     1
102
RTVSPropertyOp50
 70
     1
102
RTVSPropertyOp51
 70
     0
102
RTVSPropertyOp52
 70
     0
102
RTVSPropertyOp53
 70
     1
102
RTVSPropertyOp54
 70
     1
102
RTVSPropertyOp55
 70
     1
102
RTVSPropertyOp56
 70
     1
102
RTVSPropertyOp57
 70
     1
102
RTVSPropertyOp58
 70
     1
102
RTVSPropertyOp59
 70
     1
102
RTVSPropertyOp60
 70
     1
102
RTVSPropertyOp61
 70
     1
102
RTVSPropertyOp62
 70
     1
  0
XRECORD
  5
9C26
102
{ACAD_REACTORS
330
9C25
102
}
330
9C25
100
AcDbXrecord
280
     1
102
RTVSPost2010Prop28
280
     0
102
RTVSPost2010PropOp28
 70
     1
102
RTVSPost2010Prop29
280
     1
102
RTVSPost2010PropOp29
 70
     1
102
RTVSPost2010Prop30
280
     1
102
RTVSPost2010PropOp30
 70
     1
102
RTVSPost2010Prop31
280
     0
102
RTVSPost2010PropOp31
 70
     1
102
RTVSPost2010Prop32
280
     0
102
RTVSPost2010PropOp32
 70
     1
102
RTVSPost2010Prop33
280
     0
102
RTVSPost2010PropOp33
 70
     1
102
RTVSPost2010Prop34
280
     0
102
RTVSPost2010PropOp34
 70
     1
102
RTVSPost2010Prop35
280
     0
102
RTVSPost2010PropOp35
 70
     1
102
RTVSPost2010Prop36
280
     0
102
RTVSPost2010PropOp36
 70
     1
102
RTVSPost2010Prop37
 90
       50
102
RTVSPost2010PropOp37
 70
     1
102
RTVSPost2010Prop38
140
0.0
102
RTVSPost2010PropOp38
 70
     1
102
RTVSPost2010Prop39
140
1.0
102
RTVSPost2010PropOp39
 70
     1
102
RTVSPost2010Prop40
 90
        0
102
RTVSPost2010PropOp40
 70
     1
102
RTVSPost2010Prop41ColorIndex
 90
       18
102
RTVSPost2010Prop41ColorRGB
 90
        0
102
RTVSPost2010PropOp41
 70
     1
102
RTVSPost2010Prop42
 90
       50
102
RTVSPost2010PropOp42
 70
     1
102
RTVSPost2010Prop43
 90
        3
102
RTVSPost2010PropOp43
 70
     1
102
RTVSPost2010Prop44ColorIndex
 90
        5
102
RTVSPost2010Prop44ColorRGB
 90
      255
102
RTVSPost2010PropOp44
 70
     1
102
RTVSPost2010Prop45
280
     0
102
RTVSPost2010PropOp45
 70
     1
102
RTVSPost2010Prop46
 90
       50
102
RTVSPost2010PropOp46
 70
     1
102
RTVSPost2010Prop47
 90
       50
102
RTVSPost2010PropOp47
 70
     1
102
RTVSPost2010Prop48
 90
       50
102
RTVSPost2010PropOp48
 70
     1
102
RTVSPost2010Prop49
280
     0
102
RTVSPost2010PropOp49
 70
     1
102
RTVSPost2010Prop50
 90
       50
102
RTVSPost2010PropOp50
 70
     1
102
RTVSPost2010Prop51ColorIndex
 90
      256
102
RTVSPost2010Prop51ColorRGB
 90
-16777216
102
RTVSPost2010PropOp51
 70
     0
102
RTVSPost2010Prop52
140
1.0
102
RTVSPost2010PropOp52
 70
     0
102
RTVSPost2010Prop53
 90
        2
102
RTVSPost2010PropOp53
 70
     1
102
RTVSPost2010Prop54
  1
strokes_ogs.tif
102
RTVSPost2010PropOp54
 70
     1
102
RTVSPost2010Prop55
280
     0
102
RTVSPost2010PropOp55
 70
     1
102
RTVSPost2010Prop56
140
1.0
102
RTVSPost2010PropOp56
 70
     1
102
RTVSPost2010Prop57
140
1.0
102
RTVSPost2010PropOp57
 70
     1
102
RTVSPropertyOp0
 70
     0
102
RTVSPropertyOp1
 70
     0
102
RTVSPropertyOp2
 70
     0
102
RTVSPropertyOp3
 70
     0
102
RTVSPropertyOp4
 70
     0
102
RTVSPropertyOp5
 70
     0
102
RTVSPropertyOp6
 70
     0
102
RTVSPropertyOp7
 70
     0
102
RTVSPropertyOp8
 70
     0
102
RTVSPropertyOp9
 70
     0
102
RTVSPropertyOp10
 70
     0
102
RTVSPropertyOp11
 70
     0
102
RTVSPropertyOp12
 70
     0
102
RTVSPropertyOp13
 70
     0
102
RTVSPropertyOp14
 70
     2
102
RTVSPropertyOp15
 70
     0
102
RTVSPropertyOp16
 70
     0
102
RTVSPropertyOp17
 70
     0
102
RTVSPropertyOp18
 70
     0
102
RTVSPropertyOp19
 70
     0
102
RTVSPropertyOp20
 70
     0
102
RTVSPropertyOp21
 70
     0
102
RTVSPropertyOp22
 70
     0
102
RTVSPropertyOp23
 70
     0
102
RTVSPropertyOp24
 70
     0
102
RTVSPropertyOp25
 70
     0
102
RTVSPropertyOp26
 70
     0
102
RTVSPropertyOp27
 70
     0
102
RTVSPropertyOp28
 70
     1
102
RTVSPropertyOp29
 70
     1
102
RTVSPropertyOp30
 70
     1
102
RTVSPropertyOp31
 70
     1
102
RTVSPropertyOp32
 70
     1
102
RTVSPropertyOp33
 70
     1
102
RTVSPropertyOp34
 70
     1
102
RTVSPropertyOp35
 70
     1
102
RTVSPropertyOp36
 70
     1
102
RTVSPropertyOp37
 70
     1
102
RTVSPropertyOp38
 70
     1
102
RTVSPropertyOp39
 70
     1
102
RTVSPropertyOp40
 70
     1
102
RTVSPropertyOp41
 70
     1
102
RTVSPropertyOp42
 70
     1
102
RTVSPropertyOp43
 70
     1
102
RTVSPropertyOp44
 70
     1
102
RTVSPropertyOp45
 70
     1
102
RTVSPropertyOp46
 70
     1
102
RTVSPropertyOp47
 70
     1
102
RTVSPropertyOp48
 70
     1
102
RTVSPropertyOp49
 70
     1
102
RTVSPropertyOp50
 70
     1
102
RTVSPropertyOp51
 70
     0
102
RTVSPropertyOp52
 70
     0
102
RTVSPropertyOp53
 70
     1
102
RTVSPropertyOp54
 70
     1
102
RTVSPropertyOp55
 70
     1
102
RTVSPropertyOp56
 70
     1
102
RTVSPropertyOp57
 70
     1
102
RTVSPropertyOp58
 70
     1
102
RTVSPropertyOp59
 70
     1
102
RTVSPropertyOp60
 70
     1
102
RTVSPropertyOp61
 70
     1
102
RTVSPropertyOp62
 70
     1
  0
XRECORD
  5
9C1C
102
{ACAD_REACTORS
330
9C1B
102
}
330
9C1B
100
AcDbXrecord
280
     1
102
RTVSPost2010Prop28
280
     0
102
RTVSPost2010PropOp28
 70
     1
102
RTVSPost2010Prop29
280
     1
102
RTVSPost2010PropOp29
 70
     1
102
RTVSPost2010Prop30
280
     1
102
RTVSPost2010PropOp30
 70
     1
102
RTVSPost2010Prop31
280
     0
102
RTVSPost2010PropOp31
 70
     1
102
RTVSPost2010Prop32
280
     0
102
RTVSPost2010PropOp32
 70
     1
102
RTVSPost2010Prop33
280
     0
102
RTVSPost2010PropOp33
 70
     1
102
RTVSPost2010Prop34
280
     0
102
RTVSPost2010PropOp34
 70
     1
102
RTVSPost2010Prop35
280
     0
102
RTVSPost2010PropOp35
 70
     1
102
RTVSPost2010Prop36
280
     0
102
RTVSPost2010PropOp36
 70
     1
102
RTVSPost2010Prop37
 90
       50
102
RTVSPost2010PropOp37
 70
     1
102
RTVSPost2010Prop38
140
0.0
102
RTVSPost2010PropOp38
 70
     1
102
RTVSPost2010Prop39
140
1.0
102
RTVSPost2010PropOp39
 70
     1
102
RTVSPost2010Prop40
 90
        0
102
RTVSPost2010PropOp40
 70
     1
102
RTVSPost2010Prop41ColorIndex
 90
       18
102
RTVSPost2010Prop41ColorRGB
 90
        0
102
RTVSPost2010PropOp41
 70
     1
102
RTVSPost2010Prop42
 90
       50
102
RTVSPost2010PropOp42
 70
     1
102
RTVSPost2010Prop43
 90
        3
102
RTVSPost2010PropOp43
 70
     1
102
RTVSPost2010Prop44ColorIndex
 90
        5
102
RTVSPost2010Prop44ColorRGB
 90
      255
102
RTVSPost2010PropOp44
 70
     1
102
RTVSPost2010Prop45
280
     0
102
RTVSPost2010PropOp45
 70
     1
102
RTVSPost2010Prop46
 90
       50
102
RTVSPost2010PropOp46
 70
     1
102
RTVSPost2010Prop47
 90
       50
102
RTVSPost2010PropOp47
 70
     1
102
RTVSPost2010Prop48
 90
       50
102
RTVSPost2010PropOp48
 70
     1
102
RTVSPost2010Prop49
280
     0
102
RTVSPost2010PropOp49
 70
     1
102
RTVSPost2010Prop50
 90
       50
102
RTVSPost2010PropOp50
 70
     1
102
RTVSPost2010Prop51ColorIndex
 90
      256
102
RTVSPost2010Prop51ColorRGB
 90
-16777216
102
RTVSPost2010PropOp51
 70
     0
102
RTVSPost2010Prop52
140
1.0
102
RTVSPost2010PropOp52
 70
     0
102
RTVSPost2010Prop53
 90
        2
102
RTVSPost2010PropOp53
 70
     1
102
RTVSPost2010Prop54
  1
strokes_ogs.tif
102
RTVSPost2010PropOp54
 70
     1
102
RTVSPost2010Prop55
280
     0
102
RTVSPost2010PropOp55
 70
     1
102
RTVSPost2010Prop56
140
1.0
102
RTVSPost2010PropOp56
 70
     1
102
RTVSPost2010Prop57
140
1.0
102
RTVSPost2010PropOp57
 70
     1
102
RTVSPropertyOp0
 70
     1
102
RTVSPropertyOp1
 70
     1
102
RTVSPropertyOp2
 70
     1
102
RTVSPropertyOp3
 70
     1
102
RTVSPropertyOp4
 70
     1
102
RTVSPropertyOp5
 70
     1
102
RTVSPropertyOp6
 70
     1
102
RTVSPropertyOp7
 70
     1
102
RTVSPropertyOp8
 70
     1
102
RTVSPropertyOp9
 70
     1
102
RTVSPropertyOp10
 70
     1
102
RTVSPropertyOp11
 70
     1
102
RTVSPropertyOp12
 70
     1
102
RTVSPropertyOp13
 70
     1
102
RTVSPropertyOp14
 70
     1
102
RTVSPropertyOp15
 70
     1
102
RTVSPropertyOp16
 70
     1
102
RTVSPropertyOp17
 70
     1
102
RTVSPropertyOp18
 70
     1
102
RTVSPropertyOp19
 70
     1
102
RTVSPropertyOp20
 70
     1
102
RTVSPropertyOp21
 70
     1
102
RTVSPropertyOp22
 70
     1
102
RTVSPropertyOp23
 70
     1
102
RTVSPropertyOp24
 70
     1
102
RTVSPropertyOp25
 70
     1
102
RTVSPropertyOp26
 70
     1
102
RTVSPropertyOp27
 70
     1
102
RTVSPropertyOp28
 70
     1
102
RTVSPropertyOp29
 70
     1
102
RTVSPropertyOp30
 70
     1
102
RTVSPropertyOp31
 70
     1
102
RTVSPropertyOp32
 70
     1
102
RTVSPropertyOp33
 70
     1
102
RTVSPropertyOp34
 70
     1
102
RTVSPropertyOp35
 70
     1
102
RTVSPropertyOp36
 70
     1
102
RTVSPropertyOp37
 70
     1
102
RTVSPropertyOp38
 70
     1
102
RTVSPropertyOp39
 70
     1
102
RTVSPropertyOp40
 70
     1
102
RTVSPropertyOp41
 70
     1
102
RTVSPropertyOp42
 70
     1
102
RTVSPropertyOp43
 70
     1
102
RTVSPropertyOp44
 70
     1
102
RTVSPropertyOp45
 70
     1
102
RTVSPropertyOp46
 70
     1
102
RTVSPropertyOp47
 70
     1
102
RTVSPropertyOp48
 70
     1
102
RTVSPropertyOp49
 70
     1
102
RTVSPropertyOp50
 70
     1
102
RTVSPropertyOp51
 70
     0
102
RTVSPropertyOp52
 70
     0
102
RTVSPropertyOp53
 70
     1
102
RTVSPropertyOp54
 70
     1
102
RTVSPropertyOp55
 70
     1
102
RTVSPropertyOp56
 70
     1
102
RTVSPropertyOp57
 70
     1
102
RTVSPropertyOp58
 70
     1
102
RTVSPropertyOp59
 70
     1
102
RTVSPropertyOp60
 70
     1
102
RTVSPropertyOp61
 70
     1
102
RTVSPropertyOp62
 70
     1
  0
XRECORD
  5
9C00
102
{ACAD_REACTORS
330
9BFF
102
}
330
9BFF
100
AcDbXrecord
280
     1
102
RTVSPost2010Prop28
280
     0
102
RTVSPost2010PropOp28
 70
     1
102
RTVSPost2010Prop29
280
     1
102
RTVSPost2010PropOp29
 70
     1
102
RTVSPost2010Prop30
280
     1
102
RTVSPost2010PropOp30
 70
     1
102
RTVSPost2010Prop31
280
     0
102
RTVSPost2010PropOp31
 70
     1
102
RTVSPost2010Prop32
280
     0
102
RTVSPost2010PropOp32
 70
     1
102
RTVSPost2010Prop33
280
     0
102
RTVSPost2010PropOp33
 70
     1
102
RTVSPost2010Prop34
280
     0
102
RTVSPost2010PropOp34
 70
     1
102
RTVSPost2010Prop35
280
     0
102
RTVSPost2010PropOp35
 70
     1
102
RTVSPost2010Prop36
280
     0
102
RTVSPost2010PropOp36
 70
     1
102
RTVSPost2010Prop37
 90
       50
102
RTVSPost2010PropOp37
 70
     1
102
RTVSPost2010Prop38
140
0.0
102
RTVSPost2010PropOp38
 70
     1
102
RTVSPost2010Prop39
140
1.0
102
RTVSPost2010PropOp39
 70
     1
102
RTVSPost2010Prop40
 90
        0
102
RTVSPost2010PropOp40
 70
     1
102
RTVSPost2010Prop41ColorIndex
 90
       18
102
RTVSPost2010Prop41ColorRGB
 90
        0
102
RTVSPost2010PropOp41
 70
     1
102
RTVSPost2010Prop42
 90
       50
102
RTVSPost2010PropOp42
 70
     1
102
RTVSPost2010Prop43
 90
        3
102
RTVSPost2010PropOp43
 70
     1
102
RTVSPost2010Prop44ColorIndex
 90
        5
102
RTVSPost2010Prop44ColorRGB
 90
      255
102
RTVSPost2010PropOp44
 70
     1
102
RTVSPost2010Prop45
280
     0
102
RTVSPost2010PropOp45
 70
     1
102
RTVSPost2010Prop46
 90
       50
102
RTVSPost2010PropOp46
 70
     1
102
RTVSPost2010Prop47
 90
       50
102
RTVSPost2010PropOp47
 70
     1
102
RTVSPost2010Prop48
 90
       50
102
RTVSPost2010PropOp48
 70
     1
102
RTVSPost2010Prop49
280
     0
102
RTVSPost2010PropOp49
 70
     1
102
RTVSPost2010Prop50
 90
       50
102
RTVSPost2010PropOp50
 70
     1
102
RTVSPost2010Prop51ColorIndex
 90
      256
102
RTVSPost2010Prop51ColorRGB
 90
-16777216
102
RTVSPost2010PropOp51
 70
     0
102
RTVSPost2010Prop52
140
1.0
102
RTVSPost2010PropOp52
 70
     0
102
RTVSPost2010Prop53
 90
        2
102
RTVSPost2010PropOp53
 70
     1
102
RTVSPost2010Prop54
  1
strokes_ogs.tif
102
RTVSPost2010PropOp54
 70
     1
102
RTVSPost2010Prop55
280
     0
102
RTVSPost2010PropOp55
 70
     1
102
RTVSPost2010Prop56
140
1.0
102
RTVSPost2010PropOp56
 70
     1
102
RTVSPost2010Prop57
140
1.0
102
RTVSPost2010PropOp57
 70
     1
102
RTVSPropertyOp0
 70
     1
102
RTVSPropertyOp1
 70
     1
102
RTVSPropertyOp2
 70
     1
102
RTVSPropertyOp3
 70
     1
102
RTVSPropertyOp4
 70
     1
102
RTVSPropertyOp5
 70
     1
102
RTVSPropertyOp6
 70
     1
102
RTVSPropertyOp7
 70
     1
102
RTVSPropertyOp8
 70
     1
102
RTVSPropertyOp9
 70
     1
102
RTVSPropertyOp10
 70
     1
102
RTVSPropertyOp11
 70
     1
102
RTVSPropertyOp12
 70
     1
102
RTVSPropertyOp13
 70
     1
102
RTVSPropertyOp14
 70
     1
102
RTVSPropertyOp15
 70
     1
102
RTVSPropertyOp16
 70
     1
102
RTVSPropertyOp17
 70
     1
102
RTVSPropertyOp18
 70
     1
102
RTVSPropertyOp19
 70
     1
102
RTVSPropertyOp20
 70
     1
102
RTVSPropertyOp21
 70
     1
102
RTVSPropertyOp22
 70
     1
102
RTVSPropertyOp23
 70
     1
102
RTVSPropertyOp24
 70
     1
102
RTVSPropertyOp25
 70
     1
102
RTVSPropertyOp26
 70
     1
102
RTVSPropertyOp27
 70
     1
102
RTVSPropertyOp28
 70
     1
102
RTVSPropertyOp29
 70
     1
102
RTVSPropertyOp30
 70
     1
102
RTVSPropertyOp31
 70
     1
102
RTVSPropertyOp32
 70
     1
102
RTVSPropertyOp33
 70
     1
102
RTVSPropertyOp34
 70
     1
102
RTVSPropertyOp35
 70
     1
102
RTVSPropertyOp36
 70
     1
102
RTVSPropertyOp37
 70
     1
102
RTVSPropertyOp38
 70
     1
102
RTVSPropertyOp39
 70
     1
102
RTVSPropertyOp40
 70
     1
102
RTVSPropertyOp41
 70
     1
102
RTVSPropertyOp42
 70
     1
102
RTVSPropertyOp43
 70
     1
102
RTVSPropertyOp44
 70
     1
102
RTVSPropertyOp45
 70
     1
102
RTVSPropertyOp46
 70
     1
102
RTVSPropertyOp47
 70
     1
102
RTVSPropertyOp48
 70
     1
102
RTVSPropertyOp49
 70
     1
102
RTVSPropertyOp50
 70
     1
102
RTVSPropertyOp51
 70
     0
102
RTVSPropertyOp52
 70
     0
102
RTVSPropertyOp53
 70
     1
102
RTVSPropertyOp54
 70
     1
102
RTVSPropertyOp55
 70
     1
102
RTVSPropertyOp56
 70
     1
102
RTVSPropertyOp57
 70
     1
102
RTVSPropertyOp58
 70
     1
102
RTVSPropertyOp59
 70
     1
102
RTVSPropertyOp60
 70
     1
102
RTVSPropertyOp61
 70
     1
102
RTVSPropertyOp62
 70
     1
  0
XRECORD
  5
9C02
102
{ACAD_REACTORS
330
9C01
102
}
330
9C01
100
AcDbXrecord
280
     1
102
RTVSPost2010Prop28
280
     0
102
RTVSPost2010PropOp28
 70
     1
102
RTVSPost2010Prop29
280
     1
102
RTVSPost2010PropOp29
 70
     1
102
RTVSPost2010Prop30
280
     1
102
RTVSPost2010PropOp30
 70
     1
102
RTVSPost2010Prop31
280
     0
102
RTVSPost2010PropOp31
 70
     1
102
RTVSPost2010Prop32
280
     0
102
RTVSPost2010PropOp32
 70
     1
102
RTVSPost2010Prop33
280
     0
102
RTVSPost2010PropOp33
 70
     1
102
RTVSPost2010Prop34
280
     0
102
RTVSPost2010PropOp34
 70
     1
102
RTVSPost2010Prop35
280
     0
102
RTVSPost2010PropOp35
 70
     1
102
RTVSPost2010Prop36
280
     0
102
RTVSPost2010PropOp36
 70
     1
102
RTVSPost2010Prop37
 90
       50
102
RTVSPost2010PropOp37
 70
     1
102
RTVSPost2010Prop38
140
0.0
102
RTVSPost2010PropOp38
 70
     1
102
RTVSPost2010Prop39
140
1.0
102
RTVSPost2010PropOp39
 70
     1
102
RTVSPost2010Prop40
 90
        0
102
RTVSPost2010PropOp40
 70
     1
102
RTVSPost2010Prop41ColorIndex
 90
       18
102
RTVSPost2010Prop41ColorRGB
 90
        0
102
RTVSPost2010PropOp41
 70
     1
102
RTVSPost2010Prop42
 90
       50
102
RTVSPost2010PropOp42
 70
     1
102
RTVSPost2010Prop43
 90
        3
102
RTVSPost2010PropOp43
 70
     1
102
RTVSPost2010Prop44ColorIndex
 90
        5
102
RTVSPost2010Prop44ColorRGB
 90
      255
102
RTVSPost2010PropOp44
 70
     1
102
RTVSPost2010Prop45
280
     0
102
RTVSPost2010PropOp45
 70
     1
102
RTVSPost2010Prop46
 90
       50
102
RTVSPost2010PropOp46
 70
     1
102
RTVSPost2010Prop47
 90
       50
102
RTVSPost2010PropOp47
 70
     1
102
RTVSPost2010Prop48
 90
       50
102
RTVSPost2010PropOp48
 70
     1
102
RTVSPost2010Prop49
280
     0
102
RTVSPost2010PropOp49
 70
     1
102
RTVSPost2010Prop50
 90
       50
102
RTVSPost2010PropOp50
 70
     1
102
RTVSPost2010Prop51ColorIndex
 90
      256
102
RTVSPost2010Prop51ColorRGB
 90
-16777216
102
RTVSPost2010PropOp51
 70
     0
102
RTVSPost2010Prop52
140
1.0
102
RTVSPost2010PropOp52
 70
     0
102
RTVSPost2010Prop53
 90
        2
102
RTVSPost2010PropOp53
 70
     1
102
RTVSPost2010Prop54
  1
strokes_ogs.tif
102
RTVSPost2010PropOp54
 70
     1
102
RTVSPost2010Prop55
280
     0
102
RTVSPost2010PropOp55
 70
     1
102
RTVSPost2010Prop56
140
1.0
102
RTVSPost2010PropOp56
 70
     1
102
RTVSPost2010Prop57
140
1.0
102
RTVSPost2010PropOp57
 70
     1
102
RTVSPropertyOp0
 70
     1
102
RTVSPropertyOp1
 70
     1
102
RTVSPropertyOp2
 70
     1
102
RTVSPropertyOp3
 70
     1
102
RTVSPropertyOp4
 70
     1
102
RTVSPropertyOp5
 70
     1
102
RTVSPropertyOp6
 70
     1
102
RTVSPropertyOp7
 70
     1
102
RTVSPropertyOp8
 70
     1
102
RTVSPropertyOp9
 70
     1
102
RTVSPropertyOp10
 70
     1
102
RTVSPropertyOp11
 70
     1
102
RTVSPropertyOp12
 70
     1
102
RTVSPropertyOp13
 70
     1
102
RTVSPropertyOp14
 70
     1
102
RTVSPropertyOp15
 70
     1
102
RTVSPropertyOp16
 70
     1
102
RTVSPropertyOp17
 70
     1
102
RTVSPropertyOp18
 70
     1
102
RTVSPropertyOp19
 70
     1
102
RTVSPropertyOp20
 70
     1
102
RTVSPropertyOp21
 70
     1
102
RTVSPropertyOp22
 70
     1
102
RTVSPropertyOp23
 70
     1
102
RTVSPropertyOp24
 70
     1
102
RTVSPropertyOp25
 70
     1
102
RTVSPropertyOp26
 70
     1
102
RTVSPropertyOp27
 70
     1
102
RTVSPropertyOp28
 70
     1
102
RTVSPropertyOp29
 70
     1
102
RTVSPropertyOp30
 70
     1
102
RTVSPropertyOp31
 70
     1
102
RTVSPropertyOp32
 70
     1
102
RTVSPropertyOp33
 70
     1
102
RTVSPropertyOp34
 70
     1
102
RTVSPropertyOp35
 70
     1
102
RTVSPropertyOp36
 70
     1
102
RTVSPropertyOp37
 70
     1
102
RTVSPropertyOp38
 70
     1
102
RTVSPropertyOp39
 70
     1
102
RTVSPropertyOp40
 70
     1
102
RTVSPropertyOp41
 70
     1
102
RTVSPropertyOp42
 70
     1
102
RTVSPropertyOp43
 70
     1
102
RTVSPropertyOp44
 70
     1
102
RTVSPropertyOp45
 70
     1
102
RTVSPropertyOp46
 70
     1
102
RTVSPropertyOp47
 70
     1
102
RTVSPropertyOp48
 70
     1
102
RTVSPropertyOp49
 70
     1
102
RTVSPropertyOp50
 70
     1
102
RTVSPropertyOp51
 70
     0
102
RTVSPropertyOp52
 70
     0
102
RTVSPropertyOp53
 70
     1
102
RTVSPropertyOp54
 70
     1
102
RTVSPropertyOp55
 70
     1
102
RTVSPropertyOp56
 70
     1
102
RTVSPropertyOp57
 70
     1
102
RTVSPropertyOp58
 70
     1
102
RTVSPropertyOp59
 70
     1
102
RTVSPropertyOp60
 70
     1
102
RTVSPropertyOp61
 70
     1
102
RTVSPropertyOp62
 70
     1
  0
XRECORD
  5
9C04
102
{ACAD_REACTORS
330
9C03
102
}
330
9C03
100
AcDbXrecord
280
     1
102
RTVSPost2010Prop28
280
     0
102
RTVSPost2010PropOp28
 70
     1
102
RTVSPost2010Prop29
280
     1
102
RTVSPost2010PropOp29
 70
     1
102
RTVSPost2010Prop30
280
     1
102
RTVSPost2010PropOp30
 70
     1
102
RTVSPost2010Prop31
280
     0
102
RTVSPost2010PropOp31
 70
     1
102
RTVSPost2010Prop32
280
     0
102
RTVSPost2010PropOp32
 70
     1
102
RTVSPost2010Prop33
280
     0
102
RTVSPost2010PropOp33
 70
     1
102
RTVSPost2010Prop34
280
     0
102
RTVSPost2010PropOp34
 70
     1
102
RTVSPost2010Prop35
280
     0
102
RTVSPost2010PropOp35
 70
     1
102
RTVSPost2010Prop36
280
     0
102
RTVSPost2010PropOp36
 70
     1
102
RTVSPost2010Prop37
 90
       50
102
RTVSPost2010PropOp37
 70
     1
102
RTVSPost2010Prop38
140
0.0
102
RTVSPost2010PropOp38
 70
     1
102
RTVSPost2010Prop39
140
1.0
102
RTVSPost2010PropOp39
 70
     1
102
RTVSPost2010Prop40
 90
        0
102
RTVSPost2010PropOp40
 70
     1
102
RTVSPost2010Prop41ColorIndex
 90
       18
102
RTVSPost2010Prop41ColorRGB
 90
        0
102
RTVSPost2010PropOp41
 70
     1
102
RTVSPost2010Prop42
 90
       50
102
RTVSPost2010PropOp42
 70
     1
102
RTVSPost2010Prop43
 90
        3
102
RTVSPost2010PropOp43
 70
     1
102
RTVSPost2010Prop44ColorIndex
 90
        5
102
RTVSPost2010Prop44ColorRGB
 90
      255
102
RTVSPost2010PropOp44
 70
     1
102
RTVSPost2010Prop45
280
     0
102
RTVSPost2010PropOp45
 70
     1
102
RTVSPost2010Prop46
 90
       50
102
RTVSPost2010PropOp46
 70
     1
102
RTVSPost2010Prop47
 90
       50
102
RTVSPost2010PropOp47
 70
     1
102
RTVSPost2010Prop48
 90
       50
102
RTVSPost2010PropOp48
 70
     1
102
RTVSPost2010Prop49
280
     0
102
RTVSPost2010PropOp49
 70
     1
102
RTVSPost2010Prop50
 90
       50
102
RTVSPost2010PropOp50
 70
     1
102
RTVSPost2010Prop51ColorIndex
 90
      256
102
RTVSPost2010Prop51ColorRGB
 90
-16777216
102
RTVSPost2010PropOp51
 70
     0
102
RTVSPost2010Prop52
140
1.0
102
RTVSPost2010PropOp52
 70
     0
102
RTVSPost2010Prop53
 90
        2
102
RTVSPost2010PropOp53
 70
     1
102
RTVSPost2010Prop54
  1
strokes_ogs.tif
102
RTVSPost2010PropOp54
 70
     1
102
RTVSPost2010Prop55
280
     0
102
RTVSPost2010PropOp55
 70
     1
102
RTVSPost2010Prop56
140
1.0
102
RTVSPost2010PropOp56
 70
     1
102
RTVSPost2010Prop57
140
1.0
102
RTVSPost2010PropOp57
 70
     1
102
RTVSPropertyOp0
 70
     1
102
RTVSPropertyOp1
 70
     1
102
RTVSPropertyOp2
 70
     1
102
RTVSPropertyOp3
 70
     1
102
RTVSPropertyOp4
 70
     1
102
RTVSPropertyOp5
 70
     1
102
RTVSPropertyOp6
 70
     1
102
RTVSPropertyOp7
 70
     1
102
RTVSPropertyOp8
 70
     1
102
RTVSPropertyOp9
 70
     1
102
RTVSPropertyOp10
 70
     1
102
RTVSPropertyOp11
 70
     1
102
RTVSPropertyOp12
 70
     1
102
RTVSPropertyOp13
 70
     1
102
RTVSPropertyOp14
 70
     1
102
RTVSPropertyOp15
 70
     1
102
RTVSPropertyOp16
 70
     1
102
RTVSPropertyOp17
 70
     1
102
RTVSPropertyOp18
 70
     1
102
RTVSPropertyOp19
 70
     1
102
RTVSPropertyOp20
 70
     1
102
RTVSPropertyOp21
 70
     1
102
RTVSPropertyOp22
 70
     1
102
RTVSPropertyOp23
 70
     1
102
RTVSPropertyOp24
 70
     1
102
RTVSPropertyOp25
 70
     1
102
RTVSPropertyOp26
 70
     1
102
RTVSPropertyOp27
 70
     1
102
RTVSPropertyOp28
 70
     1
102
RTVSPropertyOp29
 70
     1
102
RTVSPropertyOp30
 70
     1
102
RTVSPropertyOp31
 70
     1
102
RTVSPropertyOp32
 70
     1
102
RTVSPropertyOp33
 70
     1
102
RTVSPropertyOp34
 70
     1
102
RTVSPropertyOp35
 70
     1
102
RTVSPropertyOp36
 70
     1
102
RTVSPropertyOp37
 70
     1
102
RTVSPropertyOp38
 70
     1
102
RTVSPropertyOp39
 70
     1
102
RTVSPropertyOp40
 70
     1
102
RTVSPropertyOp41
 70
     1
102
RTVSPropertyOp42
 70
     1
102
RTVSPropertyOp43
 70
     1
102
RTVSPropertyOp44
 70
     1
102
RTVSPropertyOp45
 70
     1
102
RTVSPropertyOp46
 70
     1
102
RTVSPropertyOp47
 70
     1
102
RTVSPropertyOp48
 70
     1
102
RTVSPropertyOp49
 70
     1
102
RTVSPropertyOp50
 70
     1
102
RTVSPropertyOp51
 70
     0
102
RTVSPropertyOp52
 70
     0
102
RTVSPropertyOp53
 70
     1
102
RTVSPropertyOp54
 70
     1
102
RTVSPropertyOp55
 70
     1
102
RTVSPropertyOp56
 70
     1
102
RTVSPropertyOp57
 70
     1
102
RTVSPropertyOp58
 70
     1
102
RTVSPropertyOp59
 70
     1
102
RTVSPropertyOp60
 70
     1
102
RTVSPropertyOp61
 70
     1
102
RTVSPropertyOp62
 70
     1
  0
XRECORD
  5
9C06
102
{ACAD_REACTORS
330
9C05
102
}
330
9C05
100
AcDbXrecord
280
     1
102
RTVSPost2010Prop28
280
     0
102
RTVSPost2010PropOp28
 70
     1
102
RTVSPost2010Prop29
280
     1
102
RTVSPost2010PropOp29
 70
     1
102
RTVSPost2010Prop30
280
     1
102
RTVSPost2010PropOp30
 70
     1
102
RTVSPost2010Prop31
280
     0
102
RTVSPost2010PropOp31
 70
     1
102
RTVSPost2010Prop32
280
     0
102
RTVSPost2010PropOp32
 70
     1
102
RTVSPost2010Prop33
280
     0
102
RTVSPost2010PropOp33
 70
     1
102
RTVSPost2010Prop34
280
     0
102
RTVSPost2010PropOp34
 70
     1
102
RTVSPost2010Prop35
280
     0
102
RTVSPost2010PropOp35
 70
     1
102
RTVSPost2010Prop36
280
     0
102
RTVSPost2010PropOp36
 70
     1
102
RTVSPost2010Prop37
 90
       50
102
RTVSPost2010PropOp37
 70
     1
102
RTVSPost2010Prop38
140
0.0
102
RTVSPost2010PropOp38
 70
     1
102
RTVSPost2010Prop39
140
1.0
102
RTVSPost2010PropOp39
 70
     1
102
RTVSPost2010Prop40
 90
        0
102
RTVSPost2010PropOp40
 70
     1
102
RTVSPost2010Prop41ColorIndex
 90
       18
102
RTVSPost2010Prop41ColorRGB
 90
        0
102
RTVSPost2010PropOp41
 70
     1
102
RTVSPost2010Prop42
 90
       50
102
RTVSPost2010PropOp42
 70
     1
102
RTVSPost2010Prop43
 90
        3
102
RTVSPost2010PropOp43
 70
     1
102
RTVSPost2010Prop44ColorIndex
 90
        5
102
RTVSPost2010Prop44ColorRGB
 90
      255
102
RTVSPost2010PropOp44
 70
     1
102
RTVSPost2010Prop45
280
     0
102
RTVSPost2010PropOp45
 70
     1
102
RTVSPost2010Prop46
 90
       50
102
RTVSPost2010PropOp46
 70
     1
102
RTVSPost2010Prop47
 90
       50
102
RTVSPost2010PropOp47
 70
     1
102
RTVSPost2010Prop48
 90
       50
102
RTVSPost2010PropOp48
 70
     1
102
RTVSPost2010Prop49
280
     0
102
RTVSPost2010PropOp49
 70
     1
102
RTVSPost2010Prop50
 90
       50
102
RTVSPost2010PropOp50
 70
     1
102
RTVSPost2010Prop51ColorIndex
 90
      256
102
RTVSPost2010Prop51ColorRGB
 90
-16777216
102
RTVSPost2010PropOp51
 70
     0
102
RTVSPost2010Prop52
140
1.0
102
RTVSPost2010PropOp52
 70
     0
102
RTVSPost2010Prop53
 90
        2
102
RTVSPost2010PropOp53
 70
     1
102
RTVSPost2010Prop54
  1
strokes_ogs.tif
102
RTVSPost2010PropOp54
 70
     1
102
RTVSPost2010Prop55
280
     0
102
RTVSPost2010PropOp55
 70
     1
102
RTVSPost2010Prop56
140
1.0
102
RTVSPost2010PropOp56
 70
     1
102
RTVSPost2010Prop57
140
1.0
102
RTVSPost2010PropOp57
 70
     1
102
RTVSPropertyOp0
 70
     1
102
RTVSPropertyOp1
 70
     1
102
RTVSPropertyOp2
 70
     1
102
RTVSPropertyOp3
 70
     1
102
RTVSPropertyOp4
 70
     1
102
RTVSPropertyOp5
 70
     1
102
RTVSPropertyOp6
 70
     1
102
RTVSPropertyOp7
 70
     1
102
RTVSPropertyOp8
 70
     1
102
RTVSPropertyOp9
 70
     1
102
RTVSPropertyOp10
 70
     1
102
RTVSPropertyOp11
 70
     1
102
RTVSPropertyOp12
 70
     1
102
RTVSPropertyOp13
 70
     1
102
RTVSPropertyOp14
 70
     1
102
RTVSPropertyOp15
 70
     1
102
RTVSPropertyOp16
 70
     1
102
RTVSPropertyOp17
 70
     1
102
RTVSPropertyOp18
 70
     1
102
RTVSPropertyOp19
 70
     1
102
RTVSPropertyOp20
 70
     1
102
RTVSPropertyOp21
 70
     1
102
RTVSPropertyOp22
 70
     1
102
RTVSPropertyOp23
 70
     1
102
RTVSPropertyOp24
 70
     1
102
RTVSPropertyOp25
 70
     1
102
RTVSPropertyOp26
 70
     1
102
RTVSPropertyOp27
 70
     1
102
RTVSPropertyOp28
 70
     1
102
RTVSPropertyOp29
 70
     1
102
RTVSPropertyOp30
 70
     1
102
RTVSPropertyOp31
 70
     1
102
RTVSPropertyOp32
 70
     1
102
RTVSPropertyOp33
 70
     1
102
RTVSPropertyOp34
 70
     1
102
RTVSPropertyOp35
 70
     1
102
RTVSPropertyOp36
 70
     1
102
RTVSPropertyOp37
 70
     1
102
RTVSPropertyOp38
 70
     1
102
RTVSPropertyOp39
 70
     1
102
RTVSPropertyOp40
 70
     1
102
RTVSPropertyOp41
 70
     1
102
RTVSPropertyOp42
 70
     1
102
RTVSPropertyOp43
 70
     1
102
RTVSPropertyOp44
 70
     1
102
RTVSPropertyOp45
 70
     1
102
RTVSPropertyOp46
 70
     1
102
RTVSPropertyOp47
 70
     1
102
RTVSPropertyOp48
 70
     1
102
RTVSPropertyOp49
 70
     1
102
RTVSPropertyOp50
 70
     1
102
RTVSPropertyOp51
 70
     0
102
RTVSPropertyOp52
 70
     0
102
RTVSPropertyOp53
 70
     1
102
RTVSPropertyOp54
 70
     1
102
RTVSPropertyOp55
 70
     1
102
RTVSPropertyOp56
 70
     1
102
RTVSPropertyOp57
 70
     1
102
RTVSPropertyOp58
 70
     1
102
RTVSPropertyOp59
 70
     1
102
RTVSPropertyOp60
 70
     1
102
RTVSPropertyOp61
 70
     1
102
RTVSPropertyOp62
 70
     1
  0
XRECORD
  5
9C0E
102
{ACAD_REACTORS
330
9C0D
102
}
330
9C0D
100
AcDbXrecord
280
     1
102
RTVSPost2010Prop28
280
     0
102
RTVSPost2010PropOp28
 70
     1
102
RTVSPost2010Prop29
280
     1
102
RTVSPost2010PropOp29
 70
     1
102
RTVSPost2010Prop30
280
     1
102
RTVSPost2010PropOp30
 70
     1
102
RTVSPost2010Prop31
280
     0
102
RTVSPost2010PropOp31
 70
     1
102
RTVSPost2010Prop32
280
     0
102
RTVSPost2010PropOp32
 70
     1
102
RTVSPost2010Prop33
280
     0
102
RTVSPost2010PropOp33
 70
     1
102
RTVSPost2010Prop34
280
     0
102
RTVSPost2010PropOp34
 70
     1
102
RTVSPost2010Prop35
280
     0
102
RTVSPost2010PropOp35
 70
     1
102
RTVSPost2010Prop36
280
     0
102
RTVSPost2010PropOp36
 70
     1
102
RTVSPost2010Prop37
 90
       50
102
RTVSPost2010PropOp37
 70
     1
102
RTVSPost2010Prop38
140
0.0
102
RTVSPost2010PropOp38
 70
     1
102
RTVSPost2010Prop39
140
1.0
102
RTVSPost2010PropOp39
 70
     1
102
RTVSPost2010Prop40
 90
        0
102
RTVSPost2010PropOp40
 70
     1
102
RTVSPost2010Prop41ColorIndex
 90
       18
102
RTVSPost2010Prop41ColorRGB
 90
        0
102
RTVSPost2010PropOp41
 70
     1
102
RTVSPost2010Prop42
 90
       50
102
RTVSPost2010PropOp42
 70
     1
102
RTVSPost2010Prop43
 90
        3
102
RTVSPost2010PropOp43
 70
     1
102
RTVSPost2010Prop44ColorIndex
 90
        5
102
RTVSPost2010Prop44ColorRGB
 90
      255
102
RTVSPost2010PropOp44
 70
     1
102
RTVSPost2010Prop45
280
     0
102
RTVSPost2010PropOp45
 70
     1
102
RTVSPost2010Prop46
 90
       50
102
RTVSPost2010PropOp46
 70
     1
102
RTVSPost2010Prop47
 90
       50
102
RTVSPost2010PropOp47
 70
     1
102
RTVSPost2010Prop48
 90
       50
102
RTVSPost2010PropOp48
 70
     1
102
RTVSPost2010Prop49
280
     0
102
RTVSPost2010PropOp49
 70
     1
102
RTVSPost2010Prop50
 90
       50
102
RTVSPost2010PropOp50
 70
     1
102
RTVSPost2010Prop51ColorIndex
 90
      256
102
RTVSPost2010Prop51ColorRGB
 90
-16777216
102
RTVSPost2010PropOp51
 70
     0
102
RTVSPost2010Prop52
140
1.0
102
RTVSPost2010PropOp52
 70
     0
102
RTVSPost2010Prop53
 90
        2
102
RTVSPost2010PropOp53
 70
     1
102
RTVSPost2010Prop54
  1
strokes_ogs.tif
102
RTVSPost2010PropOp54
 70
     1
102
RTVSPost2010Prop55
280
     0
102
RTVSPost2010PropOp55
 70
     1
102
RTVSPost2010Prop56
140
1.0
102
RTVSPost2010PropOp56
 70
     1
102
RTVSPost2010Prop57
140
1.0
102
RTVSPost2010PropOp57
 70
     1
102
RTVSPropertyOp0
 70
     1
102
RTVSPropertyOp1
 70
     1
102
RTVSPropertyOp2
 70
     1
102
RTVSPropertyOp3
 70
     1
102
RTVSPropertyOp4
 70
     1
102
RTVSPropertyOp5
 70
     1
102
RTVSPropertyOp6
 70
     1
102
RTVSPropertyOp7
 70
     1
102
RTVSPropertyOp8
 70
     1
102
RTVSPropertyOp9
 70
     1
102
RTVSPropertyOp10
 70
     1
102
RTVSPropertyOp11
 70
     1
102
RTVSPropertyOp12
 70
     1
102
RTVSPropertyOp13
 70
     1
102
RTVSPropertyOp14
 70
     1
102
RTVSPropertyOp15
 70
     1
102
RTVSPropertyOp16
 70
     1
102
RTVSPropertyOp17
 70
     1
102
RTVSPropertyOp18
 70
     1
102
RTVSPropertyOp19
 70
     1
102
RTVSPropertyOp20
 70
     1
102
RTVSPropertyOp21
 70
     1
102
RTVSPropertyOp22
 70
     1
102
RTVSPropertyOp23
 70
     1
102
RTVSPropertyOp24
 70
     1
102
RTVSPropertyOp25
 70
     1
102
RTVSPropertyOp26
 70
     1
102
RTVSPropertyOp27
 70
     1
102
RTVSPropertyOp28
 70
     1
102
RTVSPropertyOp29
 70
     1
102
RTVSPropertyOp30
 70
     1
102
RTVSPropertyOp31
 70
     1
102
RTVSPropertyOp32
 70
     1
102
RTVSPropertyOp33
 70
     1
102
RTVSPropertyOp34
 70
     1
102
RTVSPropertyOp35
 70
     1
102
RTVSPropertyOp36
 70
     1
102
RTVSPropertyOp37
 70
     1
102
RTVSPropertyOp38
 70
     1
102
RTVSPropertyOp39
 70
     1
102
RTVSPropertyOp40
 70
     1
102
RTVSPropertyOp41
 70
     1
102
RTVSPropertyOp42
 70
     1
102
RTVSPropertyOp43
 70
     1
102
RTVSPropertyOp44
 70
     1
102
RTVSPropertyOp45
 70
     1
102
RTVSPropertyOp46
 70
     1
102
RTVSPropertyOp47
 70
     1
102
RTVSPropertyOp48
 70
     1
102
RTVSPropertyOp49
 70
     1
102
RTVSPropertyOp50
 70
     1
102
RTVSPropertyOp51
 70
     0
102
RTVSPropertyOp52
 70
     0
102
RTVSPropertyOp53
 70
     1
102
RTVSPropertyOp54
 70
     1
102
RTVSPropertyOp55
 70
     1
102
RTVSPropertyOp56
 70
     1
102
RTVSPropertyOp57
 70
     1
102
RTVSPropertyOp58
 70
     1
102
RTVSPropertyOp59
 70
     1
102
RTVSPropertyOp60
 70
     1
102
RTVSPropertyOp61
 70
     1
102
RTVSPropertyOp62
 70
     1
  0
XRECORD
  5
9C22
102
{ACAD_REACTORS
330
9C21
102
}
330
9C21
100
AcDbXrecord
280
     1
102
RTVSPost2010Prop28
280
     0
102
RTVSPost2010PropOp28
 70
     1
102
RTVSPost2010Prop29
280
     1
102
RTVSPost2010PropOp29
 70
     1
102
RTVSPost2010Prop30
280
     1
102
RTVSPost2010PropOp30
 70
     1
102
RTVSPost2010Prop31
280
     0
102
RTVSPost2010PropOp31
 70
     1
102
RTVSPost2010Prop32
280
     0
102
RTVSPost2010PropOp32
 70
     1
102
RTVSPost2010Prop33
280
     0
102
RTVSPost2010PropOp33
 70
     1
102
RTVSPost2010Prop34
280
     0
102
RTVSPost2010PropOp34
 70
     1
102
RTVSPost2010Prop35
280
     0
102
RTVSPost2010PropOp35
 70
     1
102
RTVSPost2010Prop36
280
     0
102
RTVSPost2010PropOp36
 70
     1
102
RTVSPost2010Prop37
 90
       50
102
RTVSPost2010PropOp37
 70
     1
102
RTVSPost2010Prop38
140
0.0
102
RTVSPost2010PropOp38
 70
     1
102
RTVSPost2010Prop39
140
1.0
102
RTVSPost2010PropOp39
 70
     1
102
RTVSPost2010Prop40
 90
        0
102
RTVSPost2010PropOp40
 70
     1
102
RTVSPost2010Prop41ColorIndex
 90
       18
102
RTVSPost2010Prop41ColorRGB
 90
        0
102
RTVSPost2010PropOp41
 70
     1
102
RTVSPost2010Prop42
 90
       50
102
RTVSPost2010PropOp42
 70
     1
102
RTVSPost2010Prop43
 90
        3
102
RTVSPost2010PropOp43
 70
     1
102
RTVSPost2010Prop44ColorIndex
 90
        5
102
RTVSPost2010Prop44ColorRGB
 90
      255
102
RTVSPost2010PropOp44
 70
     1
102
RTVSPost2010Prop45
280
     0
102
RTVSPost2010PropOp45
 70
     1
102
RTVSPost2010Prop46
 90
       50
102
RTVSPost2010PropOp46
 70
     1
102
RTVSPost2010Prop47
 90
       50
102
RTVSPost2010PropOp47
 70
     1
102
RTVSPost2010Prop48
 90
       50
102
RTVSPost2010PropOp48
 70
     1
102
RTVSPost2010Prop49
280
     0
102
RTVSPost2010PropOp49
 70
     1
102
RTVSPost2010Prop50
 90
       50
102
RTVSPost2010PropOp50
 70
     1
102
RTVSPost2010Prop51ColorIndex
 90
      256
102
RTVSPost2010Prop51ColorRGB
 90
-16777216
102
RTVSPost2010PropOp51
 70
     0
102
RTVSPost2010Prop52
140
1.0
102
RTVSPost2010PropOp52
 70
     0
102
RTVSPost2010Prop53
 90
        2
102
RTVSPost2010PropOp53
 70
     1
102
RTVSPost2010Prop54
  1
strokes_ogs.tif
102
RTVSPost2010PropOp54
 70
     1
102
RTVSPost2010Prop55
280
     0
102
RTVSPost2010PropOp55
 70
     1
102
RTVSPost2010Prop56
140
1.0
102
RTVSPost2010PropOp56
 70
     1
102
RTVSPost2010Prop57
140
1.0
102
RTVSPost2010PropOp57
 70
     1
102
RTVSPropertyOp0
 70
     0
102
RTVSPropertyOp1
 70
     0
102
RTVSPropertyOp2
 70
     0
102
RTVSPropertyOp3
 70
     0
102
RTVSPropertyOp4
 70
     0
102
RTVSPropertyOp5
 70
     0
102
RTVSPropertyOp6
 70
     0
102
RTVSPropertyOp7
 70
     0
102
RTVSPropertyOp8
 70
     0
102
RTVSPropertyOp9
 70
     0
102
RTVSPropertyOp10
 70
     0
102
RTVSPropertyOp11
 70
     0
102
RTVSPropertyOp12
 70
     0
102
RTVSPropertyOp13
 70
     0
102
RTVSPropertyOp14
 70
     2
102
RTVSPropertyOp15
 70
     0
102
RTVSPropertyOp16
 70
     0
102
RTVSPropertyOp17
 70
     0
102
RTVSPropertyOp18
 70
     0
102
RTVSPropertyOp19
 70
     0
102
RTVSPropertyOp20
 70
     0
102
RTVSPropertyOp21
 70
     0
102
RTVSPropertyOp22
 70
     0
102
RTVSPropertyOp23
 70
     0
102
RTVSPropertyOp24
 70
     0
102
RTVSPropertyOp25
 70
     0
102
RTVSPropertyOp26
 70
     0
102
RTVSPropertyOp27
 70
     0
102
RTVSPropertyOp28
 70
     1
102
RTVSPropertyOp29
 70
     1
102
RTVSPropertyOp30
 70
     1
102
RTVSPropertyOp31
 70
     1
102
RTVSPropertyOp32
 70
     1
102
RTVSPropertyOp33
 70
     1
102
RTVSPropertyOp34
 70
     1
102
RTVSPropertyOp35
 70
     1
102
RTVSPropertyOp36
 70
     1
102
RTVSPropertyOp37
 70
     1
102
RTVSPropertyOp38
 70
     1
102
RTVSPropertyOp39
 70
     1
102
RTVSPropertyOp40
 70
     1
102
RTVSPropertyOp41
 70
     1
102
RTVSPropertyOp42
 70
     1
102
RTVSPropertyOp43
 70
     1
102
RTVSPropertyOp44
 70
     1
102
RTVSPropertyOp45
 70
     1
102
RTVSPropertyOp46
 70
     1
102
RTVSPropertyOp47
 70
     1
102
RTVSPropertyOp48
 70
     1
102
RTVSPropertyOp49
 70
     1
102
RTVSPropertyOp50
 70
     1
102
RTVSPropertyOp51
 70
     0
102
RTVSPropertyOp52
 70
     0
102
RTVSPropertyOp53
 70
     1
102
RTVSPropertyOp54
 70
     1
102
RTVSPropertyOp55
 70
     1
102
RTVSPropertyOp56
 70
     1
102
RTVSPropertyOp57
 70
     1
102
RTVSPropertyOp58
 70
     1
102
RTVSPropertyOp59
 70
     1
102
RTVSPropertyOp60
 70
     1
102
RTVSPropertyOp61
 70
     1
102
RTVSPropertyOp62
 70
     1
  0
XRECORD
  5
9C1A
102
{ACAD_REACTORS
330
9C19
102
}
330
9C19
100
AcDbXrecord
280
     1
102
RTVSPost2010Prop28
280
     0
102
RTVSPost2010PropOp28
 70
     1
102
RTVSPost2010Prop29
280
     1
102
RTVSPost2010PropOp29
 70
     1
102
RTVSPost2010Prop30
280
     1
102
RTVSPost2010PropOp30
 70
     1
102
RTVSPost2010Prop31
280
     0
102
RTVSPost2010PropOp31
 70
     1
102
RTVSPost2010Prop32
280
     0
102
RTVSPost2010PropOp32
 70
     1
102
RTVSPost2010Prop33
280
     0
102
RTVSPost2010PropOp33
 70
     1
102
RTVSPost2010Prop34
280
     0
102
RTVSPost2010PropOp34
 70
     1
102
RTVSPost2010Prop35
280
     0
102
RTVSPost2010PropOp35
 70
     1
102
RTVSPost2010Prop36
280
     0
102
RTVSPost2010PropOp36
 70
     1
102
RTVSPost2010Prop37
 90
       50
102
RTVSPost2010PropOp37
 70
     1
102
RTVSPost2010Prop38
140
0.0
102
RTVSPost2010PropOp38
 70
     1
102
RTVSPost2010Prop39
140
1.0
102
RTVSPost2010PropOp39
 70
     1
102
RTVSPost2010Prop40
 90
        0
102
RTVSPost2010PropOp40
 70
     1
102
RTVSPost2010Prop41ColorIndex
 90
       18
102
RTVSPost2010Prop41ColorRGB
 90
        0
102
RTVSPost2010PropOp41
 70
     1
102
RTVSPost2010Prop42
 90
       50
102
RTVSPost2010PropOp42
 70
     1
102
RTVSPost2010Prop43
 90
        3
102
RTVSPost2010PropOp43
 70
     1
102
RTVSPost2010Prop44ColorIndex
 90
        5
102
RTVSPost2010Prop44ColorRGB
 90
      255
102
RTVSPost2010PropOp44
 70
     1
102
RTVSPost2010Prop45
280
     0
102
RTVSPost2010PropOp45
 70
     1
102
RTVSPost2010Prop46
 90
       50
102
RTVSPost2010PropOp46
 70
     1
102
RTVSPost2010Prop47
 90
       50
102
RTVSPost2010PropOp47
 70
     1
102
RTVSPost2010Prop48
 90
       50
102
RTVSPost2010PropOp48
 70
     1
102
RTVSPost2010Prop49
280
     0
102
RTVSPost2010PropOp49
 70
     1
102
RTVSPost2010Prop50
 90
       50
102
RTVSPost2010PropOp50
 70
     1
102
RTVSPost2010Prop51ColorIndex
 90
      256
102
RTVSPost2010Prop51ColorRGB
 90
-16777216
102
RTVSPost2010PropOp51
 70
     0
102
RTVSPost2010Prop52
140
1.0
102
RTVSPost2010PropOp52
 70
     0
102
RTVSPost2010Prop53
 90
        2
102
RTVSPost2010PropOp53
 70
     1
102
RTVSPost2010Prop54
  1
strokes_ogs.tif
102
RTVSPost2010PropOp54
 70
     1
102
RTVSPost2010Prop55
280
     0
102
RTVSPost2010PropOp55
 70
     1
102
RTVSPost2010Prop56
140
1.0
102
RTVSPost2010PropOp56
 70
     1
102
RTVSPost2010Prop57
140
1.0
102
RTVSPost2010PropOp57
 70
     1
102
RTVSPropertyOp0
 70
     1
102
RTVSPropertyOp1
 70
     1
102
RTVSPropertyOp2
 70
     1
102
RTVSPropertyOp3
 70
     1
102
RTVSPropertyOp4
 70
     1
102
RTVSPropertyOp5
 70
     1
102
RTVSPropertyOp6
 70
     1
102
RTVSPropertyOp7
 70
     1
102
RTVSPropertyOp8
 70
     1
102
RTVSPropertyOp9
 70
     1
102
RTVSPropertyOp10
 70
     1
102
RTVSPropertyOp11
 70
     1
102
RTVSPropertyOp12
 70
     1
102
RTVSPropertyOp13
 70
     1
102
RTVSPropertyOp14
 70
     1
102
RTVSPropertyOp15
 70
     1
102
RTVSPropertyOp16
 70
     1
102
RTVSPropertyOp17
 70
     1
102
RTVSPropertyOp18
 70
     1
102
RTVSPropertyOp19
 70
     1
102
RTVSPropertyOp20
 70
     1
102
RTVSPropertyOp21
 70
     1
102
RTVSPropertyOp22
 70
     1
102
RTVSPropertyOp23
 70
     1
102
RTVSPropertyOp24
 70
     1
102
RTVSPropertyOp25
 70
     1
102
RTVSPropertyOp26
 70
     1
102
RTVSPropertyOp27
 70
     1
102
RTVSPropertyOp28
 70
     1
102
RTVSPropertyOp29
 70
     1
102
RTVSPropertyOp30
 70
     1
102
RTVSPropertyOp31
 70
     1
102
RTVSPropertyOp32
 70
     1
102
RTVSPropertyOp33
 70
     1
102
RTVSPropertyOp34
 70
     1
102
RTVSPropertyOp35
 70
     1
102
RTVSPropertyOp36
 70
     1
102
RTVSPropertyOp37
 70
     1
102
RTVSPropertyOp38
 70
     1
102
RTVSPropertyOp39
 70
     1
102
RTVSPropertyOp40
 70
     1
102
RTVSPropertyOp41
 70
     1
102
RTVSPropertyOp42
 70
     1
102
RTVSPropertyOp43
 70
     1
102
RTVSPropertyOp44
 70
     1
102
RTVSPropertyOp45
 70
     1
102
RTVSPropertyOp46
 70
     1
102
RTVSPropertyOp47
 70
     1
102
RTVSPropertyOp48
 70
     1
102
RTVSPropertyOp49
 70
     1
102
RTVSPropertyOp50
 70
     1
102
RTVSPropertyOp51
 70
     0
102
RTVSPropertyOp52
 70
     0
102
RTVSPropertyOp53
 70
     1
102
RTVSPropertyOp54
 70
     1
102
RTVSPropertyOp55
 70
     1
102
RTVSPropertyOp56
 70
     1
102
RTVSPropertyOp57
 70
     1
102
RTVSPropertyOp58
 70
     1
102
RTVSPropertyOp59
 70
     1
102
RTVSPropertyOp60
 70
     1
102
RTVSPropertyOp61
 70
     1
102
RTVSPropertyOp62
 70
     1
  0
XRECORD
  5
9C24
102
{ACAD_REACTORS
330
9C23
102
}
330
9C23
100
AcDbXrecord
280
     1
102
RTVSPost2010Prop28
280
     0
102
RTVSPost2010PropOp28
 70
     1
102
RTVSPost2010Prop29
280
     1
102
RTVSPost2010PropOp29
 70
     1
102
RTVSPost2010Prop30
280
     1
102
RTVSPost2010PropOp30
 70
     1
102
RTVSPost2010Prop31
280
     0
102
RTVSPost2010PropOp31
 70
     1
102
RTVSPost2010Prop32
280
     0
102
RTVSPost2010PropOp32
 70
     1
102
RTVSPost2010Prop33
280
     0
102
RTVSPost2010PropOp33
 70
     1
102
RTVSPost2010Prop34
280
     0
102
RTVSPost2010PropOp34
 70
     1
102
RTVSPost2010Prop35
280
     0
102
RTVSPost2010PropOp35
 70
     1
102
RTVSPost2010Prop36
280
     0
102
RTVSPost2010PropOp36
 70
     1
102
RTVSPost2010Prop37
 90
       50
102
RTVSPost2010PropOp37
 70
     1
102
RTVSPost2010Prop38
140
0.0
102
RTVSPost2010PropOp38
 70
     1
102
RTVSPost2010Prop39
140
1.0
102
RTVSPost2010PropOp39
 70
     1
102
RTVSPost2010Prop40
 90
        0
102
RTVSPost2010PropOp40
 70
     1
102
RTVSPost2010Prop41ColorIndex
 90
       18
102
RTVSPost2010Prop41ColorRGB
 90
        0
102
RTVSPost2010PropOp41
 70
     1
102
RTVSPost2010Prop42
 90
       50
102
RTVSPost2010PropOp42
 70
     1
102
RTVSPost2010Prop43
 90
        3
102
RTVSPost2010PropOp43
 70
     1
102
RTVSPost2010Prop44ColorIndex
 90
        5
102
RTVSPost2010Prop44ColorRGB
 90
      255
102
RTVSPost2010PropOp44
 70
     1
102
RTVSPost2010Prop45
280
     0
102
RTVSPost2010PropOp45
 70
     1
102
RTVSPost2010Prop46
 90
       50
102
RTVSPost2010PropOp46
 70
     1
102
RTVSPost2010Prop47
 90
       50
102
RTVSPost2010PropOp47
 70
     1
102
RTVSPost2010Prop48
 90
       50
102
RTVSPost2010PropOp48
 70
     1
102
RTVSPost2010Prop49
280
     0
102
RTVSPost2010PropOp49
 70
     1
102
RTVSPost2010Prop50
 90
       50
102
RTVSPost2010PropOp50
 70
     1
102
RTVSPost2010Prop51ColorIndex
 90
      256
102
RTVSPost2010Prop51ColorRGB
 90
-16777216
102
RTVSPost2010PropOp51
 70
     0
102
RTVSPost2010Prop52
140
1.0
102
RTVSPost2010PropOp52
 70
     0
102
RTVSPost2010Prop53
 90
        2
102
RTVSPost2010PropOp53
 70
     1
102
RTVSPost2010Prop54
  1
strokes_ogs.tif
102
RTVSPost2010PropOp54
 70
     1
102
RTVSPost2010Prop55
280
     0
102
RTVSPost2010PropOp55
 70
     1
102
RTVSPost2010Prop56
140
1.0
102
RTVSPost2010PropOp56
 70
     1
102
RTVSPost2010Prop57
140
1.0
102
RTVSPost2010PropOp57
 70
     1
102
RTVSPropertyOp0
 70
     0
102
RTVSPropertyOp1
 70
     0
102
RTVSPropertyOp2
 70
     0
102
RTVSPropertyOp3
 70
     0
102
RTVSPropertyOp4
 70
     0
102
RTVSPropertyOp5
 70
     0
102
RTVSPropertyOp6
 70
     0
102
RTVSPropertyOp7
 70
     0
102
RTVSPropertyOp8
 70
     0
102
RTVSPropertyOp9
 70
     0
102
RTVSPropertyOp10
 70
     0
102
RTVSPropertyOp11
 70
     0
102
RTVSPropertyOp12
 70
     0
102
RTVSPropertyOp13
 70
     0
102
RTVSPropertyOp14
 70
     2
102
RTVSPropertyOp15
 70
     0
102
RTVSPropertyOp16
 70
     0
102
RTVSPropertyOp17
 70
     0
102
RTVSPropertyOp18
 70
     0
102
RTVSPropertyOp19
 70
     0
102
RTVSPropertyOp20
 70
     0
102
RTVSPropertyOp21
 70
     0
102
RTVSPropertyOp22
 70
     0
102
RTVSPropertyOp23
 70
     0
102
RTVSPropertyOp24
 70
     0
102
RTVSPropertyOp25
 70
     0
102
RTVSPropertyOp26
 70
     0
102
RTVSPropertyOp27
 70
     0
102
RTVSPropertyOp28
 70
     1
102
RTVSPropertyOp29
 70
     1
102
RTVSPropertyOp30
 70
     1
102
RTVSPropertyOp31
 70
     1
102
RTVSPropertyOp32
 70
     1
102
RTVSPropertyOp33
 70
     1
102
RTVSPropertyOp34
 70
     1
102
RTVSPropertyOp35
 70
     1
102
RTVSPropertyOp36
 70
     1
102
RTVSPropertyOp37
 70
     1
102
RTVSPropertyOp38
 70
     1
102
RTVSPropertyOp39
 70
     1
102
RTVSPropertyOp40
 70
     1
102
RTVSPropertyOp41
 70
     1
102
RTVSPropertyOp42
 70
     1
102
RTVSPropertyOp43
 70
     1
102
RTVSPropertyOp44
 70
     1
102
RTVSPropertyOp45
 70
     1
102
RTVSPropertyOp46
 70
     1
102
RTVSPropertyOp47
 70
     1
102
RTVSPropertyOp48
 70
     1
102
RTVSPropertyOp49
 70
     1
102
RTVSPropertyOp50
 70
     1
102
RTVSPropertyOp51
 70
     0
102
RTVSPropertyOp52
 70
     0
102
RTVSPropertyOp53
 70
     1
102
RTVSPropertyOp54
 70
     1
102
RTVSPropertyOp55
 70
     1
102
RTVSPropertyOp56
 70
     1
102
RTVSPropertyOp57
 70
     1
102
RTVSPropertyOp58
 70
     1
102
RTVSPropertyOp59
 70
     1
102
RTVSPropertyOp60
 70
     1
102
RTVSPropertyOp61
 70
     1
102
RTVSPropertyOp62
 70
     1
  0
XRECORD
  5
9C12
102
{ACAD_REACTORS
330
9C11
102
}
330
9C11
100
AcDbXrecord
280
     1
102
RTVSPost2010Prop28
280
     0
102
RTVSPost2010PropOp28
 70
     1
102
RTVSPost2010Prop29
280
     1
102
RTVSPost2010PropOp29
 70
     1
102
RTVSPost2010Prop30
280
     1
102
RTVSPost2010PropOp30
 70
     1
102
RTVSPost2010Prop31
280
     0
102
RTVSPost2010PropOp31
 70
     1
102
RTVSPost2010Prop32
280
     0
102
RTVSPost2010PropOp32
 70
     1
102
RTVSPost2010Prop33
280
     0
102
RTVSPost2010PropOp33
 70
     1
102
RTVSPost2010Prop34
280
     0
102
RTVSPost2010PropOp34
 70
     1
102
RTVSPost2010Prop35
280
     0
102
RTVSPost2010PropOp35
 70
     1
102
RTVSPost2010Prop36
280
     0
102
RTVSPost2010PropOp36
 70
     1
102
RTVSPost2010Prop37
 90
       50
102
RTVSPost2010PropOp37
 70
     1
102
RTVSPost2010Prop38
140
0.0
102
RTVSPost2010PropOp38
 70
     1
102
RTVSPost2010Prop39
140
1.0
102
RTVSPost2010PropOp39
 70
     1
102
RTVSPost2010Prop40
 90
        0
102
RTVSPost2010PropOp40
 70
     1
102
RTVSPost2010Prop41ColorIndex
 90
       18
102
RTVSPost2010Prop41ColorRGB
 90
        0
102
RTVSPost2010PropOp41
 70
     1
102
RTVSPost2010Prop42
 90
       50
102
RTVSPost2010PropOp42
 70
     1
102
RTVSPost2010Prop43
 90
        3
102
RTVSPost2010PropOp43
 70
     1
102
RTVSPost2010Prop44ColorIndex
 90
        5
102
RTVSPost2010Prop44ColorRGB
 90
      255
102
RTVSPost2010PropOp44
 70
     1
102
RTVSPost2010Prop45
280
     0
102
RTVSPost2010PropOp45
 70
     1
102
RTVSPost2010Prop46
 90
       50
102
RTVSPost2010PropOp46
 70
     1
102
RTVSPost2010Prop47
 90
       50
102
RTVSPost2010PropOp47
 70
     1
102
RTVSPost2010Prop48
 90
       50
102
RTVSPost2010PropOp48
 70
     1
102
RTVSPost2010Prop49
280
     0
102
RTVSPost2010PropOp49
 70
     1
102
RTVSPost2010Prop50
 90
       50
102
RTVSPost2010PropOp50
 70
     1
102
RTVSPost2010Prop51ColorIndex
 90
      256
102
RTVSPost2010Prop51ColorRGB
 90
-16777216
102
RTVSPost2010PropOp51
 70
     0
102
RTVSPost2010Prop52
140
1.0
102
RTVSPost2010PropOp52
 70
     0
102
RTVSPost2010Prop53
 90
        2
102
RTVSPost2010PropOp53
 70
     1
102
RTVSPost2010Prop54
  1
strokes_ogs.tif
102
RTVSPost2010PropOp54
 70
     1
102
RTVSPost2010Prop55
280
     0
102
RTVSPost2010PropOp55
 70
     1
102
RTVSPost2010Prop56
140
1.0
102
RTVSPost2010PropOp56
 70
     1
102
RTVSPost2010Prop57
140
1.0
102
RTVSPost2010PropOp57
 70
     1
102
RTVSPropertyOp0
 70
     1
102
RTVSPropertyOp1
 70
     1
102
RTVSPropertyOp2
 70
     1
102
RTVSPropertyOp3
 70
     1
102
RTVSPropertyOp4
 70
     1
102
RTVSPropertyOp5
 70
     1
102
RTVSPropertyOp6
 70
     1
102
RTVSPropertyOp7
 70
     1
102
RTVSPropertyOp8
 70
     1
102
RTVSPropertyOp9
 70
     1
102
RTVSPropertyOp10
 70
     1
102
RTVSPropertyOp11
 70
     1
102
RTVSPropertyOp12
 70
     1
102
RTVSPropertyOp13
 70
     1
102
RTVSPropertyOp14
 70
     1
102
RTVSPropertyOp15
 70
     1
102
RTVSPropertyOp16
 70
     1
102
RTVSPropertyOp17
 70
     1
102
RTVSPropertyOp18
 70
     1
102
RTVSPropertyOp19
 70
     1
102
RTVSPropertyOp20
 70
     1
102
RTVSPropertyOp21
 70
     1
102
RTVSPropertyOp22
 70
     1
102
RTVSPropertyOp23
 70
     1
102
RTVSPropertyOp24
 70
     1
102
RTVSPropertyOp25
 70
     1
102
RTVSPropertyOp26
 70
     1
102
RTVSPropertyOp27
 70
     1
102
RTVSPropertyOp28
 70
     1
102
RTVSPropertyOp29
 70
     1
102
RTVSPropertyOp30
 70
     1
102
RTVSPropertyOp31
 70
     1
102
RTVSPropertyOp32
 70
     1
102
RTVSPropertyOp33
 70
     1
102
RTVSPropertyOp34
 70
     1
102
RTVSPropertyOp35
 70
     1
102
RTVSPropertyOp36
 70
     1
102
RTVSPropertyOp37
 70
     1
102
RTVSPropertyOp38
 70
     1
102
RTVSPropertyOp39
 70
     1
102
RTVSPropertyOp40
 70
     1
102
RTVSPropertyOp41
 70
     1
102
RTVSPropertyOp42
 70
     1
102
RTVSPropertyOp43
 70
     1
102
RTVSPropertyOp44
 70
     1
102
RTVSPropertyOp45
 70
     1
102
RTVSPropertyOp46
 70
     1
102
RTVSPropertyOp47
 70
     1
102
RTVSPropertyOp48
 70
     1
102
RTVSPropertyOp49
 70
     1
102
RTVSPropertyOp50
 70
     1
102
RTVSPropertyOp51
 70
     0
102
RTVSPropertyOp52
 70
     0
102
RTVSPropertyOp53
 70
     1
102
RTVSPropertyOp54
 70
     1
102
RTVSPropertyOp55
 70
     1
102
RTVSPropertyOp56
 70
     1
102
RTVSPropertyOp57
 70
     1
102
RTVSPropertyOp58
 70
     1
102
RTVSPropertyOp59
 70
     1
102
RTVSPropertyOp60
 70
     1
102
RTVSPropertyOp61
 70
     1
102
RTVSPropertyOp62
 70
     1
  0
XRECORD
  5
9C30
102
{ACAD_REACTORS
330
9C2F
102
}
330
9C2F
100
AcDbXrecord
280
     1
102
RTVSPost2010Prop28
280
     0
102
RTVSPost2010PropOp28
 70
     1
102
RTVSPost2010Prop29
280
     1
102
RTVSPost2010PropOp29
 70
     1
102
RTVSPost2010Prop30
280
     1
102
RTVSPost2010PropOp30
 70
     1
102
RTVSPost2010Prop31
280
     0
102
RTVSPost2010PropOp31
 70
     1
102
RTVSPost2010Prop32
280
     0
102
RTVSPost2010PropOp32
 70
     1
102
RTVSPost2010Prop33
280
     0
102
RTVSPost2010PropOp33
 70
     1
102
RTVSPost2010Prop34
280
     0
102
RTVSPost2010PropOp34
 70
     1
102
RTVSPost2010Prop35
280
     0
102
RTVSPost2010PropOp35
 70
     1
102
RTVSPost2010Prop36
280
     0
102
RTVSPost2010PropOp36
 70
     1
102
RTVSPost2010Prop37
 90
       50
102
RTVSPost2010PropOp37
 70
     1
102
RTVSPost2010Prop38
140
0.0
102
RTVSPost2010PropOp38
 70
     1
102
RTVSPost2010Prop39
140
1.0
102
RTVSPost2010PropOp39
 70
     1
102
RTVSPost2010Prop40
 90
        0
102
RTVSPost2010PropOp40
 70
     1
102
RTVSPost2010Prop41ColorIndex
 90
       18
102
RTVSPost2010Prop41ColorRGB
 90
        0
102
RTVSPost2010PropOp41
 70
     1
102
RTVSPost2010Prop42
 90
       50
102
RTVSPost2010PropOp42
 70
     1
102
RTVSPost2010Prop43
 90
        3
102
RTVSPost2010PropOp43
 70
     1
102
RTVSPost2010Prop44ColorIndex
 90
        5
102
RTVSPost2010Prop44ColorRGB
 90
      255
102
RTVSPost2010PropOp44
 70
     1
102
RTVSPost2010Prop45
280
     0
102
RTVSPost2010PropOp45
 70
     1
102
RTVSPost2010Prop46
 90
       50
102
RTVSPost2010PropOp46
 70
     1
102
RTVSPost2010Prop47
 90
       50
102
RTVSPost2010PropOp47
 70
     1
102
RTVSPost2010Prop48
 90
       50
102
RTVSPost2010PropOp48
 70
     1
102
RTVSPost2010Prop49
280
     0
102
RTVSPost2010PropOp49
 70
     1
102
RTVSPost2010Prop50
 90
       50
102
RTVSPost2010PropOp50
 70
     1
102
RTVSPost2010Prop51ColorIndex
 90
      256
102
RTVSPost2010Prop51ColorRGB
 90
-16777216
102
RTVSPost2010PropOp51
 70
     0
102
RTVSPost2010Prop52
140
1.0
102
RTVSPost2010PropOp52
 70
     0
102
RTVSPost2010Prop53
 90
        2
102
RTVSPost2010PropOp53
 70
     1
102
RTVSPost2010Prop54
  1
strokes_ogs.tif
102
RTVSPost2010PropOp54
 70
     1
102
RTVSPost2010Prop55
280
     0
102
RTVSPost2010PropOp55
 70
     1
102
RTVSPost2010Prop56
140
1.0
102
RTVSPost2010PropOp56
 70
     1
102
RTVSPost2010Prop57
140
1.0
102
RTVSPost2010PropOp57
 70
     1
102
RTVSPropertyOp0
 70
     1
102
RTVSPropertyOp1
 70
     1
102
RTVSPropertyOp2
 70
     1
102
RTVSPropertyOp3
 70
     1
102
RTVSPropertyOp4
 70
     1
102
RTVSPropertyOp5
 70
     1
102
RTVSPropertyOp6
 70
     1
102
RTVSPropertyOp7
 70
     1
102
RTVSPropertyOp8
 70
     1
102
RTVSPropertyOp9
 70
     1
102
RTVSPropertyOp10
 70
     1
102
RTVSPropertyOp11
 70
     1
102
RTVSPropertyOp12
 70
     1
102
RTVSPropertyOp13
 70
     1
102
RTVSPropertyOp14
 70
     1
102
RTVSPropertyOp15
 70
     1
102
RTVSPropertyOp16
 70
     1
102
RTVSPropertyOp17
 70
     1
102
RTVSPropertyOp18
 70
     1
102
RTVSPropertyOp19
 70
     1
102
RTVSPropertyOp20
 70
     1
102
RTVSPropertyOp21
 70
     1
102
RTVSPropertyOp22
 70
     1
102
RTVSPropertyOp23
 70
     1
102
RTVSPropertyOp24
 70
     1
102
RTVSPropertyOp25
 70
     1
102
RTVSPropertyOp26
 70
     1
102
RTVSPropertyOp27
 70
     1
102
RTVSPropertyOp28
 70
     1
102
RTVSPropertyOp29
 70
     1
102
RTVSPropertyOp30
 70
     1
102
RTVSPropertyOp31
 70
     1
102
RTVSPropertyOp32
 70
     1
102
RTVSPropertyOp33
 70
     1
102
RTVSPropertyOp34
 70
     1
102
RTVSPropertyOp35
 70
     1
102
RTVSPropertyOp36
 70
     1
102
RTVSPropertyOp37
 70
     1
102
RTVSPropertyOp38
 70
     1
102
RTVSPropertyOp39
 70
     1
102
RTVSPropertyOp40
 70
     1
102
RTVSPropertyOp41
 70
     1
102
RTVSPropertyOp42
 70
     1
102
RTVSPropertyOp43
 70
     1
102
RTVSPropertyOp44
 70
     1
102
RTVSPropertyOp45
 70
     1
102
RTVSPropertyOp46
 70
     1
102
RTVSPropertyOp47
 70
     1
102
RTVSPropertyOp48
 70
     1
102
RTVSPropertyOp49
 70
     1
102
RTVSPropertyOp50
 70
     1
102
RTVSPropertyOp51
 70
     0
102
RTVSPropertyOp52
 70
     0
102
RTVSPropertyOp53
 70
     1
102
RTVSPropertyOp54
 70
     1
102
RTVSPropertyOp55
 70
     1
102
RTVSPropertyOp56
 70
     1
102
RTVSPropertyOp57
 70
     1
102
RTVSPropertyOp58
 70
     1
102
RTVSPropertyOp59
 70
     1
102
RTVSPropertyOp60
 70
     1
102
RTVSPropertyOp61
 70
     1
102
RTVSPropertyOp62
 70
     1
  0
XRECORD
  5
9C2E
102
{ACAD_REACTORS
330
9C2D
102
}
330
9C2D
100
AcDbXrecord
280
     1
102
RTVSPost2010Prop28
280
     0
102
RTVSPost2010PropOp28
 70
     1
102
RTVSPost2010Prop29
280
     1
102
RTVSPost2010PropOp29
 70
     1
102
RTVSPost2010Prop30
280
     1
102
RTVSPost2010PropOp30
 70
     1
102
RTVSPost2010Prop31
280
     0
102
RTVSPost2010PropOp31
 70
     1
102
RTVSPost2010Prop32
280
     0
102
RTVSPost2010PropOp32
 70
     1
102
RTVSPost2010Prop33
280
     0
102
RTVSPost2010PropOp33
 70
     1
102
RTVSPost2010Prop34
280
     0
102
RTVSPost2010PropOp34
 70
     1
102
RTVSPost2010Prop35
280
     0
102
RTVSPost2010PropOp35
 70
     1
102
RTVSPost2010Prop36
280
     0
102
RTVSPost2010PropOp36
 70
     1
102
RTVSPost2010Prop37
 90
       50
102
RTVSPost2010PropOp37
 70
     1
102
RTVSPost2010Prop38
140
0.0
102
RTVSPost2010PropOp38
 70
     1
102
RTVSPost2010Prop39
140
1.0
102
RTVSPost2010PropOp39
 70
     1
102
RTVSPost2010Prop40
 90
        0
102
RTVSPost2010PropOp40
 70
     1
102
RTVSPost2010Prop41ColorIndex
 90
       18
102
RTVSPost2010Prop41ColorRGB
 90
        0
102
RTVSPost2010PropOp41
 70
     1
102
RTVSPost2010Prop42
 90
       50
102
RTVSPost2010PropOp42
 70
     1
102
RTVSPost2010Prop43
 90
        3
102
RTVSPost2010PropOp43
 70
     1
102
RTVSPost2010Prop44ColorIndex
 90
        5
102
RTVSPost2010Prop44ColorRGB
 90
      255
102
RTVSPost2010PropOp44
 70
     1
102
RTVSPost2010Prop45
280
     0
102
RTVSPost2010PropOp45
 70
     1
102
RTVSPost2010Prop46
 90
       50
102
RTVSPost2010PropOp46
 70
     1
102
RTVSPost2010Prop47
 90
       50
102
RTVSPost2010PropOp47
 70
     1
102
RTVSPost2010Prop48
 90
       50
102
RTVSPost2010PropOp48
 70
     1
102
RTVSPost2010Prop49
280
     0
102
RTVSPost2010PropOp49
 70
     1
102
RTVSPost2010Prop50
 90
       50
102
RTVSPost2010PropOp50
 70
     1
102
RTVSPost2010Prop51ColorIndex
 90
      256
102
RTVSPost2010Prop51ColorRGB
 90
-16777216
102
RTVSPost2010PropOp51
 70
     0
102
RTVSPost2010Prop52
140
1.0
102
RTVSPost2010PropOp52
 70
     0
102
RTVSPost2010Prop53
 90
        2
102
RTVSPost2010PropOp53
 70
     1
102
RTVSPost2010Prop54
  1
strokes_ogs.tif
102
RTVSPost2010PropOp54
 70
     1
102
RTVSPost2010Prop55
280
     0
102
RTVSPost2010PropOp55
 70
     1
102
RTVSPost2010Prop56
140
1.0
102
RTVSPost2010PropOp56
 70
     1
102
RTVSPost2010Prop57
140
1.0
102
RTVSPost2010PropOp57
 70
     1
102
RTVSPropertyOp0
 70
     1
102
RTVSPropertyOp1
 70
     1
102
RTVSPropertyOp2
 70
     1
102
RTVSPropertyOp3
 70
     1
102
RTVSPropertyOp4
 70
     1
102
RTVSPropertyOp5
 70
     1
102
RTVSPropertyOp6
 70
     1
102
RTVSPropertyOp7
 70
     1
102
RTVSPropertyOp8
 70
     1
102
RTVSPropertyOp9
 70
     1
102
RTVSPropertyOp10
 70
     1
102
RTVSPropertyOp11
 70
     1
102
RTVSPropertyOp12
 70
     1
102
RTVSPropertyOp13
 70
     1
102
RTVSPropertyOp14
 70
     1
102
RTVSPropertyOp15
 70
     1
102
RTVSPropertyOp16
 70
     1
102
RTVSPropertyOp17
 70
     1
102
RTVSPropertyOp18
 70
     1
102
RTVSPropertyOp19
 70
     1
102
RTVSPropertyOp20
 70
     1
102
RTVSPropertyOp21
 70
     1
102
RTVSPropertyOp22
 70
     1
102
RTVSPropertyOp23
 70
     1
102
RTVSPropertyOp24
 70
     1
102
RTVSPropertyOp25
 70
     1
102
RTVSPropertyOp26
 70
     1
102
RTVSPropertyOp27
 70
     1
102
RTVSPropertyOp28
 70
     1
102
RTVSPropertyOp29
 70
     1
102
RTVSPropertyOp30
 70
     1
102
RTVSPropertyOp31
 70
     1
102
RTVSPropertyOp32
 70
     1
102
RTVSPropertyOp33
 70
     1
102
RTVSPropertyOp34
 70
     1
102
RTVSPropertyOp35
 70
     1
102
RTVSPropertyOp36
 70
     1
102
RTVSPropertyOp37
 70
     1
102
RTVSPropertyOp38
 70
     1
102
RTVSPropertyOp39
 70
     1
102
RTVSPropertyOp40
 70
     1
102
RTVSPropertyOp41
 70
     1
102
RTVSPropertyOp42
 70
     1
102
RTVSPropertyOp43
 70
     1
102
RTVSPropertyOp44
 70
     1
102
RTVSPropertyOp45
 70
     1
102
RTVSPropertyOp46
 70
     1
102
RTVSPropertyOp47
 70
     1
102
RTVSPropertyOp48
 70
     1
102
RTVSPropertyOp49
 70
     1
102
RTVSPropertyOp50
 70
     1
102
RTVSPropertyOp51
 70
     0
102
RTVSPropertyOp52
 70
     0
102
RTVSPropertyOp53
 70
     1
102
RTVSPropertyOp54
 70
     1
102
RTVSPropertyOp55
 70
     1
102
RTVSPropertyOp56
 70
     1
102
RTVSPropertyOp57
 70
     1
102
RTVSPropertyOp58
 70
     1
102
RTVSPropertyOp59
 70
     1
102
RTVSPropertyOp60
 70
     1
102
RTVSPropertyOp61
 70
     1
102
RTVSPropertyOp62
 70
     1
  0
XRECORD
  5
9C28
102
{ACAD_REACTORS
330
9C27
102
}
330
9C27
100
AcDbXrecord
280
     1
102
RTVSPost2010Prop28
280
     0
102
RTVSPost2010PropOp28
 70
     1
102
RTVSPost2010Prop29
280
     1
102
RTVSPost2010PropOp29
 70
     1
102
RTVSPost2010Prop30
280
     1
102
RTVSPost2010PropOp30
 70
     1
102
RTVSPost2010Prop31
280
     0
102
RTVSPost2010PropOp31
 70
     1
102
RTVSPost2010Prop32
280
     0
102
RTVSPost2010PropOp32
 70
     1
102
RTVSPost2010Prop33
280
     0
102
RTVSPost2010PropOp33
 70
     1
102
RTVSPost2010Prop34
280
     0
102
RTVSPost2010PropOp34
 70
     1
102
RTVSPost2010Prop35
280
     0
102
RTVSPost2010PropOp35
 70
     1
102
RTVSPost2010Prop36
280
     0
102
RTVSPost2010PropOp36
 70
     1
102
RTVSPost2010Prop37
 90
       50
102
RTVSPost2010PropOp37
 70
     1
102
RTVSPost2010Prop38
140
0.0
102
RTVSPost2010PropOp38
 70
     1
102
RTVSPost2010Prop39
140
1.0
102
RTVSPost2010PropOp39
 70
     1
102
RTVSPost2010Prop40
 90
        0
102
RTVSPost2010PropOp40
 70
     1
102
RTVSPost2010Prop41ColorIndex
 90
       18
102
RTVSPost2010Prop41ColorRGB
 90
        0
102
RTVSPost2010PropOp41
 70
     1
102
RTVSPost2010Prop42
 90
       50
102
RTVSPost2010PropOp42
 70
     1
102
RTVSPost2010Prop43
 90
        3
102
RTVSPost2010PropOp43
 70
     1
102
RTVSPost2010Prop44ColorIndex
 90
        5
102
RTVSPost2010Prop44ColorRGB
 90
      255
102
RTVSPost2010PropOp44
 70
     1
102
RTVSPost2010Prop45
280
     0
102
RTVSPost2010PropOp45
 70
     1
102
RTVSPost2010Prop46
 90
       50
102
RTVSPost2010PropOp46
 70
     1
102
RTVSPost2010Prop47
 90
       50
102
RTVSPost2010PropOp47
 70
     1
102
RTVSPost2010Prop48
 90
       50
102
RTVSPost2010PropOp48
 70
     1
102
RTVSPost2010Prop49
280
     0
102
RTVSPost2010PropOp49
 70
     1
102
RTVSPost2010Prop50
 90
       50
102
RTVSPost2010PropOp50
 70
     1
102
RTVSPost2010Prop51ColorIndex
 90
      256
102
RTVSPost2010Prop51ColorRGB
 90
-16777216
102
RTVSPost2010PropOp51
 70
     0
102
RTVSPost2010Prop52
140
1.0
102
RTVSPost2010PropOp52
 70
     0
102
RTVSPost2010Prop53
 90
        2
102
RTVSPost2010PropOp53
 70
     1
102
RTVSPost2010Prop54
  1
strokes_ogs.tif
102
RTVSPost2010PropOp54
 70
     1
102
RTVSPost2010Prop55
280
     0
102
RTVSPost2010PropOp55
 70
     1
102
RTVSPost2010Prop56
140
1.0
102
RTVSPost2010PropOp56
 70
     1
102
RTVSPost2010Prop57
140
1.0
102
RTVSPost2010PropOp57
 70
     1
102
RTVSPropertyOp0
 70
     1
102
RTVSPropertyOp1
 70
     1
102
RTVSPropertyOp2
 70
     1
102
RTVSPropertyOp3
 70
     1
102
RTVSPropertyOp4
 70
     1
102
RTVSPropertyOp5
 70
     1
102
RTVSPropertyOp6
 70
     1
102
RTVSPropertyOp7
 70
     1
102
RTVSPropertyOp8
 70
     1
102
RTVSPropertyOp9
 70
     1
102
RTVSPropertyOp10
 70
     1
102
RTVSPropertyOp11
 70
     1
102
RTVSPropertyOp12
 70
     1
102
RTVSPropertyOp13
 70
     1
102
RTVSPropertyOp14
 70
     1
102
RTVSPropertyOp15
 70
     1
102
RTVSPropertyOp16
 70
     1
102
RTVSPropertyOp17
 70
     1
102
RTVSPropertyOp18
 70
     1
102
RTVSPropertyOp19
 70
     1
102
RTVSPropertyOp20
 70
     1
102
RTVSPropertyOp21
 70
     1
102
RTVSPropertyOp22
 70
     1
102
RTVSPropertyOp23
 70
     1
102
RTVSPropertyOp24
 70
     1
102
RTVSPropertyOp25
 70
     1
102
RTVSPropertyOp26
 70
     1
102
RTVSPropertyOp27
 70
     1
102
RTVSPropertyOp28
 70
     1
102
RTVSPropertyOp29
 70
     1
102
RTVSPropertyOp30
 70
     1
102
RTVSPropertyOp31
 70
     1
102
RTVSPropertyOp32
 70
     1
102
RTVSPropertyOp33
 70
     1
102
RTVSPropertyOp34
 70
     1
102
RTVSPropertyOp35
 70
     1
102
RTVSPropertyOp36
 70
     1
102
RTVSPropertyOp37
 70
     1
102
RTVSPropertyOp38
 70
     1
102
RTVSPropertyOp39
 70
     1
102
RTVSPropertyOp40
 70
     1
102
RTVSPropertyOp41
 70
     1
102
RTVSPropertyOp42
 70
     1
102
RTVSPropertyOp43
 70
     1
102
RTVSPropertyOp44
 70
     1
102
RTVSPropertyOp45
 70
     1
102
RTVSPropertyOp46
 70
     1
102
RTVSPropertyOp47
 70
     1
102
RTVSPropertyOp48
 70
     1
102
RTVSPropertyOp49
 70
     1
102
RTVSPropertyOp50
 70
     1
102
RTVSPropertyOp51
 70
     0
102
RTVSPropertyOp52
 70
     0
102
RTVSPropertyOp53
 70
     1
102
RTVSPropertyOp54
 70
     1
102
RTVSPropertyOp55
 70
     1
102
RTVSPropertyOp56
 70
     1
102
RTVSPropertyOp57
 70
     1
102
RTVSPropertyOp58
 70
     1
102
RTVSPropertyOp59
 70
     1
102
RTVSPropertyOp60
 70
     1
102
RTVSPropertyOp61
 70
     1
102
RTVSPropertyOp62
 70
     1
  0
XRECORD
  5
9C2A
102
{ACAD_REACTORS
330
9C29
102
}
330
9C29
100
AcDbXrecord
280
     1
102
RTVSPost2010Prop28
280
     0
102
RTVSPost2010PropOp28
 70
     1
102
RTVSPost2010Prop29
280
     1
102
RTVSPost2010PropOp29
 70
     1
102
RTVSPost2010Prop30
280
     1
102
RTVSPost2010PropOp30
 70
     1
102
RTVSPost2010Prop31
280
     0
102
RTVSPost2010PropOp31
 70
     1
102
RTVSPost2010Prop32
280
     0
102
RTVSPost2010PropOp32
 70
     1
102
RTVSPost2010Prop33
280
     0
102
RTVSPost2010PropOp33
 70
     1
102
RTVSPost2010Prop34
280
     0
102
RTVSPost2010PropOp34
 70
     1
102
RTVSPost2010Prop35
280
     0
102
RTVSPost2010PropOp35
 70
     1
102
RTVSPost2010Prop36
280
     0
102
RTVSPost2010PropOp36
 70
     1
102
RTVSPost2010Prop37
 90
       50
102
RTVSPost2010PropOp37
 70
     1
102
RTVSPost2010Prop38
140
0.0
102
RTVSPost2010PropOp38
 70
     1
102
RTVSPost2010Prop39
140
1.0
102
RTVSPost2010PropOp39
 70
     1
102
RTVSPost2010Prop40
 90
        0
102
RTVSPost2010PropOp40
 70
     1
102
RTVSPost2010Prop41ColorIndex
 90
       18
102
RTVSPost2010Prop41ColorRGB
 90
        0
102
RTVSPost2010PropOp41
 70
     1
102
RTVSPost2010Prop42
 90
       50
102
RTVSPost2010PropOp42
 70
     1
102
RTVSPost2010Prop43
 90
        3
102
RTVSPost2010PropOp43
 70
     1
102
RTVSPost2010Prop44ColorIndex
 90
        5
102
RTVSPost2010Prop44ColorRGB
 90
      255
102
RTVSPost2010PropOp44
 70
     1
102
RTVSPost2010Prop45
280
     0
102
RTVSPost2010PropOp45
 70
     1
102
RTVSPost2010Prop46
 90
       50
102
RTVSPost2010PropOp46
 70
     1
102
RTVSPost2010Prop47
 90
       50
102
RTVSPost2010PropOp47
 70
     1
102
RTVSPost2010Prop48
 90
       50
102
RTVSPost2010PropOp48
 70
     1
102
RTVSPost2010Prop49
280
     0
102
RTVSPost2010PropOp49
 70
     1
102
RTVSPost2010Prop50
 90
       50
102
RTVSPost2010PropOp50
 70
     1
102
RTVSPost2010Prop51ColorIndex
 90
      256
102
RTVSPost2010Prop51ColorRGB
 90
-16777216
102
RTVSPost2010PropOp51
 70
     0
102
RTVSPost2010Prop52
140
1.0
102
RTVSPost2010PropOp52
 70
     0
102
RTVSPost2010Prop53
 90
        2
102
RTVSPost2010PropOp53
 70
     1
102
RTVSPost2010Prop54
  1
strokes_ogs.tif
102
RTVSPost2010PropOp54
 70
     1
102
RTVSPost2010Prop55
280
     0
102
RTVSPost2010PropOp55
 70
     1
102
RTVSPost2010Prop56
140
1.0
102
RTVSPost2010PropOp56
 70
     1
102
RTVSPost2010Prop57
140
1.0
102
RTVSPost2010PropOp57
 70
     1
102
RTVSPropertyOp0
 70
     1
102
RTVSPropertyOp1
 70
     1
102
RTVSPropertyOp2
 70
     1
102
RTVSPropertyOp3
 70
     1
102
RTVSPropertyOp4
 70
     1
102
RTVSPropertyOp5
 70
     1
102
RTVSPropertyOp6
 70
     1
102
RTVSPropertyOp7
 70
     1
102
RTVSPropertyOp8
 70
     1
102
RTVSPropertyOp9
 70
     1
102
RTVSPropertyOp10
 70
     1
102
RTVSPropertyOp11
 70
     1
102
RTVSPropertyOp12
 70
     1
102
RTVSPropertyOp13
 70
     1
102
RTVSPropertyOp14
 70
     1
102
RTVSPropertyOp15
 70
     1
102
RTVSPropertyOp16
 70
     1
102
RTVSPropertyOp17
 70
     1
102
RTVSPropertyOp18
 70
     1
102
RTVSPropertyOp19
 70
     1
102
RTVSPropertyOp20
 70
     1
102
RTVSPropertyOp21
 70
     1
102
RTVSPropertyOp22
 70
     1
102
RTVSPropertyOp23
 70
     1
102
RTVSPropertyOp24
 70
     1
102
RTVSPropertyOp25
 70
     1
102
RTVSPropertyOp26
 70
     1
102
RTVSPropertyOp27
 70
     1
102
RTVSPropertyOp28
 70
     1
102
RTVSPropertyOp29
 70
     1
102
RTVSPropertyOp30
 70
     1
102
RTVSPropertyOp31
 70
     1
102
RTVSPropertyOp32
 70
     1
102
RTVSPropertyOp33
 70
     1
102
RTVSPropertyOp34
 70
     1
102
RTVSPropertyOp35
 70
     1
102
RTVSPropertyOp36
 70
     1
102
RTVSPropertyOp37
 70
     1
102
RTVSPropertyOp38
 70
     1
102
RTVSPropertyOp39
 70
     1
102
RTVSPropertyOp40
 70
     1
102
RTVSPropertyOp41
 70
     1
102
RTVSPropertyOp42
 70
     1
102
RTVSPropertyOp43
 70
     1
102
RTVSPropertyOp44
 70
     1
102
RTVSPropertyOp45
 70
     1
102
RTVSPropertyOp46
 70
     1
102
RTVSPropertyOp47
 70
     1
102
RTVSPropertyOp48
 70
     1
102
RTVSPropertyOp49
 70
     1
102
RTVSPropertyOp50
 70
     1
102
RTVSPropertyOp51
 70
     0
102
RTVSPropertyOp52
 70
     0
102
RTVSPropertyOp53
 70
     1
102
RTVSPropertyOp54
 70
     1
102
RTVSPropertyOp55
 70
     1
102
RTVSPropertyOp56
 70
     1
102
RTVSPropertyOp57
 70
     1
102
RTVSPropertyOp58
 70
     1
102
RTVSPropertyOp59
 70
     1
102
RTVSPropertyOp60
 70
     1
102
RTVSPropertyOp61
 70
     1
102
RTVSPropertyOp62
 70
     1
  0
XRECORD
  5
9C18
102
{ACAD_REACTORS
330
9C17
102
}
330
9C17
100
AcDbXrecord
280
     1
102
RTVSPost2010Prop28
280
     0
102
RTVSPost2010PropOp28
 70
     1
102
RTVSPost2010Prop29
280
     1
102
RTVSPost2010PropOp29
 70
     1
102
RTVSPost2010Prop30
280
     1
102
RTVSPost2010PropOp30
 70
     1
102
RTVSPost2010Prop31
280
     0
102
RTVSPost2010PropOp31
 70
     1
102
RTVSPost2010Prop32
280
     0
102
RTVSPost2010PropOp32
 70
     1
102
RTVSPost2010Prop33
280
     0
102
RTVSPost2010PropOp33
 70
     1
102
RTVSPost2010Prop34
280
     0
102
RTVSPost2010PropOp34
 70
     1
102
RTVSPost2010Prop35
280
     0
102
RTVSPost2010PropOp35
 70
     1
102
RTVSPost2010Prop36
280
     0
102
RTVSPost2010PropOp36
 70
     1
102
RTVSPost2010Prop37
 90
       50
102
RTVSPost2010PropOp37
 70
     1
102
RTVSPost2010Prop38
140
0.0
102
RTVSPost2010PropOp38
 70
     1
102
RTVSPost2010Prop39
140
1.0
102
RTVSPost2010PropOp39
 70
     1
102
RTVSPost2010Prop40
 90
        0
102
RTVSPost2010PropOp40
 70
     1
102
RTVSPost2010Prop41ColorIndex
 90
       18
102
RTVSPost2010Prop41ColorRGB
 90
        0
102
RTVSPost2010PropOp41
 70
     1
102
RTVSPost2010Prop42
 90
       50
102
RTVSPost2010PropOp42
 70
     1
102
RTVSPost2010Prop43
 90
        3
102
RTVSPost2010PropOp43
 70
     1
102
RTVSPost2010Prop44ColorIndex
 90
        5
102
RTVSPost2010Prop44ColorRGB
 90
      255
102
RTVSPost2010PropOp44
 70
     1
102
RTVSPost2010Prop45
280
     0
102
RTVSPost2010PropOp45
 70
     1
102
RTVSPost2010Prop46
 90
       50
102
RTVSPost2010PropOp46
 70
     1
102
RTVSPost2010Prop47
 90
       50
102
RTVSPost2010PropOp47
 70
     1
102
RTVSPost2010Prop48
 90
       50
102
RTVSPost2010PropOp48
 70
     1
102
RTVSPost2010Prop49
280
     0
102
RTVSPost2010PropOp49
 70
     1
102
RTVSPost2010Prop50
 90
       50
102
RTVSPost2010PropOp50
 70
     1
102
RTVSPost2010Prop51ColorIndex
 90
      256
102
RTVSPost2010Prop51ColorRGB
 90
-16777216
102
RTVSPost2010PropOp51
 70
     0
102
RTVSPost2010Prop52
140
1.0
102
RTVSPost2010PropOp52
 70
     0
102
RTVSPost2010Prop53
 90
        2
102
RTVSPost2010PropOp53
 70
     1
102
RTVSPost2010Prop54
  1
strokes_ogs.tif
102
RTVSPost2010PropOp54
 70
     1
102
RTVSPost2010Prop55
280
     0
102
RTVSPost2010PropOp55
 70
     1
102
RTVSPost2010Prop56
140
1.0
102
RTVSPost2010PropOp56
 70
     1
102
RTVSPost2010Prop57
140
1.0
102
RTVSPost2010PropOp57
 70
     1
102
RTVSPropertyOp0
 70
     1
102
RTVSPropertyOp1
 70
     1
102
RTVSPropertyOp2
 70
     1
102
RTVSPropertyOp3
 70
     1
102
RTVSPropertyOp4
 70
     1
102
RTVSPropertyOp5
 70
     1
102
RTVSPropertyOp6
 70
     1
102
RTVSPropertyOp7
 70
     1
102
RTVSPropertyOp8
 70
     1
102
RTVSPropertyOp9
 70
     1
102
RTVSPropertyOp10
 70
     1
102
RTVSPropertyOp11
 70
     1
102
RTVSPropertyOp12
 70
     1
102
RTVSPropertyOp13
 70
     1
102
RTVSPropertyOp14
 70
     1
102
RTVSPropertyOp15
 70
     1
102
RTVSPropertyOp16
 70
     1
102
RTVSPropertyOp17
 70
     1
102
RTVSPropertyOp18
 70
     1
102
RTVSPropertyOp19
 70
     1
102
RTVSPropertyOp20
 70
     1
102
RTVSPropertyOp21
 70
     1
102
RTVSPropertyOp22
 70
     1
102
RTVSPropertyOp23
 70
     1
102
RTVSPropertyOp24
 70
     1
102
RTVSPropertyOp25
 70
     1
102
RTVSPropertyOp26
 70
     1
102
RTVSPropertyOp27
 70
     1
102
RTVSPropertyOp28
 70
     1
102
RTVSPropertyOp29
 70
     1
102
RTVSPropertyOp30
 70
     1
102
RTVSPropertyOp31
 70
     1
102
RTVSPropertyOp32
 70
     1
102
RTVSPropertyOp33
 70
     1
102
RTVSPropertyOp34
 70
     1
102
RTVSPropertyOp35
 70
     1
102
RTVSPropertyOp36
 70
     1
102
RTVSPropertyOp37
 70
     1
102
RTVSPropertyOp38
 70
     1
102
RTVSPropertyOp39
 70
     1
102
RTVSPropertyOp40
 70
     1
102
RTVSPropertyOp41
 70
     1
102
RTVSPropertyOp42
 70
     1
102
RTVSPropertyOp43
 70
     1
102
RTVSPropertyOp44
 70
     1
102
RTVSPropertyOp45
 70
     1
102
RTVSPropertyOp46
 70
     1
102
RTVSPropertyOp47
 70
     1
102
RTVSPropertyOp48
 70
     1
102
RTVSPropertyOp49
 70
     1
102
RTVSPropertyOp50
 70
     1
102
RTVSPropertyOp51
 70
     0
102
RTVSPropertyOp52
 70
     0
102
RTVSPropertyOp53
 70
     1
102
RTVSPropertyOp54
 70
     1
102
RTVSPropertyOp55
 70
     1
102
RTVSPropertyOp56
 70
     1
102
RTVSPropertyOp57
 70
     1
102
RTVSPropertyOp58
 70
     1
102
RTVSPropertyOp59
 70
     1
102
RTVSPropertyOp60
 70
     1
102
RTVSPropertyOp61
 70
     1
102
RTVSPropertyOp62
 70
     1
  0
XRECORD
  5
9C0C
102
{ACAD_REACTORS
330
9C0B
102
}
330
9C0B
100
AcDbXrecord
280
     1
102
RTVSPost2010Prop28
280
     0
102
RTVSPost2010PropOp28
 70
     1
102
RTVSPost2010Prop29
280
     1
102
RTVSPost2010PropOp29
 70
     1
102
RTVSPost2010Prop30
280
     1
102
RTVSPost2010PropOp30
 70
     1
102
RTVSPost2010Prop31
280
     0
102
RTVSPost2010PropOp31
 70
     1
102
RTVSPost2010Prop32
280
     0
102
RTVSPost2010PropOp32
 70
     1
102
RTVSPost2010Prop33
280
     0
102
RTVSPost2010PropOp33
 70
     1
102
RTVSPost2010Prop34
280
     0
102
RTVSPost2010PropOp34
 70
     1
102
RTVSPost2010Prop35
280
     0
102
RTVSPost2010PropOp35
 70
     1
102
RTVSPost2010Prop36
280
     0
102
RTVSPost2010PropOp36
 70
     1
102
RTVSPost2010Prop37
 90
       50
102
RTVSPost2010PropOp37
 70
     1
102
RTVSPost2010Prop38
140
0.0
102
RTVSPost2010PropOp38
 70
     1
102
RTVSPost2010Prop39
140
1.0
102
RTVSPost2010PropOp39
 70
     1
102
RTVSPost2010Prop40
 90
        0
102
RTVSPost2010PropOp40
 70
     1
102
RTVSPost2010Prop41ColorIndex
 90
       18
102
RTVSPost2010Prop41ColorRGB
 90
        0
102
RTVSPost2010PropOp41
 70
     1
102
RTVSPost2010Prop42
 90
       50
102
RTVSPost2010PropOp42
 70
     1
102
RTVSPost2010Prop43
 90
        3
102
RTVSPost2010PropOp43
 70
     1
102
RTVSPost2010Prop44ColorIndex
 90
        5
102
RTVSPost2010Prop44ColorRGB
 90
      255
102
RTVSPost2010PropOp44
 70
     1
102
RTVSPost2010Prop45
280
     0
102
RTVSPost2010PropOp45
 70
     1
102
RTVSPost2010Prop46
 90
       50
102
RTVSPost2010PropOp46
 70
     1
102
RTVSPost2010Prop47
 90
       50
102
RTVSPost2010PropOp47
 70
     1
102
RTVSPost2010Prop48
 90
       50
102
RTVSPost2010PropOp48
 70
     1
102
RTVSPost2010Prop49
280
     0
102
RTVSPost2010PropOp49
 70
     1
102
RTVSPost2010Prop50
 90
       50
102
RTVSPost2010PropOp50
 70
     1
102
RTVSPost2010Prop51ColorIndex
 90
      256
102
RTVSPost2010Prop51ColorRGB
 90
-16777216
102
RTVSPost2010PropOp51
 70
     0
102
RTVSPost2010Prop52
140
1.0
102
RTVSPost2010PropOp52
 70
     0
102
RTVSPost2010Prop53
 90
        2
102
RTVSPost2010PropOp53
 70
     1
102
RTVSPost2010Prop54
  1
strokes_ogs.tif
102
RTVSPost2010PropOp54
 70
     1
102
RTVSPost2010Prop55
280
     0
102
RTVSPost2010PropOp55
 70
     1
102
RTVSPost2010Prop56
140
1.0
102
RTVSPost2010PropOp56
 70
     1
102
RTVSPost2010Prop57
140
1.0
102
RTVSPost2010PropOp57
 70
     1
102
RTVSPropertyOp0
 70
     1
102
RTVSPropertyOp1
 70
     1
102
RTVSPropertyOp2
 70
     1
102
RTVSPropertyOp3
 70
     1
102
RTVSPropertyOp4
 70
     1
102
RTVSPropertyOp5
 70
     1
102
RTVSPropertyOp6
 70
     1
102
RTVSPropertyOp7
 70
     1
102
RTVSPropertyOp8
 70
     1
102
RTVSPropertyOp9
 70
     1
102
RTVSPropertyOp10
 70
     1
102
RTVSPropertyOp11
 70
     1
102
RTVSPropertyOp12
 70
     1
102
RTVSPropertyOp13
 70
     1
102
RTVSPropertyOp14
 70
     1
102
RTVSPropertyOp15
 70
     1
102
RTVSPropertyOp16
 70
     1
102
RTVSPropertyOp17
 70
     1
102
RTVSPropertyOp18
 70
     1
102
RTVSPropertyOp19
 70
     1
102
RTVSPropertyOp20
 70
     1
102
RTVSPropertyOp21
 70
     1
102
RTVSPropertyOp22
 70
     1
102
RTVSPropertyOp23
 70
     1
102
RTVSPropertyOp24
 70
     1
102
RTVSPropertyOp25
 70
     1
102
RTVSPropertyOp26
 70
     1
102
RTVSPropertyOp27
 70
     1
102
RTVSPropertyOp28
 70
     1
102
RTVSPropertyOp29
 70
     1
102
RTVSPropertyOp30
 70
     1
102
RTVSPropertyOp31
 70
     1
102
RTVSPropertyOp32
 70
     1
102
RTVSPropertyOp33
 70
     1
102
RTVSPropertyOp34
 70
     1
102
RTVSPropertyOp35
 70
     1
102
RTVSPropertyOp36
 70
     1
102
RTVSPropertyOp37
 70
     1
102
RTVSPropertyOp38
 70
     1
102
RTVSPropertyOp39
 70
     1
102
RTVSPropertyOp40
 70
     1
102
RTVSPropertyOp41
 70
     1
102
RTVSPropertyOp42
 70
     1
102
RTVSPropertyOp43
 70
     1
102
RTVSPropertyOp44
 70
     1
102
RTVSPropertyOp45
 70
     1
102
RTVSPropertyOp46
 70
     1
102
RTVSPropertyOp47
 70
     1
102
RTVSPropertyOp48
 70
     1
102
RTVSPropertyOp49
 70
     1
102
RTVSPropertyOp50
 70
     1
102
RTVSPropertyOp51
 70
     0
102
RTVSPropertyOp52
 70
     0
102
RTVSPropertyOp53
 70
     1
102
RTVSPropertyOp54
 70
     1
102
RTVSPropertyOp55
 70
     1
102
RTVSPropertyOp56
 70
     1
102
RTVSPropertyOp57
 70
     1
102
RTVSPropertyOp58
 70
     1
102
RTVSPropertyOp59
 70
     1
102
RTVSPropertyOp60
 70
     1
102
RTVSPropertyOp61
 70
     1
102
RTVSPropertyOp62
 70
     1
  0
XRECORD
  5
9C2C
102
{ACAD_REACTORS
330
9C2B
102
}
330
9C2B
100
AcDbXrecord
280
     1
102
RTVSPost2010Prop28
280
     0
102
RTVSPost2010PropOp28
 70
     1
102
RTVSPost2010Prop29
280
     1
102
RTVSPost2010PropOp29
 70
     1
102
RTVSPost2010Prop30
280
     1
102
RTVSPost2010PropOp30
 70
     1
102
RTVSPost2010Prop31
280
     0
102
RTVSPost2010PropOp31
 70
     1
102
RTVSPost2010Prop32
280
     0
102
RTVSPost2010PropOp32
 70
     1
102
RTVSPost2010Prop33
280
     0
102
RTVSPost2010PropOp33
 70
     1
102
RTVSPost2010Prop34
280
     0
102
RTVSPost2010PropOp34
 70
     1
102
RTVSPost2010Prop35
280
     0
102
RTVSPost2010PropOp35
 70
     1
102
RTVSPost2010Prop36
280
     0
102
RTVSPost2010PropOp36
 70
     1
102
RTVSPost2010Prop37
 90
       50
102
RTVSPost2010PropOp37
 70
     1
102
RTVSPost2010Prop38
140
0.0
102
RTVSPost2010PropOp38
 70
     1
102
RTVSPost2010Prop39
140
1.0
102
RTVSPost2010PropOp39
 70
     1
102
RTVSPost2010Prop40
 90
        0
102
RTVSPost2010PropOp40
 70
     1
102
RTVSPost2010Prop41ColorIndex
 90
       18
102
RTVSPost2010Prop41ColorRGB
 90
        0
102
RTVSPost2010PropOp41
 70
     1
102
RTVSPost2010Prop42
 90
       50
102
RTVSPost2010PropOp42
 70
     1
102
RTVSPost2010Prop43
 90
        3
102
RTVSPost2010PropOp43
 70
     1
102
RTVSPost2010Prop44ColorIndex
 90
        5
102
RTVSPost2010Prop44ColorRGB
 90
      255
102
RTVSPost2010PropOp44
 70
     1
102
RTVSPost2010Prop45
280
     0
102
RTVSPost2010PropOp45
 70
     1
102
RTVSPost2010Prop46
 90
       50
102
RTVSPost2010PropOp46
 70
     1
102
RTVSPost2010Prop47
 90
       50
102
RTVSPost2010PropOp47
 70
     1
102
RTVSPost2010Prop48
 90
       50
102
RTVSPost2010PropOp48
 70
     1
102
RTVSPost2010Prop49
280
     0
102
RTVSPost2010PropOp49
 70
     1
102
RTVSPost2010Prop50
 90
       50
102
RTVSPost2010PropOp50
 70
     1
102
RTVSPost2010Prop51ColorIndex
 90
      256
102
RTVSPost2010Prop51ColorRGB
 90
-16777216
102
RTVSPost2010PropOp51
 70
     0
102
RTVSPost2010Prop52
140
1.0
102
RTVSPost2010PropOp52
 70
     0
102
RTVSPost2010Prop53
 90
        2
102
RTVSPost2010PropOp53
 70
     1
102
RTVSPost2010Prop54
  1
strokes_ogs.tif
102
RTVSPost2010PropOp54
 70
     1
102
RTVSPost2010Prop55
280
     0
102
RTVSPost2010PropOp55
 70
     1
102
RTVSPost2010Prop56
140
1.0
102
RTVSPost2010PropOp56
 70
     1
102
RTVSPost2010Prop57
140
1.0
102
RTVSPost2010PropOp57
 70
     1
102
RTVSPropertyOp0
 70
     1
102
RTVSPropertyOp1
 70
     1
102
RTVSPropertyOp2
 70
     1
102
RTVSPropertyOp3
 70
     1
102
RTVSPropertyOp4
 70
     1
102
RTVSPropertyOp5
 70
     1
102
RTVSPropertyOp6
 70
     1
102
RTVSPropertyOp7
 70
     1
102
RTVSPropertyOp8
 70
     1
102
RTVSPropertyOp9
 70
     1
102
RTVSPropertyOp10
 70
     1
102
RTVSPropertyOp11
 70
     1
102
RTVSPropertyOp12
 70
     1
102
RTVSPropertyOp13
 70
     1
102
RTVSPropertyOp14
 70
     1
102
RTVSPropertyOp15
 70
     1
102
RTVSPropertyOp16
 70
     1
102
RTVSPropertyOp17
 70
     1
102
RTVSPropertyOp18
 70
     1
102
RTVSPropertyOp19
 70
     1
102
RTVSPropertyOp20
 70
     1
102
RTVSPropertyOp21
 70
     1
102
RTVSPropertyOp22
 70
     1
102
RTVSPropertyOp23
 70
     1
102
RTVSPropertyOp24
 70
     1
102
RTVSPropertyOp25
 70
     1
102
RTVSPropertyOp26
 70
     1
102
RTVSPropertyOp27
 70
     1
102
RTVSPropertyOp28
 70
     1
102
RTVSPropertyOp29
 70
     1
102
RTVSPropertyOp30
 70
     1
102
RTVSPropertyOp31
 70
     1
102
RTVSPropertyOp32
 70
     1
102
RTVSPropertyOp33
 70
     1
102
RTVSPropertyOp34
 70
     1
102
RTVSPropertyOp35
 70
     1
102
RTVSPropertyOp36
 70
     1
102
RTVSPropertyOp37
 70
     1
102
RTVSPropertyOp38
 70
     1
102
RTVSPropertyOp39
 70
     1
102
RTVSPropertyOp40
 70
     1
102
RTVSPropertyOp41
 70
     1
102
RTVSPropertyOp42
 70
     1
102
RTVSPropertyOp43
 70
     1
102
RTVSPropertyOp44
 70
     1
102
RTVSPropertyOp45
 70
     1
102
RTVSPropertyOp46
 70
     1
102
RTVSPropertyOp47
 70
     1
102
RTVSPropertyOp48
 70
     1
102
RTVSPropertyOp49
 70
     1
102
RTVSPropertyOp50
 70
     1
102
RTVSPropertyOp51
 70
     0
102
RTVSPropertyOp52
 70
     0
102
RTVSPropertyOp53
 70
     1
102
RTVSPropertyOp54
 70
     1
102
RTVSPropertyOp55
 70
     1
102
RTVSPropertyOp56
 70
     1
102
RTVSPropertyOp57
 70
     1
102
RTVSPropertyOp58
 70
     1
102
RTVSPropertyOp59
 70
     1
102
RTVSPropertyOp60
 70
     1
102
RTVSPropertyOp61
 70
     1
102
RTVSPropertyOp62
 70
     1
  0
ENDSEC
  0
EOF
