  0
SECTION
  2
HEADER
  9
$ACADVER
  1
AC1015
  9
$ACADMAINTVER
 70
    18
  9
$DWGCODEPAGE
  3
ANSI_1252
  9
$INSBASE
 10
0.0
 20
0.0
 30
0.0
  9
$EXTMIN
 10
-213.1018059108194
 20
-255.9911952852169
 30
-0.0015258207003583
  9
$EXTMAX
 10
275.2404793249914
 20
281.6007391989706
 30
0.0000000349246037
  9
$LIMMIN
 10
0.0
 20
0.0
  9
$LIMMAX
 10
420.0
 20
297.0
  9
$ORTHOMODE
 70
     0
  9
$REGENMODE
 70
     1
  9
$FILLMODE
 70
     1
  9
$QTEXTMODE
 70
     0
  9
$MIRRTEXT
 70
     0
  9
$LTSCALE
 40
1.0
  9
$ATTMODE
 70
     1
  9
$TEXTSIZE
 40
2.5
  9
$TRACEWID
 40
1.0
  9
$TEXTSTYLE
  7
Standard
  9
$CLAYER
  8
0
  9
$CELTYPE
  6
ByLayer
  9
$CECOLOR
 62
   256
  9
$CELTSCALE
 40
1.0
  9
$DISPSILH
 70
     0
  9
$DIMSCALE
 40
1.0
  9
$DIMASZ
 40
2.5
  9
$DIMEXO
 40
0.625
  9
$DIMDLI
 40
3.75
  9
$DIMRND
 40
0.0
  9
$DIMDLE
 40
0.0
  9
$DIMEXE
 40
1.25
  9
$DIMTP
 40
0.0
  9
$DIMTM
 40
0.0
  9
$DIMTXT
 40
2.5
  9
$DIMCEN
 40
2.5
  9
$DIMTSZ
 40
0.0
  9
$DIMTOL
 70
     0
  9
$DIMLIM
 70
     0
  9
$DIMTIH
 70
     0
  9
$DIMTOH
 70
     0
  9
$DIMSE1
 70
     0
  9
$DIMSE2
 70
     0
  9
$DIMTAD
 70
     1
  9
$DIMZIN
 70
     8
  9
$DIMBLK
  1

  9
$DIMASO
 70
     1
  9
$DIMSHO
 70
     1
  9
$DIMPOST
  1

  9
$DIMAPOST
  1

  9
$DIMALT
 70
     0
  9
$DIMALTD
 70
     3
  9
$DIMALTF
 40
0.03937007874016
  9
$DIMLFAC
 40
1.0
  9
$DIMTOFL
 70
     1
  9
$DIMTVP
 40
0.0
  9
$DIMTIX
 70
     0
  9
$DIMSOXD
 70
     0
  9
$DIMSAH
 70
     0
  9
$DIMBLK1
  1

  9
$DIMBLK2
  1

  9
$DIMSTYLE
  2
ISO-25
  9
$DIMCLRD
 70
     0
  9
$DIMCLRE
 70
     0
  9
$DIMCLRT
 70
     0
  9
$DIMTFAC
 40
1.0
  9
$DIMGAP
 40
0.625
  9
$DIMJUST
 70
     0
  9
$DIMSD1
 70
     0
  9
$DIMSD2
 70
     0
  9
$DIMTOLJ
 70
     0
  9
$DIMTZIN
 70
     8
  9
$DIMALTZ
 70
     0
  9
$DIMALTTZ
 70
     0
  9
$DIMUPT
 70
     0
  9
$DIMDEC
 70
     2
  9
$DIMTDEC
 70
     2
  9
$DIMALTU
 70
     2
  9
$DIMALTTD
 70
     3
  9
$DIMTXSTY
  7
Standard
  9
$DIMAUNIT
 70
     0
  9
$DIMADEC
 70
     0
  9
$DIMALTRND
 40
0.0
  9
$DIMAZIN
 70
     0
  9
$DIMDSEP
 70
    44
  9
$DIMATFIT
 70
     3
  9
$DIMFRAC
 70
     0
  9
$DIMLDRBLK
  1

  9
$DIMLUNIT
 70
     2
  9
$DIMLWD
 70
    -2
  9
$DIMLWE
 70
    -2
  9
$DIMTMOVE
 70
     0
  9
$LUNITS
 70
     2
  9
$LUPREC
 70
     4
  9
$SKETCHINC
 40
1.0
  9
$FILLETRAD
 40
0.0
  9
$AUNITS
 70
     0
  9
$AUPREC
 70
     0
  9
$MENU
  1
.
  9
$ELEVATION
 40
0.0
  9
$PELEVATION
 40
0.0
  9
$THICKNESS
 40
0.0
  9
$LIMCHECK
 70
     0
  9
$CHAMFERA
 40
0.0
  9
$CHAMFERB
 40
0.0
  9
$CHAMFERC
 40
0.0
  9
$CHAMFERD
 40
0.0
  9
$SKPOLY
 70
     0
  9
$TDCREATE
 40
2460398.356956019
  9
$TDUCREATE
 40
2460398.065289352
  9
$TDUPDATE
 40
2460398.375127315
  9
$TDUUPDATE
 40
2460398.083460648
  9
$TDINDWG
 40
0.0078240741
  9
$TDUSRTIMER
 40
0.0078240741
  9
$USRTIMER
 70
     1
  9
$ANGBASE
 50
0.0
  9
$ANGDIR
 70
     0
  9
$PDMODE
 70
     0
  9
$PDSIZE
 40
0.0
  9
$PLINEWID
 40
0.0
  9
$SPLFRAME
 70
     0
  9
$SPLINETYPE
 70
     6
  9
$SPLINESEGS
 70
     8
  9
$HANDSEED
  5
9E64
  9
$SURFTAB1
 70
     6
  9
$SURFTAB2
 70
     6
  9
$SURFTYPE
 70
     6
  9
$SURFU
 70
     6
  9
$SURFV
 70
     6
  9
$UCSBASE
  2

  9
$UCSNAME
  2

  9
$UCSORG
 10
0.0
 20
0.0
 30
0.0
  9
$UCSXDIR
 10
1.0
 20
0.0
 30
0.0
  9
$UCSYDIR
 10
0.0
 20
1.0
 30
0.0
  9
$UCSORTHOREF
  2

  9
$UCSORTHOVIEW
 70
     0
  9
$UCSORGTOP
 10
0.0
 20
0.0
 30
0.0
  9
$UCSORGBOTTOM
 10
0.0
 20
0.0
 30
0.0
  9
$UCSORGLEFT
 10
0.0
 20
0.0
 30
0.0
  9
$UCSORGRIGHT
 10
0.0
 20
0.0
 30
0.0
  9
$UCSORGFRONT
 10
0.0
 20
0.0
 30
0.0
  9
$UCSORGBACK
 10
0.0
 20
0.0
 30
0.0
  9
$PUCSBASE
  2

  9
$PUCSNAME
  2

  9
$PUCSORG
 10
0.0
 20
0.0
 30
0.0
  9
$PUCSXDIR
 10
1.0
 20
0.0
 30
0.0
  9
$PUCSYDIR
 10
0.0
 20
1.0
 30
0.0
  9
$PUCSORTHOREF
  2

  9
$PUCSORTHOVIEW
 70
     0
  9
$PUCSORGTOP
 10
0.0
 20
0.0
 30
0.0
  9
$PUCSORGBOTTOM
 10
0.0
 20
0.0
 30
0.0
  9
$PUCSORGLEFT
 10
0.0
 20
0.0
 30
0.0
  9
$PUCSORGRIGHT
 10
0.0
 20
0.0
 30
0.0
  9
$PUCSORGFRONT
 10
0.0
 20
0.0
 30
0.0
  9
$PUCSORGBACK
 10
0.0
 20
0.0
 30
0.0
  9
$USERI1
 70
     0
  9
$USERI2
 70
     0
  9
$USERI3
 70
     0
  9
$USERI4
 70
     0
  9
$USERI5
 70
     0
  9
$USERR1
 40
0.0
  9
$USERR2
 40
0.0
  9
$USERR3
 40
0.0
  9
$USERR4
 40
0.0
  9
$USERR5
 40
0.0
  9
$WORLDVIEW
 70
     1
  9
$SHADEDGE
 70
     3
  9
$SHADEDIF
 70
    70
  9
$TILEMODE
 70
     1
  9
$MAXACTVP
 70
    48
  9
$PINSBASE
 10
0.0
 20
0.0
 30
0.0
  9
$PLIMCHECK
 70
     0
  9
$PEXTMIN
 10
0.0
 20
0.0
 30
0.0
  9
$PEXTMAX
 10
0.0
 20
0.0
 30
0.0
  9
$PLIMMIN
 10
0.0
 20
0.0
  9
$PLIMMAX
 10
12.0
 20
9.0
  9
$UNITMODE
 70
     0
  9
$VISRETAIN
 70
     1
  9
$PLINEGEN
 70
     0
  9
$PSLTSCALE
 70
     1
  9
$TREEDEPTH
 70
  3020
  9
$CMLSTYLE
  2
Standard
  9
$CMLJUST
 70
     0
  9
$CMLSCALE
 40
20.0
  9
$PROXYGRAPHICS
 70
     1
  9
$MEASUREMENT
 70
     1
  9
$CELWEIGHT
370
    -1
  9
$ENDCAPS
280
     0
  9
$JOINSTYLE
280
     0
  9
$LWDISPLAY
290
     0
  9
$INSUNITS
 70
     4
  9
$HYPERLINKBASE
  1

  9
$STYLESHEET
  1

  9
$XEDIT
290
     1
  9
$CEPSNTYPE
380
     0
  9
$PSTYLEMODE
290
     1
  9
$FINGERPRINTGUID
  2
{6C1266EE-7BC1-BF4A-B059-A6E7702B10CE}
  9
$VERSIONGUID
  2
{55D5A44F-8C2A-8C4E-8237-B4E1C1296931}
  9
$EXTNAMES
290
     1
  9
$PSVPSCALE
 40
0.0
  9
$OLESTARTUP
290
     0
  0
ENDSEC
  0
SECTION
  2
CLASSES
  0
CLASS
  1
ACDBDICTIONARYWDFLT
  2
AcDbDictionaryWithDefault
  3
ObjectDBX Classes
 90
        0
280
     0
281
     0
  0
CLASS
  1
ACDBPLACEHOLDER
  2
AcDbPlaceHolder
  3
ObjectDBX Classes
 90
        0
280
     0
281
     0
  0
CLASS
  1
LAYOUT
  2
AcDbLayout
  3
ObjectDBX Classes
 90
        0
280
     0
281
     0
  0
CLASS
  1
DICTIONARYVAR
  2
AcDbDictionaryVar
  3
ObjectDBX Classes
 90
        0
280
     0
281
     0
  0
CLASS
  1
TABLESTYLE
  2
AcDbTableStyle
  3
ObjectDBX Classes
 90
     4095
280
     0
281
     0
  0
CLASS
  1
MATERIAL
  2
AcDbMaterial
  3
ObjectDBX Classes
 90
     1153
280
     0
281
     0
  0
CLASS
  1
VISUALSTYLE
  2
AcDbVisualStyle
  3
ObjectDBX Classes
 90
     4095
280
     0
281
     0
  0
CLASS
  1
SCALE
  2
AcDbScale
  3
ObjectDBX Classes
 90
     1153
280
     0
281
     0
  0
CLASS
  1
MLEADERSTYLE
  2
AcDbMLeaderStyle
  3
ACDB_MLEADERSTYLE_CLASS
 90
     4095
280
     0
281
     0
  0
CLASS
  1
CELLSTYLEMAP
  2
AcDbCellStyleMap
  3
ObjectDBX Classes
 90
     1152
280
     0
281
     0
  0
CLASS
  1
EXACXREFPANELOBJECT
  2
ExAcXREFPanelObject
  3
EXAC_ESW
 90
    33793
280
     0
281
     0
  0
CLASS
  1
NPOCOLLECTION
  2
AcDbImpNonPersistentObjectsCollection
  3
ObjectDBX Classes
 90
    33921
280
     0
281
     0
  0
CLASS
  1
LAYER_INDEX
  2
AcDbLayerIndex
  3
ObjectDBX Classes
 90
    32768
280
     0
281
     0
  0
CLASS
  1
SPATIAL_INDEX
  2
AcDbSpatialIndex
  3
ObjectDBX Classes
 90
    32768
280
     0
281
     0
  0
CLASS
  1
IDBUFFER
  2
AcDbIdBuffer
  3
ObjectDBX Classes
 90
    32768
280
     0
281
     0
  0
CLASS
  1
ACDBSECTIONVIEWSTYLE
  2
AcDbSectionViewStyle
  3
ObjectDBX Classes
 90
     1025
280
     0
281
     0
  0
CLASS
  1
ACDBDETAILVIEWSTYLE
  2
AcDbDetailViewStyle
  3
ObjectDBX Classes
 90
     1025
280
     0
281
     0
  0
CLASS
  1
XRECORD
  2
AcDbXrecord
  3
ObjectDBX Classes
 90
        0
280
     0
281
     0
  0
ENDSEC
  0
SECTION
  2
TABLES
  0
TABLE
  2
VPORT
  5
8
102
{ACAD_XDICTIONARY
360
9D72
102
}
330
0
100
AcDbSymbolTable
 70
     1
  0
VPORT
  5
EA
330
8
100
AcDbSymbolTableRecord
100
AcDbViewportTableRecord
  2
*Active
 70
     0
 10
0.0
 20
0.0
 11
1.0
 21
1.0
 12
31.06933670708596
 22
12.80477195687683
 13
0.0
 23
0.0
 14
10.0
 24
10.0
 15
10.0
 25
10.0
 16
0.0
 26
0.0
 36
1.0
 17
0.0
 27
0.0
 37
0.0
 40
571.6803039601922
 41
0.9846153846153846
 42
50.0
 43
0.0
 44
0.0
 50
0.0
 51
0.0
 71
     0
 72
  1000
 73
     1
 74
     3
 75
     0
 76
     1
 77
     0
 78
     0
281
     0
 65
     1
110
0.0
120
0.0
130
0.0
111
1.0
121
0.0
131
0.0
112
0.0
122
1.0
132
0.0
 79
     0
146
0.0
1001
ACAD_NAV_VCDISPLAY
1070
     3
  0
ENDTAB
  0
TABLE
  2
LTYPE
  5
5
330
0
100
AcDbSymbolTable
 70
     1
  0
LTYPE
  5
14
330
5
100
AcDbSymbolTableRecord
100
AcDbLinetypeTableRecord
  2
ByBlock
 70
     0
  3

 72
    65
 73
     0
 40
0.0
  0
LTYPE
  5
15
330
5
100
AcDbSymbolTableRecord
100
AcDbLinetypeTableRecord
  2
ByLayer
 70
     0
  3

 72
    65
 73
     0
 40
0.0
  0
LTYPE
  5
16
330
5
100
AcDbSymbolTableRecord
100
AcDbLinetypeTableRecord
  2
Continuous
 70
     0
  3
Solid line
 72
    65
 73
     0
 40
0.0
  0
ENDTAB
  0
TABLE
  2
LAYER
  5
2
102
{ACAD_XDICTIONARY
360
1FF
102
}
330
0
100
AcDbSymbolTable
 70
     1
  0
LAYER
  5
10
102
{ACAD_XDICTIONARY
360
13C
102
}
330
2
100
AcDbSymbolTableRecord
100
AcDbLayerTableRecord
  2
0
 70
     0
 62
     7
  6
Continuous
370
    -3
390
F
  0
ENDTAB
  0
TABLE
  2
STYLE
  5
3
330
0
100
AcDbSymbolTable
 70
     1
  0
STYLE
  5
11
330
3
100
AcDbSymbolTableRecord
100
AcDbTextStyleTableRecord
  2
Standard
 70
     0
 40
0.0
 41
1.0
 50
0.0
 71
     0
 42
2.5
  3
arial.ttf
  4

1001
ACAD
1000
Arial
1071
       34
  0
ENDTAB
  0
TABLE
  2
VIEW
  5
6
330
0
100
AcDbSymbolTable
 70
     0
  0
ENDTAB
  0
TABLE
  2
UCS
  5
7
330
0
100
AcDbSymbolTable
 70
     0
  0
ENDTAB
  0
TABLE
  2
APPID
  5
9
330
0
100
AcDbSymbolTable
 70
     8
  0
APPID
  5
12
330
9
100
AcDbSymbolTableRecord
100
AcDbRegAppTableRecord
  2
ACAD
 70
     0
  0
APPID
  5
9E
330
9
100
AcDbSymbolTableRecord
100
AcDbRegAppTableRecord
  2
ACAD_PSEXT
 70
     0
  0
APPID
  5
133
330
9
100
AcDbSymbolTableRecord
100
AcDbRegAppTableRecord
  2
AcadAnnoPO
 70
     0
  0
APPID
  5
134
330
9
100
AcDbSymbolTableRecord
100
AcDbRegAppTableRecord
  2
AcadAnnotative
 70
     0
  0
APPID
  5
135
330
9
100
AcDbSymbolTableRecord
100
AcDbRegAppTableRecord
  2
ACAD_DSTYLE_DIMJAG
 70
     0
  0
APPID
  5
136
330
9
100
AcDbSymbolTableRecord
100
AcDbRegAppTableRecord
  2
ACAD_DSTYLE_DIMTALN
 70
     0
  0
APPID
  5
165
330
9
100
AcDbSymbolTableRecord
100
AcDbRegAppTableRecord
  2
ACAD_MLEADERVER
 70
     0
  0
APPID
  5
217
330
9
100
AcDbSymbolTableRecord
100
AcDbRegAppTableRecord
  2
ACAD_NAV_VCDISPLAY
 70
     0
  0
ENDTAB
  0
TABLE
  2
DIMSTYLE
  5
A
330
0
100
AcDbSymbolTable
 70
     1
100
AcDbDimStyleTable
 71
     0
  0
DIMSTYLE
105
27
330
A
100
AcDbSymbolTableRecord
100
AcDbDimStyleTableRecord
  2
ISO-25
 70
     0
 41
2.5
 42
0.625
 43
3.75
 44
1.25
 73
     0
 74
     0
 77
     1
 78
     8
140
2.5
141
2.5
143
0.03937007874016
147
0.625
171
     3
172
     1
271
     2
272
     2
274
     3
278
    44
283
     0
284
     8
340
11
  0
ENDTAB
  0
TABLE
  2
BLOCK_RECORD
  5
1
330
0
100
AcDbSymbolTable
 70
     7
  0
BLOCK_RECORD
  5
1F
102
{ACAD_XDICTIONARY
360
1CE
102
}
330
1
100
AcDbSymbolTableRecord
100
AcDbBlockTableRecord
  2
*Model_Space
340
22
  0
BLOCK_RECORD
  5
D2
102
{ACAD_XDICTIONARY
360
9D25
102
}
330
1
100
AcDbSymbolTableRecord
100
AcDbBlockTableRecord
  2
*Paper_Space
340
D3
  0
BLOCK_RECORD
  5
D6
102
{ACAD_XDICTIONARY
360
9D27
102
}
330
1
100
AcDbSymbolTableRecord
100
AcDbBlockTableRecord
  2
*Paper_Space0
340
D7
  0
BLOCK_RECORD
  5
9BA4
330
1
100
AcDbSymbolTableRecord
100
AcDbBlockTableRecord
  2
SAE380_80_2-Front
340
0
102
{BLKREFS
331
9D1B
102
}
  0
BLOCK_RECORD
  5
9BF8
330
1
100
AcDbSymbolTableRecord
100
AcDbBlockTableRecord
  2
SAE380_80_2-Left
340
0
102
{BLKREFS
331
9D1C
102
}
  0
BLOCK_RECORD
  5
9C17
330
1
100
AcDbSymbolTableRecord
100
AcDbBlockTableRecord
  2
SAE380_80_2-Right
340
0
102
{BLKREFS
331
9D1D
102
}
  0
BLOCK_RECORD
  5
9C38
330
1
100
AcDbSymbolTableRecord
100
AcDbBlockTableRecord
  2
SAE380_80_2-Top
340
0
102
{BLKREFS
331
9D1E
102
}
  0
BLOCK_RECORD
  5
9C65
330
1
100
AcDbSymbolTableRecord
100
AcDbBlockTableRecord
  2
SAE380_80_2-Bottom
340
0
102
{BLKREFS
331
9D1F
102
}
  0
BLOCK_RECORD
  5
9C89
330
1
100
AcDbSymbolTableRecord
100
AcDbBlockTableRecord
  2
SAE380_80_2-ISO
340
0
102
{BLKREFS
331
9D20
102
}
  0
ENDTAB
  0
ENDSEC
  0
SECTION
  2
BLOCKS
  0
BLOCK
  5
20
330
1F
100
AcDbEntity
  8
0
100
AcDbBlockBegin
  2
*Model_Space
 70
     0
 10
0.0
 20
0.0
 30
0.0
  3
*Model_Space
  1

  0
ENDBLK
  5
21
330
1F
100
AcDbEntity
  8
0
100
AcDbBlockEnd
  0
BLOCK
  5
D4
330
D2
100
AcDbEntity
 67
     1
  8
0
100
AcDbBlockBegin
  2
*Paper_Space
 70
     0
 10
0.0
 20
0.0
 30
0.0
  3
*Paper_Space
  1

  0
ENDBLK
  5
D5
330
D2
100
AcDbEntity
 67
     1
  8
0
100
AcDbBlockEnd
  0
BLOCK
  5
D8
330
D6
100
AcDbEntity
 67
     1
  8
0
100
AcDbBlockBegin
  2
*Paper_Space0
 70
     0
 10
0.0
 20
0.0
 30
0.0
  3
*Paper_Space0
  1

  0
ENDBLK
  5
D9
330
D6
100
AcDbEntity
 67
     1
  8
0
100
AcDbBlockEnd
  0
BLOCK
  5
9BA5
330
9BA4
100
AcDbEntity
  8
0
100
AcDbBlockBegin
  2
SAE380_80_2-Front
 70
     0
 10
0.0
 20
0.0
 30
0.0
  3
SAE380_80_2-Front
  1

  0
SPLINE
  5
9BA7
330
9BA4
100
AcDbEntity
  8
0
100
AcDbSpline
210
0.0
220
0.0
230
1.0
 70
     8
 71
     3
 72
    17
 73
    13
 74
     0
 42
0.000000001
 43
0.0000000001
 40
0.0
 40
0.0
 40
0.0
 40
0.0
 40
0.3704689058684398
 40
0.3704689058684398
 40
0.3704689058684398
 40
0.7029757053312134
 40
0.7029757053312134
 40
0.7029757053312134
 40
0.933581379088566
 40
0.933581379088566
 40
0.933581379088566
 40
0.9938185929346834
 40
0.9938185929346834
 40
0.9938185929346834
 40
0.9938185929346834
 10
44.60606060606067
 20
22.56249999999992
 30
0.0
 10
44.2531098161148
 20
22.27455844103379
 30
0.0
 10
43.80994835339177
 20
22.04087523495585
 30
0.0
 10
43.38299606376827
 20
21.78869659270576
 30
0.0
 10
42.99979375691548
 20
21.56235880322007
 30
0.0
 10
42.63742190750858
 20
21.32332829808188
 30
0.0
 10
42.37998709144246
 20
21.01709169610228
 30
0.0
 10
42.20144659451595
 20
20.80470536883688
 30
0.0
 10
42.07197149374483
 20
20.55383081506001
 30
0.0
 10
42.02188707330053
 20
20.26575225715556
 30
0.0
 10
42.00880436854524
 20
20.19050237533683
 30
0.0
 10
42.00144745145644
 20
20.11446289993344
 30
0.0
 10
42.00019299677457
 20
20.02722238114097
 30
0.0
  0
LINE
  5
9BA8
330
9BA4
100
AcDbEntity
  8
0
100
AcDbLine
 10
44.0
 20
22.56249999999994
 30
0.0
 11
44.55691948257377
 21
22.56249999999994
 31
0.0
  0
LINE
  5
9BA9
330
9BA4
100
AcDbEntity
  8
0
100
AcDbLine
 10
43.92566083936416
 20
22.56249999999994
 30
0.0
 11
44.0
 21
22.56249999999994
 31
0.0
  0
LINE
  5
9BAA
330
9BA4
100
AcDbEntity
  8
0
100
AcDbLine
 10
42.0
 20
22.56249999999994
 30
0.0
 11
43.92566083936416
 21
22.56249999999994
 31
0.0
  0
LINE
  5
9BAB
330
9BA4
100
AcDbEntity
  8
0
100
AcDbLine
 10
42.00000877166835
 20
20.00014151699944
 30
0.0
 11
42.00000776398936
 21
20.00003765500312
 31
0.0
  0
SPLINE
  5
9BAC
330
9BA4
100
AcDbEntity
  8
0
100
AcDbSpline
210
0.0
220
0.0
230
1.0
 70
     8
 71
     3
 72
    10
 73
     6
 74
     0
 42
0.000000001
 43
0.0000000001
 40
0.0148011536036156
 40
0.0148011536036156
 40
0.0148011536036156
 40
0.0148011536036156
 40
0.0171749168915583
 40
0.0171749168915583
 40
0.0184199763693622
 40
0.0184199763693622
 40
0.0184199763693622
 40
0.0184199763693622
 10
42.00038548626378
 20
20.02985488741392
 30
0.0
 10
42.00029023216408
 20
20.02347908244779
 30
0.0
 10
42.00020711890717
 20
20.01694390530972
 30
0.0
 10
42.00010254075142
 20
20.00692295542182
 30
0.0
 10
42.00007042306308
 20
20.00346142672944
 30
0.0
 10
42.00004220846263
 20
19.99999966335058
 30
0.0
  0
SPLINE
  5
9BAD
330
9BA4
100
AcDbEntity
  8
0
100
AcDbSpline
210
0.0
220
0.0
230
1.0
 70
     8
 71
     3
 72
    10
 73
     6
 74
     0
 42
0.000000001
 43
0.0000000001
 40
0.0040569453850333
 40
0.0040569453850333
 40
0.0040569453850333
 40
0.0040569453850333
 40
0.00784131422005
 40
0.00784131422005
 40
0.0123972693136005
 40
0.0123972693136005
 40
0.0123972693136005
 40
0.0123972693136005
 10
42.00001991426308
 20
20.00287777057529
 30
0.0
 10
42.00001991426298
 20
20.00287777056275
 30
0.0
 10
42.0000141883754
 20
20.00209643530242
 30
0.0
 10
42.00000547994705
 20
20.00073579257542
 30
0.0
 10
42.00000316260094
 20
20.00028600655622
 30
0.0
 10
42.00000179639034
 20
19.99999999159892
 30
0.0
  0
SPLINE
  5
9BAE
330
9BA4
100
AcDbEntity
  8
0
100
AcDbSpline
210
0.0
220
0.0
230
1.0
 70
     8
 71
     3
 72
     8
 73
     4
 74
     0
 42
0.000000001
 43
0.0000000001
 40
0.0
 40
0.0
 40
0.0
 40
0.0
 40
0.0009484845451589
 40
0.0009484845451589
 40
0.0009484845451589
 40
0.0009484845451589
 10
39.99956040496365
 20
20.00000098503776
 30
0.0
 10
39.99956427154471
 20
20.00275539287763
 30
0.0
 10
39.99956807790139
 20
20.00547480196816
 30
0.0
 10
39.99957175544638
 20
20.00814870134089
 30
0.0
  0
SPLINE
  5
9BAF
330
9BA4
100
AcDbEntity
  8
0
100
AcDbSpline
210
0.0
220
0.0
230
1.0
 70
     8
 71
     3
 72
    14
 73
    10
 74
     0
 42
0.000000001
 43
0.0000000001
 40
0.0
 40
0.0
 40
0.0
 40
0.0
 40
0.0050537939899473
 40
0.0050537939899473
 40
0.0076266846995715
 40
0.0076266846995715
 40
0.0099757364240764
 40
0.0099757364240764
 40
0.0117459788641949
 40
0.0117459788641949
 40
0.0117459788641949
 40
0.0117459788641949
 10
39.99970085685775
 20
19.99999583904443
 30
0.0
 10
39.99943696029706
 20
20.01668088254733
 30
0.0
 10
39.99916130110712
 20
20.03394678859904
 30
0.0
 10
39.99876193476057
 20
20.05896058065996
 30
0.0
 10
39.99862826252164
 20
20.06733836418388
 30
0.0
 10
39.99840270372599
 20
20.08148976915841
 30
0.0
 10
39.99830585500737
 20
20.08757010299454
 30
0.0
 10
39.99816732226774
 20
20.09624046885357
 30
0.0
 10
39.99811640356384
 20
20.09941635792219
 30
0.0
 10
39.99807359158623
 20
20.10207293153021
 30
0.0
  0
SPLINE
  5
9BB0
330
9BA4
100
AcDbEntity
  8
0
100
AcDbSpline
210
0.0
220
0.0
230
1.0
 70
     8
 71
     3
 72
    34
 73
    30
 74
     0
 42
0.000000001
 43
0.0000000001
 40
0.0019539046345925
 40
0.0019539046345925
 40
0.0019539046345925
 40
0.0019539046345925
 40
0.0074296366073036
 40
0.0074296366073036
 40
0.0161449402582091
 40
0.0161449402582091
 40
0.0215828361900235
 40
0.0215828361900235
 40
0.0244032833063955
 40
0.0244032833063955
 40
0.0264872482953006
 40
0.0264872482953006
 40
0.0292236481782973
 40
0.0292236481782973
 40
0.0316487798354623
 40
0.0316487798354623
 40
0.0348373360763147
 40
0.0348373360763147
 40
0.0399365469063175
 40
0.0399365469063175
 40
0.0496589587030423
 40
0.0496589587030423
 40
0.0742169059791723
 40
0.0742169059791723
 40
0.1474271738495058
 40
0.1474271738495058
 40
0.2287985434241962
 40
0.2287985434241962
 40
0.266160987412003
 40
0.266160987412003
 40
0.266160987412003
 40
0.266160987412003
 10
39.99993431788739
 20
20.00380484819927
 30
0.0
 10
39.99985928935132
 20
20.00810791566168
 30
0.0
 10
39.99974845963912
 20
20.01435438891977
 30
0.0
 10
39.99939149472273
 20
20.03388659856688
 30
0.0
 10
39.99909596754282
 20
20.0495754061883
 30
0.0
 10
39.99852099218027
 20
20.07925673469176
 30
0.0
 10
39.99828146753604
 20
20.09145900683722
 30
0.0
 10
39.99788178718806
 20
20.11186537080748
 30
0.0
 10
39.99773462265506
 20
20.11938787696451
 30
0.0
 10
39.99745964640354
 20
20.1335839578215
 30
0.0
 10
39.99733531492431
 20
20.14004613528695
 30
0.0
 10
39.99704171945474
 20
20.15551843176496
 30
0.0
 10
39.99686693729741
 20
20.16489649880624
 30
0.0
 10
39.99655660038394
 20
20.18203580795266
 30
0.0
 10
39.99641577897082
 20
20.19002353510718
 30
0.0
 10
39.99611288289226
 20
20.20773328678194
 30
0.0
 10
39.99595511724826
 20
20.21737524662343
 30
0.0
 10
39.99558173242425
 20
20.24123347988843
 30
0.0
 10
39.99538454084256
 20
20.25493755206359
 30
0.0
 10
39.99487987374707
 20
20.29285685742675
 30
0.0
 10
39.99462930875962
 20
20.315645147231
 30
0.0
 10
39.99390946005267
 20
20.39342272460516
 30
0.0
 10
39.99367748838711
 20
20.44492798214712
 30
0.0
 10
39.99335832113129
 20
20.65949422030881
 30
0.0
 10
39.99487169859292
 20
20.84918847346101
 30
0.0
 10
39.99832585587378
 20
21.28481707552781
 30
0.0
 10
39.99958712305032
 20
21.54126409020058
 30
0.0
 10
39.99998703213891
 20
21.92779489658145
 30
0.0
 10
39.99998284099222
 20
22.05175331096539
 30
0.0
 10
39.99998937019578
 20
22.17586288747744
 30
0.0
  0
SPLINE
  5
9BB1
330
9BA4
100
AcDbEntity
  8
0
100
AcDbSpline
210
0.0
220
0.0
230
1.0
 70
     8
 71
     3
 72
    12
 73
     8
 74
     0
 42
0.000000001
 43
0.0000000001
 40
0.0
 40
0.0
 40
0.0
 40
0.0
 40
0.0030444958782183
 40
0.0030444958782183
 40
0.0059484407708743
 40
0.0059484407708743
 40
0.0076998870952192
 40
0.0076998870952192
 40
0.0076998870952192
 40
0.0076998870952192
 10
39.99994094388028
 20
19.99999982320922
 30
0.0
 10
39.99992879114667
 20
20.00696349586019
 30
0.0
 10
39.99991750826064
 20
20.01275347419499
 30
0.0
 10
39.99989987695828
 20
20.02087153613001
 30
0.0
 10
39.99989321273551
 20
20.02345633794466
 30
0.0
 10
39.99988739353172
 20
20.0255793944663
 30
0.0
 10
39.99988626658522
 20
20.02594036137091
 30
0.0
 10
39.99988626658527
 20
20.02594036135378
 30
0.0
  0
LINE
  5
9BB2
330
9BA4
100
AcDbEntity
  8
0
100
AcDbLine
 10
37.99999999999998
 20
-2.0
 30
0.0
 11
-37.99999999999999
 21
-2.000000000000007
 31
0.0
  0
LINE
  5
9BB3
330
9BA4
100
AcDbEntity
  8
0
100
AcDbLine
 10
-37.99999999999999
 20
0.0
 30
0.0
 11
37.99999999999998
 21
0.0
 31
0.0
  0
LINE
  5
9BB4
330
9BA4
100
AcDbEntity
  8
0
100
AcDbLine
 10
-43.92566083936417
 20
22.56249999999994
 30
0.0
 11
-42.0
 21
22.56249999999994
 31
0.0
  0
LINE
  5
9BB5
330
9BA4
100
AcDbEntity
  8
0
100
AcDbLine
 10
-44.0
 20
22.56249999999994
 30
0.0
 11
-43.92566083936417
 21
22.56249999999994
 31
0.0
  0
LINE
  5
9BB6
330
9BA4
100
AcDbEntity
  8
0
100
AcDbLine
 10
-44.55691948257377
 20
22.56249999999994
 30
0.0
 11
-44.0
 21
22.56249999999994
 31
0.0
  0
SPLINE
  5
9BB7
330
9BA4
100
AcDbEntity
  8
0
100
AcDbSpline
210
0.0
220
0.0
230
1.0
 70
     8
 71
     3
 72
    17
 73
    13
 74
     0
 42
0.000000001
 43
0.0000000001
 40
0.0
 40
0.0
 40
0.0
 40
0.0
 40
0.3704689058684398
 40
0.3704689058684398
 40
0.3704689058684398
 40
0.7029757053312134
 40
0.7029757053312134
 40
0.7029757053312134
 40
0.933581379088566
 40
0.933581379088566
 40
0.933581379088566
 40
0.9938185929357066
 40
0.9938185929357066
 40
0.9938185929357066
 40
0.9938185929357066
 10
-44.60606060606067
 20
22.56249999999992
 30
0.0
 10
-44.2531098161148
 20
22.27455844103379
 30
0.0
 10
-43.80994835339177
 20
22.04087523495585
 30
0.0
 10
-43.38299606376827
 20
21.78869659270576
 30
0.0
 10
-42.99979375691548
 20
21.56235880322007
 30
0.0
 10
-42.63742190750858
 20
21.32332829808188
 30
0.0
 10
-42.37998709144246
 20
21.01709169610228
 30
0.0
 10
-42.20144659451595
 20
20.80470536883688
 30
0.0
 10
-42.07197149374483
 20
20.55383081506001
 30
0.0
 10
-42.02188707330053
 20
20.26575225715556
 30
0.0
 10
-42.00880436854503
 20
20.19050237533555
 30
0.0
 10
-42.0014474514562
 20
20.11446289993086
 30
0.0
 10
-42.00019299677451
 20
20.02722238113652
 30
0.0
  0
SPLINE
  5
9BB8
330
9BA4
100
AcDbEntity
  8
0
100
AcDbSpline
210
0.0
220
0.0
230
1.0
 70
     8
 71
     3
 72
     8
 73
     4
 74
     0
 42
0.000000001
 43
0.0000000001
 40
0.0207869797695449
 40
0.0207869797695449
 40
0.0207869797695449
 40
0.0207869797695449
 40
0.0217364203395479
 40
0.0217364203395479
 40
0.0217364203395479
 40
0.0217364203395479
 10
-39.99957173038819
 20
20.00814863147271
 30
0.0
 10
-39.99956805612595
 20
20.00547639669283
 30
0.0
 10
-39.99956427393808
 20
20.00275709048532
 30
0.0
 10
-39.99956040343485
 20
19.99999989597698
 30
0.0
  0
SPLINE
  5
9BB9
330
9BA4
100
AcDbEntity
  8
0
100
AcDbSpline
210
0.0
220
0.0
230
1.0
 70
     8
 71
     3
 72
    18
 73
    14
 74
     0
 42
0.000000001
 43
0.0000000001
 40
0.0359814782705593
 40
0.0359814782705593
 40
0.0359814782705593
 40
0.0359814782705593
 40
0.0373929881142221
 40
0.0373929881142221
 40
0.0388270045332398
 40
0.0388270045332398
 40
0.0410736190959573
 40
0.0410736190959573
 40
0.0431426808948056
 40
0.0431426808948056
 40
0.0457467616137789
 40
0.0457467616137789
 40
0.0477385617678097
 40
0.0477385617678097
 40
0.0477385617678097
 40
0.0477385617678097
 10
-39.99807455504729
 20
20.10201277767328
 30
0.0
 10
-39.99810886611476
 20
20.09988338654082
 30
0.0
 10
-39.99814815256977
 20
20.09743574930461
 30
0.0
 10
-39.99823833476175
 20
20.09179815490747
 30
0.0
 10
-39.99828987501111
 20
20.08856822545495
 30
0.0
 10
-39.99843588783785
 20
20.07940962904754
 30
0.0
 10
-39.99854060848079
 20
20.07283568538143
 30
0.0
 10
-39.99875344943554
 20
20.05949177321605
 30
0.0
 10
-39.9988623147346
 20
20.05267353189461
 30
0.0
 10
-39.99910891030515
 20
20.03722816517137
 30
0.0
 10
-39.99924874329785
 20
20.02846705841026
 30
0.0
 10
-39.99949198762712
 20
20.01317862835148
 30
0.0
 10
-39.99959685346571
 20
20.00657152630903
 30
0.0
 10
-39.99970086030257
 20
19.99999562124338
 30
0.0
  0
SPLINE
  5
9BBA
330
9BA4
100
AcDbEntity
  8
0
100
AcDbSpline
210
0.0
220
0.0
230
1.0
 70
     8
 71
     3
 72
    12
 73
     8
 74
     0
 42
0.000000001
 43
0.0000000001
 40
0.0138146052587101
 40
0.0138146052587101
 40
0.0138146052587101
 40
0.0138146052587101
 40
0.0169920270546104
 40
0.0169920270546104
 40
0.0189384933228295
 40
0.0189384933228295
 40
0.0215156964983094
 40
0.0215156964983094
 40
0.0215156964983094
 40
0.0215156964983094
 10
-39.99988626658527
 20
20.02594036135274
 30
0.0
 10
-39.99988626662719
 20
20.02594034784177
 30
0.0
 10
-39.99989009829392
 20
20.02472198084856
 30
0.0
 10
-39.99990126027023
 20
20.02016546446024
 30
0.0
 10
-39.99990666418977
 20
20.0178177141303
 30
0.0
 10
-39.99992101840179
 20
20.01095162391285
 30
0.0
 10
-39.99993065648252
 20
20.0058946355922
 30
0.0
 10
-39.99994094392304
 20
19.9999997987169
 30
0.0
  0
SPLINE
  5
9BBB
330
9BA4
100
AcDbEntity
  8
0
100
AcDbSpline
210
0.0
220
0.0
230
1.0
 70
     8
 71
     3
 72
    30
 73
    26
 74
     0
 42
0.000000001
 43
0.0000000001
 40
0.0
 40
0.0
 40
0.0
 40
0.0
 40
0.0655513846966841
 40
0.0655513846966841
 40
0.1471085312095545
 40
0.1471085312095545
 40
0.1864914810010022
 40
0.1864914810010022
 40
0.2244273889833708
 40
0.2244273889833708
 40
0.2338880731955172
 40
0.2338880731955172
 40
0.2360381558403695
 40
0.2360381558403695
 40
0.2376721266305624
 40
0.2376721266305624
 40
0.2393087301391984
 40
0.2393087301391984
 40
0.2426327608030448
 40
0.2426327608030448
 40
0.2492427199292601
 40
0.2492427199292601
 40
0.2568240024687856
 40
0.2568240024687856
 40
0.2642800054134033
 40
0.2642800054134033
 40
0.2642800054134033
 40
0.2642800054134033
 10
-39.99998937019631
 20
22.17586289738197
 30
0.0
 10
-39.99997791488597
 20
21.95811604445209
 30
0.0
 10
-39.99997499594727
 20
21.73955108488927
 30
0.0
 10
-39.99847087128215
 20
21.27766040299071
 30
0.0
 10
-39.99618388536243
 20
21.03633044736888
 30
0.0
 10
-39.9939978622354
 20
20.72034893831715
 30
0.0
 10
-39.99356154895142
 20
20.62409932071897
 30
0.0
 10
-39.99357532409383
 20
20.4511983029856
 30
0.0
 10
-39.99385386764095
 20
20.37645218524247
 30
0.0
 10
-39.99531443665295
 20
20.25916855952377
 30
0.0
 10
-39.99567901723995
 20
20.23371645584409
 30
0.0
 10
-39.99628108418742
 20
20.19783723248119
 30
0.0
 10
-39.99639996868774
 20
20.19094691142292
 30
0.0
 10
-39.99661900494447
 20
20.17857943576821
 30
0.0
 10
-39.9967175250127
 20
20.17311953326908
 30
0.0
 10
-39.99691739917921
 20
20.16221980559738
 30
0.0
 10
-39.99701972349996
 20
20.15672743778861
 30
0.0
 10
-39.99732461841571
 20
20.14055404496563
 30
0.0
 10
-39.99752542183991
 20
20.13016115061084
 30
0.0
 10
-39.99806031158737
 20
20.10267560197647
 30
0.0
 10
-39.9983579688561
 20
20.08760874287633
 30
0.0
 10
-39.99895263545797
 20
20.05702474415548
 30
0.0
 10
-39.99922859197759
 20
20.04254042615541
 30
0.0
 10
-39.99966356002422
 20
20.01911213770737
 30
0.0
 10
-39.99983238544868
 20
20.00963523377735
 30
0.0
 10
-39.99993417636163
 20
20.00381013591403
 30
0.0
  0
SPLINE
  5
9BBC
330
9BA4
100
AcDbEntity
  8
0
100
AcDbSpline
210
0.0
220
0.0
230
1.0
 70
     8
 71
     3
 72
    16
 73
    12
 74
     0
 42
0.000000001
 43
0.0000000001
 40
0.0004163505031087
 40
0.0004163505031087
 40
0.0004163505031087
 40
0.0004163505031087
 40
0.0035138910770838
 40
0.0035138910770838
 40
0.0059267044653378
 40
0.0059267044653378
 40
0.0066158865806227
 40
0.0066158865806227
 40
0.0070441724440867
 40
0.0070441724440867
 40
0.0073037898287372
 40
0.0073037898287372
 40
0.0073037898287372
 40
0.0073037898287372
 10
-42.00002338564623
 20
20.00389953428613
 30
0.0
 10
-42.00005233626629
 20
20.01355315678778
 30
0.0
 10
-42.00011399930741
 20
20.02311054182117
 30
0.0
 10
-42.00028055585455
 20
20.03947237337689
 30
0.0
 10
-42.00037745352448
 20
20.04665754219544
 30
0.0
 10
-42.00049894015648
 20
20.05420950582109
 30
0.0
 10
-42.00052569651067
 20
20.05578387506841
 30
0.0
 10
-42.00056042089712
 20
20.05776410538572
 30
0.0
 10
-42.00057174405814
 20
20.05839219637763
 30
0.0
 10
-42.00058222695045
 20
20.0589691770738
 30
0.0
 10
-42.00058444760367
 20
20.05908995333305
 30
0.0
 10
-42.00058444767512
 20
20.05908995722642
 30
0.0
  0
SPLINE
  5
9BBD
330
9BA4
100
AcDbEntity
  8
0
100
AcDbSpline
210
0.0
220
0.0
230
1.0
 70
     8
 71
     3
 72
    16
 73
    12
 74
     0
 42
0.000000001
 43
0.0000000001
 40
0.0
 40
0.0
 40
0.0
 40
0.0
 40
0.0048245587249694
 40
0.0048245587249694
 40
0.0084632884245874
 40
0.0084632884245874
 40
0.009479880378186
 40
0.009479880378186
 40
0.0099662892780727
 40
0.0099662892780727
 40
0.0100234587454843
 40
0.0100234587454843
 40
0.0100234587454843
 40
0.0100234587454843
 10
-42.00004220846264
 20
19.99999966335058
 30
0.0
 10
-42.0001515389799
 20
20.01341386645446
 30
0.0
 10
-42.00032268954899
 20
20.02687141511289
 30
0.0
 10
-42.00070285066234
 20
20.04890462677137
 30
0.0
 10
-42.00090173277091
 20
20.05824125594578
 30
0.0
 10
-42.00111304294125
 20
20.06712883647058
 30
0.0
 10
-42.00115674471434
 20
20.0688978772412
 30
0.0
 10
-42.00119778520162
 20
20.07053633762488
 30
0.0
 10
-42.00120726678622
 20
20.07091044343766
 30
0.0
 10
-42.00120931527975
 20
20.07099134012164
 30
0.0
 10
-42.00120942614424
 20
20.07099571687405
 30
0.0
 10
-42.0012094261417
 20
20.07099571677422
 30
0.0
  0
SPLINE
  5
9BBE
330
9BA4
100
AcDbEntity
  8
0
100
AcDbSpline
210
0.0
220
0.0
230
1.0
 70
     8
 71
     3
 72
    38
 73
    34
 74
     0
 42
0.000000001
 43
0.0000000001
 40
0.0000059991851188
 40
0.0000059991851188
 40
0.0000059991851188
 40
0.0000059991851188
 40
0.0029918283304128
 40
0.0029918283304128
 40
0.0074782334110843
 40
0.0074782334110843
 40
0.0106273985491873
 40
0.0106273985491873
 40
0.0128214367341512
 40
0.0128214367341512
 40
0.0142987306522166
 40
0.0142987306522166
 40
0.0158295087775147
 40
0.0158295087775147
 40
0.016925786776667
 40
0.016925786776667
 40
0.0178303058821921
 40
0.0178303058821921
 40
0.0187015939104691
 40
0.0187015939104691
 40
0.0209039606096746
 40
0.0209039606096746
 40
0.0275148210145517
 40
0.0275148210145517
 40
0.03096989658789
 40
0.03096989658789
 40
0.0344376976843943
 40
0.0344376976843943
 40
0.0366921532944607
 40
0.0366921532944607
 40
0.0382082661485861
 40
0.0382082661485861
 40
0.0386471327225497
 40
0.0386471327225497
 40
0.0386471327225497
 40
0.0386471327225497
 10
-42.00000776398818
 20
20.0000376553438
 30
0.0
 10
-42.00006843658436
 20
20.00629941143863
 30
0.0
 10
-42.00015500592956
 20
20.01391165366245
 30
0.0
 10
-42.00042636941502
 20
20.03328551760068
 30
0.0
 10
-42.0006407129892
 20
20.0454261956742
 30
0.0
 10
-42.0010690809518
 20
20.06514627204808
 30
0.0
 10
-42.00126489521112
 20
20.07306724373484
 30
0.0
 10
-42.00160491222789
 20
20.08548310549418
 30
0.0
 10
-42.00175754362073
 20
20.0906311869111
 30
0.0
 10
-42.00195012349038
 20
20.09683519393416
 30
0.0
 10
-42.00200684021389
 20
20.09858713509288
 30
0.0
 10
-42.00208009521948
 20
20.1008363440975
 30
0.0
 10
-42.0020939769592
 20
20.10125417518788
 30
0.0
 10
-42.00214119216471
 20
20.10267095381943
 30
0.0
 10
-42.00217347112546
 20
20.10364404115457
 30
0.0
 10
-42.00229342753957
 20
20.10713940211764
 30
0.0
 10
-42.00236897929319
 20
20.10930598020524
 30
0.0
 10
-42.00253307969319
 20
20.11386339976797
 30
0.0
 10
-42.00262201825141
 20
20.11627299731458
 30
0.0
 10
-42.00295071964555
 20
20.12492041610407
 30
0.0
 10
-42.00321423071316
 20
20.13140529931961
 30
0.0
 10
-42.00433752778883
 20
20.15715207153567
 30
0.0
 10
-42.00535545018022
 20
20.1763714488178
 30
0.0
 10
-42.00701467764591
 20
20.20298760744837
 30
0.0
 10
-42.00760600761078
 20
20.21170784764463
 30
0.0
 10
-42.00875385415392
 20
20.22754508829141
 30
0.0
 10
-42.00931844548543
 20
20.2347553589696
 30
0.0
 10
-42.01008265346247
 20
20.24408355474596
 30
0.0
 10
-42.01034295452093
 20
20.24713259359668
 30
0.0
 10
-42.01063819361177
 20
20.25053596828934
 30
0.0
 10
-42.01071963533519
 20
20.25145467752169
 30
0.0
 10
-42.01075796693466
 20
20.25188628408548
 30
0.0
 10
-42.01076237535469
 20
20.25193571321504
 30
0.0
 10
-42.01076237536355
 20
20.25193571331445
 30
0.0
  0
SPLINE
  5
9BBF
330
9BA4
100
AcDbEntity
  8
0
100
AcDbSpline
210
0.0
220
0.0
230
1.0
 70
     8
 71
     3
 72
     8
 73
     4
 74
     0
 42
0.000000001
 43
0.0000000001
 40
0.0
 40
0.0
 40
0.0
 40
0.0
 40
0.0083262332987563
 40
0.0083262332987563
 40
0.0083262332987563
 40
0.0083262332987563
 10
-42.00000179639035
 20
19.99999999159891
 30
0.0
 10
-42.0000042932078
 20
20.00052269808088
 30
0.0
 10
-42.00001991412068
 20
20.0028777520075
 30
0.0
 10
-42.00001991426308
 20
20.00287777057878
 30
0.0
  0
ARC
  5
9BC0
330
9BA4
100
AcDbEntity
  8
0
100
AcDbCircle
 10
-37.99999999999999
 20
2.0
 30
0.0
 40
4.000000000000007
100
AcDbArc
 50
180.0
 51
270.0
  0
ARC
  5
9BC1
330
9BA4
100
AcDbEntity
  8
0
100
AcDbCircle
 10
-37.99999999999999
 20
2.0
 30
0.0
 40
2.000000000000006
100
AcDbArc
 50
180.0
 51
270.0
  0
ARC
  5
9BC2
330
9BA4
100
AcDbEntity
  8
0
100
AcDbCircle
 10
37.99999999999999
 20
2.0
 30
0.0
 40
4.000000000000007
100
AcDbArc
 50
270.0
 51
0.0
  0
LINE
  5
9BC3
330
9BA4
100
AcDbEntity
  8
0
100
AcDbLine
 10
44.60606060606065
 20
22.56249999999994
 30
0.0
 11
81.50000000000005
 21
52.99999999999997
 31
0.0
  0
LINE
  5
9BC4
330
9BA4
100
AcDbEntity
  8
0
100
AcDbLine
 10
39.99999999999997
 20
20.0
 30
0.0
 11
39.99999999999998
 21
52.99999999999997
 31
0.0
  0
LINE
  5
9BC5
330
9BA4
100
AcDbEntity
  8
0
100
AcDbLine
 10
41.99999999999997
 20
20.0
 30
0.0
 11
39.99999999999997
 21
20.0
 31
0.0
  0
LINE
  5
9BC6
330
9BA4
100
AcDbEntity
  8
0
100
AcDbLine
 10
41.99999999999998
 20
52.99999999999997
 30
0.0
 11
41.99999999999997
 21
20.0
 31
0.0
  0
LINE
  5
9BC7
330
9BA4
100
AcDbEntity
  8
0
100
AcDbLine
 10
41.99999999999998
 20
52.99999999999997
 30
0.0
 11
39.99999999999998
 21
52.99999999999997
 31
0.0
  0
LINE
  5
9BC8
330
9BA4
100
AcDbEntity
  8
0
100
AcDbLine
 10
39.99999999999998
 20
52.99999999999997
 30
0.0
 11
39.99999999999998
 21
150.0
 31
0.0
  0
LINE
  5
9BC9
330
9BA4
100
AcDbEntity
  8
0
100
AcDbLine
 10
41.99999999999998
 20
150.0
 30
0.0
 11
41.99999999999998
 21
52.99999999999997
 31
0.0
  0
LINE
  5
9BCA
330
9BA4
100
AcDbEntity
  8
0
100
AcDbLine
 10
39.99999999999998
 20
150.0
 30
0.0
 11
41.99999999999998
 21
150.0
 31
0.0
  0
LINE
  5
9BCB
330
9BA4
100
AcDbEntity
  8
0
100
AcDbLine
 10
41.99999999999997
 20
20.0
 30
0.0
 11
41.99999999999999
 21
1.999999999999999
 31
0.0
  0
LINE
  5
9BCC
330
9BA4
100
AcDbEntity
  8
0
100
AcDbLine
 10
39.99999999999999
 20
2.0
 30
0.0
 11
39.99999999999997
 21
20.0
 31
0.0
  0
ARC
  5
9BCD
330
9BA4
100
AcDbEntity
  8
0
100
AcDbCircle
 10
37.99999999999999
 20
2.0
 30
0.0
 40
2.000000000000006
100
AcDbArc
 50
270.0
 51
0.0
  0
LINE
  5
9BCE
330
9BA4
100
AcDbEntity
  8
0
100
AcDbLine
 10
44.0
 20
150.0
 30
0.0
 11
42.0
 21
150.0
 31
0.0
  0
LINE
  5
9BCF
330
9BA4
100
AcDbEntity
  8
0
100
AcDbLine
 10
81.50000000000005
 20
52.99999999999997
 30
0.0
 11
81.5
 21
150.0
 31
0.0
  0
LINE
  5
9BD0
330
9BA4
100
AcDbEntity
  8
0
100
AcDbLine
 10
81.5
 20
150.0
 30
0.0
 11
44.0
 21
150.0
 31
0.0
  0
CIRCLE
  5
9BD1
330
9BA4
100
AcDbEntity
  8
0
100
AcDbCircle
 10
62.0
 20
130.0
 30
0.0
 40
6.5
  0
CIRCLE
  5
9BD2
330
9BA4
100
AcDbEntity
  8
0
100
AcDbCircle
 10
73.0
 20
135.0
 30
0.0
 40
2.5
  0
LINE
  5
9BD3
330
9BA4
100
AcDbEntity
  8
0
100
AcDbLine
 10
-81.50000000000005
 20
52.99999999999997
 30
0.0
 11
-44.60606060606065
 21
22.56249999999994
 31
0.0
  0
LINE
  5
9BD4
330
9BA4
100
AcDbEntity
  8
0
100
AcDbLine
 10
-39.99999999999998
 20
52.99999999999997
 30
0.0
 11
-39.99999999999997
 21
20.0
 31
0.0
  0
LINE
  5
9BD5
330
9BA4
100
AcDbEntity
  8
0
100
AcDbLine
 10
-41.99999999999998
 20
52.99999999999997
 30
0.0
 11
-39.99999999999998
 21
52.99999999999997
 31
0.0
  0
LINE
  5
9BD6
330
9BA4
100
AcDbEntity
  8
0
100
AcDbLine
 10
-41.99999999999997
 20
20.0
 30
0.0
 11
-41.99999999999998
 21
52.99999999999997
 31
0.0
  0
LINE
  5
9BD7
330
9BA4
100
AcDbEntity
  8
0
100
AcDbLine
 10
-39.99999999999997
 20
20.0
 30
0.0
 11
-41.99999999999997
 21
20.0
 31
0.0
  0
LINE
  5
9BD8
330
9BA4
100
AcDbEntity
  8
0
100
AcDbLine
 10
-39.99999999999998
 20
150.0
 30
0.0
 11
-39.99999999999998
 21
52.99999999999997
 31
0.0
  0
LINE
  5
9BD9
330
9BA4
100
AcDbEntity
  8
0
100
AcDbLine
 10
-41.99999999999998
 20
150.0
 30
0.0
 11
-39.99999999999998
 21
150.0
 31
0.0
  0
LINE
  5
9BDA
330
9BA4
100
AcDbEntity
  8
0
100
AcDbLine
 10
-41.99999999999998
 20
52.99999999999997
 30
0.0
 11
-41.99999999999998
 21
150.0
 31
0.0
  0
CIRCLE
  5
9BDB
330
9BA4
100
AcDbEntity
  8
0
100
AcDbCircle
 10
-62.0
 20
60.0
 30
0.0
 40
6.5
  0
CIRCLE
  5
9BDC
330
9BA4
100
AcDbEntity
  8
0
100
AcDbCircle
 10
62.0
 20
60.0
 30
0.0
 40
6.5
  0
CIRCLE
  5
9BDD
330
9BA4
100
AcDbEntity
  8
0
100
AcDbCircle
 10
-62.0
 20
130.0
 30
0.0
 40
6.5
  0
CIRCLE
  5
9BDE
330
9BA4
100
AcDbEntity
  8
0
100
AcDbCircle
 10
-51.0
 20
45.0
 30
0.0
 40
2.5
  0
CIRCLE
  5
9BDF
330
9BA4
100
AcDbEntity
  8
0
100
AcDbCircle
 10
-51.0
 20
65.0
 30
0.0
 40
2.5
  0
CIRCLE
  5
9BE0
330
9BA4
100
AcDbEntity
  8
0
100
AcDbCircle
 10
-51.0
 20
85.0
 30
0.0
 40
2.5
  0
CIRCLE
  5
9BE1
330
9BA4
100
AcDbEntity
  8
0
100
AcDbCircle
 10
-51.0
 20
105.0
 30
0.0
 40
2.5
  0
CIRCLE
  5
9BE2
330
9BA4
100
AcDbEntity
  8
0
100
AcDbCircle
 10
-51.0
 20
125.0
 30
0.0
 40
2.5
  0
CIRCLE
  5
9BE3
330
9BA4
100
AcDbEntity
  8
0
100
AcDbCircle
 10
51.0
 20
45.0
 30
0.0
 40
2.5
  0
CIRCLE
  5
9BE4
330
9BA4
100
AcDbEntity
  8
0
100
AcDbCircle
 10
51.0
 20
65.0
 30
0.0
 40
2.5
  0
CIRCLE
  5
9BE5
330
9BA4
100
AcDbEntity
  8
0
100
AcDbCircle
 10
51.0
 20
85.0
 30
0.0
 40
2.5
  0
CIRCLE
  5
9BE6
330
9BA4
100
AcDbEntity
  8
0
100
AcDbCircle
 10
51.0
 20
105.0
 30
0.0
 40
2.5
  0
CIRCLE
  5
9BE7
330
9BA4
100
AcDbEntity
  8
0
100
AcDbCircle
 10
51.0
 20
125.0
 30
0.0
 40
2.5
  0
CIRCLE
  5
9BE8
330
9BA4
100
AcDbEntity
  8
0
100
AcDbCircle
 10
-51.0
 20
145.0
 30
0.0
 40
2.5
  0
CIRCLE
  5
9BE9
330
9BA4
100
AcDbEntity
  8
0
100
AcDbCircle
 10
51.0
 20
145.0
 30
0.0
 40
2.5
  0
CIRCLE
  5
9BEA
330
9BA4
100
AcDbEntity
  8
0
100
AcDbCircle
 10
-73.0
 20
55.0
 30
0.0
 40
2.5
  0
CIRCLE
  5
9BEB
330
9BA4
100
AcDbEntity
  8
0
100
AcDbCircle
 10
-73.0
 20
75.0
 30
0.0
 40
2.5
  0
CIRCLE
  5
9BEC
330
9BA4
100
AcDbEntity
  8
0
100
AcDbCircle
 10
-73.0
 20
95.0
 30
0.0
 40
2.5
  0
CIRCLE
  5
9BED
330
9BA4
100
AcDbEntity
  8
0
100
AcDbCircle
 10
-73.0
 20
115.0
 30
0.0
 40
2.5
  0
CIRCLE
  5
9BEE
330
9BA4
100
AcDbEntity
  8
0
100
AcDbCircle
 10
73.0
 20
55.0
 30
0.0
 40
2.5
  0
CIRCLE
  5
9BEF
330
9BA4
100
AcDbEntity
  8
0
100
AcDbCircle
 10
73.0
 20
75.0
 30
0.0
 40
2.5
  0
CIRCLE
  5
9BF0
330
9BA4
100
AcDbEntity
  8
0
100
AcDbCircle
 10
73.0
 20
95.0
 30
0.0
 40
2.5
  0
CIRCLE
  5
9BF1
330
9BA4
100
AcDbEntity
  8
0
100
AcDbCircle
 10
73.0
 20
115.0
 30
0.0
 40
2.5
  0
CIRCLE
  5
9BF2
330
9BA4
100
AcDbEntity
  8
0
100
AcDbCircle
 10
-73.0
 20
135.0
 30
0.0
 40
2.5
  0
LINE
  5
9BF3
330
9BA4
100
AcDbEntity
  8
0
100
AcDbLine
 10
-81.5
 20
150.0
 30
0.0
 11
-44.0
 21
150.0
 31
0.0
  0
LINE
  5
9BF4
330
9BA4
100
AcDbEntity
  8
0
100
AcDbLine
 10
-81.50000000000005
 20
52.99999999999997
 30
0.0
 11
-81.5
 21
150.0
 31
0.0
  0
LINE
  5
9BF5
330
9BA4
100
AcDbEntity
  8
0
100
AcDbLine
 10
-39.99999999999999
 20
2.0
 30
0.0
 11
-39.99999999999997
 21
20.0
 31
0.0
  0
LINE
  5
9BF6
330
9BA4
100
AcDbEntity
  8
0
100
AcDbLine
 10
-41.99999999999997
 20
20.0
 30
0.0
 11
-41.99999999999999
 21
1.999999999999999
 31
0.0
  0
LINE
  5
9BF7
330
9BA4
100
AcDbEntity
  8
0
100
AcDbLine
 10
-44.0
 20
150.0
 30
0.0
 11
-42.0
 21
150.0
 31
0.0
  0
ENDBLK
  5
9BA6
330
9BA4
100
AcDbEntity
  8
0
100
AcDbBlockEnd
  0
BLOCK
  5
9BF9
330
9BF8
100
AcDbEntity
  8
0
100
AcDbBlockBegin
  2
SAE380_80_2-Left
 70
     0
 10
0.0
 20
0.0
 30
0.0
  3
SAE380_80_2-Left
  1

  0
LINE
  5
9BFB
330
9BF8
100
AcDbEntity
  8
0
100
AcDbLine
 10
1.999999999999992
 20
-2.0
 30
0.0
 11
86.0
 21
-2.000000000000007
 31
0.0
  0
LINE
  5
9BFC
330
9BF8
100
AcDbEntity
  8
0
100
AcDbLine
 10
1.999999999999997
 20
2.000000000000004
 30
0.0
 11
1.999999999999992
 21
-1.999999999999999
 31
0.0
  0
LINE
  5
9BFD
330
9BF8
100
AcDbEntity
  8
0
100
AcDbLine
 10
86.0
 20
-2.000000000000007
 30
0.0
 11
86.0
 21
2.0
 31
0.0
  0
SPLINE
  5
9BFE
330
9BF8
100
AcDbEntity
  8
0
100
AcDbSpline
210
0.0
220
0.0
230
1.0
 70
     8
 71
     3
 72
    17
 73
    13
 74
     0
 42
0.000000001
 43
0.0000000001
 40
-0.9642391866727308
 40
-0.9642391866727308
 40
-0.9642391866727308
 40
-0.9642391866727308
 40
-0.7907552673955366
 40
-0.7907552673955366
 40
-0.7907552673955366
 40
-0.3883396848748
 40
-0.3883396848748
 40
-0.3883396848748
 40
-0.1053184206024269
 40
-0.1053184206024269
 40
-0.1053184206024269
 40
0.0
 40
0.0
 40
0.0
 40
0.0
 10
1.991418259919434
 20
20.23869885963245
 30
0.0
 10
1.966312612901927
 20
20.6075508710582
 30
0.0
 10
1.887915385281186
 20
20.89349071917059
 30
0.0
 10
1.773393535468694
 20
21.10014472425691
 30
0.0
 10
1.50774714532685
 20
21.57950207439943
 30
0.0
 10
1.052077259780863
 20
21.69581939513325
 30
0.0
 10
0.671142312164861
 20
21.82272340325022
 30
0.0
 10
0.4032285057350224
 20
21.91197574430897
 30
0.0
 10
0.1693290542157491
 20
22.01102292129144
 30
0.0
 10
0.0606817918160549
 20
22.23987558701078
 30
0.0
 10
0.020251762262865
 20
22.32503668388519
 30
0.0
 10
0.000016626864846
 20
22.43287618702998
 30
0.0
 10
0.000000000000001
 20
22.56249999999994
 30
0.0
  0
LINE
  5
9BFF
330
9BF8
100
AcDbEntity
  8
0
100
AcDbLine
 10
2.000000000000002
 20
22.56249999999994
 30
0.0
 11
2.00138205522017
 21
22.56249999999994
 31
0.0
  0
SPLINE
  5
9C00
330
9BF8
100
AcDbEntity
  8
0
100
AcDbSpline
210
0.0
220
0.0
230
1.0
 70
     8
 71
     3
 72
    17
 73
    13
 74
     0
 42
0.000000001
 43
0.0000000001
 40
0.0
 40
0.0
 40
0.0
 40
0.0
 40
0.3704689058684398
 40
0.3704689058684398
 40
0.3704689058684398
 40
0.7029757053312134
 40
0.7029757053312134
 40
0.7029757053312134
 40
0.933581379088566
 40
0.933581379088566
 40
0.933581379088566
 40
1.0
 40
1.0
 40
1.0
 40
1.0
 10
2.000000000000002
 20
22.56249999999992
 30
0.0
 10
2.000006377019302
 20
22.27455844103379
 30
0.0
 10
2.000465619612596
 20
22.04087523495585
 30
0.0
 10
1.999851137318906
 20
21.78869659270576
 30
0.0
 10
1.999299621287292
 20
21.56235880322007
 30
0.0
 10
2.00004388646216
 20
21.32332829808188
 30
0.0
 10
2.000290307240785
 20
21.01709169610228
 30
0.0
 10
2.000461209098355
 20
20.80470536883688
 30
0.0
 10
2.000344409457291
 20
20.55383081506001
 30
0.0
 10
2.000001688218324
 20
20.26575225715556
 30
0.0
 10
1.999902978279066
 20
20.1827804021339
 30
0.0
 10
2.00056570178213
 20
20.09884858616336
 30
0.0
 10
2.000000000000107
 20
20.00000000000801
 30
0.0
  0
LINE
  5
9C01
330
9BF8
100
AcDbEntity
  8
0
100
AcDbLine
 10
0.0
 20
22.56249999999994
 30
0.0
 11
2.000000000000002
 21
22.56249999999994
 31
0.0
  0
SPLINE
  5
9C02
330
9BF8
100
AcDbEntity
  8
0
100
AcDbSpline
210
0.0
220
0.0
230
1.0
 70
     8
 71
     3
 72
    10
 73
     6
 74
     0
 42
0.000000001
 43
0.0000000001
 40
0.0
 40
0.0
 40
0.0
 40
0.0
 40
0.0050447020522087
 40
0.0050447020522087
 40
0.0085295656034767
 40
0.0085295656034767
 40
0.0085295656034767
 40
0.0085295656034767
 10
1.999900822933357
 20
20.00000014488268
 30
0.0
 10
1.999917130800624
 20
20.00948968036305
 30
0.0
 10
1.999894675346178
 20
20.01679655659247
 30
0.0
 10
1.999860226913902
 20
20.02420102394225
 30
0.0
 10
1.999847236260081
 20
20.02589350044882
 30
0.0
 10
1.999847236395002
 20
20.02589348227024
 30
0.0
  0
SPLINE
  5
9C03
330
9BF8
100
AcDbEntity
  8
0
100
AcDbSpline
210
0.0
220
0.0
230
1.0
 70
     8
 71
     3
 72
    10
 73
     6
 74
     0
 42
0.000000001
 43
0.0000000001
 40
0.002476569469653
 40
0.002476569469653
 40
0.002476569469653
 40
0.002476569469653
 40
0.0072954549606129
 40
0.0072954549606129
 40
0.0088101693832505
 40
0.0088101693832505
 40
0.0088101693832505
 40
0.0088101693832505
 10
1.999904719055268
 20
20.00820337971891
 30
0.0
 10
1.999848531803668
 20
20.01335133346627
 30
0.0
 10
1.999790292668946
 20
20.01790246962278
 30
0.0
 10
1.999755200236262
 20
20.02050654759861
 30
0.0
 10
1.999750203300101
 20
20.02086783944913
 30
0.0
 10
1.999750203294858
 20
20.02086783982978
 30
0.0
  0
SPLINE
  5
9C04
330
9BF8
100
AcDbEntity
  8
0
100
AcDbSpline
210
0.0
220
0.0
230
1.0
 70
     8
 71
     3
 72
    32
 73
    28
 74
     0
 42
0.000000001
 43
0.0000000001
 40
0.0018001225642915
 40
0.0018001225642915
 40
0.0018001225642915
 40
0.0018001225642915
 40
0.004936217393312
 40
0.004936217393312
 40
0.0136075453935596
 40
0.0136075453935596
 40
0.0157017064305511
 40
0.0157017064305511
 40
0.0187307324287835
 40
0.0187307324287835
 40
0.0214823020141339
 40
0.0214823020141339
 40
0.0252519500542395
 40
0.0252519500542395
 40
0.031587543205439
 40
0.031587543205439
 40
0.0456644159551129
 40
0.0456644159551129
 40
0.0667732375893846
 40
0.0667732375893846
 40
0.082516568289827
 40
0.082516568289827
 40
0.0966730599144074
 40
0.0966730599144074
 40
0.1029028078123993
 40
0.1029028078123993
 40
0.106592035764447
 40
0.106592035764447
 40
0.106592035764447
 40
0.106592035764447
 10
1.999906247788287
 20
20.0079885712372
 30
0.0
 10
1.999844678117556
 20
20.01309147055509
 30
0.0
 10
1.99976951874649
 20
20.01880950404775
 30
0.0
 10
1.999447828838444
 20
20.04063924749081
 30
0.0
 10
1.999163921222523
 20
20.05694762607515
 30
0.0
 10
1.998493513235941
 20
20.08502063599997
 30
0.0
 10
1.998344337744253
 20
20.09095202516881
 30
0.0
 10
1.997931874874158
 20
20.10633445589476
 30
0.0
 10
1.997640548525771
 20
20.11638174661193
 30
0.0
 10
1.997035115434398
 20
20.13554603681897
 30
0.0
 10
1.996720979247008
 20
20.14483095187941
 30
0.0
 10
1.995945012590876
 20
20.16636017253614
 30
0.0
 10
1.995465610137821
 20
20.17861339755438
 30
0.0
 10
1.994126232504213
 20
20.2105200999165
 30
0.0
 10
1.993220590522664
 20
20.22978942163704
 30
0.0
 10
1.990080783483795
 20
20.29046212873783
 30
0.0
 10
1.98754790555739
 20
20.33076288151069
 30
0.0
 10
1.9800290065293
 20
20.43019732454827
 30
0.0
 10
1.974401036457192
 20
20.48869773379654
 30
0.0
 10
1.962499624101067
 20
20.58544578878358
 30
0.0
 10
1.956677294108214
 20
20.62534443172568
 30
0.0
 10
1.945516042023138
 20
20.69167792177504
 30
0.0
 10
1.940045049414287
 20
20.71965030240314
 30
0.0
 10
1.934901777268532
 20
20.74437060915735
 30
0.0
 10
1.933704313889195
 20
20.74987665260953
 30
0.0
 10
1.932673978572391
 20
20.75457717587747
 30
0.0
 10
1.93247707550905
 20
20.75545976199728
 30
0.0
 10
1.932477075507532
 20
20.75545976200411
 30
0.0
  0
LINE
  5
9C05
330
9BF8
100
AcDbEntity
  8
0
100
AcDbLine
 10
1.999999999999997
 20
2.000000000000003
 30
0.0
 11
1.999999999999997
 21
20.0
 31
0.0
  0
LINE
  5
9C06
330
9BF8
100
AcDbEntity
  8
0
100
AcDbLine
 10
1.999999999999984
 20
52.99999999999997
 30
0.0
 11
2.000000000000002
 21
22.56249999999994
 31
0.0
  0
LINE
  5
9C07
330
9BF8
100
AcDbEntity
  8
0
100
AcDbLine
 10
0.0
 20
52.99999999999997
 30
0.0
 11
1.999999999999984
 21
52.99999999999997
 31
0.0
  0
LINE
  5
9C08
330
9BF8
100
AcDbEntity
  8
0
100
AcDbLine
 10
0.0
 20
22.56249999999994
 30
0.0
 11
0.0
 21
52.99999999999997
 31
0.0
  0
LINE
  5
9C09
330
9BF8
100
AcDbEntity
  8
0
100
AcDbLine
 10
86.00000000000001
 20
20.0
 30
0.0
 11
46.00000000000001
 21
52.99999999999997
 31
0.0
  0
LINE
  5
9C0A
330
9BF8
100
AcDbEntity
  8
0
100
AcDbLine
 10
46.00000000000001
 20
52.99999999999997
 30
0.0
 11
46.0
 21
150.0
 31
0.0
  0
LINE
  5
9C0B
330
9BF8
100
AcDbEntity
  8
0
100
AcDbLine
 10
1.999999999999984
 20
52.99999999999997
 30
0.0
 11
2.000000000000019
 21
150.0
 31
0.0
  0
LINE
  5
9C0C
330
9BF8
100
AcDbEntity
  8
0
100
AcDbLine
 10
86.00000000000001
 20
20.0
 30
0.0
 11
86.0
 21
1.999999999999999
 31
0.0
  0
LINE
  5
9C0D
330
9BF8
100
AcDbEntity
  8
0
100
AcDbLine
 10
4.000000000000003
 20
150.0
 30
0.0
 11
46.0
 21
150.0
 31
0.0
  0
LINE
  5
9C0E
330
9BF8
100
AcDbEntity
  8
0
100
AcDbLine
 10
0.0
 20
150.0
 30
0.0
 11
2.000000000000019
 21
150.0
 31
0.0
  0
LINE
  5
9C0F
330
9BF8
100
AcDbEntity
  8
0
100
AcDbLine
 10
0.0
 20
52.99999999999997
 30
0.0
 11
0.0
 21
150.0
 31
0.0
  0
LINE
  5
9C10
330
9BF8
100
AcDbEntity
  8
0
100
AcDbLine
 10
2.000000000000002
 20
150.0
 30
0.0
 11
4.000000000000003
 21
150.0
 31
0.0
  0
CIRCLE
  5
9C11
330
9BF8
100
AcDbEntity
  8
0
100
AcDbCircle
 10
38.5
 20
45.0
 30
0.0
 40
2.5
  0
CIRCLE
  5
9C12
330
9BF8
100
AcDbEntity
  8
0
100
AcDbCircle
 10
38.5
 20
65.0
 30
0.0
 40
2.5
  0
CIRCLE
  5
9C13
330
9BF8
100
AcDbEntity
  8
0
100
AcDbCircle
 10
38.5
 20
85.0
 30
0.0
 40
2.5
  0
CIRCLE
  5
9C14
330
9BF8
100
AcDbEntity
  8
0
100
AcDbCircle
 10
38.5
 20
105.0
 30
0.0
 40
2.5
  0
CIRCLE
  5
9C15
330
9BF8
100
AcDbEntity
  8
0
100
AcDbCircle
 10
38.5
 20
125.0
 30
0.0
 40
2.5
  0
CIRCLE
  5
9C16
330
9BF8
100
AcDbEntity
  8
0
100
AcDbCircle
 10
38.5
 20
145.0
 30
0.0
 40
2.5
  0
ENDBLK
  5
9BFA
330
9BF8
100
AcDbEntity
  8
0
100
AcDbBlockEnd
  0
BLOCK
  5
9C18
330
9C17
100
AcDbEntity
  8
0
100
AcDbBlockBegin
  2
SAE380_80_2-Right
 70
     0
 10
0.0
 20
0.0
 30
0.0
  3
SAE380_80_2-Right
  1

  0
SPLINE
  5
9C1A
330
9C17
100
AcDbEntity
  8
0
100
AcDbSpline
210
0.0
220
0.0
230
1.0
 70
     8
 71
     3
 72
    17
 73
    13
 74
     0
 42
0.000000001
 43
0.0000000001
 40
0.0
 40
0.0
 40
0.0
 40
0.0
 40
0.3704689058684398
 40
0.3704689058684398
 40
0.3704689058684398
 40
0.7029757053312134
 40
0.7029757053312134
 40
0.7029757053312134
 40
0.933581379088566
 40
0.933581379088566
 40
0.933581379088566
 40
1.0
 40
1.0
 40
1.0
 40
1.0
 10
-2.000000000000002
 20
22.56249999999992
 30
0.0
 10
-2.000006377019302
 20
22.27455844103379
 30
0.0
 10
-2.000465619612596
 20
22.04087523495585
 30
0.0
 10
-1.999851137318906
 20
21.78869659270576
 30
0.0
 10
-1.999299621287292
 20
21.56235880322007
 30
0.0
 10
-2.00004388646216
 20
21.32332829808188
 30
0.0
 10
-2.000290307240785
 20
21.01709169610228
 30
0.0
 10
-2.000461209098355
 20
20.80470536883688
 30
0.0
 10
-2.000344409457291
 20
20.55383081506001
 30
0.0
 10
-2.000001688218324
 20
20.26575225715556
 30
0.0
 10
-1.999902978279066
 20
20.1827804021339
 30
0.0
 10
-2.00056570178213
 20
20.09884858616336
 30
0.0
 10
-2.000000000000107
 20
20.00000000000801
 30
0.0
  0
LINE
  5
9C1B
330
9C17
100
AcDbEntity
  8
0
100
AcDbLine
 10
-2.001382055220171
 20
22.56249999999994
 30
0.0
 11
-2.000000000000002
 21
22.56249999999994
 31
0.0
  0
SPLINE
  5
9C1C
330
9C17
100
AcDbEntity
  8
0
100
AcDbSpline
210
0.0
220
0.0
230
1.0
 70
     8
 71
     3
 72
    17
 73
    13
 74
     0
 42
0.000000001
 43
0.0000000001
 40
-0.9642391866727011
 40
-0.9642391866727011
 40
-0.9642391866727011
 40
-0.9642391866727011
 40
-0.7907552673955366
 40
-0.7907552673955366
 40
-0.7907552673955366
 40
-0.3883396848748
 40
-0.3883396848748
 40
-0.3883396848748
 40
-0.1053184206024269
 40
-0.1053184206024269
 40
-0.1053184206024269
 40
0.0
 40
0.0
 40
0.0
 40
0.0
 10
-1.991418259919421
 20
20.23869885963264
 30
0.0
 10
-1.9663126129019
 20
20.60755087105829
 30
0.0
 10
-1.887915385281166
 20
20.89349071917062
 30
0.0
 10
-1.773393535468694
 20
21.10014472425691
 30
0.0
 10
-1.50774714532685
 20
21.57950207439943
 30
0.0
 10
-1.052077259780863
 20
21.69581939513325
 30
0.0
 10
-0.671142312164861
 20
21.82272340325022
 30
0.0
 10
-0.4032285057350224
 20
21.91197574430897
 30
0.0
 10
-0.1693290542157491
 20
22.01102292129144
 30
0.0
 10
-0.0606817918160549
 20
22.23987558701078
 30
0.0
 10
-0.020251762262865
 20
22.32503668388519
 30
0.0
 10
-0.000016626864846
 20
22.43287618702998
 30
0.0
 10
-0.000000000000001
 20
22.56249999999994
 30
0.0
  0
LINE
  5
9C1D
330
9C17
100
AcDbEntity
  8
0
100
AcDbLine
 10
-2.000000000000002
 20
22.56249999999994
 30
0.0
 11
0.0
 21
22.56249999999994
 31
0.0
  0
SPLINE
  5
9C1E
330
9C17
100
AcDbEntity
  8
0
100
AcDbSpline
210
0.0
220
0.0
230
1.0
 70
     8
 71
     3
 72
    12
 73
     8
 74
     0
 42
0.000000001
 43
0.0000000001
 40
0.0084641832933218
 40
0.0084641832933218
 40
0.0084641832933218
 40
0.0084641832933218
 40
0.0101930109114054
 40
0.0101930109114054
 40
0.0141763837944274
 40
0.0141763837944274
 40
0.0170057172655853
 40
0.0170057172655853
 40
0.0170057172655853
 40
0.0170057172655853
 10
-1.999847236395002
 20
20.02589348227043
 30
0.0
 10
-1.999847236383252
 20
20.02589348385359
 30
0.0
 10
-1.999850315353908
 20
20.02548329264115
 30
0.0
 10
-1.999866456171145
 20
20.02291117696291
 30
0.0
 10
-1.999887626994845
 20
20.01912850604226
 30
0.0
 10
-1.99990695206109
 20
20.01000721579563
 30
0.0
 10
-1.999909985036038
 20
20.00539344842021
 30
0.0
 10
-1.999900956415538
 20
20.00007826946449
 30
0.0
  0
SPLINE
  5
9C1F
330
9C17
100
AcDbEntity
  8
0
100
AcDbSpline
210
0.0
220
0.0
230
1.0
 70
     8
 71
     3
 72
    10
 73
     6
 74
     0
 42
0.000000001
 43
0.0000000001
 40
0.0072545016222782
 40
0.0072545016222782
 40
0.0072545016222782
 40
0.0072545016222782
 40
0.0102247134750262
 40
0.0102247134750262
 40
0.0135879818330768
 40
0.0135879818330768
 40
0.0135879818330768
 40
0.0135879818330768
 10
-1.999750203294854
 20
20.02086783982999
 30
0.0
 10
-1.999750203292211
 20
20.0208678400219
 30
0.0
 10
-1.999769298045478
 20
20.01949532120178
 30
0.0
 10
-1.999826681306388
 20
20.01504976457415
 30
0.0
 10
-1.999866331405927
 20
20.0117699990836
 30
0.0
 10
-1.999905409028642
 20
20.00818965321217
 30
0.0
  0
SPLINE
  5
9C20
330
9C17
100
AcDbEntity
  8
0
100
AcDbSpline
210
0.0
220
0.0
230
1.0
 70
     8
 71
     3
 72
    34
 73
    30
 74
     0
 42
0.000000001
 43
0.0000000001
 40
0.1053754949954573
 40
0.1053754949954573
 40
0.1053754949954573
 40
0.1053754949954573
 40
0.1111723090103133
 40
0.1111723090103133
 40
0.1193670926496885
 40
0.1193670926496885
 40
0.1286007943838208
 40
0.1286007943838208
 40
0.1423496856587126
 40
0.1423496856587126
 40
0.1679067028213299
 40
0.1679067028213299
 40
0.1792553314084686
 40
0.1792553314084686
 40
0.1876677340676215
 40
0.1876677340676215
 40
0.1911359867042781
 40
0.1911359867042781
 40
0.1939369337310514
 40
0.1939369337310514
 40
0.1956509774069127
 40
0.1956509774069127
 40
0.1984134339883345
 40
0.1984134339883345
 40
0.2013121438722547
 40
0.2013121438722547
 40
0.2062003269586041
 40
0.2062003269586041
 40
0.2102046203959479
 40
0.2102046203959479
 40
0.2102046203959479
 40
0.2102046203959479
 10
-1.932477075507612
 20
20.75545976200375
 30
0.0
 10
-1.93247707551496
 20
20.75545976197071
 30
0.0
 10
-1.932976092926235
 20
20.75323106186744
 30
0.0
 10
-1.935216995135402
 20
20.74286239885156
 30
0.0
 10
-1.937416247444902
 20
20.73249433730225
 30
0.0
 10
-1.942940759925265
 20
20.70456817407608
 30
0.0
 10
-1.946384864815312
 20
20.68615479818963
 30
0.0
 10
-1.954950416671783
 20
20.63603150904028
 30
0.0
 10
-1.96010968283741
 20
20.60196023572482
 30
0.0
 10
-1.97335584887744
 20
20.50062453193925
 30
0.0
 10
-1.980270397935231
 20
20.42956345949429
 30
0.0
 10
-1.987879887272696
 20
20.32485547403965
 30
0.0
 10
-1.989918486304483
 20
20.29226798073898
 30
0.0
 10
-1.993041130792097
 20
20.23393934347521
 30
0.0
 10
-1.994247356393287
 20
20.20841473025368
 30
0.0
 10
-1.995785045243982
 20
20.17046114662611
 30
0.0
 10
-1.996216631959844
 20
20.15906162110697
 30
0.0
 10
-1.996945058571079
 20
20.13825802627249
 30
0.0
 10
-1.997255688668021
 20
20.12876769020369
 30
0.0
 10
-1.997707333089869
 20
20.11394840528865
 30
0.0
 10
-1.997868937319373
 20
20.10838675633492
 30
0.0
 10
-1.998254765391458
 20
20.09449512943734
 30
0.0
 10
-1.998459929809279
 20
20.08644172805976
 30
0.0
 10
-1.99881074933105
 20
20.07172034537197
 30
0.0
 10
-1.998958007606223
 20
20.0649629101019
 30
0.0
 10
-1.999301382371586
 20
20.04812331137209
 30
0.0
 10
-1.999467571048006
 20
20.03867093198612
 30
0.0
 10
-1.999727304793464
 20
20.02194971095615
 30
0.0
 10
-1.9998278149391
 20
20.01447476770462
 30
0.0
 10
-1.999906392617021
 20
20.00796224336744
 30
0.0
  0
LINE
  5
9C21
330
9C17
100
AcDbEntity
  8
0
100
AcDbLine
 10
-1.999999999999992
 20
-2.0
 30
0.0
 11
-86.0
 21
-2.0
 31
0.0
  0
LINE
  5
9C22
330
9C17
100
AcDbEntity
  8
0
100
AcDbLine
 10
-1.999999999999997
 20
2.000000000000003
 30
0.0
 11
-1.999999999999997
 21
20.0
 31
0.0
  0
LINE
  5
9C23
330
9C17
100
AcDbEntity
  8
0
100
AcDbLine
 10
-1.999999999999997
 20
2.000000000000004
 30
0.0
 11
-1.999999999999992
 21
-1.999999999999999
 31
0.0
  0
LINE
  5
9C24
330
9C17
100
AcDbEntity
  8
0
100
AcDbLine
 10
-86.0
 20
-2.000000000000007
 30
0.0
 11
-86.0
 21
2.0
 31
0.0
  0
LINE
  5
9C25
330
9C17
100
AcDbEntity
  8
0
100
AcDbLine
 10
0.0
 20
52.99999999999997
 30
0.0
 11
0.0
 21
22.56249999999994
 31
0.0
  0
LINE
  5
9C26
330
9C17
100
AcDbEntity
  8
0
100
AcDbLine
 10
-1.999999999999984
 20
52.99999999999997
 30
0.0
 11
0.0
 21
52.99999999999997
 31
0.0
  0
LINE
  5
9C27
330
9C17
100
AcDbEntity
  8
0
100
AcDbLine
 10
-2.000000000000002
 20
22.56249999999994
 30
0.0
 11
-1.999999999999984
 21
52.99999999999997
 31
0.0
  0
LINE
  5
9C28
330
9C17
100
AcDbEntity
  8
0
100
AcDbLine
 10
0.0
 20
52.99999999999997
 30
0.0
 11
0.0
 21
150.0
 31
0.0
  0
CIRCLE
  5
9C29
330
9C17
100
AcDbEntity
  8
0
100
AcDbCircle
 10
-38.50000000000001
 20
134.9999999999999
 30
0.0
 40
2.5
  0
LINE
  5
9C2A
330
9C17
100
AcDbEntity
  8
0
100
AcDbLine
 10
-46.00000000000001
 20
52.99999999999997
 30
0.0
 11
-86.00000000000001
 21
20.0
 31
0.0
  0
LINE
  5
9C2B
330
9C17
100
AcDbEntity
  8
0
100
AcDbLine
 10
-46.0
 20
150.0
 30
0.0
 11
-46.00000000000001
 21
52.99999999999997
 31
0.0
  0
LINE
  5
9C2C
330
9C17
100
AcDbEntity
  8
0
100
AcDbLine
 10
-86.00000000000001
 20
20.0
 30
0.0
 11
-86.0
 21
1.999999999999999
 31
0.0
  0
LINE
  5
9C2D
330
9C17
100
AcDbEntity
  8
0
100
AcDbLine
 10
-4.000000000000003
 20
150.0
 30
0.0
 11
-46.0
 21
150.0
 31
0.0
  0
LINE
  5
9C2E
330
9C17
100
AcDbEntity
  8
0
100
AcDbLine
 10
-2.000000000000002
 20
150.0
 30
0.0
 11
-4.000000000000003
 21
150.0
 31
0.0
  0
LINE
  5
9C2F
330
9C17
100
AcDbEntity
  8
0
100
AcDbLine
 10
0.0
 20
150.0
 30
0.0
 11
-2.000000000000019
 21
150.0
 31
0.0
  0
LINE
  5
9C30
330
9C17
100
AcDbEntity
  8
0
100
AcDbLine
 10
-1.999999999999984
 20
52.99999999999997
 30
0.0
 11
-2.000000000000019
 21
150.0
 31
0.0
  0
CIRCLE
  5
9C31
330
9C17
100
AcDbEntity
  8
0
100
AcDbCircle
 10
-38.50000000000001
 20
34.99999999999999
 30
0.0
 40
2.5
  0
CIRCLE
  5
9C32
330
9C17
100
AcDbEntity
  8
0
100
AcDbCircle
 10
-38.50000000000001
 20
54.99999999999999
 30
0.0
 40
2.5
  0
CIRCLE
  5
9C33
330
9C17
100
AcDbEntity
  8
0
100
AcDbCircle
 10
-38.50000000000001
 20
74.99999999999999
 30
0.0
 40
2.5
  0
CIRCLE
  5
9C34
330
9C17
100
AcDbEntity
  8
0
100
AcDbCircle
 10
-38.50000000000001
 20
94.99999999999998
 30
0.0
 40
2.5
  0
CIRCLE
  5
9C35
330
9C17
100
AcDbEntity
  8
0
100
AcDbCircle
 10
-38.50000000000001
 20
115.0
 30
0.0
 40
2.5
  0
SPLINE
  5
9C36
330
9C17
100
AcDbEntity
  8
0
100
AcDbSpline
210
0.0
220
0.0
230
1.0
 70
     8
 71
     3
 72
     8
 73
     4
 74
     0
 42
0.000000001
 43
0.0000000001
 40
0.0154774323791913
 40
0.0154774323791913
 40
0.0154774323791913
 40
0.0154774323791913
 40
0.0170131228492583
 40
0.0170131228492583
 40
0.0170131228492583
 40
0.0170131228492583
 10
-1.999906156234152
 20
20.00802711211408
 30
0.0
 10
-1.999907191337874
 20
20.00557130923175
 30
0.0
 10
-1.999905787317001
 20
20.00288891592442
 30
0.0
 10
-1.999900822933359
 20
20.00000014488269
 30
0.0
  0
SPLINE
  5
9C37
330
9C17
100
AcDbEntity
  8
0
100
AcDbSpline
210
0.0
220
0.0
230
1.0
 70
     8
 71
     3
 72
    22
 73
    18
 74
     0
 42
0.000000001
 43
0.0000000001
 40
0.1814128588957606
 40
0.1814128588957606
 40
0.1814128588957606
 40
0.1814128588957606
 40
0.1876667329918212
 40
0.1876667329918212
 40
0.1911355808408472
 40
0.1911355808408472
 40
0.1939366894001791
 40
0.1939366894001791
 40
0.1956507311886788
 40
0.1956507311886788
 40
0.1984131758421086
 40
0.1984131758421086
 40
0.2013119070035354
 40
0.2013119070035354
 40
0.206200188028415
 40
0.206200188028415
 40
0.2102042909939553
 40
0.2102042909939553
 40
0.2102042909939553
 40
0.2102042909939553
 10
-1.992710550864484
 20
20.23951422811967
 30
0.0
 10
-1.993652638687019
 20
20.22073584081079
 30
0.0
 10
-1.994526452942837
 20
20.20152548527825
 30
0.0
 10
-1.995784867016343
 20
20.17046583446809
 30
0.0
 10
-1.99621653355694
 20
20.15906438900684
 30
0.0
 10
-1.996945050391013
 20
20.13825829416859
 30
0.0
 10
-1.997255698982185
 20
20.12876739180973
 30
0.0
 10
-1.997707356692124
 20
20.11394760635572
 30
0.0
 10
-1.997868959590698
 20
20.10838597815553
 30
0.0
 10
-1.998254783293428
 20
20.09449444669276
 30
0.0
 10
-1.998459944785635
 20
20.08644112648958
 30
0.0
 10
-1.998810761834187
 20
20.07171979249631
 30
0.0
 10
-1.998958019724048
 20
20.06496234581411
 30
0.0
 10
-1.999301396574225
 20
20.04812256427987
 30
0.0
 10
-1.999467586717988
 20
20.03867002597277
 30
0.0
 10
-1.9997273139663
 20
20.02194903621324
 30
0.0
 10
-1.999827818610198
 20
20.01447444377259
 30
0.0
 10
-1.999906392609261
 20
20.00796222433944
 30
0.0
  0
ENDBLK
  5
9C19
330
9C17
100
AcDbEntity
  8
0
100
AcDbBlockEnd
  0
BLOCK
  5
9C39
330
9C38
100
AcDbEntity
  8
0
100
AcDbBlockBegin
  2
SAE380_80_2-Top
 70
     0
 10
0.0
 20
0.0
 30
0.0
  3
SAE380_80_2-Top
  1

  0
LINE
  5
9C3B
330
9C38
100
AcDbEntity
  8
0
100
AcDbLine
 10
40.0
 20
-1.999999999999995
 30
0.0
 11
40.0
 21
-2.070206720544675
 31
0.0
  0
SPLINE
  5
9C3C
330
9C38
100
AcDbEntity
  8
0
100
AcDbSpline
210
0.0
220
0.0
230
1.0
 70
     8
 71
     3
 72
    11
 73
     7
 74
     0
 42
0.000000001
 43
0.0000000001
 40
-1.0
 40
-1.0
 40
-1.0
 40
-1.0
 40
-0.7907552673955366
 40
-0.7907552673955366
 40
-0.7907552673955366
 40
-0.6535033875452824
 40
-0.6535033875452824
 40
-0.6535033875452824
 40
-0.6535033875452824
 10
40.0
 20
-2.000000000000027
 30
0.0
 10
40.00001724877416
 20
-1.997098202773182
 30
0.0
 10
40.13515725660184
 20
-1.91152215246803
 30
0.0
 10
40.36463729125194
 20
-1.773393535468694
 30
0.0
 10
40.51516230448306
 20
-1.68278952308425
 30
0.0
 10
40.70501487259758
 20
-1.570080316905642
 30
0.0
 10
40.92229672437067
 20
-1.445770536744464
 30
0.0
  0
SPLINE
  5
9C3D
330
9C38
100
AcDbEntity
  8
0
100
AcDbSpline
210
0.0
220
0.0
230
1.0
 70
     8
 71
     3
 72
    10
 73
     6
 74
     0
 42
0.000000001
 43
0.0000000001
 40
0.0
 40
0.0
 40
0.0
 40
0.0
 40
0.0670584163023984
 40
0.0670584163023984
 40
0.1015857294852681
 40
0.1015857294852681
 40
0.1015857294852681
 40
0.1015857294852681
 10
44.58980804090759
 20
-2.000030232669488
 30
0.0
 10
44.39154521953989
 20
-2.00029711948005
 30
0.0
 10
44.18834991685009
 20
-2.00142249069895
 30
0.0
 10
43.87453551198532
 20
-2.013511332988731
 30
0.0
 10
43.76446343894385
 20
-2.01955287172372
 30
0.0
 10
43.65274930209023
 20
-2.030278825409358
 30
0.0
  0
SPLINE
  5
9C3E
330
9C38
100
AcDbEntity
  8
0
100
AcDbSpline
210
0.0
220
0.0
230
1.0
 70
     8
 71
     3
 72
    10
 73
     6
 74
     0
 42
0.000000001
 43
0.0000000001
 40
0.058931302216743
 40
0.058931302216743
 40
0.058931302216743
 40
0.058931302216743
 40
0.0599779860239647
 40
0.0599779860239647
 40
0.0663268531470948
 40
0.0663268531470948
 40
0.0663268531470948
 40
0.0663268531470948
 10
42.00026149195248
 20
-3.967645940215538
 30
0.0
 10
42.00024336833475
 20
-3.969383514645098
 30
0.0
 10
42.00022834572147
 20
-3.970951905440215
 30
0.0
 10
42.00012589227677
 20
-3.981754123431588
 30
0.0
 10
42.00006999202756
 20
-3.989563038482005
 30
0.0
 10
42.00002531920675
 20
-4.000000108971984
 30
0.0
  0
SPLINE
  5
9C3F
330
9C38
100
AcDbEntity
  8
0
100
AcDbSpline
210
0.0
220
0.0
230
1.0
 70
     8
 71
     3
 72
    28
 73
    24
 74
     0
 42
0.000000001
 43
0.0000000001
 40
0.0059924597721809
 40
0.0059924597721809
 40
0.0059924597721809
 40
0.0059924597721809
 40
0.0060018642525976
 40
0.0060018642525976
 40
0.0060344013750668
 40
0.0060344013750668
 40
0.0061001528974001
 40
0.0061001528974001
 40
0.0063666194191642
 40
0.0063666194191642
 40
0.0733647474825658
 40
0.0733647474825658
 40
0.1461243372938646
 40
0.1461243372938646
 40
0.182135504510762
 40
0.182135504510762
 40
0.2003591000170092
 40
0.2003591000170092
 40
0.209908271804153
 40
0.209908271804153
 40
0.2149921014192587
 40
0.2149921014192587
 40
0.2202283558826819
 40
0.2202283558826819
 40
0.2202283558826819
 40
0.2202283558826819
 10
39.99996683550276
 20
-3.998262424354173
 30
0.0
 10
39.99996641793642
 20
-3.998238405295139
 30
0.0
 10
39.99996598984203
 20
-3.998213779513446
 30
0.0
 10
39.99996403438915
 20
-3.998101288036959
 30
0.0
 10
39.99996238250259
 20
-3.998006244384844
 30
0.0
 10
39.99995718017323
 20
-3.997706858264424
 30
0.0
 10
39.99995335136405
 20
-3.997486430552599
 30
0.0
 10
39.99993420149198
 20
-3.996383450933657
 30
0.0
 10
39.99991873662632
 20
-3.995491107507472
 30
0.0
 10
39.99618160048186
 20
-3.779486698876917
 30
0.0
 10
39.99444381633475
 20
-3.585321686376492
 30
0.0
 10
39.99316956296824
 20
-3.164244120560429
 30
0.0
 10
39.99375434714647
 20
-2.938375519716376
 30
0.0
 10
39.99571989488302
 20
-2.59763609384303
 30
0.0
 10
39.99649316128297
 20
-2.486557325916256
 30
0.0
 10
39.99791978585078
 20
-2.320163505049951
 30
0.0
 10
39.99860260861825
 20
-2.262011191599488
 30
0.0
 10
39.99934828422908
 20
-2.181745076121498
 30
0.0
 10
39.9995124969164
 20
-2.155839487362165
 30
0.0
 10
39.99960892898638
 20
-2.120401111574458
 30
0.0
 10
39.99961740245463
 20
-2.108750396864041
 30
0.0
 10
39.99960908197047
 20
-2.087225542081408
 30
0.0
 10
39.99959154667962
 20
-2.077011061823009
 30
0.0
 10
39.99957591650142
 20
-2.070206720544675
 30
0.0
  0
SPLINE
  5
9C40
330
9C38
100
AcDbEntity
  8
0
100
AcDbSpline
210
0.0
220
0.0
230
1.0
 70
     8
 71
     3
 72
    12
 73
     8
 74
     0
 42
0.000000001
 43
0.0000000001
 40
0.0
 40
0.0
 40
0.0
 40
0.0
 40
0.0073680638624955
 40
0.0073680638624955
 40
0.0094714794566663
 40
0.0094714794566663
 40
0.0106892344350827
 40
0.0106892344350827
 40
0.0106892344350827
 40
0.0106892344350827
 10
39.99996053853815
 20
-3.999985503002869
 30
0.0
 10
40.00000120689107
 20
-3.988738678358561
 30
0.0
 10
40.00005705426697
 20
-3.97681739747013
 30
0.0
 10
40.00011475911488
 20
-3.966829073024946
 30
0.0
 10
40.00012596496216
 20
-3.965004429884975
 30
0.0
 10
40.0001362474146
 20
-3.963340749400656
 30
0.0
 10
40.00013843227607
 20
-3.962989239713675
 30
0.0
 10
40.00013843227603
 20
-3.962989239720927
 30
0.0
  0
LINE
  5
9C41
330
9C38
100
AcDbEntity
  8
0
100
AcDbLine
 10
-40.0
 20
-1.999999999999995
 30
0.0
 11
-40.0
 21
-2.070206128303877
 31
0.0
  0
SPLINE
  5
9C42
330
9C38
100
AcDbEntity
  8
0
100
AcDbSpline
210
0.0
220
0.0
230
1.0
 70
     8
 71
     3
 72
    11
 73
     7
 74
     0
 42
0.000000001
 43
0.0000000001
 40
-1.0
 40
-1.0
 40
-1.0
 40
-1.0
 40
-0.7907552673955366
 40
-0.7907552673955366
 40
-0.7907552673955366
 40
-0.6535033875452824
 40
-0.6535033875452824
 40
-0.6535033875452824
 40
-0.6535033875452824
 10
-40.0
 20
-2.000000000000027
 30
0.0
 10
-40.00001724877416
 20
-1.997098202773182
 30
0.0
 10
-40.13515725660184
 20
-1.91152215246803
 30
0.0
 10
-40.36463729125194
 20
-1.773393535468694
 30
0.0
 10
-40.51516230448306
 20
-1.68278952308425
 30
0.0
 10
-40.70501487259758
 20
-1.570080316905642
 30
0.0
 10
-40.92229672437067
 20
-1.445770536744464
 30
0.0
  0
SPLINE
  5
9C43
330
9C38
100
AcDbEntity
  8
0
100
AcDbSpline
210
0.0
220
0.0
230
1.0
 70
     8
 71
     3
 72
    32
 73
    28
 74
     0
 42
0.000000001
 43
0.0000000001
 40
0.0
 40
0.0
 40
0.0
 40
0.0
 40
0.0038184583577063
 40
0.0038184583577063
 40
0.0092106314738272
 40
0.0092106314738272
 40
0.020076030386621
 40
0.020076030386621
 40
0.0329587432037573
 40
0.0329587432037573
 40
0.0591141887502954
 40
0.0591141887502954
 40
0.134549970704407
 40
0.134549970704407
 40
0.2001771860124436
 40
0.2001771860124436
 40
0.207929194188908
 40
0.207929194188908
 40
0.213743377476026
 40
0.213743377476026
 40
0.2141048212709929
 40
0.2141048212709929
 40
0.214211117588737
 40
0.214211117588737
 40
0.2142590062312313
 40
0.2142590062312313
 40
0.2142671629539335
 40
0.2142671629539335
 40
0.2142671629539335
 40
0.2142671629539335
 10
-39.99957591514096
 20
-2.070206128303877
 30
0.0
 10
-39.99958731309813
 20
-2.075167925170557
 30
0.0
 10
-39.99959978947571
 20
-2.082040905403233
 30
0.0
 10
-39.99961778984459
 20
-2.100029215279728
 30
0.0
 10
-39.99961861459413
 20
-2.112000273276204
 30
0.0
 10
-39.99954449523263
 20
-2.150329002181109
 30
0.0
 10
-39.99937044042923
 20
-2.179684850330429
 30
0.0
 10
-39.99872424413835
 20
-2.248511688163079
 30
0.0
 10
-39.99825147259901
 20
-2.288783868250249
 30
0.0
 10
-39.99709528676525
 20
-2.409477558432089
 30
0.0
 10
-39.99652485670233
 20
-2.488715282163128
 30
0.0
 10
-39.99434488558606
 20
-2.80428503274628
 30
0.0
 10
-39.99335880556292
 20
-3.042992373200687
 30
0.0
 10
-39.99382122186104
 20
-3.470631717181618
 30
0.0
 10
-39.99501532987834
 20
-3.665778965841086
 30
0.0
 10
-39.9982353336213
 20
-3.891352814511478
 30
0.0
 10
-39.99859715125548
 20
-3.915236326002776
 30
0.0
 10
-39.99926724429303
 20
-3.957109799781973
 30
0.0
 10
-39.99956095809915
 20
-3.974775104586525
 30
0.0
 10
-39.99989896765787
 20
-3.994349293834049
 30
0.0
 10
-39.99991914117642
 20
-3.995514937347564
 30
0.0
 10
-39.99994612933727
 20
-3.997070518863013
 30
0.0
 10
-39.99995253741095
 20
-3.997439603997652
 30
0.0
 10
-39.99996098037104
 20
-3.997925568706943
 30
0.0
 10
-39.99996350618391
 20
-3.998070903553412
 30
0.0
 10
-39.99996610289321
 20
-3.998220282663674
 30
0.0
 10
-39.99996647314961
 20
-3.998241581216215
 30
0.0
 10
-39.99996683550293
 20
-3.998262424313228
 30
0.0
  0
SPLINE
  5
9C44
330
9C38
100
AcDbEntity
  8
0
100
AcDbSpline
210
0.0
220
0.0
230
1.0
 70
     8
 71
     3
 72
    14
 73
    10
 74
     0
 42
0.000000001
 43
0.0000000001
 40
0.0077868839403885
 40
0.0077868839403885
 40
0.0077868839403885
 40
0.0077868839403885
 40
0.0083973309052555
 40
0.0083973309052555
 40
0.0105242805400293
 40
0.0105242805400293
 40
0.0138631632898076
 40
0.0138631632898076
 40
0.0184832303690818
 40
0.0184832303690818
 40
0.0184832303690818
 40
0.0184832303690818
 10
-40.00013843227598
 20
-3.962989239732932
 30
0.0
 10
-40.00013843227594
 20
-3.962989239737951
 30
0.0
 10
-40.00013788628646
 20
-3.963077645406388
 30
0.0
 10
-40.00013331755257
 20
-3.963814527575142
 30
0.0
 10
-40.00012395116338
 20
-3.965313109307425
 30
0.0
 10
-40.00009366598344
 20
-3.970421351513149
 30
0.0
 10
-40.00006962899937
 20
-3.974733437273334
 30
0.0
 10
-40.00001543222798
 20
-3.985811460073403
 30
0.0
 10
-39.99998598569598
 20
-3.992946932023731
 30
0.0
 10
-39.99996048902593
 20
-3.999999196730239
 30
0.0
  0
SPLINE
  5
9C45
330
9C38
100
AcDbEntity
  8
0
100
AcDbSpline
210
0.0
220
0.0
230
1.0
 70
     8
 71
     3
 72
    10
 73
     6
 74
     0
 42
0.000000001
 43
0.0000000001
 40
0.0
 40
0.0
 40
0.0
 40
0.0
 40
0.0049906877826135
 40
0.0049906877826135
 40
0.0073950152698878
 40
0.0073950152698878
 40
0.0073950152698878
 40
0.0073950152698878
 10
-42.00002531920675
 20
-4.000000108971985
 30
0.0
 10
-42.00006043540884
 20
-3.991795785402718
 30
0.0
 10
-42.00010543803952
 20
-3.985044489126405
 30
0.0
 10
-42.00019029816759
 20
-3.974913319920764
 30
0.0
 10
-42.00022128444449
 20
-3.971546284458056
 30
0.0
 10
-42.00026242521139
 20
-3.967601975679887
 30
0.0
  0
SPLINE
  5
9C46
330
9C38
100
AcDbEntity
  8
0
100
AcDbSpline
210
0.0
220
0.0
230
1.0
 70
     8
 71
     3
 72
    12
 73
     8
 74
     0
 42
0.000000001
 43
0.0000000001
 40
0.1006407255261818
 40
0.1006407255261818
 40
0.1006407255261818
 40
0.1006407255261818
 40
0.1211256635418529
 40
0.1211256635418529
 40
0.1784064189384786
 40
0.1784064189384786
 40
0.2023979344811212
 40
0.2023979344811212
 40
0.2023979344811212
 40
0.2023979344811212
 10
-43.65225355624021
 20
-2.030463909734617
 30
0.0
 10
-43.71837693379064
 20
-2.024115238889276
 30
0.0
 10
-43.78376124660947
 20
-2.019390814226812
 30
0.0
 10
-44.02830126549749
 20
-2.005407957729006
 30
0.0
 10
-44.20098786185389
 20
-2.002606029121278
 30
0.0
 10
-44.44720089227225
 20
-2.000365144870831
 30
0.0
 10
-44.51887547460552
 20
-2.000125716866953
 30
0.0
 10
-44.5898080409059
 20
-2.000030232669489
 30
0.0
  0
LINE
  5
9C47
330
9C38
100
AcDbEntity
  8
0
100
AcDbLine
 10
-40.0
 20
-1.999999999999995
 30
0.0
 11
-38.0
 21
-1.999999999999992
 31
0.0
  0
LINE
  5
9C48
330
9C38
100
AcDbEntity
  8
0
100
AcDbLine
 10
-40.0
 20
-86.0
 30
0.0
 11
-37.99999999999999
 21
-86.0
 31
0.0
  0
LINE
  5
9C49
330
9C38
100
AcDbEntity
  8
0
100
AcDbLine
 10
38.00000000000001
 20
-1.999999999999992
 30
0.0
 11
-38.00000000000001
 21
-1.999999999999992
 31
0.0
  0
LINE
  5
9C4A
330
9C38
100
AcDbEntity
  8
0
100
AcDbLine
 10
-37.99999999999999
 20
-86.0
 30
0.0
 11
37.99999999999998
 21
-86.0
 31
0.0
  0
CIRCLE
  5
9C4B
330
9C38
100
AcDbEntity
  8
0
100
AcDbCircle
 10
0.0
 20
-47.99999999999998
 30
0.0
 40
2.5
  0
CIRCLE
  5
9C4C
330
9C38
100
AcDbEntity
  8
0
100
AcDbCircle
 10
0.0
 20
-67.99999999999998
 30
0.0
 40
2.5
  0
LINE
  5
9C4D
330
9C38
100
AcDbEntity
  8
0
100
AcDbLine
 10
40.0
 20
-1.999999999999995
 30
0.0
 11
38.0
 21
-1.999999999999992
 31
0.0
  0
LINE
  5
9C4E
330
9C38
100
AcDbEntity
  8
0
100
AcDbLine
 10
44.0
 20
0.0
 30
0.0
 11
81.5
 21
0.0
 31
0.0
  0
ARC
  5
9C4F
330
9C38
100
AcDbEntity
  8
0
100
AcDbCircle
 10
44.0
 20
-4.000000000000004
 30
0.0
 40
4.000000000000003
100
AcDbArc
 50
90.0
 51
180.0
  0
LINE
  5
9C50
330
9C38
100
AcDbEntity
  8
0
100
AcDbLine
 10
39.99999999999997
 20
-86.00000000000001
 30
0.0
 11
39.99999999999998
 21
-46.00000000000001
 31
0.0
  0
LINE
  5
9C51
330
9C38
100
AcDbEntity
  8
0
100
AcDbLine
 10
41.99999999999997
 20
-86.00000000000001
 30
0.0
 11
39.99999999999997
 21
-86.00000000000001
 31
0.0
  0
LINE
  5
9C52
330
9C38
100
AcDbEntity
  8
0
100
AcDbLine
 10
41.99999999999998
 20
-46.00000000000001
 30
0.0
 11
41.99999999999997
 21
-86.00000000000001
 31
0.0
  0
LINE
  5
9C53
330
9C38
100
AcDbEntity
  8
0
100
AcDbLine
 10
39.99999999999998
 20
-46.0
 30
0.0
 11
41.99999999999998
 21
-46.0
 31
0.0
  0
LINE
  5
9C54
330
9C38
100
AcDbEntity
  8
0
100
AcDbLine
 10
42.0
 20
-4.000000000000003
 30
0.0
 11
41.99999999999998
 21
-46.0
 31
0.0
  0
LINE
  5
9C55
330
9C38
100
AcDbEntity
  8
0
100
AcDbLine
 10
39.99999999999998
 20
-46.0
 30
0.0
 11
40.0
 21
-4.000000000000003
 31
0.0
  0
LINE
  5
9C56
330
9C38
100
AcDbEntity
  8
0
100
AcDbLine
 10
40.0
 20
-86.0
 30
0.0
 11
37.99999999999999
 21
-86.0
 31
0.0
  0
ARC
  5
9C57
330
9C38
100
AcDbEntity
  8
0
100
AcDbCircle
 10
44.0
 20
-4.000000000000004
 30
0.0
 40
2.000000000000001
100
AcDbArc
 50
90.0
 51
180.0
  0
LINE
  5
9C58
330
9C38
100
AcDbEntity
  8
0
100
AcDbLine
 10
81.5
 20
0.0
 30
0.0
 11
81.5
 21
-2.000000000000019
 31
0.0
  0
LINE
  5
9C59
330
9C38
100
AcDbEntity
  8
0
100
AcDbLine
 10
81.5
 20
-2.000000000000019
 30
0.0
 11
44.0
 21
-2.000000000000001
 31
0.0
  0
LINE
  5
9C5A
330
9C38
100
AcDbEntity
  8
0
100
AcDbLine
 10
-81.5
 20
-2.000000000000019
 30
0.0
 11
-44.0
 21
-2.000000000000001
 31
0.0
  0
LINE
  5
9C5B
330
9C38
100
AcDbEntity
  8
0
100
AcDbLine
 10
-39.99999999999998
 20
-46.0
 30
0.0
 11
-40.0
 21
-4.000000000000003
 31
0.0
  0
LINE
  5
9C5C
330
9C38
100
AcDbEntity
  8
0
100
AcDbLine
 10
-42.0
 20
-4.000000000000003
 30
0.0
 11
-41.99999999999998
 21
-46.0
 31
0.0
  0
LINE
  5
9C5D
330
9C38
100
AcDbEntity
  8
0
100
AcDbLine
 10
-44.0
 20
0.0
 30
0.0
 11
-81.5
 21
0.0
 31
0.0
  0
LINE
  5
9C5E
330
9C38
100
AcDbEntity
  8
0
100
AcDbLine
 10
-81.5
 20
0.0
 30
0.0
 11
-81.5
 21
-2.000000000000019
 31
0.0
  0
ARC
  5
9C5F
330
9C38
100
AcDbEntity
  8
0
100
AcDbCircle
 10
-44.0
 20
-4.000000000000004
 30
0.0
 40
2.000000000000001
100
AcDbArc
 50
0.0
 51
90.0
  0
ARC
  5
9C60
330
9C38
100
AcDbEntity
  8
0
100
AcDbCircle
 10
-44.0
 20
-4.000000000000004
 30
0.0
 40
4.000000000000003
100
AcDbArc
 50
0.0
 51
90.0
  0
LINE
  5
9C61
330
9C38
100
AcDbEntity
  8
0
100
AcDbLine
 10
-39.99999999999998
 20
-46.00000000000001
 30
0.0
 11
-39.99999999999997
 21
-86.00000000000001
 31
0.0
  0
LINE
  5
9C62
330
9C38
100
AcDbEntity
  8
0
100
AcDbLine
 10
-41.99999999999997
 20
-86.00000000000001
 30
0.0
 11
-41.99999999999998
 21
-46.00000000000001
 31
0.0
  0
LINE
  5
9C63
330
9C38
100
AcDbEntity
  8
0
100
AcDbLine
 10
-39.99999999999997
 20
-86.00000000000001
 30
0.0
 11
-41.99999999999997
 21
-86.00000000000001
 31
0.0
  0
LINE
  5
9C64
330
9C38
100
AcDbEntity
  8
0
100
AcDbLine
 10
-41.99999999999998
 20
-46.0
 30
0.0
 11
-39.99999999999998
 21
-46.0
 31
0.0
  0
ENDBLK
  5
9C3A
330
9C38
100
AcDbEntity
  8
0
100
AcDbBlockEnd
  0
BLOCK
  5
9C66
330
9C65
100
AcDbEntity
  8
0
100
AcDbBlockBegin
  2
SAE380_80_2-Bottom
 70
     0
 10
0.0
 20
0.0
 30
0.0
  3
SAE380_80_2-Bottom
  1

  0
SPLINE
  5
9C68
330
9C65
100
AcDbEntity
  8
0
100
AcDbSpline
210
0.0
220
0.0
230
1.0
 70
     8
 71
     3
 72
    17
 73
    13
 74
     0
 42
0.000000001
 43
0.0000000001
 40
0.0
 40
0.0
 40
0.0
 40
0.0
 40
0.3704689058684398
 40
0.3704689058684398
 40
0.3704689058684398
 40
0.7029757053312134
 40
0.7029757053312134
 40
0.7029757053312134
 40
0.933581379088566
 40
0.933581379088566
 40
0.933581379088566
 40
1.0
 40
1.0
 40
1.0
 40
1.0
 10
44.60606060606067
 20
2.000000000000002
 30
0.0
 10
44.2531098161148
 20
2.000006377019302
 30
0.0
 10
43.80994835339177
 20
2.000465619612596
 30
0.0
 10
43.38299606376827
 20
1.999851137318906
 30
0.0
 10
42.99979375691548
 20
1.999299621287292
 30
0.0
 10
42.63742190750858
 20
2.00004388646216
 30
0.0
 10
42.37998709144246
 20
2.000290307240785
 30
0.0
 10
42.20144659451595
 20
2.000461209098355
 30
0.0
 10
42.07197149374483
 20
2.000344409457291
 30
0.0
 10
42.02188707330053
 20
2.000001688218324
 30
0.0
 10
42.00746185088142
 20
1.999902978279066
 30
0.0
 10
41.99999784581293
 20
2.00056570178213
 30
0.0
 10
42.00000000001907
 20
2.000000000000107
 30
0.0
  0
ARC
  5
9C69
330
9C65
100
AcDbEntity
  8
0
100
AcDbCircle
 10
44.0
 20
4.000000000000004
 30
0.0
 40
2.000000000000001
100
AcDbArc
 50
180.1766999798501
 51
259.98410493512
  0
ARC
  5
9C6A
330
9C65
100
AcDbEntity
  8
0
100
AcDbCircle
 10
44.0
 20
4.000000000000004
 30
0.0
 40
4.000000000000002
100
AcDbArc
 50
219.6735598722882
 51
270.0
  0
LINE
  5
9C6B
330
9C65
100
AcDbEntity
  8
0
100
AcDbLine
 10
44.60606060606065
 20
0.0
 30
0.0
 11
44.0
 21
0.0
 31
0.0
  0
SPLINE
  5
9C6C
330
9C65
100
AcDbEntity
  8
0
100
AcDbSpline
210
0.0
220
0.0
230
1.0
 70
     8
 71
     3
 72
    17
 73
    13
 74
     0
 42
0.000000001
 43
0.0000000001
 40
-1.0
 40
-1.0
 40
-1.0
 40
-1.0
 40
-0.7907552673955366
 40
-0.7907552673955366
 40
-0.7907552673955366
 40
-0.3883396848748
 40
-0.3883396848748
 40
-0.3883396848748
 40
-0.1053184206024269
 40
-0.1053184206024269
 40
-0.1053184206024269
 40
0.0
 40
0.0
 40
0.0
 40
0.0
 10
40.0
 20
2.000000000000027
 30
0.0
 10
40.00001724877416
 20
1.997098202773182
 30
0.0
 10
40.13515725660184
 20
1.91152215246803
 30
0.0
 10
40.36463729125194
 20
1.773393535468694
 30
0.0
 10
40.80596903074744
 20
1.50774714532685
 30
0.0
 10
41.58537332976135
 20
1.052077259780863
 30
0.0
 10
42.4029661653238
 20
0.671142312164861
 30
0.0
 10
42.97798405238338
 20
0.4032285057350224
 30
0.0
 10
43.57892350318285
 20
0.1693290542157491
 30
0.0
 10
44.08259362674702
 20
0.0606817918160549
 30
0.0
 10
44.27002032789892
 20
0.020251762262865
 30
0.0
 10
44.44467332044133
 20
0.000016626864846
 30
0.0
 10
44.60606060606064
 20
0.000000000000001
 30
0.0
  0
LINE
  5
9C6D
330
9C65
100
AcDbEntity
  8
0
100
AcDbLine
 10
44.60606060606065
 20
2.000000000000002
 30
0.0
 11
44.60606060606065
 21
0.0
 31
0.0
  0
SPLINE
  5
9C6E
330
9C65
100
AcDbEntity
  8
0
100
AcDbSpline
210
0.0
220
0.0
230
1.0
 70
     8
 71
     3
 72
    28
 73
    24
 74
     0
 42
0.000000001
 43
0.0000000001
 40
0.0690822590119975
 40
0.0690822590119975
 40
0.0690822590119975
 40
0.0690822590119975
 40
0.0695373376945473
 40
0.0695373376945473
 40
0.0705592775769968
 40
0.0705592775769968
 40
0.0715813611850826
 40
0.0715813611850826
 40
0.0725991042096801
 40
0.0725991042096801
 40
0.0746451822653627
 40
0.0746451822653627
 40
0.0787297326830156
 40
0.0787297326830156
 40
0.0838653754381431
 40
0.0838653754381431
 40
0.0955614324948668
 40
0.0955614324948668
 40
0.1211256635448526
 40
0.1211256635448526
 40
0.1784064189442178
 40
0.1784064189442178
 40
0.1798465075919946
 40
0.1798465075919946
 40
0.1798465075919946
 40
0.1798465075919946
 10
43.36371670695509
 20
2.070841470802855
 30
0.0
 10
43.36371670696306
 20
2.070841470801241
 30
0.0
 10
43.36380214744562
 20
2.070824147944781
 30
0.0
 10
43.36438361945922
 20
2.070706910031359
 30
0.0
 10
43.36528572235056
 20
2.070525432049274
 30
0.0
 10
43.36805655518863
 20
2.069975659406851
 30
0.0
 10
43.36994902274741
 20
2.069602926366711
 30
0.0
 10
43.37436619550312
 20
2.068744968898897
 30
0.0
 10
43.37691522268158
 20
2.068255027858163
 30
0.0
 10
43.38509412282951
 20
2.066704419211118
 30
0.0
 10
43.39131852210559
 20
2.06555221683013
 30
0.0
 10
43.41032146366444
 20
2.062130588048479
 30
0.0
 10
43.42381689207243
 20
2.059823029340806
 30
0.0
 10
43.45405151580227
 20
2.054909058546337
 30
0.0
 10
43.47106069528848
 20
2.052318623664001
 30
0.0
 10
43.5265061913787
 20
2.044365323489309
 30
0.0
 10
43.56492454355328
 20
2.039625143308022
 30
0.0
 10
43.68595330090262
 20
2.026494701272661
 30
0.0
 10
43.767789031127
 20
2.020304109310248
 30
0.0
 10
44.02830126553372
 20
2.005407957727755
 30
0.0
 10
44.20098786189829
 20
2.002606029120443
 30
0.0
 10
44.37888170926384
 20
2.000986945353728
 30
0.0
 10
44.38323776589479
 20
2.000948997469959
 30
0.0
 10
44.38759632902155
 20
2.000912033595453
 30
0.0
  0
SPLINE
  5
9C6F
330
9C65
100
AcDbEntity
  8
0
100
AcDbSpline
210
0.0
220
0.0
230
1.0
 70
     8
 71
     3
 72
    30
 73
    26
 74
     0
 42
0.000000001
 43
0.0000000001
 40
0.0
 40
0.0
 40
0.0
 40
0.0
 40
0.0049906877911461
 40
0.0049906877911461
 40
0.0087372355388397
 40
0.0087372355388397
 40
0.0097952253286763
 40
0.0097952253286763
 40
0.0104899688893818
 40
0.0104899688893818
 40
0.011483537711623
 40
0.011483537711623
 40
0.0123917508527659
 40
0.0123917508527659
 40
0.0135259377088082
 40
0.0135259377088082
 40
0.0151743813949218
 40
0.0151743813949218
 40
0.0177233275685324
 40
0.0177233275685324
 40
0.0214777529699755
 40
0.0214777529699755
 40
0.0261198062205991
 40
0.0261198062205991
 40
0.0306018019391644
 40
0.0306018019391644
 40
0.0306018019391644
 40
0.0306018019391644
 10
42.00002531920675
 20
4.000000108971983
 30
0.0
 10
42.00006043540891
 20
3.991795785388358
 30
0.0
 10
42.00010543803969
 20
3.98504448910044
 30
0.0
 10
42.00020570056797
 20
3.973074478434425
 30
0.0
 10
42.00025216705032
 20
3.968020207091414
 30
0.0
 10
42.00037082766862
 20
3.958018887293103
 30
0.0
 10
42.00040161077338
 20
3.955539561641453
 30
0.0
 10
42.00046347754287
 20
3.950898298653005
 30
0.0
 10
42.00049113795272
 20
3.948899177953027
 30
0.0
 10
42.0005654582875
 20
3.943776693672218
 30
0.0
 10
42.00061636413098
 20
3.940467859587615
 30
0.0
 10
42.00072033177684
 20
3.934149189195629
 30
0.0
 10
42.00077372346132
 20
3.931079682992179
 30
0.0
 10
42.0008965962994
 20
3.924378860062937
 30
0.0
 10
42.00096786688642
 20
3.92073415050533
 30
0.0
 10
42.00114460638906
 20
3.912180966586872
 30
0.0
 10
42.00125249030256
 20
3.907368438215214
 30
0.0
 10
42.00152755708273
 20
3.895853857516526
 30
0.0
 10
42.00169749325749
 20
3.889446306403011
 30
0.0
 10
42.00210476727571
 20
3.875140055265756
 30
0.0
 10
42.00233985503111
 20
3.867834575378834
 30
0.0
 10
42.00278976724847
 20
3.854669013049792
 30
0.0
 10
42.00298851216948
 20
3.849467629131614
 30
0.0
 10
42.00322997974592
 20
3.843272573717693
 30
0.0
 10
42.00328099785167
 20
3.842057251326577
 30
0.0
 10
42.0032809978511
 20
3.842057251340414
 30
0.0
  0
SPLINE
  5
9C70
330
9C65
100
AcDbEntity
  8
0
100
AcDbSpline
210
0.0
220
0.0
230
1.0
 70
     8
 71
     3
 72
     8
 73
     4
 74
     0
 42
0.000000001
 43
0.0000000001
 40
0.0
 40
0.0
 40
0.0
 40
0.0
 40
0.0004151367476428
 40
0.0004151367476428
 40
0.0004151367476428
 40
0.0004151367476428
 10
42.00002109558383
 20
4.000000267145735
 30
0.0
 10
42.00001411393829
 20
3.999222903660635
 30
0.0
 10
42.00000714111356
 20
3.998428973616182
 30
0.0
 10
42.00000008478673
 20
3.997615301490301
 30
0.0
  0
CIRCLE
  5
9C71
330
9C65
100
AcDbEntity
  8
0
100
AcDbCircle
 10
0.0
 20
67.99999999999998
 30
0.0
 40
2.5
  0
CIRCLE
  5
9C72
330
9C65
100
AcDbEntity
  8
0
100
AcDbCircle
 10
0.0
 20
47.99999999999998
 30
0.0
 40
2.5
  0
LINE
  5
9C73
330
9C65
100
AcDbEntity
  8
0
100
AcDbLine
 10
38.00000000000001
 20
1.999999999999992
 30
0.0
 11
-38.00000000000001
 21
1.999999999999992
 31
0.0
  0
LINE
  5
9C74
330
9C65
100
AcDbEntity
  8
0
100
AcDbLine
 10
37.99999999999998
 20
86.0
 30
0.0
 11
-37.99999999999999
 21
86.0
 31
0.0
  0
SPLINE
  5
9C75
330
9C65
100
AcDbEntity
  8
0
100
AcDbSpline
210
0.0
220
0.0
230
1.0
 70
     8
 71
     3
 72
    17
 73
    13
 74
     0
 42
0.000000001
 43
0.0000000001
 40
-1.0
 40
-1.0
 40
-1.0
 40
-1.0
 40
-0.7907552673955366
 40
-0.7907552673955366
 40
-0.7907552673955366
 40
-0.3883396848748
 40
-0.3883396848748
 40
-0.3883396848748
 40
-0.1053184206024269
 40
-0.1053184206024269
 40
-0.1053184206024269
 40
0.0
 40
0.0
 40
0.0
 40
0.0
 10
-40.0
 20
2.000000000000027
 30
0.0
 10
-40.00001724877416
 20
1.997098202773182
 30
0.0
 10
-40.13515725660184
 20
1.91152215246803
 30
0.0
 10
-40.36463729125194
 20
1.773393535468694
 30
0.0
 10
-40.80596903074744
 20
1.50774714532685
 30
0.0
 10
-41.58537332976135
 20
1.052077259780863
 30
0.0
 10
-42.4029661653238
 20
0.671142312164861
 30
0.0
 10
-42.97798405238338
 20
0.4032285057350224
 30
0.0
 10
-43.57892350318285
 20
0.1693290542157491
 30
0.0
 10
-44.08259362674702
 20
0.0606817918160549
 30
0.0
 10
-44.27002032789892
 20
0.020251762262865
 30
0.0
 10
-44.44467332044133
 20
0.000016626864846
 30
0.0
 10
-44.60606060606064
 20
0.000000000000001
 30
0.0
  0
LINE
  5
9C76
330
9C65
100
AcDbEntity
  8
0
100
AcDbLine
 10
-44.0
 20
0.0
 30
0.0
 11
-44.60606060606065
 21
0.0
 31
0.0
  0
ARC
  5
9C77
330
9C65
100
AcDbEntity
  8
0
100
AcDbCircle
 10
-44.0
 20
4.000000000000004
 30
0.0
 40
4.000000000000004
100
AcDbArc
 50
270.0
 51
320.3264401277118
  0
ARC
  5
9C78
330
9C65
100
AcDbEntity
  8
0
100
AcDbCircle
 10
-44.0
 20
4.000000000000004
 30
0.0
 40
2.000000000000001
100
AcDbArc
 50
280.0158950648789
 51
359.826924355324
  0
SPLINE
  5
9C79
330
9C65
100
AcDbEntity
  8
0
100
AcDbSpline
210
0.0
220
0.0
230
1.0
 70
     8
 71
     3
 72
    17
 73
    13
 74
     0
 42
0.000000001
 43
0.0000000001
 40
0.0
 40
0.0
 40
0.0
 40
0.0
 40
0.3704689058684398
 40
0.3704689058684398
 40
0.3704689058684398
 40
0.7029757053312134
 40
0.7029757053312134
 40
0.7029757053312134
 40
0.933581379088566
 40
0.933581379088566
 40
0.933581379088566
 40
1.0
 40
1.0
 40
1.0
 40
1.0
 10
-44.60606060606067
 20
2.000000000000002
 30
0.0
 10
-44.2531098161148
 20
2.000006377019302
 30
0.0
 10
-43.80994835339177
 20
2.000465619612596
 30
0.0
 10
-43.38299606376827
 20
1.999851137318906
 30
0.0
 10
-42.99979375691548
 20
1.999299621287292
 30
0.0
 10
-42.63742190750858
 20
2.00004388646216
 30
0.0
 10
-42.37998709144246
 20
2.000290307240785
 30
0.0
 10
-42.20144659451595
 20
2.000461209098355
 30
0.0
 10
-42.07197149374483
 20
2.000344409457291
 30
0.0
 10
-42.02188707330053
 20
2.000001688218324
 30
0.0
 10
-42.00746185088142
 20
1.999902978279066
 30
0.0
 10
-41.99999784581293
 20
2.00056570178213
 30
0.0
 10
-42.00000000001907
 20
2.000000000000107
 30
0.0
  0
LINE
  5
9C7A
330
9C65
100
AcDbEntity
  8
0
100
AcDbLine
 10
-44.60606060606065
 20
0.0
 30
0.0
 11
-44.60606060606065
 21
2.000000000000002
 31
0.0
  0
SPLINE
  5
9C7B
330
9C65
100
AcDbEntity
  8
0
100
AcDbSpline
210
0.0
220
0.0
230
1.0
 70
     8
 71
     3
 72
    28
 73
    24
 74
     0
 42
0.000000001
 43
0.0000000001
 40
0.0357732034605773
 40
0.0357732034605773
 40
0.0357732034605773
 40
0.0357732034605773
 40
0.0390422754399436
 40
0.0390422754399436
 40
0.0452611506413744
 40
0.0452611506413744
 40
0.048337492799788
 40
0.048337492799788
 40
0.0514208783912154
 40
0.0514208783912154
 40
0.0529575422602561
 40
0.0529575422602561
 40
0.0545062599285471
 40
0.0545062599285471
 40
0.0552768641040125
 40
0.0552768641040125
 40
0.0560490425376628
 40
0.0560490425376628
 40
0.0568196219143732
 40
0.0568196219143732
 40
0.0599779861646931
 40
0.0599779861646931
 40
0.0663268531479843
 40
0.0663268531479843
 40
0.0663268531479843
 40
0.0663268531479843
 10
-42.00328099785111
 20
3.842057251340204
 30
0.0
 10
-42.00328099784947
 20
3.842057251380309
 30
0.0
 10
-42.00325370308611
 20
3.842715126968277
 30
0.0
 10
-42.00307566835309
 20
3.847192838502397
 30
0.0
 10
-42.00281926779466
 20
3.853659085647573
 30
0.0
 10
-42.00230490578838
 20
3.868952896544656
 30
0.0
 10
-42.00211373390824
 20
3.87495317046163
 30
0.0
 10
-42.00171824155167
 20
3.888620144901758
 30
0.0
 10
-42.00151123844373
 20
3.896381734838043
 30
0.0
 10
-42.00120926590034
 20
3.909288427508798
 30
0.0
 10
-42.00110914434144
 20
3.913838541184311
 30
0.0
 10
-42.00091412423289
 20
3.923413605711157
 30
0.0
 10
-42.00081699722519
 20
3.928570000150298
 30
0.0
 10
-42.00068438690247
 20
3.936297117581361
 30
0.0
 10
-42.00064189431476
 20
3.938896186335219
 30
0.0
 10
-42.00056372805095
 20
3.9439093954637
 30
0.0
 10
-42.00052749018527
 20
3.94635980051321
 30
0.0
 10
-42.00046356989978
 20
3.950879020534501
 30
0.0
 10
-42.00043532218026
 20
3.952983958630096
 30
0.0
 10
-42.00030935106119
 20
3.962745420479427
 30
0.0
 10
-42.00025759964554
 20
3.967867506748646
 30
0.0
 10
-42.00012589227499
 20
3.981754123732439
 30
0.0
 10
-42.00006999202657
 20
3.989563038712242
 30
0.0
 10
-42.00002531920675
 20
4.000000108971985
 30
0.0
  0
SPLINE
  5
9C7C
330
9C65
100
AcDbEntity
  8
0
100
AcDbSpline
210
0.0
220
0.0
230
1.0
 70
     8
 71
     3
 72
    24
 73
    20
 74
     0
 42
0.000000001
 43
0.0000000001
 40
0.022545504376837
 40
0.022545504376837
 40
0.022545504376837
 40
0.022545504376837
 40
0.0670584163031992
 40
0.0670584163031992
 40
0.1176569868181254
 40
0.1176569868181254
 40
0.125573906893434
 40
0.125573906893434
 40
0.1275474482797295
 40
0.1275474482797295
 40
0.1295305936936876
 40
0.1295305936936876
 40
0.1305201886710859
 40
0.1305201886710859
 40
0.1315137664130369
 40
0.1315137664130369
 40
0.1325098137392145
 40
0.1325098137392145
 40
0.1331618384256025
 40
0.1331618384256025
 40
0.1331618384256025
 40
0.1331618384256025
 10
-44.38760111846302
 20
2.000911654798897
 30
0.0
 10
-44.25277437860075
 20
2.002055086371975
 30
0.0
 10
-44.11870328365927
 20
2.004105436897618
 30
0.0
 10
-43.82488885313458
 20
2.015423834836323
 30
0.0
 10
-43.66175508059033
 20
2.025387294163399
 30
0.0
 10
-43.46909929776761
 20
2.052544208836128
 30
0.0
 10
-43.4425609388521
 20
2.056642800290995
 30
0.0
 10
-43.41059036950064
 20
2.062112998246307
 30
0.0
 10
-43.40425431042663
 20
2.063224476294883
 30
0.0
 10
-43.39196875000356
 20
2.065433787913407
 30
0.0
 10
-43.38592496440103
 20
2.066550000091429
 30
0.0
 10
-43.3778700071343
 20
2.068072834729729
 30
0.0
 10
-43.37533669733907
 20
2.068558170388839
 30
0.0
 10
-43.37086743044632
 20
2.069423429712774
 30
0.0
 10
-43.36890766810053
 20
2.069807990463617
 30
0.0
 10
-43.36590446766923
 20
2.070401936876281
 30
0.0
 10
-43.36484122645723
 20
2.070615026121607
 30
0.0
 10
-43.36389298419721
 20
2.070805715090239
 30
0.0
 10
-43.36371671482602
 20
2.070841469207713
 30
0.0
 10
-43.36371670695558
 20
2.070841470802753
 30
0.0
  0
LINE
  5
9C7D
330
9C65
100
AcDbEntity
  8
0
100
AcDbLine
 10
-42.0
 20
1.999999999999997
 30
0.0
 11
-38.0
 21
1.999999999999992
 31
0.0
  0
LINE
  5
9C7E
330
9C65
100
AcDbEntity
  8
0
100
AcDbLine
 10
-37.99999999999999
 20
86.0
 30
0.0
 11
-41.99999999999999
 21
86.0
 31
0.0
  0
LINE
  5
9C7F
330
9C65
100
AcDbEntity
  8
0
100
AcDbLine
 10
-41.99999999999999
 20
1.999999999999997
 30
0.0
 11
-41.99999999999999
 21
86.0
 31
0.0
  0
LINE
  5
9C80
330
9C65
100
AcDbEntity
  8
0
100
AcDbLine
 10
42.0
 20
1.999999999999997
 30
0.0
 11
38.0
 21
1.999999999999992
 31
0.0
  0
LINE
  5
9C81
330
9C65
100
AcDbEntity
  8
0
100
AcDbLine
 10
41.99999999999999
 20
1.999999999999997
 30
0.0
 11
41.99999999999999
 21
86.0
 31
0.0
  0
LINE
  5
9C82
330
9C65
100
AcDbEntity
  8
0
100
AcDbLine
 10
37.99999999999999
 20
86.0
 30
0.0
 11
41.99999999999999
 21
86.0
 31
0.0
  0
LINE
  5
9C83
330
9C65
100
AcDbEntity
  8
0
100
AcDbLine
 10
81.50000000000005
 20
0.0
 30
0.0
 11
44.60606060606065
 21
0.0
 31
0.0
  0
LINE
  5
9C84
330
9C65
100
AcDbEntity
  8
0
100
AcDbLine
 10
81.50000000000005
 20
1.999999999999984
 30
0.0
 11
81.50000000000005
 21
0.0
 31
0.0
  0
LINE
  5
9C85
330
9C65
100
AcDbEntity
  8
0
100
AcDbLine
 10
44.60606060606065
 20
2.000000000000002
 30
0.0
 11
81.50000000000005
 21
1.999999999999984
 31
0.0
  0
LINE
  5
9C86
330
9C65
100
AcDbEntity
  8
0
100
AcDbLine
 10
-81.50000000000005
 20
1.999999999999984
 30
0.0
 11
-44.60606060606065
 21
2.000000000000002
 31
0.0
  0
LINE
  5
9C87
330
9C65
100
AcDbEntity
  8
0
100
AcDbLine
 10
-81.50000000000005
 20
0.0
 30
0.0
 11
-81.50000000000005
 21
1.999999999999984
 31
0.0
  0
LINE
  5
9C88
330
9C65
100
AcDbEntity
  8
0
100
AcDbLine
 10
-44.60606060606065
 20
0.0
 30
0.0
 11
-81.50000000000005
 21
0.0
 31
0.0
  0
ENDBLK
  5
9C67
330
9C65
100
AcDbEntity
  8
0
100
AcDbBlockEnd
  0
BLOCK
  5
9C8A
330
9C89
100
AcDbEntity
  8
0
100
AcDbBlockBegin
  2
SAE380_80_2-ISO
 70
     0
 10
0.0
 20
0.0
 30
0.0
  3
SAE380_80_2-ISO
  1

  0
LINE
  5
9C8C
330
9C89
100
AcDbEntity
  8
0
100
AcDbLine
 10
58.68143083524954
 20
-44.50393187989796
 30
0.0
 11
58.55628743923573
 21
-44.57618345327384
 31
0.0
  0
SPLINE
  5
9C8D
330
9C89
100
AcDbEntity
  8
0
100
AcDbSpline
210
0.0
220
0.0
230
1.0
 70
     8
 71
     3
 72
    17
 73
    13
 74
     0
 42
0.000000001
 43
0.0000000001
 40
0.0
 40
0.0
 40
0.0
 40
0.0
 40
0.3704689058684398
 40
0.3704689058684398
 40
0.3704689058684398
 40
0.7029757053312134
 40
0.7029757053312134
 40
0.7029757053312134
 40
0.933581379088566
 40
0.933581379088566
 40
0.933581379088566
 40
1.0
 40
1.0
 40
1.0
 40
1.0
 10
60.52419396197816
 20
-43.47557917854022
 30
0.0
 10
60.2746155557487
 20
-43.56659352373703
 30
0.0
 10
59.96092834674477
 20
-43.57666263796737
 30
0.0
 10
59.65946199210565
 20
-43.60801223345321
 30
0.0
 10
59.38888702308959
 20
-43.63614942255148
 30
0.0
 10
59.13212515611071
 20
-43.68368316968695
 30
0.0
 10
58.94991700615327
 20
-43.82872758545495
 30
0.0
 10
58.82354896419771
 20
-43.92932121324533
 30
0.0
 10
58.73207883226587
 20
-44.08125375684467
 30
0.0
 10
58.69690613945005
 20
-44.29588212002706
 30
0.0
 10
58.68677576532478
 20
-44.35769898540937
 30
0.0
 10
58.68102930044297
 20
-44.42345241460831
 30
0.0
 10
58.68143083526295
 20
-44.50393187989925
 30
0.0
  0
LINE
  5
9C8E
330
9C89
100
AcDbEntity
  8
0
100
AcDbLine
 10
60.48944594032544
 20
-43.4555173988852
 30
0.0
 11
60.52419396197814
 21
-43.47557917854019
 31
0.0
  0
LINE
  5
9C8F
330
9C89
100
AcDbEntity
  8
0
100
AcDbLine
 10
60.09564439762264
 20
-43.22815597219844
 30
0.0
 11
60.48944594032544
 21
-43.4555173988852
 31
0.0
  0
ELLIPSE
  5
9C90
330
9C89
100
AcDbEntity
  8
0
100
AcDbEllipse
 10
58.68143083524954
 20
-44.04465255312617
 30
0.0
 11
2.000000000000001
 21
-0.0000000000000002
 31
0.0
210
0.0
220
0.0
230
1.0
 40
0.5773502691896257
 41
0.785398163397451
 42
0.8225763078180454
  0
ELLIPSE
  5
9C91
330
9C89
100
AcDbEntity
  8
0
100
AcDbEllipse
 10
58.68143083524954
 20
-44.04465255312617
 30
0.0
 11
2.000000000000001
 21
-0.0000000000001196
 31
0.0
210
0.0
220
0.0
230
1.0
 40
0.5773502691896257
 41
0.8225763078182746
 42
2.356194490192594
  0
LINE
  5
9C92
330
9C89
100
AcDbEntity
  8
0
100
AcDbLine
 10
57.26721727287642
 20
-44.05127071500387
 30
0.0
 11
57.26721727287642
 21
-43.22815597219844
 31
0.0
  0
LINE
  5
9C93
330
9C89
100
AcDbEntity
  8
0
100
AcDbLine
 10
57.26721727287642
 20
-45.32042846082569
 30
0.0
 11
57.26721727287642
 21
-44.05127071507978
 31
0.0
  0
LINE
  5
9C94
330
9C89
100
AcDbEntity
  8
0
100
AcDbLine
 10
58.55628743915278
 20
-44.57618345332172
 30
0.0
 11
57.26721727287643
 21
-45.32042846082569
 31
0.0
  0
ELLIPSE
  5
9C95
330
9C89
100
AcDbEntity
  8
0
100
AcDbEllipse
 10
-17.68610153289758
 20
-72.26481563144064
 30
0.0
 11
-2.5
 21
-0.0000000000001495
 31
0.0
210
0.0
220
0.0
230
1.0
 40
0.5773502691896258
 41
3.74285687026858
 42
5.681921090500121
  0
ELLIPSE
  5
9C96
330
9C89
100
AcDbEntity
  8
0
100
AcDbEllipse
 10
-3.543965909166635
 20
-64.09984982216338
 30
0.0
 11
-2.5
 21
-0.0000000000001495
 31
0.0
210
0.0
220
0.0
230
1.0
 40
0.5773502691896258
 41
3.742856870268582
 42
5.681921090500121
  0
LINE
  5
9C97
330
9C89
100
AcDbEntity
  8
0
100
AcDbLine
 10
-3.543965909166666
 20
-95.12671989741697
 30
0.0
 11
-57.28408127934425
 21
-64.0998498221634
 31
0.0
  0
LINE
  5
9C98
330
9C89
100
AcDbEntity
  8
0
100
AcDbLine
 10
0.6986747779526326
 20
-11.02757206186119
 30
0.0
 11
0.6986747779526415
 21
-25.72451051856027
 31
0.0
  0
LINE
  5
9C99
330
9C89
100
AcDbEntity
  8
0
100
AcDbLine
 10
33.12007298772452
 20
-46.07600666433156
 30
0.0
 11
32.27044026556329
 21
-45.58547098347945
 31
0.0
  0
LINE
  5
9C9A
330
9C89
100
AcDbEntity
  8
0
100
AcDbLine
 10
22.66741696604974
 20
-40.04116289647106
 30
0.0
 11
2.112888340325733
 21
-28.17400026134345
 31
0.0
  0
LINE
  5
9C9B
330
9C89
100
AcDbEntity
  8
0
100
AcDbLine
 10
-57.28408127934426
 20
-62.46685666030794
 30
0.0
 11
-3.54396590916667
 21
-93.4937267355615
 31
0.0
  0
ELLIPSE
  5
9C9C
330
9C89
100
AcDbEntity
  8
0
100
AcDbEllipse
 10
-3.543965909166635
 20
-62.46685666030792
 30
0.0
 11
-2.5
 21
0.0000000000001492
 31
0.0
210
0.0
220
0.0
230
1.0
 40
0.5773502691896258
 41
0.0
 42
6.283185307179586
  0
ELLIPSE
  5
9C9D
330
9C89
100
AcDbEntity
  8
0
100
AcDbEllipse
 10
-17.68610153289758
 20
-70.63182246958518
 30
0.0
 11
-2.5
 21
0.0000000000001492
 31
0.0
210
0.0
220
0.0
230
1.0
 40
0.5773502691896258
 41
0.0
 42
6.283185307179586
  0
LINE
  5
9C9E
330
9C89
100
AcDbEntity
  8
0
100
AcDbLine
 10
0.6986747779526326
 20
-11.02757206186119
 30
0.0
 11
-0.7155387844204686
 21
-11.84406864278893
 31
0.0
  0
SPLINE
  5
9C9F
330
9C89
100
AcDbEntity
  8
0
100
AcDbSpline
210
0.0
220
0.0
230
1.0
 70
     8
 71
     3
 72
    11
 73
     7
 74
     0
 42
0.000000001
 43
0.0000000001
 40
-1.0
 40
-1.0
 40
-1.0
 40
-1.0
 40
-0.7907552673955366
 40
-0.7907552673955366
 40
-0.7907552673955366
 40
-0.6580591778886573
 40
-0.6580591778886573
 40
-0.6580591778886573
 40
-0.6580591778886573
 10
0.6986747779526193
 20
-11.02757206186121
 30
0.0
 10
0.7007144617241634
 20
-10.62931931162702
 30
0.0
 10
0.6656674512575478
 20
-10.24152263961529
 30
0.0
 10
0.601072244365688
 20
-9.887933403433821
 30
0.0
 10
0.5601081003762643
 20
-9.663698803360523
 30
0.0
 10
0.507760940576314
 20
-9.448252832621566
 30
0.0
 10
0.4449213156286814
 20
-9.238922477045123
 30
0.0
  0
ELLIPSE
  5
9CA0
330
9C89
100
AcDbEntity
  8
0
100
AcDbEllipse
 10
-3.543965909166657
 20
-8.118802992306228
 30
0.0
 11
4.000000000000003
 21
-0.0000000000000003
 31
0.0
210
0.0
220
0.0
230
1.0
 40
0.5773502691896257
 41
6.058746940098658
 42
6.283185307179586
  0
ELLIPSE
  5
9CA1
330
9C89
100
AcDbEntity
  8
0
100
AcDbEllipse
 10
-3.543965909166657
 20
-8.118802992306228
 30
0.0
 11
4.000000000000002
 21
-0.0000000000000003
 31
0.0
210
0.0
220
0.0
230
1.0
 40
0.5773502691896258
 41
5.497787143782133
 42
6.058746940098657
  0
LINE
  5
9CA2
330
9C89
100
AcDbEntity
  8
0
100
AcDbLine
 10
-0.7155387844204642
 20
-9.751796154161684
 30
0.0
 11
-0.7155387844204642
 21
-11.84406864278893
 31
0.0
  0
SPLINE
  5
9CA3
330
9C89
100
AcDbEntity
  8
0
100
AcDbSpline
210
0.0
220
0.0
230
1.0
 70
     8
 71
     3
 72
    16
 73
    12
 74
     0
 42
0.000000001
 43
0.0000000001
 40
0.0
 40
0.0
 40
0.0
 40
0.0
 40
0.0351246640414312
 40
0.0351246640414312
 40
0.0553378225973402
 40
0.0553378225973402
 40
0.0803965840173112
 40
0.0803965840173112
 40
0.1060270124902382
 40
0.1060270124902382
 40
0.1164299936487995
 40
0.1164299936487995
 40
0.1164299936487995
 40
0.1164299936487995
 10
0.4446614189202025
 20
-8.292830752140716
 30
0.0
 10
0.4294667946593434
 20
-8.408918984974214
 30
0.0
 10
0.4145369215115347
 20
-8.527147249980298
 30
0.0
 10
0.3996842847605508
 20
-8.704512401454174
 30
0.0
 10
0.3961083103672447
 20
-8.768025346363819
 30
0.0
 10
0.3938645384145234
 20
-8.899119503235581
 30
0.0
 10
0.3965985286218965
 20
-8.964972148291971
 30
0.0
 10
0.4084641606448925
 20
-9.080419229176062
 30
0.0
 10
0.417521299392778
 20
-9.131046065481953
 30
0.0
 10
0.4343565998910126
 20
-9.199856610074501
 30
0.0
 10
0.4397474596619455
 20
-9.219584076245066
 30
0.0
 10
0.4458612356304226
 20
-9.239902025002839
 30
0.0
  0
ELLIPSE
  5
9CA4
330
9C89
100
AcDbEntity
  8
0
100
AcDbEllipse
 10
2.112888340325733
 20
-26.541007099488
 30
0.0
 11
1.000000000000105
 21
-1.732050807568816
 31
0.0
210
0.0
220
0.0
230
1.0
 40
0.5773502691896266
 41
3.926990816987
 42
5.497787143781897
  0
LINE
  5
9CA5
330
9C89
100
AcDbEntity
  8
0
100
AcDbLine
 10
2.112888340325733
 20
-28.17400026134345
 30
0.0
 11
-57.28408127934426
 21
-62.46685666030794
 31
0.0
  0
ELLIPSE
  5
9CA6
330
9C89
100
AcDbEntity
  8
0
100
AcDbEllipse
 10
-57.28408127934426
 20
-60.83386349845248
 30
0.0
 11
2.000000000000212
 21
-3.464101615137641
 31
0.0
210
0.0
220
0.0
230
1.0
 40
0.577350269189626
 41
3.926990816986998
 42
5.497787143781892
  0
LINE
  5
9CA7
330
9C89
100
AcDbEntity
  8
0
100
AcDbLine
 10
-58.69829484171735
 20
-60.01736691752476
 30
0.0
 11
0.6986747779526415
 21
-25.72451051856027
 31
0.0
  0
LINE
  5
9CA8
330
9C89
100
AcDbEntity
  8
0
100
AcDbLine
 10
-60.11250840409045
 20
-59.20087033659704
 30
0.0
 11
-58.69829484171735
 21
-60.01736691752476
 31
0.0
  0
LINE
  5
9CA9
330
9C89
100
AcDbEntity
  8
0
100
AcDbLine
 10
-57.28408127934426
 20
-64.0998498221634
 30
0.0
 11
-57.28408127934426
 21
-62.46685666030794
 31
0.0
  0
ELLIPSE
  5
9CAA
330
9C89
100
AcDbEntity
  8
0
100
AcDbEllipse
 10
-57.28408127934426
 20
-60.83386349845248
 30
0.0
 11
1.000000000000106
 21
-1.732050807568823
 31
0.0
210
0.0
220
0.0
230
1.0
 40
0.5773502691896258
 41
3.926990816987004
 42
5.497787143781896
  0
LINE
  5
9CAB
330
9C89
100
AcDbEntity
  8
0
100
AcDbLine
 10
58.68143083524954
 20
-59.20087033659704
 30
0.0
 11
58.68143083524954
 21
-44.50393187989796
 31
0.0
  0
ELLIPSE
  5
9CAC
330
9C89
100
AcDbEntity
  8
0
100
AcDbEllipse
 10
55.85300371050334
 20
-57.56787717474157
 30
0.0
 11
2.0
 21
-3.464101615137754
 31
0.0
210
0.0
220
0.0
230
1.0
 40
0.5773502691896253
 41
0.0
 42
0.7853981633974457
  0
LINE
  5
9CAD
330
9C89
100
AcDbEntity
  8
0
100
AcDbLine
 10
-3.543965909166666
 20
-93.4937267355615
 30
0.0
 11
-2.129752346793574
 21
-92.67723015463378
 31
0.0
  0
LINE
  5
9CAE
330
9C89
100
AcDbEntity
  8
0
100
AcDbLine
 10
58.68143083524954
 20
-59.20087033659704
 30
0.0
 11
-0.7155387844204597
 21
-93.4937267355615
 31
0.0
  0
ELLIPSE
  5
9CAF
330
9C89
100
AcDbEntity
  8
0
100
AcDbEllipse
 10
-3.543965909166661
 20
-91.86073357370606
 30
0.0
 11
2.000000000000005
 21
-3.464101615137761
 31
0.0
210
0.0
220
0.0
230
1.0
 40
0.5773502691896258
 41
5.497787143782137
 42
7.068583470577028
  0
LINE
  5
9CB0
330
9C89
100
AcDbEntity
  8
0
100
AcDbLine
 10
86.61214869211821
 20
-33.68535218260563
 30
0.0
 11
88.02636225449132
 21
-32.86885560167791
 31
0.0
  0
LINE
  5
9CB1
330
9C89
100
AcDbEntity
  8
0
100
AcDbLine
 10
60.52419396197814
 20
-43.4755791785402
 30
0.0
 11
86.61214869211821
 21
-33.68535218260563
 31
0.0
  0
ELLIPSE
  5
9CB2
330
9C89
100
AcDbEntity
  8
0
100
AcDbEllipse
 10
74.23778002135358
 20
37.96222279380236
 30
0.0
 11
-3.249999999999999
 21
5.629165124598853
 31
0.0
210
0.0
220
0.0
230
1.0
 40
0.5773502691896255
 41
0.2193254863005913
 42
2.922267167289197
  0
ELLIPSE
  5
9CB3
330
9C89
100
AcDbEntity
  8
0
100
AcDbEllipse
 10
82.01595461440559
 20
37.55397450333846
 30
0.0
 11
1.250000000000129
 21
-2.165063509461022
 31
0.0
210
0.0
220
0.0
230
1.0
 40
0.5773502691896257
 41
3.742856870268575
 42
5.68192109050011
  0
LINE
  5
9CB4
330
9C89
100
AcDbEntity
  8
0
100
AcDbLine
 10
61.50985795999573
 20
61.64062364070638
 30
0.0
 11
88.02636225449125
 21
46.33131274831153
 31
0.0
  0
LINE
  5
9CB5
330
9C89
100
AcDbEntity
  8
0
100
AcDbLine
 10
88.02636225449132
 20
-32.86885560167791
 30
0.0
 11
88.02636225449125
 21
46.33131274831152
 31
0.0
  0
ELLIPSE
  5
9CB6
330
9C89
100
AcDbEntity
  8
0
100
AcDbEllipse
 10
58.68143083524954
 20
60.00763047885095
 30
0.0
 11
4.000000000000003
 21
-0.000000000000238
 31
0.0
210
0.0
220
0.0
230
1.0
 40
0.5773502691896257
 41
0.7853981633976881
 42
2.356194490192585
  0
ELLIPSE
  5
9CB7
330
9C89
100
AcDbEntity
  8
0
100
AcDbEllipse
 10
31.45781975956745
 20
35.30860890578723
 30
0.0
 11
1.249999999999871
 21
2.16506350946117
 31
0.0
210
0.0
220
0.0
230
1.0
 40
0.577350269189626
 41
3.742856870268578
 42
5.681921090500118
  0
ELLIPSE
  5
9CB8
330
9C89
100
AcDbEntity
  8
0
100
AcDbEllipse
 10
32.87203332194054
 20
34.4921123248595
 30
0.0
 11
-1.25
 21
-2.165063509461096
 31
0.0
210
0.0
220
0.0
230
0.9999999999999998
 40
0.577350269189626
 41
0.0
 42
6.283185307179586
  0
LINE
  5
9CB9
330
9C89
100
AcDbEntity
  8
0
100
AcDbLine
 10
-2.129752346793587
 20
-77.98029169793472
 30
0.0
 11
26.15451890066832
 21
-34.70597290876527
 31
0.0
  0
LINE
  5
9CBA
330
9C89
100
AcDbEntity
  8
0
100
AcDbLine
 10
-0.7155387844204864
 20
-78.79678827886245
 30
0.0
 11
-2.129752346793587
 21
-77.98029169793472
 31
0.0
  0
LINE
  5
9CBB
330
9C89
100
AcDbEntity
  8
0
100
AcDbLine
 10
27.56873246304142
 20
-35.522469489693
 30
0.0
 11
-0.7155387844204864
 21
-78.79678827886245
 31
0.0
  0
LINE
  5
9CBC
330
9C89
100
AcDbEntity
  8
0
100
AcDbLine
 10
27.56873246304142
 20
-35.522469489693
 30
0.0
 11
26.15451890066832
 21
-34.70597290876528
 31
0.0
  0
LINE
  5
9CBD
330
9C89
100
AcDbEntity
  8
0
100
AcDbLine
 10
26.15451890066832
 20
-34.70597290876528
 30
0.0
 11
26.15451890066833
 21
44.49419544122413
 31
0.0
  0
LINE
  5
9CBE
330
9C89
100
AcDbEntity
  8
0
100
AcDbLine
 10
27.56873246304144
 20
43.67769886029642
 30
0.0
 11
27.56873246304142
 21
-35.52246948969301
 31
0.0
  0
LINE
  5
9CBF
330
9C89
100
AcDbEntity
  8
0
100
AcDbLine
 10
26.15451890066833
 20
44.49419544122414
 30
0.0
 11
27.56873246304144
 21
43.67769886029642
 31
0.0
  0
LINE
  5
9CC0
330
9C89
100
AcDbEntity
  8
0
100
AcDbLine
 10
-0.7155387844204864
 20
-78.79678827886245
 30
0.0
 11
-0.7155387844204642
 21
-93.49372673556151
 31
0.0
  0
LINE
  5
9CC1
330
9C89
100
AcDbEntity
  8
0
100
AcDbLine
 10
57.26721727287642
 20
-43.22815597219844
 30
0.0
 11
57.26721727287643
 21
60.82412705977866
 31
0.0
  0
LINE
  5
9CC2
330
9C89
100
AcDbEntity
  8
0
100
AcDbLine
 10
57.26721727287643
 20
60.82412705977866
 30
0.0
 11
27.56873246304144
 21
43.67769886029642
 31
0.0
  0
LINE
  5
9CC3
330
9C89
100
AcDbEntity
  8
0
100
AcDbLine
 10
26.15451890066833
 20
44.49419544122414
 30
0.0
 11
55.85300371050333
 21
61.64062364070638
 31
0.0
  0
LINE
  5
9CC4
330
9C89
100
AcDbEntity
  8
0
100
AcDbLine
 10
-2.129752346793569
 20
-92.67723015463378
 30
0.0
 11
-2.129752346793587
 21
-77.98029169793472
 31
0.0
  0
LINE
  5
9CC5
330
9C89
100
AcDbEntity
  8
0
100
AcDbLine
 10
-3.543965909166666
 20
-93.4937267355615
 30
0.0
 11
-3.543965909166666
 21
-95.12671989741697
 31
0.0
  0
LINE
  5
9CC6
330
9C89
100
AcDbEntity
  8
0
100
AcDbLine
 10
-2.129752346793569
 20
-92.67723015463378
 30
0.0
 11
-0.7155387844204642
 21
-93.4937267355615
 31
0.0
  0
ELLIPSE
  5
9CC7
330
9C89
100
AcDbEntity
  8
0
100
AcDbEllipse
 10
-3.543965909166661
 20
-91.86073357370606
 30
0.0
 11
1.000000000000003
 21
-1.732050807568882
 31
0.0
210
0.0
220
0.0
230
1.0
 40
0.5773502691896259
 41
5.497787143782131
 42
7.068583470577029
  0
LINE
  5
9CC8
330
9C89
100
AcDbEntity
  8
0
100
AcDbLine
 10
60.09564439762264
 20
-43.22815597219845
 30
0.0
 11
60.09564439762264
 21
60.82412705977867
 31
0.0
  0
ELLIPSE
  5
9CC9
330
9C89
100
AcDbEntity
  8
0
100
AcDbEllipse
 10
58.68143083524954
 20
60.00763047885095
 30
0.0
 11
-2.000000000000002
 21
-0.0000000000001194
 31
0.0
210
0.0
220
0.0
230
1.0
 40
0.5773502691896255
 41
3.926990816987
 42
5.497787143781896
  0
LINE
  5
9CCA
330
9C89
100
AcDbEntity
  8
0
100
AcDbLine
 10
88.02636225449125
 20
46.33131274831153
 30
0.0
 11
86.61214869211816
 21
45.51481616738381
 31
0.0
  0
LINE
  5
9CCB
330
9C89
100
AcDbEntity
  8
0
100
AcDbLine
 10
86.61214869211821
 20
-33.68535218260563
 30
0.0
 11
86.61214869211816
 21
45.51481616738382
 31
0.0
  0
LINE
  5
9CCC
330
9C89
100
AcDbEntity
  8
0
100
AcDbLine
 10
57.26721727287643
 20
60.82412705977866
 30
0.0
 11
55.85300371050333
 21
61.64062364070638
 31
0.0
  0
LINE
  5
9CCD
330
9C89
100
AcDbEntity
  8
0
100
AcDbLine
 10
60.09564439762264
 20
60.82412705977866
 30
0.0
 11
61.50985795999573
 21
61.64062364070638
 31
0.0
  0
LINE
  5
9CCE
330
9C89
100
AcDbEntity
  8
0
100
AcDbLine
 10
86.61214869211816
 20
45.51481616738381
 30
0.0
 11
60.09564439762264
 21
60.82412705977866
 31
0.0
  0
ELLIPSE
  5
9CCF
330
9C89
100
AcDbEntity
  8
0
100
AcDbEllipse
 10
72.82356645898049
 20
37.14572621287464
 30
0.0
 11
-3.25
 21
5.629165124598853
 31
0.0
210
0.0
220
0.0
230
1.0
 40
0.5773502691896258
 41
0.0
 42
6.283185307179586
  0
ELLIPSE
  5
9CD0
330
9C89
100
AcDbEntity
  8
0
100
AcDbEllipse
 10
80.60174105203248
 20
36.73747792241074
 30
0.0
 11
-1.249999999999999
 21
2.165063509461097
 31
0.0
210
0.0
220
0.0
230
0.9999999999999998
 40
0.5773502691896257
 41
0.0
 42
6.283185307179586
  0
LINE
  5
9CD1
330
9C89
100
AcDbEntity
  8
0
100
AcDbLine
 10
-1.543965909166655
 20
-95.32483518884381
 30
0.0
 11
57.85300371050336
 21
-61.03197878987934
 31
0.0
  0
ELLIPSE
  5
9CD2
330
9C89
100
AcDbEntity
  8
0
100
AcDbEllipse
 10
74.23778002135358
 20
-19.19253787113846
 30
0.0
 11
-3.249999999999999
 21
5.629165124598853
 31
0.0
210
0.0
220
0.0
230
1.0
 40
0.5773502691896255
 41
0.2193254863005925
 42
2.922267167289198
  0
ELLIPSE
  5
9CD3
330
9C89
100
AcDbEntity
  8
0
100
AcDbEllipse
 10
72.82356645898049
 20
-20.00903445206618
 30
0.0
 11
-3.25
 21
5.629165124598853
 31
0.0
210
0.0
220
0.0
230
1.0
 40
0.5773502691896258
 41
0.0
 42
6.283185307179586
  0
ELLIPSE
  5
9CD4
330
9C89
100
AcDbEntity
  8
0
100
AcDbEllipse
 10
66.45960542830156
 20
-26.94925538995186
 30
0.0
 11
1.250000000000129
 21
-2.165063509461022
 31
0.0
210
0.0
220
0.0
230
1.0
 40
0.5773502691896257
 41
3.74285687026858
 42
5.681921090500115
  0
ELLIPSE
  5
9CD5
330
9C89
100
AcDbEntity
  8
0
100
AcDbEllipse
 10
66.45960542830156
 20
-10.61932377139733
 30
0.0
 11
1.250000000000129
 21
-2.165063509461022
 31
0.0
210
0.0
220
0.0
230
1.0
 40
0.5773502691896257
 41
3.742856870268576
 42
5.681921090500115
  0
ELLIPSE
  5
9CD6
330
9C89
100
AcDbEntity
  8
0
100
AcDbEllipse
 10
66.45960542830156
 20
5.710607847157183
 30
0.0
 11
1.250000000000129
 21
-2.165063509461022
 31
0.0
210
0.0
220
0.0
230
1.0
 40
0.5773502691896257
 41
3.742856870268576
 42
5.681921090500115
  0
ELLIPSE
  5
9CD7
330
9C89
100
AcDbEntity
  8
0
100
AcDbEllipse
 10
66.45960542830156
 20
22.04053946571169
 30
0.0
 11
1.250000000000129
 21
-2.165063509461022
 31
0.0
210
0.0
220
0.0
230
1.0
 40
0.5773502691896257
 41
3.74285687026858
 42
5.681921090500115
  0
ELLIPSE
  5
9CD8
330
9C89
100
AcDbEntity
  8
0
100
AcDbEllipse
 10
66.45960542830156
 20
38.37047108426622
 30
0.0
 11
1.250000000000129
 21
-2.165063509461022
 31
0.0
210
0.0
220
0.0
230
1.0
 40
0.5773502691896257
 41
3.742856870268578
 42
5.681921090500115
  0
ELLIPSE
  5
9CD9
330
9C89
100
AcDbEntity
  8
0
100
AcDbEllipse
 10
65.04539186592847
 20
-27.76575197087958
 30
0.0
 11
-1.249999999999999
 21
2.165063509461097
 31
0.0
210
0.0
220
0.0
230
0.9999999999999998
 40
0.5773502691896257
 41
0.0
 42
6.283185307179586
  0
ELLIPSE
  5
9CDA
330
9C89
100
AcDbEntity
  8
0
100
AcDbEllipse
 10
65.04539186592847
 20
-11.43582035232506
 30
0.0
 11
-1.249999999999999
 21
2.165063509461097
 31
0.0
210
0.0
220
0.0
230
0.9999999999999998
 40
0.5773502691896257
 41
0.0
 42
6.283185307179586
  0
ELLIPSE
  5
9CDB
330
9C89
100
AcDbEntity
  8
0
100
AcDbEllipse
 10
65.04539186592847
 20
4.894111266229455
 30
0.0
 11
-1.249999999999999
 21
2.165063509461097
 31
0.0
210
0.0
220
0.0
230
0.9999999999999998
 40
0.5773502691896257
 41
0.0
 42
6.283185307179586
  0
ELLIPSE
  5
9CDC
330
9C89
100
AcDbEntity
  8
0
100
AcDbEllipse
 10
65.04539186592847
 20
21.22404288478397
 30
0.0
 11
-1.249999999999999
 21
2.165063509461097
 31
0.0
210
0.0
220
0.0
230
0.9999999999999998
 40
0.5773502691896257
 41
0.0
 42
6.283185307179586
  0
ELLIPSE
  5
9CDD
330
9C89
100
AcDbEntity
  8
0
100
AcDbEllipse
 10
65.04539186592847
 20
37.5539745033385
 30
0.0
 11
-1.249999999999999
 21
2.165063509461097
 31
0.0
210
0.0
220
0.0
230
0.9999999999999998
 40
0.5773502691896257
 41
0.0
 42
6.283185307179586
  0
ELLIPSE
  5
9CDE
330
9C89
100
AcDbEntity
  8
0
100
AcDbEllipse
 10
66.45960542830156
 20
54.70040270282073
 30
0.0
 11
1.250000000000129
 21
-2.165063509461022
 31
0.0
210
0.0
220
0.0
230
1.0
 40
0.5773502691896257
 41
3.74285687026858
 42
5.681921090500115
  0
ELLIPSE
  5
9CDF
330
9C89
100
AcDbEntity
  8
0
100
AcDbEllipse
 10
-7.079499815099383
 20
95.525231749207
 30
0.0
 11
1.25
 21
-2.165063509461095
 31
0.0
210
0.0
220
0.0
230
1.0
 40
0.5773502691896261
 41
0.0
 42
6.283185307179586
  0
ELLIPSE
  5
9CE0
330
9C89
100
AcDbEntity
  8
0
100
AcDbEllipse
 10
-5.665286252726295
 20
96.34172833013478
 30
0.0
 11
1.25000000000013
 21
-2.165063509461021
 31
0.0
210
0.0
220
0.0
230
1.0
 40
0.5773502691896261
 41
3.742856870268578
 42
5.681921090500121
  0
ELLIPSE
  5
9CE1
330
9C89
100
AcDbEntity
  8
0
100
AcDbEllipse
 10
65.04539186592847
 20
53.88390612189301
 30
0.0
 11
-1.249999999999999
 21
2.165063509461097
 31
0.0
210
0.0
220
0.0
230
0.9999999999999998
 40
0.5773502691896257
 41
0.0
 42
6.283185307179586
  0
ELLIPSE
  5
9CE2
330
9C89
100
AcDbEntity
  8
0
100
AcDbEllipse
 10
82.01595461440559
 20
-27.76575197087961
 30
0.0
 11
1.250000000000129
 21
-2.165063509461022
 31
0.0
210
0.0
220
0.0
230
1.0
 40
0.5773502691896257
 41
3.742856870268575
 42
5.68192109050011
  0
ELLIPSE
  5
9CE3
330
9C89
100
AcDbEntity
  8
0
100
AcDbEllipse
 10
82.01595461440559
 20
-11.43582035232509
 30
0.0
 11
1.250000000000129
 21
-2.165063509461022
 31
0.0
210
0.0
220
0.0
230
1.0
 40
0.5773502691896257
 41
3.742856870268575
 42
5.68192109050011
  0
ELLIPSE
  5
9CE4
330
9C89
100
AcDbEntity
  8
0
100
AcDbEllipse
 10
82.01595461440559
 20
4.894111266229428
 30
0.0
 11
1.250000000000129
 21
-2.165063509461022
 31
0.0
210
0.0
220
0.0
230
1.0
 40
0.5773502691896257
 41
3.742856870268575
 42
5.68192109050011
  0
ELLIPSE
  5
9CE5
330
9C89
100
AcDbEntity
  8
0
100
AcDbEllipse
 10
82.01595461440559
 20
21.22404288478396
 30
0.0
 11
1.250000000000129
 21
-2.165063509461022
 31
0.0
210
0.0
220
0.0
230
1.0
 40
0.5773502691896257
 41
3.742856870268575
 42
5.68192109050011
  0
ELLIPSE
  5
9CE6
330
9C89
100
AcDbEntity
  8
0
100
AcDbEllipse
 10
80.60174105203248
 20
-28.58224855180733
 30
0.0
 11
-1.249999999999999
 21
2.165063509461097
 31
0.0
210
0.0
220
0.0
230
0.9999999999999998
 40
0.5773502691896257
 41
0.0
 42
6.283185307179586
  0
ELLIPSE
  5
9CE7
330
9C89
100
AcDbEntity
  8
0
100
AcDbEllipse
 10
80.60174105203248
 20
-12.2523169332528
 30
0.0
 11
-1.249999999999999
 21
2.165063509461097
 31
0.0
210
0.0
220
0.0
230
0.9999999999999998
 40
0.5773502691896257
 41
0.0
 42
6.283185307179586
  0
ELLIPSE
  5
9CE8
330
9C89
100
AcDbEntity
  8
0
100
AcDbEllipse
 10
80.60174105203248
 20
4.077614685301709
 30
0.0
 11
-1.249999999999999
 21
2.165063509461097
 31
0.0
210
0.0
220
0.0
230
0.9999999999999998
 40
0.5773502691896257
 41
0.0
 42
6.283185307179586
  0
ELLIPSE
  5
9CE9
330
9C89
100
AcDbEntity
  8
0
100
AcDbEllipse
 10
80.60174105203248
 20
20.40754630385624
 30
0.0
 11
-1.249999999999999
 21
2.165063509461097
 31
0.0
210
0.0
220
0.0
230
0.9999999999999998
 40
0.5773502691896257
 41
0.0
 42
6.283185307179586
  0
LINE
  5
9CEA
330
9C89
100
AcDbEntity
  8
0
100
AcDbLine
 10
-25.84624127814038
 20
28.57515666033419
 30
0.0
 11
-25.13902943414971
 21
27.49313794680361
 31
0.0
  0
LINE
  5
9CEB
330
9C89
100
AcDbEntity
  8
0
100
AcDbLine
 10
-30.41402359425545
 20
-2.046109671656255
 30
0.0
 11
-58.69829484171735
 21
-45.32042846082571
 31
0.0
  0
LINE
  5
9CEC
330
9C89
100
AcDbEntity
  8
0
100
AcDbLine
 10
-31.82823715662856
 20
-1.229613090728527
 30
0.0
 11
-30.41402359425545
 21
-2.046109671656255
 31
0.0
  0
LINE
  5
9CED
330
9C89
100
AcDbEntity
  8
0
100
AcDbLine
 10
-60.11250840409045
 20
-44.50393187989797
 30
0.0
 11
-31.82823715662856
 21
-1.229613090728527
 31
0.0
  0
LINE
  5
9CEE
330
9C89
100
AcDbEntity
  8
0
100
AcDbLine
 10
-58.69829484171735
 20
-45.32042846082571
 30
0.0
 11
-60.11250840409045
 21
-44.50393187989797
 31
0.0
  0
LINE
  5
9CEF
330
9C89
100
AcDbEntity
  8
0
100
AcDbLine
 10
-30.41402359425544
 20
77.15405867833315
 30
0.0
 11
-30.41402359425545
 21
-2.046109671656255
 31
0.0
  0
LINE
  5
9CF0
330
9C89
100
AcDbEntity
  8
0
100
AcDbLine
 10
-31.82823715662853
 20
77.97055525926089
 30
0.0
 11
-30.41402359425544
 21
77.15405867833315
 31
0.0
  0
LINE
  5
9CF1
330
9C89
100
AcDbEntity
  8
0
100
AcDbLine
 10
-31.82823715662856
 20
-1.229613090728527
 30
0.0
 11
-31.82823715662853
 21
77.97055525926089
 31
0.0
  0
ELLIPSE
  5
9CF2
330
9C89
100
AcDbEntity
  8
0
100
AcDbEllipse
 10
-14.85767440815141
 20
87.76851423039364
 30
0.0
 11
-3.250000000000005
 21
5.629165124598849
 31
0.0
210
0.0
220
0.0
230
0.9999999999999998
 40
0.5773502691896259
 41
4.71238898038469
 42
7.853981633974483
  0
ELLIPSE
  5
9CF3
330
9C89
100
AcDbEntity
  8
0
100
AcDbEllipse
 10
-13.44346084577832
 20
88.58501081132136
 30
0.0
 11
-3.250000000000003
 21
5.629165124598849
 31
0.0
210
0.0
220
0.0
230
1.0
 40
0.5773502691896261
 41
0.2193254863005922
 42
1.570796326794897
  0
ELLIPSE
  5
9CF4
330
9C89
100
AcDbEntity
  8
0
100
AcDbEllipse
 10
-22.63584900120346
 20
96.34172833013472
 30
0.0
 11
1.25
 21
-2.165063509461095
 31
0.0
210
0.0
220
0.0
230
1.0
 40
0.5773502691896261
 41
0.0
 42
6.283185307179586
  0
ELLIPSE
  5
9CF5
330
9C89
100
AcDbEntity
  8
0
100
AcDbEllipse
 10
-21.22163543883038
 20
97.15822491106244
 30
0.0
 11
1.25000000000013
 21
-2.165063509461021
 31
0.0
210
0.0
220
0.0
230
1.0
 40
0.5773502691896261
 41
3.742856870268578
 42
5.681921090500118
  0
LINE
  5
9CF6
330
9C89
100
AcDbEntity
  8
0
100
AcDbLine
 10
-2.12975234679356
 20
95.1169834587432
 30
0.0
 11
-2.12975234679356
 21
96.74997662059864
 31
0.0
  0
ELLIPSE
  5
9CF7
330
9C89
100
AcDbEntity
  8
0
100
AcDbEllipse
 10
-3.543965909166657
 20
95.93348003967092
 30
0.0
 11
2.000000000000002
 21
0.0
 31
0.0
210
0.0
220
0.0
230
1.0
 40
0.5773502691896255
 41
5.497787143782129
 42
7.068583470577027
  0
LINE
  5
9CF8
330
9C89
100
AcDbEntity
  8
0
100
AcDbLine
 10
-0.7155387844204642
 20
94.30048687781543
 30
0.0
 11
-0.7155387844204642
 21
-9.751796154161684
 31
0.0
  0
ELLIPSE
  5
9CF9
330
9C89
100
AcDbEntity
  8
0
100
AcDbEllipse
 10
-3.543965909166657
 20
95.93348003967092
 30
0.0
 11
4.000000000000003
 21
-0.0000000000000001
 31
0.0
210
0.0
220
0.0
230
1.0
 40
0.5773502691896257
 41
5.497787143782137
 42
7.068583470577035
  0
LINE
  5
9CFA
330
9C89
100
AcDbEntity
  8
0
100
AcDbLine
 10
-2.12975234679356
 20
96.74997662059864
 30
0.0
 11
-0.7155387844204642
 21
97.56647320152636
 31
0.0
  0
LINE
  5
9CFB
330
9C89
100
AcDbEntity
  8
0
100
AcDbLine
 10
-2.12975234679356
 20
95.11698345874314
 30
0.0
 11
-0.7155387844204642
 21
94.30048687781543
 31
0.0
  0
LINE
  5
9CFC
330
9C89
100
AcDbEntity
  8
0
100
AcDbLine
 10
0.456034090833346
 20
-8.118802992306228
 30
0.0
 11
0.456034090833346
 21
95.93348003967086
 31
0.0
  0
LINE
  5
9CFD
330
9C89
100
AcDbEntity
  8
0
100
AcDbLine
 10
-28.64625664128912
 20
112.0592875129934
 30
0.0
 11
-2.12975234679356
 21
96.74997662059864
 31
0.0
  0
LINE
  5
9CFE
330
9C89
100
AcDbEntity
  8
0
100
AcDbLine
 10
-28.64625664128912
 20
79.80767256634829
 30
0.0
 11
-28.64625664128912
 21
112.0592875129934
 31
0.0
  0
LINE
  5
9CFF
330
9C89
100
AcDbEntity
  8
0
100
AcDbLine
 10
-58.69829484171735
 20
-60.01736691752476
 30
0.0
 11
-58.69829484171735
 21
-45.32042846082571
 31
0.0
  0
LINE
  5
9D00
330
9C89
100
AcDbEntity
  8
0
100
AcDbLine
 10
-30.41402359425544
 20
77.15405867833315
 30
0.0
 11
-0.7155387844204642
 21
94.30048687781543
 31
0.0
  0
LINE
  5
9D01
330
9C89
100
AcDbEntity
  8
0
100
AcDbLine
 10
-60.11250840409045
 20
-44.50393187989797
 30
0.0
 11
-60.11250840409045
 21
-59.20087033659704
 31
0.0
  0
LINE
  5
9D02
330
9C89
100
AcDbEntity
  8
0
100
AcDbLine
 10
-2.12975234679356
 20
95.11698345874314
 30
0.0
 11
-31.82823715662853
 21
77.97055525926089
 31
0.0
  0
LINE
  5
9D03
330
9C89
100
AcDbEntity
  8
0
100
AcDbLine
 10
-0.7155387844204642
 20
97.56647320152636
 30
0.0
 11
-27.23204307891601
 21
112.8757840939212
 31
0.0
  0
LINE
  5
9D04
330
9C89
100
AcDbEntity
  8
0
100
AcDbLine
 10
-27.23204307891601
 20
112.8757840939212
 30
0.0
 11
-28.64625664128912
 21
112.0592875129934
 31
0.0
  0
ELLIPSE
  5
9D05
330
9C89
100
AcDbEntity
  8
0
100
AcDbEllipse
 10
31.45781975956745
 20
-46.34104918698536
 30
0.0
 11
1.249999999999871
 21
2.16506350946117
 31
0.0
210
0.0
220
0.0
230
1.0
 40
0.577350269189626
 41
3.742856870268578
 42
5.681921090500116
  0
ELLIPSE
  5
9D06
330
9C89
100
AcDbEntity
  8
0
100
AcDbEllipse
 10
32.87203332194054
 20
-47.15754576791309
 30
0.0
 11
-1.25
 21
-2.165063509461096
 31
0.0
210
0.0
220
0.0
230
0.9999999999999998
 40
0.577350269189626
 41
0.0
 42
6.283185307179586
  0
ELLIPSE
  5
9D07
330
9C89
100
AcDbEntity
  8
0
100
AcDbEllipse
 10
31.45781975956745
 20
-30.01111756843085
 30
0.0
 11
1.249999999999871
 21
2.16506350946117
 31
0.0
210
0.0
220
0.0
230
1.0
 40
0.577350269189626
 41
3.742856870268578
 42
5.681921090500118
  0
ELLIPSE
  5
9D08
330
9C89
100
AcDbEntity
  8
0
100
AcDbEllipse
 10
32.87203332194054
 20
-30.82761414935858
 30
0.0
 11
-1.25
 21
-2.165063509461096
 31
0.0
210
0.0
220
0.0
230
0.9999999999999998
 40
0.577350269189626
 41
0.0
 42
6.283185307179586
  0
ELLIPSE
  5
9D09
330
9C89
100
AcDbEntity
  8
0
100
AcDbEllipse
 10
31.45781975956745
 20
-13.68118594987632
 30
0.0
 11
1.249999999999871
 21
2.16506350946117
 31
0.0
210
0.0
220
0.0
230
1.0
 40
0.577350269189626
 41
3.742856870268578
 42
5.681921090500118
  0
ELLIPSE
  5
9D0A
330
9C89
100
AcDbEntity
  8
0
100
AcDbEllipse
 10
32.87203332194054
 20
-14.49768253080405
 30
0.0
 11
-1.25
 21
-2.165063509461096
 31
0.0
210
0.0
220
0.0
230
0.9999999999999998
 40
0.577350269189626
 41
0.0
 42
6.283185307179586
  0
ELLIPSE
  5
9D0B
330
9C89
100
AcDbEntity
  8
0
100
AcDbEllipse
 10
31.45781975956745
 20
2.648745668678191
 30
0.0
 11
1.249999999999871
 21
2.16506350946117
 31
0.0
210
0.0
220
0.0
230
1.0
 40
0.577350269189626
 41
3.742856870268578
 42
5.681921090500119
  0
ELLIPSE
  5
9D0C
330
9C89
100
AcDbEntity
  8
0
100
AcDbEllipse
 10
32.87203332194054
 20
1.832249087750463
 30
0.0
 11
-1.25
 21
-2.165063509461096
 31
0.0
210
0.0
220
0.0
230
0.9999999999999998
 40
0.577350269189626
 41
0.0
 42
6.283185307179586
  0
ELLIPSE
  5
9D0D
330
9C89
100
AcDbEntity
  8
0
100
AcDbEllipse
 10
31.45781975956745
 20
18.9786772872327
 30
0.0
 11
1.249999999999871
 21
2.16506350946117
 31
0.0
210
0.0
220
0.0
230
1.0
 40
0.577350269189626
 41
3.742856870268578
 42
5.681921090500118
  0
ELLIPSE
  5
9D0E
330
9C89
100
AcDbEntity
  8
0
100
AcDbEllipse
 10
32.87203332194054
 20
18.16218070630498
 30
0.0
 11
-1.25
 21
-2.165063509461096
 31
0.0
210
0.0
220
0.0
230
0.9999999999999998
 40
0.577350269189626
 41
0.0
 42
6.283185307179586
  0
ELLIPSE
  5
9D0F
330
9C89
100
AcDbEntity
  8
0
100
AcDbEllipse
 10
-26.52493629772944
 20
-4.699723559671324
 30
0.0
 11
1.249999999999871
 21
2.165063509461171
 31
0.0
210
0.0
220
0.0
230
1.0
 40
0.5773502691896257
 41
3.742856870268578
 42
5.681921090500114
  0
ELLIPSE
  5
9D10
330
9C89
100
AcDbEntity
  8
0
100
AcDbEllipse
 10
-25.11072273535635
 20
-5.516220140599052
 30
0.0
 11
1.249999999999999
 21
2.165063509461096
 31
0.0
210
0.0
220
0.0
230
1.0
 40
0.5773502691896258
 41
0.0
 42
6.283185307179586
  0
ELLIPSE
  5
9D11
330
9C89
100
AcDbEntity
  8
0
100
AcDbEllipse
 10
-26.52493629772944
 20
11.6302080588832
 30
0.0
 11
1.249999999999871
 21
2.165063509461171
 31
0.0
210
0.0
220
0.0
230
1.0
 40
0.5773502691896257
 41
3.742856870268578
 42
5.681921090500113
  0
ELLIPSE
  5
9D12
330
9C89
100
AcDbEntity
  8
0
100
AcDbEllipse
 10
-25.11072273535635
 20
10.81371147795546
 30
0.0
 11
1.249999999999999
 21
2.165063509461096
 31
0.0
210
0.0
220
0.0
230
1.0
 40
0.5773502691896258
 41
0.0
 42
6.283185307179586
  0
ELLIPSE
  5
9D13
330
9C89
100
AcDbEntity
  8
0
100
AcDbEllipse
 10
-26.52493629772944
 20
27.96013967743771
 30
0.0
 11
1.249999999999871
 21
2.165063509461171
 31
0.0
210
0.0
220
0.0
230
1.0
 40
0.5773502691896257
 41
3.742856870268578
 42
5.681921090500118
  0
ELLIPSE
  5
9D14
330
9C89
100
AcDbEntity
  8
0
100
AcDbEllipse
 10
-25.11072273535635
 20
27.14364309650999
 30
0.0
 11
1.249999999999999
 21
2.165063509461096
 31
0.0
210
0.0
220
0.0
230
1.0
 40
0.5773502691896258
 41
0.0
 42
6.283185307179586
  0
ELLIPSE
  5
9D15
330
9C89
100
AcDbEntity
  8
0
100
AcDbEllipse
 10
-26.52493629772944
 20
44.29007129599223
 30
0.0
 11
1.249999999999871
 21
2.165063509461171
 31
0.0
210
0.0
220
0.0
230
1.0
 40
0.5773502691896257
 41
3.742856870268578
 42
5.681921090500118
  0
ELLIPSE
  5
9D16
330
9C89
100
AcDbEntity
  8
0
100
AcDbEllipse
 10
-25.11072273535635
 20
43.47357471506449
 30
0.0
 11
1.249999999999999
 21
2.165063509461096
 31
0.0
210
0.0
220
0.0
230
1.0
 40
0.5773502691896258
 41
0.0
 42
6.283185307179586
  0
ELLIPSE
  5
9D17
330
9C89
100
AcDbEntity
  8
0
100
AcDbEllipse
 10
-26.52493629772944
 20
60.62000291454676
 30
0.0
 11
1.249999999999871
 21
2.165063509461171
 31
0.0
210
0.0
220
0.0
230
1.0
 40
0.5773502691896257
 41
3.742856870268578
 42
5.681921090500118
  0
ELLIPSE
  5
9D18
330
9C89
100
AcDbEntity
  8
0
100
AcDbEllipse
 10
-25.11072273535635
 20
59.80350633361902
 30
0.0
 11
1.249999999999999
 21
2.165063509461096
 31
0.0
210
0.0
220
0.0
230
1.0
 40
0.5773502691896258
 41
0.0
 42
6.283185307179586
  0
ELLIPSE
  5
9D19
330
9C89
100
AcDbEntity
  8
0
100
AcDbEllipse
 10
-26.52493629772944
 20
76.94993453310127
 30
0.0
 11
1.249999999999871
 21
2.165063509461171
 31
0.0
210
0.0
220
0.0
230
1.0
 40
0.5773502691896257
 41
3.742856870268578
 42
5.681921090500118
  0
ELLIPSE
  5
9D1A
330
9C89
100
AcDbEntity
  8
0
100
AcDbEllipse
 10
-25.11072273535635
 20
76.13343795217352
 30
0.0
 11
1.249999999999999
 21
2.165063509461096
 31
0.0
210
0.0
220
0.0
230
1.0
 40
0.5773502691896258
 41
0.0
 42
6.283185307179586
  0
ENDBLK
  5
9C8B
330
9C89
100
AcDbEntity
  8
0
100
AcDbBlockEnd
  0
ENDSEC
  0
SECTION
  2
ENTITIES
  0
INSERT
  5
9D1B
330
1F
100
AcDbEntity
  8
0
100
AcDbBlockReference
  2
SAE380_80_2-Front
 10
0.0
 20
0.0
 30
0.0
  0
INSERT
  5
9D1C
330
1F
100
AcDbEntity
  8
0
100
AcDbBlockReference
  2
SAE380_80_2-Left
 10
127.1
 20
0.0
 30
0.0
  0
INSERT
  5
9D1D
330
1F
100
AcDbEntity
  8
0
100
AcDbBlockReference
  2
SAE380_80_2-Right
 10
-127.1
 20
0.0
 30
0.0
  0
INSERT
  5
9D1E
330
1F
100
AcDbEntity
  8
0
100
AcDbBlockReference
  2
SAE380_80_2-Top
 10
0.0
 20
-47.6
 30
0.0
  0
INSERT
  5
9D1F
330
1F
100
AcDbEntity
  8
0
100
AcDbBlockReference
  2
SAE380_80_2-Bottom
 10
0.0
 20
195.6
 30
0.0
  0
INSERT
  5
9D20
330
1F
100
AcDbEntity
  8
0
100
AcDbBlockReference
  2
SAE380_80_2-ISO
 10
187.2125084040906
 20
-160.4757840939212
 30
0.0
  0
MTEXT
  5
9D21
330
1F
100
AcDbEntity
  8
0
100
AcDbMText
 10
0.0
 20
-179.2
 30
0.0
 40
15.2
 41
0.0
 71
     5
 72
     5
  1
SAE380/80/2
 73
     1
 44
1.0
1001
ACAD
1000
MTEXTBEGIN
1070
    73
1070
     1
1070
    44
1040
1.0
1070
    74
1070
     0
1000
MTEXTEND
  0
ENDSEC
  0
SECTION
  2
OBJECTS
  0
DICTIONARY
  5
C
330
0
100
AcDbDictionary
281
     1
  3
ACAD_CIP_PREVIOUS_PRODUCT_INFO
350
216
  3
ACAD_COLOR
350
6B
  3
ACAD_DETAILVIEWSTYLE
350
21B
  3
ACAD_GROUP
350
D
  3
ACAD_LAYOUT
350
1A
  3
ACAD_MATERIAL
350
6A
  3
ACAD_MLEADERSTYLE
350
12D
  3
ACAD_MLINESTYLE
350
17
  3
ACAD_PLOTSETTINGS
350
19
  3
ACAD_PLOTSTYLENAME
350
E
  3
ACAD_SCALELIST
350
10C
  3
ACAD_SECTIONVIEWSTYLE
350
219
  3
ACAD_TABLESTYLE
350
7E
  3
ACAD_VISUALSTYLE
350
EF
  3
ACDB_RECOMPOSE_DATA
350
9E22
  3
AcDbVariableDictionary
350
5E
  3
DWGPROPS
350
9E23
  0
DICTIONARY
  5
9D72
330
8
100
AcDbDictionary
280
     1
281
     1
  0
DICTIONARY
  5
1FF
330
2
100
AcDbDictionary
280
     1
281
     1
  3
ACAD_LAYERSTATES
360
200
  0
DICTIONARY
  5
13C
330
10
100
AcDbDictionary
280
     1
281
     1
  0
DICTIONARY
  5
1CE
330
1F
100
AcDbDictionary
280
     1
281
     1
  3
ACAD_LAYOUTSELFREF
360
9D7A
  0
DICTIONARY
  5
9D25
330
D2
100
AcDbDictionary
280
     1
281
     1
  3
ACAD_LAYOUTSELFREF
360
9D83
  0
DICTIONARY
  5
9D27
330
D6
100
AcDbDictionary
280
     1
281
     1
  3
ACAD_LAYOUTSELFREF
360
9D86
  0
XRECORD
  5
216
102
{ACAD_REACTORS
330
C
102
}
330
C
100
AcDbXrecord
280
     1
300
ACD
300
2021
300
87393ACD_2021_0F
  0
DICTIONARY
  5
6B
102
{ACAD_REACTORS
330
C
102
}
330
C
100
AcDbDictionary
281
     1
  0
DICTIONARY
  5
21B
102
{ACAD_REACTORS
330
C
102
}
330
C
100
AcDbDictionary
281
     1
  3
Metric50
350
21C
  0
DICTIONARY
  5
D
102
{ACAD_REACTORS
330
C
102
}
330
C
100
AcDbDictionary
281
     1
  0
DICTIONARY
  5
1A
102
{ACAD_REACTORS
330
C
102
}
330
C
100
AcDbDictionary
281
     1
  3
Layout1
350
D3
  3
Layout2
350
D7
  3
Model
350
22
  0
DICTIONARY
  5
6A
102
{ACAD_REACTORS
330
C
102
}
330
C
100
AcDbDictionary
281
     1
  3
ByBlock
350
ED
  3
ByLayer
350
EC
  3
Global
350
EE
  0
DICTIONARY
  5
12D
102
{ACAD_REACTORS
330
C
102
}
330
C
100
AcDbDictionary
281
     1
  3
Standard
350
12E
  0
DICTIONARY
  5
17
102
{ACAD_REACTORS
330
C
102
}
330
C
100
AcDbDictionary
281
     1
  3
Standard
350
18
  0
DICTIONARY
  5
19
102
{ACAD_REACTORS
330
C
102
}
330
C
100
AcDbDictionary
281
     1
  0
ACDBDICTIONARYWDFLT
  5
E
102
{ACAD_REACTORS
330
C
102
}
330
C
100
AcDbDictionary
281
     1
  3
Normal
350
F
100
AcDbDictionaryWithDefault
340
F
  0
DICTIONARY
  5
10C
102
{ACAD_REACTORS
330
C
102
}
330
C
100
AcDbDictionary
281
     1
  3
A0
350
10D
  3
A1
350
1BE
  3
A2
350
1BF
  3
A3
350
1C0
  3
A4
350
1C1
  3
A5
350
1C2
  3
A6
350
1C3
  3
A7
350
1C4
  3
A8
350
1C5
  3
A9
350
1C6
  3
B0
350
1C7
  3
B1
350
1C8
  3
B2
350
1C9
  3
B3
350
1CA
  3
B4
350
1CB
  3
B5
350
1CC
  3
B6
350
1CD
  0
DICTIONARY
  5
219
102
{ACAD_REACTORS
330
C
102
}
330
C
100
AcDbDictionary
281
     1
  3
Metric50
350
21A
  0
DICTIONARY
  5
7E
102
{ACAD_REACTORS
330
C
102
}
330
C
100
AcDbDictionary
281
     1
  3
Standard
350
7F
  0
DICTIONARY
  5
EF
102
{ACAD_REACTORS
330
C
102
}
330
C
100
AcDbDictionary
281
     1
  3
2dWireframe
350
F5
  3
Basic
350
F4
  3
Brighten
350
FB
  3
ColorChange
350
FF
  3
Conceptual
350
F8
  3
Dim
350
FA
  3
EdgeColorOff
350
1E6
  3
Facepattern
350
FE
  3
Flat
350
F0
  3
FlatWithEdges
350
F1
  3
Gouraud
350
F2
  3
GouraudWithEdges
350
F3
  3
Hidden
350
F7
  3
JitterOff
350
1E4
  3
Linepattern
350
FD
  3
OverhangOff
350
1E5
  3
Realistic
350
F9
  3
Shaded
350
1F3
  3
Shaded with edges
350
1F2
  3
Shades of Gray
350
1EF
  3
Sketchy
350
1F0
  3
Thicken
350
FC
  3
Wireframe
350
F6
  3
X-Ray
350
1F1
  0
XRECORD
  5
9E22
102
{ACAD_REACTORS
330
C
102
}
330
C
100
AcDbXrecord
280
     1
 90
        1
330
7F
  0
DICTIONARY
  5
5E
102
{ACAD_REACTORS
330
C
102
}
330
C
100
AcDbDictionary
281
     1
  3
CANNOSCALE
350
146
  3
CENTEREXE
350
259
  3
CENTERLTYPEFILE
350
25A
  3
CMLEADERSTYLE
350
145
  3
CTABLESTYLE
350
84
  3
CVIEWDETAILSTYLE
350
227
  3
CVIEWSECTIONSTYLE
350
228
  3
DIMASSOC
350
5F
  3
HIDETEXT
350
63
  3
INDEXCTL
350
9DCF
  3
LAYEREVAL
350
1AE
  3
LAYERNOTIFY
350
1AF
  3
LIGHTINGUNITS
350
9DCD
  3
MSLTSCALE
350
9DCC
  3
PSOLHEIGHT
350
9E1F
  3
PSOLWIDTH
350
9E1E
  3
SORTENTS
350
9DCE
  3
XCLIPFRAME
350
9E20
  0
XRECORD
  5
9E23
102
{ACAD_REACTORS
330
C
102
}
330
C
100
AcDbXrecord
280
     1
  1
DWGPROPS COOKIE
  2

  3

  4

  6

  7

  8
truole
  9

300
=
301
=
302
=
303
=
304
=
305
=
306
=
307
=
308
=
309
=
 40
0.0078240740740741
 41
2460398.356956019
 42
2460398.375127315
  1

 90
        0
  0
DICTIONARY
  5
200
102
{ACAD_REACTORS
330
1FF
102
}
330
1FF
100
AcDbDictionary
281
     1
  0
XRECORD
  5
9D7A
102
{ACAD_REACTORS
330
1CE
102
}
330
1CE
100
AcDbXrecord
280
     1
340
1F
  0
XRECORD
  5
9D83
102
{ACAD_REACTORS
330
9D25
102
}
330
9D25
100
AcDbXrecord
280
     1
340
D2
  0
XRECORD
  5
9D86
102
{ACAD_REACTORS
330
9D27
102
}
330
9D27
100
AcDbXrecord
280
     1
340
D6
  0
ACDBDETAILVIEWSTYLE
  5
21C
102
{ACAD_XDICTIONARY
360
9E62
102
}
102
{ACAD_REACTORS
330
21B
102
}
330
21B
100
AcDbModelDocViewStyle
 70
     0
  3
Metric50
290
     0
100
AcDbDetailViewStyle
 70
     0
 71
     0
 90
        3
 71
     1
340
11
 40
5.0
340
0
 40
5.0
300

 40
0.0
280
     1
 71
     2
340
16
 90
       25
 71
     3
340
11
 40
5.0
 90
        0
 40
15.0
 90
        1
300
%<\AcVar ViewDetailId>% (%<\AcVar ViewScale \f "%sn">%)
 71
     4
340
16
 90
       25
340
16
 90
       25
280
     0
  0
LAYOUT
  5
D3
102
{ACAD_XDICTIONARY
360
9E27
102
}
102
{ACAD_REACTORS
330
1A
102
}
330
1A
100
AcDbPlotSettings
  1

  2
C:\Documents and Settings\basas\Application Data\Autodesk\AutoCAD 2005\R16.1\enu\plotters\Default Windows System Printer.pc3
  4

  6

 40
0.0
 41
0.0
 42
0.0
 43
0.0
 44
0.0
 45
0.0
 46
0.0
 47
0.0
 48
0.0
 49
0.0
140
0.0
141
0.0
142
1.0
143
1.0
 70
   688
 72
     0
 73
     0
 74
     5
  7

 75
    16
147
1.0
148
0.0
149
0.0
100
AcDbLayout
  1
Layout1
 70
     1
 71
     1
 10
0.0
 20
0.0
 11
12.0
 21
9.0
 12
0.0
 22
0.0
 32
0.0
 14
0.0
 24
0.0
 34
0.0
 15
0.0
 25
0.0
 35
0.0
146
0.0
 13
0.0
 23
0.0
 33
0.0
 16
1.0
 26
0.0
 36
0.0
 17
0.0
 27
1.0
 37
0.0
 76
     0
330
D2
  0
LAYOUT
  5
D7
102
{ACAD_XDICTIONARY
360
9E29
102
}
102
{ACAD_REACTORS
330
1A
102
}
330
1A
100
AcDbPlotSettings
  1

  2
C:\Documents and Settings\basas\Application Data\Autodesk\AutoCAD 2005\R16.1\enu\plotters\Default Windows System Printer.pc3
  4

  6

 40
0.0
 41
0.0
 42
0.0
 43
0.0
 44
0.0
 45
0.0
 46
0.0
 47
0.0
 48
0.0
 49
0.0
140
0.0
141
0.0
142
1.0
143
1.0
 70
   688
 72
     0
 73
     0
 74
     5
  7

 75
    16
147
1.0
148
0.0
149
0.0
100
AcDbLayout
  1
Layout2
 70
     1
 71
     2
 10
0.0
 20
0.0
 11
12.0
 21
9.0
 12
0.0
 22
0.0
 32
0.0
 14
0.0
 24
0.0
 34
0.0
 15
0.0
 25
0.0
 35
0.0
146
0.0
 13
0.0
 23
0.0
 33
0.0
 16
1.0
 26
0.0
 36
0.0
 17
0.0
 27
1.0
 37
0.0
 76
     0
330
D6
  0
LAYOUT
  5
22
102
{ACAD_XDICTIONARY
360
9E24
102
}
102
{ACAD_REACTORS
330
1A
102
}
330
1A
100
AcDbPlotSettings
  1

  2
none_device
  4
ISO_A4_(210.00_x_297.00_MM)
  6

 40
7.5
 41
20.0
 42
7.5
 43
20.0
 44
210.0
 45
297.0
 46
11.54999923706054
 47
-13.65000009536743
 48
0.0
 49
0.0
140
0.0
141
0.0
142
1.0
143
8.704084754739808
 70
 11952
 72
     1
 73
     0
 74
     0
  7

 75
     0
147
0.1148885871608098
148
0.0
149
0.0
100
AcDbLayout
  1
Model
 70
     1
 71
     0
 10
0.0
 20
0.0
 11
12.0
 21
9.0
 12
0.0
 22
0.0
 32
0.0
 14
0.0
 24
0.0
 34
0.0
 15
0.0
 25
0.0
 35
0.0
146
0.0
 13
0.0
 23
0.0
 33
0.0
 16
1.0
 26
0.0
 36
0.0
 17
0.0
 27
1.0
 37
0.0
 76
     0
330
1F
331
EA
1001
ACAD_PSEXT
1000
None
1000
None
1000
Not applicable
1000
The layout will not be plotted unless a new plotter configuration name is selected.
1070
     0
  0
MATERIAL
  5
ED
102
{ACAD_XDICTIONARY
360
1F9
102
}
102
{ACAD_REACTORS
330
6A
102
}
330
6A
100
AcDbMaterial
  1
ByBlock
  0
MATERIAL
  5
EC
102
{ACAD_XDICTIONARY
360
1F7
102
}
102
{ACAD_REACTORS
330
6A
102
}
330
6A
100
AcDbMaterial
  1
ByLayer
  0
MATERIAL
  5
EE
102
{ACAD_XDICTIONARY
360
173
102
}
102
{ACAD_REACTORS
330
6A
102
}
330
6A
100
AcDbMaterial
  1
Global
 43
0.0007999999797903
 43
0.0
 43
0.0
 43
0.0
 43
0.0
 43
0.0007999999797903
 43
0.0
 43
0.0
 43
0.0
 43
0.0
 43
1.0
 43
0.0
 43
0.0
 43
0.0
 43
0.0
 43
1.0
 49
0.0007999999797903
 49
0.0
 49
0.0
 49
0.0
 49
0.0
 49
0.0007999999797903
 49
0.0
 49
0.0
 49
0.0
 49
0.0
 49
1.0
 49
0.0
 49
0.0
 49
0.0
 49
0.0
 49
1.0
142
0.0007999999797903
142
0.0
142
0.0
142
0.0
142
0.0
142
0.0007999999797903
142
0.0
142
0.0
142
0.0
142
0.0
142
1.0
142
0.0
142
0.0
142
0.0
142
0.0
142
1.0
144
0.0007999999797903
144
0.0
144
0.0
144
0.0
144
0.0
144
0.0007999999797903
144
0.0
144
0.0
144
0.0
144
0.0
144
1.0
144
0.0
144
0.0
144
0.0
144
0.0
144
1.0
1001
ACAD
1070
    -1
1070
     3
1070
     0
1000

1071
        0
1070
     0
  0
MLEADERSTYLE
  5
12E
102
{ACAD_XDICTIONARY
360
9E4E
102
}
102
{ACAD_REACTORS
330
12D
102
}
330
12D
100
AcDbMLeaderStyle
170
     2
171
     1
172
     0
 90
        2
 40
0.0
 41
0.0
173
     1
 91
-1056964608
340
14
 92
       -2
290
     1
 42
2.0
291
     1
 43
8.0
  3
Standard
 44
4.0
300

342
11
174
     1
178
     1
175
     1
176
     0
 93
-1056964608
 45
4.0
292
     0
297
     0
 46
4.0
 94
-1056964608
 47
1.0
 49
1.0
140
1.0
293
     1
141
0.0
294
     1
177
     0
142
1.0
295
     0
296
     0
143
3.75
1001
ACAD_MLEADERVER
1070
     2
  0
MLINESTYLE
  5
18
102
{ACAD_REACTORS
330
17
102
}
330
17
100
AcDbMlineStyle
  2
STANDARD
 70
     0
  3

 62
   256
 51
90.0
 52
90.0
 71
     2
 49
0.5
 62
   256
  6
BYLAYER
 49
-0.5
 62
   256
  6
BYLAYER
  0
ACDBPLACEHOLDER
  5
F
102
{ACAD_REACTORS
330
E
102
}
330
E
  0
SCALE
  5
10D
102
{ACAD_REACTORS
330
10C
102
}
330
10C
100
AcDbScale
 70
     0
300
1:1
140
1.0
141
1.0
290
     1
  0
SCALE
  5
1BE
102
{ACAD_REACTORS
330
10C
102
}
330
10C
100
AcDbScale
 70
     0
300
1:2
140
1.0
141
2.0
290
     0
  0
SCALE
  5
1BF
102
{ACAD_REACTORS
330
10C
102
}
330
10C
100
AcDbScale
 70
     0
300
1:4
140
1.0
141
4.0
290
     0
  0
SCALE
  5
1C0
102
{ACAD_REACTORS
330
10C
102
}
330
10C
100
AcDbScale
 70
     0
300
1:5
140
1.0
141
5.0
290
     0
  0
SCALE
  5
1C1
102
{ACAD_REACTORS
330
10C
102
}
330
10C
100
AcDbScale
 70
     0
300
1:8
140
1.0
141
8.0
290
     0
  0
SCALE
  5
1C2
102
{ACAD_REACTORS
330
10C
102
}
330
10C
100
AcDbScale
 70
     0
300
1:10
140
1.0
141
10.0
290
     0
  0
SCALE
  5
1C3
102
{ACAD_REACTORS
330
10C
102
}
330
10C
100
AcDbScale
 70
     0
300
1:16
140
1.0
141
16.0
290
     0
  0
SCALE
  5
1C4
102
{ACAD_REACTORS
330
10C
102
}
330
10C
100
AcDbScale
 70
     0
300
1:20
140
1.0
141
20.0
290
     0
  0
SCALE
  5
1C5
102
{ACAD_REACTORS
330
10C
102
}
330
10C
100
AcDbScale
 70
     0
300
1:30
140
1.0
141
30.0
290
     0
  0
SCALE
  5
1C6
102
{ACAD_REACTORS
330
10C
102
}
330
10C
100
AcDbScale
 70
     0
300
1:40
140
1.0
141
40.0
290
     0
  0
SCALE
  5
1C7
102
{ACAD_REACTORS
330
10C
102
}
330
10C
100
AcDbScale
 70
     0
300
1:50
140
1.0
141
50.0
290
     0
  0
SCALE
  5
1C8
102
{ACAD_REACTORS
330
10C
102
}
330
10C
100
AcDbScale
 70
     0
300
1:100
140
1.0
141
100.0
290
     0
  0
SCALE
  5
1C9
102
{ACAD_REACTORS
330
10C
102
}
330
10C
100
AcDbScale
 70
     0
300
2:1
140
2.0
141
1.0
290
     0
  0
SCALE
  5
1CA
102
{ACAD_REACTORS
330
10C
102
}
330
10C
100
AcDbScale
 70
     0
300
4:1
140
4.0
141
1.0
290
     0
  0
SCALE
  5
1CB
102
{ACAD_REACTORS
330
10C
102
}
330
10C
100
AcDbScale
 70
     0
300
8:1
140
8.0
141
1.0
290
     0
  0
SCALE
  5
1CC
102
{ACAD_REACTORS
330
10C
102
}
330
10C
100
AcDbScale
 70
     0
300
10:1
140
10.0
141
1.0
290
     0
  0
SCALE
  5
1CD
102
{ACAD_REACTORS
330
10C
102
}
330
10C
100
AcDbScale
 70
     0
300
100:1
140
100.0
141
1.0
290
     0
  0
ACDBSECTIONVIEWSTYLE
  5
21A
102
{ACAD_XDICTIONARY
360
9E60
102
}
102
{ACAD_REACTORS
330
219
102
}
330
219
100
AcDbModelDocViewStyle
 70
     0
  3
Metric50
290
     0
100
AcDbSectionViewStyle
 70
     0
 71
     0
 90
      102
 71
     1
340
11
 40
5.0
340
0
340
0
 40
5.0
300
I, O, Q, S, X, Z
 40
10.0
 90
        0
 40
2.5
 90
        0
 71
     2
340
16
 90
       25
340
16
 90
       50
 40
5.0
 40
2.5
 40
5.0
 71
     3
340
11
 40
5.0
 90
        0
 40
15.0
 90
        1
300
%<\AcVar ViewSectionStartId>%-%<\AcVar ViewSectionEndId>% (%<\AcVar ViewScale \f "%sn">%)
 71
     4
300
ANSI31
 40
1.0
 90
        0
290
     0
290
     0
 90
        6
 40
0.0
 40
1.570796326794896
 40
0.2617993877991494
 40
1.308996938995747
 40
-0.2617993877991494
 40
1.832595714594046
  0
TABLESTYLE
  5
7F
102
{ACAD_XDICTIONARY
360
162
102
}
102
{ACAD_REACTORS
330
7E
102
}
330
7E
100
AcDbTableStyle
  3
Standard
 70
     0
 71
     0
 40
1.5
 41
1.5
280
     0
281
     0
  7
Standard
140
4.5
170
     2
 62
     0
 63
     7
283
     0
274
    -2
284
     1
 64
     0
275
    -2
285
     1
 65
     0
276
    -2
286
     1
 66
     0
277
    -2
287
     1
 67
     0
278
    -2
288
     1
 68
     0
279
    -2
289
     1
 69
     0
  7
Standard
140
6.0
170
     5
 62
     0
 63
     7
283
     0
274
    -2
284
     1
 64
     0
275
    -2
285
     1
 65
     0
276
    -2
286
     1
 66
     0
277
    -2
287
     1
 67
     0
278
    -2
288
     1
 68
     0
279
    -2
289
     1
 69
     0
  7
Standard
140
4.5
170
     5
 62
     0
 63
     7
283
     0
274
    -2
284
     1
 64
     0
275
    -2
285
     1
 65
     0
276
    -2
286
     1
 66
     0
277
    -2
287
     1
 67
     0
278
    -2
288
     1
 68
     0
279
    -2
289
     1
 69
     0
  0
VISUALSTYLE
  5
F5
102
{ACAD_XDICTIONARY
360
9E38
102
}
102
{ACAD_REACTORS
330
EF
102
}
330
EF
100
AcDbVisualStyle
  2
2dWireframe
 70
     4
 71
     0
 72
     2
 73
     1
 90
        0
 40
-0.6
 41
-30.0
 62
     5
 63
     7
 74
     1
 91
        4
 64
     7
 65
   257
 75
     1
175
     1
 42
1.0
 92
        0
 66
   257
 43
1.0
 76
     1
 77
     6
 78
     2
 67
     7
 79
     5
170
     0
171
     0
290
     0
174
     0
 93
        1
 44
0.0
173
     0
291
     0
 45
0.0
1001
ACAD
1000
AcDbSavedByObjectVersion
1070
     0
  0
VISUALSTYLE
  5
F4
102
{ACAD_XDICTIONARY
360
9E36
102
}
102
{ACAD_REACTORS
330
EF
102
}
330
EF
100
AcDbVisualStyle
  2
Basic
 70
     7
 71
     1
 72
     0
 73
     1
 90
        0
 40
-0.6
 41
-30.0
 62
     5
 63
     7
 74
     0
 91
        4
 64
     7
 65
   257
 75
     1
175
     1
 42
1.0
 92
        8
 66
     7
 43
1.0
 76
     1
 77
     6
 78
     2
 67
     7
 79
     5
170
     0
171
     0
290
     0
174
     0
 93
        1
 44
0.0
173
     0
291
     1
 45
0.0
1001
ACAD
1000
AcDbSavedByObjectVersion
1070
     0
  0
VISUALSTYLE
  5
FB
102
{ACAD_XDICTIONARY
360
9E44
102
}
102
{ACAD_REACTORS
330
EF
102
}
330
EF
100
AcDbVisualStyle
  2
Brighten
 70
    12
 71
     2
 72
     2
 73
     1
 90
        0
 40
-0.6
 41
-30.0
 62
     5
 63
     7
 74
     1
 91
        4
 64
     7
 65
   257
 75
     1
175
     1
 42
1.0
 92
        8
 66
     7
 43
1.0
 76
     1
 77
     6
 78
     2
 67
     7
 79
     5
170
     0
171
     0
290
     0
174
     0
 93
        1
 44
50.0
173
     0
291
     1
 45
0.0
1001
ACAD
1000
AcDbSavedByObjectVersion
1070
     0
  0
VISUALSTYLE
  5
FF
102
{ACAD_XDICTIONARY
360
9E4C
102
}
102
{ACAD_REACTORS
330
EF
102
}
330
EF
100
AcDbVisualStyle
  2
ColorChange
 70
    16
 71
     2
 72
     2
 73
     3
 90
        0
 40
-0.6
 41
-30.0
 62
     5
 63
     8
 74
     1
 91
        4
 64
     7
 65
   257
 75
     1
175
     1
 42
1.0
 92
        8
 66
     8
 43
1.0
 76
     1
 77
     6
 78
     2
 67
     7
 79
     5
170
     0
171
     0
290
     0
174
     0
 93
        1
 44
0.0
173
     0
291
     1
 45
0.0
1001
ACAD
1000
AcDbSavedByObjectVersion
1070
     0
  0
VISUALSTYLE
  5
F8
102
{ACAD_XDICTIONARY
360
9E3E
102
}
102
{ACAD_REACTORS
330
EF
102
}
330
EF
100
AcDbVisualStyle
  2
Conceptual
 70
     9
 71
     3
 72
     2
 73
     1
 90
        0
 40
-0.6
 41
-30.0
 62
     5
 63
     7
 74
     2
 91
        2
 64
     7
 65
   257
 75
     1
175
     1
 42
40.0
 92
        8
 66
     7
 43
1.0
 76
     1
 77
     6
 78
     2
 67
     7
 79
     3
170
     0
171
     0
290
     0
174
     0
 93
        1
 44
0.0
173
     0
291
     0
 45
0.0
1001
ACAD
1000
AcDbSavedByObjectVersion
1070
     0
  0
VISUALSTYLE
  5
FA
102
{ACAD_XDICTIONARY
360
9E42
102
}
102
{ACAD_REACTORS
330
EF
102
}
330
EF
100
AcDbVisualStyle
  2
Dim
 70
    11
 71
     2
 72
     2
 73
     1
 90
        0
 40
-0.6
 41
-30.0
 62
     5
 63
     7
 74
     1
 91
        4
 64
     7
 65
   257
 75
     1
175
     1
 42
1.0
 92
        8
 66
     7
 43
1.0
 76
     1
 77
     6
 78
     2
 67
     7
 79
     5
170
     0
171
     0
290
     0
174
     0
 93
        1
 44
-50.0
173
     0
291
     1
 45
0.0
1001
ACAD
1000
AcDbSavedByObjectVersion
1070
     0
  0
VISUALSTYLE
  5
1E6
102
{ACAD_XDICTIONARY
360
9E54
102
}
102
{ACAD_REACTORS
330
EF
102
}
330
EF
100
AcDbVisualStyle
  2
EdgeColorOff
 70
    22
 71
     2
 72
     2
 73
     0
 90
        0
 40
-0.6
 41
-30.0
 62
     5
 63
     7
 74
     1
 91
        4
 64
     7
 65
   257
 75
     1
175
     1
 42
1.0
 92
        8
 66
     7
 43
1.0
 76
     1
 77
     6
 78
     2
 67
     7
 79
     5
170
     0
171
     0
290
     0
174
     0
 93
        1
 44
0.0
173
     0
291
     1
 45
0.0
1001
ACAD
1000
AcDbSavedByObjectVersion
1070
     0
  0
VISUALSTYLE
  5
FE
102
{ACAD_XDICTIONARY
360
9E4A
102
}
102
{ACAD_REACTORS
330
EF
102
}
330
EF
100
AcDbVisualStyle
  2
Facepattern
 70
    15
 71
     2
 72
     2
 73
     1
 90
        0
 40
-0.6
 41
-30.0
 62
     5
 63
     7
 74
     1
 91
        4
 64
     7
 65
   257
 75
     1
175
     1
 42
1.0
 92
        8
 66
     7
 43
1.0
 76
     1
 77
     6
 78
     2
 67
     7
 79
     5
170
     0
171
     0
290
     0
174
     0
 93
        1
 44
0.0
173
     0
291
     1
 45
0.0
1001
ACAD
1000
AcDbSavedByObjectVersion
1070
     0
  0
VISUALSTYLE
  5
F0
102
{ACAD_XDICTIONARY
360
9E2E
102
}
102
{ACAD_REACTORS
330
EF
102
}
330
EF
100
AcDbVisualStyle
  2
Flat
 70
     0
 71
     2
 72
     1
 73
     1
 90
        2
 40
-0.6
 41
30.0
 62
     5
 63
     7
 74
     0
 91
        0
 64
     7
 65
   257
 75
     1
175
     1
 42
1.0
 92
        8
 66
     7
 43
1.0
 76
     1
 77
     6
 78
     2
 67
     7
 79
     5
170
     0
171
     0
290
     0
174
     0
 93
       13
 44
0.0
173
     0
291
     1
 45
0.0
1001
ACAD
1000
AcDbSavedByObjectVersion
1070
     0
  0
VISUALSTYLE
  5
F1
102
{ACAD_XDICTIONARY
360
9E30
102
}
102
{ACAD_REACTORS
330
EF
102
}
330
EF
100
AcDbVisualStyle
  2
FlatWithEdges
 70
     1
 71
     2
 72
     1
 73
     1
 90
        2
 40
-0.6
 41
30.0
 62
     5
 63
     7
 74
     1
 91
        0
 64
     7
 65
   257
 75
     1
175
     1
 42
1.0
 92
        0
 66
   257
 43
1.0
 76
     1
 77
     6
 78
     2
 67
     7
 79
     5
170
     0
171
     0
290
     0
174
     0
 93
       13
 44
0.0
173
     0
291
     1
 45
0.0
1001
ACAD
1000
AcDbSavedByObjectVersion
1070
     0
  0
VISUALSTYLE
  5
F2
102
{ACAD_XDICTIONARY
360
9E32
102
}
102
{ACAD_REACTORS
330
EF
102
}
330
EF
100
AcDbVisualStyle
  2
Gouraud
 70
     2
 71
     2
 72
     2
 73
     1
 90
        2
 40
-0.6
 41
30.0
 62
     5
 63
     7
 74
     0
 91
        0
 64
     7
 65
   257
 75
     1
175
     1
 42
1.0
 92
        0
 66
     7
 43
1.0
 76
     1
 77
     6
 78
     2
 67
     7
 79
     5
170
     0
171
     0
290
     0
174
     0
 93
       13
 44
0.0
173
     0
291
     1
 45
0.0
1001
ACAD
1000
AcDbSavedByObjectVersion
1070
     0
  0
VISUALSTYLE
  5
F3
102
{ACAD_XDICTIONARY
360
9E34
102
}
102
{ACAD_REACTORS
330
EF
102
}
330
EF
100
AcDbVisualStyle
  2
GouraudWithEdges
 70
     3
 71
     2
 72
     2
 73
     1
 90
        2
 40
-0.6
 41
30.0
 62
     5
 63
     7
 74
     1
 91
        0
 64
     7
 65
   257
 75
     1
175
     1
 42
1.0
 92
        0
 66
   257
 43
1.0
 76
     1
 77
     6
 78
     2
 67
     7
 79
     5
170
     0
171
     0
290
     0
174
     0
 93
       13
 44
0.0
173
     0
291
     1
 45
0.0
1001
ACAD
1000
AcDbSavedByObjectVersion
1070
     0
  0
VISUALSTYLE
  5
F7
102
{ACAD_XDICTIONARY
360
9E3C
102
}
102
{ACAD_REACTORS
330
EF
102
}
330
EF
100
AcDbVisualStyle
  2
Hidden
 70
     6
 71
     1
 72
     2
 73
     2
 90
        0
 40
-0.6
 41
-30.0
 62
     5
 63
     7
 74
     2
 91
        2
 64
     7
 65
   257
 75
     2
175
     1
 42
40.0
 92
        0
 66
   257
 43
1.0
 76
     1
 77
     6
 78
     2
 67
     7
 79
     3
170
     0
171
     0
290
     0
174
     0
 93
        1
 44
0.0
173
     0
291
     0
 45
0.0
1001
ACAD
1000
AcDbSavedByObjectVersion
1070
     0
  0
VISUALSTYLE
  5
1E4
102
{ACAD_XDICTIONARY
360
9E50
102
}
102
{ACAD_REACTORS
330
EF
102
}
330
EF
100
AcDbVisualStyle
  2
JitterOff
 70
    20
 71
     2
 72
     2
 73
     0
 90
        0
 40
-0.6
 41
-30.0
 62
     5
 63
     7
 74
     1
 91
        4
 64
     7
 65
   257
 75
     1
175
     1
 42
1.0
 92
       10
 66
     7
 43
1.0
 76
     1
 77
     6
 78
     2
 67
     7
 79
     5
170
     0
171
     0
290
     0
174
     0
 93
        1
 44
0.0
173
     0
291
     1
 45
0.0
1001
ACAD
1000
AcDbSavedByObjectVersion
1070
     0
  0
VISUALSTYLE
  5
FD
102
{ACAD_XDICTIONARY
360
9E48
102
}
102
{ACAD_REACTORS
330
EF
102
}
330
EF
100
AcDbVisualStyle
  2
Linepattern
 70
    14
 71
     2
 72
     2
 73
     1
 90
        0
 40
-0.6
 41
-30.0
 62
     5
 63
     7
 74
     1
 91
        4
 64
     7
 65
   257
 75
     7
175
     7
 42
1.0
 92
        8
 66
     7
 43
1.0
 76
     1
 77
     6
 78
     2
 67
     7
 79
     5
170
     0
171
     0
290
     0
174
     0
 93
        1
 44
0.0
173
     0
291
     1
 45
0.0
1001
ACAD
1000
AcDbSavedByObjectVersion
1070
     0
  0
VISUALSTYLE
  5
1E5
102
{ACAD_XDICTIONARY
360
9E52
102
}
102
{ACAD_REACTORS
330
EF
102
}
330
EF
100
AcDbVisualStyle
  2
OverhangOff
 70
    21
 71
     2
 72
     2
 73
     0
 90
        0
 40
-0.6
 41
-30.0
 62
     5
 63
     7
 74
     1
 91
        4
 64
     7
 65
   257
 75
     1
175
     1
 42
1.0
 92
        9
 66
     7
 43
1.0
 76
     1
 77
     6
 78
     2
 67
     7
 79
     5
170
     0
171
     0
290
     0
174
     0
 93
        1
 44
0.0
173
     0
291
     1
 45
0.0
1001
ACAD
1000
AcDbSavedByObjectVersion
1070
     0
  0
VISUALSTYLE
  5
F9
102
{ACAD_XDICTIONARY
360
9E40
102
}
102
{ACAD_REACTORS
330
EF
102
}
330
EF
100
AcDbVisualStyle
  2
Realistic
 70
     8
 71
     2
 72
     2
 73
     0
 90
        2
 40
-0.6
 41
30.0
 62
     5
 63
     7
 74
     0
 91
        0
 64
     7
 65
   257
 75
     1
175
     1
 42
1.0
 92
        8
 66
   257
 43
1.0
 76
     1
 77
     6
 78
     2
 67
     7
 79
     3
170
     0
171
     0
290
     0
174
     0
 93
       13
 44
0.0
173
     0
291
     0
 45
0.0
1001
ACAD
1000
AcDbSavedByObjectVersion
1070
     0
  0
VISUALSTYLE
  5
1F3
102
{ACAD_XDICTIONARY
360
9E5E
102
}
102
{ACAD_REACTORS
330
EF
102
}
330
EF
100
AcDbVisualStyle
  2
Shaded
 70
    27
 71
     2
 72
     2
 73
     1
 90
        2
 40
-0.6
 41
30.0
 62
     5
 63
     7
 74
     0
 91
        4
 64
     7
 65
   257
 75
     1
175
     1
 42
1.0
 92
        8
 66
   257
 43
1.0
 76
     1
 77
     6
 78
     2
 67
     8
 79
     3
170
     0
171
     0
290
     0
174
     0
 93
        5
 44
0.0
173
     0
291
     0
 45
0.0
1001
ACAD
1000
AcDbSavedByObjectVersion
1070
     0
  0
VISUALSTYLE
  5
1F2
102
{ACAD_XDICTIONARY
360
9E5C
102
}
102
{ACAD_REACTORS
330
EF
102
}
330
EF
100
AcDbVisualStyle
  2
Shaded with edges
 70
    26
 71
     2
 72
     2
 73
     1
 90
        2
 40
-0.6
 41
30.0
 62
     5
 63
     7
 74
     1
 91
        2
 64
     7
 65
   257
 75
     2
175
     1
 42
1.0
 92
        8
 66
   257
 43
1.0
 76
     1
 77
     6
 78
     2
 67
     7
 79
     3
170
     0
171
     0
290
     0
174
     0
 93
        5
 44
0.0
173
     0
291
     0
 45
0.0
1001
ACAD
1000
AcDbSavedByObjectVersion
1070
     0
  0
VISUALSTYLE
  5
1EF
102
{ACAD_XDICTIONARY
360
9E56
102
}
102
{ACAD_REACTORS
330
EF
102
}
330
EF
100
AcDbVisualStyle
  2
Shades of Gray
 70
    23
 71
     2
 72
     2
 73
     3
 90
        0
 40
-0.6
 41
-30.0
 62
     5
 63
     7
 74
     2
 91
        2
 64
     7
 65
     7
 75
     1
175
     1
 42
40.0
 92
        8
 66
     7
 43
1.0
 76
     1
 77
     6
 78
     2
 67
     7
 79
     3
170
     0
171
     0
290
     0
174
     0
 93
        1
 44
0.0
173
     0
291
     0
 45
0.0
1001
ACAD
1000
AcDbSavedByObjectVersion
1070
     0
  0
VISUALSTYLE
  5
1F0
102
{ACAD_XDICTIONARY
360
9E58
102
}
102
{ACAD_REACTORS
330
EF
102
}
330
EF
100
AcDbVisualStyle
  2
Sketchy
 70
    24
 71
     1
 72
     2
 73
     2
 90
        0
 40
-0.6
 41
-30.0
 62
     5
 63
     7
 74
     2
 91
        2
 64
     7
 65
     7
 75
     1
175
     1
 42
40.0
 92
       11
 66
     7
 43
1.0
 76
     1
 77
     6
 78
     2
 67
     7
 79
     6
170
     0
171
     0
290
     0
174
     0
 93
        1
 44
0.0
173
     0
291
     0
 45
0.0
1001
ACAD
1000
AcDbSavedByObjectVersion
1070
     0
  0
VISUALSTYLE
  5
FC
102
{ACAD_XDICTIONARY
360
9E46
102
}
102
{ACAD_REACTORS
330
EF
102
}
330
EF
100
AcDbVisualStyle
  2
Thicken
 70
    13
 71
     2
 72
     2
 73
     1
 90
        0
 40
-0.6
 41
-30.0
 62
     5
 63
     7
 74
     1
 91
        4
 64
     7
 65
   257
 75
     1
175
     1
 42
1.0
 92
       12
 66
     7
 43
1.0
 76
     1
 77
     6
 78
     2
 67
     7
 79
     5
170
     0
171
     0
290
     0
174
     0
 93
        1
 44
0.0
173
     0
291
     1
 45
0.0
1001
ACAD
1000
AcDbSavedByObjectVersion
1070
     0
  0
VISUALSTYLE
  5
F6
102
{ACAD_XDICTIONARY
360
9E3A
102
}
102
{ACAD_REACTORS
330
EF
102
}
330
EF
100
AcDbVisualStyle
  2
Wireframe
 70
     5
 71
     0
 72
     2
 73
     0
 90
        0
 40
-0.6
 41
-30.0
 62
     5
 63
     7
 74
     1
 91
        4
 64
     7
 65
   257
 75
     1
175
     1
 42
1.0
 92
        0
 66
   257
 43
1.0
 76
     1
 77
     6
 78
     2
 67
     7
 79
     3
170
     0
171
     0
290
     0
174
     0
 93
        1
 44
0.0
173
     0
291
     0
 45
0.0
1001
ACAD
1000
AcDbSavedByObjectVersion
1070
     0
  0
VISUALSTYLE
  5
1F1
102
{ACAD_XDICTIONARY
360
9E5A
102
}
102
{ACAD_REACTORS
330
EF
102
}
330
EF
100
AcDbVisualStyle
  2
X-Ray
 70
    25
 71
     2
 72
     2
 73
     1
 90
        1
 40
0.5
 41
-30.0
 62
     5
 63
     7
 74
     1
 91
        0
 64
     7
 65
   257
 75
     1
175
     1
 42
1.0
 92
        8
 66
     7
 43
1.0
 76
     1
 77
     6
 78
     2
 67
     7
 79
     3
170
     0
171
     0
290
     0
174
     0
 93
       13
 44
0.0
173
     0
291
     0
 45
0.0
1001
ACAD
1000
AcDbSavedByObjectVersion
1070
     0
  0
DICTIONARYVAR
  5
146
102
{ACAD_REACTORS
330
5E
102
}
330
5E
100
DictionaryVariables
280
     0
  1
1:1
  0
DICTIONARYVAR
  5
259
102
{ACAD_REACTORS
330
5E
102
}
330
5E
100
DictionaryVariables
280
     0
  1
3.500000
  0
DICTIONARYVAR
  5
25A
102
{ACAD_REACTORS
330
5E
102
}
330
5E
100
DictionaryVariables
280
     0
  1
acadiso.lin
  0
DICTIONARYVAR
  5
145
102
{ACAD_REACTORS
330
5E
102
}
330
5E
100
DictionaryVariables
280
     0
  1
STANDARD
  0
DICTIONARYVAR
  5
84
102
{ACAD_REACTORS
330
5E
102
}
330
5E
100
DictionaryVariables
280
     0
  1
STANDARD
  0
DICTIONARYVAR
  5
227
102
{ACAD_REACTORS
330
5E
102
}
330
5E
100
DictionaryVariables
280
     0
  1
Metric50
  0
DICTIONARYVAR
  5
228
102
{ACAD_REACTORS
330
5E
102
}
330
5E
100
DictionaryVariables
280
     0
  1
Metric50
  0
DICTIONARYVAR
  5
5F
102
{ACAD_REACTORS
330
5E
102
}
330
5E
100
DictionaryVariables
280
     0
  1
2
  0
DICTIONARYVAR
  5
63
102
{ACAD_REACTORS
330
5E
102
}
330
5E
100
DictionaryVariables
280
     0
  1
1
  0
DICTIONARYVAR
  5
9DCF
102
{ACAD_REACTORS
330
5E
102
}
330
5E
100
DictionaryVariables
280
     0
  1
0
  0
DICTIONARYVAR
  5
1AE
102
{ACAD_REACTORS
330
5E
102
}
330
5E
100
DictionaryVariables
280
     0
  1
0
  0
DICTIONARYVAR
  5
1AF
102
{ACAD_REACTORS
330
5E
102
}
330
5E
100
DictionaryVariables
280
     0
  1
0
  0
DICTIONARYVAR
  5
9DCD
102
{ACAD_REACTORS
330
5E
102
}
330
5E
100
DictionaryVariables
280
     0
  1
2
  0
DICTIONARYVAR
  5
9DCC
102
{ACAD_REACTORS
330
5E
102
}
330
5E
100
DictionaryVariables
280
     0
  1
1
  0
DICTIONARYVAR
  5
9E1F
102
{ACAD_REACTORS
330
5E
102
}
330
5E
100
DictionaryVariables
280
     0
  1
80.000000
  0
DICTIONARYVAR
  5
9E1E
102
{ACAD_REACTORS
330
5E
102
}
330
5E
100
DictionaryVariables
280
     0
  1
5.000000
  0
DICTIONARYVAR
  5
9DCE
102
{ACAD_REACTORS
330
5E
102
}
330
5E
100
DictionaryVariables
280
     0
  1
127
  0
DICTIONARYVAR
  5
9E20
102
{ACAD_REACTORS
330
5E
102
}
330
5E
100
DictionaryVariables
280
     0
  1
2
  0
DICTIONARY
  5
9E62
330
21C
100
AcDbDictionary
280
     1
281
     1
  3
ACAD_XREC_ROUNDTRIP
360
9E63
  0
DICTIONARY
  5
9E27
330
D3
100
AcDbDictionary
280
     1
281
     1
  3
ACAD_XREC_ROUNDTRIP
360
9E28
  0
DICTIONARY
  5
9E29
330
D7
100
AcDbDictionary
280
     1
281
     1
  3
ACAD_XREC_ROUNDTRIP
360
9E2A
  0
DICTIONARY
  5
9E24
330
22
100
AcDbDictionary
280
     1
281
     1
  3
ACAD_XREC_ROUNDTRIP
360
9E25
  0
DICTIONARY
  5
1F9
330
ED
100
AcDbDictionary
280
     1
281
     1
  3
ACAD_XREC_ROUNDTRIP
360
9E2C
  3
FBXASSET
360
1FA
  0
DICTIONARY
  5
1F7
330
EC
100
AcDbDictionary
280
     1
281
     1
  3
ACAD_XREC_ROUNDTRIP
360
9E2B
  3
FBXASSET
360
1F8
  0
DICTIONARY
  5
173
330
EE
100
AcDbDictionary
280
     1
281
     1
  3
ACAD_XREC_ROUNDTRIP
360
9E2D
  3
BUMPTILE
360
175
  3
DIFFUSETILE
360
174
  3
FBXASSET
360
1FB
  3
OPACITYTILE
360
176
  3
REFLECTIONTILE
360
177
  0
DICTIONARY
  5
9E4E
330
12E
100
AcDbDictionary
280
     1
281
     1
  3
ACAD_XREC_ROUNDTRIP
360
9E4F
  0
DICTIONARY
  5
9E60
330
21A
100
AcDbDictionary
280
     1
281
     1
  3
ACAD_XREC_ROUNDTRIP
360
9E61
  0
DICTIONARY
  5
162
330
7F
100
AcDbDictionary
280
     1
281
     1
  3
ACAD_ROUNDTRIP_2008_TABLESTYLE_CELLSTYLEMAP
360
9E21
  3
ACAD_XREC_ROUNDTRIP
360
9E26
  0
DICTIONARY
  5
9E38
330
F5
100
AcDbDictionary
280
     1
281
     1
  3
ACAD_XREC_ROUNDTRIP
360
9E39
  0
DICTIONARY
  5
9E36
330
F4
100
AcDbDictionary
280
     1
281
     1
  3
ACAD_XREC_ROUNDTRIP
360
9E37
  0
DICTIONARY
  5
9E44
330
FB
100
AcDbDictionary
280
     1
281
     1
  3
ACAD_XREC_ROUNDTRIP
360
9E45
  0
DICTIONARY
  5
9E4C
330
FF
100
AcDbDictionary
280
     1
281
     1
  3
ACAD_XREC_ROUNDTRIP
360
9E4D
  0
DICTIONARY
  5
9E3E
330
F8
100
AcDbDictionary
280
     1
281
     1
  3
ACAD_XREC_ROUNDTRIP
360
9E3F
  0
DICTIONARY
  5
9E42
330
FA
100
AcDbDictionary
280
     1
281
     1
  3
ACAD_XREC_ROUNDTRIP
360
9E43
  0
DICTIONARY
  5
9E54
330
1E6
100
AcDbDictionary
280
     1
281
     1
  3
ACAD_XREC_ROUNDTRIP
360
9E55
  0
DICTIONARY
  5
9E4A
330
FE
100
AcDbDictionary
280
     1
281
     1
  3
ACAD_XREC_ROUNDTRIP
360
9E4B
  0
DICTIONARY
  5
9E2E
330
F0
100
AcDbDictionary
280
     1
281
     1
  3
ACAD_XREC_ROUNDTRIP
360
9E2F
  0
DICTIONARY
  5
9E30
330
F1
100
AcDbDictionary
280
     1
281
     1
  3
ACAD_XREC_ROUNDTRIP
360
9E31
  0
DICTIONARY
  5
9E32
330
F2
100
AcDbDictionary
280
     1
281
     1
  3
ACAD_XREC_ROUNDTRIP
360
9E33
  0
DICTIONARY
  5
9E34
330
F3
100
AcDbDictionary
280
     1
281
     1
  3
ACAD_XREC_ROUNDTRIP
360
9E35
  0
DICTIONARY
  5
9E3C
330
F7
100
AcDbDictionary
280
     1
281
     1
  3
ACAD_XREC_ROUNDTRIP
360
9E3D
  0
DICTIONARY
  5
9E50
330
1E4
100
AcDbDictionary
280
     1
281
     1
  3
ACAD_XREC_ROUNDTRIP
360
9E51
  0
DICTIONARY
  5
9E48
330
FD
100
AcDbDictionary
280
     1
281
     1
  3
ACAD_XREC_ROUNDTRIP
360
9E49
  0
DICTIONARY
  5
9E52
330
1E5
100
AcDbDictionary
280
     1
281
     1
  3
ACAD_XREC_ROUNDTRIP
360
9E53
  0
DICTIONARY
  5
9E40
330
F9
100
AcDbDictionary
280
     1
281
     1
  3
ACAD_XREC_ROUNDTRIP
360
9E41
  0
DICTIONARY
  5
9E5E
330
1F3
100
AcDbDictionary
280
     1
281
     1
  3
ACAD_XREC_ROUNDTRIP
360
9E5F
  0
DICTIONARY
  5
9E5C
330
1F2
100
AcDbDictionary
280
     1
281
     1
  3
ACAD_XREC_ROUNDTRIP
360
9E5D
  0
DICTIONARY
  5
9E56
330
1EF
100
AcDbDictionary
280
     1
281
     1
  3
ACAD_XREC_ROUNDTRIP
360
9E57
  0
DICTIONARY
  5
9E58
330
1F0
100
AcDbDictionary
280
     1
281
     1
  3
ACAD_XREC_ROUNDTRIP
360
9E59
  0
DICTIONARY
  5
9E46
330
FC
100
AcDbDictionary
280
     1
281
     1
  3
ACAD_XREC_ROUNDTRIP
360
9E47
  0
DICTIONARY
  5
9E3A
330
F6
100
AcDbDictionary
280
     1
281
     1
  3
ACAD_XREC_ROUNDTRIP
360
9E3B
  0
DICTIONARY
  5
9E5A
330
1F1
100
AcDbDictionary
280
     1
281
     1
  3
ACAD_XREC_ROUNDTRIP
360
9E5B
  0
XRECORD
  5
9E63
102
{ACAD_REACTORS
330
9E62
102
}
330
9E62
100
AcDbXrecord
280
     1
102
DISPLAYNAME
  1
Metric50
102
FLAGS
 90
        0
  0
XRECORD
  5
9E28
102
{ACAD_REACTORS
330
9E27
102
}
330
9E27
100
AcDbXrecord
280
     1
102
SHADEPLOT
 70
     0
102
SHADEPLOTRESLEVEL
 70
     2
102
SHADEPLOTCUSTOMDPI
 70
   300
  0
XRECORD
  5
9E2A
102
{ACAD_REACTORS
330
9E29
102
}
330
9E29
100
AcDbXrecord
280
     1
102
SHADEPLOT
 70
     0
102
SHADEPLOTRESLEVEL
 70
     2
102
SHADEPLOTCUSTOMDPI
 70
   300
  0
XRECORD
  5
9E25
102
{ACAD_REACTORS
330
9E24
102
}
330
9E24
100
AcDbXrecord
280
     1
102
SHADEPLOT
 70
     0
102
SHADEPLOTRESLEVEL
 70
     2
102
SHADEPLOTCUSTOMDPI
 70
   300
  0
XRECORD
  5
9E2C
102
{ACAD_REACTORS
330
1F9
102
}
330
1F9
100
AcDbXrecord
280
     1
102
MATERIAL
148
0.0
149
0.0
149
0.0
 93
        0
 94
       63
282
     0
 72
     1
 77
     1
171
     1
175
     1
179
     1
273
     0
  0
XRECORD
  5
1FA
102
{ACAD_REACTORS
330
1F9
102
}
330
1F9
100
AcDbXrecord
280
     1
 70
     1
 90
429727718
  1
D62C5603-E3A1-4AEA-B7FB-FE5D8D0755AF
310
504B03040A0000080000CC70623B3DEE336E79000000790000001B0000006175746F6465736B2D64657369676E2D7061636B6167652E786D6C3C3F786D6C2076657273696F6E3D22312E302220656E636F64696E673D227574662D3822203F3E3C666F726D6174733E3C666F726D61743E687474703A2F2F736368656D612E
310
6175746F6465736B2E636F6D2F64657369676E2D7061636B6167652F323030393C2F666F726D61743E3C2F666F726D6174733E504B0304140006080800CC70623BD486FD9CA0000000F4000000130000005B436F6E74656E745F54797065735D2E786D6C7D8EC10E82300C865F65E91D8A1E8C310C0EEA1BF002731658846E
310
D98AC1B77784ABF1D8FE5FBFBF75BBCE937A534CCEB38643598122B6FEE978D0B0485F9C41B54DDD7D022595594E1A469170414C76A4D9A4D207E29CF43ECE46F218070CC6BECC4078ACAA135ACF422C856C0E68EA1BF5669944DDD7BCDE7B1F8E415D77AECB980613C2E4AC91FC167A2B244592486606FC29C8FD7F045B9A
310
EF7053A7E60B504B0304140006080800CC70623B853B8169EB0000007C01000008000000636F72652E786D6C8D90416EC3201045AF62CDB6C206821CC7C244919D9CA01740401C94182C03558F5F9C3852BBEB6A467FFE9B197D7EFC9E1EC5975982F5AE035262288C535E5B377690E21535501C055FBC8FBF6C503839990E
310
5619041F179FE64D52DE45E362569DD7661365082642A11EB9E920A89B99642953CC8E702F67A9EE7234257977194EC9EAE275C4EABCCF5EAD5940D4AC6F0E35A568B8F43562CD7046CD199FD07E60174276A7BE677B5EADB0E0D14EEFFB6A31321A0D82627C4084204C3F096B71DD52F6819B16635EADF63F509AF53FA164
310
5DDCD1EDDD17164090FCC8732078B56691CB33A85CD7DCC40F504B0304140006080800CC70623B55019EA25F0000007C00000007000000636E782E786D6C4DCB3B0E80201045D1AD90E915ED2CF8AC45050C11660C8261F98AB1B07AC9C97D42D718D865D3E909258CFD00CCE24AC6E326A164D74DC0B4128928FF32603847
310
2BA13128B1252AC747C6BAB984FC68F0B87FE8960A5C09FE86CFB69FBA01504B0304140006080800CC70623BDBABAAF470010000D40300000C0000006662782F636F72652E786D6CC553D16E823014FD95A6AF4B694182CC941A83FA05FB810A9511A125A5257EFE2E82712ECEB8A7F100CD39F7F69E734AF9FADC366850B6
310
AF8DCE7018308C942E4C59EB2AC3DE1D498AD15A706B8CFB56869196ADCAF00863C12B6B7C374385D14E6907A836A59A41D9F7CA615434B0C8705F7CAA5606D23BA8E84F41278B93AC54100640439DE0BDB320004D43C63716C7C399D30917DCFBBA9CD9BA8469F5B156168B24CED3F7248AC8769F27244EB73B92EED8862C
310
B7F13E0C179B3C8F979C8ECD82BBBABDAA2BAC924E9558448CBD9330242CFA08E3154B5651FCC6D215639C8EE5774DBE2B5F6CF2B5768B68963BB5F5588420E442FC700B1139D4CB01F450C1E918227C2E09DF070D8140C84E1E9AAB8F1340832A9CB13130A5F1376A908D57309505ECF2A0DF179C4E9D30F5B239B87E3823
310
7A79C6F31DE1A8A5AEC08474B03C7837EAE4938639B44E5932B833D2C6B6B279CDC613877FA26EE21F4A2A4C63EC7F29A2F301D1F9F7A0E37D145F504B0304140006080800CC70623B9C113CC27E0000009D0000000B0000006662782F636E782E786D6C4DCCDF0A83201C86E15B91DFB94BFB330DD428C8FB886521330DA7
310
6397BF1A1DECE883878F57749FCDA1B7892F1BBC047A23808C7F84D9FA55424E0BE6803A256208E9EF06C84F9B91703228B1C690F78B66B34CD9A5439DF5CF0BFBF65E35BCA1B8D6A5C6F540381E886698B5741C695F9503EBA150A2F8958E3DC3EA0B504B0304140006080800CC70623B7DF2F77C2A010000120200003100
310
00006662782F41393633353835312D344632462D344230382D423046372D3739314545314133324237412F636F72652E786D6C8D51DB8EC22014FC15C2939B0D2DB4B45643319AE817EC0F6041255A68B86CFCFC856D4D76DF7CE190393373060EDB3DC707F856CE6B6B7A480A0C81328395DA5C7B18C3057510EC3873D686
310
3F34088C18550F330C39BB3A1BA7051AAC09CA84841A2BD5020AEF55806078A44B0FFD7053A328440C89E1EFC52486BBB8AA8214A99D789CF9E05200300FC927E4FB4D5B375D43103D5527440FB843077C5AA3F5861C8F645F5787F59E95B390B318B55CE45AA638FAA2957BD7248B390B7A7CC51F9C124149C82B8C378810
310
84AB2F42B7B8DD56F413775B8C5999E9FF4471926F8AA236A1AE96B8B3CC434E5839373893369E1FAF30EA395917409EB7F26AF8801C171837A4A6AC9C89E9F9C9B1A58BA30FD6A5EF5DDDCF894B9AD9B6A59C957943A9FCAE2FD5BC4DFE03504B0304140006080800CC70623BAD7543B64E01000033030000300000006662
310
782F41393633353835312D344632462D344230382D423046372D3739314545314133324237412F636E782E786D6CD593CD6EC32010845F0571AD6CE3D48AD20813A9873E410FBD12D82434182C7EAAE6EDBB2424CD25871E7B41D6EC30B3FA84F9E67BB2E40B4234DE8DB46F1925E094D7C6ED479AD3AE5951B2113C789FEE
310
6C943839C1488B4C05DF079FE72A69D8C96C13AAD6B8631503449F83828872B949AC57D26200B826A308D316B4064D6E46FCDA41C05550DC9E483A00797BFD207EFB092A45DE9514C1BBD22178396BD39D891265658C238DEA00936C654E5E433CB65A26D9F6EDB5EBC14EBF49A45CB856E66048291F6939A9A81BB5C89177
310
38143CA680F4AA299D66A042CEB3354A2684DC9D8D178FE0D9B8B41CAAD720F880EE7EF93C0C18769E099ECC04D5A102C8049A8A05632F4DDF376CF1DE0F6BB65C2F8627B65A33C6BB62177CEBBDAD973006829F89F22E814B54F4BC2BE347F8AA8F681390B50FA73F804400B5F542E796F19FF974E7F78DB802FE05E20750
310
4B0304140006080800CC70623BE75B7789680500003C100000340000006662782F41393633353835312D344632462D344230382D423046372D3739314545314133324237412F6F626A656374732E786D6CAD575B8F9B3818FD2B887D06C22499CB8AA1CA655245D5B455A356FB305264C061D8018C6C3393D95FBFC7600890
310
A4CD5EF210B0B1BFEBF98E3F7B1FF6596ABC522E1296DF9BAE3D320D9A872C4AF2F8DE2CE5CEBA358D0FBEC719939D65A691938CDE9B6ADAF4BD98B3B2D05311DD91329583D9D5FC0F438434A7A611A644887B5384CF34233629258BA878B12322891DEFF6B66BD70BFB62634E8AE781D082709A4B588AF91C528CDA28B73F
310
1C998EEF39EABBEFA97FBD6A7C7E9553F9D3D79FE442923C3C523610337627CB87ABE99D359D4CC6D6E4FACAB5E6ABF9D2726FC6A3C5F56271377BB88362213924694B38DD99FE47C48627A1E7D49F5A8BB5E1A74C0A599ED3B0F21F1E56366B89112D681E218F0915D0D6F17AD41FBA2A369DCF6335D62ABBD39779D5DDD1
310
11D4D8DE3CBB96B2E04FB8202E41051754A1AA8E8F76B4C6DFE810B580B1547F4B84911149794252234D024EF8BBE963A95AE27B3D310A9D5C215C7960FAEE415ED75694C6AFB17BCACA5D99A60A9AA65F217B0BFC53292ACB92BF283FAD0D3621576592CB5BED907C2FA8E9DF794E35E97BEA31BED21FEB401ABB94C44839
310
DCACBF0E1C5DA8DA5B2F4DFFD32AD86F543D9E565E7056502E157C00AD2671CD534549AB752FCA9CDA00677A313F04E51B22FF19E57B300579E3C97EB29F682D92935CEC18CF901B7B54FD8C51F362B56FC72FE0B3C1EAE335EDCCBF5AEC39ADB17DC238973F804BA5E6F6BFE7AF1FB32E523BE9F3BD571418E3631DCA4D48
310
5250CF639223210A9446CA30052EDF057BD35F8329C1ECD84552BF0DC8D18BE7BCE23BFE6BD960AB4A7DE79923A103BEBD80F911CBAA2C60DB19B01CF164A5583B772EE6D3FFA56666CBCDA74DC97724A48F9A58967497E489C4D979006FD7A05E227A1EBDD0F737C623387A9C844D3709995625106D157315F8B8392CD4E0
310
A0B9A720C4BE9829CEF37EA1E13111214D53925356365ADA634861B52519DD27A00AEB808EAF0628E6F435519D446F45CF2C9CF5214F0A15B2F6D06B79DA3EE3CBF7F56780D2F4E7EF73A0F5E5B02A38D07DC852C6B7C1FBB6664213E0C39E3EBA7FF4E1AD23EA2829407C85E586727488B751B2DB9502BC7B228A3FD68B6E
310
A65A22397E690AA8D158D7E404EC8CDA235CC3B7D1898680131CEC2CDF2638C65196279577750F15884AEE19F94199155B92B13297978469D4F8D358DF0AEF7631E28DC8F0D9F437D5D39A83B2231A1D52D543813A824EF8D44BCFF2FA6A31BD1E8DAD87F1CCB526B3879935BF59CDADD5C37479BB1CDD4CA7B3556B516589
310
EF352754B706114D9C885EC9131DE6EFEB43D99AFE2391C2F958179413D7CFEF6B1B6DB1E7600F00DE6E5C67454A339A4BA2E0FBA85ED26F045D454F463DBFCE484C2F90F2E5E3666003662ED8F755951A7D1BECD5B30B550B2785C8E7320B7292A4838DDA71BBC863ED7613CAF659337A3354231D4FF4A182A54904C2898C
310
98B28C4AD0CE056CCF332A80986E571EE9DBC305BB5FEB7E509220A58D25CF042D712A806AC0AD0C657FDEF80D2D9CEAA2EE4D1C76F60BFE74219A06527D6F82DF6412526107381E55E353090704D085B52408A8913C4ED159D79BDA71BB4BC506F4831350EB6F975CD22D69BF7AC49B91A2C0A9DDA3D5CA36AD20FC478E37
310
E61844E2352865EBCB61A275A65283CAAA9DD27703B4102F5AF51EF5F573B75CBB5AD38BC845F7A49F82A0966A49C2E3EA5EA0ECD326CD965F1DB402C6FA8B51A4658C5C5E2EC9E214602E55810345408596591009A82E7E7FFACA19EEA299B14A0081A705CB3296EBC14CDF658DCD336EA6D1136881AAEB87B81AB9EE53D5
310
F5EB8BC8362082DA24122F98680A4E7930C01A0079749CEA14382A0783E5EBA5A10F8C098456A03D6A4AEB6BB881E2513747552A5DB22C7EDAF83BD5528081A365F7FF06504B0304140006080000CC70623B000000000000000000000000350000006662782F41393633353835312D344632462D344230382D423046372D37
310
39314545314133324237412F76657274696365732E62696E504B0304140006080800CC70623BF270F1330600000004000000360000006662782F41393633353835312D344632462D344230382D423046372D3739314545314133324237412F747269616E676C65732E62696E636660600000504B0304140006080000CC7062
310
3B000000000000000000000000370000006662782F41393633353835312D344632462D344230382D423046372D3739314545314133324237412F617474726962757465732E62696E504B0304140006080800CC70623B08DA0BD19000000041010000360000006662782F41393633353835312D344632462D344230382D4230
310
46372D3739314545314133324237412F6469726563746F72792E786D6C858F410AC3201045AF22B36F53E9A60B35CBEEBAE80D244E44489C6234F4F835464A48035D0DF398FF9F8AF63D0E6CC63039F212F8F9020C7D47C6792B21C5FE7403D62A1188E2E60C98D7234A5830286103A55745067B9D86B8A3CF9C7F90C11DE6
310
07FB144396D7B6A82D282E9A152AD114D5EF2CB866EEE831B8EEA07A7BB5A8D7D61A2BAAEB7FD5F70921FF497D00504B0304140006080800CC70623BEDD1DC58FD000000A00100003B0000006662782F41393633353835312D344632462D344230382D423046372D3739314545314133324237412F7265736F75726365732F
310
636F72652E786D6C8D504B6E833010BD0A9A6D65B00922041947112427E8052C33A156828DFCA97AFC9A40A576D7CDCCE87D344F8F9FBFE667F689CE6B6B3A6039850C8DB2A336530731DC4903D95970676DF82583CCC8193B5861107C72362E3BA4AC096842428D1D7107A5F7182053CF7474E0D507CE32973124857FE48B
310
540F3961CEF244279DE03EB81420DB9EAC1384436FA353E879B1B182C7A8C75DA3C7F453DF353A1075D537A7BA6464B8F535A99AE14A9A2BBD90E350DD183B5CFABE3AF262350B1EF4FC9351399401471025A527C218A1E53BAB5A5AB765F5469B96525EACF23FA6B88CFF34456DC2A1DCE36E360F82A5202F42F062ED2BAD
310
579969AFDD8A6F504B010214000A0000080000CC70623B3DEE336E79000000790000001B00000000000000000000000000000000006175746F6465736B2D64657369676E2D7061636B6167652E786D6C504B01021400140006080800CC70623BD486FD9CA0000000F40000001300000000000000000000000000B20000005B
310
436F6E74656E745F54797065735D2E786D6C504B01021400140006080800CC70623B853B8169EB0000007C010000080000000000000000000000000083010000636F72652E786D6C504B01021400140006080800CC70623B55019EA25F0000007C000000070000000000000000000000000094020000636E782E786D6C504B
310
01021400140006080800CC70623BDBABAAF470010000D40300000C00000000000000000000000000180300006662782F636F72652E786D6C504B01021400140006080800CC70623B9C113CC27E0000009D0000000B00000000000000000000000000B20400006662782F636E782E786D6C504B01021400140006080800CC70
310
623B7DF2F77C2A010000120200003100000000000000000000000000590500006662782F41393633353835312D344632462D344230382D423046372D3739314545314133324237412F636F72652E786D6C504B01021400140006080800CC70623BAD7543B64E010000330300003000000000000000000000000000D2060000
310
6662782F41393633353835312D344632462D344230382D423046372D3739314545314133324237412F636E782E786D6C504B01021400140006080800CC70623BE75B7789680500003C10000034000000000000000000000000006E0800006662782F41393633353835312D344632462D344230382D423046372D3739314545
310
314133324237412F6F626A656374732E786D6C504B01021400140006080000CC70623B0000000000000000000000003500000000000000000000000000280E00006662782F41393633353835312D344632462D344230382D423046372D3739314545314133324237412F76657274696365732E62696E504B01021400140006
310
080800CC70623BF270F133060000000400000036000000000000000000000000007B0E00006662782F41393633353835312D344632462D344230382D423046372D3739314545314133324237412F747269616E676C65732E62696E504B01021400140006080000CC70623B0000000000000000000000003700000000000000
310
000000000000D50E00006662782F41393633353835312D344632462D344230382D423046372D3739314545314133324237412F617474726962757465732E62696E504B01021400140006080800CC70623B08DA0BD1900000004101000036000000000000000000000000002A0F00006662782F41393633353835312D344632
310
462D344230382D423046372D3739314545314133324237412F6469726563746F72792E786D6C504B01021400140006080800CC70623BEDD1DC58FD000000A00100003B000000000000000000000000000E1000006662782F41393633353835312D344632462D344230382D423046372D3739314545314133324237412F7265
310
736F75726365732F636F72652E786D6C504B0506000000000E000E0080040000641100000000
  0
XRECORD
  5
9E2B
102
{ACAD_REACTORS
330
1F7
102
}
330
1F7
100
AcDbXrecord
280
     1
102
MATERIAL
148
0.0
149
0.0
149
0.0
 93
        0
 94
       63
282
     0
 72
     1
 77
     1
171
     1
175
     1
179
     1
273
     0
  0
XRECORD
  5
1F8
102
{ACAD_REACTORS
330
1F7
102
}
330
1F7
100
AcDbXrecord
280
     1
 70
     1
 90
429727718
  1
30362254-06B7-45E0-A893-8CFA70E3D6BC
310
504B03040A0000080000CC70623B3DEE336E79000000790000001B0000006175746F6465736B2D64657369676E2D7061636B6167652E786D6C3C3F786D6C2076657273696F6E3D22312E302220656E636F64696E673D227574662D3822203F3E3C666F726D6174733E3C666F726D61743E687474703A2F2F736368656D612E
310
6175746F6465736B2E636F6D2F64657369676E2D7061636B6167652F323030393C2F666F726D61743E3C2F666F726D6174733E504B0304140006080800CC70623BD486FD9CA0000000F4000000130000005B436F6E74656E745F54797065735D2E786D6C7D8EC10E82300C865F65E91D8A1E8C310C0EEA1BF002731658846E
310
D98AC1B77784ABF1D8FE5FBFBF75BBCE937A534CCEB38643598122B6FEE978D0B0485F9C41B54DDD7D022595594E1A469170414C76A4D9A4D207E29CF43ECE46F218070CC6BECC4078ACAA135ACF422C856C0E68EA1BF5669944DDD7BCDE7B1F8E415D77AECB980613C2E4AC91FC167A2B244592486606FC29C8FD7F045B9A
310
EF7053A7E60B504B0304140006080800CC70623B1EC5D7A3EB0000007C01000008000000636F72652E786D6C8D90416EC3201045AF82665B6103C6756C6122AB4D4ED00B204C5C94182C03558F5F9C3852BBEB6A467FFE9B197D71FC9E6FE8CBACC17AD7032D0820E3B41FAD9B7A48F1820F808E52ACDEC75F36404ECDA687
310
4D0629A6D5A76597B477D1B89855E747B38B2A041301E95B6E7A08FAD3CCAA50296647B8168BD2573599823EBB0CA76447F43862C7BCCF5EAC59410E4DDD9C7973C2755553CCCFA4C603E3040F1565ED3B1FDE4E432BCA0D9622DAF9795FAF464533826484B498524CD807E51D79ED187F21878E10516EF63F505AC67F42C9
310
BA58B1FDDD071640D2FCC87D2045B96591CB3DA85CB7DCE40F504B0304140006080800CC70623B55019EA25F0000007C00000007000000636E782E786D6C4DCB3B0E80201045D1AD90E915ED2CF8AC45050C11660C8261F98AB1B07AC9C97D42D718D865D3E909258CFD00CCE24AC6E326A164D74DC0B4128928FF32603847
310
2BA13128B1252AC747C6BAB984FC68F0B87FE8960A5C09FE86CFB69FBA01504B0304140006080800CC70623B8C9102E971010000D40300000C0000006662782F636F72652E786D6CC5535B6E833010BC8AE5DF0A6C08340F1947A84D4ED00B38C6A128602363A31CBFCB234A53A551FA553EC09AD9F5CE8C31DB9E9B1AF5CA
310
7695D1198E428A91D2D214952E33ECDD315861B4E5CC1AE3BE9561A445A3323CC098B3D21ADFCE9034DA29ED00D5A6503328BA4E398C640D8B0C77F253352214DE4145770A5B214FA2546114020D759C75CE8200340D19DE981F0F6746269C33EFAB6266AB02A655C74A59CCF365BADC27CB5D902ED22848F6340DF238A141
310
BE88E2F57B92BFEDF23523433367AE6A2EEAA455C2A902F398D2751045018D3FA264435F3771F242571B4A1919CA6F9A7C5B3CD9E42BED16F12C776AEB308F40C848FC700B1139D4891EF410CEC810227CC6846F8386402064270EF5C5C709A05E49676C024C61FC95EA45ED154CA5211D1FF4FB8291A913A68E9B83EBBB33
310
E2A7673CDE118E5AE8124C0807CB8377834E366998436B950D7A7746DAD846D4CFD978E0F04FD455FC5D49D2D4C6FE9722321F10997F0F32DC47FE05504B0304140006080800CC70623BFFEA85907E0000009D0000000B0000006662782F636E782E786D6C4DCCD10A83201886E15B91FFDC95D95A811AB6F23E625948A6C3
310
E9D8E5AF46073BFAE0E1E365ED67B3E8ADC3CB78C7815C7240DA3DFC64DCC221C519D7805AC182F7F1EF06C88D9BE6703008B6049F9E274D7A1E938DBB5AE3D6131B2589BA0D3D965551E0B2EA732C9B9A624AAEB41E3A557677029960D9AFB4EF11165F504B0304140006080800CC70623B4FEEA4082C0100001202000031
310
0000006662782F39464131463745442D413632322D343644302D413938332D3331353338454246344243312F636F72652E786D6C8D515B6EC32010BC0AE2AB55850DD871ED0813254D72825EC00192A2C460F1A872FC42ED48ED5F7E00CDCECCCEB26C731F6FE05B39AFADE921293004CA082BB5B9F43086336A21D870E6AC
310
0D7F68109861543DCC30E4ECE26C9C164858139409093556AA051CBC570102714B8F1E7AF1A5C6A11862480C7F2DA6415C878B2A4891CA89C7990F2E050073937C42DE1DB7E4F87ED8A36D4329AA9B3D46DBAEAD504556557BD81DEBDD0761E52CE42C462D17B996298E3E6BE59E35C962CE821E1FF18553435012728A7187
310
0841987E927A8D9B35ADDF70BBC6989599FE4F1427F9A4286A132ABAC49D651EF234CD5CE04CDA78BA3DC2A8FB645D00B9DF8B57E215725C60BCA2A463E54C4CE327C7A65E1C7DB02E7DEFCBF594B864C5CA6CDBD49C957943E9FA5D5FBAF336F90F504B0304140006080800CC70623BAD7543B64E01000033030000300000
310
006662782F39464131463745442D413632322D343644302D413938332D3331353338454246344243312F636E782E786D6CD593CD6EC32010845F0571AD6CE3D48AD20813A9873E410FBD12D82434182C7EAAE6EDBB2424CD25871E7B41D6EC30B3FA84F9E67BB2E40B4234DE8DB46F1925E094D7C6ED479AD3AE5951B2113C
310
789FEE6C943839C1488B4C05DF079FE72A69D8C96C13AAD6B8631503449F83828872B949AC57D26200B826A308D316B4064D6E46FCDA41C05550DC9E483A00797BFD207EFB092A45DE9514C1BBD22178396BD39D891265658C238DEA00936C654E5E433CB65A26D9F6EDB5EBC14EBF49A45CB856E66048291F6939A9A81BB5
310
C8917738143CA680F4AA299D66A042CEB3354A2684DC9D8D178FE0D9B8B41CAAD720F880EE7EF93C0C18769E099ECC04D5A102C8049A8A05632F4DDF376CF1DE0F6BB65C2F8627B65A33C6BB62177CEBBDAD973006829F89F22E814B54F4BC2BE347F8AA8F681390B50FA73F804400B5F542E796F19FF974E7F78DB802FE05
310
E207504B0304140006080800CC70623B16AB87BA640500003C100000340000006662782F39464131463745442D413632322D343644302D413938332D3331353338454246344243312F6F626A656374732E786D6CAD575B6FA33818FD2B887DE6924B3BED8A326A92B68A663B534DD4D13E548A0C38942D60649B369D5FBFC7
310
600890A493BDE42160637FD7F31D7FF63E6FB3D478A55C242CBF3247B66B1A340F5994E4F19559CA8D75611A9F7D8F33263BCB4C232719BD32D5B4E97B316765A1A722BA21652A07B3B7B33F0D11D29C9A46981221AE4C113ED38CD8A4942CA2E2C58E882476BCD9DA23BB5ED8171B73523C0F841684D35CC252CCE79062D4
310
468DFA43D7747CCF51DF7D4FFDEB5593E3AB9CCA9FBEFE241792E4E19EB28198C968BAB8199F5D5A67D3E9C49A9E8F47D6EC76B6B0469F26EEFC7C3EBFBCBEB98462213924694B38DD98FE1D62C393D073EA4FADC5DAF04326852CCF6958F90F0F2B9BB5C48816348F90C7840A68EB78EDF68723159BCEE7891A6B95DDE9D3
310
BCEAEEE8086A6C6F9E5D4B59F0175C10A7A0820BAA5055C7473B5AE3CFDD452D602CD5DF12616444529E90D448938013FE6EFA58AA96F85E4F8C42275708571E98FE6827AF6B2B4AE3D7D83D64E5A64C53054DD3AF90BD06FEA9149565C94FCA0F6B834DC85599E4F2423B24DF0B6AFA979E534DFA9E7A4CC6FA631D486393
310
921829879BF5D781A373557BCB85E97FB90DB62B558F8795179C15944B051F40AB495CF35451D26A4727654E6D8033BD98EF82F21D91FF8AF2DD9982BCF1643BDD4EB516C9492E368C67C88DED563FC36D5EACF66DFF057C3658BDBFA69DF9578B3DA735B64F18C7F20770A9D45CFCF7FCF563D6456A277DBEF78A02637CA2
310
43B90A490AEAB94F72244481D24819A6C0E59B606BFA4B3025981DBB48EAB701D97BF19C577CC77F2D1B6C55A9EF3C732474C0B727303F625995056C3B02963D9EAC146BE78EC5FCEC7FA999EBC5EACBAAE41B12D27B4D2C0BBA49F244E2ECDC81B76B502F113D8F5EE8FB1BE3111CDD4FC2AA9B844CAB1288B68AB90A7CDC
310
1C166AB0D3DC5310625FCC14E779BFD0709F8890A629C9292B1B2DED31A4B0DA928CEE135085754027E3018A397D4D5427D15BD1330B677DC8934285AC3DF45A9EB68FF8F2B8FC0A509AFEECFD0FF2DE25CC6047F7214B195F07EFEB9A094D800F7BFAE8FED187B78EA8A3A400F115961BCAD1215E47C966530AF0EE8128FE
310
58CEBB996A8964FFA529A046635D9353B0336A8F700DDF46271A024E70B0B37C9DE01847591E54DED53D54202AB947E4076556AC49C6CA5C9E1226B7F1A7B1BE15DEED62C41B91E1B3E9AFAAA735036547343A925075041DF0A9979E893B391F8FCFA6967B3EFB644DCF6E5CEBFAE272625DCC6FAF3FB93793C5F90CE1EF57
310
407342756B10D1C489E8953CD1617E5CEECAD6F4EF8914CE5D5D504E5C3F1F9736DA62CFC11E00BCDDB8CC8A9466349744C1F75EBDA4DF09BA8A9E8C7A7E9991989E20E5DBDD6A6003664ED8F7A04A8DBE0DF6EAD9B9AA858342E47399053949D2C146EDB85DE4B176BB0965FBAC19BD19AA918E27FA50C1D22402E144464C
310
59462568E704B6E71915404CB72B8FF4EDE184DDAF753F284990D2C6926782963815403548A70C657FDEF80D2D9CEAA2AE4C1C76F60BFE74219A06527D6582DF6412526107381E55E353090704D085B52408D0933C4ED159D79BDA71BB4BC506F4831350EB6F979CD22D69BF7AC49B91A2C0A9DDA3D5CA36AD20FC478E37E6
310
1844E2352865EBCB6EA275A652E3836BE04EFB400BF1A2556F515F1FBB35B2AB35BD889C744FFA1004B5544B121E57F70215746DD2F5E2C1412B602CBF19455AC6C8E5E9922C4E01E65215385004546899059180EAFCF7A707CE7017CD8CDB0410789AB32C63B91E5CEBBBACB17AC6CD347A022D5075FD106377347AAABA7E
310
7D11590744509B44E205134DC1290F06580320F78E537D3D73540E06CB970B431F185308AD40BBD794D6D77003C5A36E8EAA54BA64597CD8F83BD552A080A365F7FF06504B0304140006080000CC70623B000000000000000000000000350000006662782F39464131463745442D413632322D343644302D413938332D3331
310
353338454246344243312F76657274696365732E62696E504B0304140006080800CC70623BF270F1330600000004000000360000006662782F39464131463745442D413632322D343644302D413938332D3331353338454246344243312F747269616E676C65732E62696E636660600000504B0304140006080000CC70623B
310
000000000000000000000000370000006662782F39464131463745442D413632322D343644302D413938332D3331353338454246344243312F617474726962757465732E62696E504B0304140006080800CC70623B08DA0BD19000000041010000360000006662782F39464131463745442D413632322D343644302D413938
310
332D3331353338454246344243312F6469726563746F72792E786D6C858F410AC3201045AF22B36F53E9A60B35CBEEBAE80D244E44489C6234F4F835464A48035D0DF398FF9F8AF63D0E6CC63039F212F8F9020C7D47C6792B21C5FE7403D62A1188E2E60C98D7234A5830286103A55745067B9D86B8A3CF9C7F90C11DE607
310
FB144396D7B6A82D282E9A152AD114D5EF2CB866EEE831B8EEA07A7BB5A8D7D61A2BAAEB7FD5F70921FF497D00504B0304140006080800CC70623B0D6EF93BFE000000A00100003B0000006662782F39464131463745442D413632322D343644302D413938332D3331353338454246344243312F7265736F75726365732F63
310
6F72652E786D6C8D50596E833010BD0A9ADFCA60B334011947A8694ED00B586642AC041B79A97AFC9A40A5F6AF3F33A3B7689E1E3F7DCD8FEC139DD7D6F4C0720A191A65476DA61E62B892236427C19DB5E1970C322367EC618541F0C9D9B8EC90B226A009093576C41D94DE63804C3DD2D18357379C652E63480A7FCF17A9
310
EE72C29CE5894E3AC17D702940B63D59270887DE46A7D0F36263058F518FBB468FE9A7BE6A7420864373B8D4873369AA8691FA421B3294352543C5CAF65C0F6FEF43CB8BD52C78D0F34F46E550061C419494B6843142CB0F5677F4B52BEB177AEC28E5C52AFF638ACBF84F53D42654E51E77B379102C05791282176B5F693D
310
CB4C7BED567C03504B010214000A0000080000CC70623B3DEE336E79000000790000001B00000000000000000000000000000000006175746F6465736B2D64657369676E2D7061636B6167652E786D6C504B01021400140006080800CC70623BD486FD9CA0000000F40000001300000000000000000000000000B20000005B
310
436F6E74656E745F54797065735D2E786D6C504B01021400140006080800CC70623B1EC5D7A3EB0000007C010000080000000000000000000000000083010000636F72652E786D6C504B01021400140006080800CC70623B55019EA25F0000007C000000070000000000000000000000000094020000636E782E786D6C504B
310
01021400140006080800CC70623B8C9102E971010000D40300000C00000000000000000000000000180300006662782F636F72652E786D6C504B01021400140006080800CC70623BFFEA85907E0000009D0000000B00000000000000000000000000B30400006662782F636E782E786D6C504B01021400140006080800CC70
310
623B4FEEA4082C0100001202000031000000000000000000000000005A0500006662782F39464131463745442D413632322D343644302D413938332D3331353338454246344243312F636F72652E786D6C504B01021400140006080800CC70623BAD7543B64E010000330300003000000000000000000000000000D5060000
310
6662782F39464131463745442D413632322D343644302D413938332D3331353338454246344243312F636E782E786D6C504B01021400140006080800CC70623B16AB87BA640500003C1000003400000000000000000000000000710800006662782F39464131463745442D413632322D343644302D413938332D3331353338
310
454246344243312F6F626A656374732E786D6C504B01021400140006080000CC70623B0000000000000000000000003500000000000000000000000000270E00006662782F39464131463745442D413632322D343644302D413938332D3331353338454246344243312F76657274696365732E62696E504B01021400140006
310
080800CC70623BF270F133060000000400000036000000000000000000000000007A0E00006662782F39464131463745442D413632322D343644302D413938332D3331353338454246344243312F747269616E676C65732E62696E504B01021400140006080000CC70623B0000000000000000000000003700000000000000
310
000000000000D40E00006662782F39464131463745442D413632322D343644302D413938332D3331353338454246344243312F617474726962757465732E62696E504B01021400140006080800CC70623B08DA0BD190000000410100003600000000000000000000000000290F00006662782F39464131463745442D413632
310
322D343644302D413938332D3331353338454246344243312F6469726563746F72792E786D6C504B01021400140006080800CC70623B0D6EF93BFE000000A00100003B000000000000000000000000000D1000006662782F39464131463745442D413632322D343644302D413938332D3331353338454246344243312F7265
310
736F75726365732F636F72652E786D6C504B0506000000000E000E0080040000641100000000
  0
XRECORD
  5
9E2D
102
{ACAD_REACTORS
330
173
102
}
330
173
100
AcDbXrecord
280
     1
102
MATERIAL
148
0.0
149
0.0
149
0.0
 93
        0
 94
       63
282
     0
 72
     1
 77
     1
171
     1
175
     1
179
     1
273
     0
  0
XRECORD
  5
175
102
{ACAD_REACTORS
330
173
102
}
330
173
100
AcDbXrecord
280
     1
270
     1
271
     1
  0
XRECORD
  5
174
102
{ACAD_REACTORS
330
173
102
}
330
173
100
AcDbXrecord
280
     1
270
     1
271
     1
  0
XRECORD
  5
1FB
102
{ACAD_REACTORS
330
173
102
}
330
173
100
AcDbXrecord
280
     1
 70
     0
 90
1673772943
  1
ECE7A1D2-D628-4531-984C-D00F80459256
310
504B03040A0000080000CC70623B3DEE336E79000000790000001B0000006175746F6465736B2D64657369676E2D7061636B6167652E786D6C3C3F786D6C2076657273696F6E3D22312E302220656E636F64696E673D227574662D3822203F3E3C666F726D6174733E3C666F726D61743E687474703A2F2F736368656D612E
310
6175746F6465736B2E636F6D2F64657369676E2D7061636B6167652F323030393C2F666F726D61743E3C2F666F726D6174733E504B0304140006080800CC70623BD486FD9CA0000000F4000000130000005B436F6E74656E745F54797065735D2E786D6C7D8EC10E82300C865F65E91D8A1E8C310C0EEA1BF002731658846E
310
D98AC1B77784ABF1D8FE5FBFBF75BBCE937A534CCEB38643598122B6FEE978D0B0485F9C41B54DDD7D022595594E1A469170414C76A4D9A4D207E29CF43ECE46F218070CC6BECC4078ACAA135ACF422C856C0E68EA1BF5669944DDD7BCDE7B1F8E415D77AECB980613C2E4AC91FC167A2B244592486606FC29C8FD7F045B9A
310
EF7053A7E60B504B0304140006080800CC70623BD9DDAED0EC0000007C01000008000000636F72652E786D6C8D90416EC3201045AF82665B61836D9CD8C2444DD39CA01740405C94182C03558F5F9C3852BBEB6A467FFE9B197D7EF89E6EE8CB2CC17A37002D0820E394D7D68D03A478C17B4007C117EFE32F1B20272733C0
310
2A83E0E3E2D3BC49CABB685CCCAAF3DA6CA20CC14440EA969B0182FA34932C648AD911AEC52CD5558EA6A0CF2EC329598D1E47ACCEFBECC59A050463A7EA5833865FEBDD0E37353BE3EE8DBDE3F6786A48D375FBF6CC78B9C282473B3DEFABC5C86834888A900E538A49F5419B9EB47DD5BC907D4F082F57FB1F28CDFA9F50
310
B22ED6D5F6EE030B20687EE43E10BC5CB3C8E51E54AE6B6EE207504B0304140006080800CC70623B55019EA25F0000007C00000007000000636E782E786D6C4DCB3B0E80201045D1AD90E915ED2CF8AC45050C11660C8261F98AB1B07AC9C97D42D718D865D3E909258CFD00CCE24AC6E326A164D74DC0B4128928FF326038
310
472BA13128B1252AC747C6BAB984FC68F0B87FE8960A5C09FE86CFB69FBA01504B0304140006080800CC70623BA24EB22D72010000D40300000C0000006662782F636F72652E786D6CC5535B6E833010BC8AE5DF0A6C5E49888CA3A6694ED00B38E05014B091B1518EDFE511A5A9D228FD2A1F60CDEC7A67C6986DCE4D8D7A
310
69BA4AAB0C073EC548AA5C17952A33ECECD15B61B4E1CC686DBF9561A44423333CC098B3D268D7CE50AE9595CA02AA74216750749DB418E5352C32DCE59FB211BE70162ABA93DF8AFC244AE9073ED050C759670D0840D390E18DF9F1706664C23973AE2A66B62A605A75ACA4C13C4976E1364A12EF355A2EBD384AF65EFA96
310
BC7B8BED2EA6719AAE16FB8491A199335B351775B991C2CA02F390D2D40B028F861F41BCA68B7518BFD0D59A524686F29B26D7164F36B94AD9289CE54E6D1DE6010819891F6E21228B3AD1831EC219194284CF98F06DD01008846CC5A1BEF83801D4CBDC6A1303536877A57A513B0953A94FC707FDBE6064EA84A9E3E6E0FA
310
EE8CF0E9198F7784A316AA0413C2C2F2E0ECA0934D1AE6D05A69BCDE9E91D2A611F573361E38FC1375157F5752AE6B6DFE4B11990F88CCBF0719EE23FF02504B0304140006080800CC70623B408A7D3B7C0000009D0000000B0000006662782F636E782E786D6C4DCCD10A83201886E15B91FFDC552A92A0064DBC8F581632
310
D3703A76F9ABD1C18E3E78F878E5F0D9027ABBFCF2292AE86E2D20171F69F6715550CB827B40839639A5F2770314A7CD293819B45C73AAFB45B35BA61ACAA1C1C7E7855C58C15BC331339661262CC762340413D68D77DA5B42298546CBE6573AF60CEB2F504B0304140006080800CC70623B449FB9BD290100001202000031
310
0000006662782F36394639363044362D344446342D343946362D394244322D3234314243333846323333332F636F72652E786D6C8D515B6EC32010BC0AE22B55850D98B871848994463E412FE002495162B07854397EA176A4F62F3F2C9A9D991D587EB84F37F0AD7D30CEF6905418026DA553C65E7A98E219ED203808EE9D
310
8B7F6810D871D23D2C3014FCE25D9A57483A1BB58D19B54EE9151C43D0110279CB971E06F9A5A7B11A53CC8C70ADE6515EC78BAE4895DB992778883E0700CB907242D17643D7E2538BD869608875438BBAE38922CAC8F1BDD90DB4691A5E2F42C153326A951B95E398B3D1FE599322163C9AE9115F7A3D46ADA0A018778810
310
84E907617BDCEE297BC5BB3DC6BC2EF47FA234AB2745C9D8D8D035EE220B50105E2F0DC1954B9FB747187D9F9D8FA0CCDB042D5FA0C015C65B42DF78BD10F3F3B363CB56C7109DCFDFBBB97E662ED92EB62D13BC2E1BCAE5777DB9966D8A1F504B0304140006080800CC70623BAD7543B64E01000033030000300000006662
310
782F36394639363044362D344446342D343946362D394244322D3234314243333846323333332F636E782E786D6CD593CD6EC32010845F0571AD6CE3D48AD20813A9873E410FBD12D82434182C7EAAE6EDBB2424CD25871E7B41D6EC30B3FA84F9E67BB2E40B4234DE8DB46F1925E094D7C6ED479AD3AE5951B2113C789FEE
310
6C943839C1488B4C05DF079FE72A69D8C96C13AAD6B8631503449F83828872B949AC57D26200B826A308D316B4064D6E46FCDA41C05550DC9E483A00797BFD207EFB092A45DE9514C1BBD22178396BD39D891265658C238DEA00936C654E5E433CB65A26D9F6EDB5EBC14EBF49A45CB856E66048291F6939A9A81BB5C89177
310
38143CA680F4AA299D66A042CEB3354A2684DC9D8D178FE0D9B8B41CAAD720F880EE7EF93C0C18769E099ECC04D5A102C8049A8A05632F4DDF376CF1DE0F6BB65C2F8627B65A33C6BB62177CEBBDAD973006829F89F22E814B54F4BC2BE347F8AA8F681390B50FA73F804400B5F542E796F19FF974E7F78DB802FE05E20750
310
4B0304140006080800CC70623B8D05915C650500003B100000340000006662782F36394639363044362D344446342D343946362D394244322D3234314243333846323333332F6F626A656374732E786D6CAD575B6FA33814FE2B887D06429276DA1565D4266D158D3A339A6846FB502932E050B66023DB74D2FDF5FB190C01
310
9276B2973C046C8ECFF53B17071F77456EBD502133CEAE6CDF9DD81665314F32965ED995DA3A17B6F5310C04E7AA47665B8C14F4CAD6DB7618A48257A5D94AE89654B91AEDDEDDFC61C998326A5B714EA4BCB265FC440BE2924AF184CA6737218AB8E976E7FA6E4338649B0A523E8D98964450A6A029F619B8588D52FE7039
310
B1BD30F0F4F730D0FF866AF6369557DB33949F31A9088B0F848DD8CCFCF9F2767A76E99CCDE733677E3EF59D9BBB9BA5E37F984D16E78BC5E5F5ED25044B25C0C96822E8D60EEFE11B91C581D77CEA34368A1F5329E68CD1B8B61F16D63A1B8E092D294B10C78C4A48EB593D192E7DED9BDEE7995E1B91FDEDD3ACEA9FE831
310
6A756F9F7D4D79F4274C90A7A04248AA51D5F8C718DAE06FB2F75AC4796EBE65D22A88A22223B995679120E2D50E41AA49C260C046A35368846B0BECD0DFF3EBEB8AD4F835768F69B9ADF25C43D30E6B646F807FAA64AD59F61715C7A54127C4AACA98BA3006A9D792DAE165E0D59B61A01FB3A9F9D838D2DAE62445C86166
310
F37564E842E7DE6A69879FEEA2DD5AE7E371E1A5E025154AC307D06A03D73EB5978C58FFA4C8E9033066E0F3BD53BEC1F39F91BE7B55103791EDE6BBB991A2046172CB4581D8B893FA674DDA17A77B3B7C413D1B511FD2743BFF8A38F03A658705E3ADF8015C3A3417FF3D7E439FF591DA0B5F18BC20C1B8981957AE6392A3
310
F43C640C01D1A0B4728E2DD4F26DB4B3C3152A252A3B4E913CEC1C72F012782FF88EFF8637AA552DBEF76408E8A8DE9E50F9E1CB3A2DA0DB1B6039A893B56063DC5B3E3FFB5F72E67AB9FEB4AEC496C4F4C1149625DD662C53E89D7BF0F6151A046260D1337DFDC94502430F83B0EE07A130A224BCAD7DAE1D9FB6CD422FF6
310
920702629C4BB9AE79C12F243C6432A6794E18E5552BA56B431AAB5D91317302B2B071E86C3A42B1A02F999E24061403B5D0EB639195DA655DD3EBEAB4FB862DDF579F014AD0E73C22F99E28DA57FB98E75C6CA2D74D53086D600F4786E0FE3144B771A8A7B900F03594DB8A633CBC49B2EDB69228BB479CF863B5E807AAAB
310
23872F6DFEB4129B949CA33823F58830E86D65621E10047D9DB34D862E8EAC3C2ABC2F7B2C40D67CDFE01F5545B92105AF983AC54D93D69E56FB8E797F88913F898A9FEC705D3F9D1B54EC8426FB500D40A03BD0119B06E1B95DDC7EB8F6975367793EBD70E66733DFB9BC982F9CE564727731999F5D4ECFCE3B8D6A4DC2A0
310
6D50FD148437D110834A64C6CDDF57FBACB5C307A2A477DFE4939736CFEF2B175371E0E10CF0DD1D5C15654E0BCA14D1E87DD02FF93782A162C0A3D95F1524A52770F972BF1EE9809D13CE7DD599467F8ECE9ADD85CE85A34CD45355448C64F9E8A031DC2D596ACC6E5DD93D9B82DE2EF5CAF81363A8E47996A0DE24564A79
310
4115AACE09C55E14540231FDA13C319787134EBF34E3A022514E5B4D9E0826E25C02D5805B15ABE1BEF51B26383D445DD9E875EE33FE4C22DA16427D65A3BCA92CA6D28DD01DF5DC53330704308475351050232CCD31583787BA75774AFB06E5070DD0C8EF484E19968C5D83BA5B90B244D31E54D55A372320FE4786B7EA58
310
44E135AA5467CB7EA333A61683CC6A8C3257034C10CF46F40EF9F5BE59BE5BD30C3C72D235E95D10345C1D45445A5F0BB47E46A5EBE5570F9380B5FA629579952296A773720405982B9DE04011506178964401AA8BDF1FBF0A8EAB6861DD6580C0E38217056766716DAEB2D6FA0917D3E4116581EADB879C4E7CFFB11EFACD
310
3D641311495D92C8676CB409A72D18610D803CE8A626049E8EC1887CB5B44CC39883690DDA8399B4B9855B481E7D71D4A9D22F96E5BB73BF5793020C02137BF837504B0304140006080000CC70623B000000000000000000000000350000006662782F36394639363044362D344446342D343946362D394244322D32343142
310
43333846323333332F76657274696365732E62696E504B0304140006080800CC70623BF270F1330600000004000000360000006662782F36394639363044362D344446342D343946362D394244322D3234314243333846323333332F747269616E676C65732E62696E636660600000504B0304140006080000CC70623B0000
310
00000000000000000000370000006662782F36394639363044362D344446342D343946362D394244322D3234314243333846323333332F617474726962757465732E62696E504B0304140006080800CC70623B08DA0BD19000000041010000360000006662782F36394639363044362D344446342D343946362D394244322D
310
3234314243333846323333332F6469726563746F72792E786D6C858F410AC3201045AF22B36F53E9A60B35CBEEBAE80D244E44489C6234F4F835464A48035D0DF398FF9F8AF63D0E6CC63039F212F8F9020C7D47C6792B21C5FE7403D62A1188E2E60C98D7234A5830286103A55745067B9D86B8A3CF9C7F90C11DE607FB14
310
4396D7B6A82D282E9A152AD114D5EF2CB866EEE831B8EEA07A7BB5A8D7D61A2BAAEB7FD5F70921FF497D00504B0304140006080800CC70623BCA768048FE000000A00100003B0000006662782F36394639363044362D344446342D343946362D394244322D3234314243333846323333332F7265736F75726365732F636F72
310
652E786D6C8D50596E833010BD0A9ADFCA60D600328E9AA639412F609909B1126CE4A5EAF16B0295DABFFECC8CDEA2797AECF8353F924FB44E193D409E5248504B332A3D0D10FC95B4901C39B3C6F85F3248B49871801506CE266BC2B243D2688FDA47549B11775038871E12F988C7004EDE7016A9083E2ADC3D5D84BC8B09
310
D33C8D74D471E6BC8D0192EDC93A815B742658898E651BCB59086ADC356A8C3FD555A1055ED7E7E254D615792D0F075295F585746FF53B694EE78A565DD736979A65AB9933AFE69F8CD2A2F038022F28ED489E135A7CE4554F9BBEA85E68DB53CAB255FEC71496F19FA6A0B42F8B3DEE6673C0F318E4497096AD7DC5F52C33
310
EEB55BFE0D504B010214000A0000080000CC70623B3DEE336E79000000790000001B00000000000000000000000000000000006175746F6465736B2D64657369676E2D7061636B6167652E786D6C504B01021400140006080800CC70623BD486FD9CA0000000F40000001300000000000000000000000000B20000005B436F
310
6E74656E745F54797065735D2E786D6C504B01021400140006080800CC70623BD9DDAED0EC0000007C010000080000000000000000000000000083010000636F72652E786D6C504B01021400140006080800CC70623B55019EA25F0000007C000000070000000000000000000000000095020000636E782E786D6C504B0102
310
1400140006080800CC70623BA24EB22D72010000D40300000C00000000000000000000000000190300006662782F636F72652E786D6C504B01021400140006080800CC70623B408A7D3B7C0000009D0000000B00000000000000000000000000B50400006662782F636E782E786D6C504B01021400140006080800CC70623B
310
449FB9BD290100001202000031000000000000000000000000005A0500006662782F36394639363044362D344446342D343946362D394244322D3234314243333846323333332F636F72652E786D6C504B01021400140006080800CC70623BAD7543B64E010000330300003000000000000000000000000000D20600006662
310
782F36394639363044362D344446342D343946362D394244322D3234314243333846323333332F636E782E786D6C504B01021400140006080800CC70623B8D05915C650500003B10000034000000000000000000000000006E0800006662782F36394639363044362D344446342D343946362D394244322D32343142433338
310
46323333332F6F626A656374732E786D6C504B01021400140006080000CC70623B0000000000000000000000003500000000000000000000000000250E00006662782F36394639363044362D344446342D343946362D394244322D3234314243333846323333332F76657274696365732E62696E504B010214001400060808
310
00CC70623BF270F13306000000040000003600000000000000000000000000780E00006662782F36394639363044362D344446342D343946362D394244322D3234314243333846323333332F747269616E676C65732E62696E504B01021400140006080000CC70623B00000000000000000000000037000000000000000000
310
00000000D20E00006662782F36394639363044362D344446342D343946362D394244322D3234314243333846323333332F617474726962757465732E62696E504B01021400140006080800CC70623B08DA0BD190000000410100003600000000000000000000000000270F00006662782F36394639363044362D344446342D
310
343946362D394244322D3234314243333846323333332F6469726563746F72792E786D6C504B01021400140006080800CC70623BCA768048FE000000A00100003B000000000000000000000000000B1000006662782F36394639363044362D344446342D343946362D394244322D3234314243333846323333332F7265736F
310
75726365732F636F72652E786D6C504B0506000000000E000E0080040000621100000000
  0
XRECORD
  5
176
102
{ACAD_REACTORS
330
173
102
}
330
173
100
AcDbXrecord
280
     1
270
     1
271
     1
  0
XRECORD
  5
177
102
{ACAD_REACTORS
330
173
102
}
330
173
100
AcDbXrecord
280
     1
270
     1
271
     1
  0
XRECORD
  5
9E4F
102
{ACAD_REACTORS
330
9E4E
102
}
330
9E4E
100
AcDbXrecord
280
     1
102
ACAD_ROUNDTRIP_2012_MLEADER_STYLE
298
     1
  0
XRECORD
  5
9E61
102
{ACAD_REACTORS
330
9E60
102
}
330
9E60
100
AcDbXrecord
280
     1
102
DISPLAYNAME
  1
Metric50
102
FLAGS
 90
        0
  0
CELLSTYLEMAP
  5
9E21
102
{ACAD_REACTORS
330
162
102
}
330
162
100
AcDbCellStyleMap
 90
        3
300
CELLSTYLE
  1
TABLEFORMAT_BEGIN
 90
        5
170
     1
 91
        0
 92
    32768
 62
   257
 93
        1
300
CONTENTFORMAT
  1
CONTENTFORMAT_BEGIN
 90
        0
 91
        0
 92
      512
 93
        0
300

 40
0.0
140
1.0
 94
        5
 62
     0
340
11
144
6.0
309
CONTENTFORMAT_END
171
     1
301
MARGIN
  1
CELLMARGIN_BEGIN
 40
1.5
 40
1.5
 40
1.5
 40
1.5
 40
4.5
 40
4.5
309
CELLMARGIN_END
 94
        6
 95
        1
302
GRIDFORMAT
  1
GRIDFORMAT_BEGIN
 90
        0
 91
        1
 62
     0
 92
       -2
340
14
 93
        0
 40
1.125
309
GRIDFORMAT_END
 95
        2
302
GRIDFORMAT
  1
GRIDFORMAT_BEGIN
 90
        0
 91
        1
 62
     0
 92
       -2
340
14
 93
        0
 40
1.125
309
GRIDFORMAT_END
 95
        4
302
GRIDFORMAT
  1
GRIDFORMAT_BEGIN
 90
        0
 91
        1
 62
     0
 92
       -2
340
14
 93
        0
 40
1.125
309
GRIDFORMAT_END
 95
        8
302
GRIDFORMAT
  1
GRIDFORMAT_BEGIN
 90
        0
 91
        1
 62
     0
 92
       -2
340
14
 93
        0
 40
1.125
309
GRIDFORMAT_END
 95
       16
302
GRIDFORMAT
  1
GRIDFORMAT_BEGIN
 90
        0
 91
        1
 62
     0
 92
       -2
340
14
 93
        0
 40
1.125
309
GRIDFORMAT_END
 95
       32
302
GRIDFORMAT
  1
GRIDFORMAT_BEGIN
 90
        0
 91
        1
 62
     0
 92
       -2
340
14
 93
        0
 40
1.125
309
GRIDFORMAT_END
309
TABLEFORMAT_END
  1
CELLSTYLE_BEGIN
 90
        1
 91
        1
300
_TITLE
309
CELLSTYLE_END
300
CELLSTYLE
  1
TABLEFORMAT_BEGIN
 90
        5
170
     1
 91
        0
 92
        0
 62
   257
 93
        1
300
CONTENTFORMAT
  1
CONTENTFORMAT_BEGIN
 90
        0
 91
        0
 92
      512
 93
        0
300

 40
0.0
140
1.0
 94
        5
 62
     0
340
11
144
4.5
309
CONTENTFORMAT_END
171
     1
301
MARGIN
  1
CELLMARGIN_BEGIN
 40
1.5
 40
1.5
 40
1.5
 40
1.5
 40
4.5
 40
4.5
309
CELLMARGIN_END
 94
        6
 95
        1
302
GRIDFORMAT
  1
GRIDFORMAT_BEGIN
 90
        0
 91
        1
 62
     0
 92
       -2
340
14
 93
        0
 40
1.125
309
GRIDFORMAT_END
 95
        2
302
GRIDFORMAT
  1
GRIDFORMAT_BEGIN
 90
        0
 91
        1
 62
     0
 92
       -2
340
14
 93
        0
 40
1.125
309
GRIDFORMAT_END
 95
        4
302
GRIDFORMAT
  1
GRIDFORMAT_BEGIN
 90
        0
 91
        1
 62
     0
 92
       -2
340
14
 93
        0
 40
1.125
309
GRIDFORMAT_END
 95
        8
302
GRIDFORMAT
  1
GRIDFORMAT_BEGIN
 90
        0
 91
        1
 62
     0
 92
       -2
340
14
 93
        0
 40
1.125
309
GRIDFORMAT_END
 95
       16
302
GRIDFORMAT
  1
GRIDFORMAT_BEGIN
 90
        0
 91
        1
 62
     0
 92
       -2
340
14
 93
        0
 40
1.125
309
GRIDFORMAT_END
 95
       32
302
GRIDFORMAT
  1
GRIDFORMAT_BEGIN
 90
        0
 91
        1
 62
     0
 92
       -2
340
14
 93
        0
 40
1.125
309
GRIDFORMAT_END
309
TABLEFORMAT_END
  1
CELLSTYLE_BEGIN
 90
        2
 91
        1
300
_HEADER
309
CELLSTYLE_END
300
CELLSTYLE
  1
TABLEFORMAT_BEGIN
 90
        5
170
     1
 91
        0
 92
        0
 62
   257
 93
        1
300
CONTENTFORMAT
  1
CONTENTFORMAT_BEGIN
 90
        0
 91
        0
 92
      512
 93
        0
300

 40
0.0
140
1.0
 94
        2
 62
     0
340
11
144
4.5
309
CONTENTFORMAT_END
171
     1
301
MARGIN
  1
CELLMARGIN_BEGIN
 40
1.5
 40
1.5
 40
1.5
 40
1.5
 40
4.5
 40
4.5
309
CELLMARGIN_END
 94
        6
 95
        1
302
GRIDFORMAT
  1
GRIDFORMAT_BEGIN
 90
        0
 91
        1
 62
     0
 92
       -2
340
14
 93
        0
 40
1.125
309
GRIDFORMAT_END
 95
        2
302
GRIDFORMAT
  1
GRIDFORMAT_BEGIN
 90
        0
 91
        1
 62
     0
 92
       -2
340
14
 93
        0
 40
1.125
309
GRIDFORMAT_END
 95
        4
302
GRIDFORMAT
  1
GRIDFORMAT_BEGIN
 90
        0
 91
        1
 62
     0
 92
       -2
340
14
 93
        0
 40
1.125
309
GRIDFORMAT_END
 95
        8
302
GRIDFORMAT
  1
GRIDFORMAT_BEGIN
 90
        0
 91
        1
 62
     0
 92
       -2
340
14
 93
        0
 40
1.125
309
GRIDFORMAT_END
 95
       16
302
GRIDFORMAT
  1
GRIDFORMAT_BEGIN
 90
        0
 91
        1
 62
     0
 92
       -2
340
14
 93
        0
 40
1.125
309
GRIDFORMAT_END
 95
       32
302
GRIDFORMAT
  1
GRIDFORMAT_BEGIN
 90
        0
 91
        1
 62
     0
 92
       -2
340
14
 93
        0
 40
1.125
309
GRIDFORMAT_END
309
TABLEFORMAT_END
  1
CELLSTYLE_BEGIN
 90
        3
 91
        2
300
_DATA
309
CELLSTYLE_END
  0
XRECORD
  5
9E26
102
{ACAD_REACTORS
330
162
102
}
330
162
100
AcDbXrecord
280
     1
102
ACAD_ROUNDTRIP_PRE2007_TABLESTYLE
 90
      512
 91
        0
  1

 92
      512
 93
        0
  2

 94
      512
 95
        0
  3

  0
XRECORD
  5
9E39
102
{ACAD_REACTORS
330
9E38
102
}
330
9E38
100
AcDbXrecord
280
     1
102
RTVSPost2010Prop28
280
     1
102
RTVSPost2010PropOp28
 70
     1
102
RTVSPost2010Prop29
280
     1
102
RTVSPost2010PropOp29
 70
     1
102
RTVSPost2010Prop30
280
     0
102
RTVSPost2010PropOp30
 70
     1
102
RTVSPost2010Prop31
280
     0
102
RTVSPost2010PropOp31
 70
     1
102
RTVSPost2010Prop32
280
     0
102
RTVSPost2010PropOp32
 70
     1
102
RTVSPost2010Prop33
280
     0
102
RTVSPost2010PropOp33
 70
     1
102
RTVSPost2010Prop34
280
     0
102
RTVSPost2010PropOp34
 70
     1
102
RTVSPost2010Prop35
280
     0
102
RTVSPost2010PropOp35
 70
     1
102
RTVSPost2010Prop36
280
     0
102
RTVSPost2010PropOp36
 70
     1
102
RTVSPost2010Prop37
 90
       50
102
RTVSPost2010PropOp37
 70
     1
102
RTVSPost2010Prop38
140
0.0
102
RTVSPost2010PropOp38
 70
     1
102
RTVSPost2010Prop39
140
1.0
102
RTVSPost2010PropOp39
 70
     1
102
RTVSPost2010Prop40
 90
        0
102
RTVSPost2010PropOp40
 70
     1
102
RTVSPost2010Prop41ColorIndex
 90
       18
102
RTVSPost2010Prop41ColorRGB
 90
        0
102
RTVSPost2010PropOp41
 70
     1
102
RTVSPost2010Prop42
 90
       50
102
RTVSPost2010PropOp42
 70
     1
102
RTVSPost2010Prop43
 90
        3
102
RTVSPost2010PropOp43
 70
     1
102
RTVSPost2010Prop44ColorIndex
 90
        5
102
RTVSPost2010Prop44ColorRGB
 90
      255
102
RTVSPost2010PropOp44
 70
     1
102
RTVSPost2010Prop45
280
     0
102
RTVSPost2010PropOp45
 70
     1
102
RTVSPost2010Prop46
 90
       50
102
RTVSPost2010PropOp46
 70
     1
102
RTVSPost2010Prop47
 90
       50
102
RTVSPost2010PropOp47
 70
     1
102
RTVSPost2010Prop48
 90
       50
102
RTVSPost2010PropOp48
 70
     1
102
RTVSPost2010Prop49
280
     0
102
RTVSPost2010PropOp49
 70
     1
102
RTVSPost2010Prop50
 90
       50
102
RTVSPost2010PropOp50
 70
     1
102
RTVSPost2010Prop51ColorIndex
 90
      256
102
RTVSPost2010Prop51ColorRGB
 90
-16777216
102
RTVSPost2010PropOp51
 70
     0
102
RTVSPost2010Prop52
140
1.0
102
RTVSPost2010PropOp52
 70
     0
102
RTVSPost2010Prop53
 90
        2
102
RTVSPost2010PropOp53
 70
     1
102
RTVSPost2010Prop54
  1
strokes_ogs.tif
102
RTVSPost2010PropOp54
 70
     1
102
RTVSPost2010Prop55
280
     0
102
RTVSPost2010PropOp55
 70
     1
102
RTVSPost2010Prop56
140
1.0
102
RTVSPost2010PropOp56
 70
     1
102
RTVSPost2010Prop57
140
1.0
102
RTVSPost2010PropOp57
 70
     1
102
RTVSPropertyOp0
 70
     1
102
RTVSPropertyOp1
 70
     1
102
RTVSPropertyOp2
 70
     1
102
RTVSPropertyOp3
 70
     1
102
RTVSPropertyOp4
 70
     1
102
RTVSPropertyOp5
 70
     1
102
RTVSPropertyOp6
 70
     1
102
RTVSPropertyOp7
 70
     1
102
RTVSPropertyOp8
 70
     1
102
RTVSPropertyOp9
 70
     1
102
RTVSPropertyOp10
 70
     1
102
RTVSPropertyOp11
 70
     1
102
RTVSPropertyOp12
 70
     1
102
RTVSPropertyOp13
 70
     1
102
RTVSPropertyOp14
 70
     1
102
RTVSPropertyOp15
 70
     1
102
RTVSPropertyOp16
 70
     1
102
RTVSPropertyOp17
 70
     1
102
RTVSPropertyOp18
 70
     1
102
RTVSPropertyOp19
 70
     1
102
RTVSPropertyOp20
 70
     1
102
RTVSPropertyOp21
 70
     1
102
RTVSPropertyOp22
 70
     1
102
RTVSPropertyOp23
 70
     1
102
RTVSPropertyOp24
 70
     1
102
RTVSPropertyOp25
 70
     1
102
RTVSPropertyOp26
 70
     1
102
RTVSPropertyOp27
 70
     1
102
RTVSPropertyOp28
 70
     1
102
RTVSPropertyOp29
 70
     1
102
RTVSPropertyOp30
 70
     1
102
RTVSPropertyOp31
 70
     1
102
RTVSPropertyOp32
 70
     1
102
RTVSPropertyOp33
 70
     1
102
RTVSPropertyOp34
 70
     1
102
RTVSPropertyOp35
 70
     1
102
RTVSPropertyOp36
 70
     1
102
RTVSPropertyOp37
 70
     1
102
RTVSPropertyOp38
 70
     1
102
RTVSPropertyOp39
 70
     1
102
RTVSPropertyOp40
 70
     1
102
RTVSPropertyOp41
 70
     1
102
RTVSPropertyOp42
 70
     1
102
RTVSPropertyOp43
 70
     1
102
RTVSPropertyOp44
 70
     1
102
RTVSPropertyOp45
 70
     1
102
RTVSPropertyOp46
 70
     1
102
RTVSPropertyOp47
 70
     1
102
RTVSPropertyOp48
 70
     1
102
RTVSPropertyOp49
 70
     1
102
RTVSPropertyOp50
 70
     1
102
RTVSPropertyOp51
 70
     0
102
RTVSPropertyOp52
 70
     0
102
RTVSPropertyOp53
 70
     1
102
RTVSPropertyOp54
 70
     1
102
RTVSPropertyOp55
 70
     1
102
RTVSPropertyOp56
 70
     1
102
RTVSPropertyOp57
 70
     1
102
RTVSPropertyOp58
 70
     1
102
RTVSPropertyOp59
 70
     1
102
RTVSPropertyOp60
 70
     1
102
RTVSPropertyOp61
 70
     1
102
RTVSPropertyOp62
 70
     1
  0
XRECORD
  5
9E37
102
{ACAD_REACTORS
330
9E36
102
}
330
9E36
100
AcDbXrecord
280
     1
102
RTVSPost2010Prop28
280
     0
102
RTVSPost2010PropOp28
 70
     1
102
RTVSPost2010Prop29
280
     1
102
RTVSPost2010PropOp29
 70
     1
102
RTVSPost2010Prop30
280
     1
102
RTVSPost2010PropOp30
 70
     1
102
RTVSPost2010Prop31
280
     0
102
RTVSPost2010PropOp31
 70
     1
102
RTVSPost2010Prop32
280
     0
102
RTVSPost2010PropOp32
 70
     1
102
RTVSPost2010Prop33
280
     0
102
RTVSPost2010PropOp33
 70
     1
102
RTVSPost2010Prop34
280
     0
102
RTVSPost2010PropOp34
 70
     1
102
RTVSPost2010Prop35
280
     0
102
RTVSPost2010PropOp35
 70
     1
102
RTVSPost2010Prop36
280
     0
102
RTVSPost2010PropOp36
 70
     1
102
RTVSPost2010Prop37
 90
       50
102
RTVSPost2010PropOp37
 70
     1
102
RTVSPost2010Prop38
140
0.0
102
RTVSPost2010PropOp38
 70
     1
102
RTVSPost2010Prop39
140
1.0
102
RTVSPost2010PropOp39
 70
     1
102
RTVSPost2010Prop40
 90
        0
102
RTVSPost2010PropOp40
 70
     1
102
RTVSPost2010Prop41ColorIndex
 90
       18
102
RTVSPost2010Prop41ColorRGB
 90
        0
102
RTVSPost2010PropOp41
 70
     1
102
RTVSPost2010Prop42
 90
       50
102
RTVSPost2010PropOp42
 70
     1
102
RTVSPost2010Prop43
 90
        3
102
RTVSPost2010PropOp43
 70
     1
102
RTVSPost2010Prop44ColorIndex
 90
        5
102
RTVSPost2010Prop44ColorRGB
 90
      255
102
RTVSPost2010PropOp44
 70
     1
102
RTVSPost2010Prop45
280
     0
102
RTVSPost2010PropOp45
 70
     1
102
RTVSPost2010Prop46
 90
       50
102
RTVSPost2010PropOp46
 70
     1
102
RTVSPost2010Prop47
 90
       50
102
RTVSPost2010PropOp47
 70
     1
102
RTVSPost2010Prop48
 90
       50
102
RTVSPost2010PropOp48
 70
     1
102
RTVSPost2010Prop49
280
     0
102
RTVSPost2010PropOp49
 70
     1
102
RTVSPost2010Prop50
 90
       50
102
RTVSPost2010PropOp50
 70
     1
102
RTVSPost2010Prop51ColorIndex
 90
      256
102
RTVSPost2010Prop51ColorRGB
 90
-16777216
102
RTVSPost2010PropOp51
 70
     0
102
RTVSPost2010Prop52
140
1.0
102
RTVSPost2010PropOp52
 70
     0
102
RTVSPost2010Prop53
 90
        2
102
RTVSPost2010PropOp53
 70
     1
102
RTVSPost2010Prop54
  1
strokes_ogs.tif
102
RTVSPost2010PropOp54
 70
     1
102
RTVSPost2010Prop55
280
     0
102
RTVSPost2010PropOp55
 70
     1
102
RTVSPost2010Prop56
140
1.0
102
RTVSPost2010PropOp56
 70
     1
102
RTVSPost2010Prop57
140
1.0
102
RTVSPost2010PropOp57
 70
     1
102
RTVSPropertyOp0
 70
     1
102
RTVSPropertyOp1
 70
     1
102
RTVSPropertyOp2
 70
     1
102
RTVSPropertyOp3
 70
     1
102
RTVSPropertyOp4
 70
     1
102
RTVSPropertyOp5
 70
     1
102
RTVSPropertyOp6
 70
     1
102
RTVSPropertyOp7
 70
     1
102
RTVSPropertyOp8
 70
     1
102
RTVSPropertyOp9
 70
     1
102
RTVSPropertyOp10
 70
     1
102
RTVSPropertyOp11
 70
     1
102
RTVSPropertyOp12
 70
     1
102
RTVSPropertyOp13
 70
     1
102
RTVSPropertyOp14
 70
     1
102
RTVSPropertyOp15
 70
     1
102
RTVSPropertyOp16
 70
     1
102
RTVSPropertyOp17
 70
     1
102
RTVSPropertyOp18
 70
     1
102
RTVSPropertyOp19
 70
     1
102
RTVSPropertyOp20
 70
     1
102
RTVSPropertyOp21
 70
     1
102
RTVSPropertyOp22
 70
     1
102
RTVSPropertyOp23
 70
     1
102
RTVSPropertyOp24
 70
     1
102
RTVSPropertyOp25
 70
     1
102
RTVSPropertyOp26
 70
     1
102
RTVSPropertyOp27
 70
     1
102
RTVSPropertyOp28
 70
     1
102
RTVSPropertyOp29
 70
     1
102
RTVSPropertyOp30
 70
     1
102
RTVSPropertyOp31
 70
     1
102
RTVSPropertyOp32
 70
     1
102
RTVSPropertyOp33
 70
     1
102
RTVSPropertyOp34
 70
     1
102
RTVSPropertyOp35
 70
     1
102
RTVSPropertyOp36
 70
     1
102
RTVSPropertyOp37
 70
     1
102
RTVSPropertyOp38
 70
     1
102
RTVSPropertyOp39
 70
     1
102
RTVSPropertyOp40
 70
     1
102
RTVSPropertyOp41
 70
     1
102
RTVSPropertyOp42
 70
     1
102
RTVSPropertyOp43
 70
     1
102
RTVSPropertyOp44
 70
     1
102
RTVSPropertyOp45
 70
     1
102
RTVSPropertyOp46
 70
     1
102
RTVSPropertyOp47
 70
     1
102
RTVSPropertyOp48
 70
     1
102
RTVSPropertyOp49
 70
     1
102
RTVSPropertyOp50
 70
     1
102
RTVSPropertyOp51
 70
     0
102
RTVSPropertyOp52
 70
     0
102
RTVSPropertyOp53
 70
     1
102
RTVSPropertyOp54
 70
     1
102
RTVSPropertyOp55
 70
     1
102
RTVSPropertyOp56
 70
     1
102
RTVSPropertyOp57
 70
     1
102
RTVSPropertyOp58
 70
     1
102
RTVSPropertyOp59
 70
     1
102
RTVSPropertyOp60
 70
     1
102
RTVSPropertyOp61
 70
     1
102
RTVSPropertyOp62
 70
     1
  0
XRECORD
  5
9E45
102
{ACAD_REACTORS
330
9E44
102
}
330
9E44
100
AcDbXrecord
280
     1
102
RTVSPost2010Prop28
280
     0
102
RTVSPost2010PropOp28
 70
     1
102
RTVSPost2010Prop29
280
     1
102
RTVSPost2010PropOp29
 70
     1
102
RTVSPost2010Prop30
280
     1
102
RTVSPost2010PropOp30
 70
     1
102
RTVSPost2010Prop31
280
     0
102
RTVSPost2010PropOp31
 70
     1
102
RTVSPost2010Prop32
280
     0
102
RTVSPost2010PropOp32
 70
     1
102
RTVSPost2010Prop33
280
     0
102
RTVSPost2010PropOp33
 70
     1
102
RTVSPost2010Prop34
280
     0
102
RTVSPost2010PropOp34
 70
     1
102
RTVSPost2010Prop35
280
     0
102
RTVSPost2010PropOp35
 70
     1
102
RTVSPost2010Prop36
280
     0
102
RTVSPost2010PropOp36
 70
     1
102
RTVSPost2010Prop37
 90
       50
102
RTVSPost2010PropOp37
 70
     1
102
RTVSPost2010Prop38
140
0.0
102
RTVSPost2010PropOp38
 70
     1
102
RTVSPost2010Prop39
140
1.0
102
RTVSPost2010PropOp39
 70
     1
102
RTVSPost2010Prop40
 90
        0
102
RTVSPost2010PropOp40
 70
     1
102
RTVSPost2010Prop41ColorIndex
 90
       18
102
RTVSPost2010Prop41ColorRGB
 90
        0
102
RTVSPost2010PropOp41
 70
     1
102
RTVSPost2010Prop42
 90
       50
102
RTVSPost2010PropOp42
 70
     1
102
RTVSPost2010Prop43
 90
        3
102
RTVSPost2010PropOp43
 70
     1
102
RTVSPost2010Prop44ColorIndex
 90
        5
102
RTVSPost2010Prop44ColorRGB
 90
      255
102
RTVSPost2010PropOp44
 70
     1
102
RTVSPost2010Prop45
280
     0
102
RTVSPost2010PropOp45
 70
     1
102
RTVSPost2010Prop46
 90
       50
102
RTVSPost2010PropOp46
 70
     1
102
RTVSPost2010Prop47
 90
       50
102
RTVSPost2010PropOp47
 70
     1
102
RTVSPost2010Prop48
 90
       50
102
RTVSPost2010PropOp48
 70
     1
102
RTVSPost2010Prop49
280
     0
102
RTVSPost2010PropOp49
 70
     1
102
RTVSPost2010Prop50
 90
       50
102
RTVSPost2010PropOp50
 70
     1
102
RTVSPost2010Prop51ColorIndex
 90
      256
102
RTVSPost2010Prop51ColorRGB
 90
-16777216
102
RTVSPost2010PropOp51
 70
     0
102
RTVSPost2010Prop52
140
1.0
102
RTVSPost2010PropOp52
 70
     0
102
RTVSPost2010Prop53
 90
        2
102
RTVSPost2010PropOp53
 70
     1
102
RTVSPost2010Prop54
  1
strokes_ogs.tif
102
RTVSPost2010PropOp54
 70
     1
102
RTVSPost2010Prop55
280
     0
102
RTVSPost2010PropOp55
 70
     1
102
RTVSPost2010Prop56
140
1.0
102
RTVSPost2010PropOp56
 70
     1
102
RTVSPost2010Prop57
140
1.0
102
RTVSPost2010PropOp57
 70
     1
102
RTVSPropertyOp0
 70
     1
102
RTVSPropertyOp1
 70
     1
102
RTVSPropertyOp2
 70
     1
102
RTVSPropertyOp3
 70
     1
102
RTVSPropertyOp4
 70
     1
102
RTVSPropertyOp5
 70
     1
102
RTVSPropertyOp6
 70
     1
102
RTVSPropertyOp7
 70
     1
102
RTVSPropertyOp8
 70
     1
102
RTVSPropertyOp9
 70
     1
102
RTVSPropertyOp10
 70
     1
102
RTVSPropertyOp11
 70
     1
102
RTVSPropertyOp12
 70
     1
102
RTVSPropertyOp13
 70
     1
102
RTVSPropertyOp14
 70
     1
102
RTVSPropertyOp15
 70
     1
102
RTVSPropertyOp16
 70
     1
102
RTVSPropertyOp17
 70
     1
102
RTVSPropertyOp18
 70
     1
102
RTVSPropertyOp19
 70
     1
102
RTVSPropertyOp20
 70
     1
102
RTVSPropertyOp21
 70
     1
102
RTVSPropertyOp22
 70
     1
102
RTVSPropertyOp23
 70
     1
102
RTVSPropertyOp24
 70
     1
102
RTVSPropertyOp25
 70
     1
102
RTVSPropertyOp26
 70
     1
102
RTVSPropertyOp27
 70
     1
102
RTVSPropertyOp28
 70
     1
102
RTVSPropertyOp29
 70
     1
102
RTVSPropertyOp30
 70
     1
102
RTVSPropertyOp31
 70
     1
102
RTVSPropertyOp32
 70
     1
102
RTVSPropertyOp33
 70
     1
102
RTVSPropertyOp34
 70
     1
102
RTVSPropertyOp35
 70
     1
102
RTVSPropertyOp36
 70
     1
102
RTVSPropertyOp37
 70
     1
102
RTVSPropertyOp38
 70
     1
102
RTVSPropertyOp39
 70
     1
102
RTVSPropertyOp40
 70
     1
102
RTVSPropertyOp41
 70
     1
102
RTVSPropertyOp42
 70
     1
102
RTVSPropertyOp43
 70
     1
102
RTVSPropertyOp44
 70
     1
102
RTVSPropertyOp45
 70
     1
102
RTVSPropertyOp46
 70
     1
102
RTVSPropertyOp47
 70
     1
102
RTVSPropertyOp48
 70
     1
102
RTVSPropertyOp49
 70
     1
102
RTVSPropertyOp50
 70
     1
102
RTVSPropertyOp51
 70
     0
102
RTVSPropertyOp52
 70
     0
102
RTVSPropertyOp53
 70
     1
102
RTVSPropertyOp54
 70
     1
102
RTVSPropertyOp55
 70
     1
102
RTVSPropertyOp56
 70
     1
102
RTVSPropertyOp57
 70
     1
102
RTVSPropertyOp58
 70
     1
102
RTVSPropertyOp59
 70
     1
102
RTVSPropertyOp60
 70
     1
102
RTVSPropertyOp61
 70
     1
102
RTVSPropertyOp62
 70
     1
  0
XRECORD
  5
9E4D
102
{ACAD_REACTORS
330
9E4C
102
}
330
9E4C
100
AcDbXrecord
280
     1
102
RTVSPost2010Prop28
280
     0
102
RTVSPost2010PropOp28
 70
     1
102
RTVSPost2010Prop29
280
     1
102
RTVSPost2010PropOp29
 70
     1
102
RTVSPost2010Prop30
280
     1
102
RTVSPost2010PropOp30
 70
     1
102
RTVSPost2010Prop31
280
     0
102
RTVSPost2010PropOp31
 70
     1
102
RTVSPost2010Prop32
280
     0
102
RTVSPost2010PropOp32
 70
     1
102
RTVSPost2010Prop33
280
     0
102
RTVSPost2010PropOp33
 70
     1
102
RTVSPost2010Prop34
280
     0
102
RTVSPost2010PropOp34
 70
     1
102
RTVSPost2010Prop35
280
     0
102
RTVSPost2010PropOp35
 70
     1
102
RTVSPost2010Prop36
280
     0
102
RTVSPost2010PropOp36
 70
     1
102
RTVSPost2010Prop37
 90
       50
102
RTVSPost2010PropOp37
 70
     1
102
RTVSPost2010Prop38
140
0.0
102
RTVSPost2010PropOp38
 70
     1
102
RTVSPost2010Prop39
140
1.0
102
RTVSPost2010PropOp39
 70
     1
102
RTVSPost2010Prop40
 90
        0
102
RTVSPost2010PropOp40
 70
     1
102
RTVSPost2010Prop41ColorIndex
 90
       18
102
RTVSPost2010Prop41ColorRGB
 90
        0
102
RTVSPost2010PropOp41
 70
     1
102
RTVSPost2010Prop42
 90
       50
102
RTVSPost2010PropOp42
 70
     1
102
RTVSPost2010Prop43
 90
        3
102
RTVSPost2010PropOp43
 70
     1
102
RTVSPost2010Prop44ColorIndex
 90
        5
102
RTVSPost2010Prop44ColorRGB
 90
      255
102
RTVSPost2010PropOp44
 70
     1
102
RTVSPost2010Prop45
280
     0
102
RTVSPost2010PropOp45
 70
     1
102
RTVSPost2010Prop46
 90
       50
102
RTVSPost2010PropOp46
 70
     1
102
RTVSPost2010Prop47
 90
       50
102
RTVSPost2010PropOp47
 70
     1
102
RTVSPost2010Prop48
 90
       50
102
RTVSPost2010PropOp48
 70
     1
102
RTVSPost2010Prop49
280
     0
102
RTVSPost2010PropOp49
 70
     1
102
RTVSPost2010Prop50
 90
       50
102
RTVSPost2010PropOp50
 70
     1
102
RTVSPost2010Prop51ColorIndex
 90
      256
102
RTVSPost2010Prop51ColorRGB
 90
-16777216
102
RTVSPost2010PropOp51
 70
     0
102
RTVSPost2010Prop52
140
1.0
102
RTVSPost2010PropOp52
 70
     0
102
RTVSPost2010Prop53
 90
        2
102
RTVSPost2010PropOp53
 70
     1
102
RTVSPost2010Prop54
  1
strokes_ogs.tif
102
RTVSPost2010PropOp54
 70
     1
102
RTVSPost2010Prop55
280
     0
102
RTVSPost2010PropOp55
 70
     1
102
RTVSPost2010Prop56
140
1.0
102
RTVSPost2010PropOp56
 70
     1
102
RTVSPost2010Prop57
140
1.0
102
RTVSPost2010PropOp57
 70
     1
102
RTVSPropertyOp0
 70
     1
102
RTVSPropertyOp1
 70
     1
102
RTVSPropertyOp2
 70
     1
102
RTVSPropertyOp3
 70
     1
102
RTVSPropertyOp4
 70
     1
102
RTVSPropertyOp5
 70
     1
102
RTVSPropertyOp6
 70
     1
102
RTVSPropertyOp7
 70
     1
102
RTVSPropertyOp8
 70
     1
102
RTVSPropertyOp9
 70
     1
102
RTVSPropertyOp10
 70
     1
102
RTVSPropertyOp11
 70
     1
102
RTVSPropertyOp12
 70
     1
102
RTVSPropertyOp13
 70
     1
102
RTVSPropertyOp14
 70
     1
102
RTVSPropertyOp15
 70
     1
102
RTVSPropertyOp16
 70
     1
102
RTVSPropertyOp17
 70
     1
102
RTVSPropertyOp18
 70
     1
102
RTVSPropertyOp19
 70
     1
102
RTVSPropertyOp20
 70
     1
102
RTVSPropertyOp21
 70
     1
102
RTVSPropertyOp22
 70
     1
102
RTVSPropertyOp23
 70
     1
102
RTVSPropertyOp24
 70
     1
102
RTVSPropertyOp25
 70
     1
102
RTVSPropertyOp26
 70
     1
102
RTVSPropertyOp27
 70
     1
102
RTVSPropertyOp28
 70
     1
102
RTVSPropertyOp29
 70
     1
102
RTVSPropertyOp30
 70
     1
102
RTVSPropertyOp31
 70
     1
102
RTVSPropertyOp32
 70
     1
102
RTVSPropertyOp33
 70
     1
102
RTVSPropertyOp34
 70
     1
102
RTVSPropertyOp35
 70
     1
102
RTVSPropertyOp36
 70
     1
102
RTVSPropertyOp37
 70
     1
102
RTVSPropertyOp38
 70
     1
102
RTVSPropertyOp39
 70
     1
102
RTVSPropertyOp40
 70
     1
102
RTVSPropertyOp41
 70
     1
102
RTVSPropertyOp42
 70
     1
102
RTVSPropertyOp43
 70
     1
102
RTVSPropertyOp44
 70
     1
102
RTVSPropertyOp45
 70
     1
102
RTVSPropertyOp46
 70
     1
102
RTVSPropertyOp47
 70
     1
102
RTVSPropertyOp48
 70
     1
102
RTVSPropertyOp49
 70
     1
102
RTVSPropertyOp50
 70
     1
102
RTVSPropertyOp51
 70
     0
102
RTVSPropertyOp52
 70
     0
102
RTVSPropertyOp53
 70
     1
102
RTVSPropertyOp54
 70
     1
102
RTVSPropertyOp55
 70
     1
102
RTVSPropertyOp56
 70
     1
102
RTVSPropertyOp57
 70
     1
102
RTVSPropertyOp58
 70
     1
102
RTVSPropertyOp59
 70
     1
102
RTVSPropertyOp60
 70
     1
102
RTVSPropertyOp61
 70
     1
102
RTVSPropertyOp62
 70
     1
  0
XRECORD
  5
9E3F
102
{ACAD_REACTORS
330
9E3E
102
}
330
9E3E
100
AcDbXrecord
280
     1
102
RTVSPost2010Prop28
280
     0
102
RTVSPost2010PropOp28
 70
     1
102
RTVSPost2010Prop29
280
     1
102
RTVSPost2010PropOp29
 70
     1
102
RTVSPost2010Prop30
280
     1
102
RTVSPost2010PropOp30
 70
     1
102
RTVSPost2010Prop31
280
     0
102
RTVSPost2010PropOp31
 70
     1
102
RTVSPost2010Prop32
280
     0
102
RTVSPost2010PropOp32
 70
     1
102
RTVSPost2010Prop33
280
     0
102
RTVSPost2010PropOp33
 70
     1
102
RTVSPost2010Prop34
280
     0
102
RTVSPost2010PropOp34
 70
     1
102
RTVSPost2010Prop35
280
     0
102
RTVSPost2010PropOp35
 70
     1
102
RTVSPost2010Prop36
280
     0
102
RTVSPost2010PropOp36
 70
     1
102
RTVSPost2010Prop37
 90
       50
102
RTVSPost2010PropOp37
 70
     1
102
RTVSPost2010Prop38
140
0.0
102
RTVSPost2010PropOp38
 70
     1
102
RTVSPost2010Prop39
140
1.0
102
RTVSPost2010PropOp39
 70
     1
102
RTVSPost2010Prop40
 90
        0
102
RTVSPost2010PropOp40
 70
     1
102
RTVSPost2010Prop41ColorIndex
 90
       18
102
RTVSPost2010Prop41ColorRGB
 90
        0
102
RTVSPost2010PropOp41
 70
     1
102
RTVSPost2010Prop42
 90
       50
102
RTVSPost2010PropOp42
 70
     1
102
RTVSPost2010Prop43
 90
        3
102
RTVSPost2010PropOp43
 70
     1
102
RTVSPost2010Prop44ColorIndex
 90
        5
102
RTVSPost2010Prop44ColorRGB
 90
      255
102
RTVSPost2010PropOp44
 70
     1
102
RTVSPost2010Prop45
280
     0
102
RTVSPost2010PropOp45
 70
     1
102
RTVSPost2010Prop46
 90
       50
102
RTVSPost2010PropOp46
 70
     1
102
RTVSPost2010Prop47
 90
       50
102
RTVSPost2010PropOp47
 70
     1
102
RTVSPost2010Prop48
 90
       50
102
RTVSPost2010PropOp48
 70
     1
102
RTVSPost2010Prop49
280
     0
102
RTVSPost2010PropOp49
 70
     1
102
RTVSPost2010Prop50
 90
       50
102
RTVSPost2010PropOp50
 70
     1
102
RTVSPost2010Prop51ColorIndex
 90
      256
102
RTVSPost2010Prop51ColorRGB
 90
-16777216
102
RTVSPost2010PropOp51
 70
     0
102
RTVSPost2010Prop52
140
1.0
102
RTVSPost2010PropOp52
 70
     0
102
RTVSPost2010Prop53
 90
        2
102
RTVSPost2010PropOp53
 70
     1
102
RTVSPost2010Prop54
  1
strokes_ogs.tif
102
RTVSPost2010PropOp54
 70
     1
102
RTVSPost2010Prop55
280
     0
102
RTVSPost2010PropOp55
 70
     1
102
RTVSPost2010Prop56
140
1.0
102
RTVSPost2010PropOp56
 70
     1
102
RTVSPost2010Prop57
140
1.0
102
RTVSPost2010PropOp57
 70
     1
102
RTVSPropertyOp0
 70
     1
102
RTVSPropertyOp1
 70
     1
102
RTVSPropertyOp2
 70
     1
102
RTVSPropertyOp3
 70
     1
102
RTVSPropertyOp4
 70
     1
102
RTVSPropertyOp5
 70
     1
102
RTVSPropertyOp6
 70
     1
102
RTVSPropertyOp7
 70
     1
102
RTVSPropertyOp8
 70
     1
102
RTVSPropertyOp9
 70
     1
102
RTVSPropertyOp10
 70
     1
102
RTVSPropertyOp11
 70
     1
102
RTVSPropertyOp12
 70
     1
102
RTVSPropertyOp13
 70
     1
102
RTVSPropertyOp14
 70
     1
102
RTVSPropertyOp15
 70
     1
102
RTVSPropertyOp16
 70
     1
102
RTVSPropertyOp17
 70
     1
102
RTVSPropertyOp18
 70
     1
102
RTVSPropertyOp19
 70
     1
102
RTVSPropertyOp20
 70
     1
102
RTVSPropertyOp21
 70
     1
102
RTVSPropertyOp22
 70
     1
102
RTVSPropertyOp23
 70
     1
102
RTVSPropertyOp24
 70
     1
102
RTVSPropertyOp25
 70
     1
102
RTVSPropertyOp26
 70
     1
102
RTVSPropertyOp27
 70
     1
102
RTVSPropertyOp28
 70
     1
102
RTVSPropertyOp29
 70
     1
102
RTVSPropertyOp30
 70
     1
102
RTVSPropertyOp31
 70
     1
102
RTVSPropertyOp32
 70
     1
102
RTVSPropertyOp33
 70
     1
102
RTVSPropertyOp34
 70
     1
102
RTVSPropertyOp35
 70
     1
102
RTVSPropertyOp36
 70
     1
102
RTVSPropertyOp37
 70
     1
102
RTVSPropertyOp38
 70
     1
102
RTVSPropertyOp39
 70
     1
102
RTVSPropertyOp40
 70
     1
102
RTVSPropertyOp41
 70
     1
102
RTVSPropertyOp42
 70
     1
102
RTVSPropertyOp43
 70
     1
102
RTVSPropertyOp44
 70
     1
102
RTVSPropertyOp45
 70
     1
102
RTVSPropertyOp46
 70
     1
102
RTVSPropertyOp47
 70
     1
102
RTVSPropertyOp48
 70
     1
102
RTVSPropertyOp49
 70
     1
102
RTVSPropertyOp50
 70
     1
102
RTVSPropertyOp51
 70
     0
102
RTVSPropertyOp52
 70
     0
102
RTVSPropertyOp53
 70
     1
102
RTVSPropertyOp54
 70
     1
102
RTVSPropertyOp55
 70
     1
102
RTVSPropertyOp56
 70
     1
102
RTVSPropertyOp57
 70
     1
102
RTVSPropertyOp58
 70
     1
102
RTVSPropertyOp59
 70
     1
102
RTVSPropertyOp60
 70
     1
102
RTVSPropertyOp61
 70
     1
102
RTVSPropertyOp62
 70
     1
  0
XRECORD
  5
9E43
102
{ACAD_REACTORS
330
9E42
102
}
330
9E42
100
AcDbXrecord
280
     1
102
RTVSPost2010Prop28
280
     0
102
RTVSPost2010PropOp28
 70
     1
102
RTVSPost2010Prop29
280
     1
102
RTVSPost2010PropOp29
 70
     1
102
RTVSPost2010Prop30
280
     1
102
RTVSPost2010PropOp30
 70
     1
102
RTVSPost2010Prop31
280
     0
102
RTVSPost2010PropOp31
 70
     1
102
RTVSPost2010Prop32
280
     0
102
RTVSPost2010PropOp32
 70
     1
102
RTVSPost2010Prop33
280
     0
102
RTVSPost2010PropOp33
 70
     1
102
RTVSPost2010Prop34
280
     0
102
RTVSPost2010PropOp34
 70
     1
102
RTVSPost2010Prop35
280
     0
102
RTVSPost2010PropOp35
 70
     1
102
RTVSPost2010Prop36
280
     0
102
RTVSPost2010PropOp36
 70
     1
102
RTVSPost2010Prop37
 90
       50
102
RTVSPost2010PropOp37
 70
     1
102
RTVSPost2010Prop38
140
0.0
102
RTVSPost2010PropOp38
 70
     1
102
RTVSPost2010Prop39
140
1.0
102
RTVSPost2010PropOp39
 70
     1
102
RTVSPost2010Prop40
 90
        0
102
RTVSPost2010PropOp40
 70
     1
102
RTVSPost2010Prop41ColorIndex
 90
       18
102
RTVSPost2010Prop41ColorRGB
 90
        0
102
RTVSPost2010PropOp41
 70
     1
102
RTVSPost2010Prop42
 90
       50
102
RTVSPost2010PropOp42
 70
     1
102
RTVSPost2010Prop43
 90
        3
102
RTVSPost2010PropOp43
 70
     1
102
RTVSPost2010Prop44ColorIndex
 90
        5
102
RTVSPost2010Prop44ColorRGB
 90
      255
102
RTVSPost2010PropOp44
 70
     1
102
RTVSPost2010Prop45
280
     0
102
RTVSPost2010PropOp45
 70
     1
102
RTVSPost2010Prop46
 90
       50
102
RTVSPost2010PropOp46
 70
     1
102
RTVSPost2010Prop47
 90
       50
102
RTVSPost2010PropOp47
 70
     1
102
RTVSPost2010Prop48
 90
       50
102
RTVSPost2010PropOp48
 70
     1
102
RTVSPost2010Prop49
280
     0
102
RTVSPost2010PropOp49
 70
     1
102
RTVSPost2010Prop50
 90
       50
102
RTVSPost2010PropOp50
 70
     1
102
RTVSPost2010Prop51ColorIndex
 90
      256
102
RTVSPost2010Prop51ColorRGB
 90
-16777216
102
RTVSPost2010PropOp51
 70
     0
102
RTVSPost2010Prop52
140
1.0
102
RTVSPost2010PropOp52
 70
     0
102
RTVSPost2010Prop53
 90
        2
102
RTVSPost2010PropOp53
 70
     1
102
RTVSPost2010Prop54
  1
strokes_ogs.tif
102
RTVSPost2010PropOp54
 70
     1
102
RTVSPost2010Prop55
280
     0
102
RTVSPost2010PropOp55
 70
     1
102
RTVSPost2010Prop56
140
1.0
102
RTVSPost2010PropOp56
 70
     1
102
RTVSPost2010Prop57
140
1.0
102
RTVSPost2010PropOp57
 70
     1
102
RTVSPropertyOp0
 70
     1
102
RTVSPropertyOp1
 70
     1
102
RTVSPropertyOp2
 70
     1
102
RTVSPropertyOp3
 70
     1
102
RTVSPropertyOp4
 70
     1
102
RTVSPropertyOp5
 70
     1
102
RTVSPropertyOp6
 70
     1
102
RTVSPropertyOp7
 70
     1
102
RTVSPropertyOp8
 70
     1
102
RTVSPropertyOp9
 70
     1
102
RTVSPropertyOp10
 70
     1
102
RTVSPropertyOp11
 70
     1
102
RTVSPropertyOp12
 70
     1
102
RTVSPropertyOp13
 70
     1
102
RTVSPropertyOp14
 70
     1
102
RTVSPropertyOp15
 70
     1
102
RTVSPropertyOp16
 70
     1
102
RTVSPropertyOp17
 70
     1
102
RTVSPropertyOp18
 70
     1
102
RTVSPropertyOp19
 70
     1
102
RTVSPropertyOp20
 70
     1
102
RTVSPropertyOp21
 70
     1
102
RTVSPropertyOp22
 70
     1
102
RTVSPropertyOp23
 70
     1
102
RTVSPropertyOp24
 70
     1
102
RTVSPropertyOp25
 70
     1
102
RTVSPropertyOp26
 70
     1
102
RTVSPropertyOp27
 70
     1
102
RTVSPropertyOp28
 70
     1
102
RTVSPropertyOp29
 70
     1
102
RTVSPropertyOp30
 70
     1
102
RTVSPropertyOp31
 70
     1
102
RTVSPropertyOp32
 70
     1
102
RTVSPropertyOp33
 70
     1
102
RTVSPropertyOp34
 70
     1
102
RTVSPropertyOp35
 70
     1
102
RTVSPropertyOp36
 70
     1
102
RTVSPropertyOp37
 70
     1
102
RTVSPropertyOp38
 70
     1
102
RTVSPropertyOp39
 70
     1
102
RTVSPropertyOp40
 70
     1
102
RTVSPropertyOp41
 70
     1
102
RTVSPropertyOp42
 70
     1
102
RTVSPropertyOp43
 70
     1
102
RTVSPropertyOp44
 70
     1
102
RTVSPropertyOp45
 70
     1
102
RTVSPropertyOp46
 70
     1
102
RTVSPropertyOp47
 70
     1
102
RTVSPropertyOp48
 70
     1
102
RTVSPropertyOp49
 70
     1
102
RTVSPropertyOp50
 70
     1
102
RTVSPropertyOp51
 70
     0
102
RTVSPropertyOp52
 70
     0
102
RTVSPropertyOp53
 70
     1
102
RTVSPropertyOp54
 70
     1
102
RTVSPropertyOp55
 70
     1
102
RTVSPropertyOp56
 70
     1
102
RTVSPropertyOp57
 70
     1
102
RTVSPropertyOp58
 70
     1
102
RTVSPropertyOp59
 70
     1
102
RTVSPropertyOp60
 70
     1
102
RTVSPropertyOp61
 70
     1
102
RTVSPropertyOp62
 70
     1
  0
XRECORD
  5
9E55
102
{ACAD_REACTORS
330
9E54
102
}
330
9E54
100
AcDbXrecord
280
     1
102
RTVSPost2010Prop28
280
     0
102
RTVSPost2010PropOp28
 70
     1
102
RTVSPost2010Prop29
280
     1
102
RTVSPost2010PropOp29
 70
     1
102
RTVSPost2010Prop30
280
     1
102
RTVSPost2010PropOp30
 70
     1
102
RTVSPost2010Prop31
280
     0
102
RTVSPost2010PropOp31
 70
     1
102
RTVSPost2010Prop32
280
     0
102
RTVSPost2010PropOp32
 70
     1
102
RTVSPost2010Prop33
280
     0
102
RTVSPost2010PropOp33
 70
     1
102
RTVSPost2010Prop34
280
     0
102
RTVSPost2010PropOp34
 70
     1
102
RTVSPost2010Prop35
280
     0
102
RTVSPost2010PropOp35
 70
     1
102
RTVSPost2010Prop36
280
     0
102
RTVSPost2010PropOp36
 70
     1
102
RTVSPost2010Prop37
 90
       50
102
RTVSPost2010PropOp37
 70
     1
102
RTVSPost2010Prop38
140
0.0
102
RTVSPost2010PropOp38
 70
     1
102
RTVSPost2010Prop39
140
1.0
102
RTVSPost2010PropOp39
 70
     1
102
RTVSPost2010Prop40
 90
        0
102
RTVSPost2010PropOp40
 70
     1
102
RTVSPost2010Prop41ColorIndex
 90
       18
102
RTVSPost2010Prop41ColorRGB
 90
        0
102
RTVSPost2010PropOp41
 70
     1
102
RTVSPost2010Prop42
 90
       50
102
RTVSPost2010PropOp42
 70
     1
102
RTVSPost2010Prop43
 90
        3
102
RTVSPost2010PropOp43
 70
     1
102
RTVSPost2010Prop44ColorIndex
 90
        5
102
RTVSPost2010Prop44ColorRGB
 90
      255
102
RTVSPost2010PropOp44
 70
     1
102
RTVSPost2010Prop45
280
     0
102
RTVSPost2010PropOp45
 70
     1
102
RTVSPost2010Prop46
 90
       50
102
RTVSPost2010PropOp46
 70
     1
102
RTVSPost2010Prop47
 90
       50
102
RTVSPost2010PropOp47
 70
     1
102
RTVSPost2010Prop48
 90
       50
102
RTVSPost2010PropOp48
 70
     1
102
RTVSPost2010Prop49
280
     0
102
RTVSPost2010PropOp49
 70
     1
102
RTVSPost2010Prop50
 90
       50
102
RTVSPost2010PropOp50
 70
     1
102
RTVSPost2010Prop51ColorIndex
 90
      256
102
RTVSPost2010Prop51ColorRGB
 90
-16777216
102
RTVSPost2010PropOp51
 70
     0
102
RTVSPost2010Prop52
140
1.0
102
RTVSPost2010PropOp52
 70
     0
102
RTVSPost2010Prop53
 90
        2
102
RTVSPost2010PropOp53
 70
     1
102
RTVSPost2010Prop54
  1
strokes_ogs.tif
102
RTVSPost2010PropOp54
 70
     1
102
RTVSPost2010Prop55
280
     0
102
RTVSPost2010PropOp55
 70
     1
102
RTVSPost2010Prop56
140
1.0
102
RTVSPost2010PropOp56
 70
     1
102
RTVSPost2010Prop57
140
1.0
102
RTVSPost2010PropOp57
 70
     1
102
RTVSPropertyOp0
 70
     0
102
RTVSPropertyOp1
 70
     0
102
RTVSPropertyOp2
 70
     0
102
RTVSPropertyOp3
 70
     0
102
RTVSPropertyOp4
 70
     0
102
RTVSPropertyOp5
 70
     0
102
RTVSPropertyOp6
 70
     0
102
RTVSPropertyOp7
 70
     0
102
RTVSPropertyOp8
 70
     0
102
RTVSPropertyOp9
 70
     0
102
RTVSPropertyOp10
 70
     0
102
RTVSPropertyOp11
 70
     0
102
RTVSPropertyOp12
 70
     0
102
RTVSPropertyOp13
 70
     0
102
RTVSPropertyOp14
 70
     2
102
RTVSPropertyOp15
 70
     0
102
RTVSPropertyOp16
 70
     0
102
RTVSPropertyOp17
 70
     0
102
RTVSPropertyOp18
 70
     0
102
RTVSPropertyOp19
 70
     0
102
RTVSPropertyOp20
 70
     0
102
RTVSPropertyOp21
 70
     0
102
RTVSPropertyOp22
 70
     0
102
RTVSPropertyOp23
 70
     0
102
RTVSPropertyOp24
 70
     0
102
RTVSPropertyOp25
 70
     0
102
RTVSPropertyOp26
 70
     0
102
RTVSPropertyOp27
 70
     0
102
RTVSPropertyOp28
 70
     1
102
RTVSPropertyOp29
 70
     1
102
RTVSPropertyOp30
 70
     1
102
RTVSPropertyOp31
 70
     1
102
RTVSPropertyOp32
 70
     1
102
RTVSPropertyOp33
 70
     1
102
RTVSPropertyOp34
 70
     1
102
RTVSPropertyOp35
 70
     1
102
RTVSPropertyOp36
 70
     1
102
RTVSPropertyOp37
 70
     1
102
RTVSPropertyOp38
 70
     1
102
RTVSPropertyOp39
 70
     1
102
RTVSPropertyOp40
 70
     1
102
RTVSPropertyOp41
 70
     1
102
RTVSPropertyOp42
 70
     1
102
RTVSPropertyOp43
 70
     1
102
RTVSPropertyOp44
 70
     1
102
RTVSPropertyOp45
 70
     1
102
RTVSPropertyOp46
 70
     1
102
RTVSPropertyOp47
 70
     1
102
RTVSPropertyOp48
 70
     1
102
RTVSPropertyOp49
 70
     1
102
RTVSPropertyOp50
 70
     1
102
RTVSPropertyOp51
 70
     0
102
RTVSPropertyOp52
 70
     0
102
RTVSPropertyOp53
 70
     1
102
RTVSPropertyOp54
 70
     1
102
RTVSPropertyOp55
 70
     1
102
RTVSPropertyOp56
 70
     1
102
RTVSPropertyOp57
 70
     1
102
RTVSPropertyOp58
 70
     1
102
RTVSPropertyOp59
 70
     1
102
RTVSPropertyOp60
 70
     1
102
RTVSPropertyOp61
 70
     1
102
RTVSPropertyOp62
 70
     1
  0
XRECORD
  5
9E4B
102
{ACAD_REACTORS
330
9E4A
102
}
330
9E4A
100
AcDbXrecord
280
     1
102
RTVSPost2010Prop28
280
     0
102
RTVSPost2010PropOp28
 70
     1
102
RTVSPost2010Prop29
280
     1
102
RTVSPost2010PropOp29
 70
     1
102
RTVSPost2010Prop30
280
     1
102
RTVSPost2010PropOp30
 70
     1
102
RTVSPost2010Prop31
280
     0
102
RTVSPost2010PropOp31
 70
     1
102
RTVSPost2010Prop32
280
     0
102
RTVSPost2010PropOp32
 70
     1
102
RTVSPost2010Prop33
280
     0
102
RTVSPost2010PropOp33
 70
     1
102
RTVSPost2010Prop34
280
     0
102
RTVSPost2010PropOp34
 70
     1
102
RTVSPost2010Prop35
280
     0
102
RTVSPost2010PropOp35
 70
     1
102
RTVSPost2010Prop36
280
     0
102
RTVSPost2010PropOp36
 70
     1
102
RTVSPost2010Prop37
 90
       50
102
RTVSPost2010PropOp37
 70
     1
102
RTVSPost2010Prop38
140
0.0
102
RTVSPost2010PropOp38
 70
     1
102
RTVSPost2010Prop39
140
1.0
102
RTVSPost2010PropOp39
 70
     1
102
RTVSPost2010Prop40
 90
        0
102
RTVSPost2010PropOp40
 70
     1
102
RTVSPost2010Prop41ColorIndex
 90
       18
102
RTVSPost2010Prop41ColorRGB
 90
        0
102
RTVSPost2010PropOp41
 70
     1
102
RTVSPost2010Prop42
 90
       50
102
RTVSPost2010PropOp42
 70
     1
102
RTVSPost2010Prop43
 90
        3
102
RTVSPost2010PropOp43
 70
     1
102
RTVSPost2010Prop44ColorIndex
 90
        5
102
RTVSPost2010Prop44ColorRGB
 90
      255
102
RTVSPost2010PropOp44
 70
     1
102
RTVSPost2010Prop45
280
     0
102
RTVSPost2010PropOp45
 70
     1
102
RTVSPost2010Prop46
 90
       50
102
RTVSPost2010PropOp46
 70
     1
102
RTVSPost2010Prop47
 90
       50
102
RTVSPost2010PropOp47
 70
     1
102
RTVSPost2010Prop48
 90
       50
102
RTVSPost2010PropOp48
 70
     1
102
RTVSPost2010Prop49
280
     0
102
RTVSPost2010PropOp49
 70
     1
102
RTVSPost2010Prop50
 90
       50
102
RTVSPost2010PropOp50
 70
     1
102
RTVSPost2010Prop51ColorIndex
 90
      256
102
RTVSPost2010Prop51ColorRGB
 90
-16777216
102
RTVSPost2010PropOp51
 70
     0
102
RTVSPost2010Prop52
140
1.0
102
RTVSPost2010PropOp52
 70
     0
102
RTVSPost2010Prop53
 90
        2
102
RTVSPost2010PropOp53
 70
     1
102
RTVSPost2010Prop54
  1
strokes_ogs.tif
102
RTVSPost2010PropOp54
 70
     1
102
RTVSPost2010Prop55
280
     0
102
RTVSPost2010PropOp55
 70
     1
102
RTVSPost2010Prop56
140
1.0
102
RTVSPost2010PropOp56
 70
     1
102
RTVSPost2010Prop57
140
1.0
102
RTVSPost2010PropOp57
 70
     1
102
RTVSPropertyOp0
 70
     1
102
RTVSPropertyOp1
 70
     1
102
RTVSPropertyOp2
 70
     1
102
RTVSPropertyOp3
 70
     1
102
RTVSPropertyOp4
 70
     1
102
RTVSPropertyOp5
 70
     1
102
RTVSPropertyOp6
 70
     1
102
RTVSPropertyOp7
 70
     1
102
RTVSPropertyOp8
 70
     1
102
RTVSPropertyOp9
 70
     1
102
RTVSPropertyOp10
 70
     1
102
RTVSPropertyOp11
 70
     1
102
RTVSPropertyOp12
 70
     1
102
RTVSPropertyOp13
 70
     1
102
RTVSPropertyOp14
 70
     1
102
RTVSPropertyOp15
 70
     1
102
RTVSPropertyOp16
 70
     1
102
RTVSPropertyOp17
 70
     1
102
RTVSPropertyOp18
 70
     1
102
RTVSPropertyOp19
 70
     1
102
RTVSPropertyOp20
 70
     1
102
RTVSPropertyOp21
 70
     1
102
RTVSPropertyOp22
 70
     1
102
RTVSPropertyOp23
 70
     1
102
RTVSPropertyOp24
 70
     1
102
RTVSPropertyOp25
 70
     1
102
RTVSPropertyOp26
 70
     1
102
RTVSPropertyOp27
 70
     1
102
RTVSPropertyOp28
 70
     1
102
RTVSPropertyOp29
 70
     1
102
RTVSPropertyOp30
 70
     1
102
RTVSPropertyOp31
 70
     1
102
RTVSPropertyOp32
 70
     1
102
RTVSPropertyOp33
 70
     1
102
RTVSPropertyOp34
 70
     1
102
RTVSPropertyOp35
 70
     1
102
RTVSPropertyOp36
 70
     1
102
RTVSPropertyOp37
 70
     1
102
RTVSPropertyOp38
 70
     1
102
RTVSPropertyOp39
 70
     1
102
RTVSPropertyOp40
 70
     1
102
RTVSPropertyOp41
 70
     1
102
RTVSPropertyOp42
 70
     1
102
RTVSPropertyOp43
 70
     1
102
RTVSPropertyOp44
 70
     1
102
RTVSPropertyOp45
 70
     1
102
RTVSPropertyOp46
 70
     1
102
RTVSPropertyOp47
 70
     1
102
RTVSPropertyOp48
 70
     1
102
RTVSPropertyOp49
 70
     1
102
RTVSPropertyOp50
 70
     1
102
RTVSPropertyOp51
 70
     0
102
RTVSPropertyOp52
 70
     0
102
RTVSPropertyOp53
 70
     1
102
RTVSPropertyOp54
 70
     1
102
RTVSPropertyOp55
 70
     1
102
RTVSPropertyOp56
 70
     1
102
RTVSPropertyOp57
 70
     1
102
RTVSPropertyOp58
 70
     1
102
RTVSPropertyOp59
 70
     1
102
RTVSPropertyOp60
 70
     1
102
RTVSPropertyOp61
 70
     1
102
RTVSPropertyOp62
 70
     1
  0
XRECORD
  5
9E2F
102
{ACAD_REACTORS
330
9E2E
102
}
330
9E2E
100
AcDbXrecord
280
     1
102
RTVSPost2010Prop28
280
     0
102
RTVSPost2010PropOp28
 70
     1
102
RTVSPost2010Prop29
280
     1
102
RTVSPost2010PropOp29
 70
     1
102
RTVSPost2010Prop30
280
     1
102
RTVSPost2010PropOp30
 70
     1
102
RTVSPost2010Prop31
280
     0
102
RTVSPost2010PropOp31
 70
     1
102
RTVSPost2010Prop32
280
     0
102
RTVSPost2010PropOp32
 70
     1
102
RTVSPost2010Prop33
280
     0
102
RTVSPost2010PropOp33
 70
     1
102
RTVSPost2010Prop34
280
     0
102
RTVSPost2010PropOp34
 70
     1
102
RTVSPost2010Prop35
280
     0
102
RTVSPost2010PropOp35
 70
     1
102
RTVSPost2010Prop36
280
     0
102
RTVSPost2010PropOp36
 70
     1
102
RTVSPost2010Prop37
 90
       50
102
RTVSPost2010PropOp37
 70
     1
102
RTVSPost2010Prop38
140
0.0
102
RTVSPost2010PropOp38
 70
     1
102
RTVSPost2010Prop39
140
1.0
102
RTVSPost2010PropOp39
 70
     1
102
RTVSPost2010Prop40
 90
        0
102
RTVSPost2010PropOp40
 70
     1
102
RTVSPost2010Prop41ColorIndex
 90
       18
102
RTVSPost2010Prop41ColorRGB
 90
        0
102
RTVSPost2010PropOp41
 70
     1
102
RTVSPost2010Prop42
 90
       50
102
RTVSPost2010PropOp42
 70
     1
102
RTVSPost2010Prop43
 90
        3
102
RTVSPost2010PropOp43
 70
     1
102
RTVSPost2010Prop44ColorIndex
 90
        5
102
RTVSPost2010Prop44ColorRGB
 90
      255
102
RTVSPost2010PropOp44
 70
     1
102
RTVSPost2010Prop45
280
     0
102
RTVSPost2010PropOp45
 70
     1
102
RTVSPost2010Prop46
 90
       50
102
RTVSPost2010PropOp46
 70
     1
102
RTVSPost2010Prop47
 90
       50
102
RTVSPost2010PropOp47
 70
     1
102
RTVSPost2010Prop48
 90
       50
102
RTVSPost2010PropOp48
 70
     1
102
RTVSPost2010Prop49
280
     0
102
RTVSPost2010PropOp49
 70
     1
102
RTVSPost2010Prop50
 90
       50
102
RTVSPost2010PropOp50
 70
     1
102
RTVSPost2010Prop51ColorIndex
 90
      256
102
RTVSPost2010Prop51ColorRGB
 90
-16777216
102
RTVSPost2010PropOp51
 70
     0
102
RTVSPost2010Prop52
140
1.0
102
RTVSPost2010PropOp52
 70
     0
102
RTVSPost2010Prop53
 90
        2
102
RTVSPost2010PropOp53
 70
     1
102
RTVSPost2010Prop54
  1
strokes_ogs.tif
102
RTVSPost2010PropOp54
 70
     1
102
RTVSPost2010Prop55
280
     0
102
RTVSPost2010PropOp55
 70
     1
102
RTVSPost2010Prop56
140
1.0
102
RTVSPost2010PropOp56
 70
     1
102
RTVSPost2010Prop57
140
1.0
102
RTVSPost2010PropOp57
 70
     1
102
RTVSPropertyOp0
 70
     1
102
RTVSPropertyOp1
 70
     1
102
RTVSPropertyOp2
 70
     1
102
RTVSPropertyOp3
 70
     1
102
RTVSPropertyOp4
 70
     1
102
RTVSPropertyOp5
 70
     1
102
RTVSPropertyOp6
 70
     1
102
RTVSPropertyOp7
 70
     1
102
RTVSPropertyOp8
 70
     1
102
RTVSPropertyOp9
 70
     1
102
RTVSPropertyOp10
 70
     1
102
RTVSPropertyOp11
 70
     1
102
RTVSPropertyOp12
 70
     1
102
RTVSPropertyOp13
 70
     1
102
RTVSPropertyOp14
 70
     1
102
RTVSPropertyOp15
 70
     1
102
RTVSPropertyOp16
 70
     1
102
RTVSPropertyOp17
 70
     1
102
RTVSPropertyOp18
 70
     1
102
RTVSPropertyOp19
 70
     1
102
RTVSPropertyOp20
 70
     1
102
RTVSPropertyOp21
 70
     1
102
RTVSPropertyOp22
 70
     1
102
RTVSPropertyOp23
 70
     1
102
RTVSPropertyOp24
 70
     1
102
RTVSPropertyOp25
 70
     1
102
RTVSPropertyOp26
 70
     1
102
RTVSPropertyOp27
 70
     1
102
RTVSPropertyOp28
 70
     1
102
RTVSPropertyOp29
 70
     1
102
RTVSPropertyOp30
 70
     1
102
RTVSPropertyOp31
 70
     1
102
RTVSPropertyOp32
 70
     1
102
RTVSPropertyOp33
 70
     1
102
RTVSPropertyOp34
 70
     1
102
RTVSPropertyOp35
 70
     1
102
RTVSPropertyOp36
 70
     1
102
RTVSPropertyOp37
 70
     1
102
RTVSPropertyOp38
 70
     1
102
RTVSPropertyOp39
 70
     1
102
RTVSPropertyOp40
 70
     1
102
RTVSPropertyOp41
 70
     1
102
RTVSPropertyOp42
 70
     1
102
RTVSPropertyOp43
 70
     1
102
RTVSPropertyOp44
 70
     1
102
RTVSPropertyOp45
 70
     1
102
RTVSPropertyOp46
 70
     1
102
RTVSPropertyOp47
 70
     1
102
RTVSPropertyOp48
 70
     1
102
RTVSPropertyOp49
 70
     1
102
RTVSPropertyOp50
 70
     1
102
RTVSPropertyOp51
 70
     0
102
RTVSPropertyOp52
 70
     0
102
RTVSPropertyOp53
 70
     1
102
RTVSPropertyOp54
 70
     1
102
RTVSPropertyOp55
 70
     1
102
RTVSPropertyOp56
 70
     1
102
RTVSPropertyOp57
 70
     1
102
RTVSPropertyOp58
 70
     1
102
RTVSPropertyOp59
 70
     1
102
RTVSPropertyOp60
 70
     1
102
RTVSPropertyOp61
 70
     1
102
RTVSPropertyOp62
 70
     1
  0
XRECORD
  5
9E31
102
{ACAD_REACTORS
330
9E30
102
}
330
9E30
100
AcDbXrecord
280
     1
102
RTVSPost2010Prop28
280
     0
102
RTVSPost2010PropOp28
 70
     1
102
RTVSPost2010Prop29
280
     1
102
RTVSPost2010PropOp29
 70
     1
102
RTVSPost2010Prop30
280
     1
102
RTVSPost2010PropOp30
 70
     1
102
RTVSPost2010Prop31
280
     0
102
RTVSPost2010PropOp31
 70
     1
102
RTVSPost2010Prop32
280
     0
102
RTVSPost2010PropOp32
 70
     1
102
RTVSPost2010Prop33
280
     0
102
RTVSPost2010PropOp33
 70
     1
102
RTVSPost2010Prop34
280
     0
102
RTVSPost2010PropOp34
 70
     1
102
RTVSPost2010Prop35
280
     0
102
RTVSPost2010PropOp35
 70
     1
102
RTVSPost2010Prop36
280
     0
102
RTVSPost2010PropOp36
 70
     1
102
RTVSPost2010Prop37
 90
       50
102
RTVSPost2010PropOp37
 70
     1
102
RTVSPost2010Prop38
140
0.0
102
RTVSPost2010PropOp38
 70
     1
102
RTVSPost2010Prop39
140
1.0
102
RTVSPost2010PropOp39
 70
     1
102
RTVSPost2010Prop40
 90
        0
102
RTVSPost2010PropOp40
 70
     1
102
RTVSPost2010Prop41ColorIndex
 90
       18
102
RTVSPost2010Prop41ColorRGB
 90
        0
102
RTVSPost2010PropOp41
 70
     1
102
RTVSPost2010Prop42
 90
       50
102
RTVSPost2010PropOp42
 70
     1
102
RTVSPost2010Prop43
 90
        3
102
RTVSPost2010PropOp43
 70
     1
102
RTVSPost2010Prop44ColorIndex
 90
        5
102
RTVSPost2010Prop44ColorRGB
 90
      255
102
RTVSPost2010PropOp44
 70
     1
102
RTVSPost2010Prop45
280
     0
102
RTVSPost2010PropOp45
 70
     1
102
RTVSPost2010Prop46
 90
       50
102
RTVSPost2010PropOp46
 70
     1
102
RTVSPost2010Prop47
 90
       50
102
RTVSPost2010PropOp47
 70
     1
102
RTVSPost2010Prop48
 90
       50
102
RTVSPost2010PropOp48
 70
     1
102
RTVSPost2010Prop49
280
     0
102
RTVSPost2010PropOp49
 70
     1
102
RTVSPost2010Prop50
 90
       50
102
RTVSPost2010PropOp50
 70
     1
102
RTVSPost2010Prop51ColorIndex
 90
      256
102
RTVSPost2010Prop51ColorRGB
 90
-16777216
102
RTVSPost2010PropOp51
 70
     0
102
RTVSPost2010Prop52
140
1.0
102
RTVSPost2010PropOp52
 70
     0
102
RTVSPost2010Prop53
 90
        2
102
RTVSPost2010PropOp53
 70
     1
102
RTVSPost2010Prop54
  1
strokes_ogs.tif
102
RTVSPost2010PropOp54
 70
     1
102
RTVSPost2010Prop55
280
     0
102
RTVSPost2010PropOp55
 70
     1
102
RTVSPost2010Prop56
140
1.0
102
RTVSPost2010PropOp56
 70
     1
102
RTVSPost2010Prop57
140
1.0
102
RTVSPost2010PropOp57
 70
     1
102
RTVSPropertyOp0
 70
     1
102
RTVSPropertyOp1
 70
     1
102
RTVSPropertyOp2
 70
     1
102
RTVSPropertyOp3
 70
     1
102
RTVSPropertyOp4
 70
     1
102
RTVSPropertyOp5
 70
     1
102
RTVSPropertyOp6
 70
     1
102
RTVSPropertyOp7
 70
     1
102
RTVSPropertyOp8
 70
     1
102
RTVSPropertyOp9
 70
     1
102
RTVSPropertyOp10
 70
     1
102
RTVSPropertyOp11
 70
     1
102
RTVSPropertyOp12
 70
     1
102
RTVSPropertyOp13
 70
     1
102
RTVSPropertyOp14
 70
     1
102
RTVSPropertyOp15
 70
     1
102
RTVSPropertyOp16
 70
     1
102
RTVSPropertyOp17
 70
     1
102
RTVSPropertyOp18
 70
     1
102
RTVSPropertyOp19
 70
     1
102
RTVSPropertyOp20
 70
     1
102
RTVSPropertyOp21
 70
     1
102
RTVSPropertyOp22
 70
     1
102
RTVSPropertyOp23
 70
     1
102
RTVSPropertyOp24
 70
     1
102
RTVSPropertyOp25
 70
     1
102
RTVSPropertyOp26
 70
     1
102
RTVSPropertyOp27
 70
     1
102
RTVSPropertyOp28
 70
     1
102
RTVSPropertyOp29
 70
     1
102
RTVSPropertyOp30
 70
     1
102
RTVSPropertyOp31
 70
     1
102
RTVSPropertyOp32
 70
     1
102
RTVSPropertyOp33
 70
     1
102
RTVSPropertyOp34
 70
     1
102
RTVSPropertyOp35
 70
     1
102
RTVSPropertyOp36
 70
     1
102
RTVSPropertyOp37
 70
     1
102
RTVSPropertyOp38
 70
     1
102
RTVSPropertyOp39
 70
     1
102
RTVSPropertyOp40
 70
     1
102
RTVSPropertyOp41
 70
     1
102
RTVSPropertyOp42
 70
     1
102
RTVSPropertyOp43
 70
     1
102
RTVSPropertyOp44
 70
     1
102
RTVSPropertyOp45
 70
     1
102
RTVSPropertyOp46
 70
     1
102
RTVSPropertyOp47
 70
     1
102
RTVSPropertyOp48
 70
     1
102
RTVSPropertyOp49
 70
     1
102
RTVSPropertyOp50
 70
     1
102
RTVSPropertyOp51
 70
     0
102
RTVSPropertyOp52
 70
     0
102
RTVSPropertyOp53
 70
     1
102
RTVSPropertyOp54
 70
     1
102
RTVSPropertyOp55
 70
     1
102
RTVSPropertyOp56
 70
     1
102
RTVSPropertyOp57
 70
     1
102
RTVSPropertyOp58
 70
     1
102
RTVSPropertyOp59
 70
     1
102
RTVSPropertyOp60
 70
     1
102
RTVSPropertyOp61
 70
     1
102
RTVSPropertyOp62
 70
     1
  0
XRECORD
  5
9E33
102
{ACAD_REACTORS
330
9E32
102
}
330
9E32
100
AcDbXrecord
280
     1
102
RTVSPost2010Prop28
280
     0
102
RTVSPost2010PropOp28
 70
     1
102
RTVSPost2010Prop29
280
     1
102
RTVSPost2010PropOp29
 70
     1
102
RTVSPost2010Prop30
280
     1
102
RTVSPost2010PropOp30
 70
     1
102
RTVSPost2010Prop31
280
     0
102
RTVSPost2010PropOp31
 70
     1
102
RTVSPost2010Prop32
280
     0
102
RTVSPost2010PropOp32
 70
     1
102
RTVSPost2010Prop33
280
     0
102
RTVSPost2010PropOp33
 70
     1
102
RTVSPost2010Prop34
280
     0
102
RTVSPost2010PropOp34
 70
     1
102
RTVSPost2010Prop35
280
     0
102
RTVSPost2010PropOp35
 70
     1
102
RTVSPost2010Prop36
280
     0
102
RTVSPost2010PropOp36
 70
     1
102
RTVSPost2010Prop37
 90
       50
102
RTVSPost2010PropOp37
 70
     1
102
RTVSPost2010Prop38
140
0.0
102
RTVSPost2010PropOp38
 70
     1
102
RTVSPost2010Prop39
140
1.0
102
RTVSPost2010PropOp39
 70
     1
102
RTVSPost2010Prop40
 90
        0
102
RTVSPost2010PropOp40
 70
     1
102
RTVSPost2010Prop41ColorIndex
 90
       18
102
RTVSPost2010Prop41ColorRGB
 90
        0
102
RTVSPost2010PropOp41
 70
     1
102
RTVSPost2010Prop42
 90
       50
102
RTVSPost2010PropOp42
 70
     1
102
RTVSPost2010Prop43
 90
        3
102
RTVSPost2010PropOp43
 70
     1
102
RTVSPost2010Prop44ColorIndex
 90
        5
102
RTVSPost2010Prop44ColorRGB
 90
      255
102
RTVSPost2010PropOp44
 70
     1
102
RTVSPost2010Prop45
280
     0
102
RTVSPost2010PropOp45
 70
     1
102
RTVSPost2010Prop46
 90
       50
102
RTVSPost2010PropOp46
 70
     1
102
RTVSPost2010Prop47
 90
       50
102
RTVSPost2010PropOp47
 70
     1
102
RTVSPost2010Prop48
 90
       50
102
RTVSPost2010PropOp48
 70
     1
102
RTVSPost2010Prop49
280
     0
102
RTVSPost2010PropOp49
 70
     1
102
RTVSPost2010Prop50
 90
       50
102
RTVSPost2010PropOp50
 70
     1
102
RTVSPost2010Prop51ColorIndex
 90
      256
102
RTVSPost2010Prop51ColorRGB
 90
-16777216
102
RTVSPost2010PropOp51
 70
     0
102
RTVSPost2010Prop52
140
1.0
102
RTVSPost2010PropOp52
 70
     0
102
RTVSPost2010Prop53
 90
        2
102
RTVSPost2010PropOp53
 70
     1
102
RTVSPost2010Prop54
  1
strokes_ogs.tif
102
RTVSPost2010PropOp54
 70
     1
102
RTVSPost2010Prop55
280
     0
102
RTVSPost2010PropOp55
 70
     1
102
RTVSPost2010Prop56
140
1.0
102
RTVSPost2010PropOp56
 70
     1
102
RTVSPost2010Prop57
140
1.0
102
RTVSPost2010PropOp57
 70
     1
102
RTVSPropertyOp0
 70
     1
102
RTVSPropertyOp1
 70
     1
102
RTVSPropertyOp2
 70
     1
102
RTVSPropertyOp3
 70
     1
102
RTVSPropertyOp4
 70
     1
102
RTVSPropertyOp5
 70
     1
102
RTVSPropertyOp6
 70
     1
102
RTVSPropertyOp7
 70
     1
102
RTVSPropertyOp8
 70
     1
102
RTVSPropertyOp9
 70
     1
102
RTVSPropertyOp10
 70
     1
102
RTVSPropertyOp11
 70
     1
102
RTVSPropertyOp12
 70
     1
102
RTVSPropertyOp13
 70
     1
102
RTVSPropertyOp14
 70
     1
102
RTVSPropertyOp15
 70
     1
102
RTVSPropertyOp16
 70
     1
102
RTVSPropertyOp17
 70
     1
102
RTVSPropertyOp18
 70
     1
102
RTVSPropertyOp19
 70
     1
102
RTVSPropertyOp20
 70
     1
102
RTVSPropertyOp21
 70
     1
102
RTVSPropertyOp22
 70
     1
102
RTVSPropertyOp23
 70
     1
102
RTVSPropertyOp24
 70
     1
102
RTVSPropertyOp25
 70
     1
102
RTVSPropertyOp26
 70
     1
102
RTVSPropertyOp27
 70
     1
102
RTVSPropertyOp28
 70
     1
102
RTVSPropertyOp29
 70
     1
102
RTVSPropertyOp30
 70
     1
102
RTVSPropertyOp31
 70
     1
102
RTVSPropertyOp32
 70
     1
102
RTVSPropertyOp33
 70
     1
102
RTVSPropertyOp34
 70
     1
102
RTVSPropertyOp35
 70
     1
102
RTVSPropertyOp36
 70
     1
102
RTVSPropertyOp37
 70
     1
102
RTVSPropertyOp38
 70
     1
102
RTVSPropertyOp39
 70
     1
102
RTVSPropertyOp40
 70
     1
102
RTVSPropertyOp41
 70
     1
102
RTVSPropertyOp42
 70
     1
102
RTVSPropertyOp43
 70
     1
102
RTVSPropertyOp44
 70
     1
102
RTVSPropertyOp45
 70
     1
102
RTVSPropertyOp46
 70
     1
102
RTVSPropertyOp47
 70
     1
102
RTVSPropertyOp48
 70
     1
102
RTVSPropertyOp49
 70
     1
102
RTVSPropertyOp50
 70
     1
102
RTVSPropertyOp51
 70
     0
102
RTVSPropertyOp52
 70
     0
102
RTVSPropertyOp53
 70
     1
102
RTVSPropertyOp54
 70
     1
102
RTVSPropertyOp55
 70
     1
102
RTVSPropertyOp56
 70
     1
102
RTVSPropertyOp57
 70
     1
102
RTVSPropertyOp58
 70
     1
102
RTVSPropertyOp59
 70
     1
102
RTVSPropertyOp60
 70
     1
102
RTVSPropertyOp61
 70
     1
102
RTVSPropertyOp62
 70
     1
  0
XRECORD
  5
9E35
102
{ACAD_REACTORS
330
9E34
102
}
330
9E34
100
AcDbXrecord
280
     1
102
RTVSPost2010Prop28
280
     0
102
RTVSPost2010PropOp28
 70
     1
102
RTVSPost2010Prop29
280
     1
102
RTVSPost2010PropOp29
 70
     1
102
RTVSPost2010Prop30
280
     1
102
RTVSPost2010PropOp30
 70
     1
102
RTVSPost2010Prop31
280
     0
102
RTVSPost2010PropOp31
 70
     1
102
RTVSPost2010Prop32
280
     0
102
RTVSPost2010PropOp32
 70
     1
102
RTVSPost2010Prop33
280
     0
102
RTVSPost2010PropOp33
 70
     1
102
RTVSPost2010Prop34
280
     0
102
RTVSPost2010PropOp34
 70
     1
102
RTVSPost2010Prop35
280
     0
102
RTVSPost2010PropOp35
 70
     1
102
RTVSPost2010Prop36
280
     0
102
RTVSPost2010PropOp36
 70
     1
102
RTVSPost2010Prop37
 90
       50
102
RTVSPost2010PropOp37
 70
     1
102
RTVSPost2010Prop38
140
0.0
102
RTVSPost2010PropOp38
 70
     1
102
RTVSPost2010Prop39
140
1.0
102
RTVSPost2010PropOp39
 70
     1
102
RTVSPost2010Prop40
 90
        0
102
RTVSPost2010PropOp40
 70
     1
102
RTVSPost2010Prop41ColorIndex
 90
       18
102
RTVSPost2010Prop41ColorRGB
 90
        0
102
RTVSPost2010PropOp41
 70
     1
102
RTVSPost2010Prop42
 90
       50
102
RTVSPost2010PropOp42
 70
     1
102
RTVSPost2010Prop43
 90
        3
102
RTVSPost2010PropOp43
 70
     1
102
RTVSPost2010Prop44ColorIndex
 90
        5
102
RTVSPost2010Prop44ColorRGB
 90
      255
102
RTVSPost2010PropOp44
 70
     1
102
RTVSPost2010Prop45
280
     0
102
RTVSPost2010PropOp45
 70
     1
102
RTVSPost2010Prop46
 90
       50
102
RTVSPost2010PropOp46
 70
     1
102
RTVSPost2010Prop47
 90
       50
102
RTVSPost2010PropOp47
 70
     1
102
RTVSPost2010Prop48
 90
       50
102
RTVSPost2010PropOp48
 70
     1
102
RTVSPost2010Prop49
280
     0
102
RTVSPost2010PropOp49
 70
     1
102
RTVSPost2010Prop50
 90
       50
102
RTVSPost2010PropOp50
 70
     1
102
RTVSPost2010Prop51ColorIndex
 90
      256
102
RTVSPost2010Prop51ColorRGB
 90
-16777216
102
RTVSPost2010PropOp51
 70
     0
102
RTVSPost2010Prop52
140
1.0
102
RTVSPost2010PropOp52
 70
     0
102
RTVSPost2010Prop53
 90
        2
102
RTVSPost2010PropOp53
 70
     1
102
RTVSPost2010Prop54
  1
strokes_ogs.tif
102
RTVSPost2010PropOp54
 70
     1
102
RTVSPost2010Prop55
280
     0
102
RTVSPost2010PropOp55
 70
     1
102
RTVSPost2010Prop56
140
1.0
102
RTVSPost2010PropOp56
 70
     1
102
RTVSPost2010Prop57
140
1.0
102
RTVSPost2010PropOp57
 70
     1
102
RTVSPropertyOp0
 70
     1
102
RTVSPropertyOp1
 70
     1
102
RTVSPropertyOp2
 70
     1
102
RTVSPropertyOp3
 70
     1
102
RTVSPropertyOp4
 70
     1
102
RTVSPropertyOp5
 70
     1
102
RTVSPropertyOp6
 70
     1
102
RTVSPropertyOp7
 70
     1
102
RTVSPropertyOp8
 70
     1
102
RTVSPropertyOp9
 70
     1
102
RTVSPropertyOp10
 70
     1
102
RTVSPropertyOp11
 70
     1
102
RTVSPropertyOp12
 70
     1
102
RTVSPropertyOp13
 70
     1
102
RTVSPropertyOp14
 70
     1
102
RTVSPropertyOp15
 70
     1
102
RTVSPropertyOp16
 70
     1
102
RTVSPropertyOp17
 70
     1
102
RTVSPropertyOp18
 70
     1
102
RTVSPropertyOp19
 70
     1
102
RTVSPropertyOp20
 70
     1
102
RTVSPropertyOp21
 70
     1
102
RTVSPropertyOp22
 70
     1
102
RTVSPropertyOp23
 70
     1
102
RTVSPropertyOp24
 70
     1
102
RTVSPropertyOp25
 70
     1
102
RTVSPropertyOp26
 70
     1
102
RTVSPropertyOp27
 70
     1
102
RTVSPropertyOp28
 70
     1
102
RTVSPropertyOp29
 70
     1
102
RTVSPropertyOp30
 70
     1
102
RTVSPropertyOp31
 70
     1
102
RTVSPropertyOp32
 70
     1
102
RTVSPropertyOp33
 70
     1
102
RTVSPropertyOp34
 70
     1
102
RTVSPropertyOp35
 70
     1
102
RTVSPropertyOp36
 70
     1
102
RTVSPropertyOp37
 70
     1
102
RTVSPropertyOp38
 70
     1
102
RTVSPropertyOp39
 70
     1
102
RTVSPropertyOp40
 70
     1
102
RTVSPropertyOp41
 70
     1
102
RTVSPropertyOp42
 70
     1
102
RTVSPropertyOp43
 70
     1
102
RTVSPropertyOp44
 70
     1
102
RTVSPropertyOp45
 70
     1
102
RTVSPropertyOp46
 70
     1
102
RTVSPropertyOp47
 70
     1
102
RTVSPropertyOp48
 70
     1
102
RTVSPropertyOp49
 70
     1
102
RTVSPropertyOp50
 70
     1
102
RTVSPropertyOp51
 70
     0
102
RTVSPropertyOp52
 70
     0
102
RTVSPropertyOp53
 70
     1
102
RTVSPropertyOp54
 70
     1
102
RTVSPropertyOp55
 70
     1
102
RTVSPropertyOp56
 70
     1
102
RTVSPropertyOp57
 70
     1
102
RTVSPropertyOp58
 70
     1
102
RTVSPropertyOp59
 70
     1
102
RTVSPropertyOp60
 70
     1
102
RTVSPropertyOp61
 70
     1
102
RTVSPropertyOp62
 70
     1
  0
XRECORD
  5
9E3D
102
{ACAD_REACTORS
330
9E3C
102
}
330
9E3C
100
AcDbXrecord
280
     1
102
RTVSPost2010Prop28
280
     0
102
RTVSPost2010PropOp28
 70
     1
102
RTVSPost2010Prop29
280
     1
102
RTVSPost2010PropOp29
 70
     1
102
RTVSPost2010Prop30
280
     1
102
RTVSPost2010PropOp30
 70
     1
102
RTVSPost2010Prop31
280
     0
102
RTVSPost2010PropOp31
 70
     1
102
RTVSPost2010Prop32
280
     0
102
RTVSPost2010PropOp32
 70
     1
102
RTVSPost2010Prop33
280
     0
102
RTVSPost2010PropOp33
 70
     1
102
RTVSPost2010Prop34
280
     0
102
RTVSPost2010PropOp34
 70
     1
102
RTVSPost2010Prop35
280
     0
102
RTVSPost2010PropOp35
 70
     1
102
RTVSPost2010Prop36
280
     0
102
RTVSPost2010PropOp36
 70
     1
102
RTVSPost2010Prop37
 90
       50
102
RTVSPost2010PropOp37
 70
     1
102
RTVSPost2010Prop38
140
0.0
102
RTVSPost2010PropOp38
 70
     1
102
RTVSPost2010Prop39
140
1.0
102
RTVSPost2010PropOp39
 70
     1
102
RTVSPost2010Prop40
 90
        0
102
RTVSPost2010PropOp40
 70
     1
102
RTVSPost2010Prop41ColorIndex
 90
       18
102
RTVSPost2010Prop41ColorRGB
 90
        0
102
RTVSPost2010PropOp41
 70
     1
102
RTVSPost2010Prop42
 90
       50
102
RTVSPost2010PropOp42
 70
     1
102
RTVSPost2010Prop43
 90
        3
102
RTVSPost2010PropOp43
 70
     1
102
RTVSPost2010Prop44ColorIndex
 90
        5
102
RTVSPost2010Prop44ColorRGB
 90
      255
102
RTVSPost2010PropOp44
 70
     1
102
RTVSPost2010Prop45
280
     0
102
RTVSPost2010PropOp45
 70
     1
102
RTVSPost2010Prop46
 90
       50
102
RTVSPost2010PropOp46
 70
     1
102
RTVSPost2010Prop47
 90
       50
102
RTVSPost2010PropOp47
 70
     1
102
RTVSPost2010Prop48
 90
       50
102
RTVSPost2010PropOp48
 70
     1
102
RTVSPost2010Prop49
280
     0
102
RTVSPost2010PropOp49
 70
     1
102
RTVSPost2010Prop50
 90
       50
102
RTVSPost2010PropOp50
 70
     1
102
RTVSPost2010Prop51ColorIndex
 90
      256
102
RTVSPost2010Prop51ColorRGB
 90
-16777216
102
RTVSPost2010PropOp51
 70
     0
102
RTVSPost2010Prop52
140
1.0
102
RTVSPost2010PropOp52
 70
     0
102
RTVSPost2010Prop53
 90
        2
102
RTVSPost2010PropOp53
 70
     1
102
RTVSPost2010Prop54
  1
strokes_ogs.tif
102
RTVSPost2010PropOp54
 70
     1
102
RTVSPost2010Prop55
280
     0
102
RTVSPost2010PropOp55
 70
     1
102
RTVSPost2010Prop56
140
1.0
102
RTVSPost2010PropOp56
 70
     1
102
RTVSPost2010Prop57
140
1.0
102
RTVSPost2010PropOp57
 70
     1
102
RTVSPropertyOp0
 70
     1
102
RTVSPropertyOp1
 70
     1
102
RTVSPropertyOp2
 70
     1
102
RTVSPropertyOp3
 70
     1
102
RTVSPropertyOp4
 70
     1
102
RTVSPropertyOp5
 70
     1
102
RTVSPropertyOp6
 70
     1
102
RTVSPropertyOp7
 70
     1
102
RTVSPropertyOp8
 70
     1
102
RTVSPropertyOp9
 70
     1
102
RTVSPropertyOp10
 70
     1
102
RTVSPropertyOp11
 70
     1
102
RTVSPropertyOp12
 70
     1
102
RTVSPropertyOp13
 70
     1
102
RTVSPropertyOp14
 70
     1
102
RTVSPropertyOp15
 70
     1
102
RTVSPropertyOp16
 70
     1
102
RTVSPropertyOp17
 70
     1
102
RTVSPropertyOp18
 70
     1
102
RTVSPropertyOp19
 70
     1
102
RTVSPropertyOp20
 70
     1
102
RTVSPropertyOp21
 70
     1
102
RTVSPropertyOp22
 70
     1
102
RTVSPropertyOp23
 70
     1
102
RTVSPropertyOp24
 70
     1
102
RTVSPropertyOp25
 70
     1
102
RTVSPropertyOp26
 70
     1
102
RTVSPropertyOp27
 70
     1
102
RTVSPropertyOp28
 70
     1
102
RTVSPropertyOp29
 70
     1
102
RTVSPropertyOp30
 70
     1
102
RTVSPropertyOp31
 70
     1
102
RTVSPropertyOp32
 70
     1
102
RTVSPropertyOp33
 70
     1
102
RTVSPropertyOp34
 70
     1
102
RTVSPropertyOp35
 70
     1
102
RTVSPropertyOp36
 70
     1
102
RTVSPropertyOp37
 70
     1
102
RTVSPropertyOp38
 70
     1
102
RTVSPropertyOp39
 70
     1
102
RTVSPropertyOp40
 70
     1
102
RTVSPropertyOp41
 70
     1
102
RTVSPropertyOp42
 70
     1
102
RTVSPropertyOp43
 70
     1
102
RTVSPropertyOp44
 70
     1
102
RTVSPropertyOp45
 70
     1
102
RTVSPropertyOp46
 70
     1
102
RTVSPropertyOp47
 70
     1
102
RTVSPropertyOp48
 70
     1
102
RTVSPropertyOp49
 70
     1
102
RTVSPropertyOp50
 70
     1
102
RTVSPropertyOp51
 70
     0
102
RTVSPropertyOp52
 70
     0
102
RTVSPropertyOp53
 70
     1
102
RTVSPropertyOp54
 70
     1
102
RTVSPropertyOp55
 70
     1
102
RTVSPropertyOp56
 70
     1
102
RTVSPropertyOp57
 70
     1
102
RTVSPropertyOp58
 70
     1
102
RTVSPropertyOp59
 70
     1
102
RTVSPropertyOp60
 70
     1
102
RTVSPropertyOp61
 70
     1
102
RTVSPropertyOp62
 70
     1
  0
XRECORD
  5
9E51
102
{ACAD_REACTORS
330
9E50
102
}
330
9E50
100
AcDbXrecord
280
     1
102
RTVSPost2010Prop28
280
     0
102
RTVSPost2010PropOp28
 70
     1
102
RTVSPost2010Prop29
280
     1
102
RTVSPost2010PropOp29
 70
     1
102
RTVSPost2010Prop30
280
     1
102
RTVSPost2010PropOp30
 70
     1
102
RTVSPost2010Prop31
280
     0
102
RTVSPost2010PropOp31
 70
     1
102
RTVSPost2010Prop32
280
     0
102
RTVSPost2010PropOp32
 70
     1
102
RTVSPost2010Prop33
280
     0
102
RTVSPost2010PropOp33
 70
     1
102
RTVSPost2010Prop34
280
     0
102
RTVSPost2010PropOp34
 70
     1
102
RTVSPost2010Prop35
280
     0
102
RTVSPost2010PropOp35
 70
     1
102
RTVSPost2010Prop36
280
     0
102
RTVSPost2010PropOp36
 70
     1
102
RTVSPost2010Prop37
 90
       50
102
RTVSPost2010PropOp37
 70
     1
102
RTVSPost2010Prop38
140
0.0
102
RTVSPost2010PropOp38
 70
     1
102
RTVSPost2010Prop39
140
1.0
102
RTVSPost2010PropOp39
 70
     1
102
RTVSPost2010Prop40
 90
        0
102
RTVSPost2010PropOp40
 70
     1
102
RTVSPost2010Prop41ColorIndex
 90
       18
102
RTVSPost2010Prop41ColorRGB
 90
        0
102
RTVSPost2010PropOp41
 70
     1
102
RTVSPost2010Prop42
 90
       50
102
RTVSPost2010PropOp42
 70
     1
102
RTVSPost2010Prop43
 90
        3
102
RTVSPost2010PropOp43
 70
     1
102
RTVSPost2010Prop44ColorIndex
 90
        5
102
RTVSPost2010Prop44ColorRGB
 90
      255
102
RTVSPost2010PropOp44
 70
     1
102
RTVSPost2010Prop45
280
     0
102
RTVSPost2010PropOp45
 70
     1
102
RTVSPost2010Prop46
 90
       50
102
RTVSPost2010PropOp46
 70
     1
102
RTVSPost2010Prop47
 90
       50
102
RTVSPost2010PropOp47
 70
     1
102
RTVSPost2010Prop48
 90
       50
102
RTVSPost2010PropOp48
 70
     1
102
RTVSPost2010Prop49
280
     0
102
RTVSPost2010PropOp49
 70
     1
102
RTVSPost2010Prop50
 90
       50
102
RTVSPost2010PropOp50
 70
     1
102
RTVSPost2010Prop51ColorIndex
 90
      256
102
RTVSPost2010Prop51ColorRGB
 90
-16777216
102
RTVSPost2010PropOp51
 70
     0
102
RTVSPost2010Prop52
140
1.0
102
RTVSPost2010PropOp52
 70
     0
102
RTVSPost2010Prop53
 90
        2
102
RTVSPost2010PropOp53
 70
     1
102
RTVSPost2010Prop54
  1
strokes_ogs.tif
102
RTVSPost2010PropOp54
 70
     1
102
RTVSPost2010Prop55
280
     0
102
RTVSPost2010PropOp55
 70
     1
102
RTVSPost2010Prop56
140
1.0
102
RTVSPost2010PropOp56
 70
     1
102
RTVSPost2010Prop57
140
1.0
102
RTVSPost2010PropOp57
 70
     1
102
RTVSPropertyOp0
 70
     0
102
RTVSPropertyOp1
 70
     0
102
RTVSPropertyOp2
 70
     0
102
RTVSPropertyOp3
 70
     0
102
RTVSPropertyOp4
 70
     0
102
RTVSPropertyOp5
 70
     0
102
RTVSPropertyOp6
 70
     0
102
RTVSPropertyOp7
 70
     0
102
RTVSPropertyOp8
 70
     0
102
RTVSPropertyOp9
 70
     0
102
RTVSPropertyOp10
 70
     0
102
RTVSPropertyOp11
 70
     0
102
RTVSPropertyOp12
 70
     0
102
RTVSPropertyOp13
 70
     0
102
RTVSPropertyOp14
 70
     2
102
RTVSPropertyOp15
 70
     0
102
RTVSPropertyOp16
 70
     0
102
RTVSPropertyOp17
 70
     0
102
RTVSPropertyOp18
 70
     0
102
RTVSPropertyOp19
 70
     0
102
RTVSPropertyOp20
 70
     0
102
RTVSPropertyOp21
 70
     0
102
RTVSPropertyOp22
 70
     0
102
RTVSPropertyOp23
 70
     0
102
RTVSPropertyOp24
 70
     0
102
RTVSPropertyOp25
 70
     0
102
RTVSPropertyOp26
 70
     0
102
RTVSPropertyOp27
 70
     0
102
RTVSPropertyOp28
 70
     1
102
RTVSPropertyOp29
 70
     1
102
RTVSPropertyOp30
 70
     1
102
RTVSPropertyOp31
 70
     1
102
RTVSPropertyOp32
 70
     1
102
RTVSPropertyOp33
 70
     1
102
RTVSPropertyOp34
 70
     1
102
RTVSPropertyOp35
 70
     1
102
RTVSPropertyOp36
 70
     1
102
RTVSPropertyOp37
 70
     1
102
RTVSPropertyOp38
 70
     1
102
RTVSPropertyOp39
 70
     1
102
RTVSPropertyOp40
 70
     1
102
RTVSPropertyOp41
 70
     1
102
RTVSPropertyOp42
 70
     1
102
RTVSPropertyOp43
 70
     1
102
RTVSPropertyOp44
 70
     1
102
RTVSPropertyOp45
 70
     1
102
RTVSPropertyOp46
 70
     1
102
RTVSPropertyOp47
 70
     1
102
RTVSPropertyOp48
 70
     1
102
RTVSPropertyOp49
 70
     1
102
RTVSPropertyOp50
 70
     1
102
RTVSPropertyOp51
 70
     0
102
RTVSPropertyOp52
 70
     0
102
RTVSPropertyOp53
 70
     1
102
RTVSPropertyOp54
 70
     1
102
RTVSPropertyOp55
 70
     1
102
RTVSPropertyOp56
 70
     1
102
RTVSPropertyOp57
 70
     1
102
RTVSPropertyOp58
 70
     1
102
RTVSPropertyOp59
 70
     1
102
RTVSPropertyOp60
 70
     1
102
RTVSPropertyOp61
 70
     1
102
RTVSPropertyOp62
 70
     1
  0
XRECORD
  5
9E49
102
{ACAD_REACTORS
330
9E48
102
}
330
9E48
100
AcDbXrecord
280
     1
102
RTVSPost2010Prop28
280
     0
102
RTVSPost2010PropOp28
 70
     1
102
RTVSPost2010Prop29
280
     1
102
RTVSPost2010PropOp29
 70
     1
102
RTVSPost2010Prop30
280
     1
102
RTVSPost2010PropOp30
 70
     1
102
RTVSPost2010Prop31
280
     0
102
RTVSPost2010PropOp31
 70
     1
102
RTVSPost2010Prop32
280
     0
102
RTVSPost2010PropOp32
 70
     1
102
RTVSPost2010Prop33
280
     0
102
RTVSPost2010PropOp33
 70
     1
102
RTVSPost2010Prop34
280
     0
102
RTVSPost2010PropOp34
 70
     1
102
RTVSPost2010Prop35
280
     0
102
RTVSPost2010PropOp35
 70
     1
102
RTVSPost2010Prop36
280
     0
102
RTVSPost2010PropOp36
 70
     1
102
RTVSPost2010Prop37
 90
       50
102
RTVSPost2010PropOp37
 70
     1
102
RTVSPost2010Prop38
140
0.0
102
RTVSPost2010PropOp38
 70
     1
102
RTVSPost2010Prop39
140
1.0
102
RTVSPost2010PropOp39
 70
     1
102
RTVSPost2010Prop40
 90
        0
102
RTVSPost2010PropOp40
 70
     1
102
RTVSPost2010Prop41ColorIndex
 90
       18
102
RTVSPost2010Prop41ColorRGB
 90
        0
102
RTVSPost2010PropOp41
 70
     1
102
RTVSPost2010Prop42
 90
       50
102
RTVSPost2010PropOp42
 70
     1
102
RTVSPost2010Prop43
 90
        3
102
RTVSPost2010PropOp43
 70
     1
102
RTVSPost2010Prop44ColorIndex
 90
        5
102
RTVSPost2010Prop44ColorRGB
 90
      255
102
RTVSPost2010PropOp44
 70
     1
102
RTVSPost2010Prop45
280
     0
102
RTVSPost2010PropOp45
 70
     1
102
RTVSPost2010Prop46
 90
       50
102
RTVSPost2010PropOp46
 70
     1
102
RTVSPost2010Prop47
 90
       50
102
RTVSPost2010PropOp47
 70
     1
102
RTVSPost2010Prop48
 90
       50
102
RTVSPost2010PropOp48
 70
     1
102
RTVSPost2010Prop49
280
     0
102
RTVSPost2010PropOp49
 70
     1
102
RTVSPost2010Prop50
 90
       50
102
RTVSPost2010PropOp50
 70
     1
102
RTVSPost2010Prop51ColorIndex
 90
      256
102
RTVSPost2010Prop51ColorRGB
 90
-16777216
102
RTVSPost2010PropOp51
 70
     0
102
RTVSPost2010Prop52
140
1.0
102
RTVSPost2010PropOp52
 70
     0
102
RTVSPost2010Prop53
 90
        2
102
RTVSPost2010PropOp53
 70
     1
102
RTVSPost2010Prop54
  1
strokes_ogs.tif
102
RTVSPost2010PropOp54
 70
     1
102
RTVSPost2010Prop55
280
     0
102
RTVSPost2010PropOp55
 70
     1
102
RTVSPost2010Prop56
140
1.0
102
RTVSPost2010PropOp56
 70
     1
102
RTVSPost2010Prop57
140
1.0
102
RTVSPost2010PropOp57
 70
     1
102
RTVSPropertyOp0
 70
     1
102
RTVSPropertyOp1
 70
     1
102
RTVSPropertyOp2
 70
     1
102
RTVSPropertyOp3
 70
     1
102
RTVSPropertyOp4
 70
     1
102
RTVSPropertyOp5
 70
     1
102
RTVSPropertyOp6
 70
     1
102
RTVSPropertyOp7
 70
     1
102
RTVSPropertyOp8
 70
     1
102
RTVSPropertyOp9
 70
     1
102
RTVSPropertyOp10
 70
     1
102
RTVSPropertyOp11
 70
     1
102
RTVSPropertyOp12
 70
     1
102
RTVSPropertyOp13
 70
     1
102
RTVSPropertyOp14
 70
     1
102
RTVSPropertyOp15
 70
     1
102
RTVSPropertyOp16
 70
     1
102
RTVSPropertyOp17
 70
     1
102
RTVSPropertyOp18
 70
     1
102
RTVSPropertyOp19
 70
     1
102
RTVSPropertyOp20
 70
     1
102
RTVSPropertyOp21
 70
     1
102
RTVSPropertyOp22
 70
     1
102
RTVSPropertyOp23
 70
     1
102
RTVSPropertyOp24
 70
     1
102
RTVSPropertyOp25
 70
     1
102
RTVSPropertyOp26
 70
     1
102
RTVSPropertyOp27
 70
     1
102
RTVSPropertyOp28
 70
     1
102
RTVSPropertyOp29
 70
     1
102
RTVSPropertyOp30
 70
     1
102
RTVSPropertyOp31
 70
     1
102
RTVSPropertyOp32
 70
     1
102
RTVSPropertyOp33
 70
     1
102
RTVSPropertyOp34
 70
     1
102
RTVSPropertyOp35
 70
     1
102
RTVSPropertyOp36
 70
     1
102
RTVSPropertyOp37
 70
     1
102
RTVSPropertyOp38
 70
     1
102
RTVSPropertyOp39
 70
     1
102
RTVSPropertyOp40
 70
     1
102
RTVSPropertyOp41
 70
     1
102
RTVSPropertyOp42
 70
     1
102
RTVSPropertyOp43
 70
     1
102
RTVSPropertyOp44
 70
     1
102
RTVSPropertyOp45
 70
     1
102
RTVSPropertyOp46
 70
     1
102
RTVSPropertyOp47
 70
     1
102
RTVSPropertyOp48
 70
     1
102
RTVSPropertyOp49
 70
     1
102
RTVSPropertyOp50
 70
     1
102
RTVSPropertyOp51
 70
     0
102
RTVSPropertyOp52
 70
     0
102
RTVSPropertyOp53
 70
     1
102
RTVSPropertyOp54
 70
     1
102
RTVSPropertyOp55
 70
     1
102
RTVSPropertyOp56
 70
     1
102
RTVSPropertyOp57
 70
     1
102
RTVSPropertyOp58
 70
     1
102
RTVSPropertyOp59
 70
     1
102
RTVSPropertyOp60
 70
     1
102
RTVSPropertyOp61
 70
     1
102
RTVSPropertyOp62
 70
     1
  0
XRECORD
  5
9E53
102
{ACAD_REACTORS
330
9E52
102
}
330
9E52
100
AcDbXrecord
280
     1
102
RTVSPost2010Prop28
280
     0
102
RTVSPost2010PropOp28
 70
     1
102
RTVSPost2010Prop29
280
     1
102
RTVSPost2010PropOp29
 70
     1
102
RTVSPost2010Prop30
280
     1
102
RTVSPost2010PropOp30
 70
     1
102
RTVSPost2010Prop31
280
     0
102
RTVSPost2010PropOp31
 70
     1
102
RTVSPost2010Prop32
280
     0
102
RTVSPost2010PropOp32
 70
     1
102
RTVSPost2010Prop33
280
     0
102
RTVSPost2010PropOp33
 70
     1
102
RTVSPost2010Prop34
280
     0
102
RTVSPost2010PropOp34
 70
     1
102
RTVSPost2010Prop35
280
     0
102
RTVSPost2010PropOp35
 70
     1
102
RTVSPost2010Prop36
280
     0
102
RTVSPost2010PropOp36
 70
     1
102
RTVSPost2010Prop37
 90
       50
102
RTVSPost2010PropOp37
 70
     1
102
RTVSPost2010Prop38
140
0.0
102
RTVSPost2010PropOp38
 70
     1
102
RTVSPost2010Prop39
140
1.0
102
RTVSPost2010PropOp39
 70
     1
102
RTVSPost2010Prop40
 90
        0
102
RTVSPost2010PropOp40
 70
     1
102
RTVSPost2010Prop41ColorIndex
 90
       18
102
RTVSPost2010Prop41ColorRGB
 90
        0
102
RTVSPost2010PropOp41
 70
     1
102
RTVSPost2010Prop42
 90
       50
102
RTVSPost2010PropOp42
 70
     1
102
RTVSPost2010Prop43
 90
        3
102
RTVSPost2010PropOp43
 70
     1
102
RTVSPost2010Prop44ColorIndex
 90
        5
102
RTVSPost2010Prop44ColorRGB
 90
      255
102
RTVSPost2010PropOp44
 70
     1
102
RTVSPost2010Prop45
280
     0
102
RTVSPost2010PropOp45
 70
     1
102
RTVSPost2010Prop46
 90
       50
102
RTVSPost2010PropOp46
 70
     1
102
RTVSPost2010Prop47
 90
       50
102
RTVSPost2010PropOp47
 70
     1
102
RTVSPost2010Prop48
 90
       50
102
RTVSPost2010PropOp48
 70
     1
102
RTVSPost2010Prop49
280
     0
102
RTVSPost2010PropOp49
 70
     1
102
RTVSPost2010Prop50
 90
       50
102
RTVSPost2010PropOp50
 70
     1
102
RTVSPost2010Prop51ColorIndex
 90
      256
102
RTVSPost2010Prop51ColorRGB
 90
-16777216
102
RTVSPost2010PropOp51
 70
     0
102
RTVSPost2010Prop52
140
1.0
102
RTVSPost2010PropOp52
 70
     0
102
RTVSPost2010Prop53
 90
        2
102
RTVSPost2010PropOp53
 70
     1
102
RTVSPost2010Prop54
  1
strokes_ogs.tif
102
RTVSPost2010PropOp54
 70
     1
102
RTVSPost2010Prop55
280
     0
102
RTVSPost2010PropOp55
 70
     1
102
RTVSPost2010Prop56
140
1.0
102
RTVSPost2010PropOp56
 70
     1
102
RTVSPost2010Prop57
140
1.0
102
RTVSPost2010PropOp57
 70
     1
102
RTVSPropertyOp0
 70
     0
102
RTVSPropertyOp1
 70
     0
102
RTVSPropertyOp2
 70
     0
102
RTVSPropertyOp3
 70
     0
102
RTVSPropertyOp4
 70
     0
102
RTVSPropertyOp5
 70
     0
102
RTVSPropertyOp6
 70
     0
102
RTVSPropertyOp7
 70
     0
102
RTVSPropertyOp8
 70
     0
102
RTVSPropertyOp9
 70
     0
102
RTVSPropertyOp10
 70
     0
102
RTVSPropertyOp11
 70
     0
102
RTVSPropertyOp12
 70
     0
102
RTVSPropertyOp13
 70
     0
102
RTVSPropertyOp14
 70
     2
102
RTVSPropertyOp15
 70
     0
102
RTVSPropertyOp16
 70
     0
102
RTVSPropertyOp17
 70
     0
102
RTVSPropertyOp18
 70
     0
102
RTVSPropertyOp19
 70
     0
102
RTVSPropertyOp20
 70
     0
102
RTVSPropertyOp21
 70
     0
102
RTVSPropertyOp22
 70
     0
102
RTVSPropertyOp23
 70
     0
102
RTVSPropertyOp24
 70
     0
102
RTVSPropertyOp25
 70
     0
102
RTVSPropertyOp26
 70
     0
102
RTVSPropertyOp27
 70
     0
102
RTVSPropertyOp28
 70
     1
102
RTVSPropertyOp29
 70
     1
102
RTVSPropertyOp30
 70
     1
102
RTVSPropertyOp31
 70
     1
102
RTVSPropertyOp32
 70
     1
102
RTVSPropertyOp33
 70
     1
102
RTVSPropertyOp34
 70
     1
102
RTVSPropertyOp35
 70
     1
102
RTVSPropertyOp36
 70
     1
102
RTVSPropertyOp37
 70
     1
102
RTVSPropertyOp38
 70
     1
102
RTVSPropertyOp39
 70
     1
102
RTVSPropertyOp40
 70
     1
102
RTVSPropertyOp41
 70
     1
102
RTVSPropertyOp42
 70
     1
102
RTVSPropertyOp43
 70
     1
102
RTVSPropertyOp44
 70
     1
102
RTVSPropertyOp45
 70
     1
102
RTVSPropertyOp46
 70
     1
102
RTVSPropertyOp47
 70
     1
102
RTVSPropertyOp48
 70
     1
102
RTVSPropertyOp49
 70
     1
102
RTVSPropertyOp50
 70
     1
102
RTVSPropertyOp51
 70
     0
102
RTVSPropertyOp52
 70
     0
102
RTVSPropertyOp53
 70
     1
102
RTVSPropertyOp54
 70
     1
102
RTVSPropertyOp55
 70
     1
102
RTVSPropertyOp56
 70
     1
102
RTVSPropertyOp57
 70
     1
102
RTVSPropertyOp58
 70
     1
102
RTVSPropertyOp59
 70
     1
102
RTVSPropertyOp60
 70
     1
102
RTVSPropertyOp61
 70
     1
102
RTVSPropertyOp62
 70
     1
  0
XRECORD
  5
9E41
102
{ACAD_REACTORS
330
9E40
102
}
330
9E40
100
AcDbXrecord
280
     1
102
RTVSPost2010Prop28
280
     0
102
RTVSPost2010PropOp28
 70
     1
102
RTVSPost2010Prop29
280
     1
102
RTVSPost2010PropOp29
 70
     1
102
RTVSPost2010Prop30
280
     1
102
RTVSPost2010PropOp30
 70
     1
102
RTVSPost2010Prop31
280
     0
102
RTVSPost2010PropOp31
 70
     1
102
RTVSPost2010Prop32
280
     0
102
RTVSPost2010PropOp32
 70
     1
102
RTVSPost2010Prop33
280
     0
102
RTVSPost2010PropOp33
 70
     1
102
RTVSPost2010Prop34
280
     0
102
RTVSPost2010PropOp34
 70
     1
102
RTVSPost2010Prop35
280
     0
102
RTVSPost2010PropOp35
 70
     1
102
RTVSPost2010Prop36
280
     0
102
RTVSPost2010PropOp36
 70
     1
102
RTVSPost2010Prop37
 90
       50
102
RTVSPost2010PropOp37
 70
     1
102
RTVSPost2010Prop38
140
0.0
102
RTVSPost2010PropOp38
 70
     1
102
RTVSPost2010Prop39
140
1.0
102
RTVSPost2010PropOp39
 70
     1
102
RTVSPost2010Prop40
 90
        0
102
RTVSPost2010PropOp40
 70
     1
102
RTVSPost2010Prop41ColorIndex
 90
       18
102
RTVSPost2010Prop41ColorRGB
 90
        0
102
RTVSPost2010PropOp41
 70
     1
102
RTVSPost2010Prop42
 90
       50
102
RTVSPost2010PropOp42
 70
     1
102
RTVSPost2010Prop43
 90
        3
102
RTVSPost2010PropOp43
 70
     1
102
RTVSPost2010Prop44ColorIndex
 90
        5
102
RTVSPost2010Prop44ColorRGB
 90
      255
102
RTVSPost2010PropOp44
 70
     1
102
RTVSPost2010Prop45
280
     0
102
RTVSPost2010PropOp45
 70
     1
102
RTVSPost2010Prop46
 90
       50
102
RTVSPost2010PropOp46
 70
     1
102
RTVSPost2010Prop47
 90
       50
102
RTVSPost2010PropOp47
 70
     1
102
RTVSPost2010Prop48
 90
       50
102
RTVSPost2010PropOp48
 70
     1
102
RTVSPost2010Prop49
280
     0
102
RTVSPost2010PropOp49
 70
     1
102
RTVSPost2010Prop50
 90
       50
102
RTVSPost2010PropOp50
 70
     1
102
RTVSPost2010Prop51ColorIndex
 90
      256
102
RTVSPost2010Prop51ColorRGB
 90
-16777216
102
RTVSPost2010PropOp51
 70
     0
102
RTVSPost2010Prop52
140
1.0
102
RTVSPost2010PropOp52
 70
     0
102
RTVSPost2010Prop53
 90
        2
102
RTVSPost2010PropOp53
 70
     1
102
RTVSPost2010Prop54
  1
strokes_ogs.tif
102
RTVSPost2010PropOp54
 70
     1
102
RTVSPost2010Prop55
280
     0
102
RTVSPost2010PropOp55
 70
     1
102
RTVSPost2010Prop56
140
1.0
102
RTVSPost2010PropOp56
 70
     1
102
RTVSPost2010Prop57
140
1.0
102
RTVSPost2010PropOp57
 70
     1
102
RTVSPropertyOp0
 70
     1
102
RTVSPropertyOp1
 70
     1
102
RTVSPropertyOp2
 70
     1
102
RTVSPropertyOp3
 70
     1
102
RTVSPropertyOp4
 70
     1
102
RTVSPropertyOp5
 70
     1
102
RTVSPropertyOp6
 70
     1
102
RTVSPropertyOp7
 70
     1
102
RTVSPropertyOp8
 70
     1
102
RTVSPropertyOp9
 70
     1
102
RTVSPropertyOp10
 70
     1
102
RTVSPropertyOp11
 70
     1
102
RTVSPropertyOp12
 70
     1
102
RTVSPropertyOp13
 70
     1
102
RTVSPropertyOp14
 70
     1
102
RTVSPropertyOp15
 70
     1
102
RTVSPropertyOp16
 70
     1
102
RTVSPropertyOp17
 70
     1
102
RTVSPropertyOp18
 70
     1
102
RTVSPropertyOp19
 70
     1
102
RTVSPropertyOp20
 70
     1
102
RTVSPropertyOp21
 70
     1
102
RTVSPropertyOp22
 70
     1
102
RTVSPropertyOp23
 70
     1
102
RTVSPropertyOp24
 70
     1
102
RTVSPropertyOp25
 70
     1
102
RTVSPropertyOp26
 70
     1
102
RTVSPropertyOp27
 70
     1
102
RTVSPropertyOp28
 70
     1
102
RTVSPropertyOp29
 70
     1
102
RTVSPropertyOp30
 70
     1
102
RTVSPropertyOp31
 70
     1
102
RTVSPropertyOp32
 70
     1
102
RTVSPropertyOp33
 70
     1
102
RTVSPropertyOp34
 70
     1
102
RTVSPropertyOp35
 70
     1
102
RTVSPropertyOp36
 70
     1
102
RTVSPropertyOp37
 70
     1
102
RTVSPropertyOp38
 70
     1
102
RTVSPropertyOp39
 70
     1
102
RTVSPropertyOp40
 70
     1
102
RTVSPropertyOp41
 70
     1
102
RTVSPropertyOp42
 70
     1
102
RTVSPropertyOp43
 70
     1
102
RTVSPropertyOp44
 70
     1
102
RTVSPropertyOp45
 70
     1
102
RTVSPropertyOp46
 70
     1
102
RTVSPropertyOp47
 70
     1
102
RTVSPropertyOp48
 70
     1
102
RTVSPropertyOp49
 70
     1
102
RTVSPropertyOp50
 70
     1
102
RTVSPropertyOp51
 70
     0
102
RTVSPropertyOp52
 70
     0
102
RTVSPropertyOp53
 70
     1
102
RTVSPropertyOp54
 70
     1
102
RTVSPropertyOp55
 70
     1
102
RTVSPropertyOp56
 70
     1
102
RTVSPropertyOp57
 70
     1
102
RTVSPropertyOp58
 70
     1
102
RTVSPropertyOp59
 70
     1
102
RTVSPropertyOp60
 70
     1
102
RTVSPropertyOp61
 70
     1
102
RTVSPropertyOp62
 70
     1
  0
XRECORD
  5
9E5F
102
{ACAD_REACTORS
330
9E5E
102
}
330
9E5E
100
AcDbXrecord
280
     1
102
RTVSPost2010Prop28
280
     0
102
RTVSPost2010PropOp28
 70
     1
102
RTVSPost2010Prop29
280
     1
102
RTVSPost2010PropOp29
 70
     1
102
RTVSPost2010Prop30
280
     1
102
RTVSPost2010PropOp30
 70
     1
102
RTVSPost2010Prop31
280
     0
102
RTVSPost2010PropOp31
 70
     1
102
RTVSPost2010Prop32
280
     0
102
RTVSPost2010PropOp32
 70
     1
102
RTVSPost2010Prop33
280
     0
102
RTVSPost2010PropOp33
 70
     1
102
RTVSPost2010Prop34
280
     0
102
RTVSPost2010PropOp34
 70
     1
102
RTVSPost2010Prop35
280
     0
102
RTVSPost2010PropOp35
 70
     1
102
RTVSPost2010Prop36
280
     0
102
RTVSPost2010PropOp36
 70
     1
102
RTVSPost2010Prop37
 90
       50
102
RTVSPost2010PropOp37
 70
     1
102
RTVSPost2010Prop38
140
0.0
102
RTVSPost2010PropOp38
 70
     1
102
RTVSPost2010Prop39
140
1.0
102
RTVSPost2010PropOp39
 70
     1
102
RTVSPost2010Prop40
 90
        0
102
RTVSPost2010PropOp40
 70
     1
102
RTVSPost2010Prop41ColorIndex
 90
       18
102
RTVSPost2010Prop41ColorRGB
 90
        0
102
RTVSPost2010PropOp41
 70
     1
102
RTVSPost2010Prop42
 90
       50
102
RTVSPost2010PropOp42
 70
     1
102
RTVSPost2010Prop43
 90
        3
102
RTVSPost2010PropOp43
 70
     1
102
RTVSPost2010Prop44ColorIndex
 90
        5
102
RTVSPost2010Prop44ColorRGB
 90
      255
102
RTVSPost2010PropOp44
 70
     1
102
RTVSPost2010Prop45
280
     0
102
RTVSPost2010PropOp45
 70
     1
102
RTVSPost2010Prop46
 90
       50
102
RTVSPost2010PropOp46
 70
     1
102
RTVSPost2010Prop47
 90
       50
102
RTVSPost2010PropOp47
 70
     1
102
RTVSPost2010Prop48
 90
       50
102
RTVSPost2010PropOp48
 70
     1
102
RTVSPost2010Prop49
280
     0
102
RTVSPost2010PropOp49
 70
     1
102
RTVSPost2010Prop50
 90
       50
102
RTVSPost2010PropOp50
 70
     1
102
RTVSPost2010Prop51ColorIndex
 90
      256
102
RTVSPost2010Prop51ColorRGB
 90
-16777216
102
RTVSPost2010PropOp51
 70
     0
102
RTVSPost2010Prop52
140
1.0
102
RTVSPost2010PropOp52
 70
     0
102
RTVSPost2010Prop53
 90
        2
102
RTVSPost2010PropOp53
 70
     1
102
RTVSPost2010Prop54
  1
strokes_ogs.tif
102
RTVSPost2010PropOp54
 70
     1
102
RTVSPost2010Prop55
280
     0
102
RTVSPost2010PropOp55
 70
     1
102
RTVSPost2010Prop56
140
1.0
102
RTVSPost2010PropOp56
 70
     1
102
RTVSPost2010Prop57
140
1.0
102
RTVSPost2010PropOp57
 70
     1
102
RTVSPropertyOp0
 70
     1
102
RTVSPropertyOp1
 70
     1
102
RTVSPropertyOp2
 70
     1
102
RTVSPropertyOp3
 70
     1
102
RTVSPropertyOp4
 70
     1
102
RTVSPropertyOp5
 70
     1
102
RTVSPropertyOp6
 70
     1
102
RTVSPropertyOp7
 70
     1
102
RTVSPropertyOp8
 70
     1
102
RTVSPropertyOp9
 70
     1
102
RTVSPropertyOp10
 70
     1
102
RTVSPropertyOp11
 70
     1
102
RTVSPropertyOp12
 70
     1
102
RTVSPropertyOp13
 70
     1
102
RTVSPropertyOp14
 70
     1
102
RTVSPropertyOp15
 70
     1
102
RTVSPropertyOp16
 70
     1
102
RTVSPropertyOp17
 70
     1
102
RTVSPropertyOp18
 70
     1
102
RTVSPropertyOp19
 70
     1
102
RTVSPropertyOp20
 70
     1
102
RTVSPropertyOp21
 70
     1
102
RTVSPropertyOp22
 70
     1
102
RTVSPropertyOp23
 70
     1
102
RTVSPropertyOp24
 70
     1
102
RTVSPropertyOp25
 70
     1
102
RTVSPropertyOp26
 70
     1
102
RTVSPropertyOp27
 70
     1
102
RTVSPropertyOp28
 70
     1
102
RTVSPropertyOp29
 70
     1
102
RTVSPropertyOp30
 70
     1
102
RTVSPropertyOp31
 70
     1
102
RTVSPropertyOp32
 70
     1
102
RTVSPropertyOp33
 70
     1
102
RTVSPropertyOp34
 70
     1
102
RTVSPropertyOp35
 70
     1
102
RTVSPropertyOp36
 70
     1
102
RTVSPropertyOp37
 70
     1
102
RTVSPropertyOp38
 70
     1
102
RTVSPropertyOp39
 70
     1
102
RTVSPropertyOp40
 70
     1
102
RTVSPropertyOp41
 70
     1
102
RTVSPropertyOp42
 70
     1
102
RTVSPropertyOp43
 70
     1
102
RTVSPropertyOp44
 70
     1
102
RTVSPropertyOp45
 70
     1
102
RTVSPropertyOp46
 70
     1
102
RTVSPropertyOp47
 70
     1
102
RTVSPropertyOp48
 70
     1
102
RTVSPropertyOp49
 70
     1
102
RTVSPropertyOp50
 70
     1
102
RTVSPropertyOp51
 70
     0
102
RTVSPropertyOp52
 70
     0
102
RTVSPropertyOp53
 70
     1
102
RTVSPropertyOp54
 70
     1
102
RTVSPropertyOp55
 70
     1
102
RTVSPropertyOp56
 70
     1
102
RTVSPropertyOp57
 70
     1
102
RTVSPropertyOp58
 70
     1
102
RTVSPropertyOp59
 70
     1
102
RTVSPropertyOp60
 70
     1
102
RTVSPropertyOp61
 70
     1
102
RTVSPropertyOp62
 70
     1
  0
XRECORD
  5
9E5D
102
{ACAD_REACTORS
330
9E5C
102
}
330
9E5C
100
AcDbXrecord
280
     1
102
RTVSPost2010Prop28
280
     0
102
RTVSPost2010PropOp28
 70
     1
102
RTVSPost2010Prop29
280
     1
102
RTVSPost2010PropOp29
 70
     1
102
RTVSPost2010Prop30
280
     1
102
RTVSPost2010PropOp30
 70
     1
102
RTVSPost2010Prop31
280
     0
102
RTVSPost2010PropOp31
 70
     1
102
RTVSPost2010Prop32
280
     0
102
RTVSPost2010PropOp32
 70
     1
102
RTVSPost2010Prop33
280
     0
102
RTVSPost2010PropOp33
 70
     1
102
RTVSPost2010Prop34
280
     0
102
RTVSPost2010PropOp34
 70
     1
102
RTVSPost2010Prop35
280
     0
102
RTVSPost2010PropOp35
 70
     1
102
RTVSPost2010Prop36
280
     0
102
RTVSPost2010PropOp36
 70
     1
102
RTVSPost2010Prop37
 90
       50
102
RTVSPost2010PropOp37
 70
     1
102
RTVSPost2010Prop38
140
0.0
102
RTVSPost2010PropOp38
 70
     1
102
RTVSPost2010Prop39
140
1.0
102
RTVSPost2010PropOp39
 70
     1
102
RTVSPost2010Prop40
 90
        0
102
RTVSPost2010PropOp40
 70
     1
102
RTVSPost2010Prop41ColorIndex
 90
       18
102
RTVSPost2010Prop41ColorRGB
 90
        0
102
RTVSPost2010PropOp41
 70
     1
102
RTVSPost2010Prop42
 90
       50
102
RTVSPost2010PropOp42
 70
     1
102
RTVSPost2010Prop43
 90
        3
102
RTVSPost2010PropOp43
 70
     1
102
RTVSPost2010Prop44ColorIndex
 90
        5
102
RTVSPost2010Prop44ColorRGB
 90
      255
102
RTVSPost2010PropOp44
 70
     1
102
RTVSPost2010Prop45
280
     0
102
RTVSPost2010PropOp45
 70
     1
102
RTVSPost2010Prop46
 90
       50
102
RTVSPost2010PropOp46
 70
     1
102
RTVSPost2010Prop47
 90
       50
102
RTVSPost2010PropOp47
 70
     1
102
RTVSPost2010Prop48
 90
       50
102
RTVSPost2010PropOp48
 70
     1
102
RTVSPost2010Prop49
280
     0
102
RTVSPost2010PropOp49
 70
     1
102
RTVSPost2010Prop50
 90
       50
102
RTVSPost2010PropOp50
 70
     1
102
RTVSPost2010Prop51ColorIndex
 90
      256
102
RTVSPost2010Prop51ColorRGB
 90
-16777216
102
RTVSPost2010PropOp51
 70
     0
102
RTVSPost2010Prop52
140
1.0
102
RTVSPost2010PropOp52
 70
     0
102
RTVSPost2010Prop53
 90
        2
102
RTVSPost2010PropOp53
 70
     1
102
RTVSPost2010Prop54
  1
strokes_ogs.tif
102
RTVSPost2010PropOp54
 70
     1
102
RTVSPost2010Prop55
280
     0
102
RTVSPost2010PropOp55
 70
     1
102
RTVSPost2010Prop56
140
1.0
102
RTVSPost2010PropOp56
 70
     1
102
RTVSPost2010Prop57
140
1.0
102
RTVSPost2010PropOp57
 70
     1
102
RTVSPropertyOp0
 70
     1
102
RTVSPropertyOp1
 70
     1
102
RTVSPropertyOp2
 70
     1
102
RTVSPropertyOp3
 70
     1
102
RTVSPropertyOp4
 70
     1
102
RTVSPropertyOp5
 70
     1
102
RTVSPropertyOp6
 70
     1
102
RTVSPropertyOp7
 70
     1
102
RTVSPropertyOp8
 70
     1
102
RTVSPropertyOp9
 70
     1
102
RTVSPropertyOp10
 70
     1
102
RTVSPropertyOp11
 70
     1
102
RTVSPropertyOp12
 70
     1
102
RTVSPropertyOp13
 70
     1
102
RTVSPropertyOp14
 70
     1
102
RTVSPropertyOp15
 70
     1
102
RTVSPropertyOp16
 70
     1
102
RTVSPropertyOp17
 70
     1
102
RTVSPropertyOp18
 70
     1
102
RTVSPropertyOp19
 70
     1
102
RTVSPropertyOp20
 70
     1
102
RTVSPropertyOp21
 70
     1
102
RTVSPropertyOp22
 70
     1
102
RTVSPropertyOp23
 70
     1
102
RTVSPropertyOp24
 70
     1
102
RTVSPropertyOp25
 70
     1
102
RTVSPropertyOp26
 70
     1
102
RTVSPropertyOp27
 70
     1
102
RTVSPropertyOp28
 70
     1
102
RTVSPropertyOp29
 70
     1
102
RTVSPropertyOp30
 70
     1
102
RTVSPropertyOp31
 70
     1
102
RTVSPropertyOp32
 70
     1
102
RTVSPropertyOp33
 70
     1
102
RTVSPropertyOp34
 70
     1
102
RTVSPropertyOp35
 70
     1
102
RTVSPropertyOp36
 70
     1
102
RTVSPropertyOp37
 70
     1
102
RTVSPropertyOp38
 70
     1
102
RTVSPropertyOp39
 70
     1
102
RTVSPropertyOp40
 70
     1
102
RTVSPropertyOp41
 70
     1
102
RTVSPropertyOp42
 70
     1
102
RTVSPropertyOp43
 70
     1
102
RTVSPropertyOp44
 70
     1
102
RTVSPropertyOp45
 70
     1
102
RTVSPropertyOp46
 70
     1
102
RTVSPropertyOp47
 70
     1
102
RTVSPropertyOp48
 70
     1
102
RTVSPropertyOp49
 70
     1
102
RTVSPropertyOp50
 70
     1
102
RTVSPropertyOp51
 70
     0
102
RTVSPropertyOp52
 70
     0
102
RTVSPropertyOp53
 70
     1
102
RTVSPropertyOp54
 70
     1
102
RTVSPropertyOp55
 70
     1
102
RTVSPropertyOp56
 70
     1
102
RTVSPropertyOp57
 70
     1
102
RTVSPropertyOp58
 70
     1
102
RTVSPropertyOp59
 70
     1
102
RTVSPropertyOp60
 70
     1
102
RTVSPropertyOp61
 70
     1
102
RTVSPropertyOp62
 70
     1
  0
XRECORD
  5
9E57
102
{ACAD_REACTORS
330
9E56
102
}
330
9E56
100
AcDbXrecord
280
     1
102
RTVSPost2010Prop28
280
     0
102
RTVSPost2010PropOp28
 70
     1
102
RTVSPost2010Prop29
280
     1
102
RTVSPost2010PropOp29
 70
     1
102
RTVSPost2010Prop30
280
     1
102
RTVSPost2010PropOp30
 70
     1
102
RTVSPost2010Prop31
280
     0
102
RTVSPost2010PropOp31
 70
     1
102
RTVSPost2010Prop32
280
     0
102
RTVSPost2010PropOp32
 70
     1
102
RTVSPost2010Prop33
280
     0
102
RTVSPost2010PropOp33
 70
     1
102
RTVSPost2010Prop34
280
     0
102
RTVSPost2010PropOp34
 70
     1
102
RTVSPost2010Prop35
280
     0
102
RTVSPost2010PropOp35
 70
     1
102
RTVSPost2010Prop36
280
     0
102
RTVSPost2010PropOp36
 70
     1
102
RTVSPost2010Prop37
 90
       50
102
RTVSPost2010PropOp37
 70
     1
102
RTVSPost2010Prop38
140
0.0
102
RTVSPost2010PropOp38
 70
     1
102
RTVSPost2010Prop39
140
1.0
102
RTVSPost2010PropOp39
 70
     1
102
RTVSPost2010Prop40
 90
        0
102
RTVSPost2010PropOp40
 70
     1
102
RTVSPost2010Prop41ColorIndex
 90
       18
102
RTVSPost2010Prop41ColorRGB
 90
        0
102
RTVSPost2010PropOp41
 70
     1
102
RTVSPost2010Prop42
 90
       50
102
RTVSPost2010PropOp42
 70
     1
102
RTVSPost2010Prop43
 90
        3
102
RTVSPost2010PropOp43
 70
     1
102
RTVSPost2010Prop44ColorIndex
 90
        5
102
RTVSPost2010Prop44ColorRGB
 90
      255
102
RTVSPost2010PropOp44
 70
     1
102
RTVSPost2010Prop45
280
     0
102
RTVSPost2010PropOp45
 70
     1
102
RTVSPost2010Prop46
 90
       50
102
RTVSPost2010PropOp46
 70
     1
102
RTVSPost2010Prop47
 90
       50
102
RTVSPost2010PropOp47
 70
     1
102
RTVSPost2010Prop48
 90
       50
102
RTVSPost2010PropOp48
 70
     1
102
RTVSPost2010Prop49
280
     0
102
RTVSPost2010PropOp49
 70
     1
102
RTVSPost2010Prop50
 90
       50
102
RTVSPost2010PropOp50
 70
     1
102
RTVSPost2010Prop51ColorIndex
 90
      256
102
RTVSPost2010Prop51ColorRGB
 90
-16777216
102
RTVSPost2010PropOp51
 70
     0
102
RTVSPost2010Prop52
140
1.0
102
RTVSPost2010PropOp52
 70
     0
102
RTVSPost2010Prop53
 90
        2
102
RTVSPost2010PropOp53
 70
     1
102
RTVSPost2010Prop54
  1
strokes_ogs.tif
102
RTVSPost2010PropOp54
 70
     1
102
RTVSPost2010Prop55
280
     0
102
RTVSPost2010PropOp55
 70
     1
102
RTVSPost2010Prop56
140
1.0
102
RTVSPost2010PropOp56
 70
     1
102
RTVSPost2010Prop57
140
1.0
102
RTVSPost2010PropOp57
 70
     1
102
RTVSPropertyOp0
 70
     1
102
RTVSPropertyOp1
 70
     1
102
RTVSPropertyOp2
 70
     1
102
RTVSPropertyOp3
 70
     1
102
RTVSPropertyOp4
 70
     1
102
RTVSPropertyOp5
 70
     1
102
RTVSPropertyOp6
 70
     1
102
RTVSPropertyOp7
 70
     1
102
RTVSPropertyOp8
 70
     1
102
RTVSPropertyOp9
 70
     1
102
RTVSPropertyOp10
 70
     1
102
RTVSPropertyOp11
 70
     1
102
RTVSPropertyOp12
 70
     1
102
RTVSPropertyOp13
 70
     1
102
RTVSPropertyOp14
 70
     1
102
RTVSPropertyOp15
 70
     1
102
RTVSPropertyOp16
 70
     1
102
RTVSPropertyOp17
 70
     1
102
RTVSPropertyOp18
 70
     1
102
RTVSPropertyOp19
 70
     1
102
RTVSPropertyOp20
 70
     1
102
RTVSPropertyOp21
 70
     1
102
RTVSPropertyOp22
 70
     1
102
RTVSPropertyOp23
 70
     1
102
RTVSPropertyOp24
 70
     1
102
RTVSPropertyOp25
 70
     1
102
RTVSPropertyOp26
 70
     1
102
RTVSPropertyOp27
 70
     1
102
RTVSPropertyOp28
 70
     1
102
RTVSPropertyOp29
 70
     1
102
RTVSPropertyOp30
 70
     1
102
RTVSPropertyOp31
 70
     1
102
RTVSPropertyOp32
 70
     1
102
RTVSPropertyOp33
 70
     1
102
RTVSPropertyOp34
 70
     1
102
RTVSPropertyOp35
 70
     1
102
RTVSPropertyOp36
 70
     1
102
RTVSPropertyOp37
 70
     1
102
RTVSPropertyOp38
 70
     1
102
RTVSPropertyOp39
 70
     1
102
RTVSPropertyOp40
 70
     1
102
RTVSPropertyOp41
 70
     1
102
RTVSPropertyOp42
 70
     1
102
RTVSPropertyOp43
 70
     1
102
RTVSPropertyOp44
 70
     1
102
RTVSPropertyOp45
 70
     1
102
RTVSPropertyOp46
 70
     1
102
RTVSPropertyOp47
 70
     1
102
RTVSPropertyOp48
 70
     1
102
RTVSPropertyOp49
 70
     1
102
RTVSPropertyOp50
 70
     1
102
RTVSPropertyOp51
 70
     0
102
RTVSPropertyOp52
 70
     0
102
RTVSPropertyOp53
 70
     1
102
RTVSPropertyOp54
 70
     1
102
RTVSPropertyOp55
 70
     1
102
RTVSPropertyOp56
 70
     1
102
RTVSPropertyOp57
 70
     1
102
RTVSPropertyOp58
 70
     1
102
RTVSPropertyOp59
 70
     1
102
RTVSPropertyOp60
 70
     1
102
RTVSPropertyOp61
 70
     1
102
RTVSPropertyOp62
 70
     1
  0
XRECORD
  5
9E59
102
{ACAD_REACTORS
330
9E58
102
}
330
9E58
100
AcDbXrecord
280
     1
102
RTVSPost2010Prop28
280
     0
102
RTVSPost2010PropOp28
 70
     1
102
RTVSPost2010Prop29
280
     1
102
RTVSPost2010PropOp29
 70
     1
102
RTVSPost2010Prop30
280
     1
102
RTVSPost2010PropOp30
 70
     1
102
RTVSPost2010Prop31
280
     0
102
RTVSPost2010PropOp31
 70
     1
102
RTVSPost2010Prop32
280
     0
102
RTVSPost2010PropOp32
 70
     1
102
RTVSPost2010Prop33
280
     0
102
RTVSPost2010PropOp33
 70
     1
102
RTVSPost2010Prop34
280
     0
102
RTVSPost2010PropOp34
 70
     1
102
RTVSPost2010Prop35
280
     0
102
RTVSPost2010PropOp35
 70
     1
102
RTVSPost2010Prop36
280
     0
102
RTVSPost2010PropOp36
 70
     1
102
RTVSPost2010Prop37
 90
       50
102
RTVSPost2010PropOp37
 70
     1
102
RTVSPost2010Prop38
140
0.0
102
RTVSPost2010PropOp38
 70
     1
102
RTVSPost2010Prop39
140
1.0
102
RTVSPost2010PropOp39
 70
     1
102
RTVSPost2010Prop40
 90
        0
102
RTVSPost2010PropOp40
 70
     1
102
RTVSPost2010Prop41ColorIndex
 90
       18
102
RTVSPost2010Prop41ColorRGB
 90
        0
102
RTVSPost2010PropOp41
 70
     1
102
RTVSPost2010Prop42
 90
       50
102
RTVSPost2010PropOp42
 70
     1
102
RTVSPost2010Prop43
 90
        3
102
RTVSPost2010PropOp43
 70
     1
102
RTVSPost2010Prop44ColorIndex
 90
        5
102
RTVSPost2010Prop44ColorRGB
 90
      255
102
RTVSPost2010PropOp44
 70
     1
102
RTVSPost2010Prop45
280
     0
102
RTVSPost2010PropOp45
 70
     1
102
RTVSPost2010Prop46
 90
       50
102
RTVSPost2010PropOp46
 70
     1
102
RTVSPost2010Prop47
 90
       50
102
RTVSPost2010PropOp47
 70
     1
102
RTVSPost2010Prop48
 90
       50
102
RTVSPost2010PropOp48
 70
     1
102
RTVSPost2010Prop49
280
     0
102
RTVSPost2010PropOp49
 70
     1
102
RTVSPost2010Prop50
 90
       50
102
RTVSPost2010PropOp50
 70
     1
102
RTVSPost2010Prop51ColorIndex
 90
      256
102
RTVSPost2010Prop51ColorRGB
 90
-16777216
102
RTVSPost2010PropOp51
 70
     0
102
RTVSPost2010Prop52
140
1.0
102
RTVSPost2010PropOp52
 70
     0
102
RTVSPost2010Prop53
 90
        2
102
RTVSPost2010PropOp53
 70
     1
102
RTVSPost2010Prop54
  1
strokes_ogs.tif
102
RTVSPost2010PropOp54
 70
     1
102
RTVSPost2010Prop55
280
     0
102
RTVSPost2010PropOp55
 70
     1
102
RTVSPost2010Prop56
140
1.0
102
RTVSPost2010PropOp56
 70
     1
102
RTVSPost2010Prop57
140
1.0
102
RTVSPost2010PropOp57
 70
     1
102
RTVSPropertyOp0
 70
     1
102
RTVSPropertyOp1
 70
     1
102
RTVSPropertyOp2
 70
     1
102
RTVSPropertyOp3
 70
     1
102
RTVSPropertyOp4
 70
     1
102
RTVSPropertyOp5
 70
     1
102
RTVSPropertyOp6
 70
     1
102
RTVSPropertyOp7
 70
     1
102
RTVSPropertyOp8
 70
     1
102
RTVSPropertyOp9
 70
     1
102
RTVSPropertyOp10
 70
     1
102
RTVSPropertyOp11
 70
     1
102
RTVSPropertyOp12
 70
     1
102
RTVSPropertyOp13
 70
     1
102
RTVSPropertyOp14
 70
     1
102
RTVSPropertyOp15
 70
     1
102
RTVSPropertyOp16
 70
     1
102
RTVSPropertyOp17
 70
     1
102
RTVSPropertyOp18
 70
     1
102
RTVSPropertyOp19
 70
     1
102
RTVSPropertyOp20
 70
     1
102
RTVSPropertyOp21
 70
     1
102
RTVSPropertyOp22
 70
     1
102
RTVSPropertyOp23
 70
     1
102
RTVSPropertyOp24
 70
     1
102
RTVSPropertyOp25
 70
     1
102
RTVSPropertyOp26
 70
     1
102
RTVSPropertyOp27
 70
     1
102
RTVSPropertyOp28
 70
     1
102
RTVSPropertyOp29
 70
     1
102
RTVSPropertyOp30
 70
     1
102
RTVSPropertyOp31
 70
     1
102
RTVSPropertyOp32
 70
     1
102
RTVSPropertyOp33
 70
     1
102
RTVSPropertyOp34
 70
     1
102
RTVSPropertyOp35
 70
     1
102
RTVSPropertyOp36
 70
     1
102
RTVSPropertyOp37
 70
     1
102
RTVSPropertyOp38
 70
     1
102
RTVSPropertyOp39
 70
     1
102
RTVSPropertyOp40
 70
     1
102
RTVSPropertyOp41
 70
     1
102
RTVSPropertyOp42
 70
     1
102
RTVSPropertyOp43
 70
     1
102
RTVSPropertyOp44
 70
     1
102
RTVSPropertyOp45
 70
     1
102
RTVSPropertyOp46
 70
     1
102
RTVSPropertyOp47
 70
     1
102
RTVSPropertyOp48
 70
     1
102
RTVSPropertyOp49
 70
     1
102
RTVSPropertyOp50
 70
     1
102
RTVSPropertyOp51
 70
     0
102
RTVSPropertyOp52
 70
     0
102
RTVSPropertyOp53
 70
     1
102
RTVSPropertyOp54
 70
     1
102
RTVSPropertyOp55
 70
     1
102
RTVSPropertyOp56
 70
     1
102
RTVSPropertyOp57
 70
     1
102
RTVSPropertyOp58
 70
     1
102
RTVSPropertyOp59
 70
     1
102
RTVSPropertyOp60
 70
     1
102
RTVSPropertyOp61
 70
     1
102
RTVSPropertyOp62
 70
     1
  0
XRECORD
  5
9E47
102
{ACAD_REACTORS
330
9E46
102
}
330
9E46
100
AcDbXrecord
280
     1
102
RTVSPost2010Prop28
280
     0
102
RTVSPost2010PropOp28
 70
     1
102
RTVSPost2010Prop29
280
     1
102
RTVSPost2010PropOp29
 70
     1
102
RTVSPost2010Prop30
280
     1
102
RTVSPost2010PropOp30
 70
     1
102
RTVSPost2010Prop31
280
     0
102
RTVSPost2010PropOp31
 70
     1
102
RTVSPost2010Prop32
280
     0
102
RTVSPost2010PropOp32
 70
     1
102
RTVSPost2010Prop33
280
     0
102
RTVSPost2010PropOp33
 70
     1
102
RTVSPost2010Prop34
280
     0
102
RTVSPost2010PropOp34
 70
     1
102
RTVSPost2010Prop35
280
     0
102
RTVSPost2010PropOp35
 70
     1
102
RTVSPost2010Prop36
280
     0
102
RTVSPost2010PropOp36
 70
     1
102
RTVSPost2010Prop37
 90
       50
102
RTVSPost2010PropOp37
 70
     1
102
RTVSPost2010Prop38
140
0.0
102
RTVSPost2010PropOp38
 70
     1
102
RTVSPost2010Prop39
140
1.0
102
RTVSPost2010PropOp39
 70
     1
102
RTVSPost2010Prop40
 90
        0
102
RTVSPost2010PropOp40
 70
     1
102
RTVSPost2010Prop41ColorIndex
 90
       18
102
RTVSPost2010Prop41ColorRGB
 90
        0
102
RTVSPost2010PropOp41
 70
     1
102
RTVSPost2010Prop42
 90
       50
102
RTVSPost2010PropOp42
 70
     1
102
RTVSPost2010Prop43
 90
        3
102
RTVSPost2010PropOp43
 70
     1
102
RTVSPost2010Prop44ColorIndex
 90
        5
102
RTVSPost2010Prop44ColorRGB
 90
      255
102
RTVSPost2010PropOp44
 70
     1
102
RTVSPost2010Prop45
280
     0
102
RTVSPost2010PropOp45
 70
     1
102
RTVSPost2010Prop46
 90
       50
102
RTVSPost2010PropOp46
 70
     1
102
RTVSPost2010Prop47
 90
       50
102
RTVSPost2010PropOp47
 70
     1
102
RTVSPost2010Prop48
 90
       50
102
RTVSPost2010PropOp48
 70
     1
102
RTVSPost2010Prop49
280
     0
102
RTVSPost2010PropOp49
 70
     1
102
RTVSPost2010Prop50
 90
       50
102
RTVSPost2010PropOp50
 70
     1
102
RTVSPost2010Prop51ColorIndex
 90
      256
102
RTVSPost2010Prop51ColorRGB
 90
-16777216
102
RTVSPost2010PropOp51
 70
     0
102
RTVSPost2010Prop52
140
1.0
102
RTVSPost2010PropOp52
 70
     0
102
RTVSPost2010Prop53
 90
        2
102
RTVSPost2010PropOp53
 70
     1
102
RTVSPost2010Prop54
  1
strokes_ogs.tif
102
RTVSPost2010PropOp54
 70
     1
102
RTVSPost2010Prop55
280
     0
102
RTVSPost2010PropOp55
 70
     1
102
RTVSPost2010Prop56
140
1.0
102
RTVSPost2010PropOp56
 70
     1
102
RTVSPost2010Prop57
140
1.0
102
RTVSPost2010PropOp57
 70
     1
102
RTVSPropertyOp0
 70
     1
102
RTVSPropertyOp1
 70
     1
102
RTVSPropertyOp2
 70
     1
102
RTVSPropertyOp3
 70
     1
102
RTVSPropertyOp4
 70
     1
102
RTVSPropertyOp5
 70
     1
102
RTVSPropertyOp6
 70
     1
102
RTVSPropertyOp7
 70
     1
102
RTVSPropertyOp8
 70
     1
102
RTVSPropertyOp9
 70
     1
102
RTVSPropertyOp10
 70
     1
102
RTVSPropertyOp11
 70
     1
102
RTVSPropertyOp12
 70
     1
102
RTVSPropertyOp13
 70
     1
102
RTVSPropertyOp14
 70
     1
102
RTVSPropertyOp15
 70
     1
102
RTVSPropertyOp16
 70
     1
102
RTVSPropertyOp17
 70
     1
102
RTVSPropertyOp18
 70
     1
102
RTVSPropertyOp19
 70
     1
102
RTVSPropertyOp20
 70
     1
102
RTVSPropertyOp21
 70
     1
102
RTVSPropertyOp22
 70
     1
102
RTVSPropertyOp23
 70
     1
102
RTVSPropertyOp24
 70
     1
102
RTVSPropertyOp25
 70
     1
102
RTVSPropertyOp26
 70
     1
102
RTVSPropertyOp27
 70
     1
102
RTVSPropertyOp28
 70
     1
102
RTVSPropertyOp29
 70
     1
102
RTVSPropertyOp30
 70
     1
102
RTVSPropertyOp31
 70
     1
102
RTVSPropertyOp32
 70
     1
102
RTVSPropertyOp33
 70
     1
102
RTVSPropertyOp34
 70
     1
102
RTVSPropertyOp35
 70
     1
102
RTVSPropertyOp36
 70
     1
102
RTVSPropertyOp37
 70
     1
102
RTVSPropertyOp38
 70
     1
102
RTVSPropertyOp39
 70
     1
102
RTVSPropertyOp40
 70
     1
102
RTVSPropertyOp41
 70
     1
102
RTVSPropertyOp42
 70
     1
102
RTVSPropertyOp43
 70
     1
102
RTVSPropertyOp44
 70
     1
102
RTVSPropertyOp45
 70
     1
102
RTVSPropertyOp46
 70
     1
102
RTVSPropertyOp47
 70
     1
102
RTVSPropertyOp48
 70
     1
102
RTVSPropertyOp49
 70
     1
102
RTVSPropertyOp50
 70
     1
102
RTVSPropertyOp51
 70
     0
102
RTVSPropertyOp52
 70
     0
102
RTVSPropertyOp53
 70
     1
102
RTVSPropertyOp54
 70
     1
102
RTVSPropertyOp55
 70
     1
102
RTVSPropertyOp56
 70
     1
102
RTVSPropertyOp57
 70
     1
102
RTVSPropertyOp58
 70
     1
102
RTVSPropertyOp59
 70
     1
102
RTVSPropertyOp60
 70
     1
102
RTVSPropertyOp61
 70
     1
102
RTVSPropertyOp62
 70
     1
  0
XRECORD
  5
9E3B
102
{ACAD_REACTORS
330
9E3A
102
}
330
9E3A
100
AcDbXrecord
280
     1
102
RTVSPost2010Prop28
280
     0
102
RTVSPost2010PropOp28
 70
     1
102
RTVSPost2010Prop29
280
     1
102
RTVSPost2010PropOp29
 70
     1
102
RTVSPost2010Prop30
280
     1
102
RTVSPost2010PropOp30
 70
     1
102
RTVSPost2010Prop31
280
     0
102
RTVSPost2010PropOp31
 70
     1
102
RTVSPost2010Prop32
280
     0
102
RTVSPost2010PropOp32
 70
     1
102
RTVSPost2010Prop33
280
     0
102
RTVSPost2010PropOp33
 70
     1
102
RTVSPost2010Prop34
280
     0
102
RTVSPost2010PropOp34
 70
     1
102
RTVSPost2010Prop35
280
     0
102
RTVSPost2010PropOp35
 70
     1
102
RTVSPost2010Prop36
280
     0
102
RTVSPost2010PropOp36
 70
     1
102
RTVSPost2010Prop37
 90
       50
102
RTVSPost2010PropOp37
 70
     1
102
RTVSPost2010Prop38
140
0.0
102
RTVSPost2010PropOp38
 70
     1
102
RTVSPost2010Prop39
140
1.0
102
RTVSPost2010PropOp39
 70
     1
102
RTVSPost2010Prop40
 90
        0
102
RTVSPost2010PropOp40
 70
     1
102
RTVSPost2010Prop41ColorIndex
 90
       18
102
RTVSPost2010Prop41ColorRGB
 90
        0
102
RTVSPost2010PropOp41
 70
     1
102
RTVSPost2010Prop42
 90
       50
102
RTVSPost2010PropOp42
 70
     1
102
RTVSPost2010Prop43
 90
        3
102
RTVSPost2010PropOp43
 70
     1
102
RTVSPost2010Prop44ColorIndex
 90
        5
102
RTVSPost2010Prop44ColorRGB
 90
      255
102
RTVSPost2010PropOp44
 70
     1
102
RTVSPost2010Prop45
280
     0
102
RTVSPost2010PropOp45
 70
     1
102
RTVSPost2010Prop46
 90
       50
102
RTVSPost2010PropOp46
 70
     1
102
RTVSPost2010Prop47
 90
       50
102
RTVSPost2010PropOp47
 70
     1
102
RTVSPost2010Prop48
 90
       50
102
RTVSPost2010PropOp48
 70
     1
102
RTVSPost2010Prop49
280
     0
102
RTVSPost2010PropOp49
 70
     1
102
RTVSPost2010Prop50
 90
       50
102
RTVSPost2010PropOp50
 70
     1
102
RTVSPost2010Prop51ColorIndex
 90
      256
102
RTVSPost2010Prop51ColorRGB
 90
-16777216
102
RTVSPost2010PropOp51
 70
     0
102
RTVSPost2010Prop52
140
1.0
102
RTVSPost2010PropOp52
 70
     0
102
RTVSPost2010Prop53
 90
        2
102
RTVSPost2010PropOp53
 70
     1
102
RTVSPost2010Prop54
  1
strokes_ogs.tif
102
RTVSPost2010PropOp54
 70
     1
102
RTVSPost2010Prop55
280
     0
102
RTVSPost2010PropOp55
 70
     1
102
RTVSPost2010Prop56
140
1.0
102
RTVSPost2010PropOp56
 70
     1
102
RTVSPost2010Prop57
140
1.0
102
RTVSPost2010PropOp57
 70
     1
102
RTVSPropertyOp0
 70
     1
102
RTVSPropertyOp1
 70
     1
102
RTVSPropertyOp2
 70
     1
102
RTVSPropertyOp3
 70
     1
102
RTVSPropertyOp4
 70
     1
102
RTVSPropertyOp5
 70
     1
102
RTVSPropertyOp6
 70
     1
102
RTVSPropertyOp7
 70
     1
102
RTVSPropertyOp8
 70
     1
102
RTVSPropertyOp9
 70
     1
102
RTVSPropertyOp10
 70
     1
102
RTVSPropertyOp11
 70
     1
102
RTVSPropertyOp12
 70
     1
102
RTVSPropertyOp13
 70
     1
102
RTVSPropertyOp14
 70
     1
102
RTVSPropertyOp15
 70
     1
102
RTVSPropertyOp16
 70
     1
102
RTVSPropertyOp17
 70
     1
102
RTVSPropertyOp18
 70
     1
102
RTVSPropertyOp19
 70
     1
102
RTVSPropertyOp20
 70
     1
102
RTVSPropertyOp21
 70
     1
102
RTVSPropertyOp22
 70
     1
102
RTVSPropertyOp23
 70
     1
102
RTVSPropertyOp24
 70
     1
102
RTVSPropertyOp25
 70
     1
102
RTVSPropertyOp26
 70
     1
102
RTVSPropertyOp27
 70
     1
102
RTVSPropertyOp28
 70
     1
102
RTVSPropertyOp29
 70
     1
102
RTVSPropertyOp30
 70
     1
102
RTVSPropertyOp31
 70
     1
102
RTVSPropertyOp32
 70
     1
102
RTVSPropertyOp33
 70
     1
102
RTVSPropertyOp34
 70
     1
102
RTVSPropertyOp35
 70
     1
102
RTVSPropertyOp36
 70
     1
102
RTVSPropertyOp37
 70
     1
102
RTVSPropertyOp38
 70
     1
102
RTVSPropertyOp39
 70
     1
102
RTVSPropertyOp40
 70
     1
102
RTVSPropertyOp41
 70
     1
102
RTVSPropertyOp42
 70
     1
102
RTVSPropertyOp43
 70
     1
102
RTVSPropertyOp44
 70
     1
102
RTVSPropertyOp45
 70
     1
102
RTVSPropertyOp46
 70
     1
102
RTVSPropertyOp47
 70
     1
102
RTVSPropertyOp48
 70
     1
102
RTVSPropertyOp49
 70
     1
102
RTVSPropertyOp50
 70
     1
102
RTVSPropertyOp51
 70
     0
102
RTVSPropertyOp52
 70
     0
102
RTVSPropertyOp53
 70
     1
102
RTVSPropertyOp54
 70
     1
102
RTVSPropertyOp55
 70
     1
102
RTVSPropertyOp56
 70
     1
102
RTVSPropertyOp57
 70
     1
102
RTVSPropertyOp58
 70
     1
102
RTVSPropertyOp59
 70
     1
102
RTVSPropertyOp60
 70
     1
102
RTVSPropertyOp61
 70
     1
102
RTVSPropertyOp62
 70
     1
  0
XRECORD
  5
9E5B
102
{ACAD_REACTORS
330
9E5A
102
}
330
9E5A
100
AcDbXrecord
280
     1
102
RTVSPost2010Prop28
280
     0
102
RTVSPost2010PropOp28
 70
     1
102
RTVSPost2010Prop29
280
     1
102
RTVSPost2010PropOp29
 70
     1
102
RTVSPost2010Prop30
280
     1
102
RTVSPost2010PropOp30
 70
     1
102
RTVSPost2010Prop31
280
     0
102
RTVSPost2010PropOp31
 70
     1
102
RTVSPost2010Prop32
280
     0
102
RTVSPost2010PropOp32
 70
     1
102
RTVSPost2010Prop33
280
     0
102
RTVSPost2010PropOp33
 70
     1
102
RTVSPost2010Prop34
280
     0
102
RTVSPost2010PropOp34
 70
     1
102
RTVSPost2010Prop35
280
     0
102
RTVSPost2010PropOp35
 70
     1
102
RTVSPost2010Prop36
280
     0
102
RTVSPost2010PropOp36
 70
     1
102
RTVSPost2010Prop37
 90
       50
102
RTVSPost2010PropOp37
 70
     1
102
RTVSPost2010Prop38
140
0.0
102
RTVSPost2010PropOp38
 70
     1
102
RTVSPost2010Prop39
140
1.0
102
RTVSPost2010PropOp39
 70
     1
102
RTVSPost2010Prop40
 90
        0
102
RTVSPost2010PropOp40
 70
     1
102
RTVSPost2010Prop41ColorIndex
 90
       18
102
RTVSPost2010Prop41ColorRGB
 90
        0
102
RTVSPost2010PropOp41
 70
     1
102
RTVSPost2010Prop42
 90
       50
102
RTVSPost2010PropOp42
 70
     1
102
RTVSPost2010Prop43
 90
        3
102
RTVSPost2010PropOp43
 70
     1
102
RTVSPost2010Prop44ColorIndex
 90
        5
102
RTVSPost2010Prop44ColorRGB
 90
      255
102
RTVSPost2010PropOp44
 70
     1
102
RTVSPost2010Prop45
280
     0
102
RTVSPost2010PropOp45
 70
     1
102
RTVSPost2010Prop46
 90
       50
102
RTVSPost2010PropOp46
 70
     1
102
RTVSPost2010Prop47
 90
       50
102
RTVSPost2010PropOp47
 70
     1
102
RTVSPost2010Prop48
 90
       50
102
RTVSPost2010PropOp48
 70
     1
102
RTVSPost2010Prop49
280
     0
102
RTVSPost2010PropOp49
 70
     1
102
RTVSPost2010Prop50
 90
       50
102
RTVSPost2010PropOp50
 70
     1
102
RTVSPost2010Prop51ColorIndex
 90
      256
102
RTVSPost2010Prop51ColorRGB
 90
-16777216
102
RTVSPost2010PropOp51
 70
     0
102
RTVSPost2010Prop52
140
1.0
102
RTVSPost2010PropOp52
 70
     0
102
RTVSPost2010Prop53
 90
        2
102
RTVSPost2010PropOp53
 70
     1
102
RTVSPost2010Prop54
  1
strokes_ogs.tif
102
RTVSPost2010PropOp54
 70
     1
102
RTVSPost2010Prop55
280
     0
102
RTVSPost2010PropOp55
 70
     1
102
RTVSPost2010Prop56
140
1.0
102
RTVSPost2010PropOp56
 70
     1
102
RTVSPost2010Prop57
140
1.0
102
RTVSPost2010PropOp57
 70
     1
102
RTVSPropertyOp0
 70
     1
102
RTVSPropertyOp1
 70
     1
102
RTVSPropertyOp2
 70
     1
102
RTVSPropertyOp3
 70
     1
102
RTVSPropertyOp4
 70
     1
102
RTVSPropertyOp5
 70
     1
102
RTVSPropertyOp6
 70
     1
102
RTVSPropertyOp7
 70
     1
102
RTVSPropertyOp8
 70
     1
102
RTVSPropertyOp9
 70
     1
102
RTVSPropertyOp10
 70
     1
102
RTVSPropertyOp11
 70
     1
102
RTVSPropertyOp12
 70
     1
102
RTVSPropertyOp13
 70
     1
102
RTVSPropertyOp14
 70
     1
102
RTVSPropertyOp15
 70
     1
102
RTVSPropertyOp16
 70
     1
102
RTVSPropertyOp17
 70
     1
102
RTVSPropertyOp18
 70
     1
102
RTVSPropertyOp19
 70
     1
102
RTVSPropertyOp20
 70
     1
102
RTVSPropertyOp21
 70
     1
102
RTVSPropertyOp22
 70
     1
102
RTVSPropertyOp23
 70
     1
102
RTVSPropertyOp24
 70
     1
102
RTVSPropertyOp25
 70
     1
102
RTVSPropertyOp26
 70
     1
102
RTVSPropertyOp27
 70
     1
102
RTVSPropertyOp28
 70
     1
102
RTVSPropertyOp29
 70
     1
102
RTVSPropertyOp30
 70
     1
102
RTVSPropertyOp31
 70
     1
102
RTVSPropertyOp32
 70
     1
102
RTVSPropertyOp33
 70
     1
102
RTVSPropertyOp34
 70
     1
102
RTVSPropertyOp35
 70
     1
102
RTVSPropertyOp36
 70
     1
102
RTVSPropertyOp37
 70
     1
102
RTVSPropertyOp38
 70
     1
102
RTVSPropertyOp39
 70
     1
102
RTVSPropertyOp40
 70
     1
102
RTVSPropertyOp41
 70
     1
102
RTVSPropertyOp42
 70
     1
102
RTVSPropertyOp43
 70
     1
102
RTVSPropertyOp44
 70
     1
102
RTVSPropertyOp45
 70
     1
102
RTVSPropertyOp46
 70
     1
102
RTVSPropertyOp47
 70
     1
102
RTVSPropertyOp48
 70
     1
102
RTVSPropertyOp49
 70
     1
102
RTVSPropertyOp50
 70
     1
102
RTVSPropertyOp51
 70
     0
102
RTVSPropertyOp52
 70
     0
102
RTVSPropertyOp53
 70
     1
102
RTVSPropertyOp54
 70
     1
102
RTVSPropertyOp55
 70
     1
102
RTVSPropertyOp56
 70
     1
102
RTVSPropertyOp57
 70
     1
102
RTVSPropertyOp58
 70
     1
102
RTVSPropertyOp59
 70
     1
102
RTVSPropertyOp60
 70
     1
102
RTVSPropertyOp61
 70
     1
102
RTVSPropertyOp62
 70
     1
  0
ENDSEC
  0
EOF
