  0
SECTION
  2
HEADER
  9
$ACADVER
  1
AC1015
  9
$ACADMAINTVER
 70
    18
  9
$DWGCODEPAGE
  3
ANSI_1252
  9
$INSBASE
 10
0.0
 20
0.0
 30
0.0
  9
$EXTMIN
 10
-229.1235344450962
 20
-286.4906154867385
 30
-0.0015258207003583
  9
$EXTMAX
 10
305.3933724265003
 20
307.6136176472222
 30
0.0000000349246037
  9
$LIMMIN
 10
0.0
 20
0.0
  9
$LIMMAX
 10
420.0
 20
297.0
  9
$ORTHOMODE
 70
     0
  9
$REGENMODE
 70
     1
  9
$FILLMODE
 70
     1
  9
$QTEXTMODE
 70
     0
  9
$MIRRTEXT
 70
     0
  9
$LTSCALE
 40
1.0
  9
$ATTMODE
 70
     1
  9
$TEXTSIZE
 40
2.5
  9
$TRACEWID
 40
1.0
  9
$TEXTSTYLE
  7
Standard
  9
$CLAYER
  8
0
  9
$CELTYPE
  6
ByLayer
  9
$CECOLOR
 62
   256
  9
$CELTSCALE
 40
1.0
  9
$DISPSILH
 70
     0
  9
$DIMSCALE
 40
1.0
  9
$DIMASZ
 40
2.5
  9
$DIMEXO
 40
0.625
  9
$DIMDLI
 40
3.75
  9
$DIMRND
 40
0.0
  9
$DIMDLE
 40
0.0
  9
$DIMEXE
 40
1.25
  9
$DIMTP
 40
0.0
  9
$DIMTM
 40
0.0
  9
$DIMTXT
 40
2.5
  9
$DIMCEN
 40
2.5
  9
$DIMTSZ
 40
0.0
  9
$DIMTOL
 70
     0
  9
$DIMLIM
 70
     0
  9
$DIMTIH
 70
     0
  9
$DIMTOH
 70
     0
  9
$DIMSE1
 70
     0
  9
$DIMSE2
 70
     0
  9
$DIMTAD
 70
     1
  9
$DIMZIN
 70
     8
  9
$DIMBLK
  1

  9
$DIMASO
 70
     1
  9
$DIMSHO
 70
     1
  9
$DIMPOST
  1

  9
$DIMAPOST
  1

  9
$DIMALT
 70
     0
  9
$DIMALTD
 70
     3
  9
$DIMALTF
 40
0.03937007874016
  9
$DIMLFAC
 40
1.0
  9
$DIMTOFL
 70
     1
  9
$DIMTVP
 40
0.0
  9
$DIMTIX
 70
     0
  9
$DIMSOXD
 70
     0
  9
$DIMSAH
 70
     0
  9
$DIMBLK1
  1

  9
$DIMBLK2
  1

  9
$DIMSTYLE
  2
ISO-25
  9
$DIMCLRD
 70
     0
  9
$DIMCLRE
 70
     0
  9
$DIMCLRT
 70
     0
  9
$DIMTFAC
 40
1.0
  9
$DIMGAP
 40
0.625
  9
$DIMJUST
 70
     0
  9
$DIMSD1
 70
     0
  9
$DIMSD2
 70
     0
  9
$DIMTOLJ
 70
     0
  9
$DIMTZIN
 70
     8
  9
$DIMALTZ
 70
     0
  9
$DIMALTTZ
 70
     0
  9
$DIMUPT
 70
     0
  9
$DIMDEC
 70
     2
  9
$DIMTDEC
 70
     2
  9
$DIMALTU
 70
     2
  9
$DIMALTTD
 70
     3
  9
$DIMTXSTY
  7
Standard
  9
$DIMAUNIT
 70
     0
  9
$DIMADEC
 70
     0
  9
$DIMALTRND
 40
0.0
  9
$DIMAZIN
 70
     0
  9
$DIMDSEP
 70
    44
  9
$DIMATFIT
 70
     3
  9
$DIMFRAC
 70
     0
  9
$DIMLDRBLK
  1

  9
$DIMLUNIT
 70
     2
  9
$DIMLWD
 70
    -2
  9
$DIMLWE
 70
    -2
  9
$DIMTMOVE
 70
     0
  9
$LUNITS
 70
     2
  9
$LUPREC
 70
     4
  9
$SKETCHINC
 40
1.0
  9
$FILLETRAD
 40
0.0
  9
$AUNITS
 70
     0
  9
$AUPREC
 70
     0
  9
$MENU
  1
.
  9
$ELEVATION
 40
0.0
  9
$PELEVATION
 40
0.0
  9
$THICKNESS
 40
0.0
  9
$LIMCHECK
 70
     0
  9
$CHAMFERA
 40
0.0
  9
$CHAMFERB
 40
0.0
  9
$CHAMFERC
 40
0.0
  9
$CHAMFERD
 40
0.0
  9
$SKPOLY
 70
     0
  9
$TDCREATE
 40
2460398.356956019
  9
$TDUCREATE
 40
2460398.065289352
  9
$TDUPDATE
 40
2460398.375347222
  9
$TDUUPDATE
 40
2460398.083680556
  9
$TDINDWG
 40
0.0078472222
  9
$TDUSRTIMER
 40
0.0078472222
  9
$USRTIMER
 70
     1
  9
$ANGBASE
 50
0.0
  9
$ANGDIR
 70
     0
  9
$PDMODE
 70
     0
  9
$PDSIZE
 40
0.0
  9
$PLINEWID
 40
0.0
  9
$SPLFRAME
 70
     0
  9
$SPLINETYPE
 70
     6
  9
$SPLINESEGS
 70
     8
  9
$HANDSEED
  5
A510
  9
$SURFTAB1
 70
     6
  9
$SURFTAB2
 70
     6
  9
$SURFTYPE
 70
     6
  9
$SURFU
 70
     6
  9
$SURFV
 70
     6
  9
$UCSBASE
  2

  9
$UCSNAME
  2

  9
$UCSORG
 10
0.0
 20
0.0
 30
0.0
  9
$UCSXDIR
 10
1.0
 20
0.0
 30
0.0
  9
$UCSYDIR
 10
0.0
 20
1.0
 30
0.0
  9
$UCSORTHOREF
  2

  9
$UCSORTHOVIEW
 70
     0
  9
$UCSORGTOP
 10
0.0
 20
0.0
 30
0.0
  9
$UCSORGBOTTOM
 10
0.0
 20
0.0
 30
0.0
  9
$UCSORGLEFT
 10
0.0
 20
0.0
 30
0.0
  9
$UCSORGRIGHT
 10
0.0
 20
0.0
 30
0.0
  9
$UCSORGFRONT
 10
0.0
 20
0.0
 30
0.0
  9
$UCSORGBACK
 10
0.0
 20
0.0
 30
0.0
  9
$PUCSBASE
  2

  9
$PUCSNAME
  2

  9
$PUCSORG
 10
0.0
 20
0.0
 30
0.0
  9
$PUCSXDIR
 10
1.0
 20
0.0
 30
0.0
  9
$PUCSYDIR
 10
0.0
 20
1.0
 30
0.0
  9
$PUCSORTHOREF
  2

  9
$PUCSORTHOVIEW
 70
     0
  9
$PUCSORGTOP
 10
0.0
 20
0.0
 30
0.0
  9
$PUCSORGBOTTOM
 10
0.0
 20
0.0
 30
0.0
  9
$PUCSORGLEFT
 10
0.0
 20
0.0
 30
0.0
  9
$PUCSORGRIGHT
 10
0.0
 20
0.0
 30
0.0
  9
$PUCSORGFRONT
 10
0.0
 20
0.0
 30
0.0
  9
$PUCSORGBACK
 10
0.0
 20
0.0
 30
0.0
  9
$USERI1
 70
     0
  9
$USERI2
 70
     0
  9
$USERI3
 70
     0
  9
$USERI4
 70
     0
  9
$USERI5
 70
     0
  9
$USERR1
 40
0.0
  9
$USERR2
 40
0.0
  9
$USERR3
 40
0.0
  9
$USERR4
 40
0.0
  9
$USERR5
 40
0.0
  9
$WORLDVIEW
 70
     1
  9
$SHADEDGE
 70
     3
  9
$SHADEDIF
 70
    70
  9
$TILEMODE
 70
     1
  9
$MAXACTVP
 70
    48
  9
$PINSBASE
 10
0.0
 20
0.0
 30
0.0
  9
$PLIMCHECK
 70
     0
  9
$PEXTMIN
 10
0.0
 20
0.0
 30
0.0
  9
$PEXTMAX
 10
0.0
 20
0.0
 30
0.0
  9
$PLIMMIN
 10
0.0
 20
0.0
  9
$PLIMMAX
 10
12.0
 20
9.0
  9
$UNITMODE
 70
     0
  9
$VISRETAIN
 70
     1
  9
$PLINEGEN
 70
     0
  9
$PSLTSCALE
 70
     1
  9
$TREEDEPTH
 70
  3020
  9
$CMLSTYLE
  2
Standard
  9
$CMLJUST
 70
     0
  9
$CMLSCALE
 40
20.0
  9
$PROXYGRAPHICS
 70
     1
  9
$MEASUREMENT
 70
     1
  9
$CELWEIGHT
370
    -1
  9
$ENDCAPS
280
     0
  9
$JOINSTYLE
280
     0
  9
$LWDISPLAY
290
     0
  9
$INSUNITS
 70
     4
  9
$HYPERLINKBASE
  1

  9
$STYLESHEET
  1

  9
$XEDIT
290
     1
  9
$CEPSNTYPE
380
     0
  9
$PSTYLEMODE
290
     1
  9
$FINGERPRINTGUID
  2
{6C1266EE-7BC1-BF4A-B059-A6E7702B10CE}
  9
$VERSIONGUID
  2
{6F5033C1-9B0E-064F-BDC4-BB870800D991}
  9
$EXTNAMES
290
     1
  9
$PSVPSCALE
 40
0.0
  9
$OLESTARTUP
290
     0
  0
ENDSEC
  0
SECTION
  2
CLASSES
  0
CLASS
  1
ACDBDICTIONARYWDFLT
  2
AcDbDictionaryWithDefault
  3
ObjectDBX Classes
 90
        0
280
     0
281
     0
  0
CLASS
  1
ACDBPLACEHOLDER
  2
AcDbPlaceHolder
  3
ObjectDBX Classes
 90
        0
280
     0
281
     0
  0
CLASS
  1
LAYOUT
  2
AcDbLayout
  3
ObjectDBX Classes
 90
        0
280
     0
281
     0
  0
CLASS
  1
DICTIONARYVAR
  2
AcDbDictionaryVar
  3
ObjectDBX Classes
 90
        0
280
     0
281
     0
  0
CLASS
  1
TABLESTYLE
  2
AcDbTableStyle
  3
ObjectDBX Classes
 90
     4095
280
     0
281
     0
  0
CLASS
  1
MATERIAL
  2
AcDbMaterial
  3
ObjectDBX Classes
 90
     1153
280
     0
281
     0
  0
CLASS
  1
VISUALSTYLE
  2
AcDbVisualStyle
  3
ObjectDBX Classes
 90
     4095
280
     0
281
     0
  0
CLASS
  1
SCALE
  2
AcDbScale
  3
ObjectDBX Classes
 90
     1153
280
     0
281
     0
  0
CLASS
  1
MLEADERSTYLE
  2
AcDbMLeaderStyle
  3
ACDB_MLEADERSTYLE_CLASS
 90
     4095
280
     0
281
     0
  0
CLASS
  1
CELLSTYLEMAP
  2
AcDbCellStyleMap
  3
ObjectDBX Classes
 90
     1152
280
     0
281
     0
  0
CLASS
  1
EXACXREFPANELOBJECT
  2
ExAcXREFPanelObject
  3
EXAC_ESW
 90
    33793
280
     0
281
     0
  0
CLASS
  1
NPOCOLLECTION
  2
AcDbImpNonPersistentObjectsCollection
  3
ObjectDBX Classes
 90
    33921
280
     0
281
     0
  0
CLASS
  1
LAYER_INDEX
  2
AcDbLayerIndex
  3
ObjectDBX Classes
 90
    32768
280
     0
281
     0
  0
CLASS
  1
SPATIAL_INDEX
  2
AcDbSpatialIndex
  3
ObjectDBX Classes
 90
    32768
280
     0
281
     0
  0
CLASS
  1
IDBUFFER
  2
AcDbIdBuffer
  3
ObjectDBX Classes
 90
    32768
280
     0
281
     0
  0
CLASS
  1
ACDBSECTIONVIEWSTYLE
  2
AcDbSectionViewStyle
  3
ObjectDBX Classes
 90
     1025
280
     0
281
     0
  0
CLASS
  1
ACDBDETAILVIEWSTYLE
  2
AcDbDetailViewStyle
  3
ObjectDBX Classes
 90
     1025
280
     0
281
     0
  0
CLASS
  1
XRECORD
  2
AcDbXrecord
  3
ObjectDBX Classes
 90
        0
280
     0
281
     0
  0
ENDSEC
  0
SECTION
  2
TABLES
  0
TABLE
  2
VPORT
  5
8
102
{ACAD_XDICTIONARY
360
A41E
102
}
330
0
100
AcDbSymbolTable
 70
     1
  0
VPORT
  5
EA
330
8
100
AcDbSymbolTableRecord
100
AcDbViewportTableRecord
  2
*Active
 70
     0
 10
0.0
 20
0.0
 11
1.0
 21
1.0
 12
38.13491899070204
 22
10.56150108024184
 13
0.0
 23
0.0
 14
10.0
 24
10.0
 15
10.0
 25
10.0
 16
0.0
 26
0.0
 36
1.0
 17
0.0
 27
0.0
 37
0.0
 40
631.7760122423294
 41
0.9846153846153846
 42
50.0
 43
0.0
 44
0.0
 50
0.0
 51
0.0
 71
     0
 72
  1000
 73
     1
 74
     3
 75
     0
 76
     1
 77
     0
 78
     0
281
     0
 65
     1
110
0.0
120
0.0
130
0.0
111
1.0
121
0.0
131
0.0
112
0.0
122
1.0
132
0.0
 79
     0
146
0.0
1001
ACAD_NAV_VCDISPLAY
1070
     3
  0
ENDTAB
  0
TABLE
  2
LTYPE
  5
5
330
0
100
AcDbSymbolTable
 70
     1
  0
LTYPE
  5
14
330
5
100
AcDbSymbolTableRecord
100
AcDbLinetypeTableRecord
  2
ByBlock
 70
     0
  3

 72
    65
 73
     0
 40
0.0
  0
LTYPE
  5
15
330
5
100
AcDbSymbolTableRecord
100
AcDbLinetypeTableRecord
  2
ByLayer
 70
     0
  3

 72
    65
 73
     0
 40
0.0
  0
LTYPE
  5
16
330
5
100
AcDbSymbolTableRecord
100
AcDbLinetypeTableRecord
  2
Continuous
 70
     0
  3
Solid line
 72
    65
 73
     0
 40
0.0
  0
ENDTAB
  0
TABLE
  2
LAYER
  5
2
102
{ACAD_XDICTIONARY
360
1FF
102
}
330
0
100
AcDbSymbolTable
 70
     1
  0
LAYER
  5
10
102
{ACAD_XDICTIONARY
360
13C
102
}
330
2
100
AcDbSymbolTableRecord
100
AcDbLayerTableRecord
  2
0
 70
     0
 62
     7
  6
Continuous
370
    -3
390
F
  0
ENDTAB
  0
TABLE
  2
STYLE
  5
3
330
0
100
AcDbSymbolTable
 70
     1
  0
STYLE
  5
11
330
3
100
AcDbSymbolTableRecord
100
AcDbTextStyleTableRecord
  2
Standard
 70
     0
 40
0.0
 41
1.0
 50
0.0
 71
     0
 42
2.5
  3
arial.ttf
  4

1001
ACAD
1000
Arial
1071
       34
  0
ENDTAB
  0
TABLE
  2
VIEW
  5
6
330
0
100
AcDbSymbolTable
 70
     0
  0
ENDTAB
  0
TABLE
  2
UCS
  5
7
330
0
100
AcDbSymbolTable
 70
     0
  0
ENDTAB
  0
TABLE
  2
APPID
  5
9
330
0
100
AcDbSymbolTable
 70
     8
  0
APPID
  5
12
330
9
100
AcDbSymbolTableRecord
100
AcDbRegAppTableRecord
  2
ACAD
 70
     0
  0
APPID
  5
9E
330
9
100
AcDbSymbolTableRecord
100
AcDbRegAppTableRecord
  2
ACAD_PSEXT
 70
     0
  0
APPID
  5
133
330
9
100
AcDbSymbolTableRecord
100
AcDbRegAppTableRecord
  2
AcadAnnoPO
 70
     0
  0
APPID
  5
134
330
9
100
AcDbSymbolTableRecord
100
AcDbRegAppTableRecord
  2
AcadAnnotative
 70
     0
  0
APPID
  5
135
330
9
100
AcDbSymbolTableRecord
100
AcDbRegAppTableRecord
  2
ACAD_DSTYLE_DIMJAG
 70
     0
  0
APPID
  5
136
330
9
100
AcDbSymbolTableRecord
100
AcDbRegAppTableRecord
  2
ACAD_DSTYLE_DIMTALN
 70
     0
  0
APPID
  5
165
330
9
100
AcDbSymbolTableRecord
100
AcDbRegAppTableRecord
  2
ACAD_MLEADERVER
 70
     0
  0
APPID
  5
217
330
9
100
AcDbSymbolTableRecord
100
AcDbRegAppTableRecord
  2
ACAD_NAV_VCDISPLAY
 70
     0
  0
ENDTAB
  0
TABLE
  2
DIMSTYLE
  5
A
330
0
100
AcDbSymbolTable
 70
     1
100
AcDbDimStyleTable
 71
     0
  0
DIMSTYLE
105
27
330
A
100
AcDbSymbolTableRecord
100
AcDbDimStyleTableRecord
  2
ISO-25
 70
     0
 41
2.5
 42
0.625
 43
3.75
 44
1.25
 73
     0
 74
     0
 77
     1
 78
     8
140
2.5
141
2.5
143
0.03937007874016
147
0.625
171
     3
172
     1
271
     2
272
     2
274
     3
278
    44
283
     0
284
     8
340
11
  0
ENDTAB
  0
TABLE
  2
BLOCK_RECORD
  5
1
330
0
100
AcDbSymbolTable
 70
     7
  0
BLOCK_RECORD
  5
1F
102
{ACAD_XDICTIONARY
360
1CE
102
}
330
1
100
AcDbSymbolTableRecord
100
AcDbBlockTableRecord
  2
*Model_Space
340
22
  0
BLOCK_RECORD
  5
D2
102
{ACAD_XDICTIONARY
360
A3D1
102
}
330
1
100
AcDbSymbolTableRecord
100
AcDbBlockTableRecord
  2
*Paper_Space
340
D3
  0
BLOCK_RECORD
  5
D6
102
{ACAD_XDICTIONARY
360
A3D3
102
}
330
1
100
AcDbSymbolTableRecord
100
AcDbBlockTableRecord
  2
*Paper_Space0
340
D7
  0
BLOCK_RECORD
  5
A236
330
1
100
AcDbSymbolTableRecord
100
AcDbBlockTableRecord
  2
SAE440_100_2-Front
340
0
102
{BLKREFS
331
A3C7
102
}
  0
BLOCK_RECORD
  5
A295
330
1
100
AcDbSymbolTableRecord
100
AcDbBlockTableRecord
  2
SAE440_100_2-Left
340
0
102
{BLKREFS
331
A3C8
102
}
  0
BLOCK_RECORD
  5
A2B6
330
1
100
AcDbSymbolTableRecord
100
AcDbBlockTableRecord
  2
SAE440_100_2-Right
340
0
102
{BLKREFS
331
A3C9
102
}
  0
BLOCK_RECORD
  5
A2D6
330
1
100
AcDbSymbolTableRecord
100
AcDbBlockTableRecord
  2
SAE440_100_2-Top
340
0
102
{BLKREFS
331
A3CA
102
}
  0
BLOCK_RECORD
  5
A303
330
1
100
AcDbSymbolTableRecord
100
AcDbBlockTableRecord
  2
SAE440_100_2-Bottom
340
0
102
{BLKREFS
331
A3CB
102
}
  0
BLOCK_RECORD
  5
A329
330
1
100
AcDbSymbolTableRecord
100
AcDbBlockTableRecord
  2
SAE440_100_2-ISO
340
0
102
{BLKREFS
331
A3CC
102
}
  0
ENDTAB
  0
ENDSEC
  0
SECTION
  2
BLOCKS
  0
BLOCK
  5
20
330
1F
100
AcDbEntity
  8
0
100
AcDbBlockBegin
  2
*Model_Space
 70
     0
 10
0.0
 20
0.0
 30
0.0
  3
*Model_Space
  1

  0
ENDBLK
  5
21
330
1F
100
AcDbEntity
  8
0
100
AcDbBlockEnd
  0
BLOCK
  5
D4
330
D2
100
AcDbEntity
 67
     1
  8
0
100
AcDbBlockBegin
  2
*Paper_Space
 70
     0
 10
0.0
 20
0.0
 30
0.0
  3
*Paper_Space
  1

  0
ENDBLK
  5
D5
330
D2
100
AcDbEntity
 67
     1
  8
0
100
AcDbBlockEnd
  0
BLOCK
  5
D8
330
D6
100
AcDbEntity
 67
     1
  8
0
100
AcDbBlockBegin
  2
*Paper_Space0
 70
     0
 10
0.0
 20
0.0
 30
0.0
  3
*Paper_Space0
  1

  0
ENDBLK
  5
D9
330
D6
100
AcDbEntity
 67
     1
  8
0
100
AcDbBlockEnd
  0
BLOCK
  5
A237
330
A236
100
AcDbEntity
  8
0
100
AcDbBlockBegin
  2
SAE440_100_2-Front
 70
     0
 10
0.0
 20
0.0
 30
0.0
  3
SAE440_100_2-Front
  1

  0
SPLINE
  5
A239
330
A236
100
AcDbEntity
  8
0
100
AcDbSpline
210
0.0
220
0.0
230
1.0
 70
     8
 71
     3
 72
    14
 73
    10
 74
     0
 42
0.000000001
 43
0.0000000001
 40
0.0
 40
0.0
 40
0.0
 40
0.0
 40
0.3435201403955675
 40
0.3435201403955675
 40
0.3435201403955675
 40
0.757012756796757
 40
0.757012756796757
 40
0.757012756796757
 40
0.9937955959185652
 40
0.9937955959185652
 40
0.9937955959185652
 40
0.9937955959185652
 10
54.60606060606068
 20
12.56250000000003
 30
0.0
 10
54.2848993560363
 20
12.30248939775115
 30
0.0
 10
53.8724505175097
 20
12.0752862912354
 30
0.0
 10
53.47645515516366
 20
11.84407074683989
 30
0.0
 10
52.99979850769418
 20
11.56575833029678
 30
0.0
 10
52.53725634325214
 20
11.27136389236661
 30
0.0
 10
52.26239324898472
 20
10.85787118806246
 30
0.0
 10
52.10499536266478
 20
10.6210882986038
 30
0.0
 10
52.00518678146799
 20
10.37129355971561
 30
0.0
 10
52.0001963193759
 20
10.0272411562306
 30
0.0
  0
LINE
  5
A23A
330
A236
100
AcDbEntity
  8
0
100
AcDbLine
 10
54.0
 20
12.56250000000005
 30
0.0
 11
54.55219694543985
 21
12.56250000000005
 31
0.0
  0
LINE
  5
A23B
330
A236
100
AcDbEntity
  8
0
100
AcDbLine
 10
53.92566083936525
 20
12.56250000000005
 30
0.0
 11
54.0
 21
12.56250000000005
 31
0.0
  0
LINE
  5
A23C
330
A236
100
AcDbEntity
  8
0
100
AcDbLine
 10
52.00000000000001
 20
12.56250000000005
 30
0.0
 11
53.92566083936525
 21
12.56250000000005
 31
0.0
  0
SPLINE
  5
A23D
330
A236
100
AcDbEntity
  8
0
100
AcDbSpline
210
0.0
220
0.0
230
1.0
 70
     8
 71
     3
 72
    14
 73
    10
 74
     0
 42
0.000000001
 43
0.0000000001
 40
0.0347234904167252
 40
0.0347234904167252
 40
0.0347234904167252
 40
0.0347234904167252
 40
0.0361189841832906
 40
0.0361189841832906
 40
0.037013786584178
 40
0.037013786584178
 40
0.0371885308228673
 40
0.0371885308228673
 40
0.0372322168568407
 40
0.0372322168568407
 40
0.0372322168568407
 40
0.0372322168568407
 10
52.00031424167928
 20
10.02490471563922
 30
0.0
 10
52.00028312914285
 20
10.02030992046876
 30
0.0
 10
52.00025972816226
 20
10.01571096176084
 30
0.0
 10
52.00023272886467
 20
10.00815517421772
 30
0.0
 10
52.00022503698602
 20
10.00520111002151
 30
0.0
 10
52.00021901181899
 20
10.00166753564073
 30
0.0
 10
52.00021812850902
 20
10.00109012926245
 30
0.0
 10
52.00021714880481
 20
10.00036826386775
 30
0.0
 10
52.00021695908567
 20
10.00022388545263
 30
0.0
 10
52.00021677556389
 20
10.00007950162407
 30
0.0
  0
SPLINE
  5
A23E
330
A236
100
AcDbEntity
  8
0
100
AcDbSpline
210
0.0
220
0.0
230
1.0
 70
     8
 71
     3
 72
    38
 73
    34
 74
     0
 42
0.000000001
 43
0.0000000001
 40
0.0306560921280611
 40
0.0306560921280611
 40
0.0306560921280611
 40
0.0306560921280611
 40
0.0311833257413474
 40
0.0311833257413474
 40
0.0332608157790655
 40
0.0332608157790655
 40
0.0356947555500733
 40
0.0356947555500733
 40
0.0390687830040266
 40
0.0390687830040266
 40
0.0440693993476123
 40
0.0440693993476123
 40
0.0481186462686524
 40
0.0481186462686524
 40
0.0511537442295302
 40
0.0511537442295302
 40
0.0523184494373049
 40
0.0523184494373049
 40
0.0533627281719769
 40
0.0533627281719769
 40
0.0541820013839742
 40
0.0541820013839742
 40
0.0554128145622412
 40
0.0554128145622412
 40
0.0566167876607296
 40
0.0566167876607296
 40
0.0580785600168841
 40
0.0580785600168841
 40
0.060741662072231
 40
0.060741662072231
 40
0.06789450945268
 40
0.06789450945268
 40
0.0693063160504461
 40
0.0693063160504461
 40
0.0693063160504461
 40
0.0693063160504461
 10
52.01076237536256
 20
10.25193571330419
 30
0.0
 10
52.01076237534523
 20
10.25193571310977
 30
0.0
 10
52.01075599747809
 20
10.25186421049117
 30
0.0
 10
52.01069485376812
 20
10.2511750830457
 30
0.0
 10
52.01054959918256
 20
10.24953380357616
 30
0.0
 10
52.01010760329514
 20
10.24436589091064
 30
0.0
 10
52.0097866210083
 20
10.24052860112379
 30
0.0
 10
52.00893897016527
 20
10.22990766640131
 30
0.0
 10
52.0083751074711
 20
10.22248003484597
 30
0.0
 10
52.00697225016309
 20
10.20253525467484
 30
0.0
 10
52.00612065176386
 20
10.18912774855703
 30
0.0
 10
52.00471454117568
 20
10.16387037716641
 30
0.0
 10
52.00412770584734
 20
10.15211952348415
 30
0.0
 10
52.00320964308601
 20
10.13143081212244
 30
0.0
 10
52.00284364172659
 20
10.12230409286207
 30
0.0
 10
52.00242878342409
 20
10.11100364861688
 30
0.0
 10
52.00232229768037
 20
10.10797520262175
 30
0.0
 10
52.00218396400228
 20
10.10395398946728
 30
0.0
 10
52.00214841354785
 20
10.10288644986881
 30
0.0
 10
52.00211123596041
 20
10.10177272763022
 30
0.0
 10
52.00210127462064
 20
10.10147208259743
 30
0.0
 10
52.00207081367993
 20
10.10054940612818
 30
0.0
 10
52.00204725434391
 20
10.09983461148262
 30
0.0
 10
52.00196993172167
 20
10.09743701472662
 30
0.0
 10
52.00191658251639
 20
10.09576586865897
 30
0.0
 10
52.00177033114109
 20
10.09102456187256
 30
0.0
 10
52.00167278853527
 20
10.08775812179031
 30
0.0
 10
52.00140986244879
 20
10.07851106565735
 30
0.0
 10
52.00123960948761
 20
10.07202175765003
 30
0.0
 10
52.00065425356098
 20
10.04729869475949
 30
0.0
 10
52.00031112501841
 20
10.02701729207619
 30
0.0
 10
52.00007044425348
 20
10.006238413082
 30
0.0
 10
52.00003603922375
 20
10.00295805224611
 30
0.0
 10
52.00000739893228
 20
9.999999966868074
 30
0.0
  0
SPLINE
  5
A23F
330
A236
100
AcDbEntity
  8
0
100
AcDbSpline
210
0.0
220
0.0
230
1.0
 70
     8
 71
     3
 72
    16
 73
    12
 74
     0
 42
0.000000001
 43
0.0000000001
 40
0.0084015148639281
 40
0.0084015148639281
 40
0.0084015148639281
 40
0.0084015148639281
 40
0.0087411473597925
 40
0.0087411473597925
 40
0.009683481822555
 40
0.009683481822555
 40
0.0134680622963374
 40
0.0134680622963374
 40
0.0171748639996731
 40
0.0171748639996731
 40
0.0184199681572564
 40
0.0184199681572564
 40
0.0184199681572564
 40
0.0184199681572564
 10
52.00120942613853
 20
10.07099571664762
 30
0.0
 10
52.00120942598241
 20
10.07099571048364
 30
0.0
 10
52.00120542556401
 20
10.07083797396455
 30
0.0
 10
52.00118066603685
 20
10.06985561081461
 30
0.0
 10
52.0011437865465
 20
10.06838099000204
 30
0.0
 10
52.00094203360875
 20
10.06003598759121
 30
0.0
 10
52.00072827117742
 20
10.05023306097961
 30
0.0
 10
52.00038843160002
 20
10.03080981087964
 30
0.0
 10
52.00024564777884
 20
10.02063573351789
 30
0.0
 10
52.00010254421322
 20
10.00692332345423
 30
0.0
 10
52.0000704251415
 20
10.00346167071514
 30
0.0
 10
52.00004220943875
 20
9.999999783112039
 30
0.0
  0
SPLINE
  5
A240
330
A236
100
AcDbEntity
  8
0
100
AcDbSpline
210
0.0
220
0.0
230
1.0
 70
     8
 71
     3
 72
    10
 73
     6
 74
     0
 42
0.000000001
 43
0.0000000001
 40
0.0040569507459279
 40
0.0040569507459279
 40
0.0040569507459279
 40
0.0040569507459279
 40
0.0078413147840119
 40
0.0078413147840119
 40
0.0123972775150964
 40
0.0123972775150964
 40
0.0123972775150964
 40
0.0123972775150964
 10
52.00001991426313
 20
10.00287777057965
 30
0.0
 10
52.00001991426304
 20
10.00287777056518
 30
0.0
 10
52.00001418839004
 20
10.00209643741024
 30
0.0
 10
52.00000547994903
 20
10.00073579308092
 30
0.0
 10
52.00000316259959
 20
10.00028600632135
 30
0.0
 10
52.00000179638795
 20
9.99999999108396
 30
0.0
  0
SPLINE
  5
A241
330
A236
100
AcDbEntity
  8
0
100
AcDbSpline
210
0.0
220
0.0
230
1.0
 70
     8
 71
     3
 72
     8
 73
     4
 74
     0
 42
0.000000001
 43
0.0000000001
 40
0.0
 40
0.0
 40
0.0
 40
0.0
 40
0.0015511722937771
 40
0.0015511722937771
 40
0.0015511722937771
 40
0.0015511722937771
 10
49.99955984654373
 20
10.00000111615405
 30
0.0
 10
49.9995656532777
 20
10.00446881097611
 30
0.0
 10
49.99957076641537
 20
10.00884708257632
 30
0.0
 10
49.99957512909041
 20
10.01307591322058
 30
0.0
  0
SPLINE
  5
A242
330
A236
100
AcDbEntity
  8
0
100
AcDbSpline
210
0.0
220
0.0
230
1.0
 70
     8
 71
     3
 72
    16
 73
    12
 74
     0
 42
0.000000001
 43
0.0000000001
 40
0.0
 40
0.0
 40
0.0
 40
0.0
 40
0.0021186811684765
 40
0.0021186811684765
 40
0.0037963488476148
 40
0.0037963488476148
 40
0.0060490110171982
 40
0.0060490110171982
 40
0.0082160740728013
 40
0.0082160740728013
 40
0.0100715168776701
 40
0.0100715168776701
 40
0.0100715168776701
 40
0.0100715168776701
 10
49.99977770285757
 20
9.999996711300777
 30
0.0
 10
49.99967060184438
 20
10.00696262094797
 30
0.0
 10
49.99956026411883
 20
10.01406437693856
 30
0.0
 10
49.99936153534874
 20
10.02670814078132
 30
0.0
 10
49.99927271948992
 20
10.03230570792078
 30
0.0
 10
49.99907108313923
 20
10.04490248805092
 30
0.0
 10
49.99895813017047
 20
10.05187273933362
 30
0.0
 10
49.99876083666388
 20
10.06395003184907
 30
0.0
 10
49.998673389606
 20
10.06925359838268
 30
0.0
 10
49.99853375467215
 20
10.07766822126755
 30
0.0
 10
49.99847718644858
 20
10.08105233813889
 30
0.0
 10
49.99842789893623
 20
10.08398349776899
 30
0.0
  0
SPLINE
  5
A243
330
A236
100
AcDbEntity
  8
0
100
AcDbSpline
210
0.0
220
0.0
230
1.0
 70
     8
 71
     3
 72
    34
 73
    30
 74
     0
 42
0.000000001
 43
0.0000000001
 40
0.0018826909959039
 40
0.0018826909959039
 40
0.0018826909959039
 40
0.0018826909959039
 40
0.0067931669923084
 40
0.0067931669923084
 40
0.0148581762790155
 40
0.0148581762790155
 40
0.0216571624854729
 40
0.0216571624854729
 40
0.024118160591263
 40
0.024118160591263
 40
0.026272135114333
 40
0.026272135114333
 40
0.0291183974611118
 40
0.0291183974611118
 40
0.0315307617203583
 40
0.0315307617203583
 40
0.0346506209056012
 40
0.0346506209056012
 40
0.039592519278162
 40
0.039592519278162
 40
0.0489047040333962
 40
0.0489047040333962
 40
0.071903837092942
 40
0.071903837092942
 40
0.1414749568966291
 40
0.1414749568966291
 40
0.2235343182293278
 40
0.2235343182293278
 40
0.266217635085002
 40
0.266217635085002
 40
0.266217635085002
 40
0.266217635085002
 10
49.99993408575566
 20
10.00382154299457
 30
0.0
 10
49.99986408235876
 20
10.00784010262656
 30
0.0
 10
49.99976229507044
 20
10.01358798901775
 30
0.0
 10
49.9994361760908
 20
10.03150095258363
 30
0.0
 10
49.99917379096918
 20
10.0454790577095
 30
0.0
 10
49.99862147507887
 20
10.07412851673828
 30
0.0
 10
49.99834195422119
 20
10.08836978802674
 30
0.0
 10
49.99789287056017
 20
10.11129985253476
 30
0.0
 10
49.99776556978083
 20
10.11780783879753
 30
0.0
 10
49.9975110276085
 20
10.13092137199517
 30
0.0
 10
49.99738418371618
 20
10.137495995225
 30
0.0
 10
49.99708160720928
 20
10.15339172509257
 30
0.0
 10
49.99689912594388
 20
10.16314759807087
 30
0.0
 10
49.99658164288947
 20
10.18063164072168
 30
0.0
 10
49.99644054079587
 20
10.18860762353101
 30
0.0
 10
49.99613963834399
 20
10.20613328491669
 30
0.0
 10
49.99598354352549
 20
10.21562306647294
 30
0.0
 10
49.99561575572567
 20
10.23897255825219
 30
0.0
 10
49.99542133084362
 20
10.25235292940946
 30
0.0
 10
49.994926327778
 20
10.28908036037972
 30
0.0
 10
49.99467887913303
 20
10.31107662913272
 30
0.0
 10
49.99397377071513
 20
10.38483545406383
 30
0.0
 10
49.99373075802928
 20
10.43325128635892
 30
0.0
 10
49.99330496971669
 20
10.63524513197695
 30
0.0
 10
49.9945522558439
 20
10.81157714223177
 30
0.0
 10
49.99793365446973
 20
11.23302851602259
 30
0.0
 10
49.99943798482208
 20
11.48841649649817
 30
0.0
 10
49.99998708512251
 20
11.89240744753748
 30
0.0
 10
49.99998191116084
 20
12.03407841094157
 30
0.0
 10
49.99998937018705
 20
12.17586272149237
 30
0.0
  0
SPLINE
  5
A244
330
A236
100
AcDbEntity
  8
0
100
AcDbSpline
210
0.0
220
0.0
230
1.0
 70
     8
 71
     3
 72
    12
 73
     8
 74
     0
 42
0.000000001
 43
0.0000000001
 40
0.0
 40
0.0
 40
0.0
 40
0.0
 40
0.0030437042975339
 40
0.0030437042975339
 40
0.0059481041513349
 40
0.0059481041513349
 40
0.0077014641315603
 40
0.0077014641315603
 40
0.0077014641315603
 40
0.0077014641315603
 10
49.9999409522116
 20
9.999999879470825
 30
0.0
 10
49.99992879819979
 20
10.00696128006382
 30
0.0
 10
49.99991751862595
 20
10.01274901427646
 30
0.0
 10
49.99989988569947
 20
10.0208680190216
 30
0.0
 10
49.99989321745719
 20
10.02345476434162
 30
0.0
 10
49.99988738789284
 20
10.02558168402931
 30
0.0
 10
49.99988625762906
 20
10.02594367653873
 30
0.0
 10
49.99988625762911
 20
10.02594367652137
 30
0.0
  0
SPLINE
  5
A245
330
A236
100
AcDbEntity
  8
0
100
AcDbSpline
210
0.0
220
0.0
230
1.0
 70
     8
 71
     3
 72
     8
 73
     4
 74
     0
 42
0.000000001
 43
0.0000000001
 40
0.0
 40
0.0
 40
0.0
 40
0.0
 40
0.0007125878776909
 40
0.0007125878776909
 40
0.0007125878776909
 40
0.0007125878776909
 10
54.60611379964102
 20
12.56243160914951
 30
0.0
 10
54.60533754620901
 20
12.56182818123568
 30
0.0
 10
54.60453737746374
 20
12.56120654620826
 30
0.0
 10
54.60373122945731
 20
12.56058013153525
 30
0.0
  0
SPLINE
  5
A246
330
A236
100
AcDbEntity
  8
0
100
AcDbSpline
210
0.0
220
0.0
230
1.0
 70
     8
 71
     3
 72
     8
 73
     4
 74
     0
 42
0.000000001
 43
0.0000000001
 40
0.0001369350459043
 40
0.0001369350459043
 40
0.0001369350459043
 40
0.0001369350459043
 40
0.000675574629752
 40
0.000675574629752
 40
0.000675574629752
 40
0.000675574629752
 10
54.60523147098671
 20
12.56174578009931
 30
0.0
 10
54.60407905170969
 20
12.56081837544804
 30
0.0
 10
54.60288984127014
 20
12.55986229492751
 30
0.0
 10
54.60167128151606
 20
12.55888354744851
 30
0.0
  0
LINE
  5
A247
330
A236
100
AcDbEntity
  8
0
100
AcDbLine
 10
47.99999999999998
 20
-2.0
 30
0.0
 11
-47.99999999999998
 21
-2.000000000000003
 31
0.0
  0
LINE
  5
A248
330
A236
100
AcDbEntity
  8
0
100
AcDbLine
 10
-47.99999999999998
 20
0.0
 30
0.0
 11
48.0
 21
0.0
 31
0.0
  0
LINE
  5
A249
330
A236
100
AcDbEntity
  8
0
100
AcDbLine
 10
-53.92566083936526
 20
12.56250000000005
 30
0.0
 11
-52.00000000000001
 21
12.56250000000005
 31
0.0
  0
LINE
  5
A24A
330
A236
100
AcDbEntity
  8
0
100
AcDbLine
 10
-54.0
 20
12.56250000000005
 30
0.0
 11
-53.92566083936526
 21
12.56250000000005
 31
0.0
  0
LINE
  5
A24B
330
A236
100
AcDbEntity
  8
0
100
AcDbLine
 10
-54.55219694543985
 20
12.56250000000005
 30
0.0
 11
-54.0
 21
12.56250000000005
 31
0.0
  0
SPLINE
  5
A24C
330
A236
100
AcDbEntity
  8
0
100
AcDbSpline
210
0.0
220
0.0
230
1.0
 70
     8
 71
     3
 72
    14
 73
    10
 74
     0
 42
0.000000001
 43
0.0000000001
 40
0.0
 40
0.0
 40
0.0
 40
0.0
 40
0.3435201403955675
 40
0.3435201403955675
 40
0.3435201403955675
 40
0.757012756796757
 40
0.757012756796757
 40
0.757012756796757
 40
0.9937955959217777
 40
0.9937955959217777
 40
0.9937955959217777
 40
0.9937955959217777
 10
-54.60606060606068
 20
12.56250000000003
 30
0.0
 10
-54.2848993560363
 20
12.30248939775115
 30
0.0
 10
-53.8724505175097
 20
12.0752862912354
 30
0.0
 10
-53.47645515516366
 20
11.84407074683989
 30
0.0
 10
-52.99979850769418
 20
11.56575833029678
 30
0.0
 10
-52.53725634325214
 20
11.27136389236661
 30
0.0
 10
-52.26239324898472
 20
10.85787118806246
 30
0.0
 10
-52.10499536266263
 20
10.62108829860059
 30
0.0
 10
-52.00518678146529
 20
10.37129355970883
 30
0.0
 10
-52.0001963193757
 20
10.0272411562166
 30
0.0
  0
SPLINE
  5
A24D
330
A236
100
AcDbEntity
  8
0
100
AcDbSpline
210
0.0
220
0.0
230
1.0
 70
     8
 71
     3
 72
    30
 73
    26
 74
     0
 42
0.000000001
 43
0.0000000001
 40
0.0
 40
0.0
 40
0.0
 40
0.0
 40
0.0655513428960592
 40
0.0655513428960592
 40
0.1471084879800147
 40
0.1471084879800147
 40
0.186491541554159
 40
0.186491541554159
 40
0.2244287006424159
 40
0.2244287006424159
 40
0.2339025228636199
 40
0.2339025228636199
 40
0.2360478139173972
 40
0.2360478139173972
 40
0.2376817992260768
 40
0.2376817992260768
 40
0.23931840666226
 40
0.23931840666226
 40
0.2426422771666389
 40
0.2426422771666389
 40
0.2492709696152699
 40
0.2492709696152699
 40
0.2559206221561027
 40
0.2559206221561027
 40
0.2643718038712145
 40
0.2643718038712145
 40
0.2643718038712145
 40
0.2643718038712145
 10
-49.99998937018702
 20
12.17586272149848
 30
0.0
 10
-49.99997791491079
 20
11.95811600819536
 30
0.0
 10
-49.99997499580925
 20
11.73955119304313
 30
0.0
 10
-49.99847087262425
 20
11.27766062786127
 30
0.0
 10
-49.99618388742399
 20
11.03633066464498
 30
0.0
 10
-49.99399786143484
 20
10.72034886155012
 30
0.0
 10
-49.99356181606391
 20
10.62410814342122
 30
0.0
 10
-49.99357524462965
 20
10.45120303310095
 30
0.0
 10
-49.99385398906859
 20
10.37643855072287
 30
0.0
 10
-49.99531495666625
 20
10.25912774586736
 30
0.0
 10
-49.99568020989116
 20
10.23363328550383
 30
0.0
 10
-49.99628323559898
 20
10.19771133918055
 30
0.0
 10
-49.99640193877408
 20
10.19083376335224
 30
0.0
 10
-49.99662079997927
 20
10.17847913077246
 30
0.0
 10
-49.99671935863333
 20
10.17301832031178
 30
0.0
 10
-49.99691927582796
 20
10.16211842558474
 30
0.0
 10
-49.99702160490546
 20
10.15662678210269
 30
0.0
 10
-49.99732644919564
 20
10.14045849104196
 30
0.0
 10
-49.99752713316983
 20
10.13007273425625
 30
0.0
 10
-49.99806275348931
 20
10.10255107156591
 30
0.0
 10
-49.99835960841952
 20
10.08751831595898
 30
0.0
 10
-49.99889075160741
 20
10.0602250675405
 30
0.0
 10
-49.9991290955688
 20
10.04779428335445
 30
0.0
 10
-49.99959874139533
 20
10.02272992857043
 30
0.0
 10
-49.99981365266283
 20
10.01072745587747
 30
0.0
 10
-49.99993408544853
 20
10.00381398663952
 30
0.0
  0
SPLINE
  5
A24E
330
A236
100
AcDbEntity
  8
0
100
AcDbSpline
210
0.0
220
0.0
230
1.0
 70
     8
 71
     3
 72
     8
 73
     4
 74
     0
 42
0.000000001
 43
0.0000000001
 40
0.0195591544668612
 40
0.0195591544668612
 40
0.0195591544668612
 40
0.0195591544668612
 40
0.0211163010462681
 40
0.0211163010462681
 40
0.0211163010462681
 40
0.0211163010462681
 10
-49.99957522640356
 20
10.01307778047941
 30
0.0
 10
-49.9995708769373
 20
10.0088617533912
 30
0.0
 10
-49.99956567564211
 20
10.00448601814587
 30
0.0
 10
-49.99955984654372
 20
10.00000111615404
 30
0.0
  0
SPLINE
  5
A24F
330
A236
100
AcDbEntity
  8
0
100
AcDbSpline
210
0.0
220
0.0
230
1.0
 70
     8
 71
     3
 72
    16
 73
    12
 74
     0
 42
0.000000001
 43
0.0000000001
 40
0.0328453658048586
 40
0.0328453658048586
 40
0.0328453658048586
 40
0.0328453658048586
 40
0.0346121739110941
 40
0.0346121739110941
 40
0.0362943907482576
 40
0.0362943907482576
 40
0.0388726343040667
 40
0.0388726343040667
 40
0.0410449475423956
 40
0.0410449475423956
 40
0.0429128452248084
 40
0.0429128452248084
 40
0.0429128452248084
 40
0.0429128452248084
 10
-49.99842789914723
 20
10.08398349508382
 30
0.0
 10
-49.99847484522185
 20
10.08119158223988
 30
0.0
 10
-49.99852835649472
 20
10.07799109538531
 30
0.0
 10
-49.99864665535087
 20
10.07086662529838
 30
0.0
 10
-49.99871142262001
 20
10.06694586354993
 30
0.0
 10
-49.99889097016783
 20
10.05600293226969
 30
0.0
 10
-49.999017574154
 20
10.0482218219727
 30
0.0
 10
-49.99925928465335
 20
10.03315934941731
 30
0.0
 10
-49.99937543020036
 20
10.02584026703289
 30
0.0
 10
-49.99958650226639
 20
10.01237477411153
 30
0.0
 10
-49.99968327914849
 20
10.00613808201738
 30
0.0
 10
-49.99977770285759
 20
9.999996711300781
 30
0.0
  0
SPLINE
  5
A250
330
A236
100
AcDbEntity
  8
0
100
AcDbSpline
210
0.0
220
0.0
230
1.0
 70
     8
 71
     3
 72
    12
 73
     8
 74
     0
 42
0.000000001
 43
0.0000000001
 40
0.0138054908128124
 40
0.0138054908128124
 40
0.0138054908128124
 40
0.0138054908128124
 40
0.0169840789804668
 40
0.0169840789804668
 40
0.018930480580439
 40
0.018930480580439
 40
0.0215081391640361
 40
0.0215081391640361
 40
0.0215081391640361
 40
0.0215081391640361
 10
-49.99988625762913
 20
10.02594367652295
 30
0.0
 10
-49.99988625767162
 20
10.02594366282399
 30
0.0
 10
-49.99989009445467
 20
10.02472368731319
 30
0.0
 10
-49.99990126115665
 20
10.02016530961107
 30
0.0
 10
-49.99990666457464
 20
10.0178177978848
 30
0.0
 10
-49.99992101923496
 20
10.01095228819464
 30
0.0
 10
-49.99993065919696
 20
10.0058953647867
 30
0.0
 10
-49.99994095221159
 20
9.999999879470824
 30
0.0
  0
SPLINE
  5
A251
330
A236
100
AcDbEntity
  8
0
100
AcDbSpline
210
0.0
220
0.0
230
1.0
 70
     8
 71
     3
 72
    16
 73
    12
 74
     0
 42
0.000000001
 43
0.0000000001
 40
0.0
 40
0.0
 40
0.0
 40
0.0
 40
0.0000106447553671
 40
0.0000106447553671
 40
0.000056065408795
 40
0.000056065408795
 40
0.0007817803070446
 40
0.0007817803070446
 40
0.0022268201311712
 40
0.0022268201311712
 40
0.0025174619377883
 40
0.0025174619377883
 40
0.0025174619377883
 40
0.0025174619377883
 10
-52.00021666628666
 20
9.999992944343066
 30
0.0
 10
-52.00021671040119
 20
10.00002812614967
 30
0.0
 10
-52.00021675488337
 20
10.00006330763439
 30
0.0
 10
-52.00021699110735
 20
10.00024860510819
 30
0.0
 10
-52.00021718918153
 20
10.00039871556836
 30
0.0
 10
-52.0002206662338
 20
10.00294713793499
 30
0.0
 10
-52.00022565612503
 20
10.00534398950527
 30
0.0
 10
-52.00024604903714
 20
10.01250922054586
 30
0.0
 10
-52.00026687345584
 20
10.01727363333986
 30
0.0
 10
-52.00030161606736
 20
10.02299062690963
 30
0.0
 10
-52.0003077622586
 20
10.02394774871387
 30
0.0
 10
-52.00031424204397
 20
10.02490470336561
 30
0.0
  0
SPLINE
  5
A252
330
A236
100
AcDbEntity
  8
0
100
AcDbSpline
210
0.0
220
0.0
230
1.0
 70
     8
 71
     3
 72
     8
 73
     4
 74
     0
 42
0.000000001
 43
0.0000000001
 40
0.0
 40
0.0
 40
0.0
 40
0.0
 40
0.0036181062447174
 40
0.0036181062447174
 40
0.0036181062447174
 40
0.0036181062447174
 10
-52.00004220943876
 20
9.99999978311202
 30
0.0
 10
-52.00012420049924
 20
10.01005956572413
 30
0.0
 10
-52.00024048684422
 20
10.0201404452005
 30
0.0
 10
-52.00038562913402
 20
10.02985550143375
 30
0.0
  0
SPLINE
  5
A253
330
A236
100
AcDbEntity
  8
0
100
AcDbSpline
210
0.0
220
0.0
230
1.0
 70
     8
 71
     3
 72
    38
 73
    34
 74
     0
 42
0.000000001
 43
0.0000000001
 40
0.0000059932619359
 40
0.0000059932619359
 40
0.0000059932619359
 40
0.0000059932619359
 40
0.0029918350530509
 40
0.0029918350530509
 40
0.0074782579653848
 40
0.0074782579653848
 40
0.0106274243927927
 40
0.0106274243927927
 40
0.0128214453725344
 40
0.0128214453725344
 40
0.01429871674054
 40
0.01429871674054
 40
0.015829495525412
 40
0.015829495525412
 40
0.0169257806021971
 40
0.0169257806021971
 40
0.0178303034930016
 40
0.0178303034930016
 40
0.0187015925285626
 40
0.0187015925285626
 40
0.0209039690127507
 40
0.0209039690127507
 40
0.0275148591278516
 40
0.0275148591278516
 40
0.0309699129855591
 40
0.0309699129855591
 40
0.0344377013732619
 40
0.0344377013732619
 40
0.0366921523840586
 40
0.0366921523840586
 40
0.0382082636823254
 40
0.0382082636823254
 40
0.038647126783283
 40
0.038647126783283
 40
0.038647126783283
 40
0.038647126783283
 10
-52.00000776398812
 20
10.00003765533343
 30
0.0
 10
-52.00006843684201
 20
10.00629943802517
 30
0.0
 10
-52.00015500665833
 20
10.01391171686583
 30
0.0
 10
-52.00042637172458
 20
10.03328566567982
 30
0.0
 10
-52.00064071662973
 20
10.04542639246407
 30
0.0
 10
-52.00106908649743
 20
10.06514650683813
 30
0.0
 10
-52.00126490113043
 20
10.07306747489855
 30
0.0
 10
-52.00160491725178
 20
10.08548327847651
 30
0.0
 10
-52.00175754740858
 20
10.09063131136928
 30
0.0
 10
-52.00195012422795
 20
10.09683521605424
 30
0.0
 10
-52.00200683996914
 20
10.09858712738706
 30
0.0
 10
-52.00208009484725
 20
10.10083633286127
 30
0.0
 10
-52.00209397673116
 20
10.10125416825216
 30
0.0
 10
-52.00214119175857
 20
10.10267094169717
 30
0.0
 10
-52.00217347066574
 20
10.10364402773345
 30
0.0
 10
-52.00229342770064
 20
10.10713940682829
 30
0.0
 10
-52.00236897984765
 20
10.10930599609239
 30
0.0
 10
-52.00253308083351
 20
10.11386343096528
 30
0.0
 10
-52.00262201954682
 20
10.11627303209629
 30
0.0
 10
-52.00295072226926
 20
10.12492048335062
 30
0.0
 10
-52.00321423469387
 20
10.13140539615885
 30
0.0
 10
-52.0043375377768
 20
10.15715228365603
 30
0.0
 10
-52.00535546626738
 20
10.17637174330074
 30
0.0
 10
-52.00701469637373
 20
10.20298788882946
 30
0.0
 10
-52.00760602262018
 20
10.21170806179406
 30
0.0
 10
-52.00875386295408
 20
10.22754520262578
 30
0.0
 10
-52.00931845162777
 20
10.23475543558221
 30
0.0
 10
-52.01008265634664
 20
10.24408358888812
 30
0.0
 10
-52.01034295643527
 20
10.24713261587001
 30
0.0
 10
-52.01063819442513
 20
10.25053597752791
 30
0.0
 10
-52.01071963580126
 20
10.25145468278224
 30
0.0
 10
-52.01075796700381
 20
10.25188628486105
 30
0.0
 10
-52.01076237535403
 20
10.25193571320824
 30
0.0
 10
-52.01076237536288
 20
10.25193571330741
 30
0.0
  0
SPLINE
  5
A254
330
A236
100
AcDbEntity
  8
0
100
AcDbSpline
210
0.0
220
0.0
230
1.0
 70
     8
 71
     3
 72
     8
 73
     4
 74
     0
 42
0.000000001
 43
0.0000000001
 40
0.0
 40
0.0
 40
0.0
 40
0.0
 40
0.0083262360576882
 40
0.0083262360576882
 40
0.0083262360576882
 40
0.0083262360576882
 10
-52.00000179638798
 20
9.999999991083944
 30
0.0
 10
-52.000004293204
 20
10.00052269737597
 30
0.0
 10
-52.00001991412071
 20
10.00287775201021
 30
0.0
 10
-52.00001991426316
 20
10.0028777705886
 30
0.0
  0
SPLINE
  5
A255
330
A236
100
AcDbEntity
  8
0
100
AcDbSpline
210
0.0
220
0.0
230
1.0
 70
     8
 71
     3
 72
     8
 73
     4
 74
     0
 42
0.000000001
 43
0.0000000001
 40
0.2821133375274037
 40
0.2821133375274037
 40
0.2821133375274037
 40
0.2821133375274037
 40
0.2826521572446432
 40
0.2826521572446432
 40
0.2826521572446432
 40
0.2826521572446432
 10
-54.60167278313578
 20
12.55888489663403
 30
0.0
 10
-54.60289162724866
 20
12.5598638725101
 30
0.0
 10
-54.60407903350006
 20
12.5608183677047
 30
0.0
 10
-54.60523157680895
 20
12.5617458721701
 30
0.0
  0
SPLINE
  5
A256
330
A236
100
AcDbEntity
  8
0
100
AcDbSpline
210
0.0
220
0.0
230
1.0
 70
     8
 71
     3
 72
     8
 73
     4
 74
     0
 42
0.000000001
 43
0.0000000001
 40
0.0169261140517363
 40
0.0169261140517363
 40
0.0169261140517363
 40
0.0169261140517363
 40
0.0176395326809208
 40
0.0176395326809208
 40
0.0176395326809208
 40
0.0176395326809208
 10
-54.60373759838916
 20
12.56058481232611
 30
0.0
 10
-54.60454286812652
 20
12.56121054454299
 30
0.0
 10
-54.60533664123477
 20
12.56182747774542
 30
0.0
 10
-54.60611379964103
 20
12.56243160914952
 30
0.0
  0
ARC
  5
A257
330
A236
100
AcDbEntity
  8
0
100
AcDbCircle
 10
-47.99999999999998
 20
2.0
 30
0.0
 40
4.000000000000003
100
AcDbArc
 50
180.0
 51
270.0
  0
ARC
  5
A258
330
A236
100
AcDbEntity
  8
0
100
AcDbCircle
 10
-47.99999999999998
 20
2.0
 30
0.0
 40
2.000000000000001
100
AcDbArc
 50
180.0
 51
270.0
  0
ARC
  5
A259
330
A236
100
AcDbEntity
  8
0
100
AcDbCircle
 10
47.99999999999998
 20
2.0
 30
0.0
 40
4.000000000000003
100
AcDbArc
 50
270.0
 51
0.0
  0
LINE
  5
A25A
330
A236
100
AcDbEntity
  8
0
100
AcDbLine
 10
54.60606060606068
 20
12.56250000000005
 30
0.0
 11
91.50000000000005
 21
42.99999999999997
 31
0.0
  0
LINE
  5
A25B
330
A236
100
AcDbEntity
  8
0
100
AcDbLine
 10
49.99999999999997
 20
10.0
 30
0.0
 11
49.99999999999999
 21
42.99999999999997
 31
0.0
  0
LINE
  5
A25C
330
A236
100
AcDbEntity
  8
0
100
AcDbLine
 10
51.99999999999999
 20
10.0
 30
0.0
 11
49.99999999999997
 21
10.0
 31
0.0
  0
LINE
  5
A25D
330
A236
100
AcDbEntity
  8
0
100
AcDbLine
 10
51.99999999999999
 20
42.99999999999997
 30
0.0
 11
51.99999999999999
 21
10.0
 31
0.0
  0
LINE
  5
A25E
330
A236
100
AcDbEntity
  8
0
100
AcDbLine
 10
51.99999999999999
 20
42.99999999999997
 30
0.0
 11
49.99999999999999
 21
42.99999999999997
 31
0.0
  0
LINE
  5
A25F
330
A236
100
AcDbEntity
  8
0
100
AcDbLine
 10
49.99999999999999
 20
42.99999999999997
 30
0.0
 11
49.99999999999999
 21
170.0
 31
0.0
  0
LINE
  5
A260
330
A236
100
AcDbEntity
  8
0
100
AcDbLine
 10
51.99999999999999
 20
170.0
 30
0.0
 11
51.99999999999999
 21
42.99999999999997
 31
0.0
  0
LINE
  5
A261
330
A236
100
AcDbEntity
  8
0
100
AcDbLine
 10
49.99999999999999
 20
170.0
 30
0.0
 11
51.99999999999999
 21
170.0
 31
0.0
  0
LINE
  5
A262
330
A236
100
AcDbEntity
  8
0
100
AcDbLine
 10
51.99999999999999
 20
10.0
 30
0.0
 11
51.99999999999999
 21
2.0
 31
0.0
  0
LINE
  5
A263
330
A236
100
AcDbEntity
  8
0
100
AcDbLine
 10
49.99999999999999
 20
2.0
 30
0.0
 11
49.99999999999997
 21
10.0
 31
0.0
  0
ARC
  5
A264
330
A236
100
AcDbEntity
  8
0
100
AcDbCircle
 10
47.99999999999998
 20
2.0
 30
0.0
 40
2.000000000000001
100
AcDbArc
 50
270.0
 51
0.0
  0
LINE
  5
A265
330
A236
100
AcDbEntity
  8
0
100
AcDbLine
 10
54.0
 20
170.0
 30
0.0
 11
52.0
 21
170.0
 31
0.0
  0
LINE
  5
A266
330
A236
100
AcDbEntity
  8
0
100
AcDbLine
 10
91.50000000000005
 20
42.99999999999997
 30
0.0
 11
91.5
 21
170.0
 31
0.0
  0
LINE
  5
A267
330
A236
100
AcDbEntity
  8
0
100
AcDbLine
 10
91.5
 20
170.0
 30
0.0
 11
54.0
 21
170.0
 31
0.0
  0
CIRCLE
  5
A268
330
A236
100
AcDbEntity
  8
0
100
AcDbCircle
 10
72.0
 20
150.0
 30
0.0
 40
6.5
  0
CIRCLE
  5
A269
330
A236
100
AcDbEntity
  8
0
100
AcDbCircle
 10
83.0
 20
165.0
 30
0.0
 40
2.5
  0
LINE
  5
A26A
330
A236
100
AcDbEntity
  8
0
100
AcDbLine
 10
-91.50000000000005
 20
42.99999999999997
 30
0.0
 11
-54.60606060606068
 21
12.56250000000005
 31
0.0
  0
LINE
  5
A26B
330
A236
100
AcDbEntity
  8
0
100
AcDbLine
 10
-49.99999999999999
 20
42.99999999999997
 30
0.0
 11
-49.99999999999997
 21
10.0
 31
0.0
  0
LINE
  5
A26C
330
A236
100
AcDbEntity
  8
0
100
AcDbLine
 10
-51.99999999999999
 20
42.99999999999997
 30
0.0
 11
-49.99999999999999
 21
42.99999999999997
 31
0.0
  0
LINE
  5
A26D
330
A236
100
AcDbEntity
  8
0
100
AcDbLine
 10
-51.99999999999999
 20
10.0
 30
0.0
 11
-51.99999999999999
 21
42.99999999999997
 31
0.0
  0
LINE
  5
A26E
330
A236
100
AcDbEntity
  8
0
100
AcDbLine
 10
-49.99999999999997
 20
10.0
 30
0.0
 11
-51.99999999999999
 21
10.0
 31
0.0
  0
LINE
  5
A26F
330
A236
100
AcDbEntity
  8
0
100
AcDbLine
 10
-49.99999999999999
 20
170.0
 30
0.0
 11
-49.99999999999999
 21
42.99999999999997
 31
0.0
  0
LINE
  5
A270
330
A236
100
AcDbEntity
  8
0
100
AcDbLine
 10
-51.99999999999999
 20
170.0
 30
0.0
 11
-49.99999999999999
 21
170.0
 31
0.0
  0
LINE
  5
A271
330
A236
100
AcDbEntity
  8
0
100
AcDbLine
 10
-51.99999999999999
 20
42.99999999999997
 30
0.0
 11
-51.99999999999999
 21
170.0
 31
0.0
  0
CIRCLE
  5
A272
330
A236
100
AcDbEntity
  8
0
100
AcDbCircle
 10
-72.0
 20
50.0
 30
0.0
 40
6.5
  0
CIRCLE
  5
A273
330
A236
100
AcDbEntity
  8
0
100
AcDbCircle
 10
72.0
 20
50.0
 30
0.0
 40
6.5
  0
CIRCLE
  5
A274
330
A236
100
AcDbEntity
  8
0
100
AcDbCircle
 10
-72.0
 20
150.0
 30
0.0
 40
6.5
  0
CIRCLE
  5
A275
330
A236
100
AcDbEntity
  8
0
100
AcDbCircle
 10
-61.0
 20
35.0
 30
0.0
 40
2.5
  0
CIRCLE
  5
A276
330
A236
100
AcDbEntity
  8
0
100
AcDbCircle
 10
-61.0
 20
55.0
 30
0.0
 40
2.5
  0
CIRCLE
  5
A277
330
A236
100
AcDbEntity
  8
0
100
AcDbCircle
 10
-61.0
 20
75.0
 30
0.0
 40
2.5
  0
CIRCLE
  5
A278
330
A236
100
AcDbEntity
  8
0
100
AcDbCircle
 10
-61.0
 20
95.0
 30
0.0
 40
2.5
  0
CIRCLE
  5
A279
330
A236
100
AcDbEntity
  8
0
100
AcDbCircle
 10
-61.0
 20
115.0
 30
0.0
 40
2.5
  0
CIRCLE
  5
A27A
330
A236
100
AcDbEntity
  8
0
100
AcDbCircle
 10
-61.0
 20
135.0
 30
0.0
 40
2.5
  0
CIRCLE
  5
A27B
330
A236
100
AcDbEntity
  8
0
100
AcDbCircle
 10
61.0
 20
35.0
 30
0.0
 40
2.5
  0
CIRCLE
  5
A27C
330
A236
100
AcDbEntity
  8
0
100
AcDbCircle
 10
61.0
 20
55.0
 30
0.0
 40
2.5
  0
CIRCLE
  5
A27D
330
A236
100
AcDbEntity
  8
0
100
AcDbCircle
 10
61.0
 20
75.0
 30
0.0
 40
2.5
  0
CIRCLE
  5
A27E
330
A236
100
AcDbEntity
  8
0
100
AcDbCircle
 10
61.0
 20
95.0
 30
0.0
 40
2.5
  0
CIRCLE
  5
A27F
330
A236
100
AcDbEntity
  8
0
100
AcDbCircle
 10
61.0
 20
115.0
 30
0.0
 40
2.5
  0
CIRCLE
  5
A280
330
A236
100
AcDbEntity
  8
0
100
AcDbCircle
 10
61.0
 20
135.0
 30
0.0
 40
2.5
  0
CIRCLE
  5
A281
330
A236
100
AcDbEntity
  8
0
100
AcDbCircle
 10
-61.0
 20
155.0
 30
0.0
 40
2.5
  0
CIRCLE
  5
A282
330
A236
100
AcDbEntity
  8
0
100
AcDbCircle
 10
61.0
 20
155.0
 30
0.0
 40
2.5
  0
CIRCLE
  5
A283
330
A236
100
AcDbEntity
  8
0
100
AcDbCircle
 10
-83.0
 20
45.0
 30
0.0
 40
2.5
  0
CIRCLE
  5
A284
330
A236
100
AcDbEntity
  8
0
100
AcDbCircle
 10
-83.0
 20
65.0
 30
0.0
 40
2.5
  0
CIRCLE
  5
A285
330
A236
100
AcDbEntity
  8
0
100
AcDbCircle
 10
-83.0
 20
85.0
 30
0.0
 40
2.5
  0
CIRCLE
  5
A286
330
A236
100
AcDbEntity
  8
0
100
AcDbCircle
 10
-83.0
 20
105.0
 30
0.0
 40
2.5
  0
CIRCLE
  5
A287
330
A236
100
AcDbEntity
  8
0
100
AcDbCircle
 10
-83.0
 20
125.0
 30
0.0
 40
2.5
  0
CIRCLE
  5
A288
330
A236
100
AcDbEntity
  8
0
100
AcDbCircle
 10
-83.0
 20
145.0
 30
0.0
 40
2.5
  0
CIRCLE
  5
A289
330
A236
100
AcDbEntity
  8
0
100
AcDbCircle
 10
83.0
 20
45.0
 30
0.0
 40
2.5
  0
CIRCLE
  5
A28A
330
A236
100
AcDbEntity
  8
0
100
AcDbCircle
 10
83.0
 20
65.0
 30
0.0
 40
2.5
  0
CIRCLE
  5
A28B
330
A236
100
AcDbEntity
  8
0
100
AcDbCircle
 10
83.0
 20
85.0
 30
0.0
 40
2.5
  0
CIRCLE
  5
A28C
330
A236
100
AcDbEntity
  8
0
100
AcDbCircle
 10
83.0
 20
105.0
 30
0.0
 40
2.5
  0
CIRCLE
  5
A28D
330
A236
100
AcDbEntity
  8
0
100
AcDbCircle
 10
83.0
 20
125.0
 30
0.0
 40
2.5
  0
CIRCLE
  5
A28E
330
A236
100
AcDbEntity
  8
0
100
AcDbCircle
 10
83.0
 20
145.0
 30
0.0
 40
2.5
  0
CIRCLE
  5
A28F
330
A236
100
AcDbEntity
  8
0
100
AcDbCircle
 10
-83.0
 20
165.0
 30
0.0
 40
2.5
  0
LINE
  5
A290
330
A236
100
AcDbEntity
  8
0
100
AcDbLine
 10
-91.5
 20
170.0
 30
0.0
 11
-54.0
 21
170.0
 31
0.0
  0
LINE
  5
A291
330
A236
100
AcDbEntity
  8
0
100
AcDbLine
 10
-91.50000000000005
 20
42.99999999999997
 30
0.0
 11
-91.5
 21
170.0
 31
0.0
  0
LINE
  5
A292
330
A236
100
AcDbEntity
  8
0
100
AcDbLine
 10
-49.99999999999999
 20
2.0
 30
0.0
 11
-49.99999999999997
 21
10.0
 31
0.0
  0
LINE
  5
A293
330
A236
100
AcDbEntity
  8
0
100
AcDbLine
 10
-51.99999999999999
 20
10.0
 30
0.0
 11
-51.99999999999999
 21
2.0
 31
0.0
  0
LINE
  5
A294
330
A236
100
AcDbEntity
  8
0
100
AcDbLine
 10
-54.0
 20
170.0
 30
0.0
 11
-52.0
 21
170.0
 31
0.0
  0
ENDBLK
  5
A238
330
A236
100
AcDbEntity
  8
0
100
AcDbBlockEnd
  0
BLOCK
  5
A296
330
A295
100
AcDbEntity
  8
0
100
AcDbBlockBegin
  2
SAE440_100_2-Left
 70
     0
 10
0.0
 20
0.0
 30
0.0
  3
SAE440_100_2-Left
  1

  0
LINE
  5
A298
330
A295
100
AcDbEntity
  8
0
100
AcDbLine
 10
1.999999999999997
 20
-2.0
 30
0.0
 11
86.00000000000001
 21
-2.000000000000003
 31
0.0
  0
LINE
  5
A299
330
A295
100
AcDbEntity
  8
0
100
AcDbLine
 10
2.000000000000001
 20
2.000000000000004
 30
0.0
 11
1.999999999999997
 21
-1.999999999999999
 31
0.0
  0
LINE
  5
A29A
330
A295
100
AcDbEntity
  8
0
100
AcDbLine
 10
86.00000000000001
 20
-2.000000000000003
 30
0.0
 11
86.00000000000001
 21
2.0
 31
0.0
  0
SPLINE
  5
A29B
330
A295
100
AcDbEntity
  8
0
100
AcDbSpline
210
0.0
220
0.0
230
1.0
 70
     8
 71
     3
 72
    14
 73
    10
 74
     0
 42
0.000000001
 43
0.0000000001
 40
-0.4813026532896439
 40
-0.4813026532896439
 40
-0.4813026532896439
 40
-0.4813026532896439
 40
-0.3760960080925205
 40
-0.3760960080925205
 40
-0.3760960080925205
 40
-0.0765284972614114
 40
-0.0765284972614114
 40
-0.0765284972614114
 40
0.0
 40
0.0
 40
0.0
 40
0.0
 10
0.9454120927226064
 20
11.73176011523295
 30
0.0
 10
0.8408297879759533
 20
11.76867618608927
 30
0.0
 10
0.7371129357357687
 20
11.80054090483862
 30
0.0
 10
0.6388614064201232
 20
11.83423666321809
 30
0.0
 10
0.3590980319936332
 20
11.93018264119688
 30
0.0
 10
0.1217220476455232
 20
12.04001612968788
 30
0.0
 10
0.0342615816090516
 20
12.31443386957588
 30
0.0
 10
0.0119186445629598
 20
12.38453752399834
 30
0.0
 10
0.0000045452574074
 20
12.4676966510518
 30
0.0
 10
0.0000000001152099
 20
12.56250000004011
 30
0.0
  0
LINE
  5
A29C
330
A295
100
AcDbEntity
  8
0
100
AcDbLine
 10
2.000000000000011
 20
12.56250000000005
 30
0.0
 11
2.001382055220138
 21
12.56250000000005
 31
0.0
  0
SPLINE
  5
A29D
330
A295
100
AcDbEntity
  8
0
100
AcDbSpline
210
0.0
220
0.0
230
1.0
 70
     8
 71
     3
 72
    14
 73
    10
 74
     0
 42
0.000000001
 43
0.0000000001
 40
0.0
 40
0.0
 40
0.0
 40
0.0
 40
0.3435201403955675
 40
0.3435201403955675
 40
0.3435201403955675
 40
0.757012756796757
 40
0.757012756796757
 40
0.757012756796757
 40
1.0
 40
1.0
 40
1.0
 40
1.0
 10
1.999999999999992
 20
12.56250000000003
 30
0.0
 10
2.00003688062023
 20
12.30248939775115
 30
0.0
 10
1.996834301351901
 20
12.0752862912354
 30
0.0
 10
1.998675474349349
 20
11.84407074683989
 30
0.0
 10
2.000891680476551
 20
11.56575833029678
 30
0.0
 10
2.001068977478626
 20
11.27136389236661
 30
0.0
 10
2.001123170497394
 20
10.85787118806246
 30
0.0
 10
2.001155016803008
 20
10.6148838932034
 30
0.0
 10
2.000250524374919
 20
10.3581939179122
 30
0.0
 10
1.999999999992517
 20
10.00000000165264
 30
0.0
  0
LINE
  5
A29E
330
A295
100
AcDbEntity
  8
0
100
AcDbLine
 10
0.0
 20
12.56250000000005
 30
0.0
 11
2.000000000000005
 21
12.56250000000005
 31
0.0
  0
SPLINE
  5
A29F
330
A295
100
AcDbEntity
  8
0
100
AcDbSpline
210
0.0
220
0.0
230
1.0
 70
     8
 71
     3
 72
    18
 73
    14
 74
     0
 42
0.000000001
 43
0.0000000001
 40
0.0
 40
0.0
 40
0.0
 40
0.0
 40
0.0048729671372006
 40
0.0048729671372006
 40
0.0070353821196317
 40
0.0070353821196317
 40
0.0087994749875197
 40
0.0087994749875197
 40
0.0102139388700664
 40
0.0102139388700664
 40
0.0113405492800312
 40
0.0113405492800312
 40
0.0120695907492551
 40
0.0120695907492551
 40
0.0120695907492551
 40
0.0120695907492551
 10
1.999551536423677
 20
9.999998570083722
 30
0.0
 10
1.99950145526114
 20
10.0155589316272
 30
0.0
 10
1.999399311237732
 20
10.03064387495224
 30
0.0
 10
1.999203740487942
 20
10.04934394062671
 30
0.0
 10
1.999136854850786
 20
10.0547369273213
 30
0.0
 10
1.999013998696445
 20
10.0634342111467
 30
0.0
 10
1.998957798438294
 20
10.06697466863926
 30
0.0
 10
1.99886616390332
 20
10.07230596051578
 30
0.0
 10
1.998828540631288
 20
10.0743231451162
 30
0.0
 10
1.998775561642678
 20
10.0770397228084
 30
0.0
 10
1.998757115883521
 20
10.07793180565658
 30
0.0
 10
1.998739470220925
 20
10.07876888588474
 30
0.0
 10
1.99873570610504
 20
10.07894058273637
 30
0.0
 10
1.998735706096204
 20
10.07894058313993
 30
0.0
  0
SPLINE
  5
A2A0
330
A295
100
AcDbEntity
  8
0
100
AcDbSpline
210
0.0
220
0.0
230
1.0
 70
     8
 71
     3
 72
    12
 73
     8
 74
     0
 42
0.000000001
 43
0.0000000001
 40
0.0063239168550645
 40
0.0063239168550645
 40
0.0063239168550645
 40
0.0063239168550645
 40
0.0066536744729217
 40
0.0066536744729217
 40
0.0086398637332613
 40
0.0086398637332613
 40
0.0087253469350131
 40
0.0087253469350131
 40
0.0087253469350131
 40
0.0087253469350131
 10
1.999399054355836
 20
10.02857759079544
 30
0.0
 10
1.999392884239402
 20
10.02884127815507
 30
0.0
 10
1.99938705397082
 20
10.02908879962858
 30
0.0
 10
1.99934867582607
 20
10.03070956772928
 30
0.0
 10
1.999329089675736
 20
10.03149445616473
 30
0.0
 10
1.999327499326691
 20
10.03155858685745
 30
0.0
 10
1.99932746637588
 20
10.03155991427258
 30
0.0
 10
1.999327466389994
 20
10.031559913704
 30
0.0
  0
SPLINE
  5
A2A1
330
A295
100
AcDbEntity
  8
0
100
AcDbSpline
210
0.0
220
0.0
230
1.0
 70
     8
 71
     3
 72
    32
 73
    28
 74
     0
 42
0.000000001
 43
0.0000000001
 40
0.0045647129648304
 40
0.0045647129648304
 40
0.0045647129648304
 40
0.0045647129648304
 40
0.0070673478766494
 40
0.0070673478766494
 40
0.0097302523711044
 40
0.0097302523711044
 40
0.0113867362579989
 40
0.0113867362579989
 40
0.0131313856221174
 40
0.0131313856221174
 40
0.0155636926364088
 40
0.0155636926364088
 40
0.0212052866002394
 40
0.0212052866002394
 40
0.0381194972958219
 40
0.0381194972958219
 40
0.0891487787624347
 40
0.0891487787624347
 40
0.1164039100517001
 40
0.1164039100517001
 40
0.1533844626030566
 40
0.1533844626030566
 40
0.186985908221576
 40
0.186985908221576
 40
0.2293218119747423
 40
0.2293218119747423
 40
0.2446904103054285
 40
0.2446904103054285
 40
0.2446904103054285
 40
0.2446904103054285
 10
1.999436008012816
 20
10.02343351941113
 30
0.0
 10
1.999332404454024
 20
10.02730053134684
 30
0.0
 10
1.99922768253919
 20
10.03099629528667
 30
0.0
 10
1.998981968468623
 20
10.03919370933897
 30
0.0
 10
1.998837961925202
 20
10.04380822129835
 30
0.0
 10
1.998501723916507
 20
10.05367272504138
 30
0.0
 10
1.998344226476163
 20
10.05811386848727
 30
0.0
 10
1.997972214970435
 20
10.06798627050413
 30
0.0
 10
1.997753619569722
 20
10.07349135447944
 30
0.0
 10
1.99719039765915
 20
10.08684376389934
 30
0.0
 10
1.996826631608427
 20
10.09485280961738
 30
0.0
 10
1.995525627717737
 20
10.12144433147937
 30
0.0
 10
1.994458470431411
 20
10.14020064492314
 30
0.0
 10
1.989568500857289
 20
10.21499701432888
 30
0.0
 10
1.984487834751096
 20
10.27097240691955
 30
0.0
 10
1.957792707959773
 20
10.49421326209684
 30
0.0
 10
1.923086045629997
 20
10.66276590707428
 30
0.0
 10
1.836502516333276
 20
10.90877550660305
 30
0.0
 10
1.799737008211505
 20
10.99265579035397
 30
0.0
 10
1.698972349482604
 20
11.17634306592445
 30
0.0
 10
1.628286278892409
 20
11.2730041273123
 30
0.0
 10
1.483812340847467
 20
11.42613744192344
 30
0.0
 10
1.409906181304971
 20
11.48742821862006
 30
0.0
 10
1.24207542228248
 20
11.60219931308618
 30
0.0
 10
1.146011122834322
 20
11.65141387823587
 30
0.0
 10
1.013499389257487
 20
11.7064721649741
 30
0.0
 10
0.977970192737121
 20
11.71998389176799
 30
0.0
 10
0.9420912520933908
 20
11.73259712965066
 30
0.0
  0
LINE
  5
A2A2
330
A295
100
AcDbEntity
  8
0
100
AcDbLine
 10
2.000000000000001
 20
2.000000000000003
 30
0.0
 11
2.000000000000001
 21
10.0
 31
0.0
  0
LINE
  5
A2A3
330
A295
100
AcDbEntity
  8
0
100
AcDbLine
 10
2.00000000000001
 20
42.99999999999997
 30
0.0
 11
2.000000000000005
 21
12.56250000000005
 31
0.0
  0
LINE
  5
A2A4
330
A295
100
AcDbEntity
  8
0
100
AcDbLine
 10
0.0
 20
42.99999999999997
 30
0.0
 11
2.00000000000001
 21
42.99999999999997
 31
0.0
  0
LINE
  5
A2A5
330
A295
100
AcDbEntity
  8
0
100
AcDbLine
 10
0.0
 20
12.56250000000005
 30
0.0
 11
0.0
 21
42.99999999999997
 31
0.0
  0
LINE
  5
A2A6
330
A295
100
AcDbEntity
  8
0
100
AcDbLine
 10
86.00000000000006
 20
10.0
 30
0.0
 11
46.00000000000004
 21
42.99999999999997
 31
0.0
  0
LINE
  5
A2A7
330
A295
100
AcDbEntity
  8
0
100
AcDbLine
 10
46.00000000000004
 20
42.99999999999997
 30
0.0
 11
46.00000000000001
 21
170.0
 31
0.0
  0
LINE
  5
A2A8
330
A295
100
AcDbEntity
  8
0
100
AcDbLine
 10
2.00000000000001
 20
42.99999999999997
 30
0.0
 11
2.00000000000001
 21
170.0
 31
0.0
  0
LINE
  5
A2A9
330
A295
100
AcDbEntity
  8
0
100
AcDbLine
 10
86.00000000000006
 20
10.0
 30
0.0
 11
86.00000000000001
 21
2.0
 31
0.0
  0
LINE
  5
A2AA
330
A295
100
AcDbEntity
  8
0
100
AcDbLine
 10
4.000000000000003
 20
170.0
 30
0.0
 11
46.00000000000001
 21
170.0
 31
0.0
  0
LINE
  5
A2AB
330
A295
100
AcDbEntity
  8
0
100
AcDbLine
 10
0.0
 20
170.0
 30
0.0
 11
2.00000000000001
 21
170.0
 31
0.0
  0
LINE
  5
A2AC
330
A295
100
AcDbEntity
  8
0
100
AcDbLine
 10
0.0
 20
42.99999999999997
 30
0.0
 11
0.0
 21
170.0
 31
0.0
  0
LINE
  5
A2AD
330
A295
100
AcDbEntity
  8
0
100
AcDbLine
 10
2.000000000000001
 20
170.0
 30
0.0
 11
4.000000000000003
 21
170.0
 31
0.0
  0
CIRCLE
  5
A2AE
330
A295
100
AcDbEntity
  8
0
100
AcDbCircle
 10
38.50000000000001
 20
25.0
 30
0.0
 40
2.5
  0
CIRCLE
  5
A2AF
330
A295
100
AcDbEntity
  8
0
100
AcDbCircle
 10
38.50000000000001
 20
45.0
 30
0.0
 40
2.5
  0
CIRCLE
  5
A2B0
330
A295
100
AcDbEntity
  8
0
100
AcDbCircle
 10
38.50000000000001
 20
65.0
 30
0.0
 40
2.5
  0
CIRCLE
  5
A2B1
330
A295
100
AcDbEntity
  8
0
100
AcDbCircle
 10
38.50000000000001
 20
85.0
 30
0.0
 40
2.5
  0
CIRCLE
  5
A2B2
330
A295
100
AcDbEntity
  8
0
100
AcDbCircle
 10
38.50000000000001
 20
105.0
 30
0.0
 40
2.5
  0
CIRCLE
  5
A2B3
330
A295
100
AcDbEntity
  8
0
100
AcDbCircle
 10
38.50000000000001
 20
125.0
 30
0.0
 40
2.5
  0
CIRCLE
  5
A2B4
330
A295
100
AcDbEntity
  8
0
100
AcDbCircle
 10
38.50000000000001
 20
145.0
 30
0.0
 40
2.5
  0
CIRCLE
  5
A2B5
330
A295
100
AcDbEntity
  8
0
100
AcDbCircle
 10
38.50000000000001
 20
165.0
 30
0.0
 40
2.5
  0
ENDBLK
  5
A297
330
A295
100
AcDbEntity
  8
0
100
AcDbBlockEnd
  0
BLOCK
  5
A2B7
330
A2B6
100
AcDbEntity
  8
0
100
AcDbBlockBegin
  2
SAE440_100_2-Right
 70
     0
 10
0.0
 20
0.0
 30
0.0
  3
SAE440_100_2-Right
  1

  0
SPLINE
  5
A2B9
330
A2B6
100
AcDbEntity
  8
0
100
AcDbSpline
210
0.0
220
0.0
230
1.0
 70
     8
 71
     3
 72
    14
 73
    10
 74
     0
 42
0.000000001
 43
0.0000000001
 40
0.0
 40
0.0
 40
0.0
 40
0.0
 40
0.3435201403955675
 40
0.3435201403955675
 40
0.3435201403955675
 40
0.757012756796757
 40
0.757012756796757
 40
0.757012756796757
 40
1.0
 40
1.0
 40
1.0
 40
1.0
 10
-1.999999999999992
 20
12.56250000000003
 30
0.0
 10
-2.00003688062023
 20
12.30248939775115
 30
0.0
 10
-1.996834301351901
 20
12.0752862912354
 30
0.0
 10
-1.998675474349349
 20
11.84407074683989
 30
0.0
 10
-2.000891680476551
 20
11.56575833029678
 30
0.0
 10
-2.001068977478626
 20
11.27136389236661
 30
0.0
 10
-2.001123170497394
 20
10.85787118806246
 30
0.0
 10
-2.001155016803008
 20
10.6148838932034
 30
0.0
 10
-2.000250524374919
 20
10.3581939179122
 30
0.0
 10
-1.999999999992517
 20
10.00000000165264
 30
0.0
  0
LINE
  5
A2BA
330
A2B6
100
AcDbEntity
  8
0
100
AcDbLine
 10
-2.001382055220138
 20
12.56250000000005
 30
0.0
 11
-2.000000000000011
 21
12.56250000000005
 31
0.0
  0
SPLINE
  5
A2BB
330
A2B6
100
AcDbEntity
  8
0
100
AcDbSpline
210
0.0
220
0.0
230
1.0
 70
     8
 71
     3
 72
    14
 73
    10
 74
     0
 42
0.000000001
 43
0.0000000001
 40
-0.481302653289621
 40
-0.481302653289621
 40
-0.481302653289621
 40
-0.481302653289621
 40
-0.3760960080925205
 40
-0.3760960080925205
 40
-0.3760960080925205
 40
-0.0765284972614114
 40
-0.0765284972614114
 40
-0.0765284972614114
 40
0.0
 40
0.0
 40
0.0
 40
0.0
 10
-0.9454120927225382
 20
11.73176011523297
 30
0.0
 10
-0.8408297879759082
 20
11.76867618608929
 30
0.0
 10
-0.7371129357357474
 20
11.80054090483863
 30
0.0
 10
-0.6388614064201232
 20
11.83423666321809
 30
0.0
 10
-0.3590980319936332
 20
11.93018264119688
 30
0.0
 10
-0.1217220476455232
 20
12.04001612968788
 30
0.0
 10
-0.0342615816090516
 20
12.31443386957588
 30
0.0
 10
-0.0119186445629598
 20
12.38453752399834
 30
0.0
 10
-0.0000045452574074
 20
12.4676966510518
 30
0.0
 10
-0.0000000001152099
 20
12.56250000004011
 30
0.0
  0
LINE
  5
A2BC
330
A2B6
100
AcDbEntity
  8
0
100
AcDbLine
 10
-2.000000000000005
 20
12.56250000000005
 30
0.0
 11
0.0
 21
12.56250000000005
 31
0.0
  0
SPLINE
  5
A2BD
330
A2B6
100
AcDbEntity
  8
0
100
AcDbSpline
210
0.0
220
0.0
230
1.0
 70
     8
 71
     3
 72
    18
 73
    14
 74
     0
 42
0.000000001
 43
0.0000000001
 40
0.0122744830587764
 40
0.0122744830587764
 40
0.0122744830587764
 40
0.0122744830587764
 40
0.0127922476635021
 40
0.0127922476635021
 40
0.014103969822065
 40
0.014103969822065
 40
0.0167552321406006
 40
0.0167552321406006
 40
0.0193828999240459
 40
0.0193828999240459
 40
0.0227949751820463
 40
0.0227949751820463
 40
0.0243496808522068
 40
0.0243496808522068
 40
0.0243496808522068
 40
0.0243496808522068
 10
-1.998735706096139
 20
10.07894058314288
 30
0.0
 10
-1.998735706096875
 20
10.07894058310929
 30
0.0
 10
-1.998737581482898
 20
10.07885499785795
 30
0.0
 10
-1.998750171843596
 20
10.07826494217877
 30
0.0
 10
-1.998770288867152
 20
10.07730702858507
 30
0.0
 10
-1.998852036456166
 20
10.07312427131093
 30
0.0
 10
-1.99893514989929
 20
10.06852994822544
 30
0.0
 10
-1.999099882285834
 20
10.05760342139783
 30
0.0
 10
-1.999183729707227
 20
10.05116828764892
 30
0.0
 10
-1.999352847326399
 20
10.03519352395946
 30
0.0
 10
-1.999433043625111
 20
10.02512813662055
 30
0.0
 10
-1.999514685041894
 20
10.00985788598126
 30
0.0
 10
-1.99953555817774
 20
10.00496305714884
 30
0.0
 10
-1.999551536423678
 20
9.999998570083723
 30
0.0
  0
SPLINE
  5
A2BE
330
A2B6
100
AcDbEntity
  8
0
100
AcDbSpline
210
0.0
220
0.0
230
1.0
 70
     8
 71
     3
 72
    10
 73
     6
 74
     0
 42
0.000000001
 43
0.0000000001
 40
0.0086744412318638
 40
0.0086744412318638
 40
0.0086744412318638
 40
0.0086744412318638
 40
0.0108228418710614
 40
0.0108228418710614
 40
0.0110653810303545
 40
0.0110653810303545
 40
0.0110653810303545
 40
0.0110653810303545
 10
-1.999327466389869
 20
10.03155991370904
 30
0.0
 10
-1.999327466386479
 20
10.03155991384562
 30
0.0
 10
-1.99934897512456
 20
10.03070111132968
 30
0.0
 10
-1.999389896284722
 20
10.02896801301967
 30
0.0
 10
-1.999394241633708
 20
10.02878323015553
 30
0.0
 10
-1.999398770914003
 20
10.02858970286709
 30
0.0
  0
SPLINE
  5
A2BF
330
A2B6
100
AcDbEntity
  8
0
100
AcDbSpline
210
0.0
220
0.0
230
1.0
 70
     8
 71
     3
 72
    28
 73
    24
 74
     0
 42
0.000000001
 43
0.0000000001
 40
0.0
 40
0.0
 40
0.0
 40
0.0
 40
0.0650016965098536
 40
0.0650016965098536
 40
0.1023228294635734
 40
0.1023228294635734
 40
0.1414747326755539
 40
0.1414747326755539
 40
0.1748987385509209
 40
0.1748987385509209
 40
0.2169224706829298
 40
0.2169224706829298
 40
0.2285442986868451
 40
0.2285442986868451
 40
0.2315623594448446
 40
0.2315623594448446
 40
0.2331850709402021
 40
0.2331850709402021
 40
0.2348181576218784
 40
0.2348181576218784
 40
0.2381012863274872
 40
0.2381012863274872
 40
0.2399160756068091
 40
0.2399160756068091
 40
0.2399160756068091
 40
0.2399160756068091
 10
-0.9420912520933285
 20
11.73259712965068
 30
0.0
 10
-1.093841721500957
 20
11.67924926778233
 30
0.0
 10
-1.242353898713448
 20
11.60988799343404
 30
0.0
 10
-1.466451771000422
 20
11.44171617371935
 30
0.0
 10
-1.547407943196404
 20
11.36594146110783
 30
0.0
 10
-1.695446554659332
 20
11.18241413825135
 30
0.0
 10
-1.76306128954995
 20
11.07040741115854
 30
0.0
 10
-1.860492149635741
 20
10.85077461308537
 30
0.0
 10
-1.895809632779394
 20
10.74321521027512
 30
0.0
 10
-1.955909904599034
 20
10.4995739611926
 30
0.0
 10
-1.976604789860249
 20
10.36178356810063
 30
0.0
 10
-1.991708370867483
 20
10.18431953877843
 30
0.0
 10
-1.994292669593581
 20
10.14560066220013
 30
0.0
 10
-1.996716769270039
 20
10.09729830254393
 30
0.0
 10
-1.997174215886271
 20
10.08730858608968
 30
0.0
 10
-1.997791800469519
 20
10.07253295721396
 30
0.0
 10
-1.997992861248795
 20
10.06744441344094
 30
0.0
 10
-1.998347803048674
 20
10.05801262832351
 30
0.0
 10
-1.998502718509535
 20
10.05364289552269
 30
0.0
 10
-1.99888569667417
 20
10.04240908759816
 30
0.0
 10
-1.999047032940639
 20
10.03711941523278
 30
0.0
 10
-1.999275993866715
 20
10.0292710184233
 30
0.0
 10
-1.999356886192792
 20
10.02637473923715
 30
0.0
 10
-1.999436029917509
 20
10.0234115490913
 30
0.0
  0
LINE
  5
A2C0
330
A2B6
100
AcDbEntity
  8
0
100
AcDbLine
 10
-1.999999999999997
 20
-2.0
 30
0.0
 11
-86.00000000000001
 21
-2.0
 31
0.0
  0
LINE
  5
A2C1
330
A2B6
100
AcDbEntity
  8
0
100
AcDbLine
 10
-2.000000000000001
 20
2.000000000000003
 30
0.0
 11
-2.000000000000001
 21
10.0
 31
0.0
  0
LINE
  5
A2C2
330
A2B6
100
AcDbEntity
  8
0
100
AcDbLine
 10
-2.000000000000001
 20
2.000000000000004
 30
0.0
 11
-1.999999999999997
 21
-1.999999999999999
 31
0.0
  0
LINE
  5
A2C3
330
A2B6
100
AcDbEntity
  8
0
100
AcDbLine
 10
-86.00000000000001
 20
-2.000000000000003
 30
0.0
 11
-86.00000000000001
 21
2.0
 31
0.0
  0
LINE
  5
A2C4
330
A2B6
100
AcDbEntity
  8
0
100
AcDbLine
 10
0.0
 20
42.99999999999997
 30
0.0
 11
0.0
 21
12.56250000000005
 31
0.0
  0
LINE
  5
A2C5
330
A2B6
100
AcDbEntity
  8
0
100
AcDbLine
 10
-2.00000000000001
 20
42.99999999999997
 30
0.0
 11
0.0
 21
42.99999999999997
 31
0.0
  0
LINE
  5
A2C6
330
A2B6
100
AcDbEntity
  8
0
100
AcDbLine
 10
-2.000000000000005
 20
12.56250000000005
 30
0.0
 11
-2.00000000000001
 21
42.99999999999997
 31
0.0
  0
LINE
  5
A2C7
330
A2B6
100
AcDbEntity
  8
0
100
AcDbLine
 10
0.0
 20
42.99999999999997
 30
0.0
 11
0.0
 21
170.0
 31
0.0
  0
CIRCLE
  5
A2C8
330
A2B6
100
AcDbEntity
  8
0
100
AcDbCircle
 10
-38.50000000000004
 20
155.0
 30
0.0
 40
2.5
  0
LINE
  5
A2C9
330
A2B6
100
AcDbEntity
  8
0
100
AcDbLine
 10
-46.00000000000004
 20
42.99999999999997
 30
0.0
 11
-86.00000000000006
 21
10.0
 31
0.0
  0
LINE
  5
A2CA
330
A2B6
100
AcDbEntity
  8
0
100
AcDbLine
 10
-46.00000000000001
 20
170.0
 30
0.0
 11
-46.00000000000004
 21
42.99999999999997
 31
0.0
  0
LINE
  5
A2CB
330
A2B6
100
AcDbEntity
  8
0
100
AcDbLine
 10
-86.00000000000006
 20
10.0
 30
0.0
 11
-86.00000000000001
 21
2.0
 31
0.0
  0
LINE
  5
A2CC
330
A2B6
100
AcDbEntity
  8
0
100
AcDbLine
 10
-4.000000000000003
 20
170.0
 30
0.0
 11
-46.00000000000001
 21
170.0
 31
0.0
  0
LINE
  5
A2CD
330
A2B6
100
AcDbEntity
  8
0
100
AcDbLine
 10
-2.000000000000001
 20
170.0
 30
0.0
 11
-4.000000000000003
 21
170.0
 31
0.0
  0
LINE
  5
A2CE
330
A2B6
100
AcDbEntity
  8
0
100
AcDbLine
 10
0.0
 20
170.0
 30
0.0
 11
-2.00000000000001
 21
170.0
 31
0.0
  0
LINE
  5
A2CF
330
A2B6
100
AcDbEntity
  8
0
100
AcDbLine
 10
-2.00000000000001
 20
42.99999999999997
 30
0.0
 11
-2.00000000000001
 21
170.0
 31
0.0
  0
CIRCLE
  5
A2D0
330
A2B6
100
AcDbEntity
  8
0
100
AcDbCircle
 10
-38.50000000000004
 20
35.0
 30
0.0
 40
2.5
  0
CIRCLE
  5
A2D1
330
A2B6
100
AcDbEntity
  8
0
100
AcDbCircle
 10
-38.50000000000004
 20
55.0
 30
0.0
 40
2.5
  0
CIRCLE
  5
A2D2
330
A2B6
100
AcDbEntity
  8
0
100
AcDbCircle
 10
-38.50000000000004
 20
75.0
 30
0.0
 40
2.5
  0
CIRCLE
  5
A2D3
330
A2B6
100
AcDbEntity
  8
0
100
AcDbCircle
 10
-38.50000000000004
 20
95.0
 30
0.0
 40
2.5
  0
CIRCLE
  5
A2D4
330
A2B6
100
AcDbEntity
  8
0
100
AcDbCircle
 10
-38.50000000000004
 20
115.0
 30
0.0
 40
2.5
  0
CIRCLE
  5
A2D5
330
A2B6
100
AcDbEntity
  8
0
100
AcDbCircle
 10
-38.50000000000004
 20
135.0
 30
0.0
 40
2.5
  0
ENDBLK
  5
A2B8
330
A2B6
100
AcDbEntity
  8
0
100
AcDbBlockEnd
  0
BLOCK
  5
A2D7
330
A2D6
100
AcDbEntity
  8
0
100
AcDbBlockBegin
  2
SAE440_100_2-Top
 70
     0
 10
0.0
 20
0.0
 30
0.0
  3
SAE440_100_2-Top
  1

  0
LINE
  5
A2D9
330
A2D6
100
AcDbEntity
  8
0
100
AcDbLine
 10
50.0
 20
-1.999999999999999
 30
0.0
 11
50.0
 21
-2.069004766159719
 31
0.0
  0
SPLINE
  5
A2DA
330
A2D6
100
AcDbEntity
  8
0
100
AcDbSpline
210
0.0
220
0.0
230
1.0
 70
     8
 71
     3
 72
    11
 73
     7
 74
     0
 42
0.000000001
 43
0.0000000001
 40
-1.0
 40
-1.0
 40
-1.0
 40
-1.0
 40
-0.7994286890673124
 40
-0.7994286890673124
 40
-0.7994286890673124
 40
-0.6533573777220596
 40
-0.6533573777220596
 40
-0.6533573777220596
 40
-0.6533573777220596
 10
50.0
 20
-2.000000000000029
 30
0.0
 10
49.99999961270329
 20
-1.999093543230751
 30
0.0
 10
50.12633150601345
 20
-1.91986389662943
 30
0.0
 10
50.33607694565422
 20
-1.790687786191644
 30
0.0
 10
50.48882955655628
 20
-1.696611899872793
 30
0.0
 10
50.68837056421457
 20
-1.57739137784647
 30
0.0
 10
50.91982716790699
 20
-1.445337717163428
 30
0.0
  0
SPLINE
  5
A2DB
330
A2D6
100
AcDbEntity
  8
0
100
AcDbSpline
210
0.0
220
0.0
230
1.0
 70
     8
 71
     3
 72
    10
 73
     6
 74
     0
 42
0.000000001
 43
0.0000000001
 40
0.0
 40
0.0
 40
0.0
 40
0.0
 40
0.0670802812194604
 40
0.0670802812194604
 40
0.1015705412181888
 40
0.1015705412181888
 40
0.1015705412181888
 40
0.1015705412181888
 10
54.58965563954208
 20
-2.00003053238377
 30
0.0
 10
54.39102479399527
 20
-2.000299600803217
 30
0.0
 10
54.18820817314911
 20
-2.001403298836792
 30
0.0
 10
53.87427648430588
 20
-2.013524953390677
 30
0.0
 10
53.76433862363602
 20
-2.019563471395209
 30
0.0
 10
53.65274762772085
 20
-2.0302776020119
 30
0.0
  0
SPLINE
  5
A2DC
330
A2D6
100
AcDbEntity
  8
0
100
AcDbSpline
210
0.0
220
0.0
230
1.0
 70
     8
 71
     3
 72
    10
 73
     6
 74
     0
 42
0.000000001
 43
0.0000000001
 40
0.0589313022315812
 40
0.0589313022315812
 40
0.0589313022315812
 40
0.0589313022315812
 40
0.0599779860455176
 40
0.0599779860455176
 40
0.0663268532008907
 40
0.0663268532008907
 40
0.0663268532008907
 40
0.0663268532008907
 10
52.00026149195244
 20
-3.967645940218447
 30
0.0
 10
52.00024336833461
 20
-3.969383514657832
 30
0.0
 10
52.00022834572128
 20
-3.970951905459946
 30
0.0
 10
52.00012589227648
 20
-3.981754123463239
 30
0.0
 10
52.00006999202757
 20
-3.989563038475947
 30
0.0
 10
52.00002531920673
 20
-4.000000108971985
 30
0.0
  0
SPLINE
  5
A2DD
330
A2D6
100
AcDbEntity
  8
0
100
AcDbSpline
210
0.0
220
0.0
230
1.0
 70
     8
 71
     3
 72
    28
 73
    24
 74
     0
 42
0.000000001
 43
0.0000000001
 40
0.0059923972352036
 40
0.0059923972352036
 40
0.0059923972352036
 40
0.0059923972352036
 40
0.006001838746927
 40
0.006001838746927
 40
0.0060343744484826
 40
0.0060343744484826
 40
0.0061001224722026
 40
0.0061001224722026
 40
0.0063665722068928
 40
0.0063665722068928
 40
0.0733613610634133
 40
0.0733613610634133
 40
0.1461778731159498
 40
0.1461778731159498
 40
0.1822197578843489
 40
0.1822197578843489
 40
0.2005091083280197
 40
0.2005091083280197
 40
0.209893778018227
 40
0.209893778018227
 40
0.2150065186679408
 40
0.2150065186679408
 40
0.2204217666716372
 40
0.2204217666716372
 40
0.2204217666716372
 40
0.2204217666716372
 10
49.99996683550275
 20
-3.998262424354805
 30
0.0
 10
49.99996641628726
 20
-3.99823831043377
 30
0.0
 10
49.99996598646227
 20
-3.998213585096376
 30
0.0
 10
49.99996402898191
 20
-3.998100976941113
 30
0.0
 10
49.99996237693013
 20
-3.998005923742274
 30
0.0
 10
49.99995717433158
 20
-3.997706522001502
 30
0.0
 10
49.99995334565889
 20
-3.997486102045717
 30
0.0
 10
49.99993419676511
 20
-3.996383178305801
 30
0.0
 10
49.99991873326828
 20
-3.995490913574603
 30
0.0
 10
49.99618179108481
 20
-3.779497675854895
 30
0.0
 10
49.99444381940128
 20
-3.585309157948919
 30
0.0
 10
49.99316940918746
 20
-3.16411566350115
 30
0.0
 10
49.99375520211941
 20
-2.938043574630271
 30
0.0
 10
49.99572387217103
 20
-2.597037800024653
 30
0.0
 10
49.99651061127821
 20
-2.485242826978648
 30
0.0
 10
49.99791998884965
 20
-2.319629399193792
 30
0.0
 10
49.99852173361972
 20
-2.262940635724546
 30
0.0
 10
49.9992383900894
 20
-2.180972593129763
 30
0.0
 10
49.99942028554976
 20
-2.153992591053452
 30
0.0
 10
49.99955633692825
 20
-2.117588788550428
 30
0.0
 10
49.99957946486524
 20
-2.10561075623188
 30
0.0
 10
49.99959432351715
 20
-2.084188213449177
 30
0.0
 10
49.99958391143319
 20
-2.074632498890664
 30
0.0
 10
49.99957228829785
 20
-2.069004766159719
 30
0.0
  0
SPLINE
  5
A2DE
330
A2D6
100
AcDbEntity
  8
0
100
AcDbSpline
210
0.0
220
0.0
230
1.0
 70
     8
 71
     3
 72
    12
 73
     8
 74
     0
 42
0.000000001
 43
0.0000000001
 40
0.0
 40
0.0
 40
0.0
 40
0.0
 40
0.0073680638644765
 40
0.0073680638644765
 40
0.0094714794592913
 40
0.0094714794592913
 40
0.010689234437245
 40
0.010689234437245
 40
0.010689234437245
 40
0.010689234437245
 10
49.99996053853816
 20
-3.999985503002866
 30
0.0
 10
50.00000120689109
 20
-3.988738678354035
 30
0.0
 10
50.00005705426705
 20
-3.976817397458949
 30
0.0
 10
50.00011475911499
 20
-3.966829073010061
 30
0.0
 10
50.00012596496226
 20
-3.965004429865493
 30
0.0
 10
50.00013624741471
 20
-3.963340749380332
 30
0.0
 10
50.00013843227616
 20
-3.962989239701659
 30
0.0
 10
50.00013843227612
 20
-3.962989239709258
 30
0.0
  0
LINE
  5
A2DF
330
A2D6
100
AcDbEntity
  8
0
100
AcDbLine
 10
-50.0
 20
-1.999999999999999
 30
0.0
 11
-50.0
 21
-2.069004766158577
 31
0.0
  0
SPLINE
  5
A2E0
330
A2D6
100
AcDbEntity
  8
0
100
AcDbSpline
210
0.0
220
0.0
230
1.0
 70
     8
 71
     3
 72
    11
 73
     7
 74
     0
 42
0.000000001
 43
0.0000000001
 40
-1.0
 40
-1.0
 40
-1.0
 40
-1.0
 40
-0.7994286890673124
 40
-0.7994286890673124
 40
-0.7994286890673124
 40
-0.6533573777220596
 40
-0.6533573777220596
 40
-0.6533573777220596
 40
-0.6533573777220596
 10
-50.0
 20
-2.000000000000029
 30
0.0
 10
-49.99999961270329
 20
-1.999093543230751
 30
0.0
 10
-50.12633150601345
 20
-1.91986389662943
 30
0.0
 10
-50.33607694565422
 20
-1.790687786191644
 30
0.0
 10
-50.48882955655628
 20
-1.696611899872793
 30
0.0
 10
-50.68837056421457
 20
-1.57739137784647
 30
0.0
 10
-50.91982716790699
 20
-1.445337717163428
 30
0.0
  0
SPLINE
  5
A2E1
330
A2D6
100
AcDbEntity
  8
0
100
AcDbSpline
210
0.0
220
0.0
230
1.0
 70
     8
 71
     3
 72
    40
 73
    36
 74
     0
 42
0.000000001
 43
0.0000000001
 40
0.0
 40
0.0
 40
0.0
 40
0.0
 40
0.0038040597930434
 40
0.0038040597930434
 40
0.0084789254035413
 40
0.0084789254035413
 40
0.0158054477965528
 40
0.0158054477965528
 40
0.0260000339236476
 40
0.0260000339236476
 40
0.0495206342107165
 40
0.0495206342107165
 40
0.1201103978342146
 40
0.1201103978342146
 40
0.1773337563851599
 40
0.1773337563851599
 40
0.1996793206131245
 40
0.1996793206131245
 40
0.2080576294449289
 40
0.2080576294449289
 40
0.2111994533320523
 40
0.2111994533320523
 40
0.2135558715644794
 40
0.2135558715644794
 40
0.2139977578951516
 40
0.2139977578951516
 40
0.2143300849273815
 40
0.2143300849273815
 40
0.2143843567100164
 40
0.2143843567100164
 40
0.2144316607371341
 40
0.2144316607371341
 40
0.2144792392696178
 40
0.2144792392696178
 40
0.2144971596479505
 40
0.2144971596479505
 40
0.2144971596479505
 40
0.2144971596479505
 10
-49.99957228829785
 20
-2.069004766158577
 30
0.0
 10
-49.99958045322433
 20
-2.072958090511313
 30
0.0
 10
-49.99958825487933
 20
-2.07888109278329
 30
0.0
 10
-49.99959053786113
 20
-2.094285445063394
 30
0.0
 10
-49.99958182785674
 20
-2.104402911697502
 30
0.0
 10
-49.99951287324442
 20
-2.132562809517356
 30
0.0
 10
-49.99942216624789
 20
-2.152170789452766
 30
0.0
 10
-49.99908018252583
 20
-2.201629641614713
 30
0.0
 10
-49.99878019266219
 20
-2.232656804257929
 30
0.0
 10
-49.99777927585641
 20
-2.335149022043913
 30
0.0
 10
-49.99716324842414
 20
-2.406783095823938
 30
0.0
 10
-49.99498744670687
 20
-2.695965521673613
 30
0.0
 10
-49.99378539075198
 20
-2.921302546304549
 30
0.0
 10
-49.99344334744124
 20
-3.312943746877805
 30
0.0
 10
-49.99387955180801
 20
-3.483506423550774
 30
0.0
 10
-49.99604610978318
 20
-3.724044484037714
 30
0.0
 10
-49.99683120505905
 20
-3.792158754741791
 30
0.0
 10
-49.99816331317171
 20
-3.886565427899803
 30
0.0
 10
-49.99855192423968
 20
-3.912373806844546
 30
0.0
 10
-49.9991201391976
 20
-3.947930082127304
 30
0.0
 10
-49.99927855674052
 20
-3.957633749942413
 30
0.0
 10
-49.99956197412583
 20
-3.974638551377719
 30
0.0
 10
-49.99968506330753
 20
-3.981912968771197
 30
0.0
 10
-49.99983522412691
 20
-3.990654823525214
 30
0.0
 10
-49.99985906977763
 20
-3.992039210768298
 30
0.0
 10
-49.99990152973156
 20
-3.994497289093415
 30
0.0
 10
-49.99992010922844
 20
-3.995570672834421
 30
0.0
 10
-49.99994240115582
 20
-3.996855637558738
 30
0.0
 10
-49.99994555606193
 20
-3.997037429020431
 30
0.0
 10
-49.99995141898395
 20
-3.997375139624823
 30
0.0
 10
-49.99995415573646
 20
-3.997532728973103
 30
0.0
 10
-49.99995943839495
 20
-3.997836827607507
 30
0.0
 10
-49.99996202137221
 20
-3.997985469492966
 30
0.0
 10
-49.99996520049927
 20
-3.998168372323608
 30
0.0
 10
-49.999966037043
 20
-3.998216495687257
 30
0.0
 10
-49.9999668355031
 20
-3.998262424269257
 30
0.0
  0
SPLINE
  5
A2E2
330
A2D6
100
AcDbEntity
  8
0
100
AcDbSpline
210
0.0
220
0.0
230
1.0
 70
     8
 71
     3
 72
    14
 73
    10
 74
     0
 42
0.000000001
 43
0.0000000001
 40
0.0077867807885182
 40
0.0077867807885182
 40
0.0077867807885182
 40
0.0077867807885182
 40
0.0083979032767019
 40
0.0083979032767019
 40
0.010524965441033
 40
0.010524965441033
 40
0.0138644922388607
 40
0.0138644922388607
 40
0.018480134695382
 40
0.018480134695382
 40
0.018480134695382
 40
0.018480134695382
 10
-50.00013843227616
 20
-3.96298923970224
 30
0.0
 10
-50.00013843227613
 20
-3.962989239707511
 30
0.0
 10
-50.00013788506662
 20
-3.963077842434135
 30
0.0
 10
-50.00013331027648
 20
-3.963815700187655
 30
0.0
 10
-50.00012394049767
 20
-3.965314844949036
 30
0.0
 10
-50.00009364632382
 20
-3.970424767098058
 30
0.0
 10
-50.00006960355502
 20
-3.974738182854327
 30
0.0
 10
-50.00001543374275
 20
-3.985811780489139
 30
0.0
 10
-49.99998601477994
 20
-3.992940053574155
 30
0.0
 10
-49.99996053853815
 20
-3.999985503002863
 30
0.0
  0
SPLINE
  5
A2E3
330
A2D6
100
AcDbEntity
  8
0
100
AcDbSpline
210
0.0
220
0.0
230
1.0
 70
     8
 71
     3
 72
    10
 73
     6
 74
     0
 42
0.000000001
 43
0.0000000001
 40
0.0
 40
0.0
 40
0.0
 40
0.0
 40
0.0049906877665319
 40
0.0049906877665319
 40
0.0073950153105496
 40
0.0073950153105496
 40
0.0073950153105496
 40
0.0073950153105496
 10
-52.00002531920671
 20
-4.000000108971984
 30
0.0
 10
-52.00006043540854
 20
-3.991795785466623
 30
0.0
 10
-52.00010543803871
 20
-3.985044489251182
 30
0.0
 10
-52.00019029816626
 20
-3.974913320064766
 30
0.0
 10
-52.00022128444359
 20
-3.971546284545899
 30
0.0
 10
-52.00026242521146
 20
-3.967601975675505
 30
0.0
  0
SPLINE
  5
A2E4
330
A2D6
100
AcDbEntity
  8
0
100
AcDbSpline
210
0.0
220
0.0
230
1.0
 70
     8
 71
     3
 72
    12
 73
     8
 74
     0
 42
0.000000001
 43
0.0000000001
 40
0.1006407352706106
 40
0.1006407352706106
 40
0.1006407352706106
 40
0.1006407352706106
 40
0.1211258889362295
 40
0.1211258889362295
 40
0.1783910716711017
 40
0.1783910716711017
 40
0.2023822287329098
 40
0.2023822287329098
 40
0.2023822287329098
 40
0.2023822287329098
 10
-53.65225355624076
 20
-2.030463909734579
 30
0.0
 10
-53.71837739512788
 20
-2.024115194595156
 30
0.0
 10
-53.78375556959743
 20
-2.019391202480392
 30
0.0
 10
-54.02824281577175
 20
-2.005406234706704
 30
0.0
 10
-54.20133933785057
 20
-2.002581093599105
 30
0.0
 10
-54.44670040714019
 20
-2.000373750249979
 30
0.0
 10
-54.51861563007577
 20
-2.000126764280746
 30
0.0
 10
-54.58965563954212
 20
-2.000030532383771
 30
0.0
  0
LINE
  5
A2E5
330
A2D6
100
AcDbEntity
  8
0
100
AcDbLine
 10
-50.0
 20
-1.999999999999999
 30
0.0
 11
-48.0
 21
-1.999999999999997
 31
0.0
  0
LINE
  5
A2E6
330
A2D6
100
AcDbEntity
  8
0
100
AcDbLine
 10
-49.99999999999999
 20
-86.00000000000001
 30
0.0
 11
-47.99999999999998
 21
-86.00000000000001
 31
0.0
  0
LINE
  5
A2E7
330
A2D6
100
AcDbEntity
  8
0
100
AcDbLine
 10
48.00000000000001
 20
-1.999999999999997
 30
0.0
 11
-48.00000000000001
 21
-1.999999999999997
 31
0.0
  0
LINE
  5
A2E8
330
A2D6
100
AcDbEntity
  8
0
100
AcDbLine
 10
-47.99999999999998
 20
-86.00000000000001
 30
0.0
 11
48.0
 21
-86.00000000000001
 31
0.0
  0
CIRCLE
  5
A2E9
330
A2D6
100
AcDbEntity
  8
0
100
AcDbCircle
 10
0.0
 20
-47.99999999999998
 30
0.0
 40
2.5
  0
CIRCLE
  5
A2EA
330
A2D6
100
AcDbEntity
  8
0
100
AcDbCircle
 10
0.0
 20
-67.99999999999998
 30
0.0
 40
2.5
  0
LINE
  5
A2EB
330
A2D6
100
AcDbEntity
  8
0
100
AcDbLine
 10
50.0
 20
-1.999999999999999
 30
0.0
 11
48.0
 21
-1.999999999999997
 31
0.0
  0
LINE
  5
A2EC
330
A2D6
100
AcDbEntity
  8
0
100
AcDbLine
 10
54.0
 20
0.0
 30
0.0
 11
91.5
 21
0.0
 31
0.0
  0
ARC
  5
A2ED
330
A2D6
100
AcDbEntity
  8
0
100
AcDbCircle
 10
54.0
 20
-4.000000000000003
 30
0.0
 40
4.000000000000003
100
AcDbArc
 50
90.0
 51
180.0
  0
LINE
  5
A2EE
330
A2D6
100
AcDbEntity
  8
0
100
AcDbLine
 10
49.99999999999997
 20
-86.00000000000006
 30
0.0
 11
49.99999999999999
 21
-46.00000000000004
 31
0.0
  0
LINE
  5
A2EF
330
A2D6
100
AcDbEntity
  8
0
100
AcDbLine
 10
51.99999999999999
 20
-86.00000000000006
 30
0.0
 11
49.99999999999997
 21
-86.00000000000006
 31
0.0
  0
LINE
  5
A2F0
330
A2D6
100
AcDbEntity
  8
0
100
AcDbLine
 10
51.99999999999999
 20
-46.00000000000004
 30
0.0
 11
51.99999999999999
 21
-86.00000000000006
 31
0.0
  0
LINE
  5
A2F1
330
A2D6
100
AcDbEntity
  8
0
100
AcDbLine
 10
49.99999999999999
 20
-46.00000000000001
 30
0.0
 11
51.99999999999999
 21
-46.00000000000001
 31
0.0
  0
LINE
  5
A2F2
330
A2D6
100
AcDbEntity
  8
0
100
AcDbLine
 10
52.0
 20
-4.000000000000003
 30
0.0
 11
51.99999999999999
 21
-46.00000000000001
 31
0.0
  0
LINE
  5
A2F3
330
A2D6
100
AcDbEntity
  8
0
100
AcDbLine
 10
49.99999999999999
 20
-46.00000000000001
 30
0.0
 11
50.0
 21
-4.000000000000003
 31
0.0
  0
LINE
  5
A2F4
330
A2D6
100
AcDbEntity
  8
0
100
AcDbLine
 10
49.99999999999999
 20
-86.00000000000001
 30
0.0
 11
47.99999999999998
 21
-86.00000000000001
 31
0.0
  0
ARC
  5
A2F5
330
A2D6
100
AcDbEntity
  8
0
100
AcDbCircle
 10
54.0
 20
-4.000000000000003
 30
0.0
 40
2.000000000000001
100
AcDbArc
 50
90.0
 51
180.0
  0
LINE
  5
A2F6
330
A2D6
100
AcDbEntity
  8
0
100
AcDbLine
 10
91.5
 20
0.0
 30
0.0
 11
91.5
 21
-2.00000000000001
 31
0.0
  0
LINE
  5
A2F7
330
A2D6
100
AcDbEntity
  8
0
100
AcDbLine
 10
91.5
 20
-2.00000000000001
 30
0.0
 11
54.0
 21
-2.000000000000001
 31
0.0
  0
LINE
  5
A2F8
330
A2D6
100
AcDbEntity
  8
0
100
AcDbLine
 10
-91.5
 20
-2.00000000000001
 30
0.0
 11
-54.0
 21
-2.000000000000001
 31
0.0
  0
LINE
  5
A2F9
330
A2D6
100
AcDbEntity
  8
0
100
AcDbLine
 10
-49.99999999999999
 20
-46.00000000000001
 30
0.0
 11
-50.0
 21
-4.000000000000003
 31
0.0
  0
LINE
  5
A2FA
330
A2D6
100
AcDbEntity
  8
0
100
AcDbLine
 10
-52.0
 20
-4.000000000000003
 30
0.0
 11
-51.99999999999999
 21
-46.00000000000001
 31
0.0
  0
LINE
  5
A2FB
330
A2D6
100
AcDbEntity
  8
0
100
AcDbLine
 10
-54.0
 20
0.0
 30
0.0
 11
-91.5
 21
0.0
 31
0.0
  0
LINE
  5
A2FC
330
A2D6
100
AcDbEntity
  8
0
100
AcDbLine
 10
-91.5
 20
0.0
 30
0.0
 11
-91.5
 21
-2.00000000000001
 31
0.0
  0
ARC
  5
A2FD
330
A2D6
100
AcDbEntity
  8
0
100
AcDbCircle
 10
-54.0
 20
-4.000000000000003
 30
0.0
 40
2.000000000000001
100
AcDbArc
 50
0.0
 51
90.0
  0
ARC
  5
A2FE
330
A2D6
100
AcDbEntity
  8
0
100
AcDbCircle
 10
-54.0
 20
-4.000000000000003
 30
0.0
 40
4.000000000000003
100
AcDbArc
 50
0.0
 51
90.0
  0
LINE
  5
A2FF
330
A2D6
100
AcDbEntity
  8
0
100
AcDbLine
 10
-49.99999999999999
 20
-46.00000000000004
 30
0.0
 11
-49.99999999999997
 21
-86.00000000000006
 31
0.0
  0
LINE
  5
A300
330
A2D6
100
AcDbEntity
  8
0
100
AcDbLine
 10
-51.99999999999999
 20
-86.00000000000006
 30
0.0
 11
-51.99999999999999
 21
-46.00000000000004
 31
0.0
  0
LINE
  5
A301
330
A2D6
100
AcDbEntity
  8
0
100
AcDbLine
 10
-49.99999999999997
 20
-86.00000000000006
 30
0.0
 11
-51.99999999999999
 21
-86.00000000000006
 31
0.0
  0
LINE
  5
A302
330
A2D6
100
AcDbEntity
  8
0
100
AcDbLine
 10
-51.99999999999999
 20
-46.00000000000001
 30
0.0
 11
-49.99999999999999
 21
-46.00000000000001
 31
0.0
  0
ENDBLK
  5
A2D8
330
A2D6
100
AcDbEntity
  8
0
100
AcDbBlockEnd
  0
BLOCK
  5
A304
330
A303
100
AcDbEntity
  8
0
100
AcDbBlockBegin
  2
SAE440_100_2-Bottom
 70
     0
 10
0.0
 20
0.0
 30
0.0
  3
SAE440_100_2-Bottom
  1

  0
SPLINE
  5
A306
330
A303
100
AcDbEntity
  8
0
100
AcDbSpline
210
0.0
220
0.0
230
1.0
 70
     8
 71
     3
 72
    14
 73
    10
 74
     0
 42
0.000000001
 43
0.0000000001
 40
0.0
 40
0.0
 40
0.0
 40
0.0
 40
0.3435201403955675
 40
0.3435201403955675
 40
0.3435201403955675
 40
0.757012756796757
 40
0.757012756796757
 40
0.757012756796757
 40
1.0
 40
1.0
 40
1.0
 40
1.0
 10
54.60606060606068
 20
1.999999999999992
 30
0.0
 10
54.2848993560363
 20
2.00003688062023
 30
0.0
 10
53.8724505175097
 20
1.996834301351901
 30
0.0
 10
53.47645515516366
 20
1.998675474349349
 30
0.0
 10
52.99979850769418
 20
2.000891680476551
 30
0.0
 10
52.53725634325214
 20
2.001068977478626
 30
0.0
 10
52.26239324898472
 20
2.001123170497394
 30
0.0
 10
52.10087107691876
 20
2.001155016803008
 30
0.0
 10
51.99999576744406
 20
2.000250524374919
 30
0.0
 10
51.99999999948837
 20
1.999999999992517
 30
0.0
  0
LINE
  5
A307
330
A303
100
AcDbEntity
  8
0
100
AcDbLine
 10
54.58965563954206
 20
2.000000000000005
 30
0.0
 11
54.60606060606068
 21
2.000000000000005
 31
0.0
  0
ARC
  5
A308
330
A303
100
AcDbEntity
  8
0
100
AcDbCircle
 10
54.0
 20
4.000000000000003
 30
0.0
 40
1.999999999999992
100
AcDbArc
 50
180.1766990243151
 51
259.9841064872723
  0
ARC
  5
A309
330
A303
100
AcDbEntity
  8
0
100
AcDbCircle
 10
54.0
 20
4.000000000000003
 30
0.0
 40
3.999999999999994
100
AcDbArc
 50
219.6927749101261
 51
270.0
  0
LINE
  5
A30A
330
A303
100
AcDbEntity
  8
0
100
AcDbLine
 10
54.60606060606068
 20
0.0
 30
0.0
 11
54.0
 21
0.0
 31
0.0
  0
SPLINE
  5
A30B
330
A303
100
AcDbEntity
  8
0
100
AcDbSpline
210
0.0
220
0.0
230
1.0
 70
     8
 71
     3
 72
    17
 73
    13
 74
     0
 42
0.000000001
 43
0.0000000001
 40
-1.0
 40
-1.0
 40
-1.0
 40
-1.0
 40
-0.7994286890673124
 40
-0.7994286890673124
 40
-0.7994286890673124
 40
-0.3760960080925205
 40
-0.3760960080925205
 40
-0.3760960080925205
 40
-0.0765284972614114
 40
-0.0765284972614114
 40
-0.0765284972614114
 40
0.0
 40
0.0
 40
0.0
 40
0.0
 10
50.0
 20
2.000000000000029
 30
0.0
 10
49.99999961270329
 20
1.999093543230751
 30
0.0
 10
50.12633150601345
 20
1.91986389662943
 30
0.0
 10
50.33607694565422
 20
1.790687786191644
 30
0.0
 10
50.77877285701099
 20
1.518044261575724
 30
0.0
 10
51.61445008348671
 20
1.03420794785896
 30
0.0
 10
52.48107962106067
 20
0.6388614064201232
 30
0.0
 10
53.09434210952705
 20
0.3590980319936332
 30
0.0
 10
53.7176576168914
 20
0.1217220476455232
 30
0.0
 10
54.23393420697279
 20
0.0342615816090516
 30
0.0
 10
54.36582391524108
 20
0.0119186445629598
 30
0.0
 10
54.48832026106082
 20
0.0000045452574074
 30
0.0
 10
54.6060606061109
 20
0.0000000001152099
 30
0.0
  0
LINE
  5
A30C
330
A303
100
AcDbEntity
  8
0
100
AcDbLine
 10
54.60606060606068
 20
2.000000000000005
 30
0.0
 11
54.60606060606068
 21
0.0
 31
0.0
  0
SPLINE
  5
A30D
330
A303
100
AcDbEntity
  8
0
100
AcDbSpline
210
0.0
220
0.0
230
1.0
 70
     8
 71
     3
 72
    28
 73
    24
 74
     0
 42
0.000000001
 43
0.0000000001
 40
0.069082259011921
 40
0.069082259011921
 40
0.069082259011921
 40
0.069082259011921
 40
0.0695373376944405
 40
0.0695373376944405
 40
0.070559277576879
 40
0.070559277576879
 40
0.0715813611849614
 40
0.0715813611849614
 40
0.0725991042095552
 40
0.0725991042095552
 40
0.0746451822652243
 40
0.0746451822652243
 40
0.0787297326828608
 40
0.0787297326828608
 40
0.0838653754376916
 40
0.0838653754376916
 40
0.0955614324940426
 40
0.0955614324940426
 40
0.1211258889391658
 40
0.1211258889391658
 40
0.1783910716778108
 40
0.1783910716778108
 40
0.2023822287329072
 40
0.2023822287329072
 40
0.2023822287329072
 40
0.2023822287329072
 10
53.36371670695644
 20
2.07084147080261
 30
0.0
 10
53.3637167069644
 20
2.070841470800996
 30
0.0
 10
53.36380214744697
 20
2.07082414794453
 30
0.0
 10
53.36438361946051
 20
2.070706910031124
 30
0.0
 10
53.3652857223514
 20
2.07052543204913
 30
0.0
 10
53.36805655518929
 20
2.06997565940674
 30
0.0
 10
53.36994902274809
 20
2.069602926366603
 30
0.0
 10
53.37436619550361
 20
2.068744968898823
 30
0.0
 10
53.3769152226821
 20
2.068255027858078
 30
0.0
 10
53.38509412282981
 20
2.066704419211077
 30
0.0
 10
53.39131852210574
 20
2.065552216830112
 30
0.0
 10
53.41032146366437
 20
2.062130588048497
 30
0.0
 10
53.4238168920723
 20
2.059823029340838
 30
0.0
 10
53.45405151580111
 20
2.054909058546534
 30
0.0
 10
53.47106069528634
 20
2.052318623664342
 30
0.0
 10
53.52650619137435
 20
2.044365323489903
 30
0.0
 10
53.56492454354782
 20
2.039625143308697
 30
0.0
 10
53.68595403302379
 20
2.026494621844518
 30
0.0
 10
53.76778361623546
 20
2.020304817633975
 30
0.0
 10
54.02824281581069
 20
2.005406234705283
 30
0.0
 10
54.2013393379003
 20
2.002581093598168
 30
0.0
 10
54.44670040718052
 20
2.000373750249821
 30
0.0
 10
54.51861563009561
 20
2.000126764280719
 30
0.0
 10
54.58965563954206
 20
2.000030532383771
 30
0.0
  0
SPLINE
  5
A30E
330
A303
100
AcDbEntity
  8
0
100
AcDbSpline
210
0.0
220
0.0
230
1.0
 70
     8
 71
     3
 72
    30
 73
    26
 74
     0
 42
0.000000001
 43
0.0000000001
 40
0.0
 40
0.0
 40
0.0
 40
0.0
 40
0.0049906877534695
 40
0.0049906877534695
 40
0.0087372354715986
 40
0.0087372354715986
 40
0.0097952252997071
 40
0.0097952252997071
 40
0.0104899688771449
 40
0.0104899688771449
 40
0.0114835377043876
 40
0.0114835377043876
 40
0.0123917508420475
 40
0.0123917508420475
 40
0.0135259376924126
 40
0.0135259376924126
 40
0.0151743813634042
 40
0.0151743813634042
 40
0.0177233275172927
 40
0.0177233275172927
 40
0.0214777529076009
 40
0.0214777529076009
 40
0.0261198061563353
 40
0.0261198061563353
 40
0.0306018019872155
 40
0.0306018019872155
 40
0.0306018019872155
 40
0.0306018019872155
 10
52.00002531920673
 20
4.000000108971985
 30
0.0
 10
52.00006043540847
 20
3.991795785486311
 30
0.0
 10
52.00010543803848
 20
3.985044489291395
 30
0.0
 10
52.00020570056456
 20
3.973074478811355
 30
0.0
 10
52.00025216704585
 20
3.968020207560988
 30
0.0
 10
52.00037082766065
 20
3.958018887944955
 30
0.0
 10
52.00040161076575
 20
3.955539562239922
 30
0.0
 10
52.00046347753609
 20
3.950898299152058
 30
0.0
 10
52.0004911379463
 20
3.948899178412148
 30
0.0
 10
52.00056545828132
 20
3.943776694085934
 30
0.0
 10
52.00061636412463
 20
3.940467859993369
 30
0.0
 10
52.00072033177002
 20
3.934149189599145
 30
0.0
 10
52.00077372345405
 20
3.931079683407149
 30
0.0
 10
52.00089659629108
 20
3.924378860501441
 30
0.0
 10
52.00096786687763
 20
3.920734150949908
 30
0.0
 10
52.00114460637842
 20
3.912180967079287
 30
0.0
 10
52.00125249029067
 20
3.907368438739927
 30
0.0
 10
52.00152755706799
 20
3.89585385809883
 30
0.0
 10
52.00169749324098
 20
3.889446307015859
 30
0.0
 10
52.00210476725755
 20
3.875140055858838
 30
0.0
 10
52.00233985501326
 20
3.867834575925314
 30
0.0
 10
52.00278976723357
 20
3.854669013456824
 30
0.0
 10
52.00298851215748
 20
3.849467629446606
 30
0.0
 10
52.00322997974327
 20
3.843272573779597
 30
0.0
 10
52.00328099785169
 20
3.842057251326473
 30
0.0
 10
52.0032809978511
 20
3.842057251340864
 30
0.0
  0
SPLINE
  5
A30F
330
A303
100
AcDbEntity
  8
0
100
AcDbSpline
210
0.0
220
0.0
230
1.0
 70
     8
 71
     3
 72
     8
 73
     4
 74
     0
 42
0.000000001
 43
0.0000000001
 40
0.0
 40
0.0
 40
0.0
 40
0.0
 40
0.0004151367511675
 40
0.0004151367511675
 40
0.0004151367511675
 40
0.0004151367511675
 10
52.00002109558404
 20
4.000000267145731
 30
0.0
 10
52.00001411393842
 20
3.999222903653321
 30
0.0
 10
52.00000714111364
 20
3.998428973601076
 30
0.0
 10
52.00000008478674
 20
3.997615301467276
 30
0.0
  0
CIRCLE
  5
A310
330
A303
100
AcDbEntity
  8
0
100
AcDbCircle
 10
0.0
 20
67.99999999999998
 30
0.0
 40
2.5
  0
CIRCLE
  5
A311
330
A303
100
AcDbEntity
  8
0
100
AcDbCircle
 10
0.0
 20
47.99999999999998
 30
0.0
 40
2.5
  0
LINE
  5
A312
330
A303
100
AcDbEntity
  8
0
100
AcDbLine
 10
48.00000000000001
 20
1.999999999999997
 30
0.0
 11
-48.00000000000001
 21
1.999999999999997
 31
0.0
  0
LINE
  5
A313
330
A303
100
AcDbEntity
  8
0
100
AcDbLine
 10
47.99999999999998
 20
86.00000000000001
 30
0.0
 11
-47.99999999999998
 21
86.00000000000001
 31
0.0
  0
SPLINE
  5
A314
330
A303
100
AcDbEntity
  8
0
100
AcDbSpline
210
0.0
220
0.0
230
1.0
 70
     8
 71
     3
 72
    17
 73
    13
 74
     0
 42
0.000000001
 43
0.0000000001
 40
-1.0
 40
-1.0
 40
-1.0
 40
-1.0
 40
-0.7994286890673124
 40
-0.7994286890673124
 40
-0.7994286890673124
 40
-0.3760960080925205
 40
-0.3760960080925205
 40
-0.3760960080925205
 40
-0.0765284972614114
 40
-0.0765284972614114
 40
-0.0765284972614114
 40
0.0
 40
0.0
 40
0.0
 40
0.0
 10
-50.0
 20
2.000000000000029
 30
0.0
 10
-49.99999961270329
 20
1.999093543230751
 30
0.0
 10
-50.12633150601345
 20
1.91986389662943
 30
0.0
 10
-50.33607694565422
 20
1.790687786191644
 30
0.0
 10
-50.77877285701099
 20
1.518044261575724
 30
0.0
 10
-51.61445008348671
 20
1.03420794785896
 30
0.0
 10
-52.48107962106067
 20
0.6388614064201232
 30
0.0
 10
-53.09434210952705
 20
0.3590980319936332
 30
0.0
 10
-53.7176576168914
 20
0.1217220476455232
 30
0.0
 10
-54.23393420697279
 20
0.0342615816090516
 30
0.0
 10
-54.36582391524108
 20
0.0119186445629598
 30
0.0
 10
-54.48832026106082
 20
0.0000045452574074
 30
0.0
 10
-54.6060606061109
 20
0.0000000001152099
 30
0.0
  0
LINE
  5
A315
330
A303
100
AcDbEntity
  8
0
100
AcDbLine
 10
-54.0
 20
0.0
 30
0.0
 11
-54.60606060606068
 21
0.0
 31
0.0
  0
ARC
  5
A316
330
A303
100
AcDbEntity
  8
0
100
AcDbCircle
 10
-54.0
 20
4.000000000000003
 30
0.0
 40
3.999999999999994
100
AcDbArc
 50
270.0000000000001
 51
320.307225089874
  0
ARC
  5
A317
330
A303
100
AcDbEntity
  8
0
100
AcDbCircle
 10
-54.0
 20
4.000000000000003
 30
0.0
 40
1.999999999999992
100
AcDbArc
 50
280.015893512729
 51
359.8269252445192
  0
LINE
  5
A318
330
A303
100
AcDbEntity
  8
0
100
AcDbLine
 10
-54.60606060606068
 20
2.000000000000005
 30
0.0
 11
-54.58965563954196
 21
2.000000000000005
 31
0.0
  0
SPLINE
  5
A319
330
A303
100
AcDbEntity
  8
0
100
AcDbSpline
210
0.0
220
0.0
230
1.0
 70
     8
 71
     3
 72
    14
 73
    10
 74
     0
 42
0.000000001
 43
0.0000000001
 40
0.0
 40
0.0
 40
0.0
 40
0.0
 40
0.3435201403955675
 40
0.3435201403955675
 40
0.3435201403955675
 40
0.757012756796757
 40
0.757012756796757
 40
0.757012756796757
 40
1.0
 40
1.0
 40
1.0
 40
1.0
 10
-54.60606060606068
 20
1.999999999999992
 30
0.0
 10
-54.2848993560363
 20
2.00003688062023
 30
0.0
 10
-53.8724505175097
 20
1.996834301351901
 30
0.0
 10
-53.47645515516366
 20
1.998675474349349
 30
0.0
 10
-52.99979850769418
 20
2.000891680476551
 30
0.0
 10
-52.53725634325214
 20
2.001068977478626
 30
0.0
 10
-52.26239324898472
 20
2.001123170497394
 30
0.0
 10
-52.10087107691876
 20
2.001155016803008
 30
0.0
 10
-51.99999576744406
 20
2.000250524374919
 30
0.0
 10
-51.99999999948837
 20
1.999999999992517
 30
0.0
  0
LINE
  5
A31A
330
A303
100
AcDbEntity
  8
0
100
AcDbLine
 10
-54.60606060606068
 20
0.0
 30
0.0
 11
-54.60606060606068
 21
2.000000000000005
 31
0.0
  0
SPLINE
  5
A31B
330
A303
100
AcDbEntity
  8
0
100
AcDbSpline
210
0.0
220
0.0
230
1.0
 70
     8
 71
     3
 72
    28
 73
    24
 74
     0
 42
0.000000001
 43
0.0000000001
 40
0.0357732034700871
 40
0.0357732034700871
 40
0.0357732034700871
 40
0.0357732034700871
 40
0.0390422753551907
 40
0.0390422753551907
 40
0.0452611505316678
 40
0.0452611505316678
 40
0.0483374926785547
 40
0.0483374926785547
 40
0.0514208782576301
 40
0.0514208782576301
 40
0.0529575421203411
 40
0.0529575421203411
 40
0.054506259780103
 40
0.054506259780103
 40
0.0552768639519075
 40
0.0552768639519075
 40
0.0560490423829908
 40
0.0560490423829908
 40
0.0568196217577024
 40
0.0568196217577024
 40
0.0599779860206261
 40
0.0599779860206261
 40
0.0663268532025252
 40
0.0663268532025252
 40
0.0663268532025252
 40
0.0663268532025252
 10
-52.00328099785103
 20
3.842057251342493
 30
0.0
 10
-52.00328099784939
 20
3.842057251382818
 30
0.0
 10
-52.00325370308762
 20
3.842715126932459
 30
0.0
 10
-52.00307566836261
 20
3.847192838259018
 30
0.0
 10
-52.00281926781066
 20
3.853659085225583
 30
0.0
 10
-52.00230490581167
 20
3.868952895828289
 30
0.0
 10
-52.00211373393361
 20
3.874953169641364
 30
0.0
 10
-52.00171824158037
 20
3.888620143856599
 30
0.0
 10
-52.0015112384738
 20
3.896381733665703
 30
0.0
 10
-52.0012092659315
 20
3.909288426125396
 30
0.0
 10
-52.00110914437293
 20
3.913838539721242
 30
0.0
 10
-52.00091412426445
 20
3.92341360408643
 30
0.0
 10
-52.00081699725679
 20
3.928569998421028
 30
0.0
 10
-52.00068438693215
 20
3.936297115799373
 30
0.0
 10
-52.00064189434349
 20
3.938896184553085
 30
0.0
 10
-52.00056372807694
 20
3.943909393742386
 30
0.0
 10
-52.00052749020959
 20
3.946359798847299
 30
0.0
 10
-52.00046356992048
 20
3.950879019021917
 30
0.0
 10
-52.00043532219919
 20
3.952983957206112
 30
0.0
 10
-52.0003093510714
 20
3.962745419532074
 30
0.0
 10
-52.00025759965335
 20
3.967867505993081
 30
0.0
 10
-52.00012589227686
 20
3.981754123402798
 30
0.0
 10
-52.00006999202776
 20
3.989563038433233
 30
0.0
 10
-52.00002531920673
 20
4.000000108971985
 30
0.0
  0
SPLINE
  5
A31C
330
A303
100
AcDbEntity
  8
0
100
AcDbSpline
210
0.0
220
0.0
230
1.0
 70
     8
 71
     3
 72
    24
 73
    20
 74
     0
 42
0.000000001
 43
0.0000000001
 40
0.0
 40
0.0
 40
0.0
 40
0.0
 40
0.0670802812252097
 40
0.0670802812252097
 40
0.1176969979306909
 40
0.1176969979306909
 40
0.1238216068755411
 40
0.1238216068755411
 40
0.1276878485697597
 40
0.1276878485697597
 40
0.1296244599677171
 40
0.1296244599677171
 40
0.1305906458629338
 40
0.1305906458629338
 40
0.1315604992830442
 40
0.1315604992830442
 40
0.1325323648780281
 40
0.1325323648780281
 40
0.13315305200525
 40
0.13315305200525
 40
0.13315305200525
 40
0.13315305200525
 10
-54.58965563954195
 20
2.000030532383772
 30
0.0
 10
-54.39102479397805
 20
2.000299600803243
 30
0.0
 10
-54.18820817311481
 20
2.00140329883678
 30
0.0
 10
-53.8244332351331
 20
2.015449520645604
 30
0.0
 10
-53.66128631395646
 20
2.025422848631757
 30
0.0
 10
-53.47446367295752
 20
2.051791790556243
 30
0.0
 10
-53.45413682314828
 20
2.054871474212283
 30
0.0
 10
-53.42141846183993
 20
2.060231083595601
 30
0.0
 10
-53.4086792029786
 20
2.062421081845118
 30
0.0
 10
-53.39075646303634
 20
2.065656342581755
 30
0.0
 10
-53.38489735903806
 20
2.066741989130967
 30
0.0
 10
-53.37713677821517
 20
2.068212894490506
 30
0.0
 10
-53.3747051207431
 20
2.068679786469766
 30
0.0
 10
-53.37043587627608
 20
2.069507828161552
 30
0.0
 10
-53.36857604477138
 20
2.069873302300314
 30
0.0
 10
-53.36574097875599
 20
2.070434596907778
 30
0.0
 10
-53.36474661716372
 20
2.070634008377834
 30
0.0
 10
-53.36387654988496
 20
2.070809051389707
 30
0.0
 10
-53.36371670101581
 20
2.070841472006547
 30
0.0
 10
-53.36371670695651
 20
2.070841470802594
 30
0.0
  0
LINE
  5
A31D
330
A303
100
AcDbEntity
  8
0
100
AcDbLine
 10
-52.00000000000001
 20
2.000000000000001
 30
0.0
 11
-48.0
 21
1.999999999999997
 31
0.0
  0
LINE
  5
A31E
330
A303
100
AcDbEntity
  8
0
100
AcDbLine
 10
-47.99999999999998
 20
86.00000000000001
 30
0.0
 11
-51.99999999999999
 21
86.00000000000001
 31
0.0
  0
LINE
  5
A31F
330
A303
100
AcDbEntity
  8
0
100
AcDbLine
 10
-52.0
 20
2.000000000000001
 30
0.0
 11
-51.99999999999999
 21
86.00000000000001
 31
0.0
  0
LINE
  5
A320
330
A303
100
AcDbEntity
  8
0
100
AcDbLine
 10
52.00000000000001
 20
2.000000000000001
 30
0.0
 11
48.0
 21
1.999999999999997
 31
0.0
  0
LINE
  5
A321
330
A303
100
AcDbEntity
  8
0
100
AcDbLine
 10
52.0
 20
2.000000000000001
 30
0.0
 11
51.99999999999999
 21
86.00000000000001
 31
0.0
  0
LINE
  5
A322
330
A303
100
AcDbEntity
  8
0
100
AcDbLine
 10
47.99999999999998
 20
86.00000000000001
 30
0.0
 11
51.99999999999999
 21
86.00000000000001
 31
0.0
  0
LINE
  5
A323
330
A303
100
AcDbEntity
  8
0
100
AcDbLine
 10
91.50000000000005
 20
0.0
 30
0.0
 11
54.60606060606068
 21
0.0
 31
0.0
  0
LINE
  5
A324
330
A303
100
AcDbEntity
  8
0
100
AcDbLine
 10
91.50000000000005
 20
2.00000000000001
 30
0.0
 11
91.50000000000005
 21
0.0
 31
0.0
  0
LINE
  5
A325
330
A303
100
AcDbEntity
  8
0
100
AcDbLine
 10
54.60606060606068
 20
2.000000000000005
 30
0.0
 11
91.50000000000005
 21
2.00000000000001
 31
0.0
  0
LINE
  5
A326
330
A303
100
AcDbEntity
  8
0
100
AcDbLine
 10
-91.50000000000005
 20
2.00000000000001
 30
0.0
 11
-54.60606060606068
 21
2.000000000000005
 31
0.0
  0
LINE
  5
A327
330
A303
100
AcDbEntity
  8
0
100
AcDbLine
 10
-91.50000000000005
 20
0.0
 30
0.0
 11
-91.50000000000005
 21
2.00000000000001
 31
0.0
  0
LINE
  5
A328
330
A303
100
AcDbEntity
  8
0
100
AcDbLine
 10
-54.60606060606068
 20
0.0
 30
0.0
 11
-91.50000000000005
 21
0.0
 31
0.0
  0
ENDBLK
  5
A305
330
A303
100
AcDbEntity
  8
0
100
AcDbBlockEnd
  0
BLOCK
  5
A32A
330
A329
100
AcDbEntity
  8
0
100
AcDbBlockBegin
  2
SAE440_100_2-ISO
 70
     0
 10
0.0
 20
0.0
 30
0.0
  3
SAE440_100_2-ISO
  1

  0
LINE
  5
A32C
330
A329
100
AcDbEntity
  8
0
100
AcDbLine
 10
65.53347177911304
 20
-65.04280162429187
 30
0.0
 11
64.11925821682288
 21
-65.85929820517171
 31
0.0
  0
SPLINE
  5
A32D
330
A329
100
AcDbEntity
  8
0
100
AcDbSpline
210
0.0
220
0.0
230
1.0
 70
     8
 71
     3
 72
    14
 73
    10
 74
     0
 42
0.000000001
 43
0.0000000001
 40
0.0
 40
0.0
 40
0.0
 40
0.0
 40
0.3435201403955675
 40
0.3435201403955675
 40
0.3435201403955675
 40
0.757012756796757
 40
0.757012756796757
 40
0.757012756796757
 40
1.0
 40
1.0
 40
1.0
 40
1.0
 10
67.37623490592461
 20
-64.01444892288615
 30
0.0
 10
67.14911352964136
 20
-64.09564821579178
 30
0.0
 10
66.85973272454461
 20
-64.1114697946944
 30
0.0
 10
66.57841981259948
 20
-64.13934372216994
 30
0.0
 10
66.2398055704951
 20
-64.17289535960221
 30
0.0
 10
65.91261350152098
 20
-64.22450774491342
 30
0.0
 10
65.71821762341549
 20
-64.44993286007731
 30
0.0
 10
65.60398168149703
 20
-64.5824030061205
 30
0.0
 10
65.53329163884261
 20
-64.75043806317362
 30
0.0
 10
65.53347177883949
 20
-65.04280162268267
 30
0.0
  0
LINE
  5
A32E
330
A329
100
AcDbEntity
  8
0
100
AcDbLine
 10
67.3381475462401
 20
-63.99245917551955
 30
0.0
 11
67.37623490592461
 21
-64.01444892288615
 31
0.0
  0
LINE
  5
A32F
330
A329
100
AcDbEntity
  8
0
100
AcDbLine
 10
66.94768534156906
 20
-63.76702571654437
 30
0.0
 11
67.3381475462401
 21
-63.99245917551955
 31
0.0
  0
ELLIPSE
  5
A330
330
A329
100
AcDbEntity
  8
0
100
AcDbEllipse
 10
65.53347177919597
 20
-64.5835222974721
 30
0.0
 11
1.999999999999992
 21
0.0000000000000002
 31
0.0
210
0.0
220
0.0
230
1.0
 40
0.5773502691896259
 41
0.7853981633974457
 42
0.8225763078174956
  0
ELLIPSE
  5
A331
330
A329
100
AcDbEntity
  8
0
100
AcDbEllipse
 10
65.53347177919597
 20
-64.5835222974721
 30
0.0
 11
1.999999999999992
 21
-0.0000000000001192
 31
0.0
210
0.0
220
0.0
230
1.0
 40
0.577350269189626
 41
0.8225763078177337
 42
2.356194490192617
  0
LINE
  5
A332
330
A329
100
AcDbEntity
  8
0
100
AcDbLine
 10
64.11925821682288
 20
-64.59014045966203
 30
0.0
 11
64.11925821682288
 21
-63.76702571654437
 31
0.0
  0
LINE
  5
A333
330
A329
100
AcDbEntity
  8
0
100
AcDbLine
 10
64.11925821682288
 20
-65.85929820517171
 30
0.0
 11
64.11925821682288
 21
-64.59014045966203
 31
0.0
  0
ELLIPSE
  5
A334
330
A329
100
AcDbEntity
  8
0
100
AcDbEllipse
 10
-17.90512840081661
 20
-80.55623666187077
 30
0.0
 11
-2.5
 21
-0.0000000000001493
 31
0.0
210
0.0
220
0.0
230
1.0
 40
0.577350269189626
 41
3.742856870268582
 42
5.681921090500122
  0
ELLIPSE
  5
A335
330
A329
100
AcDbEntity
  8
0
100
AcDbEllipse
 10
-3.762992777085663
 20
-72.39127085259352
 30
0.0
 11
-2.5
 21
-0.0000000000001493
 31
0.0
210
0.0
220
0.0
230
1.0
 40
0.577350269189626
 41
3.742856870268582
 42
5.681921090500122
  0
LINE
  5
A336
330
A329
100
AcDbEntity
  8
0
100
AcDbLine
 10
3.308075034779784
 20
-107.5006238324857
 30
0.0
 11
-64.57417595912875
 21
-68.30878794795491
 31
0.0
  0
LINE
  5
A337
330
A329
100
AcDbEntity
  8
0
100
AcDbLine
 10
-6.591419901831869
 20
-23.40147599692995
 30
0.0
 11
-6.591419901831869
 21
-29.93344864435176
 31
0.0
  0
LINE
  5
A338
330
A329
100
AcDbEntity
  8
0
100
AcDbLine
 10
39.97211393167095
 20
-58.44991059940031
 30
0.0
 11
39.12248120950973
 21
-57.95937491854822
 31
0.0
  0
LINE
  5
A339
330
A329
100
AcDbEntity
  8
0
100
AcDbLine
 10
33.00655984461476
 20
-54.42834607218352
 30
0.0
 11
-5.177206339458786
 21
-32.38293838713493
 31
0.0
  0
LINE
  5
A33A
330
A329
100
AcDbEntity
  8
0
100
AcDbLine
 10
-64.57417595912875
 20
-66.67579478609946
 30
0.0
 11
3.308075034779793
 21
-105.8676306706303
 31
0.0
  0
ELLIPSE
  5
A33B
330
A329
100
AcDbEntity
  8
0
100
AcDbEllipse
 10
-3.762992777085663
 20
-70.75827769073805
 30
0.0
 11
-2.5
 21
0.000000000000149
 31
0.0
210
0.0
220
0.0
230
1.0
 40
0.577350269189626
 41
0.0
 42
6.283185307179586
  0
ELLIPSE
  5
A33C
330
A329
100
AcDbEntity
  8
0
100
AcDbEllipse
 10
-17.90512840081661
 20
-78.92324350001532
 30
0.0
 11
-2.5
 21
0.000000000000149
 31
0.0
210
0.0
220
0.0
230
1.0
 40
0.577350269189626
 41
0.0
 42
6.283185307179586
  0
LINE
  5
A33D
330
A329
100
AcDbEntity
  8
0
100
AcDbLine
 10
-6.591419901831869
 20
-23.40147599692995
 30
0.0
 11
-6.676661807839083
 21
-23.45069043430945
 31
0.0
  0
SPLINE
  5
A33E
330
A329
100
AcDbEntity
  8
0
100
AcDbSpline
210
0.0
220
0.0
230
1.0
 70
     8
 71
     3
 72
    11
 73
     7
 74
     0
 42
0.000000001
 43
0.0000000001
 40
-1.0
 40
-1.0
 40
-1.0
 40
-1.0
 40
-0.7994286890673124
 40
-0.7994286890673124
 40
-0.7994286890673124
 40
-0.6581429432545911
 40
-0.6581429432545911
 40
-0.6581429432545911
 40
-0.6581429432545911
 10
-6.591419901831891
 20
-23.40147599692994
 30
0.0
 10
-6.590778666243362
 20
-23.00686391031313
 30
0.0
 10
-6.624084984300302
 20
-22.64811562185215
 30
0.0
 10
-6.681056103335385
 20
-22.30677889134902
 30
0.0
 10
-6.721187501017471
 20
-22.06633565787683
 30
0.0
 10
-6.775636971738014
 20
-21.83650188502106
 30
0.0
 10
-6.842765638591785
 20
-21.61371005748271
 30
0.0
  0
ELLIPSE
  5
A33F
330
A329
100
AcDbEntity
  8
0
100
AcDbEllipse
 10
-10.83406058895116
 20
-20.49270692737489
 30
0.0
 11
3.999999999999993
 21
0.0000000000000002
 31
0.0
210
0.0
220
0.0
230
1.0
 40
0.577350269189626
 41
6.058746940092114
 42
6.283185307179586
  0
ELLIPSE
  5
A340
330
A329
100
AcDbEntity
  8
0
100
AcDbEllipse
 10
-10.83406058895116
 20
-20.49270692737489
 30
0.0
 11
3.999999999999994
 21
0.0000000000000006
 31
0.0
210
0.0
220
0.0
230
1.0
 40
0.577350269189626
 41
5.497787143782126
 42
6.058746940092114
  0
LINE
  5
A341
330
A329
100
AcDbEntity
  8
0
100
AcDbLine
 10
-8.00563346420497
 20
-22.12570008923034
 30
0.0
 11
-8.00563346420497
 21
-22.32012650485562
 31
0.0
  0
LINE
  5
A342
330
A329
100
AcDbEntity
  8
0
100
AcDbLine
 10
-8.00563346420497
 20
-22.32012650485562
 30
0.0
 11
-8.00563346420497
 21
-24.21797257785768
 31
0.0
  0
LINE
  5
A343
330
A329
100
AcDbEntity
  8
0
100
AcDbLine
 10
-6.676661807839083
 20
-23.45069043430945
 30
0.0
 11
-8.00563346420497
 21
-24.21797257785768
 31
0.0
  0
SPLINE
  5
A344
330
A329
100
AcDbEntity
  8
0
100
AcDbSpline
210
0.0
220
0.0
230
1.0
 70
     8
 71
     3
 72
    16
 73
    12
 74
     0
 42
0.000000001
 43
0.0000000001
 40
0.0
 40
0.0
 40
0.0
 40
0.0
 40
0.0351246640552288
 40
0.0351246640552288
 40
0.0553378226076095
 40
0.0553378226076095
 40
0.0803966030507926
 40
0.0803966030507926
 40
0.1060253987264863
 40
0.1060253987264863
 40
0.1164315012406768
 40
0.1164315012406768
 40
0.1164315012406768
 40
0.1164315012406768
 10
-6.84543326086481
 20
-20.66673468721314
 30
0.0
 10
-6.86062788513202
 20
-20.78282292009221
 30
0.0
 10
-6.87555775828593
 20
-20.90105118514717
 30
0.0
 10
-6.890410395032762
 20
-21.07841633664623
 30
0.0
 10
-6.893986369422449
 20
-21.14192928154033
 30
0.0
 10
-6.896230142311896
 20
-21.27302349347605
 30
0.0
 10
-6.893496114322474
 20
-21.3388766600506
 30
0.0
 10
-6.881631015665901
 20
-21.45431758426718
 30
0.0
 10
-6.872574446492594
 20
-21.50494388196817
 30
0.0
 10
-6.855739013543722
 20
-21.57375744390299
 30
0.0
 10
-6.85034656737244
 20
-21.59349072162986
 30
0.0
 10
-6.844230743981922
 20
-21.61381493345095
 30
0.0
  0
ELLIPSE
  5
A345
330
A329
100
AcDbEntity
  8
0
100
AcDbEllipse
 10
-5.177206339458781
 20
-30.74994522527948
 30
0.0
 11
1.000000000000105
 21
-1.732050807568817
 31
0.0
210
0.0
220
0.0
230
1.0
 40
0.5773502691896266
 41
3.926990816987
 42
5.497787143781897
  0
LINE
  5
A346
330
A329
100
AcDbEntity
  8
0
100
AcDbLine
 10
-5.177206339458786
 20
-32.38293838713493
 30
0.0
 11
-64.57417595912875
 21
-66.67579478609946
 31
0.0
  0
ELLIPSE
  5
A347
330
A329
100
AcDbEntity
  8
0
100
AcDbEllipse
 10
-64.57417595912875
 20
-65.042801624244
 30
0.0
 11
2.000000000000209
 21
-3.464101615137639
 31
0.0
210
0.0
220
0.0
230
1.0
 40
0.5773502691896258
 41
3.926990816986997
 42
5.497787143781893
  0
LINE
  5
A348
330
A329
100
AcDbEntity
  8
0
100
AcDbLine
 10
-65.98838952150186
 20
-64.22630504331627
 30
0.0
 11
-6.591419901831869
 21
-29.93344864435176
 31
0.0
  0
LINE
  5
A349
330
A329
100
AcDbEntity
  8
0
100
AcDbLine
 10
-67.40260308387494
 20
-63.40980846238855
 30
0.0
 11
-65.98838952150186
 21
-64.22630504331627
 31
0.0
  0
LINE
  5
A34A
330
A329
100
AcDbEntity
  8
0
100
AcDbLine
 10
-64.57417595912875
 20
-68.30878794795492
 30
0.0
 11
-64.57417595912875
 21
-66.67579478609946
 31
0.0
  0
ELLIPSE
  5
A34B
330
A329
100
AcDbEntity
  8
0
100
AcDbEllipse
 10
-64.57417595912875
 20
-65.042801624244
 30
0.0
 11
1.000000000000104
 21
-1.732050807568819
 31
0.0
210
0.0
220
0.0
230
1.0
 40
0.5773502691896258
 41
3.926990816986997
 42
5.497787143781896
  0
LINE
  5
A34C
330
A329
100
AcDbEntity
  8
0
100
AcDbLine
 10
65.53347177919597
 20
-71.5747742716658
 30
0.0
 11
65.53347177919599
 21
-65.04280162424399
 31
0.0
  0
ELLIPSE
  5
A34D
330
A329
100
AcDbEntity
  8
0
100
AcDbEllipse
 10
62.70504465444979
 20
-69.94178110981033
 30
0.0
 11
1.999999999999994
 21
-3.464101615137758
 31
0.0
210
0.0
220
0.0
230
1.0
 40
0.5773502691896251
 41
0.0000000000000007
 42
0.7853981633974524
  0
LINE
  5
A34E
330
A329
100
AcDbEntity
  8
0
100
AcDbLine
 10
3.308075034779784
 20
-105.8676306706303
 30
0.0
 11
4.722288597152877
 21
-105.0511340897026
 31
0.0
  0
LINE
  5
A34F
330
A329
100
AcDbEntity
  8
0
100
AcDbLine
 10
65.53347177919597
 20
-71.5747742716658
 30
0.0
 11
6.136502159525969
 21
-105.8676306706303
 31
0.0
  0
ELLIPSE
  5
A350
330
A329
100
AcDbEntity
  8
0
100
AcDbEllipse
 10
3.308075034779776
 20
-104.2346375087748
 30
0.0
 11
2.000000000000001
 21
-3.464101615137758
 31
0.0
210
0.0
220
0.0
230
0.9999999999999998
 40
0.5773502691896257
 41
5.497787143782137
 42
7.068583470577033
  0
LINE
  5
A351
330
A329
100
AcDbEntity
  8
0
100
AcDbLine
 10
93.46418963606465
 20
-54.22422192695165
 30
0.0
 11
94.87840319843773
 21
-53.40772534602393
 31
0.0
  0
LINE
  5
A352
330
A329
100
AcDbEntity
  8
0
100
AcDbLine
 10
67.37623490592461
 20
-64.01444892288613
 30
0.0
 11
93.46418963606465
 21
-54.22422192695165
 31
0.0
  0
ELLIPSE
  5
A353
330
A329
100
AcDbEntity
  8
0
100
AcDbEllipse
 10
81.08982096530002
 20
41.91825047728816
 30
0.0
 11
-3.249999999999998
 21
5.629165124598853
 31
0.0
210
0.0
220
0.0
230
1.0
 40
0.5773502691896258
 41
0.2193254863005916
 42
2.9222671672892
  0
ELLIPSE
  5
A354
330
A329
100
AcDbEntity
  8
0
100
AcDbEllipse
 10
88.86799555835205
 20
49.67496799610156
 30
0.0
 11
1.250000000000128
 21
-2.165063509461023
 31
0.0
210
0.0
220
0.0
230
0.9999999999999998
 40
0.5773502691896258
 41
3.742856870268601
 42
5.681921090500122
  0
LINE
  5
A355
330
A329
100
AcDbEntity
  8
0
100
AcDbLine
 10
68.36189890394217
 20
65.59665132419221
 30
0.0
 11
94.87840319843769
 21
50.28734043179735
 31
0.0
  0
LINE
  5
A356
330
A329
100
AcDbEntity
  8
0
100
AcDbLine
 10
94.87840319843773
 20
-53.40772534602393
 30
0.0
 11
94.87840319843769
 21
50.28734043179736
 31
0.0
  0
ELLIPSE
  5
A357
330
A329
100
AcDbEntity
  8
0
100
AcDbEllipse
 10
65.53347177919597
 20
63.96365816233675
 30
0.0
 11
4.000000000000003
 21
-0.0000000000002395
 31
0.0
210
0.0
220
0.0
230
1.0
 40
0.5773502691896259
 41
0.785398163397689
 42
2.356194490192587
  0
ELLIPSE
  5
A358
330
A329
100
AcDbEntity
  8
0
100
AcDbEllipse
 10
38.30986070351387
 20
39.26463658927304
 30
0.0
 11
1.24999999999987
 21
2.165063509461172
 31
0.0
210
0.0
220
0.0
230
1.0
 40
0.5773502691896259
 41
3.742856870268578
 42
5.681921090500117
  0
ELLIPSE
  5
A359
330
A329
100
AcDbEntity
  8
0
100
AcDbEllipse
 10
39.72407426588697
 20
38.44814000834531
 30
0.0
 11
-1.25
 21
-2.165063509461097
 31
0.0
210
0.0
220
0.0
230
1.0
 40
0.5773502691896258
 41
0.0
 42
6.283185307179586
  0
LINE
  5
A35A
330
A329
100
AcDbEntity
  8
0
100
AcDbLine
 10
4.722288597152841
 20
-98.51916144228077
 30
0.0
 11
33.00655984461476
 21
-55.2448426531113
 31
0.0
  0
LINE
  5
A35B
330
A329
100
AcDbEntity
  8
0
100
AcDbLine
 10
6.136502159525942
 20
-99.33565802320849
 30
0.0
 11
4.722288597152841
 21
-98.51916144228077
 31
0.0
  0
LINE
  5
A35C
330
A329
100
AcDbEntity
  8
0
100
AcDbLine
 10
34.42077340698786
 20
-56.06133923403902
 30
0.0
 11
6.136502159525942
 21
-99.33565802320849
 31
0.0
  0
LINE
  5
A35D
330
A329
100
AcDbEntity
  8
0
100
AcDbLine
 10
34.42077340698786
 20
-56.06133923403902
 30
0.0
 11
33.00655984461476
 21
-55.2448426531113
 31
0.0
  0
LINE
  5
A35E
330
A329
100
AcDbEntity
  8
0
100
AcDbLine
 10
33.00655984461476
 20
-55.2448426531113
 30
0.0
 11
33.00655984461477
 21
48.45022312470996
 31
0.0
  0
LINE
  5
A35F
330
A329
100
AcDbEntity
  8
0
100
AcDbLine
 10
34.42077340698788
 20
47.63372654378223
 30
0.0
 11
34.42077340698786
 21
-56.06133923403902
 31
0.0
  0
LINE
  5
A360
330
A329
100
AcDbEntity
  8
0
100
AcDbLine
 10
33.00655984461477
 20
48.45022312470996
 30
0.0
 11
34.42077340698788
 21
47.63372654378223
 31
0.0
  0
LINE
  5
A361
330
A329
100
AcDbEntity
  8
0
100
AcDbLine
 10
6.136502159525942
 20
-99.33565802320849
 30
0.0
 11
6.136502159525969
 21
-105.8676306706303
 31
0.0
  0
LINE
  5
A362
330
A329
100
AcDbEntity
  8
0
100
AcDbLine
 10
64.11925821682288
 20
-63.76702571654437
 30
0.0
 11
64.11925821682288
 21
64.78015474326449
 31
0.0
  0
LINE
  5
A363
330
A329
100
AcDbEntity
  8
0
100
AcDbLine
 10
64.11925821682288
 20
64.78015474326449
 30
0.0
 11
34.42077340698788
 21
47.63372654378223
 31
0.0
  0
LINE
  5
A364
330
A329
100
AcDbEntity
  8
0
100
AcDbLine
 10
33.00655984461477
 20
48.45022312470996
 30
0.0
 11
62.70504465444979
 21
65.59665132419221
 31
0.0
  0
LINE
  5
A365
330
A329
100
AcDbEntity
  8
0
100
AcDbLine
 10
4.722288597152872
 20
-105.0511340897025
 30
0.0
 11
4.722288597152841
 21
-98.51916144228077
 31
0.0
  0
LINE
  5
A366
330
A329
100
AcDbEntity
  8
0
100
AcDbLine
 10
3.308075034779784
 20
-105.8676306706303
 30
0.0
 11
3.308075034779784
 21
-107.5006238324857
 31
0.0
  0
LINE
  5
A367
330
A329
100
AcDbEntity
  8
0
100
AcDbLine
 10
4.722288597152872
 20
-105.0511340897025
 30
0.0
 11
6.136502159525969
 21
-105.8676306706303
 31
0.0
  0
ELLIPSE
  5
A368
330
A329
100
AcDbEntity
  8
0
100
AcDbEllipse
 10
3.308075034779776
 20
-104.2346375087748
 30
0.0
 11
1.0
 21
-1.732050807568879
 31
0.0
210
0.0
220
0.0
230
0.9999999999999998
 40
0.5773502691896257
 41
5.497787143782142
 42
7.068583470577038
  0
LINE
  5
A369
330
A329
100
AcDbEntity
  8
0
100
AcDbLine
 10
66.94768534156906
 20
-63.76702571654437
 30
0.0
 11
66.94768534156906
 21
64.78015474326449
 31
0.0
  0
ELLIPSE
  5
A36A
330
A329
100
AcDbEntity
  8
0
100
AcDbEllipse
 10
65.53347177919597
 20
63.96365816233675
 30
0.0
 11
-2.000000000000001
 21
-0.0000000000001189
 31
0.0
210
0.0
220
0.0
230
1.0
 40
0.5773502691896259
 41
3.926990816986995
 42
5.497787143781897
  0
LINE
  5
A36B
330
A329
100
AcDbEntity
  8
0
100
AcDbLine
 10
94.87840319843769
 20
50.28734043179735
 30
0.0
 11
93.4641896360646
 21
49.47084385086961
 31
0.0
  0
LINE
  5
A36C
330
A329
100
AcDbEntity
  8
0
100
AcDbLine
 10
93.46418963606465
 20
-54.22422192695165
 30
0.0
 11
93.4641896360646
 21
49.47084385086961
 31
0.0
  0
LINE
  5
A36D
330
A329
100
AcDbEntity
  8
0
100
AcDbLine
 10
64.11925821682288
 20
64.78015474326449
 30
0.0
 11
62.70504465444979
 21
65.59665132419221
 31
0.0
  0
LINE
  5
A36E
330
A329
100
AcDbEntity
  8
0
100
AcDbLine
 10
66.94768534156906
 20
64.78015474326449
 30
0.0
 11
68.36189890394217
 21
65.59665132419221
 31
0.0
  0
LINE
  5
A36F
330
A329
100
AcDbEntity
  8
0
100
AcDbLine
 10
93.4641896360646
 20
49.47084385086961
 30
0.0
 11
66.94768534156906
 21
64.78015474326449
 31
0.0
  0
ELLIPSE
  5
A370
330
A329
100
AcDbEntity
  8
0
100
AcDbEllipse
 10
79.67560740292694
 20
41.10175389636044
 30
0.0
 11
-3.249999999999999
 21
5.629165124598853
 31
0.0
210
0.0
220
0.0
230
1.0
 40
0.5773502691896258
 41
0.0
 42
6.283185307179586
  0
ELLIPSE
  5
A371
330
A329
100
AcDbEntity
  8
0
100
AcDbEllipse
 10
87.45378199597896
 20
48.85847141517382
 30
0.0
 11
-1.249999999999999
 21
2.165063509461097
 31
0.0
210
0.0
220
0.0
230
1.0
 40
0.5773502691896259
 41
0.0
 42
6.283185307179586
  0
LINE
  5
A372
330
A329
100
AcDbEntity
  8
0
100
AcDbLine
 10
5.308075034779782
 20
-107.6987391239126
 30
0.0
 11
64.70504465444981
 21
-73.4058827249481
 31
0.0
  0
ELLIPSE
  5
A373
330
A329
100
AcDbEntity
  8
0
100
AcDbEllipse
 10
81.08982096530002
 20
-39.73140761548447
 30
0.0
 11
-3.25
 21
5.629165124598854
 31
0.0
210
0.0
220
0.0
230
1.0
 40
0.5773502691896257
 41
0.2193254863005918
 42
2.9222671672892
  0
ELLIPSE
  5
A374
330
A329
100
AcDbEntity
  8
0
100
AcDbEllipse
 10
79.67560740292694
 20
-40.54790419641219
 30
0.0
 11
-3.249999999999999
 21
5.629165124598853
 31
0.0
210
0.0
220
0.0
230
1.0
 40
0.5773502691896258
 41
0.0
 42
6.283185307179586
  0
ELLIPSE
  5
A375
330
A329
100
AcDbEntity
  8
0
100
AcDbEllipse
 10
73.31164637224801
 20
-47.48812513429786
 30
0.0
 11
1.250000000000128
 21
-2.165063509461023
 31
0.0
210
0.0
220
0.0
230
0.9999999999999998
 40
0.5773502691896258
 41
3.742856870268578
 42
5.681921090500122
  0
ELLIPSE
  5
A376
330
A329
100
AcDbEntity
  8
0
100
AcDbEllipse
 10
73.31164637224801
 20
-31.15819351574334
 30
0.0
 11
1.250000000000128
 21
-2.165063509461023
 31
0.0
210
0.0
220
0.0
230
0.9999999999999998
 40
0.5773502691896258
 41
3.742856870268578
 42
5.681921090500122
  0
ELLIPSE
  5
A377
330
A329
100
AcDbEntity
  8
0
100
AcDbEllipse
 10
73.31164637224801
 20
-14.82826189718881
 30
0.0
 11
1.250000000000128
 21
-2.165063509461023
 31
0.0
210
0.0
220
0.0
230
0.9999999999999998
 40
0.5773502691896258
 41
3.742856870268578
 42
5.681921090500122
  0
ELLIPSE
  5
A378
330
A329
100
AcDbEntity
  8
0
100
AcDbEllipse
 10
73.31164637224801
 20
1.501669721365708
 30
0.0
 11
1.250000000000128
 21
-2.165063509461023
 31
0.0
210
0.0
220
0.0
230
0.9999999999999998
 40
0.5773502691896258
 41
3.742856870268578
 42
5.681921090500122
  0
ELLIPSE
  5
A379
330
A329
100
AcDbEntity
  8
0
100
AcDbEllipse
 10
73.31164637224801
 20
17.83160133992023
 30
0.0
 11
1.250000000000128
 21
-2.165063509461023
 31
0.0
210
0.0
220
0.0
230
0.9999999999999998
 40
0.5773502691896258
 41
3.742856870268578
 42
5.681921090500122
  0
ELLIPSE
  5
A37A
330
A329
100
AcDbEntity
  8
0
100
AcDbEllipse
 10
73.31164637224801
 20
34.16153295847476
 30
0.0
 11
1.250000000000128
 21
-2.165063509461023
 31
0.0
210
0.0
220
0.0
230
0.9999999999999998
 40
0.5773502691896258
 41
3.742856870268578
 42
5.681921090500122
  0
ELLIPSE
  5
A37B
330
A329
100
AcDbEntity
  8
0
100
AcDbEllipse
 10
71.89743280987491
 20
-48.30462171522558
 30
0.0
 11
-1.249999999999999
 21
2.165063509461097
 31
0.0
210
0.0
220
0.0
230
1.0
 40
0.5773502691896259
 41
0.0
 42
6.283185307179586
  0
ELLIPSE
  5
A37C
330
A329
100
AcDbEntity
  8
0
100
AcDbEllipse
 10
71.89743280987491
 20
-31.97469009667107
 30
0.0
 11
-1.249999999999999
 21
2.165063509461097
 31
0.0
210
0.0
220
0.0
230
1.0
 40
0.5773502691896259
 41
0.0
 42
6.283185307179586
  0
ELLIPSE
  5
A37D
330
A329
100
AcDbEntity
  8
0
100
AcDbEllipse
 10
71.89743280987491
 20
-15.64475847811654
 30
0.0
 11
-1.249999999999999
 21
2.165063509461097
 31
0.0
210
0.0
220
0.0
230
1.0
 40
0.5773502691896259
 41
0.0
 42
6.283185307179586
  0
ELLIPSE
  5
A37E
330
A329
100
AcDbEntity
  8
0
100
AcDbEllipse
 10
71.89743280987491
 20
0.6851731404379891
 30
0.0
 11
-1.249999999999999
 21
2.165063509461097
 31
0.0
210
0.0
220
0.0
230
1.0
 40
0.5773502691896259
 41
0.0
 42
6.283185307179586
  0
ELLIPSE
  5
A37F
330
A329
100
AcDbEntity
  8
0
100
AcDbEllipse
 10
71.89743280987491
 20
17.01510475899251
 30
0.0
 11
-1.249999999999999
 21
2.165063509461097
 31
0.0
210
0.0
220
0.0
230
1.0
 40
0.5773502691896259
 41
0.0
 42
6.283185307179586
  0
ELLIPSE
  5
A380
330
A329
100
AcDbEntity
  8
0
100
AcDbEllipse
 10
71.89743280987491
 20
33.34503637754704
 30
0.0
 11
-1.249999999999999
 21
2.165063509461097
 31
0.0
210
0.0
220
0.0
230
1.0
 40
0.5773502691896259
 41
0.0
 42
6.283185307179586
  0
ELLIPSE
  5
A381
330
A329
100
AcDbEntity
  8
0
100
AcDbEllipse
 10
73.31164637224801
 20
50.49146457702928
 30
0.0
 11
1.250000000000128
 21
-2.165063509461023
 31
0.0
210
0.0
220
0.0
230
0.9999999999999998
 40
0.5773502691896258
 41
3.742856870268578
 42
5.681921090500122
  0
ELLIPSE
  5
A382
330
A329
100
AcDbEntity
  8
0
100
AcDbEllipse
 10
71.89743280987491
 20
49.67496799610156
 30
0.0
 11
-1.249999999999999
 21
2.165063509461097
 31
0.0
210
0.0
220
0.0
230
1.0
 40
0.5773502691896259
 41
0.0
 42
6.283185307179586
  0
ELLIPSE
  5
A383
330
A329
100
AcDbEntity
  8
0
100
AcDbEllipse
 10
88.86799555835205
 20
-48.30462171522559
 30
0.0
 11
1.250000000000128
 21
-2.165063509461023
 31
0.0
210
0.0
220
0.0
230
0.9999999999999998
 40
0.5773502691896258
 41
3.742856870268573
 42
5.681921090500112
  0
ELLIPSE
  5
A384
330
A329
100
AcDbEntity
  8
0
100
AcDbEllipse
 10
88.86799555835205
 20
-31.97469009667107
 30
0.0
 11
1.250000000000128
 21
-2.165063509461023
 31
0.0
210
0.0
220
0.0
230
0.9999999999999998
 40
0.5773502691896258
 41
3.742856870268575
 42
5.681921090500112
  0
ELLIPSE
  5
A385
330
A329
100
AcDbEntity
  8
0
100
AcDbEllipse
 10
88.86799555835205
 20
-15.64475847811654
 30
0.0
 11
1.250000000000128
 21
-2.165063509461023
 31
0.0
210
0.0
220
0.0
230
0.9999999999999998
 40
0.5773502691896258
 41
3.742856870268575
 42
5.681921090500112
  0
ELLIPSE
  5
A386
330
A329
100
AcDbEntity
  8
0
100
AcDbEllipse
 10
88.86799555835205
 20
0.6851731404379802
 30
0.0
 11
1.250000000000128
 21
-2.165063509461023
 31
0.0
210
0.0
220
0.0
230
0.9999999999999998
 40
0.5773502691896258
 41
3.742856870268576
 42
5.681921090500111
  0
ELLIPSE
  5
A387
330
A329
100
AcDbEntity
  8
0
100
AcDbEllipse
 10
88.86799555835205
 20
17.0151047589925
 30
0.0
 11
1.250000000000128
 21
-2.165063509461023
 31
0.0
210
0.0
220
0.0
230
0.9999999999999998
 40
0.5773502691896258
 41
3.742856870268575
 42
5.681921090500112
  0
ELLIPSE
  5
A388
330
A329
100
AcDbEntity
  8
0
100
AcDbEllipse
 10
88.86799555835205
 20
33.34503637754704
 30
0.0
 11
1.250000000000128
 21
-2.165063509461023
 31
0.0
210
0.0
220
0.0
230
0.9999999999999998
 40
0.5773502691896258
 41
3.742856870268575
 42
5.681921090500112
  0
ELLIPSE
  5
A389
330
A329
100
AcDbEntity
  8
0
100
AcDbEllipse
 10
-29.92594368098794
 20
100.2977560136206
 30
0.0
 11
1.25
 21
-2.165063509461097
 31
0.0
210
0.0
220
0.0
230
1.0
 40
0.5773502691896259
 41
0.0
 42
6.283185307179586
  0
ELLIPSE
  5
A38A
330
A329
100
AcDbEntity
  8
0
100
AcDbEllipse
 10
-28.51173011861485
 20
101.1142525945483
 30
0.0
 11
1.250000000000129
 21
-2.165063509461022
 31
0.0
210
0.0
220
0.0
230
0.9999999999999998
 40
0.577350269189626
 41
3.742856870268576
 42
5.681921090500114
  0
ELLIPSE
  5
A38B
330
A329
100
AcDbEntity
  8
0
100
AcDbEllipse
 10
87.45378199597896
 20
-49.12111829615333
 30
0.0
 11
-1.249999999999999
 21
2.165063509461097
 31
0.0
210
0.0
220
0.0
230
1.0
 40
0.5773502691896259
 41
0.0
 42
6.283185307179586
  0
ELLIPSE
  5
A38C
330
A329
100
AcDbEntity
  8
0
100
AcDbEllipse
 10
87.45378199597896
 20
-32.7911866775988
 30
0.0
 11
-1.249999999999999
 21
2.165063509461097
 31
0.0
210
0.0
220
0.0
230
1.0
 40
0.5773502691896259
 41
0.0
 42
6.283185307179586
  0
ELLIPSE
  5
A38D
330
A329
100
AcDbEntity
  8
0
100
AcDbEllipse
 10
87.45378199597896
 20
-16.46125505904427
 30
0.0
 11
-1.249999999999999
 21
2.165063509461097
 31
0.0
210
0.0
220
0.0
230
1.0
 40
0.5773502691896259
 41
0.0
 42
6.283185307179586
  0
ELLIPSE
  5
A38E
330
A329
100
AcDbEntity
  8
0
100
AcDbEllipse
 10
87.45378199597896
 20
-0.1313234404897479
 30
0.0
 11
-1.249999999999999
 21
2.165063509461097
 31
0.0
210
0.0
220
0.0
230
1.0
 40
0.5773502691896259
 41
0.0
 42
6.283185307179586
  0
ELLIPSE
  5
A38F
330
A329
100
AcDbEntity
  8
0
100
AcDbEllipse
 10
87.45378199597896
 20
16.19860817806477
 30
0.0
 11
-1.249999999999999
 21
2.165063509461097
 31
0.0
210
0.0
220
0.0
230
1.0
 40
0.5773502691896259
 41
0.0
 42
6.283185307179586
  0
ELLIPSE
  5
A390
330
A329
100
AcDbEntity
  8
0
100
AcDbEllipse
 10
87.45378199597896
 20
32.5285397966193
 30
0.0
 11
-1.249999999999999
 21
2.165063509461097
 31
0.0
210
0.0
220
0.0
230
1.0
 40
0.5773502691896259
 41
0.0
 42
6.283185307179586
  0
ELLIPSE
  5
A391
330
A329
100
AcDbEntity
  8
0
100
AcDbEllipse
 10
-22.14776908793592
 20
99.88950772315673
 30
0.0
 11
-3.250000000000003
 21
5.629165124598848
 31
0.0
210
0.0
220
0.0
230
1.0
 40
0.577350269189626
 41
4.71238898038469
 42
7.853981633974483
  0
ELLIPSE
  5
A392
330
A329
100
AcDbEntity
  8
0
100
AcDbEllipse
 10
-20.73355552556283
 20
100.7060043040844
 30
0.0
 11
-3.250000000000003
 21
5.629165124598854
 31
0.0
210
0.0
220
0.0
230
1.0
 40
0.5773502691896259
 41
0.219325486300593
 42
1.570796326794897
  0
ELLIPSE
  5
A393
330
A329
100
AcDbEntity
  8
0
100
AcDbEllipse
 10
-29.92594368098794
 20
116.6276876321751
 30
0.0
 11
1.25
 21
-2.165063509461097
 31
0.0
210
0.0
220
0.0
230
1.0
 40
0.5773502691896259
 41
0.0
 42
6.283185307179586
  0
ELLIPSE
  5
A394
330
A329
100
AcDbEntity
  8
0
100
AcDbEllipse
 10
-28.51173011861485
 20
117.4441842131028
 30
0.0
 11
1.250000000000129
 21
-2.165063509461022
 31
0.0
210
0.0
220
0.0
230
0.9999999999999998
 40
0.577350269189626
 41
3.742856870268576
 42
5.681921090500114
  0
LINE
  5
A395
330
A329
100
AcDbEntity
  8
0
100
AcDbLine
 10
-9.419847026578072
 20
107.2379769515062
 30
0.0
 11
-9.419847026578068
 21
108.8709701133617
 31
0.0
  0
ELLIPSE
  5
A396
330
A329
100
AcDbEntity
  8
0
100
AcDbEllipse
 10
-10.83406058895116
 20
108.054473532434
 30
0.0
 11
2.000000000000001
 21
0.0
 31
0.0
210
0.0
220
0.0
230
1.0
 40
0.5773502691896259
 41
5.497787143782129
 42
7.068583470577027
  0
LINE
  5
A397
330
A329
100
AcDbEntity
  8
0
100
AcDbLine
 10
-8.00563346420497
 20
106.4214803705785
 30
0.0
 11
-8.00563346420497
 21
-22.12570008923034
 31
0.0
  0
ELLIPSE
  5
A398
330
A329
100
AcDbEntity
  8
0
100
AcDbEllipse
 10
-10.83406058895116
 20
108.054473532434
 30
0.0
 11
4.000000000000003
 21
-0.0000000000000001
 31
0.0
210
0.0
220
0.0
230
1.0
 40
0.5773502691896259
 41
5.497787143782137
 42
7.068583470577035
  0
LINE
  5
A399
330
A329
100
AcDbEntity
  8
0
100
AcDbLine
 10
-9.419847026578068
 20
108.8709701133617
 30
0.0
 11
-8.00563346420497
 21
109.6874666942894
 31
0.0
  0
LINE
  5
A39A
330
A329
100
AcDbEntity
  8
0
100
AcDbLine
 10
-9.419847026578068
 20
107.2379769515062
 30
0.0
 11
-8.00563346420497
 21
106.4214803705785
 31
0.0
  0
LINE
  5
A39B
330
A329
100
AcDbEntity
  8
0
100
AcDbLine
 10
-6.834060588951169
 20
-20.49270692737488
 30
0.0
 11
-6.834060588951169
 21
108.054473532434
 31
0.0
  0
LINE
  5
A39C
330
A329
100
AcDbEntity
  8
0
100
AcDbLine
 10
-35.9363513210736
 20
124.1802810057565
 30
0.0
 11
-9.419847026578068
 21
108.8709701133617
 31
0.0
  0
LINE
  5
A39D
330
A329
100
AcDbEntity
  8
0
100
AcDbLine
 10
-35.93635132107364
 20
91.92866605911142
 30
0.0
 11
-35.9363513210736
 21
124.1802810057565
 31
0.0
  0
LINE
  5
A39E
330
A329
100
AcDbEntity
  8
0
100
AcDbLine
 10
-65.98838952150186
 20
-64.22630504331627
 30
0.0
 11
-65.98838952150188
 21
-57.69433239589448
 31
0.0
  0
LINE
  5
A39F
330
A329
100
AcDbEntity
  8
0
100
AcDbLine
 10
-37.70411827403996
 20
89.27505217109626
 30
0.0
 11
-8.00563346420497
 21
106.4214803705785
 31
0.0
  0
LINE
  5
A3A0
330
A329
100
AcDbEntity
  8
0
100
AcDbLine
 10
-67.40260308387497
 20
-56.87783581496676
 30
0.0
 11
-67.40260308387494
 21
-63.40980846238855
 31
0.0
  0
LINE
  5
A3A1
330
A329
100
AcDbEntity
  8
0
100
AcDbLine
 10
-9.419847026578068
 20
107.2379769515062
 30
0.0
 11
-39.11833183641306
 21
90.09154875202398
 31
0.0
  0
LINE
  5
A3A2
330
A329
100
AcDbEntity
  8
0
100
AcDbLine
 10
-8.00563346420497
 20
109.6874666942894
 30
0.0
 11
-34.52213775870051
 21
124.9967775866843
 31
0.0
  0
LINE
  5
A3A3
330
A329
100
AcDbEntity
  8
0
100
AcDbLine
 10
-34.52213775870051
 20
124.9967775866843
 30
0.0
 11
-35.9363513210736
 21
124.1802810057565
 31
0.0
  0
ELLIPSE
  5
A3A4
330
A329
100
AcDbEntity
  8
0
100
AcDbEllipse
 10
38.30986070351387
 20
-58.71495312205412
 30
0.0
 11
1.24999999999987
 21
2.165063509461172
 31
0.0
210
0.0
220
0.0
230
1.0
 40
0.5773502691896259
 41
3.742856870268578
 42
5.681921090500117
  0
ELLIPSE
  5
A3A5
330
A329
100
AcDbEntity
  8
0
100
AcDbEllipse
 10
39.72407426588697
 20
-59.53144970298184
 30
0.0
 11
-1.25
 21
-2.165063509461097
 31
0.0
210
0.0
220
0.0
230
1.0
 40
0.5773502691896258
 41
0.0
 42
6.283185307179586
  0
ELLIPSE
  5
A3A6
330
A329
100
AcDbEntity
  8
0
100
AcDbEllipse
 10
38.30986070351387
 20
-42.38502150349959
 30
0.0
 11
1.24999999999987
 21
2.165063509461172
 31
0.0
210
0.0
220
0.0
230
1.0
 40
0.5773502691896259
 41
3.742856870268578
 42
5.681921090500117
  0
ELLIPSE
  5
A3A7
330
A329
100
AcDbEntity
  8
0
100
AcDbEllipse
 10
39.72407426588697
 20
-43.20151808442732
 30
0.0
 11
-1.25
 21
-2.165063509461097
 31
0.0
210
0.0
220
0.0
230
1.0
 40
0.5773502691896258
 41
0.0
 42
6.283185307179586
  0
ELLIPSE
  5
A3A8
330
A329
100
AcDbEntity
  8
0
100
AcDbEllipse
 10
38.30986070351387
 20
-26.05508988494507
 30
0.0
 11
1.24999999999987
 21
2.165063509461172
 31
0.0
210
0.0
220
0.0
230
1.0
 40
0.5773502691896259
 41
3.742856870268578
 42
5.681921090500117
  0
ELLIPSE
  5
A3A9
330
A329
100
AcDbEntity
  8
0
100
AcDbEllipse
 10
39.72407426588697
 20
-26.8715864658728
 30
0.0
 11
-1.25
 21
-2.165063509461097
 31
0.0
210
0.0
220
0.0
230
1.0
 40
0.5773502691896258
 41
0.0
 42
6.283185307179586
  0
ELLIPSE
  5
A3AA
330
A329
100
AcDbEntity
  8
0
100
AcDbEllipse
 10
38.30986070351387
 20
-9.725158266390545
 30
0.0
 11
1.24999999999987
 21
2.165063509461172
 31
0.0
210
0.0
220
0.0
230
1.0
 40
0.5773502691896259
 41
3.742856870268578
 42
5.681921090500117
  0
ELLIPSE
  5
A3AB
330
A329
100
AcDbEntity
  8
0
100
AcDbEllipse
 10
39.72407426588697
 20
-10.54165484731827
 30
0.0
 11
-1.25
 21
-2.165063509461097
 31
0.0
210
0.0
220
0.0
230
1.0
 40
0.5773502691896258
 41
0.0
 42
6.283185307179586
  0
ELLIPSE
  5
A3AC
330
A329
100
AcDbEntity
  8
0
100
AcDbEllipse
 10
38.30986070351387
 20
6.604773352163979
 30
0.0
 11
1.24999999999987
 21
2.165063509461172
 31
0.0
210
0.0
220
0.0
230
1.0
 40
0.5773502691896259
 41
3.742856870268578
 42
5.681921090500117
  0
ELLIPSE
  5
A3AD
330
A329
100
AcDbEntity
  8
0
100
AcDbEllipse
 10
39.72407426588697
 20
5.788276771236251
 30
0.0
 11
-1.25
 21
-2.165063509461097
 31
0.0
210
0.0
220
0.0
230
1.0
 40
0.5773502691896258
 41
0.0
 42
6.283185307179586
  0
ELLIPSE
  5
A3AE
330
A329
100
AcDbEntity
  8
0
100
AcDbEllipse
 10
38.30986070351387
 20
22.93470497071851
 30
0.0
 11
1.24999999999987
 21
2.165063509461172
 31
0.0
210
0.0
220
0.0
230
1.0
 40
0.5773502691896259
 41
3.742856870268578
 42
5.681921090500117
  0
ELLIPSE
  5
A3AF
330
A329
100
AcDbEntity
  8
0
100
AcDbEllipse
 10
39.72407426588697
 20
22.11820838979078
 30
0.0
 11
-1.25
 21
-2.165063509461097
 31
0.0
210
0.0
220
0.0
230
1.0
 40
0.5773502691896258
 41
0.0
 42
6.283185307179586
  0
ELLIPSE
  5
A3B0
330
A329
100
AcDbEntity
  8
0
100
AcDbEllipse
 10
-33.81503097751395
 20
-25.23859330401734
 30
0.0
 11
1.24999999999987
 21
2.165063509461172
 31
0.0
210
0.0
220
0.0
230
1.0
 40
0.5773502691896255
 41
3.742856870268578
 42
5.681921090500114
  0
ELLIPSE
  5
A3B1
330
A329
100
AcDbEntity
  8
0
100
AcDbEllipse
 10
-32.40081741514086
 20
-26.05508988494507
 30
0.0
 11
1.249999999999999
 21
2.165063509461097
 31
0.0
210
0.0
220
0.0
230
1.0
 40
0.5773502691896257
 41
0.0
 42
6.283185307179586
  0
ELLIPSE
  5
A3B2
330
A329
100
AcDbEntity
  8
0
100
AcDbEllipse
 10
-33.81503097751395
 20
-8.908661685462817
 30
0.0
 11
1.24999999999987
 21
2.165063509461172
 31
0.0
210
0.0
220
0.0
230
1.0
 40
0.5773502691896255
 41
3.742856870268578
 42
5.681921090500114
  0
ELLIPSE
  5
A3B3
330
A329
100
AcDbEntity
  8
0
100
AcDbEllipse
 10
-32.40081741514086
 20
-9.725158266390536
 30
0.0
 11
1.249999999999999
 21
2.165063509461097
 31
0.0
210
0.0
220
0.0
230
1.0
 40
0.5773502691896257
 41
0.0
 42
6.283185307179586
  0
ELLIPSE
  5
A3B4
330
A329
100
AcDbEntity
  8
0
100
AcDbEllipse
 10
-33.81503097751395
 20
7.421269933091707
 30
0.0
 11
1.24999999999987
 21
2.165063509461172
 31
0.0
210
0.0
220
0.0
230
1.0
 40
0.5773502691896255
 41
3.742856870268578
 42
5.681921090500114
  0
ELLIPSE
  5
A3B5
330
A329
100
AcDbEntity
  8
0
100
AcDbEllipse
 10
-32.40081741514086
 20
6.604773352163988
 30
0.0
 11
1.249999999999999
 21
2.165063509461097
 31
0.0
210
0.0
220
0.0
230
1.0
 40
0.5773502691896257
 41
0.0
 42
6.283185307179586
  0
ELLIPSE
  5
A3B6
330
A329
100
AcDbEntity
  8
0
100
AcDbEllipse
 10
-33.81503097751395
 20
23.75120155164623
 30
0.0
 11
1.24999999999987
 21
2.165063509461172
 31
0.0
210
0.0
220
0.0
230
1.0
 40
0.5773502691896255
 41
3.742856870268578
 42
5.681921090500117
  0
ELLIPSE
  5
A3B7
330
A329
100
AcDbEntity
  8
0
100
AcDbEllipse
 10
-32.40081741514086
 20
22.93470497071851
 30
0.0
 11
1.249999999999999
 21
2.165063509461097
 31
0.0
210
0.0
220
0.0
230
1.0
 40
0.5773502691896257
 41
0.0
 42
6.283185307179586
  0
ELLIPSE
  5
A3B8
330
A329
100
AcDbEntity
  8
0
100
AcDbEllipse
 10
-33.81503097751395
 20
40.08113317020075
 30
0.0
 11
1.24999999999987
 21
2.165063509461172
 31
0.0
210
0.0
220
0.0
230
1.0
 40
0.5773502691896255
 41
3.742856870268578
 42
5.681921090500117
  0
ELLIPSE
  5
A3B9
330
A329
100
AcDbEntity
  8
0
100
AcDbEllipse
 10
-32.40081741514086
 20
39.26463658927304
 30
0.0
 11
1.249999999999999
 21
2.165063509461097
 31
0.0
210
0.0
220
0.0
230
1.0
 40
0.5773502691896257
 41
0.0
 42
6.283185307179586
  0
ELLIPSE
  5
A3BA
330
A329
100
AcDbEntity
  8
0
100
AcDbEllipse
 10
-33.81503097751395
 20
56.41106478875528
 30
0.0
 11
1.24999999999987
 21
2.165063509461172
 31
0.0
210
0.0
220
0.0
230
1.0
 40
0.5773502691896255
 41
3.742856870268578
 42
5.681921090500117
  0
ELLIPSE
  5
A3BB
330
A329
100
AcDbEntity
  8
0
100
AcDbEllipse
 10
-32.40081741514086
 20
55.59456820782756
 30
0.0
 11
1.249999999999999
 21
2.165063509461097
 31
0.0
210
0.0
220
0.0
230
1.0
 40
0.5773502691896257
 41
0.0
 42
6.283185307179586
  0
ELLIPSE
  5
A3BC
330
A329
100
AcDbEntity
  8
0
100
AcDbEllipse
 10
-33.81503097751395
 20
72.7409964073098
 30
0.0
 11
1.24999999999987
 21
2.165063509461172
 31
0.0
210
0.0
220
0.0
230
1.0
 40
0.5773502691896255
 41
3.742856870268578
 42
5.681921090500117
  0
ELLIPSE
  5
A3BD
330
A329
100
AcDbEntity
  8
0
100
AcDbEllipse
 10
-32.40081741514086
 20
71.92449982638208
 30
0.0
 11
1.249999999999999
 21
2.165063509461097
 31
0.0
210
0.0
220
0.0
230
1.0
 40
0.5773502691896257
 41
0.0
 42
6.283185307179586
  0
ELLIPSE
  5
A3BE
330
A329
100
AcDbEntity
  8
0
100
AcDbEllipse
 10
-33.81503097751395
 20
89.07092802586433
 30
0.0
 11
1.24999999999987
 21
2.165063509461172
 31
0.0
210
0.0
220
0.0
230
1.0
 40
0.5773502691896255
 41
3.74285687026858
 42
5.681921090500102
  0
ELLIPSE
  5
A3BF
330
A329
100
AcDbEntity
  8
0
100
AcDbEllipse
 10
-32.40081741514086
 20
88.25443144493661
 30
0.0
 11
1.249999999999999
 21
2.165063509461097
 31
0.0
210
0.0
220
0.0
230
1.0
 40
0.5773502691896257
 41
0.0
 42
6.283185307179586
  0
LINE
  5
A3C0
330
A329
100
AcDbEntity
  8
0
100
AcDbLine
 10
-37.70411827403997
 20
-14.42001360672501
 30
0.0
 11
-65.98838952150188
 21
-57.69433239589448
 31
0.0
  0
LINE
  5
A3C1
330
A329
100
AcDbEntity
  8
0
100
AcDbLine
 10
-39.11833183641308
 20
-13.60351702579728
 30
0.0
 11
-37.70411827403997
 21
-14.42001360672501
 31
0.0
  0
LINE
  5
A3C2
330
A329
100
AcDbEntity
  8
0
100
AcDbLine
 10
-67.40260308387497
 20
-56.87783581496676
 30
0.0
 11
-39.11833183641308
 21
-13.60351702579727
 31
0.0
  0
LINE
  5
A3C3
330
A329
100
AcDbEntity
  8
0
100
AcDbLine
 10
-65.98838952150188
 20
-57.69433239589448
 30
0.0
 11
-67.40260308387497
 21
-56.87783581496676
 31
0.0
  0
LINE
  5
A3C4
330
A329
100
AcDbEntity
  8
0
100
AcDbLine
 10
-37.70411827403996
 20
89.27505217109626
 30
0.0
 11
-37.70411827403997
 21
-14.42001360672501
 31
0.0
  0
LINE
  5
A3C5
330
A329
100
AcDbEntity
  8
0
100
AcDbLine
 10
-39.11833183641306
 20
90.09154875202398
 30
0.0
 11
-37.70411827403996
 21
89.27505217109626
 31
0.0
  0
LINE
  5
A3C6
330
A329
100
AcDbEntity
  8
0
100
AcDbLine
 10
-39.11833183641308
 20
-13.60351702579728
 30
0.0
 11
-39.11833183641306
 21
90.09154875202398
 31
0.0
  0
ENDBLK
  5
A32B
330
A329
100
AcDbEntity
  8
0
100
AcDbBlockEnd
  0
ENDSEC
  0
SECTION
  2
ENTITIES
  0
INSERT
  5
A3C7
330
1F
100
AcDbEntity
  8
0
100
AcDbBlockReference
  2
SAE440_100_2-Front
 10
0.0
 20
0.0
 30
0.0
  0
INSERT
  5
A3C8
330
1F
100
AcDbEntity
  8
0
100
AcDbBlockReference
  2
SAE440_100_2-Left
 10
143.1
 20
0.0
 30
0.0
  0
INSERT
  5
A3C9
330
1F
100
AcDbEntity
  8
0
100
AcDbBlockReference
  2
SAE440_100_2-Right
 10
-143.1
 20
0.0
 30
0.0
  0
INSERT
  5
A3CA
330
1F
100
AcDbEntity
  8
0
100
AcDbBlockReference
  2
SAE440_100_2-Top
 10
0.0
 20
-53.6
 30
0.0
  0
INSERT
  5
A3CB
330
1F
100
AcDbEntity
  8
0
100
AcDbBlockReference
  2
SAE440_100_2-Bottom
 10
0.0
 20
221.6
 30
0.0
  0
INSERT
  5
A3CC
330
1F
100
AcDbEntity
  8
0
100
AcDbBlockReference
  2
SAE440_100_2-ISO
 10
210.5026030838751
 20
-178.5967775866843
 30
0.0
  0
MTEXT
  5
A3CD
330
1F
100
AcDbEntity
  8
0
100
AcDbMText
 10
0.0
 20
-191.2
 30
0.0
 40
15.9
 41
0.0
 71
     5
 72
     5
  1
SAE440/100/2
 73
     1
 44
1.0
1001
ACAD
1000
MTEXTBEGIN
1070
    73
1070
     1
1070
    44
1040
1.0
1070
    74
1070
     0
1000
MTEXTEND
  0
ENDSEC
  0
SECTION
  2
OBJECTS
  0
DICTIONARY
  5
C
330
0
100
AcDbDictionary
281
     1
  3
ACAD_CIP_PREVIOUS_PRODUCT_INFO
350
216
  3
ACAD_COLOR
350
6B
  3
ACAD_DETAILVIEWSTYLE
350
21B
  3
ACAD_GROUP
350
D
  3
ACAD_LAYOUT
350
1A
  3
ACAD_MATERIAL
350
6A
  3
ACAD_MLEADERSTYLE
350
12D
  3
ACAD_MLINESTYLE
350
17
  3
ACAD_PLOTSETTINGS
350
19
  3
ACAD_PLOTSTYLENAME
350
E
  3
ACAD_SCALELIST
350
10C
  3
ACAD_SECTIONVIEWSTYLE
350
219
  3
ACAD_TABLESTYLE
350
7E
  3
ACAD_VISUALSTYLE
350
EF
  3
ACDB_RECOMPOSE_DATA
350
A4CE
  3
AcDbVariableDictionary
350
5E
  3
DWGPROPS
350
A4CF
  0
DICTIONARY
  5
A41E
330
8
100
AcDbDictionary
280
     1
281
     1
  0
DICTIONARY
  5
1FF
330
2
100
AcDbDictionary
280
     1
281
     1
  3
ACAD_LAYERSTATES
360
200
  0
DICTIONARY
  5
13C
330
10
100
AcDbDictionary
280
     1
281
     1
  0
DICTIONARY
  5
1CE
330
1F
100
AcDbDictionary
280
     1
281
     1
  3
ACAD_LAYOUTSELFREF
360
A426
  0
DICTIONARY
  5
A3D1
330
D2
100
AcDbDictionary
280
     1
281
     1
  3
ACAD_LAYOUTSELFREF
360
A42F
  0
DICTIONARY
  5
A3D3
330
D6
100
AcDbDictionary
280
     1
281
     1
  3
ACAD_LAYOUTSELFREF
360
A432
  0
XRECORD
  5
216
102
{ACAD_REACTORS
330
C
102
}
330
C
100
AcDbXrecord
280
     1
300
ACD
300
2021
300
87393ACD_2021_0F
  0
DICTIONARY
  5
6B
102
{ACAD_REACTORS
330
C
102
}
330
C
100
AcDbDictionary
281
     1
  0
DICTIONARY
  5
21B
102
{ACAD_REACTORS
330
C
102
}
330
C
100
AcDbDictionary
281
     1
  3
Metric50
350
21C
  0
DICTIONARY
  5
D
102
{ACAD_REACTORS
330
C
102
}
330
C
100
AcDbDictionary
281
     1
  0
DICTIONARY
  5
1A
102
{ACAD_REACTORS
330
C
102
}
330
C
100
AcDbDictionary
281
     1
  3
Layout1
350
D3
  3
Layout2
350
D7
  3
Model
350
22
  0
DICTIONARY
  5
6A
102
{ACAD_REACTORS
330
C
102
}
330
C
100
AcDbDictionary
281
     1
  3
ByBlock
350
ED
  3
ByLayer
350
EC
  3
Global
350
EE
  0
DICTIONARY
  5
12D
102
{ACAD_REACTORS
330
C
102
}
330
C
100
AcDbDictionary
281
     1
  3
Standard
350
12E
  0
DICTIONARY
  5
17
102
{ACAD_REACTORS
330
C
102
}
330
C
100
AcDbDictionary
281
     1
  3
Standard
350
18
  0
DICTIONARY
  5
19
102
{ACAD_REACTORS
330
C
102
}
330
C
100
AcDbDictionary
281
     1
  0
ACDBDICTIONARYWDFLT
  5
E
102
{ACAD_REACTORS
330
C
102
}
330
C
100
AcDbDictionary
281
     1
  3
Normal
350
F
100
AcDbDictionaryWithDefault
340
F
  0
DICTIONARY
  5
10C
102
{ACAD_REACTORS
330
C
102
}
330
C
100
AcDbDictionary
281
     1
  3
A0
350
10D
  3
A1
350
1BE
  3
A2
350
1BF
  3
A3
350
1C0
  3
A4
350
1C1
  3
A5
350
1C2
  3
A6
350
1C3
  3
A7
350
1C4
  3
A8
350
1C5
  3
A9
350
1C6
  3
B0
350
1C7
  3
B1
350
1C8
  3
B2
350
1C9
  3
B3
350
1CA
  3
B4
350
1CB
  3
B5
350
1CC
  3
B6
350
1CD
  0
DICTIONARY
  5
219
102
{ACAD_REACTORS
330
C
102
}
330
C
100
AcDbDictionary
281
     1
  3
Metric50
350
21A
  0
DICTIONARY
  5
7E
102
{ACAD_REACTORS
330
C
102
}
330
C
100
AcDbDictionary
281
     1
  3
Standard
350
7F
  0
DICTIONARY
  5
EF
102
{ACAD_REACTORS
330
C
102
}
330
C
100
AcDbDictionary
281
     1
  3
2dWireframe
350
F5
  3
Basic
350
F4
  3
Brighten
350
FB
  3
ColorChange
350
FF
  3
Conceptual
350
F8
  3
Dim
350
FA
  3
EdgeColorOff
350
1E6
  3
Facepattern
350
FE
  3
Flat
350
F0
  3
FlatWithEdges
350
F1
  3
Gouraud
350
F2
  3
GouraudWithEdges
350
F3
  3
Hidden
350
F7
  3
JitterOff
350
1E4
  3
Linepattern
350
FD
  3
OverhangOff
350
1E5
  3
Realistic
350
F9
  3
Shaded
350
1F3
  3
Shaded with edges
350
1F2
  3
Shades of Gray
350
1EF
  3
Sketchy
350
1F0
  3
Thicken
350
FC
  3
Wireframe
350
F6
  3
X-Ray
350
1F1
  0
XRECORD
  5
A4CE
102
{ACAD_REACTORS
330
C
102
}
330
C
100
AcDbXrecord
280
     1
 90
        1
330
7F
  0
DICTIONARY
  5
5E
102
{ACAD_REACTORS
330
C
102
}
330
C
100
AcDbDictionary
281
     1
  3
CANNOSCALE
350
146
  3
CENTEREXE
350
259
  3
CENTERLTYPEFILE
350
25A
  3
CMLEADERSTYLE
350
145
  3
CTABLESTYLE
350
84
  3
CVIEWDETAILSTYLE
350
227
  3
CVIEWSECTIONSTYLE
350
228
  3
DIMASSOC
350
5F
  3
HIDETEXT
350
63
  3
INDEXCTL
350
A47B
  3
LAYEREVAL
350
1AE
  3
LAYERNOTIFY
350
1AF
  3
LIGHTINGUNITS
350
A479
  3
MSLTSCALE
350
A478
  3
PSOLHEIGHT
350
A4CB
  3
PSOLWIDTH
350
A4CA
  3
SORTENTS
350
A47A
  3
XCLIPFRAME
350
A4CC
  0
XRECORD
  5
A4CF
102
{ACAD_REACTORS
330
C
102
}
330
C
100
AcDbXrecord
280
     1
  1
DWGPROPS COOKIE
  2

  3

  4

  6

  7

  8
truole
  9

300
=
301
=
302
=
303
=
304
=
305
=
306
=
307
=
308
=
309
=
 40
0.0078472222222222
 41
2460398.356956019
 42
2460398.375347222
  1

 90
        0
  0
DICTIONARY
  5
200
102
{ACAD_REACTORS
330
1FF
102
}
330
1FF
100
AcDbDictionary
281
     1
  0
XRECORD
  5
A426
102
{ACAD_REACTORS
330
1CE
102
}
330
1CE
100
AcDbXrecord
280
     1
340
1F
  0
XRECORD
  5
A42F
102
{ACAD_REACTORS
330
A3D1
102
}
330
A3D1
100
AcDbXrecord
280
     1
340
D2
  0
XRECORD
  5
A432
102
{ACAD_REACTORS
330
A3D3
102
}
330
A3D3
100
AcDbXrecord
280
     1
340
D6
  0
ACDBDETAILVIEWSTYLE
  5
21C
102
{ACAD_XDICTIONARY
360
A50E
102
}
102
{ACAD_REACTORS
330
21B
102
}
330
21B
100
AcDbModelDocViewStyle
 70
     0
  3
Metric50
290
     0
100
AcDbDetailViewStyle
 70
     0
 71
     0
 90
        3
 71
     1
340
11
 40
5.0
340
0
 40
5.0
300

 40
0.0
280
     1
 71
     2
340
16
 90
       25
 71
     3
340
11
 40
5.0
 90
        0
 40
15.0
 90
        1
300
%<\AcVar ViewDetailId>% (%<\AcVar ViewScale \f "%sn">%)
 71
     4
340
16
 90
       25
340
16
 90
       25
280
     0
  0
LAYOUT
  5
D3
102
{ACAD_XDICTIONARY
360
A4D3
102
}
102
{ACAD_REACTORS
330
1A
102
}
330
1A
100
AcDbPlotSettings
  1

  2
C:\Documents and Settings\basas\Application Data\Autodesk\AutoCAD 2005\R16.1\enu\plotters\Default Windows System Printer.pc3
  4

  6

 40
0.0
 41
0.0
 42
0.0
 43
0.0
 44
0.0
 45
0.0
 46
0.0
 47
0.0
 48
0.0
 49
0.0
140
0.0
141
0.0
142
1.0
143
1.0
 70
   688
 72
     0
 73
     0
 74
     5
  7

 75
    16
147
1.0
148
0.0
149
0.0
100
AcDbLayout
  1
Layout1
 70
     1
 71
     1
 10
0.0
 20
0.0
 11
12.0
 21
9.0
 12
0.0
 22
0.0
 32
0.0
 14
0.0
 24
0.0
 34
0.0
 15
0.0
 25
0.0
 35
0.0
146
0.0
 13
0.0
 23
0.0
 33
0.0
 16
1.0
 26
0.0
 36
0.0
 17
0.0
 27
1.0
 37
0.0
 76
     0
330
D2
  0
LAYOUT
  5
D7
102
{ACAD_XDICTIONARY
360
A4D5
102
}
102
{ACAD_REACTORS
330
1A
102
}
330
1A
100
AcDbPlotSettings
  1

  2
C:\Documents and Settings\basas\Application Data\Autodesk\AutoCAD 2005\R16.1\enu\plotters\Default Windows System Printer.pc3
  4

  6

 40
0.0
 41
0.0
 42
0.0
 43
0.0
 44
0.0
 45
0.0
 46
0.0
 47
0.0
 48
0.0
 49
0.0
140
0.0
141
0.0
142
1.0
143
1.0
 70
   688
 72
     0
 73
     0
 74
     5
  7

 75
    16
147
1.0
148
0.0
149
0.0
100
AcDbLayout
  1
Layout2
 70
     1
 71
     2
 10
0.0
 20
0.0
 11
12.0
 21
9.0
 12
0.0
 22
0.0
 32
0.0
 14
0.0
 24
0.0
 34
0.0
 15
0.0
 25
0.0
 35
0.0
146
0.0
 13
0.0
 23
0.0
 33
0.0
 16
1.0
 26
0.0
 36
0.0
 17
0.0
 27
1.0
 37
0.0
 76
     0
330
D6
  0
LAYOUT
  5
22
102
{ACAD_XDICTIONARY
360
A4D0
102
}
102
{ACAD_REACTORS
330
1A
102
}
330
1A
100
AcDbPlotSettings
  1

  2
none_device
  4
ISO_A4_(210.00_x_297.00_MM)
  6

 40
7.5
 41
20.0
 42
7.5
 43
20.0
 44
210.0
 45
297.0
 46
11.54999923706054
 47
-13.65000009536743
 48
0.0
 49
0.0
140
0.0
141
0.0
142
1.0
143
8.704084754739808
 70
 11952
 72
     1
 73
     0
 74
     0
  7

 75
     0
147
0.1148885871608098
148
0.0
149
0.0
100
AcDbLayout
  1
Model
 70
     1
 71
     0
 10
0.0
 20
0.0
 11
12.0
 21
9.0
 12
0.0
 22
0.0
 32
0.0
 14
0.0
 24
0.0
 34
0.0
 15
0.0
 25
0.0
 35
0.0
146
0.0
 13
0.0
 23
0.0
 33
0.0
 16
1.0
 26
0.0
 36
0.0
 17
0.0
 27
1.0
 37
0.0
 76
     0
330
1F
331
EA
1001
ACAD_PSEXT
1000
None
1000
None
1000
Not applicable
1000
The layout will not be plotted unless a new plotter configuration name is selected.
1070
     0
  0
MATERIAL
  5
ED
102
{ACAD_XDICTIONARY
360
1F9
102
}
102
{ACAD_REACTORS
330
6A
102
}
330
6A
100
AcDbMaterial
  1
ByBlock
  0
MATERIAL
  5
EC
102
{ACAD_XDICTIONARY
360
1F7
102
}
102
{ACAD_REACTORS
330
6A
102
}
330
6A
100
AcDbMaterial
  1
ByLayer
  0
MATERIAL
  5
EE
102
{ACAD_XDICTIONARY
360
173
102
}
102
{ACAD_REACTORS
330
6A
102
}
330
6A
100
AcDbMaterial
  1
Global
 43
0.0007999999797903
 43
0.0
 43
0.0
 43
0.0
 43
0.0
 43
0.0007999999797903
 43
0.0
 43
0.0
 43
0.0
 43
0.0
 43
1.0
 43
0.0
 43
0.0
 43
0.0
 43
0.0
 43
1.0
 49
0.0007999999797903
 49
0.0
 49
0.0
 49
0.0
 49
0.0
 49
0.0007999999797903
 49
0.0
 49
0.0
 49
0.0
 49
0.0
 49
1.0
 49
0.0
 49
0.0
 49
0.0
 49
0.0
 49
1.0
142
0.0007999999797903
142
0.0
142
0.0
142
0.0
142
0.0
142
0.0007999999797903
142
0.0
142
0.0
142
0.0
142
0.0
142
1.0
142
0.0
142
0.0
142
0.0
142
0.0
142
1.0
144
0.0007999999797903
144
0.0
144
0.0
144
0.0
144
0.0
144
0.0007999999797903
144
0.0
144
0.0
144
0.0
144
0.0
144
1.0
144
0.0
144
0.0
144
0.0
144
0.0
144
1.0
1001
ACAD
1070
    -1
1070
     3
1070
     0
1000

1071
        0
1070
     0
  0
MLEADERSTYLE
  5
12E
102
{ACAD_XDICTIONARY
360
A4FA
102
}
102
{ACAD_REACTORS
330
12D
102
}
330
12D
100
AcDbMLeaderStyle
170
     2
171
     1
172
     0
 90
        2
 40
0.0
 41
0.0
173
     1
 91
-1056964608
340
14
 92
       -2
290
     1
 42
2.0
291
     1
 43
8.0
  3
Standard
 44
4.0
300

342
11
174
     1
178
     1
175
     1
176
     0
 93
-1056964608
 45
4.0
292
     0
297
     0
 46
4.0
 94
-1056964608
 47
1.0
 49
1.0
140
1.0
293
     1
141
0.0
294
     1
177
     0
142
1.0
295
     0
296
     0
143
3.75
1001
ACAD_MLEADERVER
1070
     2
  0
MLINESTYLE
  5
18
102
{ACAD_REACTORS
330
17
102
}
330
17
100
AcDbMlineStyle
  2
STANDARD
 70
     0
  3

 62
   256
 51
90.0
 52
90.0
 71
     2
 49
0.5
 62
   256
  6
BYLAYER
 49
-0.5
 62
   256
  6
BYLAYER
  0
ACDBPLACEHOLDER
  5
F
102
{ACAD_REACTORS
330
E
102
}
330
E
  0
SCALE
  5
10D
102
{ACAD_REACTORS
330
10C
102
}
330
10C
100
AcDbScale
 70
     0
300
1:1
140
1.0
141
1.0
290
     1
  0
SCALE
  5
1BE
102
{ACAD_REACTORS
330
10C
102
}
330
10C
100
AcDbScale
 70
     0
300
1:2
140
1.0
141
2.0
290
     0
  0
SCALE
  5
1BF
102
{ACAD_REACTORS
330
10C
102
}
330
10C
100
AcDbScale
 70
     0
300
1:4
140
1.0
141
4.0
290
     0
  0
SCALE
  5
1C0
102
{ACAD_REACTORS
330
10C
102
}
330
10C
100
AcDbScale
 70
     0
300
1:5
140
1.0
141
5.0
290
     0
  0
SCALE
  5
1C1
102
{ACAD_REACTORS
330
10C
102
}
330
10C
100
AcDbScale
 70
     0
300
1:8
140
1.0
141
8.0
290
     0
  0
SCALE
  5
1C2
102
{ACAD_REACTORS
330
10C
102
}
330
10C
100
AcDbScale
 70
     0
300
1:10
140
1.0
141
10.0
290
     0
  0
SCALE
  5
1C3
102
{ACAD_REACTORS
330
10C
102
}
330
10C
100
AcDbScale
 70
     0
300
1:16
140
1.0
141
16.0
290
     0
  0
SCALE
  5
1C4
102
{ACAD_REACTORS
330
10C
102
}
330
10C
100
AcDbScale
 70
     0
300
1:20
140
1.0
141
20.0
290
     0
  0
SCALE
  5
1C5
102
{ACAD_REACTORS
330
10C
102
}
330
10C
100
AcDbScale
 70
     0
300
1:30
140
1.0
141
30.0
290
     0
  0
SCALE
  5
1C6
102
{ACAD_REACTORS
330
10C
102
}
330
10C
100
AcDbScale
 70
     0
300
1:40
140
1.0
141
40.0
290
     0
  0
SCALE
  5
1C7
102
{ACAD_REACTORS
330
10C
102
}
330
10C
100
AcDbScale
 70
     0
300
1:50
140
1.0
141
50.0
290
     0
  0
SCALE
  5
1C8
102
{ACAD_REACTORS
330
10C
102
}
330
10C
100
AcDbScale
 70
     0
300
1:100
140
1.0
141
100.0
290
     0
  0
SCALE
  5
1C9
102
{ACAD_REACTORS
330
10C
102
}
330
10C
100
AcDbScale
 70
     0
300
2:1
140
2.0
141
1.0
290
     0
  0
SCALE
  5
1CA
102
{ACAD_REACTORS
330
10C
102
}
330
10C
100
AcDbScale
 70
     0
300
4:1
140
4.0
141
1.0
290
     0
  0
SCALE
  5
1CB
102
{ACAD_REACTORS
330
10C
102
}
330
10C
100
AcDbScale
 70
     0
300
8:1
140
8.0
141
1.0
290
     0
  0
SCALE
  5
1CC
102
{ACAD_REACTORS
330
10C
102
}
330
10C
100
AcDbScale
 70
     0
300
10:1
140
10.0
141
1.0
290
     0
  0
SCALE
  5
1CD
102
{ACAD_REACTORS
330
10C
102
}
330
10C
100
AcDbScale
 70
     0
300
100:1
140
100.0
141
1.0
290
     0
  0
ACDBSECTIONVIEWSTYLE
  5
21A
102
{ACAD_XDICTIONARY
360
A50C
102
}
102
{ACAD_REACTORS
330
219
102
}
330
219
100
AcDbModelDocViewStyle
 70
     0
  3
Metric50
290
     0
100
AcDbSectionViewStyle
 70
     0
 71
     0
 90
      102
 71
     1
340
11
 40
5.0
340
0
340
0
 40
5.0
300
I, O, Q, S, X, Z
 40
10.0
 90
        0
 40
2.5
 90
        0
 71
     2
340
16
 90
       25
340
16
 90
       50
 40
5.0
 40
2.5
 40
5.0
 71
     3
340
11
 40
5.0
 90
        0
 40
15.0
 90
        1
300
%<\AcVar ViewSectionStartId>%-%<\AcVar ViewSectionEndId>% (%<\AcVar ViewScale \f "%sn">%)
 71
     4
300
ANSI31
 40
1.0
 90
        0
290
     0
290
     0
 90
        6
 40
0.0
 40
1.570796326794896
 40
0.2617993877991494
 40
1.308996938995747
 40
-0.2617993877991494
 40
1.832595714594046
  0
TABLESTYLE
  5
7F
102
{ACAD_XDICTIONARY
360
162
102
}
102
{ACAD_REACTORS
330
7E
102
}
330
7E
100
AcDbTableStyle
  3
Standard
 70
     0
 71
     0
 40
1.5
 41
1.5
280
     0
281
     0
  7
Standard
140
4.5
170
     2
 62
     0
 63
     7
283
     0
274
    -2
284
     1
 64
     0
275
    -2
285
     1
 65
     0
276
    -2
286
     1
 66
     0
277
    -2
287
     1
 67
     0
278
    -2
288
     1
 68
     0
279
    -2
289
     1
 69
     0
  7
Standard
140
6.0
170
     5
 62
     0
 63
     7
283
     0
274
    -2
284
     1
 64
     0
275
    -2
285
     1
 65
     0
276
    -2
286
     1
 66
     0
277
    -2
287
     1
 67
     0
278
    -2
288
     1
 68
     0
279
    -2
289
     1
 69
     0
  7
Standard
140
4.5
170
     5
 62
     0
 63
     7
283
     0
274
    -2
284
     1
 64
     0
275
    -2
285
     1
 65
     0
276
    -2
286
     1
 66
     0
277
    -2
287
     1
 67
     0
278
    -2
288
     1
 68
     0
279
    -2
289
     1
 69
     0
  0
VISUALSTYLE
  5
F5
102
{ACAD_XDICTIONARY
360
A4E4
102
}
102
{ACAD_REACTORS
330
EF
102
}
330
EF
100
AcDbVisualStyle
  2
2dWireframe
 70
     4
 71
     0
 72
     2
 73
     1
 90
        0
 40
-0.6
 41
-30.0
 62
     5
 63
     7
 74
     1
 91
        4
 64
     7
 65
   257
 75
     1
175
     1
 42
1.0
 92
        0
 66
   257
 43
1.0
 76
     1
 77
     6
 78
     2
 67
     7
 79
     5
170
     0
171
     0
290
     0
174
     0
 93
        1
 44
0.0
173
     0
291
     0
 45
0.0
1001
ACAD
1000
AcDbSavedByObjectVersion
1070
     0
  0
VISUALSTYLE
  5
F4
102
{ACAD_XDICTIONARY
360
A4E2
102
}
102
{ACAD_REACTORS
330
EF
102
}
330
EF
100
AcDbVisualStyle
  2
Basic
 70
     7
 71
     1
 72
     0
 73
     1
 90
        0
 40
-0.6
 41
-30.0
 62
     5
 63
     7
 74
     0
 91
        4
 64
     7
 65
   257
 75
     1
175
     1
 42
1.0
 92
        8
 66
     7
 43
1.0
 76
     1
 77
     6
 78
     2
 67
     7
 79
     5
170
     0
171
     0
290
     0
174
     0
 93
        1
 44
0.0
173
     0
291
     1
 45
0.0
1001
ACAD
1000
AcDbSavedByObjectVersion
1070
     0
  0
VISUALSTYLE
  5
FB
102
{ACAD_XDICTIONARY
360
A4F0
102
}
102
{ACAD_REACTORS
330
EF
102
}
330
EF
100
AcDbVisualStyle
  2
Brighten
 70
    12
 71
     2
 72
     2
 73
     1
 90
        0
 40
-0.6
 41
-30.0
 62
     5
 63
     7
 74
     1
 91
        4
 64
     7
 65
   257
 75
     1
175
     1
 42
1.0
 92
        8
 66
     7
 43
1.0
 76
     1
 77
     6
 78
     2
 67
     7
 79
     5
170
     0
171
     0
290
     0
174
     0
 93
        1
 44
50.0
173
     0
291
     1
 45
0.0
1001
ACAD
1000
AcDbSavedByObjectVersion
1070
     0
  0
VISUALSTYLE
  5
FF
102
{ACAD_XDICTIONARY
360
A4F8
102
}
102
{ACAD_REACTORS
330
EF
102
}
330
EF
100
AcDbVisualStyle
  2
ColorChange
 70
    16
 71
     2
 72
     2
 73
     3
 90
        0
 40
-0.6
 41
-30.0
 62
     5
 63
     8
 74
     1
 91
        4
 64
     7
 65
   257
 75
     1
175
     1
 42
1.0
 92
        8
 66
     8
 43
1.0
 76
     1
 77
     6
 78
     2
 67
     7
 79
     5
170
     0
171
     0
290
     0
174
     0
 93
        1
 44
0.0
173
     0
291
     1
 45
0.0
1001
ACAD
1000
AcDbSavedByObjectVersion
1070
     0
  0
VISUALSTYLE
  5
F8
102
{ACAD_XDICTIONARY
360
A4EA
102
}
102
{ACAD_REACTORS
330
EF
102
}
330
EF
100
AcDbVisualStyle
  2
Conceptual
 70
     9
 71
     3
 72
     2
 73
     1
 90
        0
 40
-0.6
 41
-30.0
 62
     5
 63
     7
 74
     2
 91
        2
 64
     7
 65
   257
 75
     1
175
     1
 42
40.0
 92
        8
 66
     7
 43
1.0
 76
     1
 77
     6
 78
     2
 67
     7
 79
     3
170
     0
171
     0
290
     0
174
     0
 93
        1
 44
0.0
173
     0
291
     0
 45
0.0
1001
ACAD
1000
AcDbSavedByObjectVersion
1070
     0
  0
VISUALSTYLE
  5
FA
102
{ACAD_XDICTIONARY
360
A4EE
102
}
102
{ACAD_REACTORS
330
EF
102
}
330
EF
100
AcDbVisualStyle
  2
Dim
 70
    11
 71
     2
 72
     2
 73
     1
 90
        0
 40
-0.6
 41
-30.0
 62
     5
 63
     7
 74
     1
 91
        4
 64
     7
 65
   257
 75
     1
175
     1
 42
1.0
 92
        8
 66
     7
 43
1.0
 76
     1
 77
     6
 78
     2
 67
     7
 79
     5
170
     0
171
     0
290
     0
174
     0
 93
        1
 44
-50.0
173
     0
291
     1
 45
0.0
1001
ACAD
1000
AcDbSavedByObjectVersion
1070
     0
  0
VISUALSTYLE
  5
1E6
102
{ACAD_XDICTIONARY
360
A500
102
}
102
{ACAD_REACTORS
330
EF
102
}
330
EF
100
AcDbVisualStyle
  2
EdgeColorOff
 70
    22
 71
     2
 72
     2
 73
     0
 90
        0
 40
-0.6
 41
-30.0
 62
     5
 63
     7
 74
     1
 91
        4
 64
     7
 65
   257
 75
     1
175
     1
 42
1.0
 92
        8
 66
     7
 43
1.0
 76
     1
 77
     6
 78
     2
 67
     7
 79
     5
170
     0
171
     0
290
     0
174
     0
 93
        1
 44
0.0
173
     0
291
     1
 45
0.0
1001
ACAD
1000
AcDbSavedByObjectVersion
1070
     0
  0
VISUALSTYLE
  5
FE
102
{ACAD_XDICTIONARY
360
A4F6
102
}
102
{ACAD_REACTORS
330
EF
102
}
330
EF
100
AcDbVisualStyle
  2
Facepattern
 70
    15
 71
     2
 72
     2
 73
     1
 90
        0
 40
-0.6
 41
-30.0
 62
     5
 63
     7
 74
     1
 91
        4
 64
     7
 65
   257
 75
     1
175
     1
 42
1.0
 92
        8
 66
     7
 43
1.0
 76
     1
 77
     6
 78
     2
 67
     7
 79
     5
170
     0
171
     0
290
     0
174
     0
 93
        1
 44
0.0
173
     0
291
     1
 45
0.0
1001
ACAD
1000
AcDbSavedByObjectVersion
1070
     0
  0
VISUALSTYLE
  5
F0
102
{ACAD_XDICTIONARY
360
A4DA
102
}
102
{ACAD_REACTORS
330
EF
102
}
330
EF
100
AcDbVisualStyle
  2
Flat
 70
     0
 71
     2
 72
     1
 73
     1
 90
        2
 40
-0.6
 41
30.0
 62
     5
 63
     7
 74
     0
 91
        0
 64
     7
 65
   257
 75
     1
175
     1
 42
1.0
 92
        8
 66
     7
 43
1.0
 76
     1
 77
     6
 78
     2
 67
     7
 79
     5
170
     0
171
     0
290
     0
174
     0
 93
       13
 44
0.0
173
     0
291
     1
 45
0.0
1001
ACAD
1000
AcDbSavedByObjectVersion
1070
     0
  0
VISUALSTYLE
  5
F1
102
{ACAD_XDICTIONARY
360
A4DC
102
}
102
{ACAD_REACTORS
330
EF
102
}
330
EF
100
AcDbVisualStyle
  2
FlatWithEdges
 70
     1
 71
     2
 72
     1
 73
     1
 90
        2
 40
-0.6
 41
30.0
 62
     5
 63
     7
 74
     1
 91
        0
 64
     7
 65
   257
 75
     1
175
     1
 42
1.0
 92
        0
 66
   257
 43
1.0
 76
     1
 77
     6
 78
     2
 67
     7
 79
     5
170
     0
171
     0
290
     0
174
     0
 93
       13
 44
0.0
173
     0
291
     1
 45
0.0
1001
ACAD
1000
AcDbSavedByObjectVersion
1070
     0
  0
VISUALSTYLE
  5
F2
102
{ACAD_XDICTIONARY
360
A4DE
102
}
102
{ACAD_REACTORS
330
EF
102
}
330
EF
100
AcDbVisualStyle
  2
Gouraud
 70
     2
 71
     2
 72
     2
 73
     1
 90
        2
 40
-0.6
 41
30.0
 62
     5
 63
     7
 74
     0
 91
        0
 64
     7
 65
   257
 75
     1
175
     1
 42
1.0
 92
        0
 66
     7
 43
1.0
 76
     1
 77
     6
 78
     2
 67
     7
 79
     5
170
     0
171
     0
290
     0
174
     0
 93
       13
 44
0.0
173
     0
291
     1
 45
0.0
1001
ACAD
1000
AcDbSavedByObjectVersion
1070
     0
  0
VISUALSTYLE
  5
F3
102
{ACAD_XDICTIONARY
360
A4E0
102
}
102
{ACAD_REACTORS
330
EF
102
}
330
EF
100
AcDbVisualStyle
  2
GouraudWithEdges
 70
     3
 71
     2
 72
     2
 73
     1
 90
        2
 40
-0.6
 41
30.0
 62
     5
 63
     7
 74
     1
 91
        0
 64
     7
 65
   257
 75
     1
175
     1
 42
1.0
 92
        0
 66
   257
 43
1.0
 76
     1
 77
     6
 78
     2
 67
     7
 79
     5
170
     0
171
     0
290
     0
174
     0
 93
       13
 44
0.0
173
     0
291
     1
 45
0.0
1001
ACAD
1000
AcDbSavedByObjectVersion
1070
     0
  0
VISUALSTYLE
  5
F7
102
{ACAD_XDICTIONARY
360
A4E8
102
}
102
{ACAD_REACTORS
330
EF
102
}
330
EF
100
AcDbVisualStyle
  2
Hidden
 70
     6
 71
     1
 72
     2
 73
     2
 90
        0
 40
-0.6
 41
-30.0
 62
     5
 63
     7
 74
     2
 91
        2
 64
     7
 65
   257
 75
     2
175
     1
 42
40.0
 92
        0
 66
   257
 43
1.0
 76
     1
 77
     6
 78
     2
 67
     7
 79
     3
170
     0
171
     0
290
     0
174
     0
 93
        1
 44
0.0
173
     0
291
     0
 45
0.0
1001
ACAD
1000
AcDbSavedByObjectVersion
1070
     0
  0
VISUALSTYLE
  5
1E4
102
{ACAD_XDICTIONARY
360
A4FC
102
}
102
{ACAD_REACTORS
330
EF
102
}
330
EF
100
AcDbVisualStyle
  2
JitterOff
 70
    20
 71
     2
 72
     2
 73
     0
 90
        0
 40
-0.6
 41
-30.0
 62
     5
 63
     7
 74
     1
 91
        4
 64
     7
 65
   257
 75
     1
175
     1
 42
1.0
 92
       10
 66
     7
 43
1.0
 76
     1
 77
     6
 78
     2
 67
     7
 79
     5
170
     0
171
     0
290
     0
174
     0
 93
        1
 44
0.0
173
     0
291
     1
 45
0.0
1001
ACAD
1000
AcDbSavedByObjectVersion
1070
     0
  0
VISUALSTYLE
  5
FD
102
{ACAD_XDICTIONARY
360
A4F4
102
}
102
{ACAD_REACTORS
330
EF
102
}
330
EF
100
AcDbVisualStyle
  2
Linepattern
 70
    14
 71
     2
 72
     2
 73
     1
 90
        0
 40
-0.6
 41
-30.0
 62
     5
 63
     7
 74
     1
 91
        4
 64
     7
 65
   257
 75
     7
175
     7
 42
1.0
 92
        8
 66
     7
 43
1.0
 76
     1
 77
     6
 78
     2
 67
     7
 79
     5
170
     0
171
     0
290
     0
174
     0
 93
        1
 44
0.0
173
     0
291
     1
 45
0.0
1001
ACAD
1000
AcDbSavedByObjectVersion
1070
     0
  0
VISUALSTYLE
  5
1E5
102
{ACAD_XDICTIONARY
360
A4FE
102
}
102
{ACAD_REACTORS
330
EF
102
}
330
EF
100
AcDbVisualStyle
  2
OverhangOff
 70
    21
 71
     2
 72
     2
 73
     0
 90
        0
 40
-0.6
 41
-30.0
 62
     5
 63
     7
 74
     1
 91
        4
 64
     7
 65
   257
 75
     1
175
     1
 42
1.0
 92
        9
 66
     7
 43
1.0
 76
     1
 77
     6
 78
     2
 67
     7
 79
     5
170
     0
171
     0
290
     0
174
     0
 93
        1
 44
0.0
173
     0
291
     1
 45
0.0
1001
ACAD
1000
AcDbSavedByObjectVersion
1070
     0
  0
VISUALSTYLE
  5
F9
102
{ACAD_XDICTIONARY
360
A4EC
102
}
102
{ACAD_REACTORS
330
EF
102
}
330
EF
100
AcDbVisualStyle
  2
Realistic
 70
     8
 71
     2
 72
     2
 73
     0
 90
        2
 40
-0.6
 41
30.0
 62
     5
 63
     7
 74
     0
 91
        0
 64
     7
 65
   257
 75
     1
175
     1
 42
1.0
 92
        8
 66
   257
 43
1.0
 76
     1
 77
     6
 78
     2
 67
     7
 79
     3
170
     0
171
     0
290
     0
174
     0
 93
       13
 44
0.0
173
     0
291
     0
 45
0.0
1001
ACAD
1000
AcDbSavedByObjectVersion
1070
     0
  0
VISUALSTYLE
  5
1F3
102
{ACAD_XDICTIONARY
360
A50A
102
}
102
{ACAD_REACTORS
330
EF
102
}
330
EF
100
AcDbVisualStyle
  2
Shaded
 70
    27
 71
     2
 72
     2
 73
     1
 90
        2
 40
-0.6
 41
30.0
 62
     5
 63
     7
 74
     0
 91
        4
 64
     7
 65
   257
 75
     1
175
     1
 42
1.0
 92
        8
 66
   257
 43
1.0
 76
     1
 77
     6
 78
     2
 67
     8
 79
     3
170
     0
171
     0
290
     0
174
     0
 93
        5
 44
0.0
173
     0
291
     0
 45
0.0
1001
ACAD
1000
AcDbSavedByObjectVersion
1070
     0
  0
VISUALSTYLE
  5
1F2
102
{ACAD_XDICTIONARY
360
A508
102
}
102
{ACAD_REACTORS
330
EF
102
}
330
EF
100
AcDbVisualStyle
  2
Shaded with edges
 70
    26
 71
     2
 72
     2
 73
     1
 90
        2
 40
-0.6
 41
30.0
 62
     5
 63
     7
 74
     1
 91
        2
 64
     7
 65
   257
 75
     2
175
     1
 42
1.0
 92
        8
 66
   257
 43
1.0
 76
     1
 77
     6
 78
     2
 67
     7
 79
     3
170
     0
171
     0
290
     0
174
     0
 93
        5
 44
0.0
173
     0
291
     0
 45
0.0
1001
ACAD
1000
AcDbSavedByObjectVersion
1070
     0
  0
VISUALSTYLE
  5
1EF
102
{ACAD_XDICTIONARY
360
A502
102
}
102
{ACAD_REACTORS
330
EF
102
}
330
EF
100
AcDbVisualStyle
  2
Shades of Gray
 70
    23
 71
     2
 72
     2
 73
     3
 90
        0
 40
-0.6
 41
-30.0
 62
     5
 63
     7
 74
     2
 91
        2
 64
     7
 65
     7
 75
     1
175
     1
 42
40.0
 92
        8
 66
     7
 43
1.0
 76
     1
 77
     6
 78
     2
 67
     7
 79
     3
170
     0
171
     0
290
     0
174
     0
 93
        1
 44
0.0
173
     0
291
     0
 45
0.0
1001
ACAD
1000
AcDbSavedByObjectVersion
1070
     0
  0
VISUALSTYLE
  5
1F0
102
{ACAD_XDICTIONARY
360
A504
102
}
102
{ACAD_REACTORS
330
EF
102
}
330
EF
100
AcDbVisualStyle
  2
Sketchy
 70
    24
 71
     1
 72
     2
 73
     2
 90
        0
 40
-0.6
 41
-30.0
 62
     5
 63
     7
 74
     2
 91
        2
 64
     7
 65
     7
 75
     1
175
     1
 42
40.0
 92
       11
 66
     7
 43
1.0
 76
     1
 77
     6
 78
     2
 67
     7
 79
     6
170
     0
171
     0
290
     0
174
     0
 93
        1
 44
0.0
173
     0
291
     0
 45
0.0
1001
ACAD
1000
AcDbSavedByObjectVersion
1070
     0
  0
VISUALSTYLE
  5
FC
102
{ACAD_XDICTIONARY
360
A4F2
102
}
102
{ACAD_REACTORS
330
EF
102
}
330
EF
100
AcDbVisualStyle
  2
Thicken
 70
    13
 71
     2
 72
     2
 73
     1
 90
        0
 40
-0.6
 41
-30.0
 62
     5
 63
     7
 74
     1
 91
        4
 64
     7
 65
   257
 75
     1
175
     1
 42
1.0
 92
       12
 66
     7
 43
1.0
 76
     1
 77
     6
 78
     2
 67
     7
 79
     5
170
     0
171
     0
290
     0
174
     0
 93
        1
 44
0.0
173
     0
291
     1
 45
0.0
1001
ACAD
1000
AcDbSavedByObjectVersion
1070
     0
  0
VISUALSTYLE
  5
F6
102
{ACAD_XDICTIONARY
360
A4E6
102
}
102
{ACAD_REACTORS
330
EF
102
}
330
EF
100
AcDbVisualStyle
  2
Wireframe
 70
     5
 71
     0
 72
     2
 73
     0
 90
        0
 40
-0.6
 41
-30.0
 62
     5
 63
     7
 74
     1
 91
        4
 64
     7
 65
   257
 75
     1
175
     1
 42
1.0
 92
        0
 66
   257
 43
1.0
 76
     1
 77
     6
 78
     2
 67
     7
 79
     3
170
     0
171
     0
290
     0
174
     0
 93
        1
 44
0.0
173
     0
291
     0
 45
0.0
1001
ACAD
1000
AcDbSavedByObjectVersion
1070
     0
  0
VISUALSTYLE
  5
1F1
102
{ACAD_XDICTIONARY
360
A506
102
}
102
{ACAD_REACTORS
330
EF
102
}
330
EF
100
AcDbVisualStyle
  2
X-Ray
 70
    25
 71
     2
 72
     2
 73
     1
 90
        1
 40
0.5
 41
-30.0
 62
     5
 63
     7
 74
     1
 91
        0
 64
     7
 65
   257
 75
     1
175
     1
 42
1.0
 92
        8
 66
     7
 43
1.0
 76
     1
 77
     6
 78
     2
 67
     7
 79
     3
170
     0
171
     0
290
     0
174
     0
 93
       13
 44
0.0
173
     0
291
     0
 45
0.0
1001
ACAD
1000
AcDbSavedByObjectVersion
1070
     0
  0
DICTIONARYVAR
  5
146
102
{ACAD_REACTORS
330
5E
102
}
330
5E
100
DictionaryVariables
280
     0
  1
1:1
  0
DICTIONARYVAR
  5
259
102
{ACAD_REACTORS
330
5E
102
}
330
5E
100
DictionaryVariables
280
     0
  1
3.500000
  0
DICTIONARYVAR
  5
25A
102
{ACAD_REACTORS
330
5E
102
}
330
5E
100
DictionaryVariables
280
     0
  1
acadiso.lin
  0
DICTIONARYVAR
  5
145
102
{ACAD_REACTORS
330
5E
102
}
330
5E
100
DictionaryVariables
280
     0
  1
STANDARD
  0
DICTIONARYVAR
  5
84
102
{ACAD_REACTORS
330
5E
102
}
330
5E
100
DictionaryVariables
280
     0
  1
STANDARD
  0
DICTIONARYVAR
  5
227
102
{ACAD_REACTORS
330
5E
102
}
330
5E
100
DictionaryVariables
280
     0
  1
Metric50
  0
DICTIONARYVAR
  5
228
102
{ACAD_REACTORS
330
5E
102
}
330
5E
100
DictionaryVariables
280
     0
  1
Metric50
  0
DICTIONARYVAR
  5
5F
102
{ACAD_REACTORS
330
5E
102
}
330
5E
100
DictionaryVariables
280
     0
  1
2
  0
DICTIONARYVAR
  5
63
102
{ACAD_REACTORS
330
5E
102
}
330
5E
100
DictionaryVariables
280
     0
  1
1
  0
DICTIONARYVAR
  5
A47B
102
{ACAD_REACTORS
330
5E
102
}
330
5E
100
DictionaryVariables
280
     0
  1
0
  0
DICTIONARYVAR
  5
1AE
102
{ACAD_REACTORS
330
5E
102
}
330
5E
100
DictionaryVariables
280
     0
  1
0
  0
DICTIONARYVAR
  5
1AF
102
{ACAD_REACTORS
330
5E
102
}
330
5E
100
DictionaryVariables
280
     0
  1
0
  0
DICTIONARYVAR
  5
A479
102
{ACAD_REACTORS
330
5E
102
}
330
5E
100
DictionaryVariables
280
     0
  1
2
  0
DICTIONARYVAR
  5
A478
102
{ACAD_REACTORS
330
5E
102
}
330
5E
100
DictionaryVariables
280
     0
  1
1
  0
DICTIONARYVAR
  5
A4CB
102
{ACAD_REACTORS
330
5E
102
}
330
5E
100
DictionaryVariables
280
     0
  1
80.000000
  0
DICTIONARYVAR
  5
A4CA
102
{ACAD_REACTORS
330
5E
102
}
330
5E
100
DictionaryVariables
280
     0
  1
5.000000
  0
DICTIONARYVAR
  5
A47A
102
{ACAD_REACTORS
330
5E
102
}
330
5E
100
DictionaryVariables
280
     0
  1
127
  0
DICTIONARYVAR
  5
A4CC
102
{ACAD_REACTORS
330
5E
102
}
330
5E
100
DictionaryVariables
280
     0
  1
2
  0
DICTIONARY
  5
A50E
330
21C
100
AcDbDictionary
280
     1
281
     1
  3
ACAD_XREC_ROUNDTRIP
360
A50F
  0
DICTIONARY
  5
A4D3
330
D3
100
AcDbDictionary
280
     1
281
     1
  3
ACAD_XREC_ROUNDTRIP
360
A4D4
  0
DICTIONARY
  5
A4D5
330
D7
100
AcDbDictionary
280
     1
281
     1
  3
ACAD_XREC_ROUNDTRIP
360
A4D6
  0
DICTIONARY
  5
A4D0
330
22
100
AcDbDictionary
280
     1
281
     1
  3
ACAD_XREC_ROUNDTRIP
360
A4D1
  0
DICTIONARY
  5
1F9
330
ED
100
AcDbDictionary
280
     1
281
     1
  3
ACAD_XREC_ROUNDTRIP
360
A4D8
  3
FBXASSET
360
1FA
  0
DICTIONARY
  5
1F7
330
EC
100
AcDbDictionary
280
     1
281
     1
  3
ACAD_XREC_ROUNDTRIP
360
A4D7
  3
FBXASSET
360
1F8
  0
DICTIONARY
  5
173
330
EE
100
AcDbDictionary
280
     1
281
     1
  3
ACAD_XREC_ROUNDTRIP
360
A4D9
  3
BUMPTILE
360
175
  3
DIFFUSETILE
360
174
  3
FBXASSET
360
1FB
  3
OPACITYTILE
360
176
  3
REFLECTIONTILE
360
177
  0
DICTIONARY
  5
A4FA
330
12E
100
AcDbDictionary
280
     1
281
     1
  3
ACAD_XREC_ROUNDTRIP
360
A4FB
  0
DICTIONARY
  5
A50C
330
21A
100
AcDbDictionary
280
     1
281
     1
  3
ACAD_XREC_ROUNDTRIP
360
A50D
  0
DICTIONARY
  5
162
330
7F
100
AcDbDictionary
280
     1
281
     1
  3
ACAD_ROUNDTRIP_2008_TABLESTYLE_CELLSTYLEMAP
360
A4CD
  3
ACAD_XREC_ROUNDTRIP
360
A4D2
  0
DICTIONARY
  5
A4E4
330
F5
100
AcDbDictionary
280
     1
281
     1
  3
ACAD_XREC_ROUNDTRIP
360
A4E5
  0
DICTIONARY
  5
A4E2
330
F4
100
AcDbDictionary
280
     1
281
     1
  3
ACAD_XREC_ROUNDTRIP
360
A4E3
  0
DICTIONARY
  5
A4F0
330
FB
100
AcDbDictionary
280
     1
281
     1
  3
ACAD_XREC_ROUNDTRIP
360
A4F1
  0
DICTIONARY
  5
A4F8
330
FF
100
AcDbDictionary
280
     1
281
     1
  3
ACAD_XREC_ROUNDTRIP
360
A4F9
  0
DICTIONARY
  5
A4EA
330
F8
100
AcDbDictionary
280
     1
281
     1
  3
ACAD_XREC_ROUNDTRIP
360
A4EB
  0
DICTIONARY
  5
A4EE
330
FA
100
AcDbDictionary
280
     1
281
     1
  3
ACAD_XREC_ROUNDTRIP
360
A4EF
  0
DICTIONARY
  5
A500
330
1E6
100
AcDbDictionary
280
     1
281
     1
  3
ACAD_XREC_ROUNDTRIP
360
A501
  0
DICTIONARY
  5
A4F6
330
FE
100
AcDbDictionary
280
     1
281
     1
  3
ACAD_XREC_ROUNDTRIP
360
A4F7
  0
DICTIONARY
  5
A4DA
330
F0
100
AcDbDictionary
280
     1
281
     1
  3
ACAD_XREC_ROUNDTRIP
360
A4DB
  0
DICTIONARY
  5
A4DC
330
F1
100
AcDbDictionary
280
     1
281
     1
  3
ACAD_XREC_ROUNDTRIP
360
A4DD
  0
DICTIONARY
  5
A4DE
330
F2
100
AcDbDictionary
280
     1
281
     1
  3
ACAD_XREC_ROUNDTRIP
360
A4DF
  0
DICTIONARY
  5
A4E0
330
F3
100
AcDbDictionary
280
     1
281
     1
  3
ACAD_XREC_ROUNDTRIP
360
A4E1
  0
DICTIONARY
  5
A4E8
330
F7
100
AcDbDictionary
280
     1
281
     1
  3
ACAD_XREC_ROUNDTRIP
360
A4E9
  0
DICTIONARY
  5
A4FC
330
1E4
100
AcDbDictionary
280
     1
281
     1
  3
ACAD_XREC_ROUNDTRIP
360
A4FD
  0
DICTIONARY
  5
A4F4
330
FD
100
AcDbDictionary
280
     1
281
     1
  3
ACAD_XREC_ROUNDTRIP
360
A4F5
  0
DICTIONARY
  5
A4FE
330
1E5
100
AcDbDictionary
280
     1
281
     1
  3
ACAD_XREC_ROUNDTRIP
360
A4FF
  0
DICTIONARY
  5
A4EC
330
F9
100
AcDbDictionary
280
     1
281
     1
  3
ACAD_XREC_ROUNDTRIP
360
A4ED
  0
DICTIONARY
  5
A50A
330
1F3
100
AcDbDictionary
280
     1
281
     1
  3
ACAD_XREC_ROUNDTRIP
360
A50B
  0
DICTIONARY
  5
A508
330
1F2
100
AcDbDictionary
280
     1
281
     1
  3
ACAD_XREC_ROUNDTRIP
360
A509
  0
DICTIONARY
  5
A502
330
1EF
100
AcDbDictionary
280
     1
281
     1
  3
ACAD_XREC_ROUNDTRIP
360
A503
  0
DICTIONARY
  5
A504
330
1F0
100
AcDbDictionary
280
     1
281
     1
  3
ACAD_XREC_ROUNDTRIP
360
A505
  0
DICTIONARY
  5
A4F2
330
FC
100
AcDbDictionary
280
     1
281
     1
  3
ACAD_XREC_ROUNDTRIP
360
A4F3
  0
DICTIONARY
  5
A4E6
330
F6
100
AcDbDictionary
280
     1
281
     1
  3
ACAD_XREC_ROUNDTRIP
360
A4E7
  0
DICTIONARY
  5
A506
330
1F1
100
AcDbDictionary
280
     1
281
     1
  3
ACAD_XREC_ROUNDTRIP
360
A507
  0
XRECORD
  5
A50F
102
{ACAD_REACTORS
330
A50E
102
}
330
A50E
100
AcDbXrecord
280
     1
102
DISPLAYNAME
  1
Metric50
102
FLAGS
 90
        0
  0
XRECORD
  5
A4D4
102
{ACAD_REACTORS
330
A4D3
102
}
330
A4D3
100
AcDbXrecord
280
     1
102
SHADEPLOT
 70
     0
102
SHADEPLOTRESLEVEL
 70
     2
102
SHADEPLOTCUSTOMDPI
 70
   300
  0
XRECORD
  5
A4D6
102
{ACAD_REACTORS
330
A4D5
102
}
330
A4D5
100
AcDbXrecord
280
     1
102
SHADEPLOT
 70
     0
102
SHADEPLOTRESLEVEL
 70
     2
102
SHADEPLOTCUSTOMDPI
 70
   300
  0
XRECORD
  5
A4D1
102
{ACAD_REACTORS
330
A4D0
102
}
330
A4D0
100
AcDbXrecord
280
     1
102
SHADEPLOT
 70
     0
102
SHADEPLOTRESLEVEL
 70
     2
102
SHADEPLOTCUSTOMDPI
 70
   300
  0
XRECORD
  5
A4D8
102
{ACAD_REACTORS
330
1F9
102
}
330
1F9
100
AcDbXrecord
280
     1
102
MATERIAL
148
0.0
149
0.0
149
0.0
 93
        0
 94
       63
282
     0
 72
     1
 77
     1
171
     1
175
     1
179
     1
273
     0
  0
XRECORD
  5
1FA
102
{ACAD_REACTORS
330
1F9
102
}
330
1F9
100
AcDbXrecord
280
     1
 70
     1
 90
429727718
  1
D62C5603-E3A1-4AEA-B7FB-FE5D8D0755AF
310
504B03040A0000080000CC70623B3DEE336E79000000790000001B0000006175746F6465736B2D64657369676E2D7061636B6167652E786D6C3C3F786D6C2076657273696F6E3D22312E302220656E636F64696E673D227574662D3822203F3E3C666F726D6174733E3C666F726D61743E687474703A2F2F736368656D612E
310
6175746F6465736B2E636F6D2F64657369676E2D7061636B6167652F323030393C2F666F726D61743E3C2F666F726D6174733E504B0304140006080800CC70623BD486FD9CA0000000F4000000130000005B436F6E74656E745F54797065735D2E786D6C7D8EC10E82300C865F65E91D8A1E8C310C0EEA1BF002731658846E
310
D98AC1B77784ABF1D8FE5FBFBF75BBCE937A534CCEB38643598122B6FEE978D0B0485F9C41B54DDD7D022595594E1A469170414C76A4D9A4D207E29CF43ECE46F218070CC6BECC4078ACAA135ACF422C856C0E68EA1BF5669944DDD7BCDE7B1F8E415D77AECB980613C2E4AC91FC167A2B244592486606FC29C8FD7F045B9A
310
EF7053A7E60B504B0304140006080800CC70623B853B8169EB0000007C01000008000000636F72652E786D6C8D90416EC3201045AF62CDB6C206821CC7C244919D9CA01740401C94182C03558F5F9C3852BBEB6A467FFE9B197D7EFC9E1EC5975982F5AE035262288C535E5B377690E21535501C055FBC8FBF6C503839990E
310
5619041F179FE64D52DE45E362569DD7661365082642A11EB9E920A89B99642953CC8E702F67A9EE7234257977194EC9EAE275C4EABCCF5EAD5940D4AC6F0E35A568B8F43562CD7046CD199FD07E60174276A7BE677B5EADB0E0D14EEFFB6A31321A0D82627C4084204C3F096B71DD52F6819B16635EADF63F509AF53FA164
310
5DDCD1EDDD17164090FCC8732078B56691CB33A85CD7DCC40F504B0304140006080800CC70623B55019EA25F0000007C00000007000000636E782E786D6C4DCB3B0E80201045D1AD90E915ED2CF8AC45050C11660C8261F98AB1B07AC9C97D42D718D865D3E909258CFD00CCE24AC6E326A164D74DC0B4128928FF32603847
310
2BA13128B1252AC747C6BAB984FC68F0B87FE8960A5C09FE86CFB69FBA01504B0304140006080800CC70623BDBABAAF470010000D40300000C0000006662782F636F72652E786D6CC553D16E823014FD95A6AF4B694182CC941A83FA05FB810A9511A125A5257EFE2E82712ECEB8A7F100CD39F7F69E734AF9FADC366850B6
310
AF8DCE7018308C942E4C59EB2AC3DE1D498AD15A706B8CFB56869196ADCAF00863C12B6B7C374385D14E6907A836A59A41D9F7CA615434B0C8705F7CAA5606D23BA8E84F41278B93AC54100640439DE0BDB320004D43C63716C7C399D30917DCFBBA9CD9BA8469F5B156168B24CED3F7248AC8769F27244EB73B92EED8862C
310
B7F13E0C179B3C8F979C8ECD82BBBABDAA2BAC924E9558448CBD9330242CFA08E3154B5651FCC6D215639C8EE5774DBE2B5F6CF2B5768B68963BB5F5588420E442FC700B1139D4CB01F450C1E918227C2E09DF070D8140C84E1E9AAB8F1340832A9CB13130A5F1376A908D57309505ECF2A0DF179C4E9D30F5B239B87E3823
310
7A79C6F31DE1A8A5AEC08474B03C7837EAE4938639B44E5932B833D2C6B6B279CDC613877FA26EE21F4A2A4C63EC7F29A2F301D1F9F7A0E37D145F504B0304140006080800CC70623B9C113CC27E0000009D0000000B0000006662782F636E782E786D6C4DCCDF0A83201C86E15B91DFB94BFB330DD428C8FB886521330DA7
310
6397BF1A1DECE883878F57749FCDA1B7892F1BBC047A23808C7F84D9FA55424E0BE6803A256208E9EF06C84F9B91703228B1C690F78B66B34CD9A5439DF5CF0BFBF65E35BCA1B8D6A5C6F540381E886698B5741C695F9503EBA150A2F8958E3DC3EA0B504B0304140006080800CC70623B7DF2F77C2A010000120200003100
310
00006662782F41393633353835312D344632462D344230382D423046372D3739314545314133324237412F636F72652E786D6C8D51DB8EC22014FC15C2939B0D2DB4B45643319AE817EC0F6041255A68B86CFCFC856D4D76DF7CE190393373060EDB3DC707F856CE6B6B7A480A0C81328395DA5C7B18C3057510EC3873D686
310
3F34088C18550F330C39BB3A1BA7051AAC09CA84841A2BD5020AEF55806078A44B0FFD7053A328440C89E1EFC52486BBB8AA8214A99D789CF9E05200300FC927E4FB4D5B375D43103D5527440FB843077C5AA3F5861C8F645F5787F59E95B390B318B55CE45AA638FAA2957BD7248B390B7A7CC51F9C124149C82B8C378810
310
84AB2F42B7B8DD56F413775B8C5999E9FF4471926F8AA236A1AE96B8B3CC434E5839373893369E1FAF30EA395917409EB7F26AF8801C171837A4A6AC9C89E9F9C9B1A58BA30FD6A5EF5DDDCF894B9AD9B6A59C957943A9FCAE2FD5BC4DFE03504B0304140006080800CC70623BAD7543B64E01000033030000300000006662
310
782F41393633353835312D344632462D344230382D423046372D3739314545314133324237412F636E782E786D6CD593CD6EC32010845F0571AD6CE3D48AD20813A9873E410FBD12D82434182C7EAAE6EDBB2424CD25871E7B41D6EC30B3FA84F9E67BB2E40B4234DE8DB46F1925E094D7C6ED479AD3AE5951B2113C789FEE
310
6C943839C1488B4C05DF079FE72A69D8C96C13AAD6B8631503449F83828872B949AC57D26200B826A308D316B4064D6E46FCDA41C05550DC9E483A00797BFD207EFB092A45DE9514C1BBD22178396BD39D891265658C238DEA00936C654E5E433CB65A26D9F6EDB5EBC14EBF49A45CB856E66048291F6939A9A81BB5C89177
310
38143CA680F4AA299D66A042CEB3354A2684DC9D8D178FE0D9B8B41CAAD720F880EE7EF93C0C18769E099ECC04D5A102C8049A8A05632F4DDF376CF1DE0F6BB65C2F8627B65A33C6BB62177CEBBDAD973006829F89F22E814B54F4BC2BE347F8AA8F681390B50FA73F804400B5F542E796F19FF974E7F78DB802FE05E20750
310
4B0304140006080800CC70623BE75B7789680500003C100000340000006662782F41393633353835312D344632462D344230382D423046372D3739314545314133324237412F6F626A656374732E786D6CAD575B8F9B3818FD2B887D06C22499CB8AA1CA655245D5B455A356FB305264C061D8018C6C3393D95FBFC7600890
310
A4CD5EF210B0B1BFEBF98E3F7B1FF6596ABC522E1296DF9BAE3D320D9A872C4AF2F8DE2CE5CEBA358D0FBEC719939D65A691938CDE9B6ADAF4BD98B3B2D05311DD91329583D9D5FC0F438434A7A611A644887B5384CF34233629258BA878B12322891DEFF6B66BD70BFB62634E8AE781D082709A4B588AF91C528CDA28B73F
310
1C998EEF39EABBEFA97FBD6A7C7E9553F9D3D79FE442923C3C523610337627CB87ABE99D359D4CC6D6E4FACAB5E6ABF9D2726FC6A3C5F56271377BB88362213924694B38DD99FE47C48627A1E7D49F5A8BB5E1A74C0A599ED3B0F21F1E56366B89112D681E218F0915D0D6F17AD41FBA2A369DCF6335D62ABBD39779D5DDD1
310
11D4D8DE3CBB96B2E04FB8202E41051754A1AA8E8F76B4C6DFE810B580B1547F4B84911149794252234D024EF8BBE963A95AE27B3D310A9D5C215C7960FAEE415ED75694C6AFB17BCACA5D99A60A9AA65F217B0BFC53292ACB92BF283FAD0D3621576592CB5BED907C2FA8E9DF794E35E97BEA31BED21FEB401ABB94C44839
310
DCACBF0E1C5DA8DA5B2F4DFFD32AD86F543D9E565E7056502E157C00AD2671CD534549AB752FCA9CDA00677A313F04E51B22FF19E57B300579E3C97EB29F682D92935CEC18CF901B7B54FD8C51F362B56FC72FE0B3C1EAE335EDCCBF5AEC39ADB17DC238973F804BA5E6F6BFE7AF1FB32E523BE9F3BD571418E3631DCA4D48
310
5250CF639223210A9446CA30052EDF057BD35F8329C1ECD84552BF0DC8D18BE7BCE23BFE6BD960AB4A7DE79923A103BEBD80F911CBAA2C60DB19B01CF164A5583B772EE6D3FFA56666CBCDA74DC97724A48F9A58967497E489C4D979006FD7A05E227A1EBDD0F737C623387A9C844D3709995625106D157315F8B8392CD4E0
310
A0B9A720C4BE9829CEF37EA1E13111214D53925356365ADA634861B52519DD27A00AEB808EAF0628E6F435519D446F45CF2C9CF5214F0A15B2F6D06B79DA3EE3CBF7F56780D2F4E7EF73A0F5E5B02A38D07DC852C6B7C1FBB6664213E0C39E3EBA7FF4E1AD23EA2829407C85E586727488B751B2DB9502BC7B228A3FD68B6E
310
A65A22397E690AA8D158D7E404EC8CDA235CC3B7D1898680131CEC2CDF2638C65196279577750F15884AEE19F94199155B92B13297978469D4F8D358DF0AEF7631E28DC8F0D9F437D5D39A83B2231A1D52D543813A824EF8D44BCFF2FA6A31BD1E8DAD87F1CCB526B3879935BF59CDADD5C37479BB1CDD4CA7B3556B516589
310
EF352754B706114D9C885EC9131DE6EFEB43D99AFE2391C2F958179413D7CFEF6B1B6DB1E7600F00DE6E5C67454A339A4BA2E0FBA85ED26F045D454F463DBFCE484C2F90F2E5E3666003662ED8F755951A7D1BECD5B30B550B2785C8E7320B7292A4838DDA71BBC863ED7613CAF659337A3354231D4FF4A182A54904C2898C
310
98B28C4AD0CE056CCF332A80986E571EE9DBC305BB5FEB7E509220A58D25CF042D712A806AC0AD0C657FDEF80D2D9CEAA2EE4D1C76F60BFE74219A06527D6F82DF6412526107381E55E353090704D085B52408A8913C4ED159D79BDA71BB4BC506F4831350EB6F975CD22D69BF7AC49B91A2C0A9DDA3D5CA36AD20FC478E37
310
E61844E2352865EBCB61A275A65283CAAA9DD27703B4102F5AF51EF5F573B75CBB5AD38BC845F7A49F82A0966A49C2E3EA5EA0ECD326CD965F1DB402C6FA8B51A4658C5C5E2EC9E214602E55810345408596591009A82E7E7FFACA19EEA299B14A0081A705CB3296EBC14CDF658DCD336EA6D1136881AAEB87B81AB9EE53D5
310
F5EB8BC8362082DA24122F98680A4E7930C01A0079749CEA14382A0783E5EBA5A10F8C098456A03D6A4AEB6BB881E2513747552A5DB22C7EDAF83BD5528081A365F7FF06504B0304140006080000CC70623B000000000000000000000000350000006662782F41393633353835312D344632462D344230382D423046372D37
310
39314545314133324237412F76657274696365732E62696E504B0304140006080800CC70623BF270F1330600000004000000360000006662782F41393633353835312D344632462D344230382D423046372D3739314545314133324237412F747269616E676C65732E62696E636660600000504B0304140006080000CC7062
310
3B000000000000000000000000370000006662782F41393633353835312D344632462D344230382D423046372D3739314545314133324237412F617474726962757465732E62696E504B0304140006080800CC70623B08DA0BD19000000041010000360000006662782F41393633353835312D344632462D344230382D4230
310
46372D3739314545314133324237412F6469726563746F72792E786D6C858F410AC3201045AF22B36F53E9A60B35CBEEBAE80D244E44489C6234F4F835464A48035D0DF398FF9F8AF63D0E6CC63039F212F8F9020C7D47C6792B21C5FE7403D62A1188E2E60C98D7234A5830286103A55745067B9D86B8A3CF9C7F90C11DE6
310
07FB144396D7B6A82D282E9A152AD114D5EF2CB866EEE831B8EEA07A7BB5A8D7D61A2BAAEB7FD5F70921FF497D00504B0304140006080800CC70623BEDD1DC58FD000000A00100003B0000006662782F41393633353835312D344632462D344230382D423046372D3739314545314133324237412F7265736F75726365732F
310
636F72652E786D6C8D504B6E833010BD0A9A6D65B00922041947112427E8052C33A156828DFCA97AFC9A40A576D7CDCCE87D344F8F9FBFE667F689CE6B6B3A6039850C8DB2A336530731DC4903D95970676DF82583CCC8193B5861107C72362E3BA4AC096842428D1D7107A5F7182053CF7474E0D507CE32973124857FE48B
310
540F3961CEF244279DE03EB81420DB9EAC1384436FA353E879B1B182C7A8C75DA3C7F453DF353A1075D537A7BA6464B8F535A99AE14A9A2BBD90E350DD183B5CFABE3AF262350B1EF4FC9351399401471025A527C218A1E53BAB5A5AB765F5469B96525EACF23FA6B88CFF34456DC2A1DCE36E360F82A5202F42F062ED2BAD
310
579969AFDD8A6F504B010214000A0000080000CC70623B3DEE336E79000000790000001B00000000000000000000000000000000006175746F6465736B2D64657369676E2D7061636B6167652E786D6C504B01021400140006080800CC70623BD486FD9CA0000000F40000001300000000000000000000000000B20000005B
310
436F6E74656E745F54797065735D2E786D6C504B01021400140006080800CC70623B853B8169EB0000007C010000080000000000000000000000000083010000636F72652E786D6C504B01021400140006080800CC70623B55019EA25F0000007C000000070000000000000000000000000094020000636E782E786D6C504B
310
01021400140006080800CC70623BDBABAAF470010000D40300000C00000000000000000000000000180300006662782F636F72652E786D6C504B01021400140006080800CC70623B9C113CC27E0000009D0000000B00000000000000000000000000B20400006662782F636E782E786D6C504B01021400140006080800CC70
310
623B7DF2F77C2A010000120200003100000000000000000000000000590500006662782F41393633353835312D344632462D344230382D423046372D3739314545314133324237412F636F72652E786D6C504B01021400140006080800CC70623BAD7543B64E010000330300003000000000000000000000000000D2060000
310
6662782F41393633353835312D344632462D344230382D423046372D3739314545314133324237412F636E782E786D6C504B01021400140006080800CC70623BE75B7789680500003C10000034000000000000000000000000006E0800006662782F41393633353835312D344632462D344230382D423046372D3739314545
310
314133324237412F6F626A656374732E786D6C504B01021400140006080000CC70623B0000000000000000000000003500000000000000000000000000280E00006662782F41393633353835312D344632462D344230382D423046372D3739314545314133324237412F76657274696365732E62696E504B01021400140006
310
080800CC70623BF270F133060000000400000036000000000000000000000000007B0E00006662782F41393633353835312D344632462D344230382D423046372D3739314545314133324237412F747269616E676C65732E62696E504B01021400140006080000CC70623B0000000000000000000000003700000000000000
310
000000000000D50E00006662782F41393633353835312D344632462D344230382D423046372D3739314545314133324237412F617474726962757465732E62696E504B01021400140006080800CC70623B08DA0BD1900000004101000036000000000000000000000000002A0F00006662782F41393633353835312D344632
310
462D344230382D423046372D3739314545314133324237412F6469726563746F72792E786D6C504B01021400140006080800CC70623BEDD1DC58FD000000A00100003B000000000000000000000000000E1000006662782F41393633353835312D344632462D344230382D423046372D3739314545314133324237412F7265
310
736F75726365732F636F72652E786D6C504B0506000000000E000E0080040000641100000000
  0
XRECORD
  5
A4D7
102
{ACAD_REACTORS
330
1F7
102
}
330
1F7
100
AcDbXrecord
280
     1
102
MATERIAL
148
0.0
149
0.0
149
0.0
 93
        0
 94
       63
282
     0
 72
     1
 77
     1
171
     1
175
     1
179
     1
273
     0
  0
XRECORD
  5
1F8
102
{ACAD_REACTORS
330
1F7
102
}
330
1F7
100
AcDbXrecord
280
     1
 70
     1
 90
429727718
  1
30362254-06B7-45E0-A893-8CFA70E3D6BC
310
504B03040A0000080000CC70623B3DEE336E79000000790000001B0000006175746F6465736B2D64657369676E2D7061636B6167652E786D6C3C3F786D6C2076657273696F6E3D22312E302220656E636F64696E673D227574662D3822203F3E3C666F726D6174733E3C666F726D61743E687474703A2F2F736368656D612E
310
6175746F6465736B2E636F6D2F64657369676E2D7061636B6167652F323030393C2F666F726D61743E3C2F666F726D6174733E504B0304140006080800CC70623BD486FD9CA0000000F4000000130000005B436F6E74656E745F54797065735D2E786D6C7D8EC10E82300C865F65E91D8A1E8C310C0EEA1BF002731658846E
310
D98AC1B77784ABF1D8FE5FBFBF75BBCE937A534CCEB38643598122B6FEE978D0B0485F9C41B54DDD7D022595594E1A469170414C76A4D9A4D207E29CF43ECE46F218070CC6BECC4078ACAA135ACF422C856C0E68EA1BF5669944DDD7BCDE7B1F8E415D77AECB980613C2E4AC91FC167A2B244592486606FC29C8FD7F045B9A
310
EF7053A7E60B504B0304140006080800CC70623B1EC5D7A3EB0000007C01000008000000636F72652E786D6C8D90416EC3201045AF82665B6103C6756C6122AB4D4ED00B204C5C94182C03558F5F9C3852BBEB6A467FFE9B197D71FC9E6FE8CBACC17AD7032D0820E3B41FAD9B7A48F1820F808E52ACDEC75F36404ECDA687
310
4D0629A6D5A76597B477D1B89855E747B38B2A041301E95B6E7A08FAD3CCAA50296647B8168BD2573599823EBB0CA76447F43862C7BCCF5EAC59410E4DDD9C7973C2755553CCCFA4C603E3040F1565ED3B1FDE4E432BCA0D9622DAF9795FAF464533826484B498524CD807E51D79ED187F21878E10516EF63F505AC67F42C9
310
BA58B1FDDD071640D2FCC87D2045B96591CB3DA85CB7DCE40F504B0304140006080800CC70623B55019EA25F0000007C00000007000000636E782E786D6C4DCB3B0E80201045D1AD90E915ED2CF8AC45050C11660C8261F98AB1B07AC9C97D42D718D865D3E909258CFD00CCE24AC6E326A164D74DC0B4128928FF32603847
310
2BA13128B1252AC747C6BAB984FC68F0B87FE8960A5C09FE86CFB69FBA01504B0304140006080800CC70623B8C9102E971010000D40300000C0000006662782F636F72652E786D6CC5535B6E833010BC8AE5DF0A6C08340F1947A84D4ED00B38C6A128602363A31CBFCB234A53A551FA553EC09AD9F5CE8C31DB9E9B1AF5CA
310
7695D1198E428A91D2D214952E33ECDD315861B4E5CC1AE3BE9561A445A3323CC098B3D21ADFCE9034DA29ED00D5A6503328BA4E398C640D8B0C77F253352214DE4145770A5B214FA2546114020D759C75CE8200340D19DE981F0F6746269C33EFAB6266AB02A655C74A59CCF365BADC27CB5D902ED22848F6340DF238A141
310
BE88E2F57B92BFEDF23523433367AE6A2EEAA455C2A902F398D2751045018D3FA264435F3771F242571B4A1919CA6F9A7C5B3CD9E42BED16F12C776AEB308F40C848FC700B1139D4891EF410CEC810227CC6846F8386402064270EF5C5C709A05E49676C024C61FC95EA45ED154CA5211D1FF4FB8291A913A68E9B83EBBB33
310
E2A7673CDE118E5AE8124C0807CB8377834E366998436B950D7A7746DAD846D4CFD978E0F04FD455FC5D49D2D4C6FE9722321F10997F0F32DC47FE05504B0304140006080800CC70623BFFEA85907E0000009D0000000B0000006662782F636E782E786D6C4DCCD10A83201886E15B91FFDC95D95A811AB6F23E625948A6C3
310
E9D8E5AF46073BFAE0E1E365ED67B3E8ADC3CB78C7815C7240DA3DFC64DCC221C519D7805AC182F7F1EF06C88D9BE6703008B6049F9E274D7A1E938DBB5AE3D6131B2589BA0D3D965551E0B2EA732C9B9A624AAEB41E3A557677029960D9AFB4EF11165F504B0304140006080800CC70623B4FEEA4082C0100001202000031
310
0000006662782F39464131463745442D413632322D343644302D413938332D3331353338454246344243312F636F72652E786D6C8D515B6EC32010BC0AE2AB55850DD871ED0813254D72825EC00192A2C460F1A872FC42ED48ED5F7E00CDCECCCEB26C731F6FE05B39AFADE921293004CA082BB5B9F43086336A21D870E6AC
310
0D7F68109861543DCC30E4ECE26C9C164858139409093556AA051CBC570102714B8F1E7AF1A5C6A11862480C7F2DA6415C878B2A4891CA89C7990F2E050073937C42DE1DB7E4F87ED8A36D4329AA9B3D46DBAEAD504556557BD81DEBDD0761E52CE42C462D17B996298E3E6BE59E35C962CE821E1FF18553435012728A7187
310
0841987E927A8D9B35ADDF70BBC6989599FE4F1427F9A4286A132ABAC49D651EF234CD5CE04CDA78BA3DC2A8FB645D00B9DF8B57E215725C60BCA2A463E54C4CE327C7A65E1C7DB02E7DEFCBF594B864C5CA6CDBD49C957943E9FA5D5FBAF336F90F504B0304140006080800CC70623BAD7543B64E01000033030000300000
310
006662782F39464131463745442D413632322D343644302D413938332D3331353338454246344243312F636E782E786D6CD593CD6EC32010845F0571AD6CE3D48AD20813A9873E410FBD12D82434182C7EAAE6EDBB2424CD25871E7B41D6EC30B3FA84F9E67BB2E40B4234DE8DB46F1925E094D7C6ED479AD3AE5951B2113C
310
789FEE6C943839C1488B4C05DF079FE72A69D8C96C13AAD6B8631503449F83828872B949AC57D26200B826A308D316B4064D6E46FCDA41C05550DC9E483A00797BFD207EFB092A45DE9514C1BBD22178396BD39D891265658C238DEA00936C654E5E433CB65A26D9F6EDB5EBC14EBF49A45CB856E66048291F6939A9A81BB5
310
C8917738143CA680F4AA299D66A042CEB3354A2684DC9D8D178FE0D9B8B41CAAD720F880EE7EF93C0C18769E099ECC04D5A102C8049A8A05632F4DDF376CF1DE0F6BB65C2F8627B65A33C6BB62177CEBBDAD973006829F89F22E814B54F4BC2BE347F8AA8F681390B50FA73F804400B5F542E796F19FF974E7F78DB802FE05
310
E207504B0304140006080800CC70623B16AB87BA640500003C100000340000006662782F39464131463745442D413632322D343644302D413938332D3331353338454246344243312F6F626A656374732E786D6CAD575B6FA33818FD2B887DE6924B3BED8A326A92B68A663B534DD4D13E548A0C38942D60649B369D5FBFC7
310
600890A493BDE42160637FD7F31D7FF63E6FB3D478A55C242CBF3247B66B1A340F5994E4F19559CA8D75611A9F7D8F33263BCB4C232719BD32D5B4E97B316765A1A722BA21652A07B3B7B33F0D11D29C9A46981221AE4C113ED38CD8A4942CA2E2C58E882476BCD9DA23BB5ED8171B73523C0F841684D35CC252CCE79062D4
310
468DFA43D7747CCF51DF7D4FFDEB5593E3AB9CCA9FBEFE241792E4E19EB28198C968BAB8199F5D5A67D3E9C49A9E8F47D6EC76B6B0469F26EEFC7C3EBFBCBEB98462213924694B38DD98FE1D62C393D073EA4FADC5DAF04326852CCF6958F90F0F2B9BB5C48816348F90C7840A68EB78EDF68723159BCEE7891A6B95DDE9D3
310
BCEAEEE8086A6C6F9E5D4B59F0175C10A7A0820BAA5055C7473B5AE3CFDD452D602CD5DF12616444529E90D448938013FE6EFA58AA96F85E4F8C42275708571E98FE6827AF6B2B4AE3D7D83D64E5A64C53054DD3AF90BD06FEA9149565C94FCA0F6B834DC85599E4F2423B24DF0B6AFA979E534DFA9E7A4CC6FA631D486393
310
921829879BF5D781A373557BCB85E97FB90DB62B558F8795179C15944B051F40AB495CF35451D26A4727654E6D8033BD98EF82F21D91FF8AF2DD9982BCF1643BDD4EB516C9492E368C67C88DED563FC36D5EACF66DFF057C3658BDBFA69DF9578B3DA735B64F18C7F20770A9D45CFCF7FCF563D6456A277DBEF78A02637CA2
310
43B90A490AEAB94F72244481D24819A6C0E59B606BFA4B3025981DBB48EAB701D97BF19C577CC77F2D1B6C55A9EF3C732474C0B727303F625995056C3B02963D9EAC146BE78EC5FCEC7FA999EBC5EACBAAE41B12D27B4D2C0BBA49F244E2ECDC81B76B502F113D8F5EE8FB1BE3111CDD4FC2AA9B844CAB1288B68AB90A7CDC
310
1C166AB0D3DC5310625FCC14E779BFD0709F8890A629C9292B1B2DED31A4B0DA928CEE135085754027E3018A397D4D5427D15BD1330B677DC8934285AC3DF45A9EB68FF8F2B8FC0A509AFEECFD0FF2DE25CC6047F7214B195F07EFEB9A094D800F7BFAE8FED187B78EA8A3A400F115961BCAD1215E47C966530AF0EE8128FE
310
58CEBB996A8964FFA529A046635D9353B0336A8F700DDF46271A024E70B0B37C9DE01847591E54DED53D54202AB947E4076556AC49C6CA5C9E1226B7F1A7B1BE15DEED62C41B91E1B3E9AFAAA735036547343A925075041DF0A9979E893B391F8FCFA6967B3EFB644DCF6E5CEBFAE272625DCC6FAF3FB93793C5F90CE1EF57
310
407342756B10D1C489E8953CD1617E5CEECAD6F4EF8914CE5D5D504E5C3F1F9736DA62CFC11E00BCDDB8CC8A9466349744C1F75EBDA4DF09BA8A9E8C7A7E9991989E20E5DBDD6A6003664ED8F7A04A8DBE0DF6EAD9B9AA858342E47399053949D2C146EDB85DE4B176BB0965FBAC19BD19AA918E27FA50C1D22402E144464C
310
59462568E704B6E71915404CB72B8FF4EDE184DDAF753F284990D2C6926782963815403548A70C657FDEF80D2D9CEAA2AE4C1C76F60BFE74219A06527D6582DF6412526107381E55E353090704D085B52408D0933C4ED159D79BDA71BB4BC506F4831350EB6F979CD22D69BF7AC49B91A2C0A9DDA3D5CA36AD20FC478E37E6
310
1844E2352865EBCB6EA275A652E3836BE04EFB400BF1A2556F515F1FBB35B2AB35BD889C744FFA1004B5544B121E57F70215746DD2F5E2C1412B602CBF19455AC6C8E5E9922C4E01E65215385004546899059180EAFCF7A707CE7017CD8CDB0410789AB32C63B91E5CEBBBACB17AC6CD347A022D5075FD106377347AAABA7E
310
7D11590744509B44E205134DC1290F06580320F78E537D3D73540E06CB970B431F185308AD40BBD794D6D77003C5A36E8EAA54BA64597CD8F83BD552A080A365F7FF06504B0304140006080000CC70623B000000000000000000000000350000006662782F39464131463745442D413632322D343644302D413938332D3331
310
353338454246344243312F76657274696365732E62696E504B0304140006080800CC70623BF270F1330600000004000000360000006662782F39464131463745442D413632322D343644302D413938332D3331353338454246344243312F747269616E676C65732E62696E636660600000504B0304140006080000CC70623B
310
000000000000000000000000370000006662782F39464131463745442D413632322D343644302D413938332D3331353338454246344243312F617474726962757465732E62696E504B0304140006080800CC70623B08DA0BD19000000041010000360000006662782F39464131463745442D413632322D343644302D413938
310
332D3331353338454246344243312F6469726563746F72792E786D6C858F410AC3201045AF22B36F53E9A60B35CBEEBAE80D244E44489C6234F4F835464A48035D0DF398FF9F8AF63D0E6CC63039F212F8F9020C7D47C6792B21C5FE7403D62A1188E2E60C98D7234A5830286103A55745067B9D86B8A3CF9C7F90C11DE607
310
FB144396D7B6A82D282E9A152AD114D5EF2CB866EEE831B8EEA07A7BB5A8D7D61A2BAAEB7FD5F70921FF497D00504B0304140006080800CC70623B0D6EF93BFE000000A00100003B0000006662782F39464131463745442D413632322D343644302D413938332D3331353338454246344243312F7265736F75726365732F63
310
6F72652E786D6C8D50596E833010BD0A9ADFCA60B334011947A8694ED00B586642AC041B79A97AFC9A40A5F6AF3F33A3B7689E1E3F7DCD8FEC139DD7D6F4C0720A191A65476DA61E62B892236427C19DB5E1970C322367EC618541F0C9D9B8EC90B226A009093576C41D94DE63804C3DD2D18357379C652E63480A7FCF17A9
310
EE72C29CE5894E3AC17D702940B63D59270887DE46A7D0F36263058F518FBB468FE9A7BE6A7420864373B8D4873369AA8691FA421B3294352543C5CAF65C0F6FEF43CB8BD52C78D0F34F46E550061C419494B6843142CB0F5677F4B52BEB177AEC28E5C52AFF638ACBF84F53D42654E51E77B379102C05791282176B5F693D
310
CB4C7BED567C03504B010214000A0000080000CC70623B3DEE336E79000000790000001B00000000000000000000000000000000006175746F6465736B2D64657369676E2D7061636B6167652E786D6C504B01021400140006080800CC70623BD486FD9CA0000000F40000001300000000000000000000000000B20000005B
310
436F6E74656E745F54797065735D2E786D6C504B01021400140006080800CC70623B1EC5D7A3EB0000007C010000080000000000000000000000000083010000636F72652E786D6C504B01021400140006080800CC70623B55019EA25F0000007C000000070000000000000000000000000094020000636E782E786D6C504B
310
01021400140006080800CC70623B8C9102E971010000D40300000C00000000000000000000000000180300006662782F636F72652E786D6C504B01021400140006080800CC70623BFFEA85907E0000009D0000000B00000000000000000000000000B30400006662782F636E782E786D6C504B01021400140006080800CC70
310
623B4FEEA4082C0100001202000031000000000000000000000000005A0500006662782F39464131463745442D413632322D343644302D413938332D3331353338454246344243312F636F72652E786D6C504B01021400140006080800CC70623BAD7543B64E010000330300003000000000000000000000000000D5060000
310
6662782F39464131463745442D413632322D343644302D413938332D3331353338454246344243312F636E782E786D6C504B01021400140006080800CC70623B16AB87BA640500003C1000003400000000000000000000000000710800006662782F39464131463745442D413632322D343644302D413938332D3331353338
310
454246344243312F6F626A656374732E786D6C504B01021400140006080000CC70623B0000000000000000000000003500000000000000000000000000270E00006662782F39464131463745442D413632322D343644302D413938332D3331353338454246344243312F76657274696365732E62696E504B01021400140006
310
080800CC70623BF270F133060000000400000036000000000000000000000000007A0E00006662782F39464131463745442D413632322D343644302D413938332D3331353338454246344243312F747269616E676C65732E62696E504B01021400140006080000CC70623B0000000000000000000000003700000000000000
310
000000000000D40E00006662782F39464131463745442D413632322D343644302D413938332D3331353338454246344243312F617474726962757465732E62696E504B01021400140006080800CC70623B08DA0BD190000000410100003600000000000000000000000000290F00006662782F39464131463745442D413632
310
322D343644302D413938332D3331353338454246344243312F6469726563746F72792E786D6C504B01021400140006080800CC70623B0D6EF93BFE000000A00100003B000000000000000000000000000D1000006662782F39464131463745442D413632322D343644302D413938332D3331353338454246344243312F7265
310
736F75726365732F636F72652E786D6C504B0506000000000E000E0080040000641100000000
  0
XRECORD
  5
A4D9
102
{ACAD_REACTORS
330
173
102
}
330
173
100
AcDbXrecord
280
     1
102
MATERIAL
148
0.0
149
0.0
149
0.0
 93
        0
 94
       63
282
     0
 72
     1
 77
     1
171
     1
175
     1
179
     1
273
     0
  0
XRECORD
  5
175
102
{ACAD_REACTORS
330
173
102
}
330
173
100
AcDbXrecord
280
     1
270
     1
271
     1
  0
XRECORD
  5
174
102
{ACAD_REACTORS
330
173
102
}
330
173
100
AcDbXrecord
280
     1
270
     1
271
     1
  0
XRECORD
  5
1FB
102
{ACAD_REACTORS
330
173
102
}
330
173
100
AcDbXrecord
280
     1
 70
     0
 90
1673772943
  1
ECE7A1D2-D628-4531-984C-D00F80459256
310
504B03040A0000080000CC70623B3DEE336E79000000790000001B0000006175746F6465736B2D64657369676E2D7061636B6167652E786D6C3C3F786D6C2076657273696F6E3D22312E302220656E636F64696E673D227574662D3822203F3E3C666F726D6174733E3C666F726D61743E687474703A2F2F736368656D612E
310
6175746F6465736B2E636F6D2F64657369676E2D7061636B6167652F323030393C2F666F726D61743E3C2F666F726D6174733E504B0304140006080800CC70623BD486FD9CA0000000F4000000130000005B436F6E74656E745F54797065735D2E786D6C7D8EC10E82300C865F65E91D8A1E8C310C0EEA1BF002731658846E
310
D98AC1B77784ABF1D8FE5FBFBF75BBCE937A534CCEB38643598122B6FEE978D0B0485F9C41B54DDD7D022595594E1A469170414C76A4D9A4D207E29CF43ECE46F218070CC6BECC4078ACAA135ACF422C856C0E68EA1BF5669944DDD7BCDE7B1F8E415D77AECB980613C2E4AC91FC167A2B244592486606FC29C8FD7F045B9A
310
EF7053A7E60B504B0304140006080800CC70623BD9DDAED0EC0000007C01000008000000636F72652E786D6C8D90416EC3201045AF82665B61836D9CD8C2444DD39CA01740405C94182C03558F5F9C3852BBEB6A467FFE9B197D7EF89E6EE8CB2CC17A37002D0820E394D7D68D03A478C17B4007C117EFE32F1B20272733C0
310
2A83E0E3E2D3BC49CABB685CCCAAF3DA6CA20CC14440EA969B0182FA34932C648AD911AEC52CD5558EA6A0CF2EC329598D1E47ACCEFBECC59A050463A7EA5833865FEBDD0E37353BE3EE8DBDE3F6786A48D375FBF6CC78B9C282473B3DEFABC5C86834888A900E538A49F5419B9EB47DD5BC907D4F082F57FB1F28CDFA9F50
310
B22ED6D5F6EE030B20687EE43E10BC5CB3C8E51E54AE6B6EE207504B0304140006080800CC70623B55019EA25F0000007C00000007000000636E782E786D6C4DCB3B0E80201045D1AD90E915ED2CF8AC45050C11660C8261F98AB1B07AC9C97D42D718D865D3E909258CFD00CCE24AC6E326A164D74DC0B4128928FF326038
310
472BA13128B1252AC747C6BAB984FC68F0B87FE8960A5C09FE86CFB69FBA01504B0304140006080800CC70623BA24EB22D72010000D40300000C0000006662782F636F72652E786D6CC5535B6E833010BC8AE5DF0A6C5E49888CA3A6694ED00B38E05014B091B1518EDFE511A5A9D228FD2A1F60CDEC7A67C6986DCE4D8D7A
310
69BA4AAB0C073EC548AA5C17952A33ECECD15B61B4E1CC686DBF9561A44423333CC098B3D268D7CE50AE9595CA02AA74216750749DB418E5352C32DCE59FB211BE70162ABA93DF8AFC244AE9073ED050C759670D0840D390E18DF9F1706664C23973AE2A66B62A605A75ACA4C13C4976E1364A12EF355A2EBD384AF65EFA96
310
BC7B8BED2EA6719AAE16FB8491A199335B351775B991C2CA02F390D2D40B028F861F41BCA68B7518BFD0D59A524686F29B26D7164F36B94AD9289CE54E6D1DE6010819891F6E21228B3AD1831EC219194284CF98F06DD01008846CC5A1BEF83801D4CBDC6A1303536877A57A513B0953A94FC707FDBE6064EA84A9E3E6E0FA
310
EE8CF0E9198F7784A316AA0413C2C2F2E0ECA0934D1AE6D05A69BCDE9E91D2A611F573361E38FC1375157F5752AE6B6DFE4B11990F88CCBF0719EE23FF02504B0304140006080800CC70623B408A7D3B7C0000009D0000000B0000006662782F636E782E786D6C4DCCD10A83201886E15B91FFDC552A92A0064DBC8F581632
310
D3703A76F9ABD1C18E3E78F878E5F0D9027ABBFCF2292AE86E2D20171F69F6715550CB827B40839639A5F2770314A7CD293819B45C73AAFB45B35BA61ACAA1C1C7E7855C58C15BC331339661262CC762340413D68D77DA5B42298546CBE6573AF60CEB2F504B0304140006080800CC70623B449FB9BD290100001202000031
310
0000006662782F36394639363044362D344446342D343946362D394244322D3234314243333846323333332F636F72652E786D6C8D515B6EC32010BC0AE22B55850D98B871848994463E412FE002495162B07854397EA176A4F62F3F2C9A9D991D587EB84F37F0AD7D30CEF6905418026DA553C65E7A98E219ED203808EE9D
310
8B7F6810D871D23D2C3014FCE25D9A57483A1BB58D19B54EE9151C43D0110279CB971E06F9A5A7B11A53CC8C70ADE6515EC78BAE4895DB992778883E0700CB907242D17643D7E2538BD869608875438BBAE38922CAC8F1BDD90DB4691A5E2F42C153326A951B95E398B3D1FE599322163C9AE9115F7A3D46ADA0A018778810
310
84E907617BDCEE297BC5BB3DC6BC2EF47FA234AB2745C9D8D8D035EE220B50105E2F0DC1954B9FB747187D9F9D8FA0CCDB042D5FA0C015C65B42DF78BD10F3F3B363CB56C7109DCFDFBBB97E662ED92EB62D13BC2E1BCAE5777DB9966D8A1F504B0304140006080800CC70623BAD7543B64E01000033030000300000006662
310
782F36394639363044362D344446342D343946362D394244322D3234314243333846323333332F636E782E786D6CD593CD6EC32010845F0571AD6CE3D48AD20813A9873E410FBD12D82434182C7EAAE6EDBB2424CD25871E7B41D6EC30B3FA84F9E67BB2E40B4234DE8DB46F1925E094D7C6ED479AD3AE5951B2113C789FEE
310
6C943839C1488B4C05DF079FE72A69D8C96C13AAD6B8631503449F83828872B949AC57D26200B826A308D316B4064D6E46FCDA41C05550DC9E483A00797BFD207EFB092A45DE9514C1BBD22178396BD39D891265658C238DEA00936C654E5E433CB65A26D9F6EDB5EBC14EBF49A45CB856E66048291F6939A9A81BB5C89177
310
38143CA680F4AA299D66A042CEB3354A2684DC9D8D178FE0D9B8B41CAAD720F880EE7EF93C0C18769E099ECC04D5A102C8049A8A05632F4DDF376CF1DE0F6BB65C2F8627B65A33C6BB62177CEBBDAD973006829F89F22E814B54F4BC2BE347F8AA8F681390B50FA73F804400B5F542E796F19FF974E7F78DB802FE05E20750
310
4B0304140006080800CC70623B8D05915C650500003B100000340000006662782F36394639363044362D344446342D343946362D394244322D3234314243333846323333332F6F626A656374732E786D6CAD575B6FA33814FE2B887D06429276DA1565D4266D158D3A339A6846FB502932E050B66023DB74D2FDF5FB190C01
310
9276B2973C046C8ECFF53B17071F77456EBD502133CEAE6CDF9DD81665314F32965ED995DA3A17B6F5310C04E7AA47665B8C14F4CAD6DB7618A48257A5D94AE89654B91AEDDEDDFC61C998326A5B714EA4BCB265FC440BE2924AF184CA6737218AB8E976E7FA6E4338649B0A523E8D98964450A6A029F619B8588D52FE7039
310
B1BD30F0F4F730D0FF866AF6369557DB33949F31A9088B0F848DD8CCFCF9F2767A76E99CCDE733677E3EF59D9BBB9BA5E37F984D16E78BC5E5F5ED25044B25C0C96822E8D60EEFE11B91C581D77CEA34368A1F5329E68CD1B8B61F16D63A1B8E092D294B10C78C4A48EB593D192E7DED9BDEE7995E1B91FDEDD3ACEA9FE831
310
6A756F9F7D4D79F4274C90A7A04248AA51D5F8C718DAE06FB2F75AC4796EBE65D22A88A22223B995679120E2D50E41AA49C260C046A35368846B0BECD0DFF3EBEB8AD4F835768F69B9ADF25C43D30E6B646F807FAA64AD59F61715C7A54127C4AACA98BA3006A9D792DAE165E0D59B61A01FB3A9F9D838D2DAE62445C86166
310
F37564E842E7DE6A69879FEEA2DD5AE7E371E1A5E025154AC307D06A03D73EB5978C58FFA4C8E9033066E0F3BD53BEC1F39F91BE7B55103791EDE6BBB991A2046172CB4581D8B893FA674DDA17A77B3B7C413D1B511FD2743BFF8A38F03A658705E3ADF8015C3A3417FF3D7E439FF591DA0B5F18BC20C1B8981957AE6392A3
310
F43C640C01D1A0B4728E2DD4F26DB4B3C3152A252A3B4E913CEC1C72F012782FF88EFF8637AA552DBEF76408E8A8DE9E50F9E1CB3A2DA0DB1B6039A893B56063DC5B3E3FFB5F72E67AB9FEB4AEC496C4F4C1149625DD662C53E89D7BF0F6151A046260D1337DFDC94502430F83B0EE07A130A224BCAD7DAE1D9FB6CD422FF6
310
920702629C4BB9AE79C12F243C6432A6794E18E5552BA56B431AAB5D91317302B2B071E86C3A42B1A02F999E24061403B5D0EB639195DA655DD3EBEAB4FB862DDF579F014AD0E73C22F99E28DA57FB98E75C6CA2D74D53086D600F4786E0FE3144B771A8A7B900F03594DB8A633CBC49B2EDB69228BB479CF863B5E807AAAB
310
23872F6DFEB4129B949CA33823F58830E86D65621E10047D9DB34D862E8EAC3C2ABC2F7B2C40D67CDFE01F5545B92105AF983AC54D93D69E56FB8E797F88913F898A9FEC705D3F9D1B54EC8426FB500D40A03BD0119B06E1B95DDC7EB8F6975367793EBD70E66733DFB9BC982F9CE564727731999F5D4ECFCE3B8D6A4DC2A0
310
6D50FD148437D110834A64C6CDDF57FBACB5C307A2A477DFE4939736CFEF2B175371E0E10CF0DD1D5C15654E0BCA14D1E87DD02FF93782A162C0A3D95F1524A52770F972BF1EE9809D13CE7DD599467F8ECE9ADD85CE85A34CD45355448C64F9E8A031DC2D596ACC6E5DD93D9B82DE2EF5CAF81363A8E47996A0DE24564A79
310
4115AACE09C55E14540231FDA13C319787134EBF34E3A022514E5B4D9E0826E25C02D5805B15ABE1BEF51B26383D445DD9E875EE33FE4C22DA16427D65A3BCA92CA6D28DD01DF5DC53330704308475351050232CCD31583787BA75774AFB06E5070DD0C8EF484E19968C5D83BA5B90B244D31E54D55A372320FE4786B7EA58
310
44E135AA5467CB7EA333A61683CC6A8C3257034C10CF46F40EF9F5BE59BE5BD30C3C72D235E95D10345C1D45445A5F0BB47E46A5EBE5570F9380B5FA629579952296A773720405982B9DE04011506178964401AA8BDF1FBF0A8EAB6861DD6580C0E38217056766716DAEB2D6FA0917D3E4116581EADB879C4E7CFFB11EFACD
310
3D641311495D92C8676CB409A72D18610D803CE8A626049E8EC1887CB5B44CC39883690DDA8399B4B9855B481E7D71D4A9D22F96E5BB73BF5793020C02137BF837504B0304140006080000CC70623B000000000000000000000000350000006662782F36394639363044362D344446342D343946362D394244322D32343142
310
43333846323333332F76657274696365732E62696E504B0304140006080800CC70623BF270F1330600000004000000360000006662782F36394639363044362D344446342D343946362D394244322D3234314243333846323333332F747269616E676C65732E62696E636660600000504B0304140006080000CC70623B0000
310
00000000000000000000370000006662782F36394639363044362D344446342D343946362D394244322D3234314243333846323333332F617474726962757465732E62696E504B0304140006080800CC70623B08DA0BD19000000041010000360000006662782F36394639363044362D344446342D343946362D394244322D
310
3234314243333846323333332F6469726563746F72792E786D6C858F410AC3201045AF22B36F53E9A60B35CBEEBAE80D244E44489C6234F4F835464A48035D0DF398FF9F8AF63D0E6CC63039F212F8F9020C7D47C6792B21C5FE7403D62A1188E2E60C98D7234A5830286103A55745067B9D86B8A3CF9C7F90C11DE607FB14
310
4396D7B6A82D282E9A152AD114D5EF2CB866EEE831B8EEA07A7BB5A8D7D61A2BAAEB7FD5F70921FF497D00504B0304140006080800CC70623BCA768048FE000000A00100003B0000006662782F36394639363044362D344446342D343946362D394244322D3234314243333846323333332F7265736F75726365732F636F72
310
652E786D6C8D50596E833010BD0A9ADFCA60D600328E9AA639412F609909B1126CE4A5EAF16B0295DABFFECC8CDEA2797AECF8353F924FB44E193D409E5248504B332A3D0D10FC95B4901C39B3C6F85F3248B49871801506CE266BC2B243D2688FDA47549B11775038871E12F988C7004EDE7016A9083E2ADC3D5D84BC8B09
310
D33C8D74D471E6BC8D0192EDC93A815B742658898E651BCB59086ADC356A8C3FD555A1055ED7E7E254D615792D0F075295F585746FF53B694EE78A565DD736979A65AB9933AFE69F8CD2A2F038022F28ED489E135A7CE4554F9BBEA85E68DB53CAB255FEC71496F19FA6A0B42F8B3DEE6673C0F318E4497096AD7DC5F52C33
310
EEB55BFE0D504B010214000A0000080000CC70623B3DEE336E79000000790000001B00000000000000000000000000000000006175746F6465736B2D64657369676E2D7061636B6167652E786D6C504B01021400140006080800CC70623BD486FD9CA0000000F40000001300000000000000000000000000B20000005B436F
310
6E74656E745F54797065735D2E786D6C504B01021400140006080800CC70623BD9DDAED0EC0000007C010000080000000000000000000000000083010000636F72652E786D6C504B01021400140006080800CC70623B55019EA25F0000007C000000070000000000000000000000000095020000636E782E786D6C504B0102
310
1400140006080800CC70623BA24EB22D72010000D40300000C00000000000000000000000000190300006662782F636F72652E786D6C504B01021400140006080800CC70623B408A7D3B7C0000009D0000000B00000000000000000000000000B50400006662782F636E782E786D6C504B01021400140006080800CC70623B
310
449FB9BD290100001202000031000000000000000000000000005A0500006662782F36394639363044362D344446342D343946362D394244322D3234314243333846323333332F636F72652E786D6C504B01021400140006080800CC70623BAD7543B64E010000330300003000000000000000000000000000D20600006662
310
782F36394639363044362D344446342D343946362D394244322D3234314243333846323333332F636E782E786D6C504B01021400140006080800CC70623B8D05915C650500003B10000034000000000000000000000000006E0800006662782F36394639363044362D344446342D343946362D394244322D32343142433338
310
46323333332F6F626A656374732E786D6C504B01021400140006080000CC70623B0000000000000000000000003500000000000000000000000000250E00006662782F36394639363044362D344446342D343946362D394244322D3234314243333846323333332F76657274696365732E62696E504B010214001400060808
310
00CC70623BF270F13306000000040000003600000000000000000000000000780E00006662782F36394639363044362D344446342D343946362D394244322D3234314243333846323333332F747269616E676C65732E62696E504B01021400140006080000CC70623B00000000000000000000000037000000000000000000
310
00000000D20E00006662782F36394639363044362D344446342D343946362D394244322D3234314243333846323333332F617474726962757465732E62696E504B01021400140006080800CC70623B08DA0BD190000000410100003600000000000000000000000000270F00006662782F36394639363044362D344446342D
310
343946362D394244322D3234314243333846323333332F6469726563746F72792E786D6C504B01021400140006080800CC70623BCA768048FE000000A00100003B000000000000000000000000000B1000006662782F36394639363044362D344446342D343946362D394244322D3234314243333846323333332F7265736F
310
75726365732F636F72652E786D6C504B0506000000000E000E0080040000621100000000
  0
XRECORD
  5
176
102
{ACAD_REACTORS
330
173
102
}
330
173
100
AcDbXrecord
280
     1
270
     1
271
     1
  0
XRECORD
  5
177
102
{ACAD_REACTORS
330
173
102
}
330
173
100
AcDbXrecord
280
     1
270
     1
271
     1
  0
XRECORD
  5
A4FB
102
{ACAD_REACTORS
330
A4FA
102
}
330
A4FA
100
AcDbXrecord
280
     1
102
ACAD_ROUNDTRIP_2012_MLEADER_STYLE
298
     1
  0
XRECORD
  5
A50D
102
{ACAD_REACTORS
330
A50C
102
}
330
A50C
100
AcDbXrecord
280
     1
102
DISPLAYNAME
  1
Metric50
102
FLAGS
 90
        0
  0
CELLSTYLEMAP
  5
A4CD
102
{ACAD_REACTORS
330
162
102
}
330
162
100
AcDbCellStyleMap
 90
        3
300
CELLSTYLE
  1
TABLEFORMAT_BEGIN
 90
        5
170
     1
 91
        0
 92
    32768
 62
   257
 93
        1
300
CONTENTFORMAT
  1
CONTENTFORMAT_BEGIN
 90
        0
 91
        0
 92
      512
 93
        0
300

 40
0.0
140
1.0
 94
        5
 62
     0
340
11
144
6.0
309
CONTENTFORMAT_END
171
     1
301
MARGIN
  1
CELLMARGIN_BEGIN
 40
1.5
 40
1.5
 40
1.5
 40
1.5
 40
4.5
 40
4.5
309
CELLMARGIN_END
 94
        6
 95
        1
302
GRIDFORMAT
  1
GRIDFORMAT_BEGIN
 90
        0
 91
        1
 62
     0
 92
       -2
340
14
 93
        0
 40
1.125
309
GRIDFORMAT_END
 95
        2
302
GRIDFORMAT
  1
GRIDFORMAT_BEGIN
 90
        0
 91
        1
 62
     0
 92
       -2
340
14
 93
        0
 40
1.125
309
GRIDFORMAT_END
 95
        4
302
GRIDFORMAT
  1
GRIDFORMAT_BEGIN
 90
        0
 91
        1
 62
     0
 92
       -2
340
14
 93
        0
 40
1.125
309
GRIDFORMAT_END
 95
        8
302
GRIDFORMAT
  1
GRIDFORMAT_BEGIN
 90
        0
 91
        1
 62
     0
 92
       -2
340
14
 93
        0
 40
1.125
309
GRIDFORMAT_END
 95
       16
302
GRIDFORMAT
  1
GRIDFORMAT_BEGIN
 90
        0
 91
        1
 62
     0
 92
       -2
340
14
 93
        0
 40
1.125
309
GRIDFORMAT_END
 95
       32
302
GRIDFORMAT
  1
GRIDFORMAT_BEGIN
 90
        0
 91
        1
 62
     0
 92
       -2
340
14
 93
        0
 40
1.125
309
GRIDFORMAT_END
309
TABLEFORMAT_END
  1
CELLSTYLE_BEGIN
 90
        1
 91
        1
300
_TITLE
309
CELLSTYLE_END
300
CELLSTYLE
  1
TABLEFORMAT_BEGIN
 90
        5
170
     1
 91
        0
 92
        0
 62
   257
 93
        1
300
CONTENTFORMAT
  1
CONTENTFORMAT_BEGIN
 90
        0
 91
        0
 92
      512
 93
        0
300

 40
0.0
140
1.0
 94
        5
 62
     0
340
11
144
4.5
309
CONTENTFORMAT_END
171
     1
301
MARGIN
  1
CELLMARGIN_BEGIN
 40
1.5
 40
1.5
 40
1.5
 40
1.5
 40
4.5
 40
4.5
309
CELLMARGIN_END
 94
        6
 95
        1
302
GRIDFORMAT
  1
GRIDFORMAT_BEGIN
 90
        0
 91
        1
 62
     0
 92
       -2
340
14
 93
        0
 40
1.125
309
GRIDFORMAT_END
 95
        2
302
GRIDFORMAT
  1
GRIDFORMAT_BEGIN
 90
        0
 91
        1
 62
     0
 92
       -2
340
14
 93
        0
 40
1.125
309
GRIDFORMAT_END
 95
        4
302
GRIDFORMAT
  1
GRIDFORMAT_BEGIN
 90
        0
 91
        1
 62
     0
 92
       -2
340
14
 93
        0
 40
1.125
309
GRIDFORMAT_END
 95
        8
302
GRIDFORMAT
  1
GRIDFORMAT_BEGIN
 90
        0
 91
        1
 62
     0
 92
       -2
340
14
 93
        0
 40
1.125
309
GRIDFORMAT_END
 95
       16
302
GRIDFORMAT
  1
GRIDFORMAT_BEGIN
 90
        0
 91
        1
 62
     0
 92
       -2
340
14
 93
        0
 40
1.125
309
GRIDFORMAT_END
 95
       32
302
GRIDFORMAT
  1
GRIDFORMAT_BEGIN
 90
        0
 91
        1
 62
     0
 92
       -2
340
14
 93
        0
 40
1.125
309
GRIDFORMAT_END
309
TABLEFORMAT_END
  1
CELLSTYLE_BEGIN
 90
        2
 91
        1
300
_HEADER
309
CELLSTYLE_END
300
CELLSTYLE
  1
TABLEFORMAT_BEGIN
 90
        5
170
     1
 91
        0
 92
        0
 62
   257
 93
        1
300
CONTENTFORMAT
  1
CONTENTFORMAT_BEGIN
 90
        0
 91
        0
 92
      512
 93
        0
300

 40
0.0
140
1.0
 94
        2
 62
     0
340
11
144
4.5
309
CONTENTFORMAT_END
171
     1
301
MARGIN
  1
CELLMARGIN_BEGIN
 40
1.5
 40
1.5
 40
1.5
 40
1.5
 40
4.5
 40
4.5
309
CELLMARGIN_END
 94
        6
 95
        1
302
GRIDFORMAT
  1
GRIDFORMAT_BEGIN
 90
        0
 91
        1
 62
     0
 92
       -2
340
14
 93
        0
 40
1.125
309
GRIDFORMAT_END
 95
        2
302
GRIDFORMAT
  1
GRIDFORMAT_BEGIN
 90
        0
 91
        1
 62
     0
 92
       -2
340
14
 93
        0
 40
1.125
309
GRIDFORMAT_END
 95
        4
302
GRIDFORMAT
  1
GRIDFORMAT_BEGIN
 90
        0
 91
        1
 62
     0
 92
       -2
340
14
 93
        0
 40
1.125
309
GRIDFORMAT_END
 95
        8
302
GRIDFORMAT
  1
GRIDFORMAT_BEGIN
 90
        0
 91
        1
 62
     0
 92
       -2
340
14
 93
        0
 40
1.125
309
GRIDFORMAT_END
 95
       16
302
GRIDFORMAT
  1
GRIDFORMAT_BEGIN
 90
        0
 91
        1
 62
     0
 92
       -2
340
14
 93
        0
 40
1.125
309
GRIDFORMAT_END
 95
       32
302
GRIDFORMAT
  1
GRIDFORMAT_BEGIN
 90
        0
 91
        1
 62
     0
 92
       -2
340
14
 93
        0
 40
1.125
309
GRIDFORMAT_END
309
TABLEFORMAT_END
  1
CELLSTYLE_BEGIN
 90
        3
 91
        2
300
_DATA
309
CELLSTYLE_END
  0
XRECORD
  5
A4D2
102
{ACAD_REACTORS
330
162
102
}
330
162
100
AcDbXrecord
280
     1
102
ACAD_ROUNDTRIP_PRE2007_TABLESTYLE
 90
      512
 91
        0
  1

 92
      512
 93
        0
  2

 94
      512
 95
        0
  3

  0
XRECORD
  5
A4E5
102
{ACAD_REACTORS
330
A4E4
102
}
330
A4E4
100
AcDbXrecord
280
     1
102
RTVSPost2010Prop28
280
     1
102
RTVSPost2010PropOp28
 70
     1
102
RTVSPost2010Prop29
280
     1
102
RTVSPost2010PropOp29
 70
     1
102
RTVSPost2010Prop30
280
     0
102
RTVSPost2010PropOp30
 70
     1
102
RTVSPost2010Prop31
280
     0
102
RTVSPost2010PropOp31
 70
     1
102
RTVSPost2010Prop32
280
     0
102
RTVSPost2010PropOp32
 70
     1
102
RTVSPost2010Prop33
280
     0
102
RTVSPost2010PropOp33
 70
     1
102
RTVSPost2010Prop34
280
     0
102
RTVSPost2010PropOp34
 70
     1
102
RTVSPost2010Prop35
280
     0
102
RTVSPost2010PropOp35
 70
     1
102
RTVSPost2010Prop36
280
     0
102
RTVSPost2010PropOp36
 70
     1
102
RTVSPost2010Prop37
 90
       50
102
RTVSPost2010PropOp37
 70
     1
102
RTVSPost2010Prop38
140
0.0
102
RTVSPost2010PropOp38
 70
     1
102
RTVSPost2010Prop39
140
1.0
102
RTVSPost2010PropOp39
 70
     1
102
RTVSPost2010Prop40
 90
        0
102
RTVSPost2010PropOp40
 70
     1
102
RTVSPost2010Prop41ColorIndex
 90
       18
102
RTVSPost2010Prop41ColorRGB
 90
        0
102
RTVSPost2010PropOp41
 70
     1
102
RTVSPost2010Prop42
 90
       50
102
RTVSPost2010PropOp42
 70
     1
102
RTVSPost2010Prop43
 90
        3
102
RTVSPost2010PropOp43
 70
     1
102
RTVSPost2010Prop44ColorIndex
 90
        5
102
RTVSPost2010Prop44ColorRGB
 90
      255
102
RTVSPost2010PropOp44
 70
     1
102
RTVSPost2010Prop45
280
     0
102
RTVSPost2010PropOp45
 70
     1
102
RTVSPost2010Prop46
 90
       50
102
RTVSPost2010PropOp46
 70
     1
102
RTVSPost2010Prop47
 90
       50
102
RTVSPost2010PropOp47
 70
     1
102
RTVSPost2010Prop48
 90
       50
102
RTVSPost2010PropOp48
 70
     1
102
RTVSPost2010Prop49
280
     0
102
RTVSPost2010PropOp49
 70
     1
102
RTVSPost2010Prop50
 90
       50
102
RTVSPost2010PropOp50
 70
     1
102
RTVSPost2010Prop51ColorIndex
 90
      256
102
RTVSPost2010Prop51ColorRGB
 90
-16777216
102
RTVSPost2010PropOp51
 70
     0
102
RTVSPost2010Prop52
140
1.0
102
RTVSPost2010PropOp52
 70
     0
102
RTVSPost2010Prop53
 90
        2
102
RTVSPost2010PropOp53
 70
     1
102
RTVSPost2010Prop54
  1
strokes_ogs.tif
102
RTVSPost2010PropOp54
 70
     1
102
RTVSPost2010Prop55
280
     0
102
RTVSPost2010PropOp55
 70
     1
102
RTVSPost2010Prop56
140
1.0
102
RTVSPost2010PropOp56
 70
     1
102
RTVSPost2010Prop57
140
1.0
102
RTVSPost2010PropOp57
 70
     1
102
RTVSPropertyOp0
 70
     1
102
RTVSPropertyOp1
 70
     1
102
RTVSPropertyOp2
 70
     1
102
RTVSPropertyOp3
 70
     1
102
RTVSPropertyOp4
 70
     1
102
RTVSPropertyOp5
 70
     1
102
RTVSPropertyOp6
 70
     1
102
RTVSPropertyOp7
 70
     1
102
RTVSPropertyOp8
 70
     1
102
RTVSPropertyOp9
 70
     1
102
RTVSPropertyOp10
 70
     1
102
RTVSPropertyOp11
 70
     1
102
RTVSPropertyOp12
 70
     1
102
RTVSPropertyOp13
 70
     1
102
RTVSPropertyOp14
 70
     1
102
RTVSPropertyOp15
 70
     1
102
RTVSPropertyOp16
 70
     1
102
RTVSPropertyOp17
 70
     1
102
RTVSPropertyOp18
 70
     1
102
RTVSPropertyOp19
 70
     1
102
RTVSPropertyOp20
 70
     1
102
RTVSPropertyOp21
 70
     1
102
RTVSPropertyOp22
 70
     1
102
RTVSPropertyOp23
 70
     1
102
RTVSPropertyOp24
 70
     1
102
RTVSPropertyOp25
 70
     1
102
RTVSPropertyOp26
 70
     1
102
RTVSPropertyOp27
 70
     1
102
RTVSPropertyOp28
 70
     1
102
RTVSPropertyOp29
 70
     1
102
RTVSPropertyOp30
 70
     1
102
RTVSPropertyOp31
 70
     1
102
RTVSPropertyOp32
 70
     1
102
RTVSPropertyOp33
 70
     1
102
RTVSPropertyOp34
 70
     1
102
RTVSPropertyOp35
 70
     1
102
RTVSPropertyOp36
 70
     1
102
RTVSPropertyOp37
 70
     1
102
RTVSPropertyOp38
 70
     1
102
RTVSPropertyOp39
 70
     1
102
RTVSPropertyOp40
 70
     1
102
RTVSPropertyOp41
 70
     1
102
RTVSPropertyOp42
 70
     1
102
RTVSPropertyOp43
 70
     1
102
RTVSPropertyOp44
 70
     1
102
RTVSPropertyOp45
 70
     1
102
RTVSPropertyOp46
 70
     1
102
RTVSPropertyOp47
 70
     1
102
RTVSPropertyOp48
 70
     1
102
RTVSPropertyOp49
 70
     1
102
RTVSPropertyOp50
 70
     1
102
RTVSPropertyOp51
 70
     0
102
RTVSPropertyOp52
 70
     0
102
RTVSPropertyOp53
 70
     1
102
RTVSPropertyOp54
 70
     1
102
RTVSPropertyOp55
 70
     1
102
RTVSPropertyOp56
 70
     1
102
RTVSPropertyOp57
 70
     1
102
RTVSPropertyOp58
 70
     1
102
RTVSPropertyOp59
 70
     1
102
RTVSPropertyOp60
 70
     1
102
RTVSPropertyOp61
 70
     1
102
RTVSPropertyOp62
 70
     1
  0
XRECORD
  5
A4E3
102
{ACAD_REACTORS
330
A4E2
102
}
330
A4E2
100
AcDbXrecord
280
     1
102
RTVSPost2010Prop28
280
     0
102
RTVSPost2010PropOp28
 70
     1
102
RTVSPost2010Prop29
280
     1
102
RTVSPost2010PropOp29
 70
     1
102
RTVSPost2010Prop30
280
     1
102
RTVSPost2010PropOp30
 70
     1
102
RTVSPost2010Prop31
280
     0
102
RTVSPost2010PropOp31
 70
     1
102
RTVSPost2010Prop32
280
     0
102
RTVSPost2010PropOp32
 70
     1
102
RTVSPost2010Prop33
280
     0
102
RTVSPost2010PropOp33
 70
     1
102
RTVSPost2010Prop34
280
     0
102
RTVSPost2010PropOp34
 70
     1
102
RTVSPost2010Prop35
280
     0
102
RTVSPost2010PropOp35
 70
     1
102
RTVSPost2010Prop36
280
     0
102
RTVSPost2010PropOp36
 70
     1
102
RTVSPost2010Prop37
 90
       50
102
RTVSPost2010PropOp37
 70
     1
102
RTVSPost2010Prop38
140
0.0
102
RTVSPost2010PropOp38
 70
     1
102
RTVSPost2010Prop39
140
1.0
102
RTVSPost2010PropOp39
 70
     1
102
RTVSPost2010Prop40
 90
        0
102
RTVSPost2010PropOp40
 70
     1
102
RTVSPost2010Prop41ColorIndex
 90
       18
102
RTVSPost2010Prop41ColorRGB
 90
        0
102
RTVSPost2010PropOp41
 70
     1
102
RTVSPost2010Prop42
 90
       50
102
RTVSPost2010PropOp42
 70
     1
102
RTVSPost2010Prop43
 90
        3
102
RTVSPost2010PropOp43
 70
     1
102
RTVSPost2010Prop44ColorIndex
 90
        5
102
RTVSPost2010Prop44ColorRGB
 90
      255
102
RTVSPost2010PropOp44
 70
     1
102
RTVSPost2010Prop45
280
     0
102
RTVSPost2010PropOp45
 70
     1
102
RTVSPost2010Prop46
 90
       50
102
RTVSPost2010PropOp46
 70
     1
102
RTVSPost2010Prop47
 90
       50
102
RTVSPost2010PropOp47
 70
     1
102
RTVSPost2010Prop48
 90
       50
102
RTVSPost2010PropOp48
 70
     1
102
RTVSPost2010Prop49
280
     0
102
RTVSPost2010PropOp49
 70
     1
102
RTVSPost2010Prop50
 90
       50
102
RTVSPost2010PropOp50
 70
     1
102
RTVSPost2010Prop51ColorIndex
 90
      256
102
RTVSPost2010Prop51ColorRGB
 90
-16777216
102
RTVSPost2010PropOp51
 70
     0
102
RTVSPost2010Prop52
140
1.0
102
RTVSPost2010PropOp52
 70
     0
102
RTVSPost2010Prop53
 90
        2
102
RTVSPost2010PropOp53
 70
     1
102
RTVSPost2010Prop54
  1
strokes_ogs.tif
102
RTVSPost2010PropOp54
 70
     1
102
RTVSPost2010Prop55
280
     0
102
RTVSPost2010PropOp55
 70
     1
102
RTVSPost2010Prop56
140
1.0
102
RTVSPost2010PropOp56
 70
     1
102
RTVSPost2010Prop57
140
1.0
102
RTVSPost2010PropOp57
 70
     1
102
RTVSPropertyOp0
 70
     1
102
RTVSPropertyOp1
 70
     1
102
RTVSPropertyOp2
 70
     1
102
RTVSPropertyOp3
 70
     1
102
RTVSPropertyOp4
 70
     1
102
RTVSPropertyOp5
 70
     1
102
RTVSPropertyOp6
 70
     1
102
RTVSPropertyOp7
 70
     1
102
RTVSPropertyOp8
 70
     1
102
RTVSPropertyOp9
 70
     1
102
RTVSPropertyOp10
 70
     1
102
RTVSPropertyOp11
 70
     1
102
RTVSPropertyOp12
 70
     1
102
RTVSPropertyOp13
 70
     1
102
RTVSPropertyOp14
 70
     1
102
RTVSPropertyOp15
 70
     1
102
RTVSPropertyOp16
 70
     1
102
RTVSPropertyOp17
 70
     1
102
RTVSPropertyOp18
 70
     1
102
RTVSPropertyOp19
 70
     1
102
RTVSPropertyOp20
 70
     1
102
RTVSPropertyOp21
 70
     1
102
RTVSPropertyOp22
 70
     1
102
RTVSPropertyOp23
 70
     1
102
RTVSPropertyOp24
 70
     1
102
RTVSPropertyOp25
 70
     1
102
RTVSPropertyOp26
 70
     1
102
RTVSPropertyOp27
 70
     1
102
RTVSPropertyOp28
 70
     1
102
RTVSPropertyOp29
 70
     1
102
RTVSPropertyOp30
 70
     1
102
RTVSPropertyOp31
 70
     1
102
RTVSPropertyOp32
 70
     1
102
RTVSPropertyOp33
 70
     1
102
RTVSPropertyOp34
 70
     1
102
RTVSPropertyOp35
 70
     1
102
RTVSPropertyOp36
 70
     1
102
RTVSPropertyOp37
 70
     1
102
RTVSPropertyOp38
 70
     1
102
RTVSPropertyOp39
 70
     1
102
RTVSPropertyOp40
 70
     1
102
RTVSPropertyOp41
 70
     1
102
RTVSPropertyOp42
 70
     1
102
RTVSPropertyOp43
 70
     1
102
RTVSPropertyOp44
 70
     1
102
RTVSPropertyOp45
 70
     1
102
RTVSPropertyOp46
 70
     1
102
RTVSPropertyOp47
 70
     1
102
RTVSPropertyOp48
 70
     1
102
RTVSPropertyOp49
 70
     1
102
RTVSPropertyOp50
 70
     1
102
RTVSPropertyOp51
 70
     0
102
RTVSPropertyOp52
 70
     0
102
RTVSPropertyOp53
 70
     1
102
RTVSPropertyOp54
 70
     1
102
RTVSPropertyOp55
 70
     1
102
RTVSPropertyOp56
 70
     1
102
RTVSPropertyOp57
 70
     1
102
RTVSPropertyOp58
 70
     1
102
RTVSPropertyOp59
 70
     1
102
RTVSPropertyOp60
 70
     1
102
RTVSPropertyOp61
 70
     1
102
RTVSPropertyOp62
 70
     1
  0
XRECORD
  5
A4F1
102
{ACAD_REACTORS
330
A4F0
102
}
330
A4F0
100
AcDbXrecord
280
     1
102
RTVSPost2010Prop28
280
     0
102
RTVSPost2010PropOp28
 70
     1
102
RTVSPost2010Prop29
280
     1
102
RTVSPost2010PropOp29
 70
     1
102
RTVSPost2010Prop30
280
     1
102
RTVSPost2010PropOp30
 70
     1
102
RTVSPost2010Prop31
280
     0
102
RTVSPost2010PropOp31
 70
     1
102
RTVSPost2010Prop32
280
     0
102
RTVSPost2010PropOp32
 70
     1
102
RTVSPost2010Prop33
280
     0
102
RTVSPost2010PropOp33
 70
     1
102
RTVSPost2010Prop34
280
     0
102
RTVSPost2010PropOp34
 70
     1
102
RTVSPost2010Prop35
280
     0
102
RTVSPost2010PropOp35
 70
     1
102
RTVSPost2010Prop36
280
     0
102
RTVSPost2010PropOp36
 70
     1
102
RTVSPost2010Prop37
 90
       50
102
RTVSPost2010PropOp37
 70
     1
102
RTVSPost2010Prop38
140
0.0
102
RTVSPost2010PropOp38
 70
     1
102
RTVSPost2010Prop39
140
1.0
102
RTVSPost2010PropOp39
 70
     1
102
RTVSPost2010Prop40
 90
        0
102
RTVSPost2010PropOp40
 70
     1
102
RTVSPost2010Prop41ColorIndex
 90
       18
102
RTVSPost2010Prop41ColorRGB
 90
        0
102
RTVSPost2010PropOp41
 70
     1
102
RTVSPost2010Prop42
 90
       50
102
RTVSPost2010PropOp42
 70
     1
102
RTVSPost2010Prop43
 90
        3
102
RTVSPost2010PropOp43
 70
     1
102
RTVSPost2010Prop44ColorIndex
 90
        5
102
RTVSPost2010Prop44ColorRGB
 90
      255
102
RTVSPost2010PropOp44
 70
     1
102
RTVSPost2010Prop45
280
     0
102
RTVSPost2010PropOp45
 70
     1
102
RTVSPost2010Prop46
 90
       50
102
RTVSPost2010PropOp46
 70
     1
102
RTVSPost2010Prop47
 90
       50
102
RTVSPost2010PropOp47
 70
     1
102
RTVSPost2010Prop48
 90
       50
102
RTVSPost2010PropOp48
 70
     1
102
RTVSPost2010Prop49
280
     0
102
RTVSPost2010PropOp49
 70
     1
102
RTVSPost2010Prop50
 90
       50
102
RTVSPost2010PropOp50
 70
     1
102
RTVSPost2010Prop51ColorIndex
 90
      256
102
RTVSPost2010Prop51ColorRGB
 90
-16777216
102
RTVSPost2010PropOp51
 70
     0
102
RTVSPost2010Prop52
140
1.0
102
RTVSPost2010PropOp52
 70
     0
102
RTVSPost2010Prop53
 90
        2
102
RTVSPost2010PropOp53
 70
     1
102
RTVSPost2010Prop54
  1
strokes_ogs.tif
102
RTVSPost2010PropOp54
 70
     1
102
RTVSPost2010Prop55
280
     0
102
RTVSPost2010PropOp55
 70
     1
102
RTVSPost2010Prop56
140
1.0
102
RTVSPost2010PropOp56
 70
     1
102
RTVSPost2010Prop57
140
1.0
102
RTVSPost2010PropOp57
 70
     1
102
RTVSPropertyOp0
 70
     1
102
RTVSPropertyOp1
 70
     1
102
RTVSPropertyOp2
 70
     1
102
RTVSPropertyOp3
 70
     1
102
RTVSPropertyOp4
 70
     1
102
RTVSPropertyOp5
 70
     1
102
RTVSPropertyOp6
 70
     1
102
RTVSPropertyOp7
 70
     1
102
RTVSPropertyOp8
 70
     1
102
RTVSPropertyOp9
 70
     1
102
RTVSPropertyOp10
 70
     1
102
RTVSPropertyOp11
 70
     1
102
RTVSPropertyOp12
 70
     1
102
RTVSPropertyOp13
 70
     1
102
RTVSPropertyOp14
 70
     1
102
RTVSPropertyOp15
 70
     1
102
RTVSPropertyOp16
 70
     1
102
RTVSPropertyOp17
 70
     1
102
RTVSPropertyOp18
 70
     1
102
RTVSPropertyOp19
 70
     1
102
RTVSPropertyOp20
 70
     1
102
RTVSPropertyOp21
 70
     1
102
RTVSPropertyOp22
 70
     1
102
RTVSPropertyOp23
 70
     1
102
RTVSPropertyOp24
 70
     1
102
RTVSPropertyOp25
 70
     1
102
RTVSPropertyOp26
 70
     1
102
RTVSPropertyOp27
 70
     1
102
RTVSPropertyOp28
 70
     1
102
RTVSPropertyOp29
 70
     1
102
RTVSPropertyOp30
 70
     1
102
RTVSPropertyOp31
 70
     1
102
RTVSPropertyOp32
 70
     1
102
RTVSPropertyOp33
 70
     1
102
RTVSPropertyOp34
 70
     1
102
RTVSPropertyOp35
 70
     1
102
RTVSPropertyOp36
 70
     1
102
RTVSPropertyOp37
 70
     1
102
RTVSPropertyOp38
 70
     1
102
RTVSPropertyOp39
 70
     1
102
RTVSPropertyOp40
 70
     1
102
RTVSPropertyOp41
 70
     1
102
RTVSPropertyOp42
 70
     1
102
RTVSPropertyOp43
 70
     1
102
RTVSPropertyOp44
 70
     1
102
RTVSPropertyOp45
 70
     1
102
RTVSPropertyOp46
 70
     1
102
RTVSPropertyOp47
 70
     1
102
RTVSPropertyOp48
 70
     1
102
RTVSPropertyOp49
 70
     1
102
RTVSPropertyOp50
 70
     1
102
RTVSPropertyOp51
 70
     0
102
RTVSPropertyOp52
 70
     0
102
RTVSPropertyOp53
 70
     1
102
RTVSPropertyOp54
 70
     1
102
RTVSPropertyOp55
 70
     1
102
RTVSPropertyOp56
 70
     1
102
RTVSPropertyOp57
 70
     1
102
RTVSPropertyOp58
 70
     1
102
RTVSPropertyOp59
 70
     1
102
RTVSPropertyOp60
 70
     1
102
RTVSPropertyOp61
 70
     1
102
RTVSPropertyOp62
 70
     1
  0
XRECORD
  5
A4F9
102
{ACAD_REACTORS
330
A4F8
102
}
330
A4F8
100
AcDbXrecord
280
     1
102
RTVSPost2010Prop28
280
     0
102
RTVSPost2010PropOp28
 70
     1
102
RTVSPost2010Prop29
280
     1
102
RTVSPost2010PropOp29
 70
     1
102
RTVSPost2010Prop30
280
     1
102
RTVSPost2010PropOp30
 70
     1
102
RTVSPost2010Prop31
280
     0
102
RTVSPost2010PropOp31
 70
     1
102
RTVSPost2010Prop32
280
     0
102
RTVSPost2010PropOp32
 70
     1
102
RTVSPost2010Prop33
280
     0
102
RTVSPost2010PropOp33
 70
     1
102
RTVSPost2010Prop34
280
     0
102
RTVSPost2010PropOp34
 70
     1
102
RTVSPost2010Prop35
280
     0
102
RTVSPost2010PropOp35
 70
     1
102
RTVSPost2010Prop36
280
     0
102
RTVSPost2010PropOp36
 70
     1
102
RTVSPost2010Prop37
 90
       50
102
RTVSPost2010PropOp37
 70
     1
102
RTVSPost2010Prop38
140
0.0
102
RTVSPost2010PropOp38
 70
     1
102
RTVSPost2010Prop39
140
1.0
102
RTVSPost2010PropOp39
 70
     1
102
RTVSPost2010Prop40
 90
        0
102
RTVSPost2010PropOp40
 70
     1
102
RTVSPost2010Prop41ColorIndex
 90
       18
102
RTVSPost2010Prop41ColorRGB
 90
        0
102
RTVSPost2010PropOp41
 70
     1
102
RTVSPost2010Prop42
 90
       50
102
RTVSPost2010PropOp42
 70
     1
102
RTVSPost2010Prop43
 90
        3
102
RTVSPost2010PropOp43
 70
     1
102
RTVSPost2010Prop44ColorIndex
 90
        5
102
RTVSPost2010Prop44ColorRGB
 90
      255
102
RTVSPost2010PropOp44
 70
     1
102
RTVSPost2010Prop45
280
     0
102
RTVSPost2010PropOp45
 70
     1
102
RTVSPost2010Prop46
 90
       50
102
RTVSPost2010PropOp46
 70
     1
102
RTVSPost2010Prop47
 90
       50
102
RTVSPost2010PropOp47
 70
     1
102
RTVSPost2010Prop48
 90
       50
102
RTVSPost2010PropOp48
 70
     1
102
RTVSPost2010Prop49
280
     0
102
RTVSPost2010PropOp49
 70
     1
102
RTVSPost2010Prop50
 90
       50
102
RTVSPost2010PropOp50
 70
     1
102
RTVSPost2010Prop51ColorIndex
 90
      256
102
RTVSPost2010Prop51ColorRGB
 90
-16777216
102
RTVSPost2010PropOp51
 70
     0
102
RTVSPost2010Prop52
140
1.0
102
RTVSPost2010PropOp52
 70
     0
102
RTVSPost2010Prop53
 90
        2
102
RTVSPost2010PropOp53
 70
     1
102
RTVSPost2010Prop54
  1
strokes_ogs.tif
102
RTVSPost2010PropOp54
 70
     1
102
RTVSPost2010Prop55
280
     0
102
RTVSPost2010PropOp55
 70
     1
102
RTVSPost2010Prop56
140
1.0
102
RTVSPost2010PropOp56
 70
     1
102
RTVSPost2010Prop57
140
1.0
102
RTVSPost2010PropOp57
 70
     1
102
RTVSPropertyOp0
 70
     1
102
RTVSPropertyOp1
 70
     1
102
RTVSPropertyOp2
 70
     1
102
RTVSPropertyOp3
 70
     1
102
RTVSPropertyOp4
 70
     1
102
RTVSPropertyOp5
 70
     1
102
RTVSPropertyOp6
 70
     1
102
RTVSPropertyOp7
 70
     1
102
RTVSPropertyOp8
 70
     1
102
RTVSPropertyOp9
 70
     1
102
RTVSPropertyOp10
 70
     1
102
RTVSPropertyOp11
 70
     1
102
RTVSPropertyOp12
 70
     1
102
RTVSPropertyOp13
 70
     1
102
RTVSPropertyOp14
 70
     1
102
RTVSPropertyOp15
 70
     1
102
RTVSPropertyOp16
 70
     1
102
RTVSPropertyOp17
 70
     1
102
RTVSPropertyOp18
 70
     1
102
RTVSPropertyOp19
 70
     1
102
RTVSPropertyOp20
 70
     1
102
RTVSPropertyOp21
 70
     1
102
RTVSPropertyOp22
 70
     1
102
RTVSPropertyOp23
 70
     1
102
RTVSPropertyOp24
 70
     1
102
RTVSPropertyOp25
 70
     1
102
RTVSPropertyOp26
 70
     1
102
RTVSPropertyOp27
 70
     1
102
RTVSPropertyOp28
 70
     1
102
RTVSPropertyOp29
 70
     1
102
RTVSPropertyOp30
 70
     1
102
RTVSPropertyOp31
 70
     1
102
RTVSPropertyOp32
 70
     1
102
RTVSPropertyOp33
 70
     1
102
RTVSPropertyOp34
 70
     1
102
RTVSPropertyOp35
 70
     1
102
RTVSPropertyOp36
 70
     1
102
RTVSPropertyOp37
 70
     1
102
RTVSPropertyOp38
 70
     1
102
RTVSPropertyOp39
 70
     1
102
RTVSPropertyOp40
 70
     1
102
RTVSPropertyOp41
 70
     1
102
RTVSPropertyOp42
 70
     1
102
RTVSPropertyOp43
 70
     1
102
RTVSPropertyOp44
 70
     1
102
RTVSPropertyOp45
 70
     1
102
RTVSPropertyOp46
 70
     1
102
RTVSPropertyOp47
 70
     1
102
RTVSPropertyOp48
 70
     1
102
RTVSPropertyOp49
 70
     1
102
RTVSPropertyOp50
 70
     1
102
RTVSPropertyOp51
 70
     0
102
RTVSPropertyOp52
 70
     0
102
RTVSPropertyOp53
 70
     1
102
RTVSPropertyOp54
 70
     1
102
RTVSPropertyOp55
 70
     1
102
RTVSPropertyOp56
 70
     1
102
RTVSPropertyOp57
 70
     1
102
RTVSPropertyOp58
 70
     1
102
RTVSPropertyOp59
 70
     1
102
RTVSPropertyOp60
 70
     1
102
RTVSPropertyOp61
 70
     1
102
RTVSPropertyOp62
 70
     1
  0
XRECORD
  5
A4EB
102
{ACAD_REACTORS
330
A4EA
102
}
330
A4EA
100
AcDbXrecord
280
     1
102
RTVSPost2010Prop28
280
     0
102
RTVSPost2010PropOp28
 70
     1
102
RTVSPost2010Prop29
280
     1
102
RTVSPost2010PropOp29
 70
     1
102
RTVSPost2010Prop30
280
     1
102
RTVSPost2010PropOp30
 70
     1
102
RTVSPost2010Prop31
280
     0
102
RTVSPost2010PropOp31
 70
     1
102
RTVSPost2010Prop32
280
     0
102
RTVSPost2010PropOp32
 70
     1
102
RTVSPost2010Prop33
280
     0
102
RTVSPost2010PropOp33
 70
     1
102
RTVSPost2010Prop34
280
     0
102
RTVSPost2010PropOp34
 70
     1
102
RTVSPost2010Prop35
280
     0
102
RTVSPost2010PropOp35
 70
     1
102
RTVSPost2010Prop36
280
     0
102
RTVSPost2010PropOp36
 70
     1
102
RTVSPost2010Prop37
 90
       50
102
RTVSPost2010PropOp37
 70
     1
102
RTVSPost2010Prop38
140
0.0
102
RTVSPost2010PropOp38
 70
     1
102
RTVSPost2010Prop39
140
1.0
102
RTVSPost2010PropOp39
 70
     1
102
RTVSPost2010Prop40
 90
        0
102
RTVSPost2010PropOp40
 70
     1
102
RTVSPost2010Prop41ColorIndex
 90
       18
102
RTVSPost2010Prop41ColorRGB
 90
        0
102
RTVSPost2010PropOp41
 70
     1
102
RTVSPost2010Prop42
 90
       50
102
RTVSPost2010PropOp42
 70
     1
102
RTVSPost2010Prop43
 90
        3
102
RTVSPost2010PropOp43
 70
     1
102
RTVSPost2010Prop44ColorIndex
 90
        5
102
RTVSPost2010Prop44ColorRGB
 90
      255
102
RTVSPost2010PropOp44
 70
     1
102
RTVSPost2010Prop45
280
     0
102
RTVSPost2010PropOp45
 70
     1
102
RTVSPost2010Prop46
 90
       50
102
RTVSPost2010PropOp46
 70
     1
102
RTVSPost2010Prop47
 90
       50
102
RTVSPost2010PropOp47
 70
     1
102
RTVSPost2010Prop48
 90
       50
102
RTVSPost2010PropOp48
 70
     1
102
RTVSPost2010Prop49
280
     0
102
RTVSPost2010PropOp49
 70
     1
102
RTVSPost2010Prop50
 90
       50
102
RTVSPost2010PropOp50
 70
     1
102
RTVSPost2010Prop51ColorIndex
 90
      256
102
RTVSPost2010Prop51ColorRGB
 90
-16777216
102
RTVSPost2010PropOp51
 70
     0
102
RTVSPost2010Prop52
140
1.0
102
RTVSPost2010PropOp52
 70
     0
102
RTVSPost2010Prop53
 90
        2
102
RTVSPost2010PropOp53
 70
     1
102
RTVSPost2010Prop54
  1
strokes_ogs.tif
102
RTVSPost2010PropOp54
 70
     1
102
RTVSPost2010Prop55
280
     0
102
RTVSPost2010PropOp55
 70
     1
102
RTVSPost2010Prop56
140
1.0
102
RTVSPost2010PropOp56
 70
     1
102
RTVSPost2010Prop57
140
1.0
102
RTVSPost2010PropOp57
 70
     1
102
RTVSPropertyOp0
 70
     1
102
RTVSPropertyOp1
 70
     1
102
RTVSPropertyOp2
 70
     1
102
RTVSPropertyOp3
 70
     1
102
RTVSPropertyOp4
 70
     1
102
RTVSPropertyOp5
 70
     1
102
RTVSPropertyOp6
 70
     1
102
RTVSPropertyOp7
 70
     1
102
RTVSPropertyOp8
 70
     1
102
RTVSPropertyOp9
 70
     1
102
RTVSPropertyOp10
 70
     1
102
RTVSPropertyOp11
 70
     1
102
RTVSPropertyOp12
 70
     1
102
RTVSPropertyOp13
 70
     1
102
RTVSPropertyOp14
 70
     1
102
RTVSPropertyOp15
 70
     1
102
RTVSPropertyOp16
 70
     1
102
RTVSPropertyOp17
 70
     1
102
RTVSPropertyOp18
 70
     1
102
RTVSPropertyOp19
 70
     1
102
RTVSPropertyOp20
 70
     1
102
RTVSPropertyOp21
 70
     1
102
RTVSPropertyOp22
 70
     1
102
RTVSPropertyOp23
 70
     1
102
RTVSPropertyOp24
 70
     1
102
RTVSPropertyOp25
 70
     1
102
RTVSPropertyOp26
 70
     1
102
RTVSPropertyOp27
 70
     1
102
RTVSPropertyOp28
 70
     1
102
RTVSPropertyOp29
 70
     1
102
RTVSPropertyOp30
 70
     1
102
RTVSPropertyOp31
 70
     1
102
RTVSPropertyOp32
 70
     1
102
RTVSPropertyOp33
 70
     1
102
RTVSPropertyOp34
 70
     1
102
RTVSPropertyOp35
 70
     1
102
RTVSPropertyOp36
 70
     1
102
RTVSPropertyOp37
 70
     1
102
RTVSPropertyOp38
 70
     1
102
RTVSPropertyOp39
 70
     1
102
RTVSPropertyOp40
 70
     1
102
RTVSPropertyOp41
 70
     1
102
RTVSPropertyOp42
 70
     1
102
RTVSPropertyOp43
 70
     1
102
RTVSPropertyOp44
 70
     1
102
RTVSPropertyOp45
 70
     1
102
RTVSPropertyOp46
 70
     1
102
RTVSPropertyOp47
 70
     1
102
RTVSPropertyOp48
 70
     1
102
RTVSPropertyOp49
 70
     1
102
RTVSPropertyOp50
 70
     1
102
RTVSPropertyOp51
 70
     0
102
RTVSPropertyOp52
 70
     0
102
RTVSPropertyOp53
 70
     1
102
RTVSPropertyOp54
 70
     1
102
RTVSPropertyOp55
 70
     1
102
RTVSPropertyOp56
 70
     1
102
RTVSPropertyOp57
 70
     1
102
RTVSPropertyOp58
 70
     1
102
RTVSPropertyOp59
 70
     1
102
RTVSPropertyOp60
 70
     1
102
RTVSPropertyOp61
 70
     1
102
RTVSPropertyOp62
 70
     1
  0
XRECORD
  5
A4EF
102
{ACAD_REACTORS
330
A4EE
102
}
330
A4EE
100
AcDbXrecord
280
     1
102
RTVSPost2010Prop28
280
     0
102
RTVSPost2010PropOp28
 70
     1
102
RTVSPost2010Prop29
280
     1
102
RTVSPost2010PropOp29
 70
     1
102
RTVSPost2010Prop30
280
     1
102
RTVSPost2010PropOp30
 70
     1
102
RTVSPost2010Prop31
280
     0
102
RTVSPost2010PropOp31
 70
     1
102
RTVSPost2010Prop32
280
     0
102
RTVSPost2010PropOp32
 70
     1
102
RTVSPost2010Prop33
280
     0
102
RTVSPost2010PropOp33
 70
     1
102
RTVSPost2010Prop34
280
     0
102
RTVSPost2010PropOp34
 70
     1
102
RTVSPost2010Prop35
280
     0
102
RTVSPost2010PropOp35
 70
     1
102
RTVSPost2010Prop36
280
     0
102
RTVSPost2010PropOp36
 70
     1
102
RTVSPost2010Prop37
 90
       50
102
RTVSPost2010PropOp37
 70
     1
102
RTVSPost2010Prop38
140
0.0
102
RTVSPost2010PropOp38
 70
     1
102
RTVSPost2010Prop39
140
1.0
102
RTVSPost2010PropOp39
 70
     1
102
RTVSPost2010Prop40
 90
        0
102
RTVSPost2010PropOp40
 70
     1
102
RTVSPost2010Prop41ColorIndex
 90
       18
102
RTVSPost2010Prop41ColorRGB
 90
        0
102
RTVSPost2010PropOp41
 70
     1
102
RTVSPost2010Prop42
 90
       50
102
RTVSPost2010PropOp42
 70
     1
102
RTVSPost2010Prop43
 90
        3
102
RTVSPost2010PropOp43
 70
     1
102
RTVSPost2010Prop44ColorIndex
 90
        5
102
RTVSPost2010Prop44ColorRGB
 90
      255
102
RTVSPost2010PropOp44
 70
     1
102
RTVSPost2010Prop45
280
     0
102
RTVSPost2010PropOp45
 70
     1
102
RTVSPost2010Prop46
 90
       50
102
RTVSPost2010PropOp46
 70
     1
102
RTVSPost2010Prop47
 90
       50
102
RTVSPost2010PropOp47
 70
     1
102
RTVSPost2010Prop48
 90
       50
102
RTVSPost2010PropOp48
 70
     1
102
RTVSPost2010Prop49
280
     0
102
RTVSPost2010PropOp49
 70
     1
102
RTVSPost2010Prop50
 90
       50
102
RTVSPost2010PropOp50
 70
     1
102
RTVSPost2010Prop51ColorIndex
 90
      256
102
RTVSPost2010Prop51ColorRGB
 90
-16777216
102
RTVSPost2010PropOp51
 70
     0
102
RTVSPost2010Prop52
140
1.0
102
RTVSPost2010PropOp52
 70
     0
102
RTVSPost2010Prop53
 90
        2
102
RTVSPost2010PropOp53
 70
     1
102
RTVSPost2010Prop54
  1
strokes_ogs.tif
102
RTVSPost2010PropOp54
 70
     1
102
RTVSPost2010Prop55
280
     0
102
RTVSPost2010PropOp55
 70
     1
102
RTVSPost2010Prop56
140
1.0
102
RTVSPost2010PropOp56
 70
     1
102
RTVSPost2010Prop57
140
1.0
102
RTVSPost2010PropOp57
 70
     1
102
RTVSPropertyOp0
 70
     1
102
RTVSPropertyOp1
 70
     1
102
RTVSPropertyOp2
 70
     1
102
RTVSPropertyOp3
 70
     1
102
RTVSPropertyOp4
 70
     1
102
RTVSPropertyOp5
 70
     1
102
RTVSPropertyOp6
 70
     1
102
RTVSPropertyOp7
 70
     1
102
RTVSPropertyOp8
 70
     1
102
RTVSPropertyOp9
 70
     1
102
RTVSPropertyOp10
 70
     1
102
RTVSPropertyOp11
 70
     1
102
RTVSPropertyOp12
 70
     1
102
RTVSPropertyOp13
 70
     1
102
RTVSPropertyOp14
 70
     1
102
RTVSPropertyOp15
 70
     1
102
RTVSPropertyOp16
 70
     1
102
RTVSPropertyOp17
 70
     1
102
RTVSPropertyOp18
 70
     1
102
RTVSPropertyOp19
 70
     1
102
RTVSPropertyOp20
 70
     1
102
RTVSPropertyOp21
 70
     1
102
RTVSPropertyOp22
 70
     1
102
RTVSPropertyOp23
 70
     1
102
RTVSPropertyOp24
 70
     1
102
RTVSPropertyOp25
 70
     1
102
RTVSPropertyOp26
 70
     1
102
RTVSPropertyOp27
 70
     1
102
RTVSPropertyOp28
 70
     1
102
RTVSPropertyOp29
 70
     1
102
RTVSPropertyOp30
 70
     1
102
RTVSPropertyOp31
 70
     1
102
RTVSPropertyOp32
 70
     1
102
RTVSPropertyOp33
 70
     1
102
RTVSPropertyOp34
 70
     1
102
RTVSPropertyOp35
 70
     1
102
RTVSPropertyOp36
 70
     1
102
RTVSPropertyOp37
 70
     1
102
RTVSPropertyOp38
 70
     1
102
RTVSPropertyOp39
 70
     1
102
RTVSPropertyOp40
 70
     1
102
RTVSPropertyOp41
 70
     1
102
RTVSPropertyOp42
 70
     1
102
RTVSPropertyOp43
 70
     1
102
RTVSPropertyOp44
 70
     1
102
RTVSPropertyOp45
 70
     1
102
RTVSPropertyOp46
 70
     1
102
RTVSPropertyOp47
 70
     1
102
RTVSPropertyOp48
 70
     1
102
RTVSPropertyOp49
 70
     1
102
RTVSPropertyOp50
 70
     1
102
RTVSPropertyOp51
 70
     0
102
RTVSPropertyOp52
 70
     0
102
RTVSPropertyOp53
 70
     1
102
RTVSPropertyOp54
 70
     1
102
RTVSPropertyOp55
 70
     1
102
RTVSPropertyOp56
 70
     1
102
RTVSPropertyOp57
 70
     1
102
RTVSPropertyOp58
 70
     1
102
RTVSPropertyOp59
 70
     1
102
RTVSPropertyOp60
 70
     1
102
RTVSPropertyOp61
 70
     1
102
RTVSPropertyOp62
 70
     1
  0
XRECORD
  5
A501
102
{ACAD_REACTORS
330
A500
102
}
330
A500
100
AcDbXrecord
280
     1
102
RTVSPost2010Prop28
280
     0
102
RTVSPost2010PropOp28
 70
     1
102
RTVSPost2010Prop29
280
     1
102
RTVSPost2010PropOp29
 70
     1
102
RTVSPost2010Prop30
280
     1
102
RTVSPost2010PropOp30
 70
     1
102
RTVSPost2010Prop31
280
     0
102
RTVSPost2010PropOp31
 70
     1
102
RTVSPost2010Prop32
280
     0
102
RTVSPost2010PropOp32
 70
     1
102
RTVSPost2010Prop33
280
     0
102
RTVSPost2010PropOp33
 70
     1
102
RTVSPost2010Prop34
280
     0
102
RTVSPost2010PropOp34
 70
     1
102
RTVSPost2010Prop35
280
     0
102
RTVSPost2010PropOp35
 70
     1
102
RTVSPost2010Prop36
280
     0
102
RTVSPost2010PropOp36
 70
     1
102
RTVSPost2010Prop37
 90
       50
102
RTVSPost2010PropOp37
 70
     1
102
RTVSPost2010Prop38
140
0.0
102
RTVSPost2010PropOp38
 70
     1
102
RTVSPost2010Prop39
140
1.0
102
RTVSPost2010PropOp39
 70
     1
102
RTVSPost2010Prop40
 90
        0
102
RTVSPost2010PropOp40
 70
     1
102
RTVSPost2010Prop41ColorIndex
 90
       18
102
RTVSPost2010Prop41ColorRGB
 90
        0
102
RTVSPost2010PropOp41
 70
     1
102
RTVSPost2010Prop42
 90
       50
102
RTVSPost2010PropOp42
 70
     1
102
RTVSPost2010Prop43
 90
        3
102
RTVSPost2010PropOp43
 70
     1
102
RTVSPost2010Prop44ColorIndex
 90
        5
102
RTVSPost2010Prop44ColorRGB
 90
      255
102
RTVSPost2010PropOp44
 70
     1
102
RTVSPost2010Prop45
280
     0
102
RTVSPost2010PropOp45
 70
     1
102
RTVSPost2010Prop46
 90
       50
102
RTVSPost2010PropOp46
 70
     1
102
RTVSPost2010Prop47
 90
       50
102
RTVSPost2010PropOp47
 70
     1
102
RTVSPost2010Prop48
 90
       50
102
RTVSPost2010PropOp48
 70
     1
102
RTVSPost2010Prop49
280
     0
102
RTVSPost2010PropOp49
 70
     1
102
RTVSPost2010Prop50
 90
       50
102
RTVSPost2010PropOp50
 70
     1
102
RTVSPost2010Prop51ColorIndex
 90
      256
102
RTVSPost2010Prop51ColorRGB
 90
-16777216
102
RTVSPost2010PropOp51
 70
     0
102
RTVSPost2010Prop52
140
1.0
102
RTVSPost2010PropOp52
 70
     0
102
RTVSPost2010Prop53
 90
        2
102
RTVSPost2010PropOp53
 70
     1
102
RTVSPost2010Prop54
  1
strokes_ogs.tif
102
RTVSPost2010PropOp54
 70
     1
102
RTVSPost2010Prop55
280
     0
102
RTVSPost2010PropOp55
 70
     1
102
RTVSPost2010Prop56
140
1.0
102
RTVSPost2010PropOp56
 70
     1
102
RTVSPost2010Prop57
140
1.0
102
RTVSPost2010PropOp57
 70
     1
102
RTVSPropertyOp0
 70
     0
102
RTVSPropertyOp1
 70
     0
102
RTVSPropertyOp2
 70
     0
102
RTVSPropertyOp3
 70
     0
102
RTVSPropertyOp4
 70
     0
102
RTVSPropertyOp5
 70
     0
102
RTVSPropertyOp6
 70
     0
102
RTVSPropertyOp7
 70
     0
102
RTVSPropertyOp8
 70
     0
102
RTVSPropertyOp9
 70
     0
102
RTVSPropertyOp10
 70
     0
102
RTVSPropertyOp11
 70
     0
102
RTVSPropertyOp12
 70
     0
102
RTVSPropertyOp13
 70
     0
102
RTVSPropertyOp14
 70
     2
102
RTVSPropertyOp15
 70
     0
102
RTVSPropertyOp16
 70
     0
102
RTVSPropertyOp17
 70
     0
102
RTVSPropertyOp18
 70
     0
102
RTVSPropertyOp19
 70
     0
102
RTVSPropertyOp20
 70
     0
102
RTVSPropertyOp21
 70
     0
102
RTVSPropertyOp22
 70
     0
102
RTVSPropertyOp23
 70
     0
102
RTVSPropertyOp24
 70
     0
102
RTVSPropertyOp25
 70
     0
102
RTVSPropertyOp26
 70
     0
102
RTVSPropertyOp27
 70
     0
102
RTVSPropertyOp28
 70
     1
102
RTVSPropertyOp29
 70
     1
102
RTVSPropertyOp30
 70
     1
102
RTVSPropertyOp31
 70
     1
102
RTVSPropertyOp32
 70
     1
102
RTVSPropertyOp33
 70
     1
102
RTVSPropertyOp34
 70
     1
102
RTVSPropertyOp35
 70
     1
102
RTVSPropertyOp36
 70
     1
102
RTVSPropertyOp37
 70
     1
102
RTVSPropertyOp38
 70
     1
102
RTVSPropertyOp39
 70
     1
102
RTVSPropertyOp40
 70
     1
102
RTVSPropertyOp41
 70
     1
102
RTVSPropertyOp42
 70
     1
102
RTVSPropertyOp43
 70
     1
102
RTVSPropertyOp44
 70
     1
102
RTVSPropertyOp45
 70
     1
102
RTVSPropertyOp46
 70
     1
102
RTVSPropertyOp47
 70
     1
102
RTVSPropertyOp48
 70
     1
102
RTVSPropertyOp49
 70
     1
102
RTVSPropertyOp50
 70
     1
102
RTVSPropertyOp51
 70
     0
102
RTVSPropertyOp52
 70
     0
102
RTVSPropertyOp53
 70
     1
102
RTVSPropertyOp54
 70
     1
102
RTVSPropertyOp55
 70
     1
102
RTVSPropertyOp56
 70
     1
102
RTVSPropertyOp57
 70
     1
102
RTVSPropertyOp58
 70
     1
102
RTVSPropertyOp59
 70
     1
102
RTVSPropertyOp60
 70
     1
102
RTVSPropertyOp61
 70
     1
102
RTVSPropertyOp62
 70
     1
  0
XRECORD
  5
A4F7
102
{ACAD_REACTORS
330
A4F6
102
}
330
A4F6
100
AcDbXrecord
280
     1
102
RTVSPost2010Prop28
280
     0
102
RTVSPost2010PropOp28
 70
     1
102
RTVSPost2010Prop29
280
     1
102
RTVSPost2010PropOp29
 70
     1
102
RTVSPost2010Prop30
280
     1
102
RTVSPost2010PropOp30
 70
     1
102
RTVSPost2010Prop31
280
     0
102
RTVSPost2010PropOp31
 70
     1
102
RTVSPost2010Prop32
280
     0
102
RTVSPost2010PropOp32
 70
     1
102
RTVSPost2010Prop33
280
     0
102
RTVSPost2010PropOp33
 70
     1
102
RTVSPost2010Prop34
280
     0
102
RTVSPost2010PropOp34
 70
     1
102
RTVSPost2010Prop35
280
     0
102
RTVSPost2010PropOp35
 70
     1
102
RTVSPost2010Prop36
280
     0
102
RTVSPost2010PropOp36
 70
     1
102
RTVSPost2010Prop37
 90
       50
102
RTVSPost2010PropOp37
 70
     1
102
RTVSPost2010Prop38
140
0.0
102
RTVSPost2010PropOp38
 70
     1
102
RTVSPost2010Prop39
140
1.0
102
RTVSPost2010PropOp39
 70
     1
102
RTVSPost2010Prop40
 90
        0
102
RTVSPost2010PropOp40
 70
     1
102
RTVSPost2010Prop41ColorIndex
 90
       18
102
RTVSPost2010Prop41ColorRGB
 90
        0
102
RTVSPost2010PropOp41
 70
     1
102
RTVSPost2010Prop42
 90
       50
102
RTVSPost2010PropOp42
 70
     1
102
RTVSPost2010Prop43
 90
        3
102
RTVSPost2010PropOp43
 70
     1
102
RTVSPost2010Prop44ColorIndex
 90
        5
102
RTVSPost2010Prop44ColorRGB
 90
      255
102
RTVSPost2010PropOp44
 70
     1
102
RTVSPost2010Prop45
280
     0
102
RTVSPost2010PropOp45
 70
     1
102
RTVSPost2010Prop46
 90
       50
102
RTVSPost2010PropOp46
 70
     1
102
RTVSPost2010Prop47
 90
       50
102
RTVSPost2010PropOp47
 70
     1
102
RTVSPost2010Prop48
 90
       50
102
RTVSPost2010PropOp48
 70
     1
102
RTVSPost2010Prop49
280
     0
102
RTVSPost2010PropOp49
 70
     1
102
RTVSPost2010Prop50
 90
       50
102
RTVSPost2010PropOp50
 70
     1
102
RTVSPost2010Prop51ColorIndex
 90
      256
102
RTVSPost2010Prop51ColorRGB
 90
-16777216
102
RTVSPost2010PropOp51
 70
     0
102
RTVSPost2010Prop52
140
1.0
102
RTVSPost2010PropOp52
 70
     0
102
RTVSPost2010Prop53
 90
        2
102
RTVSPost2010PropOp53
 70
     1
102
RTVSPost2010Prop54
  1
strokes_ogs.tif
102
RTVSPost2010PropOp54
 70
     1
102
RTVSPost2010Prop55
280
     0
102
RTVSPost2010PropOp55
 70
     1
102
RTVSPost2010Prop56
140
1.0
102
RTVSPost2010PropOp56
 70
     1
102
RTVSPost2010Prop57
140
1.0
102
RTVSPost2010PropOp57
 70
     1
102
RTVSPropertyOp0
 70
     1
102
RTVSPropertyOp1
 70
     1
102
RTVSPropertyOp2
 70
     1
102
RTVSPropertyOp3
 70
     1
102
RTVSPropertyOp4
 70
     1
102
RTVSPropertyOp5
 70
     1
102
RTVSPropertyOp6
 70
     1
102
RTVSPropertyOp7
 70
     1
102
RTVSPropertyOp8
 70
     1
102
RTVSPropertyOp9
 70
     1
102
RTVSPropertyOp10
 70
     1
102
RTVSPropertyOp11
 70
     1
102
RTVSPropertyOp12
 70
     1
102
RTVSPropertyOp13
 70
     1
102
RTVSPropertyOp14
 70
     1
102
RTVSPropertyOp15
 70
     1
102
RTVSPropertyOp16
 70
     1
102
RTVSPropertyOp17
 70
     1
102
RTVSPropertyOp18
 70
     1
102
RTVSPropertyOp19
 70
     1
102
RTVSPropertyOp20
 70
     1
102
RTVSPropertyOp21
 70
     1
102
RTVSPropertyOp22
 70
     1
102
RTVSPropertyOp23
 70
     1
102
RTVSPropertyOp24
 70
     1
102
RTVSPropertyOp25
 70
     1
102
RTVSPropertyOp26
 70
     1
102
RTVSPropertyOp27
 70
     1
102
RTVSPropertyOp28
 70
     1
102
RTVSPropertyOp29
 70
     1
102
RTVSPropertyOp30
 70
     1
102
RTVSPropertyOp31
 70
     1
102
RTVSPropertyOp32
 70
     1
102
RTVSPropertyOp33
 70
     1
102
RTVSPropertyOp34
 70
     1
102
RTVSPropertyOp35
 70
     1
102
RTVSPropertyOp36
 70
     1
102
RTVSPropertyOp37
 70
     1
102
RTVSPropertyOp38
 70
     1
102
RTVSPropertyOp39
 70
     1
102
RTVSPropertyOp40
 70
     1
102
RTVSPropertyOp41
 70
     1
102
RTVSPropertyOp42
 70
     1
102
RTVSPropertyOp43
 70
     1
102
RTVSPropertyOp44
 70
     1
102
RTVSPropertyOp45
 70
     1
102
RTVSPropertyOp46
 70
     1
102
RTVSPropertyOp47
 70
     1
102
RTVSPropertyOp48
 70
     1
102
RTVSPropertyOp49
 70
     1
102
RTVSPropertyOp50
 70
     1
102
RTVSPropertyOp51
 70
     0
102
RTVSPropertyOp52
 70
     0
102
RTVSPropertyOp53
 70
     1
102
RTVSPropertyOp54
 70
     1
102
RTVSPropertyOp55
 70
     1
102
RTVSPropertyOp56
 70
     1
102
RTVSPropertyOp57
 70
     1
102
RTVSPropertyOp58
 70
     1
102
RTVSPropertyOp59
 70
     1
102
RTVSPropertyOp60
 70
     1
102
RTVSPropertyOp61
 70
     1
102
RTVSPropertyOp62
 70
     1
  0
XRECORD
  5
A4DB
102
{ACAD_REACTORS
330
A4DA
102
}
330
A4DA
100
AcDbXrecord
280
     1
102
RTVSPost2010Prop28
280
     0
102
RTVSPost2010PropOp28
 70
     1
102
RTVSPost2010Prop29
280
     1
102
RTVSPost2010PropOp29
 70
     1
102
RTVSPost2010Prop30
280
     1
102
RTVSPost2010PropOp30
 70
     1
102
RTVSPost2010Prop31
280
     0
102
RTVSPost2010PropOp31
 70
     1
102
RTVSPost2010Prop32
280
     0
102
RTVSPost2010PropOp32
 70
     1
102
RTVSPost2010Prop33
280
     0
102
RTVSPost2010PropOp33
 70
     1
102
RTVSPost2010Prop34
280
     0
102
RTVSPost2010PropOp34
 70
     1
102
RTVSPost2010Prop35
280
     0
102
RTVSPost2010PropOp35
 70
     1
102
RTVSPost2010Prop36
280
     0
102
RTVSPost2010PropOp36
 70
     1
102
RTVSPost2010Prop37
 90
       50
102
RTVSPost2010PropOp37
 70
     1
102
RTVSPost2010Prop38
140
0.0
102
RTVSPost2010PropOp38
 70
     1
102
RTVSPost2010Prop39
140
1.0
102
RTVSPost2010PropOp39
 70
     1
102
RTVSPost2010Prop40
 90
        0
102
RTVSPost2010PropOp40
 70
     1
102
RTVSPost2010Prop41ColorIndex
 90
       18
102
RTVSPost2010Prop41ColorRGB
 90
        0
102
RTVSPost2010PropOp41
 70
     1
102
RTVSPost2010Prop42
 90
       50
102
RTVSPost2010PropOp42
 70
     1
102
RTVSPost2010Prop43
 90
        3
102
RTVSPost2010PropOp43
 70
     1
102
RTVSPost2010Prop44ColorIndex
 90
        5
102
RTVSPost2010Prop44ColorRGB
 90
      255
102
RTVSPost2010PropOp44
 70
     1
102
RTVSPost2010Prop45
280
     0
102
RTVSPost2010PropOp45
 70
     1
102
RTVSPost2010Prop46
 90
       50
102
RTVSPost2010PropOp46
 70
     1
102
RTVSPost2010Prop47
 90
       50
102
RTVSPost2010PropOp47
 70
     1
102
RTVSPost2010Prop48
 90
       50
102
RTVSPost2010PropOp48
 70
     1
102
RTVSPost2010Prop49
280
     0
102
RTVSPost2010PropOp49
 70
     1
102
RTVSPost2010Prop50
 90
       50
102
RTVSPost2010PropOp50
 70
     1
102
RTVSPost2010Prop51ColorIndex
 90
      256
102
RTVSPost2010Prop51ColorRGB
 90
-16777216
102
RTVSPost2010PropOp51
 70
     0
102
RTVSPost2010Prop52
140
1.0
102
RTVSPost2010PropOp52
 70
     0
102
RTVSPost2010Prop53
 90
        2
102
RTVSPost2010PropOp53
 70
     1
102
RTVSPost2010Prop54
  1
strokes_ogs.tif
102
RTVSPost2010PropOp54
 70
     1
102
RTVSPost2010Prop55
280
     0
102
RTVSPost2010PropOp55
 70
     1
102
RTVSPost2010Prop56
140
1.0
102
RTVSPost2010PropOp56
 70
     1
102
RTVSPost2010Prop57
140
1.0
102
RTVSPost2010PropOp57
 70
     1
102
RTVSPropertyOp0
 70
     1
102
RTVSPropertyOp1
 70
     1
102
RTVSPropertyOp2
 70
     1
102
RTVSPropertyOp3
 70
     1
102
RTVSPropertyOp4
 70
     1
102
RTVSPropertyOp5
 70
     1
102
RTVSPropertyOp6
 70
     1
102
RTVSPropertyOp7
 70
     1
102
RTVSPropertyOp8
 70
     1
102
RTVSPropertyOp9
 70
     1
102
RTVSPropertyOp10
 70
     1
102
RTVSPropertyOp11
 70
     1
102
RTVSPropertyOp12
 70
     1
102
RTVSPropertyOp13
 70
     1
102
RTVSPropertyOp14
 70
     1
102
RTVSPropertyOp15
 70
     1
102
RTVSPropertyOp16
 70
     1
102
RTVSPropertyOp17
 70
     1
102
RTVSPropertyOp18
 70
     1
102
RTVSPropertyOp19
 70
     1
102
RTVSPropertyOp20
 70
     1
102
RTVSPropertyOp21
 70
     1
102
RTVSPropertyOp22
 70
     1
102
RTVSPropertyOp23
 70
     1
102
RTVSPropertyOp24
 70
     1
102
RTVSPropertyOp25
 70
     1
102
RTVSPropertyOp26
 70
     1
102
RTVSPropertyOp27
 70
     1
102
RTVSPropertyOp28
 70
     1
102
RTVSPropertyOp29
 70
     1
102
RTVSPropertyOp30
 70
     1
102
RTVSPropertyOp31
 70
     1
102
RTVSPropertyOp32
 70
     1
102
RTVSPropertyOp33
 70
     1
102
RTVSPropertyOp34
 70
     1
102
RTVSPropertyOp35
 70
     1
102
RTVSPropertyOp36
 70
     1
102
RTVSPropertyOp37
 70
     1
102
RTVSPropertyOp38
 70
     1
102
RTVSPropertyOp39
 70
     1
102
RTVSPropertyOp40
 70
     1
102
RTVSPropertyOp41
 70
     1
102
RTVSPropertyOp42
 70
     1
102
RTVSPropertyOp43
 70
     1
102
RTVSPropertyOp44
 70
     1
102
RTVSPropertyOp45
 70
     1
102
RTVSPropertyOp46
 70
     1
102
RTVSPropertyOp47
 70
     1
102
RTVSPropertyOp48
 70
     1
102
RTVSPropertyOp49
 70
     1
102
RTVSPropertyOp50
 70
     1
102
RTVSPropertyOp51
 70
     0
102
RTVSPropertyOp52
 70
     0
102
RTVSPropertyOp53
 70
     1
102
RTVSPropertyOp54
 70
     1
102
RTVSPropertyOp55
 70
     1
102
RTVSPropertyOp56
 70
     1
102
RTVSPropertyOp57
 70
     1
102
RTVSPropertyOp58
 70
     1
102
RTVSPropertyOp59
 70
     1
102
RTVSPropertyOp60
 70
     1
102
RTVSPropertyOp61
 70
     1
102
RTVSPropertyOp62
 70
     1
  0
XRECORD
  5
A4DD
102
{ACAD_REACTORS
330
A4DC
102
}
330
A4DC
100
AcDbXrecord
280
     1
102
RTVSPost2010Prop28
280
     0
102
RTVSPost2010PropOp28
 70
     1
102
RTVSPost2010Prop29
280
     1
102
RTVSPost2010PropOp29
 70
     1
102
RTVSPost2010Prop30
280
     1
102
RTVSPost2010PropOp30
 70
     1
102
RTVSPost2010Prop31
280
     0
102
RTVSPost2010PropOp31
 70
     1
102
RTVSPost2010Prop32
280
     0
102
RTVSPost2010PropOp32
 70
     1
102
RTVSPost2010Prop33
280
     0
102
RTVSPost2010PropOp33
 70
     1
102
RTVSPost2010Prop34
280
     0
102
RTVSPost2010PropOp34
 70
     1
102
RTVSPost2010Prop35
280
     0
102
RTVSPost2010PropOp35
 70
     1
102
RTVSPost2010Prop36
280
     0
102
RTVSPost2010PropOp36
 70
     1
102
RTVSPost2010Prop37
 90
       50
102
RTVSPost2010PropOp37
 70
     1
102
RTVSPost2010Prop38
140
0.0
102
RTVSPost2010PropOp38
 70
     1
102
RTVSPost2010Prop39
140
1.0
102
RTVSPost2010PropOp39
 70
     1
102
RTVSPost2010Prop40
 90
        0
102
RTVSPost2010PropOp40
 70
     1
102
RTVSPost2010Prop41ColorIndex
 90
       18
102
RTVSPost2010Prop41ColorRGB
 90
        0
102
RTVSPost2010PropOp41
 70
     1
102
RTVSPost2010Prop42
 90
       50
102
RTVSPost2010PropOp42
 70
     1
102
RTVSPost2010Prop43
 90
        3
102
RTVSPost2010PropOp43
 70
     1
102
RTVSPost2010Prop44ColorIndex
 90
        5
102
RTVSPost2010Prop44ColorRGB
 90
      255
102
RTVSPost2010PropOp44
 70
     1
102
RTVSPost2010Prop45
280
     0
102
RTVSPost2010PropOp45
 70
     1
102
RTVSPost2010Prop46
 90
       50
102
RTVSPost2010PropOp46
 70
     1
102
RTVSPost2010Prop47
 90
       50
102
RTVSPost2010PropOp47
 70
     1
102
RTVSPost2010Prop48
 90
       50
102
RTVSPost2010PropOp48
 70
     1
102
RTVSPost2010Prop49
280
     0
102
RTVSPost2010PropOp49
 70
     1
102
RTVSPost2010Prop50
 90
       50
102
RTVSPost2010PropOp50
 70
     1
102
RTVSPost2010Prop51ColorIndex
 90
      256
102
RTVSPost2010Prop51ColorRGB
 90
-16777216
102
RTVSPost2010PropOp51
 70
     0
102
RTVSPost2010Prop52
140
1.0
102
RTVSPost2010PropOp52
 70
     0
102
RTVSPost2010Prop53
 90
        2
102
RTVSPost2010PropOp53
 70
     1
102
RTVSPost2010Prop54
  1
strokes_ogs.tif
102
RTVSPost2010PropOp54
 70
     1
102
RTVSPost2010Prop55
280
     0
102
RTVSPost2010PropOp55
 70
     1
102
RTVSPost2010Prop56
140
1.0
102
RTVSPost2010PropOp56
 70
     1
102
RTVSPost2010Prop57
140
1.0
102
RTVSPost2010PropOp57
 70
     1
102
RTVSPropertyOp0
 70
     1
102
RTVSPropertyOp1
 70
     1
102
RTVSPropertyOp2
 70
     1
102
RTVSPropertyOp3
 70
     1
102
RTVSPropertyOp4
 70
     1
102
RTVSPropertyOp5
 70
     1
102
RTVSPropertyOp6
 70
     1
102
RTVSPropertyOp7
 70
     1
102
RTVSPropertyOp8
 70
     1
102
RTVSPropertyOp9
 70
     1
102
RTVSPropertyOp10
 70
     1
102
RTVSPropertyOp11
 70
     1
102
RTVSPropertyOp12
 70
     1
102
RTVSPropertyOp13
 70
     1
102
RTVSPropertyOp14
 70
     1
102
RTVSPropertyOp15
 70
     1
102
RTVSPropertyOp16
 70
     1
102
RTVSPropertyOp17
 70
     1
102
RTVSPropertyOp18
 70
     1
102
RTVSPropertyOp19
 70
     1
102
RTVSPropertyOp20
 70
     1
102
RTVSPropertyOp21
 70
     1
102
RTVSPropertyOp22
 70
     1
102
RTVSPropertyOp23
 70
     1
102
RTVSPropertyOp24
 70
     1
102
RTVSPropertyOp25
 70
     1
102
RTVSPropertyOp26
 70
     1
102
RTVSPropertyOp27
 70
     1
102
RTVSPropertyOp28
 70
     1
102
RTVSPropertyOp29
 70
     1
102
RTVSPropertyOp30
 70
     1
102
RTVSPropertyOp31
 70
     1
102
RTVSPropertyOp32
 70
     1
102
RTVSPropertyOp33
 70
     1
102
RTVSPropertyOp34
 70
     1
102
RTVSPropertyOp35
 70
     1
102
RTVSPropertyOp36
 70
     1
102
RTVSPropertyOp37
 70
     1
102
RTVSPropertyOp38
 70
     1
102
RTVSPropertyOp39
 70
     1
102
RTVSPropertyOp40
 70
     1
102
RTVSPropertyOp41
 70
     1
102
RTVSPropertyOp42
 70
     1
102
RTVSPropertyOp43
 70
     1
102
RTVSPropertyOp44
 70
     1
102
RTVSPropertyOp45
 70
     1
102
RTVSPropertyOp46
 70
     1
102
RTVSPropertyOp47
 70
     1
102
RTVSPropertyOp48
 70
     1
102
RTVSPropertyOp49
 70
     1
102
RTVSPropertyOp50
 70
     1
102
RTVSPropertyOp51
 70
     0
102
RTVSPropertyOp52
 70
     0
102
RTVSPropertyOp53
 70
     1
102
RTVSPropertyOp54
 70
     1
102
RTVSPropertyOp55
 70
     1
102
RTVSPropertyOp56
 70
     1
102
RTVSPropertyOp57
 70
     1
102
RTVSPropertyOp58
 70
     1
102
RTVSPropertyOp59
 70
     1
102
RTVSPropertyOp60
 70
     1
102
RTVSPropertyOp61
 70
     1
102
RTVSPropertyOp62
 70
     1
  0
XRECORD
  5
A4DF
102
{ACAD_REACTORS
330
A4DE
102
}
330
A4DE
100
AcDbXrecord
280
     1
102
RTVSPost2010Prop28
280
     0
102
RTVSPost2010PropOp28
 70
     1
102
RTVSPost2010Prop29
280
     1
102
RTVSPost2010PropOp29
 70
     1
102
RTVSPost2010Prop30
280
     1
102
RTVSPost2010PropOp30
 70
     1
102
RTVSPost2010Prop31
280
     0
102
RTVSPost2010PropOp31
 70
     1
102
RTVSPost2010Prop32
280
     0
102
RTVSPost2010PropOp32
 70
     1
102
RTVSPost2010Prop33
280
     0
102
RTVSPost2010PropOp33
 70
     1
102
RTVSPost2010Prop34
280
     0
102
RTVSPost2010PropOp34
 70
     1
102
RTVSPost2010Prop35
280
     0
102
RTVSPost2010PropOp35
 70
     1
102
RTVSPost2010Prop36
280
     0
102
RTVSPost2010PropOp36
 70
     1
102
RTVSPost2010Prop37
 90
       50
102
RTVSPost2010PropOp37
 70
     1
102
RTVSPost2010Prop38
140
0.0
102
RTVSPost2010PropOp38
 70
     1
102
RTVSPost2010Prop39
140
1.0
102
RTVSPost2010PropOp39
 70
     1
102
RTVSPost2010Prop40
 90
        0
102
RTVSPost2010PropOp40
 70
     1
102
RTVSPost2010Prop41ColorIndex
 90
       18
102
RTVSPost2010Prop41ColorRGB
 90
        0
102
RTVSPost2010PropOp41
 70
     1
102
RTVSPost2010Prop42
 90
       50
102
RTVSPost2010PropOp42
 70
     1
102
RTVSPost2010Prop43
 90
        3
102
RTVSPost2010PropOp43
 70
     1
102
RTVSPost2010Prop44ColorIndex
 90
        5
102
RTVSPost2010Prop44ColorRGB
 90
      255
102
RTVSPost2010PropOp44
 70
     1
102
RTVSPost2010Prop45
280
     0
102
RTVSPost2010PropOp45
 70
     1
102
RTVSPost2010Prop46
 90
       50
102
RTVSPost2010PropOp46
 70
     1
102
RTVSPost2010Prop47
 90
       50
102
RTVSPost2010PropOp47
 70
     1
102
RTVSPost2010Prop48
 90
       50
102
RTVSPost2010PropOp48
 70
     1
102
RTVSPost2010Prop49
280
     0
102
RTVSPost2010PropOp49
 70
     1
102
RTVSPost2010Prop50
 90
       50
102
RTVSPost2010PropOp50
 70
     1
102
RTVSPost2010Prop51ColorIndex
 90
      256
102
RTVSPost2010Prop51ColorRGB
 90
-16777216
102
RTVSPost2010PropOp51
 70
     0
102
RTVSPost2010Prop52
140
1.0
102
RTVSPost2010PropOp52
 70
     0
102
RTVSPost2010Prop53
 90
        2
102
RTVSPost2010PropOp53
 70
     1
102
RTVSPost2010Prop54
  1
strokes_ogs.tif
102
RTVSPost2010PropOp54
 70
     1
102
RTVSPost2010Prop55
280
     0
102
RTVSPost2010PropOp55
 70
     1
102
RTVSPost2010Prop56
140
1.0
102
RTVSPost2010PropOp56
 70
     1
102
RTVSPost2010Prop57
140
1.0
102
RTVSPost2010PropOp57
 70
     1
102
RTVSPropertyOp0
 70
     1
102
RTVSPropertyOp1
 70
     1
102
RTVSPropertyOp2
 70
     1
102
RTVSPropertyOp3
 70
     1
102
RTVSPropertyOp4
 70
     1
102
RTVSPropertyOp5
 70
     1
102
RTVSPropertyOp6
 70
     1
102
RTVSPropertyOp7
 70
     1
102
RTVSPropertyOp8
 70
     1
102
RTVSPropertyOp9
 70
     1
102
RTVSPropertyOp10
 70
     1
102
RTVSPropertyOp11
 70
     1
102
RTVSPropertyOp12
 70
     1
102
RTVSPropertyOp13
 70
     1
102
RTVSPropertyOp14
 70
     1
102
RTVSPropertyOp15
 70
     1
102
RTVSPropertyOp16
 70
     1
102
RTVSPropertyOp17
 70
     1
102
RTVSPropertyOp18
 70
     1
102
RTVSPropertyOp19
 70
     1
102
RTVSPropertyOp20
 70
     1
102
RTVSPropertyOp21
 70
     1
102
RTVSPropertyOp22
 70
     1
102
RTVSPropertyOp23
 70
     1
102
RTVSPropertyOp24
 70
     1
102
RTVSPropertyOp25
 70
     1
102
RTVSPropertyOp26
 70
     1
102
RTVSPropertyOp27
 70
     1
102
RTVSPropertyOp28
 70
     1
102
RTVSPropertyOp29
 70
     1
102
RTVSPropertyOp30
 70
     1
102
RTVSPropertyOp31
 70
     1
102
RTVSPropertyOp32
 70
     1
102
RTVSPropertyOp33
 70
     1
102
RTVSPropertyOp34
 70
     1
102
RTVSPropertyOp35
 70
     1
102
RTVSPropertyOp36
 70
     1
102
RTVSPropertyOp37
 70
     1
102
RTVSPropertyOp38
 70
     1
102
RTVSPropertyOp39
 70
     1
102
RTVSPropertyOp40
 70
     1
102
RTVSPropertyOp41
 70
     1
102
RTVSPropertyOp42
 70
     1
102
RTVSPropertyOp43
 70
     1
102
RTVSPropertyOp44
 70
     1
102
RTVSPropertyOp45
 70
     1
102
RTVSPropertyOp46
 70
     1
102
RTVSPropertyOp47
 70
     1
102
RTVSPropertyOp48
 70
     1
102
RTVSPropertyOp49
 70
     1
102
RTVSPropertyOp50
 70
     1
102
RTVSPropertyOp51
 70
     0
102
RTVSPropertyOp52
 70
     0
102
RTVSPropertyOp53
 70
     1
102
RTVSPropertyOp54
 70
     1
102
RTVSPropertyOp55
 70
     1
102
RTVSPropertyOp56
 70
     1
102
RTVSPropertyOp57
 70
     1
102
RTVSPropertyOp58
 70
     1
102
RTVSPropertyOp59
 70
     1
102
RTVSPropertyOp60
 70
     1
102
RTVSPropertyOp61
 70
     1
102
RTVSPropertyOp62
 70
     1
  0
XRECORD
  5
A4E1
102
{ACAD_REACTORS
330
A4E0
102
}
330
A4E0
100
AcDbXrecord
280
     1
102
RTVSPost2010Prop28
280
     0
102
RTVSPost2010PropOp28
 70
     1
102
RTVSPost2010Prop29
280
     1
102
RTVSPost2010PropOp29
 70
     1
102
RTVSPost2010Prop30
280
     1
102
RTVSPost2010PropOp30
 70
     1
102
RTVSPost2010Prop31
280
     0
102
RTVSPost2010PropOp31
 70
     1
102
RTVSPost2010Prop32
280
     0
102
RTVSPost2010PropOp32
 70
     1
102
RTVSPost2010Prop33
280
     0
102
RTVSPost2010PropOp33
 70
     1
102
RTVSPost2010Prop34
280
     0
102
RTVSPost2010PropOp34
 70
     1
102
RTVSPost2010Prop35
280
     0
102
RTVSPost2010PropOp35
 70
     1
102
RTVSPost2010Prop36
280
     0
102
RTVSPost2010PropOp36
 70
     1
102
RTVSPost2010Prop37
 90
       50
102
RTVSPost2010PropOp37
 70
     1
102
RTVSPost2010Prop38
140
0.0
102
RTVSPost2010PropOp38
 70
     1
102
RTVSPost2010Prop39
140
1.0
102
RTVSPost2010PropOp39
 70
     1
102
RTVSPost2010Prop40
 90
        0
102
RTVSPost2010PropOp40
 70
     1
102
RTVSPost2010Prop41ColorIndex
 90
       18
102
RTVSPost2010Prop41ColorRGB
 90
        0
102
RTVSPost2010PropOp41
 70
     1
102
RTVSPost2010Prop42
 90
       50
102
RTVSPost2010PropOp42
 70
     1
102
RTVSPost2010Prop43
 90
        3
102
RTVSPost2010PropOp43
 70
     1
102
RTVSPost2010Prop44ColorIndex
 90
        5
102
RTVSPost2010Prop44ColorRGB
 90
      255
102
RTVSPost2010PropOp44
 70
     1
102
RTVSPost2010Prop45
280
     0
102
RTVSPost2010PropOp45
 70
     1
102
RTVSPost2010Prop46
 90
       50
102
RTVSPost2010PropOp46
 70
     1
102
RTVSPost2010Prop47
 90
       50
102
RTVSPost2010PropOp47
 70
     1
102
RTVSPost2010Prop48
 90
       50
102
RTVSPost2010PropOp48
 70
     1
102
RTVSPost2010Prop49
280
     0
102
RTVSPost2010PropOp49
 70
     1
102
RTVSPost2010Prop50
 90
       50
102
RTVSPost2010PropOp50
 70
     1
102
RTVSPost2010Prop51ColorIndex
 90
      256
102
RTVSPost2010Prop51ColorRGB
 90
-16777216
102
RTVSPost2010PropOp51
 70
     0
102
RTVSPost2010Prop52
140
1.0
102
RTVSPost2010PropOp52
 70
     0
102
RTVSPost2010Prop53
 90
        2
102
RTVSPost2010PropOp53
 70
     1
102
RTVSPost2010Prop54
  1
strokes_ogs.tif
102
RTVSPost2010PropOp54
 70
     1
102
RTVSPost2010Prop55
280
     0
102
RTVSPost2010PropOp55
 70
     1
102
RTVSPost2010Prop56
140
1.0
102
RTVSPost2010PropOp56
 70
     1
102
RTVSPost2010Prop57
140
1.0
102
RTVSPost2010PropOp57
 70
     1
102
RTVSPropertyOp0
 70
     1
102
RTVSPropertyOp1
 70
     1
102
RTVSPropertyOp2
 70
     1
102
RTVSPropertyOp3
 70
     1
102
RTVSPropertyOp4
 70
     1
102
RTVSPropertyOp5
 70
     1
102
RTVSPropertyOp6
 70
     1
102
RTVSPropertyOp7
 70
     1
102
RTVSPropertyOp8
 70
     1
102
RTVSPropertyOp9
 70
     1
102
RTVSPropertyOp10
 70
     1
102
RTVSPropertyOp11
 70
     1
102
RTVSPropertyOp12
 70
     1
102
RTVSPropertyOp13
 70
     1
102
RTVSPropertyOp14
 70
     1
102
RTVSPropertyOp15
 70
     1
102
RTVSPropertyOp16
 70
     1
102
RTVSPropertyOp17
 70
     1
102
RTVSPropertyOp18
 70
     1
102
RTVSPropertyOp19
 70
     1
102
RTVSPropertyOp20
 70
     1
102
RTVSPropertyOp21
 70
     1
102
RTVSPropertyOp22
 70
     1
102
RTVSPropertyOp23
 70
     1
102
RTVSPropertyOp24
 70
     1
102
RTVSPropertyOp25
 70
     1
102
RTVSPropertyOp26
 70
     1
102
RTVSPropertyOp27
 70
     1
102
RTVSPropertyOp28
 70
     1
102
RTVSPropertyOp29
 70
     1
102
RTVSPropertyOp30
 70
     1
102
RTVSPropertyOp31
 70
     1
102
RTVSPropertyOp32
 70
     1
102
RTVSPropertyOp33
 70
     1
102
RTVSPropertyOp34
 70
     1
102
RTVSPropertyOp35
 70
     1
102
RTVSPropertyOp36
 70
     1
102
RTVSPropertyOp37
 70
     1
102
RTVSPropertyOp38
 70
     1
102
RTVSPropertyOp39
 70
     1
102
RTVSPropertyOp40
 70
     1
102
RTVSPropertyOp41
 70
     1
102
RTVSPropertyOp42
 70
     1
102
RTVSPropertyOp43
 70
     1
102
RTVSPropertyOp44
 70
     1
102
RTVSPropertyOp45
 70
     1
102
RTVSPropertyOp46
 70
     1
102
RTVSPropertyOp47
 70
     1
102
RTVSPropertyOp48
 70
     1
102
RTVSPropertyOp49
 70
     1
102
RTVSPropertyOp50
 70
     1
102
RTVSPropertyOp51
 70
     0
102
RTVSPropertyOp52
 70
     0
102
RTVSPropertyOp53
 70
     1
102
RTVSPropertyOp54
 70
     1
102
RTVSPropertyOp55
 70
     1
102
RTVSPropertyOp56
 70
     1
102
RTVSPropertyOp57
 70
     1
102
RTVSPropertyOp58
 70
     1
102
RTVSPropertyOp59
 70
     1
102
RTVSPropertyOp60
 70
     1
102
RTVSPropertyOp61
 70
     1
102
RTVSPropertyOp62
 70
     1
  0
XRECORD
  5
A4E9
102
{ACAD_REACTORS
330
A4E8
102
}
330
A4E8
100
AcDbXrecord
280
     1
102
RTVSPost2010Prop28
280
     0
102
RTVSPost2010PropOp28
 70
     1
102
RTVSPost2010Prop29
280
     1
102
RTVSPost2010PropOp29
 70
     1
102
RTVSPost2010Prop30
280
     1
102
RTVSPost2010PropOp30
 70
     1
102
RTVSPost2010Prop31
280
     0
102
RTVSPost2010PropOp31
 70
     1
102
RTVSPost2010Prop32
280
     0
102
RTVSPost2010PropOp32
 70
     1
102
RTVSPost2010Prop33
280
     0
102
RTVSPost2010PropOp33
 70
     1
102
RTVSPost2010Prop34
280
     0
102
RTVSPost2010PropOp34
 70
     1
102
RTVSPost2010Prop35
280
     0
102
RTVSPost2010PropOp35
 70
     1
102
RTVSPost2010Prop36
280
     0
102
RTVSPost2010PropOp36
 70
     1
102
RTVSPost2010Prop37
 90
       50
102
RTVSPost2010PropOp37
 70
     1
102
RTVSPost2010Prop38
140
0.0
102
RTVSPost2010PropOp38
 70
     1
102
RTVSPost2010Prop39
140
1.0
102
RTVSPost2010PropOp39
 70
     1
102
RTVSPost2010Prop40
 90
        0
102
RTVSPost2010PropOp40
 70
     1
102
RTVSPost2010Prop41ColorIndex
 90
       18
102
RTVSPost2010Prop41ColorRGB
 90
        0
102
RTVSPost2010PropOp41
 70
     1
102
RTVSPost2010Prop42
 90
       50
102
RTVSPost2010PropOp42
 70
     1
102
RTVSPost2010Prop43
 90
        3
102
RTVSPost2010PropOp43
 70
     1
102
RTVSPost2010Prop44ColorIndex
 90
        5
102
RTVSPost2010Prop44ColorRGB
 90
      255
102
RTVSPost2010PropOp44
 70
     1
102
RTVSPost2010Prop45
280
     0
102
RTVSPost2010PropOp45
 70
     1
102
RTVSPost2010Prop46
 90
       50
102
RTVSPost2010PropOp46
 70
     1
102
RTVSPost2010Prop47
 90
       50
102
RTVSPost2010PropOp47
 70
     1
102
RTVSPost2010Prop48
 90
       50
102
RTVSPost2010PropOp48
 70
     1
102
RTVSPost2010Prop49
280
     0
102
RTVSPost2010PropOp49
 70
     1
102
RTVSPost2010Prop50
 90
       50
102
RTVSPost2010PropOp50
 70
     1
102
RTVSPost2010Prop51ColorIndex
 90
      256
102
RTVSPost2010Prop51ColorRGB
 90
-16777216
102
RTVSPost2010PropOp51
 70
     0
102
RTVSPost2010Prop52
140
1.0
102
RTVSPost2010PropOp52
 70
     0
102
RTVSPost2010Prop53
 90
        2
102
RTVSPost2010PropOp53
 70
     1
102
RTVSPost2010Prop54
  1
strokes_ogs.tif
102
RTVSPost2010PropOp54
 70
     1
102
RTVSPost2010Prop55
280
     0
102
RTVSPost2010PropOp55
 70
     1
102
RTVSPost2010Prop56
140
1.0
102
RTVSPost2010PropOp56
 70
     1
102
RTVSPost2010Prop57
140
1.0
102
RTVSPost2010PropOp57
 70
     1
102
RTVSPropertyOp0
 70
     1
102
RTVSPropertyOp1
 70
     1
102
RTVSPropertyOp2
 70
     1
102
RTVSPropertyOp3
 70
     1
102
RTVSPropertyOp4
 70
     1
102
RTVSPropertyOp5
 70
     1
102
RTVSPropertyOp6
 70
     1
102
RTVSPropertyOp7
 70
     1
102
RTVSPropertyOp8
 70
     1
102
RTVSPropertyOp9
 70
     1
102
RTVSPropertyOp10
 70
     1
102
RTVSPropertyOp11
 70
     1
102
RTVSPropertyOp12
 70
     1
102
RTVSPropertyOp13
 70
     1
102
RTVSPropertyOp14
 70
     1
102
RTVSPropertyOp15
 70
     1
102
RTVSPropertyOp16
 70
     1
102
RTVSPropertyOp17
 70
     1
102
RTVSPropertyOp18
 70
     1
102
RTVSPropertyOp19
 70
     1
102
RTVSPropertyOp20
 70
     1
102
RTVSPropertyOp21
 70
     1
102
RTVSPropertyOp22
 70
     1
102
RTVSPropertyOp23
 70
     1
102
RTVSPropertyOp24
 70
     1
102
RTVSPropertyOp25
 70
     1
102
RTVSPropertyOp26
 70
     1
102
RTVSPropertyOp27
 70
     1
102
RTVSPropertyOp28
 70
     1
102
RTVSPropertyOp29
 70
     1
102
RTVSPropertyOp30
 70
     1
102
RTVSPropertyOp31
 70
     1
102
RTVSPropertyOp32
 70
     1
102
RTVSPropertyOp33
 70
     1
102
RTVSPropertyOp34
 70
     1
102
RTVSPropertyOp35
 70
     1
102
RTVSPropertyOp36
 70
     1
102
RTVSPropertyOp37
 70
     1
102
RTVSPropertyOp38
 70
     1
102
RTVSPropertyOp39
 70
     1
102
RTVSPropertyOp40
 70
     1
102
RTVSPropertyOp41
 70
     1
102
RTVSPropertyOp42
 70
     1
102
RTVSPropertyOp43
 70
     1
102
RTVSPropertyOp44
 70
     1
102
RTVSPropertyOp45
 70
     1
102
RTVSPropertyOp46
 70
     1
102
RTVSPropertyOp47
 70
     1
102
RTVSPropertyOp48
 70
     1
102
RTVSPropertyOp49
 70
     1
102
RTVSPropertyOp50
 70
     1
102
RTVSPropertyOp51
 70
     0
102
RTVSPropertyOp52
 70
     0
102
RTVSPropertyOp53
 70
     1
102
RTVSPropertyOp54
 70
     1
102
RTVSPropertyOp55
 70
     1
102
RTVSPropertyOp56
 70
     1
102
RTVSPropertyOp57
 70
     1
102
RTVSPropertyOp58
 70
     1
102
RTVSPropertyOp59
 70
     1
102
RTVSPropertyOp60
 70
     1
102
RTVSPropertyOp61
 70
     1
102
RTVSPropertyOp62
 70
     1
  0
XRECORD
  5
A4FD
102
{ACAD_REACTORS
330
A4FC
102
}
330
A4FC
100
AcDbXrecord
280
     1
102
RTVSPost2010Prop28
280
     0
102
RTVSPost2010PropOp28
 70
     1
102
RTVSPost2010Prop29
280
     1
102
RTVSPost2010PropOp29
 70
     1
102
RTVSPost2010Prop30
280
     1
102
RTVSPost2010PropOp30
 70
     1
102
RTVSPost2010Prop31
280
     0
102
RTVSPost2010PropOp31
 70
     1
102
RTVSPost2010Prop32
280
     0
102
RTVSPost2010PropOp32
 70
     1
102
RTVSPost2010Prop33
280
     0
102
RTVSPost2010PropOp33
 70
     1
102
RTVSPost2010Prop34
280
     0
102
RTVSPost2010PropOp34
 70
     1
102
RTVSPost2010Prop35
280
     0
102
RTVSPost2010PropOp35
 70
     1
102
RTVSPost2010Prop36
280
     0
102
RTVSPost2010PropOp36
 70
     1
102
RTVSPost2010Prop37
 90
       50
102
RTVSPost2010PropOp37
 70
     1
102
RTVSPost2010Prop38
140
0.0
102
RTVSPost2010PropOp38
 70
     1
102
RTVSPost2010Prop39
140
1.0
102
RTVSPost2010PropOp39
 70
     1
102
RTVSPost2010Prop40
 90
        0
102
RTVSPost2010PropOp40
 70
     1
102
RTVSPost2010Prop41ColorIndex
 90
       18
102
RTVSPost2010Prop41ColorRGB
 90
        0
102
RTVSPost2010PropOp41
 70
     1
102
RTVSPost2010Prop42
 90
       50
102
RTVSPost2010PropOp42
 70
     1
102
RTVSPost2010Prop43
 90
        3
102
RTVSPost2010PropOp43
 70
     1
102
RTVSPost2010Prop44ColorIndex
 90
        5
102
RTVSPost2010Prop44ColorRGB
 90
      255
102
RTVSPost2010PropOp44
 70
     1
102
RTVSPost2010Prop45
280
     0
102
RTVSPost2010PropOp45
 70
     1
102
RTVSPost2010Prop46
 90
       50
102
RTVSPost2010PropOp46
 70
     1
102
RTVSPost2010Prop47
 90
       50
102
RTVSPost2010PropOp47
 70
     1
102
RTVSPost2010Prop48
 90
       50
102
RTVSPost2010PropOp48
 70
     1
102
RTVSPost2010Prop49
280
     0
102
RTVSPost2010PropOp49
 70
     1
102
RTVSPost2010Prop50
 90
       50
102
RTVSPost2010PropOp50
 70
     1
102
RTVSPost2010Prop51ColorIndex
 90
      256
102
RTVSPost2010Prop51ColorRGB
 90
-16777216
102
RTVSPost2010PropOp51
 70
     0
102
RTVSPost2010Prop52
140
1.0
102
RTVSPost2010PropOp52
 70
     0
102
RTVSPost2010Prop53
 90
        2
102
RTVSPost2010PropOp53
 70
     1
102
RTVSPost2010Prop54
  1
strokes_ogs.tif
102
RTVSPost2010PropOp54
 70
     1
102
RTVSPost2010Prop55
280
     0
102
RTVSPost2010PropOp55
 70
     1
102
RTVSPost2010Prop56
140
1.0
102
RTVSPost2010PropOp56
 70
     1
102
RTVSPost2010Prop57
140
1.0
102
RTVSPost2010PropOp57
 70
     1
102
RTVSPropertyOp0
 70
     0
102
RTVSPropertyOp1
 70
     0
102
RTVSPropertyOp2
 70
     0
102
RTVSPropertyOp3
 70
     0
102
RTVSPropertyOp4
 70
     0
102
RTVSPropertyOp5
 70
     0
102
RTVSPropertyOp6
 70
     0
102
RTVSPropertyOp7
 70
     0
102
RTVSPropertyOp8
 70
     0
102
RTVSPropertyOp9
 70
     0
102
RTVSPropertyOp10
 70
     0
102
RTVSPropertyOp11
 70
     0
102
RTVSPropertyOp12
 70
     0
102
RTVSPropertyOp13
 70
     0
102
RTVSPropertyOp14
 70
     2
102
RTVSPropertyOp15
 70
     0
102
RTVSPropertyOp16
 70
     0
102
RTVSPropertyOp17
 70
     0
102
RTVSPropertyOp18
 70
     0
102
RTVSPropertyOp19
 70
     0
102
RTVSPropertyOp20
 70
     0
102
RTVSPropertyOp21
 70
     0
102
RTVSPropertyOp22
 70
     0
102
RTVSPropertyOp23
 70
     0
102
RTVSPropertyOp24
 70
     0
102
RTVSPropertyOp25
 70
     0
102
RTVSPropertyOp26
 70
     0
102
RTVSPropertyOp27
 70
     0
102
RTVSPropertyOp28
 70
     1
102
RTVSPropertyOp29
 70
     1
102
RTVSPropertyOp30
 70
     1
102
RTVSPropertyOp31
 70
     1
102
RTVSPropertyOp32
 70
     1
102
RTVSPropertyOp33
 70
     1
102
RTVSPropertyOp34
 70
     1
102
RTVSPropertyOp35
 70
     1
102
RTVSPropertyOp36
 70
     1
102
RTVSPropertyOp37
 70
     1
102
RTVSPropertyOp38
 70
     1
102
RTVSPropertyOp39
 70
     1
102
RTVSPropertyOp40
 70
     1
102
RTVSPropertyOp41
 70
     1
102
RTVSPropertyOp42
 70
     1
102
RTVSPropertyOp43
 70
     1
102
RTVSPropertyOp44
 70
     1
102
RTVSPropertyOp45
 70
     1
102
RTVSPropertyOp46
 70
     1
102
RTVSPropertyOp47
 70
     1
102
RTVSPropertyOp48
 70
     1
102
RTVSPropertyOp49
 70
     1
102
RTVSPropertyOp50
 70
     1
102
RTVSPropertyOp51
 70
     0
102
RTVSPropertyOp52
 70
     0
102
RTVSPropertyOp53
 70
     1
102
RTVSPropertyOp54
 70
     1
102
RTVSPropertyOp55
 70
     1
102
RTVSPropertyOp56
 70
     1
102
RTVSPropertyOp57
 70
     1
102
RTVSPropertyOp58
 70
     1
102
RTVSPropertyOp59
 70
     1
102
RTVSPropertyOp60
 70
     1
102
RTVSPropertyOp61
 70
     1
102
RTVSPropertyOp62
 70
     1
  0
XRECORD
  5
A4F5
102
{ACAD_REACTORS
330
A4F4
102
}
330
A4F4
100
AcDbXrecord
280
     1
102
RTVSPost2010Prop28
280
     0
102
RTVSPost2010PropOp28
 70
     1
102
RTVSPost2010Prop29
280
     1
102
RTVSPost2010PropOp29
 70
     1
102
RTVSPost2010Prop30
280
     1
102
RTVSPost2010PropOp30
 70
     1
102
RTVSPost2010Prop31
280
     0
102
RTVSPost2010PropOp31
 70
     1
102
RTVSPost2010Prop32
280
     0
102
RTVSPost2010PropOp32
 70
     1
102
RTVSPost2010Prop33
280
     0
102
RTVSPost2010PropOp33
 70
     1
102
RTVSPost2010Prop34
280
     0
102
RTVSPost2010PropOp34
 70
     1
102
RTVSPost2010Prop35
280
     0
102
RTVSPost2010PropOp35
 70
     1
102
RTVSPost2010Prop36
280
     0
102
RTVSPost2010PropOp36
 70
     1
102
RTVSPost2010Prop37
 90
       50
102
RTVSPost2010PropOp37
 70
     1
102
RTVSPost2010Prop38
140
0.0
102
RTVSPost2010PropOp38
 70
     1
102
RTVSPost2010Prop39
140
1.0
102
RTVSPost2010PropOp39
 70
     1
102
RTVSPost2010Prop40
 90
        0
102
RTVSPost2010PropOp40
 70
     1
102
RTVSPost2010Prop41ColorIndex
 90
       18
102
RTVSPost2010Prop41ColorRGB
 90
        0
102
RTVSPost2010PropOp41
 70
     1
102
RTVSPost2010Prop42
 90
       50
102
RTVSPost2010PropOp42
 70
     1
102
RTVSPost2010Prop43
 90
        3
102
RTVSPost2010PropOp43
 70
     1
102
RTVSPost2010Prop44ColorIndex
 90
        5
102
RTVSPost2010Prop44ColorRGB
 90
      255
102
RTVSPost2010PropOp44
 70
     1
102
RTVSPost2010Prop45
280
     0
102
RTVSPost2010PropOp45
 70
     1
102
RTVSPost2010Prop46
 90
       50
102
RTVSPost2010PropOp46
 70
     1
102
RTVSPost2010Prop47
 90
       50
102
RTVSPost2010PropOp47
 70
     1
102
RTVSPost2010Prop48
 90
       50
102
RTVSPost2010PropOp48
 70
     1
102
RTVSPost2010Prop49
280
     0
102
RTVSPost2010PropOp49
 70
     1
102
RTVSPost2010Prop50
 90
       50
102
RTVSPost2010PropOp50
 70
     1
102
RTVSPost2010Prop51ColorIndex
 90
      256
102
RTVSPost2010Prop51ColorRGB
 90
-16777216
102
RTVSPost2010PropOp51
 70
     0
102
RTVSPost2010Prop52
140
1.0
102
RTVSPost2010PropOp52
 70
     0
102
RTVSPost2010Prop53
 90
        2
102
RTVSPost2010PropOp53
 70
     1
102
RTVSPost2010Prop54
  1
strokes_ogs.tif
102
RTVSPost2010PropOp54
 70
     1
102
RTVSPost2010Prop55
280
     0
102
RTVSPost2010PropOp55
 70
     1
102
RTVSPost2010Prop56
140
1.0
102
RTVSPost2010PropOp56
 70
     1
102
RTVSPost2010Prop57
140
1.0
102
RTVSPost2010PropOp57
 70
     1
102
RTVSPropertyOp0
 70
     1
102
RTVSPropertyOp1
 70
     1
102
RTVSPropertyOp2
 70
     1
102
RTVSPropertyOp3
 70
     1
102
RTVSPropertyOp4
 70
     1
102
RTVSPropertyOp5
 70
     1
102
RTVSPropertyOp6
 70
     1
102
RTVSPropertyOp7
 70
     1
102
RTVSPropertyOp8
 70
     1
102
RTVSPropertyOp9
 70
     1
102
RTVSPropertyOp10
 70
     1
102
RTVSPropertyOp11
 70
     1
102
RTVSPropertyOp12
 70
     1
102
RTVSPropertyOp13
 70
     1
102
RTVSPropertyOp14
 70
     1
102
RTVSPropertyOp15
 70
     1
102
RTVSPropertyOp16
 70
     1
102
RTVSPropertyOp17
 70
     1
102
RTVSPropertyOp18
 70
     1
102
RTVSPropertyOp19
 70
     1
102
RTVSPropertyOp20
 70
     1
102
RTVSPropertyOp21
 70
     1
102
RTVSPropertyOp22
 70
     1
102
RTVSPropertyOp23
 70
     1
102
RTVSPropertyOp24
 70
     1
102
RTVSPropertyOp25
 70
     1
102
RTVSPropertyOp26
 70
     1
102
RTVSPropertyOp27
 70
     1
102
RTVSPropertyOp28
 70
     1
102
RTVSPropertyOp29
 70
     1
102
RTVSPropertyOp30
 70
     1
102
RTVSPropertyOp31
 70
     1
102
RTVSPropertyOp32
 70
     1
102
RTVSPropertyOp33
 70
     1
102
RTVSPropertyOp34
 70
     1
102
RTVSPropertyOp35
 70
     1
102
RTVSPropertyOp36
 70
     1
102
RTVSPropertyOp37
 70
     1
102
RTVSPropertyOp38
 70
     1
102
RTVSPropertyOp39
 70
     1
102
RTVSPropertyOp40
 70
     1
102
RTVSPropertyOp41
 70
     1
102
RTVSPropertyOp42
 70
     1
102
RTVSPropertyOp43
 70
     1
102
RTVSPropertyOp44
 70
     1
102
RTVSPropertyOp45
 70
     1
102
RTVSPropertyOp46
 70
     1
102
RTVSPropertyOp47
 70
     1
102
RTVSPropertyOp48
 70
     1
102
RTVSPropertyOp49
 70
     1
102
RTVSPropertyOp50
 70
     1
102
RTVSPropertyOp51
 70
     0
102
RTVSPropertyOp52
 70
     0
102
RTVSPropertyOp53
 70
     1
102
RTVSPropertyOp54
 70
     1
102
RTVSPropertyOp55
 70
     1
102
RTVSPropertyOp56
 70
     1
102
RTVSPropertyOp57
 70
     1
102
RTVSPropertyOp58
 70
     1
102
RTVSPropertyOp59
 70
     1
102
RTVSPropertyOp60
 70
     1
102
RTVSPropertyOp61
 70
     1
102
RTVSPropertyOp62
 70
     1
  0
XRECORD
  5
A4FF
102
{ACAD_REACTORS
330
A4FE
102
}
330
A4FE
100
AcDbXrecord
280
     1
102
RTVSPost2010Prop28
280
     0
102
RTVSPost2010PropOp28
 70
     1
102
RTVSPost2010Prop29
280
     1
102
RTVSPost2010PropOp29
 70
     1
102
RTVSPost2010Prop30
280
     1
102
RTVSPost2010PropOp30
 70
     1
102
RTVSPost2010Prop31
280
     0
102
RTVSPost2010PropOp31
 70
     1
102
RTVSPost2010Prop32
280
     0
102
RTVSPost2010PropOp32
 70
     1
102
RTVSPost2010Prop33
280
     0
102
RTVSPost2010PropOp33
 70
     1
102
RTVSPost2010Prop34
280
     0
102
RTVSPost2010PropOp34
 70
     1
102
RTVSPost2010Prop35
280
     0
102
RTVSPost2010PropOp35
 70
     1
102
RTVSPost2010Prop36
280
     0
102
RTVSPost2010PropOp36
 70
     1
102
RTVSPost2010Prop37
 90
       50
102
RTVSPost2010PropOp37
 70
     1
102
RTVSPost2010Prop38
140
0.0
102
RTVSPost2010PropOp38
 70
     1
102
RTVSPost2010Prop39
140
1.0
102
RTVSPost2010PropOp39
 70
     1
102
RTVSPost2010Prop40
 90
        0
102
RTVSPost2010PropOp40
 70
     1
102
RTVSPost2010Prop41ColorIndex
 90
       18
102
RTVSPost2010Prop41ColorRGB
 90
        0
102
RTVSPost2010PropOp41
 70
     1
102
RTVSPost2010Prop42
 90
       50
102
RTVSPost2010PropOp42
 70
     1
102
RTVSPost2010Prop43
 90
        3
102
RTVSPost2010PropOp43
 70
     1
102
RTVSPost2010Prop44ColorIndex
 90
        5
102
RTVSPost2010Prop44ColorRGB
 90
      255
102
RTVSPost2010PropOp44
 70
     1
102
RTVSPost2010Prop45
280
     0
102
RTVSPost2010PropOp45
 70
     1
102
RTVSPost2010Prop46
 90
       50
102
RTVSPost2010PropOp46
 70
     1
102
RTVSPost2010Prop47
 90
       50
102
RTVSPost2010PropOp47
 70
     1
102
RTVSPost2010Prop48
 90
       50
102
RTVSPost2010PropOp48
 70
     1
102
RTVSPost2010Prop49
280
     0
102
RTVSPost2010PropOp49
 70
     1
102
RTVSPost2010Prop50
 90
       50
102
RTVSPost2010PropOp50
 70
     1
102
RTVSPost2010Prop51ColorIndex
 90
      256
102
RTVSPost2010Prop51ColorRGB
 90
-16777216
102
RTVSPost2010PropOp51
 70
     0
102
RTVSPost2010Prop52
140
1.0
102
RTVSPost2010PropOp52
 70
     0
102
RTVSPost2010Prop53
 90
        2
102
RTVSPost2010PropOp53
 70
     1
102
RTVSPost2010Prop54
  1
strokes_ogs.tif
102
RTVSPost2010PropOp54
 70
     1
102
RTVSPost2010Prop55
280
     0
102
RTVSPost2010PropOp55
 70
     1
102
RTVSPost2010Prop56
140
1.0
102
RTVSPost2010PropOp56
 70
     1
102
RTVSPost2010Prop57
140
1.0
102
RTVSPost2010PropOp57
 70
     1
102
RTVSPropertyOp0
 70
     0
102
RTVSPropertyOp1
 70
     0
102
RTVSPropertyOp2
 70
     0
102
RTVSPropertyOp3
 70
     0
102
RTVSPropertyOp4
 70
     0
102
RTVSPropertyOp5
 70
     0
102
RTVSPropertyOp6
 70
     0
102
RTVSPropertyOp7
 70
     0
102
RTVSPropertyOp8
 70
     0
102
RTVSPropertyOp9
 70
     0
102
RTVSPropertyOp10
 70
     0
102
RTVSPropertyOp11
 70
     0
102
RTVSPropertyOp12
 70
     0
102
RTVSPropertyOp13
 70
     0
102
RTVSPropertyOp14
 70
     2
102
RTVSPropertyOp15
 70
     0
102
RTVSPropertyOp16
 70
     0
102
RTVSPropertyOp17
 70
     0
102
RTVSPropertyOp18
 70
     0
102
RTVSPropertyOp19
 70
     0
102
RTVSPropertyOp20
 70
     0
102
RTVSPropertyOp21
 70
     0
102
RTVSPropertyOp22
 70
     0
102
RTVSPropertyOp23
 70
     0
102
RTVSPropertyOp24
 70
     0
102
RTVSPropertyOp25
 70
     0
102
RTVSPropertyOp26
 70
     0
102
RTVSPropertyOp27
 70
     0
102
RTVSPropertyOp28
 70
     1
102
RTVSPropertyOp29
 70
     1
102
RTVSPropertyOp30
 70
     1
102
RTVSPropertyOp31
 70
     1
102
RTVSPropertyOp32
 70
     1
102
RTVSPropertyOp33
 70
     1
102
RTVSPropertyOp34
 70
     1
102
RTVSPropertyOp35
 70
     1
102
RTVSPropertyOp36
 70
     1
102
RTVSPropertyOp37
 70
     1
102
RTVSPropertyOp38
 70
     1
102
RTVSPropertyOp39
 70
     1
102
RTVSPropertyOp40
 70
     1
102
RTVSPropertyOp41
 70
     1
102
RTVSPropertyOp42
 70
     1
102
RTVSPropertyOp43
 70
     1
102
RTVSPropertyOp44
 70
     1
102
RTVSPropertyOp45
 70
     1
102
RTVSPropertyOp46
 70
     1
102
RTVSPropertyOp47
 70
     1
102
RTVSPropertyOp48
 70
     1
102
RTVSPropertyOp49
 70
     1
102
RTVSPropertyOp50
 70
     1
102
RTVSPropertyOp51
 70
     0
102
RTVSPropertyOp52
 70
     0
102
RTVSPropertyOp53
 70
     1
102
RTVSPropertyOp54
 70
     1
102
RTVSPropertyOp55
 70
     1
102
RTVSPropertyOp56
 70
     1
102
RTVSPropertyOp57
 70
     1
102
RTVSPropertyOp58
 70
     1
102
RTVSPropertyOp59
 70
     1
102
RTVSPropertyOp60
 70
     1
102
RTVSPropertyOp61
 70
     1
102
RTVSPropertyOp62
 70
     1
  0
XRECORD
  5
A4ED
102
{ACAD_REACTORS
330
A4EC
102
}
330
A4EC
100
AcDbXrecord
280
     1
102
RTVSPost2010Prop28
280
     0
102
RTVSPost2010PropOp28
 70
     1
102
RTVSPost2010Prop29
280
     1
102
RTVSPost2010PropOp29
 70
     1
102
RTVSPost2010Prop30
280
     1
102
RTVSPost2010PropOp30
 70
     1
102
RTVSPost2010Prop31
280
     0
102
RTVSPost2010PropOp31
 70
     1
102
RTVSPost2010Prop32
280
     0
102
RTVSPost2010PropOp32
 70
     1
102
RTVSPost2010Prop33
280
     0
102
RTVSPost2010PropOp33
 70
     1
102
RTVSPost2010Prop34
280
     0
102
RTVSPost2010PropOp34
 70
     1
102
RTVSPost2010Prop35
280
     0
102
RTVSPost2010PropOp35
 70
     1
102
RTVSPost2010Prop36
280
     0
102
RTVSPost2010PropOp36
 70
     1
102
RTVSPost2010Prop37
 90
       50
102
RTVSPost2010PropOp37
 70
     1
102
RTVSPost2010Prop38
140
0.0
102
RTVSPost2010PropOp38
 70
     1
102
RTVSPost2010Prop39
140
1.0
102
RTVSPost2010PropOp39
 70
     1
102
RTVSPost2010Prop40
 90
        0
102
RTVSPost2010PropOp40
 70
     1
102
RTVSPost2010Prop41ColorIndex
 90
       18
102
RTVSPost2010Prop41ColorRGB
 90
        0
102
RTVSPost2010PropOp41
 70
     1
102
RTVSPost2010Prop42
 90
       50
102
RTVSPost2010PropOp42
 70
     1
102
RTVSPost2010Prop43
 90
        3
102
RTVSPost2010PropOp43
 70
     1
102
RTVSPost2010Prop44ColorIndex
 90
        5
102
RTVSPost2010Prop44ColorRGB
 90
      255
102
RTVSPost2010PropOp44
 70
     1
102
RTVSPost2010Prop45
280
     0
102
RTVSPost2010PropOp45
 70
     1
102
RTVSPost2010Prop46
 90
       50
102
RTVSPost2010PropOp46
 70
     1
102
RTVSPost2010Prop47
 90
       50
102
RTVSPost2010PropOp47
 70
     1
102
RTVSPost2010Prop48
 90
       50
102
RTVSPost2010PropOp48
 70
     1
102
RTVSPost2010Prop49
280
     0
102
RTVSPost2010PropOp49
 70
     1
102
RTVSPost2010Prop50
 90
       50
102
RTVSPost2010PropOp50
 70
     1
102
RTVSPost2010Prop51ColorIndex
 90
      256
102
RTVSPost2010Prop51ColorRGB
 90
-16777216
102
RTVSPost2010PropOp51
 70
     0
102
RTVSPost2010Prop52
140
1.0
102
RTVSPost2010PropOp52
 70
     0
102
RTVSPost2010Prop53
 90
        2
102
RTVSPost2010PropOp53
 70
     1
102
RTVSPost2010Prop54
  1
strokes_ogs.tif
102
RTVSPost2010PropOp54
 70
     1
102
RTVSPost2010Prop55
280
     0
102
RTVSPost2010PropOp55
 70
     1
102
RTVSPost2010Prop56
140
1.0
102
RTVSPost2010PropOp56
 70
     1
102
RTVSPost2010Prop57
140
1.0
102
RTVSPost2010PropOp57
 70
     1
102
RTVSPropertyOp0
 70
     1
102
RTVSPropertyOp1
 70
     1
102
RTVSPropertyOp2
 70
     1
102
RTVSPropertyOp3
 70
     1
102
RTVSPropertyOp4
 70
     1
102
RTVSPropertyOp5
 70
     1
102
RTVSPropertyOp6
 70
     1
102
RTVSPropertyOp7
 70
     1
102
RTVSPropertyOp8
 70
     1
102
RTVSPropertyOp9
 70
     1
102
RTVSPropertyOp10
 70
     1
102
RTVSPropertyOp11
 70
     1
102
RTVSPropertyOp12
 70
     1
102
RTVSPropertyOp13
 70
     1
102
RTVSPropertyOp14
 70
     1
102
RTVSPropertyOp15
 70
     1
102
RTVSPropertyOp16
 70
     1
102
RTVSPropertyOp17
 70
     1
102
RTVSPropertyOp18
 70
     1
102
RTVSPropertyOp19
 70
     1
102
RTVSPropertyOp20
 70
     1
102
RTVSPropertyOp21
 70
     1
102
RTVSPropertyOp22
 70
     1
102
RTVSPropertyOp23
 70
     1
102
RTVSPropertyOp24
 70
     1
102
RTVSPropertyOp25
 70
     1
102
RTVSPropertyOp26
 70
     1
102
RTVSPropertyOp27
 70
     1
102
RTVSPropertyOp28
 70
     1
102
RTVSPropertyOp29
 70
     1
102
RTVSPropertyOp30
 70
     1
102
RTVSPropertyOp31
 70
     1
102
RTVSPropertyOp32
 70
     1
102
RTVSPropertyOp33
 70
     1
102
RTVSPropertyOp34
 70
     1
102
RTVSPropertyOp35
 70
     1
102
RTVSPropertyOp36
 70
     1
102
RTVSPropertyOp37
 70
     1
102
RTVSPropertyOp38
 70
     1
102
RTVSPropertyOp39
 70
     1
102
RTVSPropertyOp40
 70
     1
102
RTVSPropertyOp41
 70
     1
102
RTVSPropertyOp42
 70
     1
102
RTVSPropertyOp43
 70
     1
102
RTVSPropertyOp44
 70
     1
102
RTVSPropertyOp45
 70
     1
102
RTVSPropertyOp46
 70
     1
102
RTVSPropertyOp47
 70
     1
102
RTVSPropertyOp48
 70
     1
102
RTVSPropertyOp49
 70
     1
102
RTVSPropertyOp50
 70
     1
102
RTVSPropertyOp51
 70
     0
102
RTVSPropertyOp52
 70
     0
102
RTVSPropertyOp53
 70
     1
102
RTVSPropertyOp54
 70
     1
102
RTVSPropertyOp55
 70
     1
102
RTVSPropertyOp56
 70
     1
102
RTVSPropertyOp57
 70
     1
102
RTVSPropertyOp58
 70
     1
102
RTVSPropertyOp59
 70
     1
102
RTVSPropertyOp60
 70
     1
102
RTVSPropertyOp61
 70
     1
102
RTVSPropertyOp62
 70
     1
  0
XRECORD
  5
A50B
102
{ACAD_REACTORS
330
A50A
102
}
330
A50A
100
AcDbXrecord
280
     1
102
RTVSPost2010Prop28
280
     0
102
RTVSPost2010PropOp28
 70
     1
102
RTVSPost2010Prop29
280
     1
102
RTVSPost2010PropOp29
 70
     1
102
RTVSPost2010Prop30
280
     1
102
RTVSPost2010PropOp30
 70
     1
102
RTVSPost2010Prop31
280
     0
102
RTVSPost2010PropOp31
 70
     1
102
RTVSPost2010Prop32
280
     0
102
RTVSPost2010PropOp32
 70
     1
102
RTVSPost2010Prop33
280
     0
102
RTVSPost2010PropOp33
 70
     1
102
RTVSPost2010Prop34
280
     0
102
RTVSPost2010PropOp34
 70
     1
102
RTVSPost2010Prop35
280
     0
102
RTVSPost2010PropOp35
 70
     1
102
RTVSPost2010Prop36
280
     0
102
RTVSPost2010PropOp36
 70
     1
102
RTVSPost2010Prop37
 90
       50
102
RTVSPost2010PropOp37
 70
     1
102
RTVSPost2010Prop38
140
0.0
102
RTVSPost2010PropOp38
 70
     1
102
RTVSPost2010Prop39
140
1.0
102
RTVSPost2010PropOp39
 70
     1
102
RTVSPost2010Prop40
 90
        0
102
RTVSPost2010PropOp40
 70
     1
102
RTVSPost2010Prop41ColorIndex
 90
       18
102
RTVSPost2010Prop41ColorRGB
 90
        0
102
RTVSPost2010PropOp41
 70
     1
102
RTVSPost2010Prop42
 90
       50
102
RTVSPost2010PropOp42
 70
     1
102
RTVSPost2010Prop43
 90
        3
102
RTVSPost2010PropOp43
 70
     1
102
RTVSPost2010Prop44ColorIndex
 90
        5
102
RTVSPost2010Prop44ColorRGB
 90
      255
102
RTVSPost2010PropOp44
 70
     1
102
RTVSPost2010Prop45
280
     0
102
RTVSPost2010PropOp45
 70
     1
102
RTVSPost2010Prop46
 90
       50
102
RTVSPost2010PropOp46
 70
     1
102
RTVSPost2010Prop47
 90
       50
102
RTVSPost2010PropOp47
 70
     1
102
RTVSPost2010Prop48
 90
       50
102
RTVSPost2010PropOp48
 70
     1
102
RTVSPost2010Prop49
280
     0
102
RTVSPost2010PropOp49
 70
     1
102
RTVSPost2010Prop50
 90
       50
102
RTVSPost2010PropOp50
 70
     1
102
RTVSPost2010Prop51ColorIndex
 90
      256
102
RTVSPost2010Prop51ColorRGB
 90
-16777216
102
RTVSPost2010PropOp51
 70
     0
102
RTVSPost2010Prop52
140
1.0
102
RTVSPost2010PropOp52
 70
     0
102
RTVSPost2010Prop53
 90
        2
102
RTVSPost2010PropOp53
 70
     1
102
RTVSPost2010Prop54
  1
strokes_ogs.tif
102
RTVSPost2010PropOp54
 70
     1
102
RTVSPost2010Prop55
280
     0
102
RTVSPost2010PropOp55
 70
     1
102
RTVSPost2010Prop56
140
1.0
102
RTVSPost2010PropOp56
 70
     1
102
RTVSPost2010Prop57
140
1.0
102
RTVSPost2010PropOp57
 70
     1
102
RTVSPropertyOp0
 70
     1
102
RTVSPropertyOp1
 70
     1
102
RTVSPropertyOp2
 70
     1
102
RTVSPropertyOp3
 70
     1
102
RTVSPropertyOp4
 70
     1
102
RTVSPropertyOp5
 70
     1
102
RTVSPropertyOp6
 70
     1
102
RTVSPropertyOp7
 70
     1
102
RTVSPropertyOp8
 70
     1
102
RTVSPropertyOp9
 70
     1
102
RTVSPropertyOp10
 70
     1
102
RTVSPropertyOp11
 70
     1
102
RTVSPropertyOp12
 70
     1
102
RTVSPropertyOp13
 70
     1
102
RTVSPropertyOp14
 70
     1
102
RTVSPropertyOp15
 70
     1
102
RTVSPropertyOp16
 70
     1
102
RTVSPropertyOp17
 70
     1
102
RTVSPropertyOp18
 70
     1
102
RTVSPropertyOp19
 70
     1
102
RTVSPropertyOp20
 70
     1
102
RTVSPropertyOp21
 70
     1
102
RTVSPropertyOp22
 70
     1
102
RTVSPropertyOp23
 70
     1
102
RTVSPropertyOp24
 70
     1
102
RTVSPropertyOp25
 70
     1
102
RTVSPropertyOp26
 70
     1
102
RTVSPropertyOp27
 70
     1
102
RTVSPropertyOp28
 70
     1
102
RTVSPropertyOp29
 70
     1
102
RTVSPropertyOp30
 70
     1
102
RTVSPropertyOp31
 70
     1
102
RTVSPropertyOp32
 70
     1
102
RTVSPropertyOp33
 70
     1
102
RTVSPropertyOp34
 70
     1
102
RTVSPropertyOp35
 70
     1
102
RTVSPropertyOp36
 70
     1
102
RTVSPropertyOp37
 70
     1
102
RTVSPropertyOp38
 70
     1
102
RTVSPropertyOp39
 70
     1
102
RTVSPropertyOp40
 70
     1
102
RTVSPropertyOp41
 70
     1
102
RTVSPropertyOp42
 70
     1
102
RTVSPropertyOp43
 70
     1
102
RTVSPropertyOp44
 70
     1
102
RTVSPropertyOp45
 70
     1
102
RTVSPropertyOp46
 70
     1
102
RTVSPropertyOp47
 70
     1
102
RTVSPropertyOp48
 70
     1
102
RTVSPropertyOp49
 70
     1
102
RTVSPropertyOp50
 70
     1
102
RTVSPropertyOp51
 70
     0
102
RTVSPropertyOp52
 70
     0
102
RTVSPropertyOp53
 70
     1
102
RTVSPropertyOp54
 70
     1
102
RTVSPropertyOp55
 70
     1
102
RTVSPropertyOp56
 70
     1
102
RTVSPropertyOp57
 70
     1
102
RTVSPropertyOp58
 70
     1
102
RTVSPropertyOp59
 70
     1
102
RTVSPropertyOp60
 70
     1
102
RTVSPropertyOp61
 70
     1
102
RTVSPropertyOp62
 70
     1
  0
XRECORD
  5
A509
102
{ACAD_REACTORS
330
A508
102
}
330
A508
100
AcDbXrecord
280
     1
102
RTVSPost2010Prop28
280
     0
102
RTVSPost2010PropOp28
 70
     1
102
RTVSPost2010Prop29
280
     1
102
RTVSPost2010PropOp29
 70
     1
102
RTVSPost2010Prop30
280
     1
102
RTVSPost2010PropOp30
 70
     1
102
RTVSPost2010Prop31
280
     0
102
RTVSPost2010PropOp31
 70
     1
102
RTVSPost2010Prop32
280
     0
102
RTVSPost2010PropOp32
 70
     1
102
RTVSPost2010Prop33
280
     0
102
RTVSPost2010PropOp33
 70
     1
102
RTVSPost2010Prop34
280
     0
102
RTVSPost2010PropOp34
 70
     1
102
RTVSPost2010Prop35
280
     0
102
RTVSPost2010PropOp35
 70
     1
102
RTVSPost2010Prop36
280
     0
102
RTVSPost2010PropOp36
 70
     1
102
RTVSPost2010Prop37
 90
       50
102
RTVSPost2010PropOp37
 70
     1
102
RTVSPost2010Prop38
140
0.0
102
RTVSPost2010PropOp38
 70
     1
102
RTVSPost2010Prop39
140
1.0
102
RTVSPost2010PropOp39
 70
     1
102
RTVSPost2010Prop40
 90
        0
102
RTVSPost2010PropOp40
 70
     1
102
RTVSPost2010Prop41ColorIndex
 90
       18
102
RTVSPost2010Prop41ColorRGB
 90
        0
102
RTVSPost2010PropOp41
 70
     1
102
RTVSPost2010Prop42
 90
       50
102
RTVSPost2010PropOp42
 70
     1
102
RTVSPost2010Prop43
 90
        3
102
RTVSPost2010PropOp43
 70
     1
102
RTVSPost2010Prop44ColorIndex
 90
        5
102
RTVSPost2010Prop44ColorRGB
 90
      255
102
RTVSPost2010PropOp44
 70
     1
102
RTVSPost2010Prop45
280
     0
102
RTVSPost2010PropOp45
 70
     1
102
RTVSPost2010Prop46
 90
       50
102
RTVSPost2010PropOp46
 70
     1
102
RTVSPost2010Prop47
 90
       50
102
RTVSPost2010PropOp47
 70
     1
102
RTVSPost2010Prop48
 90
       50
102
RTVSPost2010PropOp48
 70
     1
102
RTVSPost2010Prop49
280
     0
102
RTVSPost2010PropOp49
 70
     1
102
RTVSPost2010Prop50
 90
       50
102
RTVSPost2010PropOp50
 70
     1
102
RTVSPost2010Prop51ColorIndex
 90
      256
102
RTVSPost2010Prop51ColorRGB
 90
-16777216
102
RTVSPost2010PropOp51
 70
     0
102
RTVSPost2010Prop52
140
1.0
102
RTVSPost2010PropOp52
 70
     0
102
RTVSPost2010Prop53
 90
        2
102
RTVSPost2010PropOp53
 70
     1
102
RTVSPost2010Prop54
  1
strokes_ogs.tif
102
RTVSPost2010PropOp54
 70
     1
102
RTVSPost2010Prop55
280
     0
102
RTVSPost2010PropOp55
 70
     1
102
RTVSPost2010Prop56
140
1.0
102
RTVSPost2010PropOp56
 70
     1
102
RTVSPost2010Prop57
140
1.0
102
RTVSPost2010PropOp57
 70
     1
102
RTVSPropertyOp0
 70
     1
102
RTVSPropertyOp1
 70
     1
102
RTVSPropertyOp2
 70
     1
102
RTVSPropertyOp3
 70
     1
102
RTVSPropertyOp4
 70
     1
102
RTVSPropertyOp5
 70
     1
102
RTVSPropertyOp6
 70
     1
102
RTVSPropertyOp7
 70
     1
102
RTVSPropertyOp8
 70
     1
102
RTVSPropertyOp9
 70
     1
102
RTVSPropertyOp10
 70
     1
102
RTVSPropertyOp11
 70
     1
102
RTVSPropertyOp12
 70
     1
102
RTVSPropertyOp13
 70
     1
102
RTVSPropertyOp14
 70
     1
102
RTVSPropertyOp15
 70
     1
102
RTVSPropertyOp16
 70
     1
102
RTVSPropertyOp17
 70
     1
102
RTVSPropertyOp18
 70
     1
102
RTVSPropertyOp19
 70
     1
102
RTVSPropertyOp20
 70
     1
102
RTVSPropertyOp21
 70
     1
102
RTVSPropertyOp22
 70
     1
102
RTVSPropertyOp23
 70
     1
102
RTVSPropertyOp24
 70
     1
102
RTVSPropertyOp25
 70
     1
102
RTVSPropertyOp26
 70
     1
102
RTVSPropertyOp27
 70
     1
102
RTVSPropertyOp28
 70
     1
102
RTVSPropertyOp29
 70
     1
102
RTVSPropertyOp30
 70
     1
102
RTVSPropertyOp31
 70
     1
102
RTVSPropertyOp32
 70
     1
102
RTVSPropertyOp33
 70
     1
102
RTVSPropertyOp34
 70
     1
102
RTVSPropertyOp35
 70
     1
102
RTVSPropertyOp36
 70
     1
102
RTVSPropertyOp37
 70
     1
102
RTVSPropertyOp38
 70
     1
102
RTVSPropertyOp39
 70
     1
102
RTVSPropertyOp40
 70
     1
102
RTVSPropertyOp41
 70
     1
102
RTVSPropertyOp42
 70
     1
102
RTVSPropertyOp43
 70
     1
102
RTVSPropertyOp44
 70
     1
102
RTVSPropertyOp45
 70
     1
102
RTVSPropertyOp46
 70
     1
102
RTVSPropertyOp47
 70
     1
102
RTVSPropertyOp48
 70
     1
102
RTVSPropertyOp49
 70
     1
102
RTVSPropertyOp50
 70
     1
102
RTVSPropertyOp51
 70
     0
102
RTVSPropertyOp52
 70
     0
102
RTVSPropertyOp53
 70
     1
102
RTVSPropertyOp54
 70
     1
102
RTVSPropertyOp55
 70
     1
102
RTVSPropertyOp56
 70
     1
102
RTVSPropertyOp57
 70
     1
102
RTVSPropertyOp58
 70
     1
102
RTVSPropertyOp59
 70
     1
102
RTVSPropertyOp60
 70
     1
102
RTVSPropertyOp61
 70
     1
102
RTVSPropertyOp62
 70
     1
  0
XRECORD
  5
A503
102
{ACAD_REACTORS
330
A502
102
}
330
A502
100
AcDbXrecord
280
     1
102
RTVSPost2010Prop28
280
     0
102
RTVSPost2010PropOp28
 70
     1
102
RTVSPost2010Prop29
280
     1
102
RTVSPost2010PropOp29
 70
     1
102
RTVSPost2010Prop30
280
     1
102
RTVSPost2010PropOp30
 70
     1
102
RTVSPost2010Prop31
280
     0
102
RTVSPost2010PropOp31
 70
     1
102
RTVSPost2010Prop32
280
     0
102
RTVSPost2010PropOp32
 70
     1
102
RTVSPost2010Prop33
280
     0
102
RTVSPost2010PropOp33
 70
     1
102
RTVSPost2010Prop34
280
     0
102
RTVSPost2010PropOp34
 70
     1
102
RTVSPost2010Prop35
280
     0
102
RTVSPost2010PropOp35
 70
     1
102
RTVSPost2010Prop36
280
     0
102
RTVSPost2010PropOp36
 70
     1
102
RTVSPost2010Prop37
 90
       50
102
RTVSPost2010PropOp37
 70
     1
102
RTVSPost2010Prop38
140
0.0
102
RTVSPost2010PropOp38
 70
     1
102
RTVSPost2010Prop39
140
1.0
102
RTVSPost2010PropOp39
 70
     1
102
RTVSPost2010Prop40
 90
        0
102
RTVSPost2010PropOp40
 70
     1
102
RTVSPost2010Prop41ColorIndex
 90
       18
102
RTVSPost2010Prop41ColorRGB
 90
        0
102
RTVSPost2010PropOp41
 70
     1
102
RTVSPost2010Prop42
 90
       50
102
RTVSPost2010PropOp42
 70
     1
102
RTVSPost2010Prop43
 90
        3
102
RTVSPost2010PropOp43
 70
     1
102
RTVSPost2010Prop44ColorIndex
 90
        5
102
RTVSPost2010Prop44ColorRGB
 90
      255
102
RTVSPost2010PropOp44
 70
     1
102
RTVSPost2010Prop45
280
     0
102
RTVSPost2010PropOp45
 70
     1
102
RTVSPost2010Prop46
 90
       50
102
RTVSPost2010PropOp46
 70
     1
102
RTVSPost2010Prop47
 90
       50
102
RTVSPost2010PropOp47
 70
     1
102
RTVSPost2010Prop48
 90
       50
102
RTVSPost2010PropOp48
 70
     1
102
RTVSPost2010Prop49
280
     0
102
RTVSPost2010PropOp49
 70
     1
102
RTVSPost2010Prop50
 90
       50
102
RTVSPost2010PropOp50
 70
     1
102
RTVSPost2010Prop51ColorIndex
 90
      256
102
RTVSPost2010Prop51ColorRGB
 90
-16777216
102
RTVSPost2010PropOp51
 70
     0
102
RTVSPost2010Prop52
140
1.0
102
RTVSPost2010PropOp52
 70
     0
102
RTVSPost2010Prop53
 90
        2
102
RTVSPost2010PropOp53
 70
     1
102
RTVSPost2010Prop54
  1
strokes_ogs.tif
102
RTVSPost2010PropOp54
 70
     1
102
RTVSPost2010Prop55
280
     0
102
RTVSPost2010PropOp55
 70
     1
102
RTVSPost2010Prop56
140
1.0
102
RTVSPost2010PropOp56
 70
     1
102
RTVSPost2010Prop57
140
1.0
102
RTVSPost2010PropOp57
 70
     1
102
RTVSPropertyOp0
 70
     1
102
RTVSPropertyOp1
 70
     1
102
RTVSPropertyOp2
 70
     1
102
RTVSPropertyOp3
 70
     1
102
RTVSPropertyOp4
 70
     1
102
RTVSPropertyOp5
 70
     1
102
RTVSPropertyOp6
 70
     1
102
RTVSPropertyOp7
 70
     1
102
RTVSPropertyOp8
 70
     1
102
RTVSPropertyOp9
 70
     1
102
RTVSPropertyOp10
 70
     1
102
RTVSPropertyOp11
 70
     1
102
RTVSPropertyOp12
 70
     1
102
RTVSPropertyOp13
 70
     1
102
RTVSPropertyOp14
 70
     1
102
RTVSPropertyOp15
 70
     1
102
RTVSPropertyOp16
 70
     1
102
RTVSPropertyOp17
 70
     1
102
RTVSPropertyOp18
 70
     1
102
RTVSPropertyOp19
 70
     1
102
RTVSPropertyOp20
 70
     1
102
RTVSPropertyOp21
 70
     1
102
RTVSPropertyOp22
 70
     1
102
RTVSPropertyOp23
 70
     1
102
RTVSPropertyOp24
 70
     1
102
RTVSPropertyOp25
 70
     1
102
RTVSPropertyOp26
 70
     1
102
RTVSPropertyOp27
 70
     1
102
RTVSPropertyOp28
 70
     1
102
RTVSPropertyOp29
 70
     1
102
RTVSPropertyOp30
 70
     1
102
RTVSPropertyOp31
 70
     1
102
RTVSPropertyOp32
 70
     1
102
RTVSPropertyOp33
 70
     1
102
RTVSPropertyOp34
 70
     1
102
RTVSPropertyOp35
 70
     1
102
RTVSPropertyOp36
 70
     1
102
RTVSPropertyOp37
 70
     1
102
RTVSPropertyOp38
 70
     1
102
RTVSPropertyOp39
 70
     1
102
RTVSPropertyOp40
 70
     1
102
RTVSPropertyOp41
 70
     1
102
RTVSPropertyOp42
 70
     1
102
RTVSPropertyOp43
 70
     1
102
RTVSPropertyOp44
 70
     1
102
RTVSPropertyOp45
 70
     1
102
RTVSPropertyOp46
 70
     1
102
RTVSPropertyOp47
 70
     1
102
RTVSPropertyOp48
 70
     1
102
RTVSPropertyOp49
 70
     1
102
RTVSPropertyOp50
 70
     1
102
RTVSPropertyOp51
 70
     0
102
RTVSPropertyOp52
 70
     0
102
RTVSPropertyOp53
 70
     1
102
RTVSPropertyOp54
 70
     1
102
RTVSPropertyOp55
 70
     1
102
RTVSPropertyOp56
 70
     1
102
RTVSPropertyOp57
 70
     1
102
RTVSPropertyOp58
 70
     1
102
RTVSPropertyOp59
 70
     1
102
RTVSPropertyOp60
 70
     1
102
RTVSPropertyOp61
 70
     1
102
RTVSPropertyOp62
 70
     1
  0
XRECORD
  5
A505
102
{ACAD_REACTORS
330
A504
102
}
330
A504
100
AcDbXrecord
280
     1
102
RTVSPost2010Prop28
280
     0
102
RTVSPost2010PropOp28
 70
     1
102
RTVSPost2010Prop29
280
     1
102
RTVSPost2010PropOp29
 70
     1
102
RTVSPost2010Prop30
280
     1
102
RTVSPost2010PropOp30
 70
     1
102
RTVSPost2010Prop31
280
     0
102
RTVSPost2010PropOp31
 70
     1
102
RTVSPost2010Prop32
280
     0
102
RTVSPost2010PropOp32
 70
     1
102
RTVSPost2010Prop33
280
     0
102
RTVSPost2010PropOp33
 70
     1
102
RTVSPost2010Prop34
280
     0
102
RTVSPost2010PropOp34
 70
     1
102
RTVSPost2010Prop35
280
     0
102
RTVSPost2010PropOp35
 70
     1
102
RTVSPost2010Prop36
280
     0
102
RTVSPost2010PropOp36
 70
     1
102
RTVSPost2010Prop37
 90
       50
102
RTVSPost2010PropOp37
 70
     1
102
RTVSPost2010Prop38
140
0.0
102
RTVSPost2010PropOp38
 70
     1
102
RTVSPost2010Prop39
140
1.0
102
RTVSPost2010PropOp39
 70
     1
102
RTVSPost2010Prop40
 90
        0
102
RTVSPost2010PropOp40
 70
     1
102
RTVSPost2010Prop41ColorIndex
 90
       18
102
RTVSPost2010Prop41ColorRGB
 90
        0
102
RTVSPost2010PropOp41
 70
     1
102
RTVSPost2010Prop42
 90
       50
102
RTVSPost2010PropOp42
 70
     1
102
RTVSPost2010Prop43
 90
        3
102
RTVSPost2010PropOp43
 70
     1
102
RTVSPost2010Prop44ColorIndex
 90
        5
102
RTVSPost2010Prop44ColorRGB
 90
      255
102
RTVSPost2010PropOp44
 70
     1
102
RTVSPost2010Prop45
280
     0
102
RTVSPost2010PropOp45
 70
     1
102
RTVSPost2010Prop46
 90
       50
102
RTVSPost2010PropOp46
 70
     1
102
RTVSPost2010Prop47
 90
       50
102
RTVSPost2010PropOp47
 70
     1
102
RTVSPost2010Prop48
 90
       50
102
RTVSPost2010PropOp48
 70
     1
102
RTVSPost2010Prop49
280
     0
102
RTVSPost2010PropOp49
 70
     1
102
RTVSPost2010Prop50
 90
       50
102
RTVSPost2010PropOp50
 70
     1
102
RTVSPost2010Prop51ColorIndex
 90
      256
102
RTVSPost2010Prop51ColorRGB
 90
-16777216
102
RTVSPost2010PropOp51
 70
     0
102
RTVSPost2010Prop52
140
1.0
102
RTVSPost2010PropOp52
 70
     0
102
RTVSPost2010Prop53
 90
        2
102
RTVSPost2010PropOp53
 70
     1
102
RTVSPost2010Prop54
  1
strokes_ogs.tif
102
RTVSPost2010PropOp54
 70
     1
102
RTVSPost2010Prop55
280
     0
102
RTVSPost2010PropOp55
 70
     1
102
RTVSPost2010Prop56
140
1.0
102
RTVSPost2010PropOp56
 70
     1
102
RTVSPost2010Prop57
140
1.0
102
RTVSPost2010PropOp57
 70
     1
102
RTVSPropertyOp0
 70
     1
102
RTVSPropertyOp1
 70
     1
102
RTVSPropertyOp2
 70
     1
102
RTVSPropertyOp3
 70
     1
102
RTVSPropertyOp4
 70
     1
102
RTVSPropertyOp5
 70
     1
102
RTVSPropertyOp6
 70
     1
102
RTVSPropertyOp7
 70
     1
102
RTVSPropertyOp8
 70
     1
102
RTVSPropertyOp9
 70
     1
102
RTVSPropertyOp10
 70
     1
102
RTVSPropertyOp11
 70
     1
102
RTVSPropertyOp12
 70
     1
102
RTVSPropertyOp13
 70
     1
102
RTVSPropertyOp14
 70
     1
102
RTVSPropertyOp15
 70
     1
102
RTVSPropertyOp16
 70
     1
102
RTVSPropertyOp17
 70
     1
102
RTVSPropertyOp18
 70
     1
102
RTVSPropertyOp19
 70
     1
102
RTVSPropertyOp20
 70
     1
102
RTVSPropertyOp21
 70
     1
102
RTVSPropertyOp22
 70
     1
102
RTVSPropertyOp23
 70
     1
102
RTVSPropertyOp24
 70
     1
102
RTVSPropertyOp25
 70
     1
102
RTVSPropertyOp26
 70
     1
102
RTVSPropertyOp27
 70
     1
102
RTVSPropertyOp28
 70
     1
102
RTVSPropertyOp29
 70
     1
102
RTVSPropertyOp30
 70
     1
102
RTVSPropertyOp31
 70
     1
102
RTVSPropertyOp32
 70
     1
102
RTVSPropertyOp33
 70
     1
102
RTVSPropertyOp34
 70
     1
102
RTVSPropertyOp35
 70
     1
102
RTVSPropertyOp36
 70
     1
102
RTVSPropertyOp37
 70
     1
102
RTVSPropertyOp38
 70
     1
102
RTVSPropertyOp39
 70
     1
102
RTVSPropertyOp40
 70
     1
102
RTVSPropertyOp41
 70
     1
102
RTVSPropertyOp42
 70
     1
102
RTVSPropertyOp43
 70
     1
102
RTVSPropertyOp44
 70
     1
102
RTVSPropertyOp45
 70
     1
102
RTVSPropertyOp46
 70
     1
102
RTVSPropertyOp47
 70
     1
102
RTVSPropertyOp48
 70
     1
102
RTVSPropertyOp49
 70
     1
102
RTVSPropertyOp50
 70
     1
102
RTVSPropertyOp51
 70
     0
102
RTVSPropertyOp52
 70
     0
102
RTVSPropertyOp53
 70
     1
102
RTVSPropertyOp54
 70
     1
102
RTVSPropertyOp55
 70
     1
102
RTVSPropertyOp56
 70
     1
102
RTVSPropertyOp57
 70
     1
102
RTVSPropertyOp58
 70
     1
102
RTVSPropertyOp59
 70
     1
102
RTVSPropertyOp60
 70
     1
102
RTVSPropertyOp61
 70
     1
102
RTVSPropertyOp62
 70
     1
  0
XRECORD
  5
A4F3
102
{ACAD_REACTORS
330
A4F2
102
}
330
A4F2
100
AcDbXrecord
280
     1
102
RTVSPost2010Prop28
280
     0
102
RTVSPost2010PropOp28
 70
     1
102
RTVSPost2010Prop29
280
     1
102
RTVSPost2010PropOp29
 70
     1
102
RTVSPost2010Prop30
280
     1
102
RTVSPost2010PropOp30
 70
     1
102
RTVSPost2010Prop31
280
     0
102
RTVSPost2010PropOp31
 70
     1
102
RTVSPost2010Prop32
280
     0
102
RTVSPost2010PropOp32
 70
     1
102
RTVSPost2010Prop33
280
     0
102
RTVSPost2010PropOp33
 70
     1
102
RTVSPost2010Prop34
280
     0
102
RTVSPost2010PropOp34
 70
     1
102
RTVSPost2010Prop35
280
     0
102
RTVSPost2010PropOp35
 70
     1
102
RTVSPost2010Prop36
280
     0
102
RTVSPost2010PropOp36
 70
     1
102
RTVSPost2010Prop37
 90
       50
102
RTVSPost2010PropOp37
 70
     1
102
RTVSPost2010Prop38
140
0.0
102
RTVSPost2010PropOp38
 70
     1
102
RTVSPost2010Prop39
140
1.0
102
RTVSPost2010PropOp39
 70
     1
102
RTVSPost2010Prop40
 90
        0
102
RTVSPost2010PropOp40
 70
     1
102
RTVSPost2010Prop41ColorIndex
 90
       18
102
RTVSPost2010Prop41ColorRGB
 90
        0
102
RTVSPost2010PropOp41
 70
     1
102
RTVSPost2010Prop42
 90
       50
102
RTVSPost2010PropOp42
 70
     1
102
RTVSPost2010Prop43
 90
        3
102
RTVSPost2010PropOp43
 70
     1
102
RTVSPost2010Prop44ColorIndex
 90
        5
102
RTVSPost2010Prop44ColorRGB
 90
      255
102
RTVSPost2010PropOp44
 70
     1
102
RTVSPost2010Prop45
280
     0
102
RTVSPost2010PropOp45
 70
     1
102
RTVSPost2010Prop46
 90
       50
102
RTVSPost2010PropOp46
 70
     1
102
RTVSPost2010Prop47
 90
       50
102
RTVSPost2010PropOp47
 70
     1
102
RTVSPost2010Prop48
 90
       50
102
RTVSPost2010PropOp48
 70
     1
102
RTVSPost2010Prop49
280
     0
102
RTVSPost2010PropOp49
 70
     1
102
RTVSPost2010Prop50
 90
       50
102
RTVSPost2010PropOp50
 70
     1
102
RTVSPost2010Prop51ColorIndex
 90
      256
102
RTVSPost2010Prop51ColorRGB
 90
-16777216
102
RTVSPost2010PropOp51
 70
     0
102
RTVSPost2010Prop52
140
1.0
102
RTVSPost2010PropOp52
 70
     0
102
RTVSPost2010Prop53
 90
        2
102
RTVSPost2010PropOp53
 70
     1
102
RTVSPost2010Prop54
  1
strokes_ogs.tif
102
RTVSPost2010PropOp54
 70
     1
102
RTVSPost2010Prop55
280
     0
102
RTVSPost2010PropOp55
 70
     1
102
RTVSPost2010Prop56
140
1.0
102
RTVSPost2010PropOp56
 70
     1
102
RTVSPost2010Prop57
140
1.0
102
RTVSPost2010PropOp57
 70
     1
102
RTVSPropertyOp0
 70
     1
102
RTVSPropertyOp1
 70
     1
102
RTVSPropertyOp2
 70
     1
102
RTVSPropertyOp3
 70
     1
102
RTVSPropertyOp4
 70
     1
102
RTVSPropertyOp5
 70
     1
102
RTVSPropertyOp6
 70
     1
102
RTVSPropertyOp7
 70
     1
102
RTVSPropertyOp8
 70
     1
102
RTVSPropertyOp9
 70
     1
102
RTVSPropertyOp10
 70
     1
102
RTVSPropertyOp11
 70
     1
102
RTVSPropertyOp12
 70
     1
102
RTVSPropertyOp13
 70
     1
102
RTVSPropertyOp14
 70
     1
102
RTVSPropertyOp15
 70
     1
102
RTVSPropertyOp16
 70
     1
102
RTVSPropertyOp17
 70
     1
102
RTVSPropertyOp18
 70
     1
102
RTVSPropertyOp19
 70
     1
102
RTVSPropertyOp20
 70
     1
102
RTVSPropertyOp21
 70
     1
102
RTVSPropertyOp22
 70
     1
102
RTVSPropertyOp23
 70
     1
102
RTVSPropertyOp24
 70
     1
102
RTVSPropertyOp25
 70
     1
102
RTVSPropertyOp26
 70
     1
102
RTVSPropertyOp27
 70
     1
102
RTVSPropertyOp28
 70
     1
102
RTVSPropertyOp29
 70
     1
102
RTVSPropertyOp30
 70
     1
102
RTVSPropertyOp31
 70
     1
102
RTVSPropertyOp32
 70
     1
102
RTVSPropertyOp33
 70
     1
102
RTVSPropertyOp34
 70
     1
102
RTVSPropertyOp35
 70
     1
102
RTVSPropertyOp36
 70
     1
102
RTVSPropertyOp37
 70
     1
102
RTVSPropertyOp38
 70
     1
102
RTVSPropertyOp39
 70
     1
102
RTVSPropertyOp40
 70
     1
102
RTVSPropertyOp41
 70
     1
102
RTVSPropertyOp42
 70
     1
102
RTVSPropertyOp43
 70
     1
102
RTVSPropertyOp44
 70
     1
102
RTVSPropertyOp45
 70
     1
102
RTVSPropertyOp46
 70
     1
102
RTVSPropertyOp47
 70
     1
102
RTVSPropertyOp48
 70
     1
102
RTVSPropertyOp49
 70
     1
102
RTVSPropertyOp50
 70
     1
102
RTVSPropertyOp51
 70
     0
102
RTVSPropertyOp52
 70
     0
102
RTVSPropertyOp53
 70
     1
102
RTVSPropertyOp54
 70
     1
102
RTVSPropertyOp55
 70
     1
102
RTVSPropertyOp56
 70
     1
102
RTVSPropertyOp57
 70
     1
102
RTVSPropertyOp58
 70
     1
102
RTVSPropertyOp59
 70
     1
102
RTVSPropertyOp60
 70
     1
102
RTVSPropertyOp61
 70
     1
102
RTVSPropertyOp62
 70
     1
  0
XRECORD
  5
A4E7
102
{ACAD_REACTORS
330
A4E6
102
}
330
A4E6
100
AcDbXrecord
280
     1
102
RTVSPost2010Prop28
280
     0
102
RTVSPost2010PropOp28
 70
     1
102
RTVSPost2010Prop29
280
     1
102
RTVSPost2010PropOp29
 70
     1
102
RTVSPost2010Prop30
280
     1
102
RTVSPost2010PropOp30
 70
     1
102
RTVSPost2010Prop31
280
     0
102
RTVSPost2010PropOp31
 70
     1
102
RTVSPost2010Prop32
280
     0
102
RTVSPost2010PropOp32
 70
     1
102
RTVSPost2010Prop33
280
     0
102
RTVSPost2010PropOp33
 70
     1
102
RTVSPost2010Prop34
280
     0
102
RTVSPost2010PropOp34
 70
     1
102
RTVSPost2010Prop35
280
     0
102
RTVSPost2010PropOp35
 70
     1
102
RTVSPost2010Prop36
280
     0
102
RTVSPost2010PropOp36
 70
     1
102
RTVSPost2010Prop37
 90
       50
102
RTVSPost2010PropOp37
 70
     1
102
RTVSPost2010Prop38
140
0.0
102
RTVSPost2010PropOp38
 70
     1
102
RTVSPost2010Prop39
140
1.0
102
RTVSPost2010PropOp39
 70
     1
102
RTVSPost2010Prop40
 90
        0
102
RTVSPost2010PropOp40
 70
     1
102
RTVSPost2010Prop41ColorIndex
 90
       18
102
RTVSPost2010Prop41ColorRGB
 90
        0
102
RTVSPost2010PropOp41
 70
     1
102
RTVSPost2010Prop42
 90
       50
102
RTVSPost2010PropOp42
 70
     1
102
RTVSPost2010Prop43
 90
        3
102
RTVSPost2010PropOp43
 70
     1
102
RTVSPost2010Prop44ColorIndex
 90
        5
102
RTVSPost2010Prop44ColorRGB
 90
      255
102
RTVSPost2010PropOp44
 70
     1
102
RTVSPost2010Prop45
280
     0
102
RTVSPost2010PropOp45
 70
     1
102
RTVSPost2010Prop46
 90
       50
102
RTVSPost2010PropOp46
 70
     1
102
RTVSPost2010Prop47
 90
       50
102
RTVSPost2010PropOp47
 70
     1
102
RTVSPost2010Prop48
 90
       50
102
RTVSPost2010PropOp48
 70
     1
102
RTVSPost2010Prop49
280
     0
102
RTVSPost2010PropOp49
 70
     1
102
RTVSPost2010Prop50
 90
       50
102
RTVSPost2010PropOp50
 70
     1
102
RTVSPost2010Prop51ColorIndex
 90
      256
102
RTVSPost2010Prop51ColorRGB
 90
-16777216
102
RTVSPost2010PropOp51
 70
     0
102
RTVSPost2010Prop52
140
1.0
102
RTVSPost2010PropOp52
 70
     0
102
RTVSPost2010Prop53
 90
        2
102
RTVSPost2010PropOp53
 70
     1
102
RTVSPost2010Prop54
  1
strokes_ogs.tif
102
RTVSPost2010PropOp54
 70
     1
102
RTVSPost2010Prop55
280
     0
102
RTVSPost2010PropOp55
 70
     1
102
RTVSPost2010Prop56
140
1.0
102
RTVSPost2010PropOp56
 70
     1
102
RTVSPost2010Prop57
140
1.0
102
RTVSPost2010PropOp57
 70
     1
102
RTVSPropertyOp0
 70
     1
102
RTVSPropertyOp1
 70
     1
102
RTVSPropertyOp2
 70
     1
102
RTVSPropertyOp3
 70
     1
102
RTVSPropertyOp4
 70
     1
102
RTVSPropertyOp5
 70
     1
102
RTVSPropertyOp6
 70
     1
102
RTVSPropertyOp7
 70
     1
102
RTVSPropertyOp8
 70
     1
102
RTVSPropertyOp9
 70
     1
102
RTVSPropertyOp10
 70
     1
102
RTVSPropertyOp11
 70
     1
102
RTVSPropertyOp12
 70
     1
102
RTVSPropertyOp13
 70
     1
102
RTVSPropertyOp14
 70
     1
102
RTVSPropertyOp15
 70
     1
102
RTVSPropertyOp16
 70
     1
102
RTVSPropertyOp17
 70
     1
102
RTVSPropertyOp18
 70
     1
102
RTVSPropertyOp19
 70
     1
102
RTVSPropertyOp20
 70
     1
102
RTVSPropertyOp21
 70
     1
102
RTVSPropertyOp22
 70
     1
102
RTVSPropertyOp23
 70
     1
102
RTVSPropertyOp24
 70
     1
102
RTVSPropertyOp25
 70
     1
102
RTVSPropertyOp26
 70
     1
102
RTVSPropertyOp27
 70
     1
102
RTVSPropertyOp28
 70
     1
102
RTVSPropertyOp29
 70
     1
102
RTVSPropertyOp30
 70
     1
102
RTVSPropertyOp31
 70
     1
102
RTVSPropertyOp32
 70
     1
102
RTVSPropertyOp33
 70
     1
102
RTVSPropertyOp34
 70
     1
102
RTVSPropertyOp35
 70
     1
102
RTVSPropertyOp36
 70
     1
102
RTVSPropertyOp37
 70
     1
102
RTVSPropertyOp38
 70
     1
102
RTVSPropertyOp39
 70
     1
102
RTVSPropertyOp40
 70
     1
102
RTVSPropertyOp41
 70
     1
102
RTVSPropertyOp42
 70
     1
102
RTVSPropertyOp43
 70
     1
102
RTVSPropertyOp44
 70
     1
102
RTVSPropertyOp45
 70
     1
102
RTVSPropertyOp46
 70
     1
102
RTVSPropertyOp47
 70
     1
102
RTVSPropertyOp48
 70
     1
102
RTVSPropertyOp49
 70
     1
102
RTVSPropertyOp50
 70
     1
102
RTVSPropertyOp51
 70
     0
102
RTVSPropertyOp52
 70
     0
102
RTVSPropertyOp53
 70
     1
102
RTVSPropertyOp54
 70
     1
102
RTVSPropertyOp55
 70
     1
102
RTVSPropertyOp56
 70
     1
102
RTVSPropertyOp57
 70
     1
102
RTVSPropertyOp58
 70
     1
102
RTVSPropertyOp59
 70
     1
102
RTVSPropertyOp60
 70
     1
102
RTVSPropertyOp61
 70
     1
102
RTVSPropertyOp62
 70
     1
  0
XRECORD
  5
A507
102
{ACAD_REACTORS
330
A506
102
}
330
A506
100
AcDbXrecord
280
     1
102
RTVSPost2010Prop28
280
     0
102
RTVSPost2010PropOp28
 70
     1
102
RTVSPost2010Prop29
280
     1
102
RTVSPost2010PropOp29
 70
     1
102
RTVSPost2010Prop30
280
     1
102
RTVSPost2010PropOp30
 70
     1
102
RTVSPost2010Prop31
280
     0
102
RTVSPost2010PropOp31
 70
     1
102
RTVSPost2010Prop32
280
     0
102
RTVSPost2010PropOp32
 70
     1
102
RTVSPost2010Prop33
280
     0
102
RTVSPost2010PropOp33
 70
     1
102
RTVSPost2010Prop34
280
     0
102
RTVSPost2010PropOp34
 70
     1
102
RTVSPost2010Prop35
280
     0
102
RTVSPost2010PropOp35
 70
     1
102
RTVSPost2010Prop36
280
     0
102
RTVSPost2010PropOp36
 70
     1
102
RTVSPost2010Prop37
 90
       50
102
RTVSPost2010PropOp37
 70
     1
102
RTVSPost2010Prop38
140
0.0
102
RTVSPost2010PropOp38
 70
     1
102
RTVSPost2010Prop39
140
1.0
102
RTVSPost2010PropOp39
 70
     1
102
RTVSPost2010Prop40
 90
        0
102
RTVSPost2010PropOp40
 70
     1
102
RTVSPost2010Prop41ColorIndex
 90
       18
102
RTVSPost2010Prop41ColorRGB
 90
        0
102
RTVSPost2010PropOp41
 70
     1
102
RTVSPost2010Prop42
 90
       50
102
RTVSPost2010PropOp42
 70
     1
102
RTVSPost2010Prop43
 90
        3
102
RTVSPost2010PropOp43
 70
     1
102
RTVSPost2010Prop44ColorIndex
 90
        5
102
RTVSPost2010Prop44ColorRGB
 90
      255
102
RTVSPost2010PropOp44
 70
     1
102
RTVSPost2010Prop45
280
     0
102
RTVSPost2010PropOp45
 70
     1
102
RTVSPost2010Prop46
 90
       50
102
RTVSPost2010PropOp46
 70
     1
102
RTVSPost2010Prop47
 90
       50
102
RTVSPost2010PropOp47
 70
     1
102
RTVSPost2010Prop48
 90
       50
102
RTVSPost2010PropOp48
 70
     1
102
RTVSPost2010Prop49
280
     0
102
RTVSPost2010PropOp49
 70
     1
102
RTVSPost2010Prop50
 90
       50
102
RTVSPost2010PropOp50
 70
     1
102
RTVSPost2010Prop51ColorIndex
 90
      256
102
RTVSPost2010Prop51ColorRGB
 90
-16777216
102
RTVSPost2010PropOp51
 70
     0
102
RTVSPost2010Prop52
140
1.0
102
RTVSPost2010PropOp52
 70
     0
102
RTVSPost2010Prop53
 90
        2
102
RTVSPost2010PropOp53
 70
     1
102
RTVSPost2010Prop54
  1
strokes_ogs.tif
102
RTVSPost2010PropOp54
 70
     1
102
RTVSPost2010Prop55
280
     0
102
RTVSPost2010PropOp55
 70
     1
102
RTVSPost2010Prop56
140
1.0
102
RTVSPost2010PropOp56
 70
     1
102
RTVSPost2010Prop57
140
1.0
102
RTVSPost2010PropOp57
 70
     1
102
RTVSPropertyOp0
 70
     1
102
RTVSPropertyOp1
 70
     1
102
RTVSPropertyOp2
 70
     1
102
RTVSPropertyOp3
 70
     1
102
RTVSPropertyOp4
 70
     1
102
RTVSPropertyOp5
 70
     1
102
RTVSPropertyOp6
 70
     1
102
RTVSPropertyOp7
 70
     1
102
RTVSPropertyOp8
 70
     1
102
RTVSPropertyOp9
 70
     1
102
RTVSPropertyOp10
 70
     1
102
RTVSPropertyOp11
 70
     1
102
RTVSPropertyOp12
 70
     1
102
RTVSPropertyOp13
 70
     1
102
RTVSPropertyOp14
 70
     1
102
RTVSPropertyOp15
 70
     1
102
RTVSPropertyOp16
 70
     1
102
RTVSPropertyOp17
 70
     1
102
RTVSPropertyOp18
 70
     1
102
RTVSPropertyOp19
 70
     1
102
RTVSPropertyOp20
 70
     1
102
RTVSPropertyOp21
 70
     1
102
RTVSPropertyOp22
 70
     1
102
RTVSPropertyOp23
 70
     1
102
RTVSPropertyOp24
 70
     1
102
RTVSPropertyOp25
 70
     1
102
RTVSPropertyOp26
 70
     1
102
RTVSPropertyOp27
 70
     1
102
RTVSPropertyOp28
 70
     1
102
RTVSPropertyOp29
 70
     1
102
RTVSPropertyOp30
 70
     1
102
RTVSPropertyOp31
 70
     1
102
RTVSPropertyOp32
 70
     1
102
RTVSPropertyOp33
 70
     1
102
RTVSPropertyOp34
 70
     1
102
RTVSPropertyOp35
 70
     1
102
RTVSPropertyOp36
 70
     1
102
RTVSPropertyOp37
 70
     1
102
RTVSPropertyOp38
 70
     1
102
RTVSPropertyOp39
 70
     1
102
RTVSPropertyOp40
 70
     1
102
RTVSPropertyOp41
 70
     1
102
RTVSPropertyOp42
 70
     1
102
RTVSPropertyOp43
 70
     1
102
RTVSPropertyOp44
 70
     1
102
RTVSPropertyOp45
 70
     1
102
RTVSPropertyOp46
 70
     1
102
RTVSPropertyOp47
 70
     1
102
RTVSPropertyOp48
 70
     1
102
RTVSPropertyOp49
 70
     1
102
RTVSPropertyOp50
 70
     1
102
RTVSPropertyOp51
 70
     0
102
RTVSPropertyOp52
 70
     0
102
RTVSPropertyOp53
 70
     1
102
RTVSPropertyOp54
 70
     1
102
RTVSPropertyOp55
 70
     1
102
RTVSPropertyOp56
 70
     1
102
RTVSPropertyOp57
 70
     1
102
RTVSPropertyOp58
 70
     1
102
RTVSPropertyOp59
 70
     1
102
RTVSPropertyOp60
 70
     1
102
RTVSPropertyOp61
 70
     1
102
RTVSPropertyOp62
 70
     1
  0
ENDSEC
  0
EOF
