  0
SECTION
  2
HEADER
  9
$ACADVER
  1
AC1015
  9
$ACADMAINTVER
 70
    18
  9
$DWGCODEPAGE
  3
ANSI_1252
  9
$INSBASE
 10
0.0
 20
0.0
 30
0.0
  9
$EXTMIN
 10
-207.4301140096854
 20
-295.8035885200412
 30
-0.0015258207003583
  9
$EXTMAX
 10
239.8645027213083
 20
347.9018562195146
 30
0.0000000349246037
  9
$LIMMIN
 10
0.0
 20
0.0
  9
$LIMMAX
 10
420.0
 20
297.0
  9
$ORTHOMODE
 70
     0
  9
$REGENMODE
 70
     1
  9
$FILLMODE
 70
     1
  9
$QTEXTMODE
 70
     0
  9
$MIRRTEXT
 70
     0
  9
$LTSCALE
 40
1.0
  9
$ATTMODE
 70
     1
  9
$TEXTSIZE
 40
2.5
  9
$TRACEWID
 40
1.0
  9
$TEXTSTYLE
  7
Standard
  9
$CLAYER
  8
0
  9
$CELTYPE
  6
ByLayer
  9
$CECOLOR
 62
   256
  9
$CELTSCALE
 40
1.0
  9
$DISPSILH
 70
     0
  9
$DIMSCALE
 40
1.0
  9
$DIMASZ
 40
2.5
  9
$DIMEXO
 40
0.625
  9
$DIMDLI
 40
3.75
  9
$DIMRND
 40
0.0
  9
$DIMDLE
 40
0.0
  9
$DIMEXE
 40
1.25
  9
$DIMTP
 40
0.0
  9
$DIMTM
 40
0.0
  9
$DIMTXT
 40
2.5
  9
$DIMCEN
 40
2.5
  9
$DIMTSZ
 40
0.0
  9
$DIMTOL
 70
     0
  9
$DIMLIM
 70
     0
  9
$DIMTIH
 70
     0
  9
$DIMTOH
 70
     0
  9
$DIMSE1
 70
     0
  9
$DIMSE2
 70
     0
  9
$DIMTAD
 70
     1
  9
$DIMZIN
 70
     8
  9
$DIMBLK
  1

  9
$DIMASO
 70
     1
  9
$DIMSHO
 70
     1
  9
$DIMPOST
  1

  9
$DIMAPOST
  1

  9
$DIMALT
 70
     0
  9
$DIMALTD
 70
     3
  9
$DIMALTF
 40
0.03937007874016
  9
$DIMLFAC
 40
1.0
  9
$DIMTOFL
 70
     1
  9
$DIMTVP
 40
0.0
  9
$DIMTIX
 70
     0
  9
$DIMSOXD
 70
     0
  9
$DIMSAH
 70
     0
  9
$DIMBLK1
  1

  9
$DIMBLK2
  1

  9
$DIMSTYLE
  2
ISO-25
  9
$DIMCLRD
 70
     0
  9
$DIMCLRE
 70
     0
  9
$DIMCLRT
 70
     0
  9
$DIMTFAC
 40
1.0
  9
$DIMGAP
 40
0.625
  9
$DIMJUST
 70
     0
  9
$DIMSD1
 70
     0
  9
$DIMSD2
 70
     0
  9
$DIMTOLJ
 70
     0
  9
$DIMTZIN
 70
     8
  9
$DIMALTZ
 70
     0
  9
$DIMALTTZ
 70
     0
  9
$DIMUPT
 70
     0
  9
$DIMDEC
 70
     2
  9
$DIMTDEC
 70
     2
  9
$DIMALTU
 70
     2
  9
$DIMALTTD
 70
     3
  9
$DIMTXSTY
  7
Standard
  9
$DIMAUNIT
 70
     0
  9
$DIMADEC
 70
     0
  9
$DIMALTRND
 40
0.0
  9
$DIMAZIN
 70
     0
  9
$DIMDSEP
 70
    44
  9
$DIMATFIT
 70
     3
  9
$DIMFRAC
 70
     0
  9
$DIMLDRBLK
  1

  9
$DIMLUNIT
 70
     2
  9
$DIMLWD
 70
    -2
  9
$DIMLWE
 70
    -2
  9
$DIMTMOVE
 70
     0
  9
$LUNITS
 70
     2
  9
$LUPREC
 70
     4
  9
$SKETCHINC
 40
1.0
  9
$FILLETRAD
 40
0.0
  9
$AUNITS
 70
     0
  9
$AUPREC
 70
     0
  9
$MENU
  1
.
  9
$ELEVATION
 40
0.0
  9
$PELEVATION
 40
0.0
  9
$THICKNESS
 40
0.0
  9
$LIMCHECK
 70
     0
  9
$CHAMFERA
 40
0.0
  9
$CHAMFERB
 40
0.0
  9
$CHAMFERC
 40
0.0
  9
$CHAMFERD
 40
0.0
  9
$SKPOLY
 70
     0
  9
$TDCREATE
 40
2460398.356956019
  9
$TDUCREATE
 40
2460398.065289352
  9
$TDUPDATE
 40
2460398.375416667
  9
$TDUUPDATE
 40
2460398.083750000
  9
$TDINDWG
 40
0.0078587963
  9
$TDUSRTIMER
 40
0.0078587963
  9
$USRTIMER
 70
     1
  9
$ANGBASE
 50
0.0
  9
$ANGDIR
 70
     0
  9
$PDMODE
 70
     0
  9
$PDSIZE
 40
0.0
  9
$PLINEWID
 40
0.0
  9
$SPLFRAME
 70
     0
  9
$SPLINETYPE
 70
     6
  9
$SPLINESEGS
 70
     8
  9
$HANDSEED
  5
A74D
  9
$SURFTAB1
 70
     6
  9
$SURFTAB2
 70
     6
  9
$SURFTYPE
 70
     6
  9
$SURFU
 70
     6
  9
$SURFV
 70
     6
  9
$UCSBASE
  2

  9
$UCSNAME
  2

  9
$UCSORG
 10
0.0
 20
0.0
 30
0.0
  9
$UCSXDIR
 10
1.0
 20
0.0
 30
0.0
  9
$UCSYDIR
 10
0.0
 20
1.0
 30
0.0
  9
$UCSORTHOREF
  2

  9
$UCSORTHOVIEW
 70
     0
  9
$UCSORGTOP
 10
0.0
 20
0.0
 30
0.0
  9
$UCSORGBOTTOM
 10
0.0
 20
0.0
 30
0.0
  9
$UCSORGLEFT
 10
0.0
 20
0.0
 30
0.0
  9
$UCSORGRIGHT
 10
0.0
 20
0.0
 30
0.0
  9
$UCSORGFRONT
 10
0.0
 20
0.0
 30
0.0
  9
$UCSORGBACK
 10
0.0
 20
0.0
 30
0.0
  9
$PUCSBASE
  2

  9
$PUCSNAME
  2

  9
$PUCSORG
 10
0.0
 20
0.0
 30
0.0
  9
$PUCSXDIR
 10
1.0
 20
0.0
 30
0.0
  9
$PUCSYDIR
 10
0.0
 20
1.0
 30
0.0
  9
$PUCSORTHOREF
  2

  9
$PUCSORTHOVIEW
 70
     0
  9
$PUCSORGTOP
 10
0.0
 20
0.0
 30
0.0
  9
$PUCSORGBOTTOM
 10
0.0
 20
0.0
 30
0.0
  9
$PUCSORGLEFT
 10
0.0
 20
0.0
 30
0.0
  9
$PUCSORGRIGHT
 10
0.0
 20
0.0
 30
0.0
  9
$PUCSORGFRONT
 10
0.0
 20
0.0
 30
0.0
  9
$PUCSORGBACK
 10
0.0
 20
0.0
 30
0.0
  9
$USERI1
 70
     0
  9
$USERI2
 70
     0
  9
$USERI3
 70
     0
  9
$USERI4
 70
     0
  9
$USERI5
 70
     0
  9
$USERR1
 40
0.0
  9
$USERR2
 40
0.0
  9
$USERR3
 40
0.0
  9
$USERR4
 40
0.0
  9
$USERR5
 40
0.0
  9
$WORLDVIEW
 70
     1
  9
$SHADEDGE
 70
     3
  9
$SHADEDIF
 70
    70
  9
$TILEMODE
 70
     1
  9
$MAXACTVP
 70
    48
  9
$PINSBASE
 10
0.0
 20
0.0
 30
0.0
  9
$PLIMCHECK
 70
     0
  9
$PEXTMIN
 10
0.0
 20
0.0
 30
0.0
  9
$PEXTMAX
 10
0.0
 20
0.0
 30
0.0
  9
$PLIMMIN
 10
0.0
 20
0.0
  9
$PLIMMAX
 10
12.0
 20
9.0
  9
$UNITMODE
 70
     0
  9
$VISRETAIN
 70
     1
  9
$PLINEGEN
 70
     0
  9
$PSLTSCALE
 70
     1
  9
$TREEDEPTH
 70
  3020
  9
$CMLSTYLE
  2
Standard
  9
$CMLJUST
 70
     0
  9
$CMLSCALE
 40
20.0
  9
$PROXYGRAPHICS
 70
     1
  9
$MEASUREMENT
 70
     1
  9
$CELWEIGHT
370
    -1
  9
$ENDCAPS
280
     0
  9
$JOINSTYLE
280
     0
  9
$LWDISPLAY
290
     0
  9
$INSUNITS
 70
     4
  9
$HYPERLINKBASE
  1

  9
$STYLESHEET
  1

  9
$XEDIT
290
     1
  9
$CEPSNTYPE
380
     0
  9
$PSTYLEMODE
290
     1
  9
$FINGERPRINTGUID
  2
{6C1266EE-7BC1-BF4A-B059-A6E7702B10CE}
  9
$VERSIONGUID
  2
{1C77109C-00CD-0947-A5BB-F63B2DF39CD0}
  9
$EXTNAMES
290
     1
  9
$PSVPSCALE
 40
0.0
  9
$OLESTARTUP
290
     0
  0
ENDSEC
  0
SECTION
  2
CLASSES
  0
CLASS
  1
ACDBDICTIONARYWDFLT
  2
AcDbDictionaryWithDefault
  3
ObjectDBX Classes
 90
        0
280
     0
281
     0
  0
CLASS
  1
ACDBPLACEHOLDER
  2
AcDbPlaceHolder
  3
ObjectDBX Classes
 90
        0
280
     0
281
     0
  0
CLASS
  1
LAYOUT
  2
AcDbLayout
  3
ObjectDBX Classes
 90
        0
280
     0
281
     0
  0
CLASS
  1
DICTIONARYVAR
  2
AcDbDictionaryVar
  3
ObjectDBX Classes
 90
        0
280
     0
281
     0
  0
CLASS
  1
TABLESTYLE
  2
AcDbTableStyle
  3
ObjectDBX Classes
 90
     4095
280
     0
281
     0
  0
CLASS
  1
MATERIAL
  2
AcDbMaterial
  3
ObjectDBX Classes
 90
     1153
280
     0
281
     0
  0
CLASS
  1
VISUALSTYLE
  2
AcDbVisualStyle
  3
ObjectDBX Classes
 90
     4095
280
     0
281
     0
  0
CLASS
  1
SCALE
  2
AcDbScale
  3
ObjectDBX Classes
 90
     1153
280
     0
281
     0
  0
CLASS
  1
MLEADERSTYLE
  2
AcDbMLeaderStyle
  3
ACDB_MLEADERSTYLE_CLASS
 90
     4095
280
     0
281
     0
  0
CLASS
  1
CELLSTYLEMAP
  2
AcDbCellStyleMap
  3
ObjectDBX Classes
 90
     1152
280
     0
281
     0
  0
CLASS
  1
EXACXREFPANELOBJECT
  2
ExAcXREFPanelObject
  3
EXAC_ESW
 90
    33793
280
     0
281
     0
  0
CLASS
  1
NPOCOLLECTION
  2
AcDbImpNonPersistentObjectsCollection
  3
ObjectDBX Classes
 90
    33921
280
     0
281
     0
  0
CLASS
  1
LAYER_INDEX
  2
AcDbLayerIndex
  3
ObjectDBX Classes
 90
    32768
280
     0
281
     0
  0
CLASS
  1
SPATIAL_INDEX
  2
AcDbSpatialIndex
  3
ObjectDBX Classes
 90
    32768
280
     0
281
     0
  0
CLASS
  1
IDBUFFER
  2
AcDbIdBuffer
  3
ObjectDBX Classes
 90
    32768
280
     0
281
     0
  0
CLASS
  1
ACDBSECTIONVIEWSTYLE
  2
AcDbSectionViewStyle
  3
ObjectDBX Classes
 90
     1025
280
     0
281
     0
  0
CLASS
  1
ACDBDETAILVIEWSTYLE
  2
AcDbDetailViewStyle
  3
ObjectDBX Classes
 90
     1025
280
     0
281
     0
  0
CLASS
  1
XRECORD
  2
AcDbXrecord
  3
ObjectDBX Classes
 90
        0
280
     0
281
     0
  0
ENDSEC
  0
SECTION
  2
TABLES
  0
TABLE
  2
VPORT
  5
8
102
{ACAD_XDICTIONARY
360
A65B
102
}
330
0
100
AcDbSymbolTable
 70
     1
  0
VPORT
  5
EA
330
8
100
AcDbSymbolTableRecord
100
AcDbViewportTableRecord
  2
*Active
 70
     0
 10
0.0
 20
0.0
 11
1.0
 21
1.0
 12
16.21719435581143
 22
26.04913384973674
 13
0.0
 23
0.0
 14
10.0
 24
10.0
 15
10.0
 25
10.0
 16
0.0
 26
0.0
 36
1.0
 17
0.0
 27
0.0
 37
0.0
 40
684.5224057586078
 41
0.9846153846153848
 42
50.0
 43
0.0
 44
0.0
 50
0.0
 51
0.0
 71
     0
 72
  1000
 73
     1
 74
     3
 75
     0
 76
     1
 77
     0
 78
     0
281
     0
 65
     1
110
0.0
120
0.0
130
0.0
111
1.0
121
0.0
131
0.0
112
0.0
122
1.0
132
0.0
 79
     0
146
0.0
1001
ACAD_NAV_VCDISPLAY
1070
     3
  0
ENDTAB
  0
TABLE
  2
LTYPE
  5
5
330
0
100
AcDbSymbolTable
 70
     1
  0
LTYPE
  5
14
330
5
100
AcDbSymbolTableRecord
100
AcDbLinetypeTableRecord
  2
ByBlock
 70
     0
  3

 72
    65
 73
     0
 40
0.0
  0
LTYPE
  5
15
330
5
100
AcDbSymbolTableRecord
100
AcDbLinetypeTableRecord
  2
ByLayer
 70
     0
  3

 72
    65
 73
     0
 40
0.0
  0
LTYPE
  5
16
330
5
100
AcDbSymbolTableRecord
100
AcDbLinetypeTableRecord
  2
Continuous
 70
     0
  3
Solid line
 72
    65
 73
     0
 40
0.0
  0
ENDTAB
  0
TABLE
  2
LAYER
  5
2
102
{ACAD_XDICTIONARY
360
1FF
102
}
330
0
100
AcDbSymbolTable
 70
     1
  0
LAYER
  5
10
102
{ACAD_XDICTIONARY
360
13C
102
}
330
2
100
AcDbSymbolTableRecord
100
AcDbLayerTableRecord
  2
0
 70
     0
 62
     7
  6
Continuous
370
    -3
390
F
  0
ENDTAB
  0
TABLE
  2
STYLE
  5
3
330
0
100
AcDbSymbolTable
 70
     1
  0
STYLE
  5
11
330
3
100
AcDbSymbolTableRecord
100
AcDbTextStyleTableRecord
  2
Standard
 70
     0
 40
0.0
 41
1.0
 50
0.0
 71
     0
 42
2.5
  3
arial.ttf
  4

1001
ACAD
1000
Arial
1071
       34
  0
ENDTAB
  0
TABLE
  2
VIEW
  5
6
330
0
100
AcDbSymbolTable
 70
     0
  0
ENDTAB
  0
TABLE
  2
UCS
  5
7
330
0
100
AcDbSymbolTable
 70
     0
  0
ENDTAB
  0
TABLE
  2
APPID
  5
9
330
0
100
AcDbSymbolTable
 70
     8
  0
APPID
  5
12
330
9
100
AcDbSymbolTableRecord
100
AcDbRegAppTableRecord
  2
ACAD
 70
     0
  0
APPID
  5
9E
330
9
100
AcDbSymbolTableRecord
100
AcDbRegAppTableRecord
  2
ACAD_PSEXT
 70
     0
  0
APPID
  5
133
330
9
100
AcDbSymbolTableRecord
100
AcDbRegAppTableRecord
  2
AcadAnnoPO
 70
     0
  0
APPID
  5
134
330
9
100
AcDbSymbolTableRecord
100
AcDbRegAppTableRecord
  2
AcadAnnotative
 70
     0
  0
APPID
  5
135
330
9
100
AcDbSymbolTableRecord
100
AcDbRegAppTableRecord
  2
ACAD_DSTYLE_DIMJAG
 70
     0
  0
APPID
  5
136
330
9
100
AcDbSymbolTableRecord
100
AcDbRegAppTableRecord
  2
ACAD_DSTYLE_DIMTALN
 70
     0
  0
APPID
  5
165
330
9
100
AcDbSymbolTableRecord
100
AcDbRegAppTableRecord
  2
ACAD_MLEADERVER
 70
     0
  0
APPID
  5
217
330
9
100
AcDbSymbolTableRecord
100
AcDbRegAppTableRecord
  2
ACAD_NAV_VCDISPLAY
 70
     0
  0
ENDTAB
  0
TABLE
  2
DIMSTYLE
  5
A
330
0
100
AcDbSymbolTable
 70
     1
100
AcDbDimStyleTable
 71
     0
  0
DIMSTYLE
105
27
330
A
100
AcDbSymbolTableRecord
100
AcDbDimStyleTableRecord
  2
ISO-25
 70
     0
 41
2.5
 42
0.625
 43
3.75
 44
1.25
 73
     0
 74
     0
 77
     1
 78
     8
140
2.5
141
2.5
143
0.03937007874016
147
0.625
171
     3
172
     1
271
     2
272
     2
274
     3
278
    44
283
     0
284
     8
340
11
  0
ENDTAB
  0
TABLE
  2
BLOCK_RECORD
  5
1
330
0
100
AcDbSymbolTable
 70
     7
  0
BLOCK_RECORD
  5
1F
102
{ACAD_XDICTIONARY
360
1CE
102
}
330
1
100
AcDbSymbolTableRecord
100
AcDbBlockTableRecord
  2
*Model_Space
340
22
  0
BLOCK_RECORD
  5
D2
102
{ACAD_XDICTIONARY
360
A60E
102
}
330
1
100
AcDbSymbolTableRecord
100
AcDbBlockTableRecord
  2
*Paper_Space
340
D3
  0
BLOCK_RECORD
  5
D6
102
{ACAD_XDICTIONARY
360
A610
102
}
330
1
100
AcDbSymbolTableRecord
100
AcDbBlockTableRecord
  2
*Paper_Space0
340
D7
  0
BLOCK_RECORD
  5
A47F
330
1
100
AcDbSymbolTableRecord
100
AcDbBlockTableRecord
  2
SAE440_38_2-Front
340
0
102
{BLKREFS
331
A604
102
}
  0
BLOCK_RECORD
  5
A4DC
330
1
100
AcDbSymbolTableRecord
100
AcDbBlockTableRecord
  2
SAE440_38_2-Left
340
0
102
{BLKREFS
331
A605
102
}
  0
BLOCK_RECORD
  5
A4FE
330
1
100
AcDbSymbolTableRecord
100
AcDbBlockTableRecord
  2
SAE440_38_2-Right
340
0
102
{BLKREFS
331
A606
102
}
  0
BLOCK_RECORD
  5
A51F
330
1
100
AcDbSymbolTableRecord
100
AcDbBlockTableRecord
  2
SAE440_38_2-Top
340
0
102
{BLKREFS
331
A607
102
}
  0
BLOCK_RECORD
  5
A54E
330
1
100
AcDbSymbolTableRecord
100
AcDbBlockTableRecord
  2
SAE440_38_2-Bottom
340
0
102
{BLKREFS
331
A608
102
}
  0
BLOCK_RECORD
  5
A574
330
1
100
AcDbSymbolTableRecord
100
AcDbBlockTableRecord
  2
SAE440_38_2-ISO
340
0
102
{BLKREFS
331
A609
102
}
  0
ENDTAB
  0
ENDSEC
  0
SECTION
  2
BLOCKS
  0
BLOCK
  5
20
330
1F
100
AcDbEntity
  8
0
100
AcDbBlockBegin
  2
*Model_Space
 70
     0
 10
0.0
 20
0.0
 30
0.0
  3
*Model_Space
  1

  0
ENDBLK
  5
21
330
1F
100
AcDbEntity
  8
0
100
AcDbBlockEnd
  0
BLOCK
  5
D4
330
D2
100
AcDbEntity
 67
     1
  8
0
100
AcDbBlockBegin
  2
*Paper_Space
 70
     0
 10
0.0
 20
0.0
 30
0.0
  3
*Paper_Space
  1

  0
ENDBLK
  5
D5
330
D2
100
AcDbEntity
 67
     1
  8
0
100
AcDbBlockEnd
  0
BLOCK
  5
D8
330
D6
100
AcDbEntity
 67
     1
  8
0
100
AcDbBlockBegin
  2
*Paper_Space0
 70
     0
 10
0.0
 20
0.0
 30
0.0
  3
*Paper_Space0
  1

  0
ENDBLK
  5
D9
330
D6
100
AcDbEntity
 67
     1
  8
0
100
AcDbBlockEnd
  0
BLOCK
  5
A480
330
A47F
100
AcDbEntity
  8
0
100
AcDbBlockBegin
  2
SAE440_38_2-Front
 70
     0
 10
0.0
 20
0.0
 30
0.0
  3
SAE440_38_2-Front
  1

  0
SPLINE
  5
A482
330
A47F
100
AcDbEntity
  8
0
100
AcDbSpline
210
0.0
220
0.0
230
1.0
 70
     8
 71
     3
 72
    14
 73
    10
 74
     0
 42
0.000000001
 43
0.0000000001
 40
0.0
 40
0.0
 40
0.0
 40
0.0
 40
0.3435149368874788
 40
0.3435149368874788
 40
0.3435149368874788
 40
0.7569946177387534
 40
0.7569946177387534
 40
0.7569946177387534
 40
0.9937967979144946
 40
0.9937967979144946
 40
0.9937967979144946
 40
0.9937967979144946
 10
23.60606060606064
 20
43.56250000000004
 30
0.0
 10
23.28490796720192
 20
43.30249636930969
 30
0.0
 10
22.87246555816788
 20
43.07529402125808
 30
0.0
 10
22.47647444983623
 20
42.84408179461647
 30
0.0
 10
21.99983061426834
 20
42.56577786248789
 30
0.0
 10
21.53729794753111
 20
42.27139780303414
 30
0.0
 10
21.26242807104507
 20
41.85792703991809
 30
0.0
 10
21.10500851929701
 20
41.62112996698037
 30
0.0
 10
21.00518608292525
 20
41.37132384799866
 30
0.0
 10
21.00019624080902
 20
41.02723640295526
 30
0.0
  0
LINE
  5
A483
330
A47F
100
AcDbEntity
  8
0
100
AcDbLine
 10
23.0
 20
43.56250000000002
 30
0.0
 11
23.55691948257185
 21
43.56250000000002
 31
0.0
  0
LINE
  5
A484
330
A47F
100
AcDbEntity
  8
0
100
AcDbLine
 10
22.92566083936428
 20
43.56250000000002
 30
0.0
 11
23.0
 21
43.56250000000002
 31
0.0
  0
LINE
  5
A485
330
A47F
100
AcDbEntity
  8
0
100
AcDbLine
 10
21.00000000000001
 20
43.56250000000002
 30
0.0
 11
22.92566083936428
 21
43.56250000000002
 31
0.0
  0
SPLINE
  5
A486
330
A47F
100
AcDbEntity
  8
0
100
AcDbSpline
210
0.0
220
0.0
230
1.0
 70
     8
 71
     3
 72
    34
 73
    30
 74
     0
 42
0.000000001
 43
0.0000000001
 40
0.0386759060417005
 40
0.0386759060417005
 40
0.0386759060417005
 40
0.0386759060417005
 40
0.0400787488140501
 40
0.0400787488140501
 40
0.0422419500983197
 40
0.0422419500983197
 40
0.0465985791823254
 40
0.0465985791823254
 40
0.0509100324010246
 40
0.0509100324010246
 40
0.0583295395793804
 40
0.0583295395793804
 40
0.0594696966646497
 40
0.0594696966646497
 40
0.0600073776032128
 40
0.0600073776032128
 40
0.0605473079036485
 40
0.0605473079036485
 40
0.061642470645947
 40
0.061642470645947
 40
0.0637916763366955
 40
0.0637916763366955
 40
0.0659867332808323
 40
0.0659867332808323
 40
0.0702846676221604
 40
0.0702846676221604
 40
0.0744216585931599
 40
0.0744216585931599
 40
0.0786115701436516
 40
0.0786115701436516
 40
0.0786115701436516
 40
0.0786115701436516
 10
21.01076237536216
 20
41.25193571329998
 30
0.0
 10
21.0107623754295
 20
41.25193571405525
 30
0.0
 10
21.01071620617179
 20
41.25141909282707
 30
0.0
 10
21.01050487467043
 20
41.24900754236076
 30
0.0
 10
21.01028925809868
 20
41.24651965394876
 30
0.0
 10
21.00949785948114
 20
41.23703578138691
 30
0.0
 10
21.00877554029133
 20
41.22793945149543
 30
0.0
 10
21.0073318391922
 20
41.20781249236191
 30
0.0
 10
21.00659229356264
 20
41.19659078125894
 30
0.0
 10
21.00470564281082
 20
41.16464886660714
 30
0.0
 10
21.00362422384195
 20
41.1422394142211
 30
0.0
 10
21.00268059908239
 20
41.117851028214
 30
0.0
 10
21.00256104709601
 20
41.11463828539111
 30
0.0
 10
21.00240560620073
 20
41.11032401453718
 30
0.0
 10
21.0023588287993
 20
41.10900274612741
 30
0.0
 10
21.00227621367508
 20
41.10663877080495
 30
0.0
 10
21.00224028109781
 20
41.10559353562063
 30
0.0
 10
21.00215530108069
 20
41.10310138128079
 30
0.0
 10
21.00213094807007
 20
41.10236446409452
 30
0.0
 10
21.00207934409699
 20
41.10081253000427
 30
0.0
 10
21.00205285356129
 20
41.10003024244329
 30
0.0
 10
21.00188357460325
 20
41.09472328346715
 30
0.0
 10
21.00173650109235
 20
41.08996550757249
 30
0.0
 10
21.00133324789137
 20
41.07587449180659
 30
0.0
 10
21.00107592082856
 20
41.06563269529437
 30
0.0
 10
21.00064225328055
 20
41.04525095426305
 30
0.0
 10
21.0004613077083
 20
41.03503255712261
 30
0.0
 10
21.00017690603852
 20
41.0156891452437
 30
0.0
 10
21.00007403816964
 20
41.00644927237838
 30
0.0
 10
21.00001270427946
 20
40.99999993960792
 30
0.0
  0
SPLINE
  5
A487
330
A47F
100
AcDbEntity
  8
0
100
AcDbSpline
210
0.0
220
0.0
230
1.0
 70
     8
 71
     3
 72
    10
 73
     6
 74
     0
 42
0.000000001
 43
0.0000000001
 40
0.0151313127492038
 40
0.0151313127492038
 40
0.0151313127492038
 40
0.0151313127492038
 40
0.0171748653955649
 40
0.0171748653955649
 40
0.0184199681078882
 40
0.0184199681078882
 40
0.0184199681078882
 40
0.0184199681078882
 10
21.00034648598684
 20
41.02718593596634
 30
0.0
 10
21.00026744594771
 20
41.02166123538456
 30
0.0
 10
21.00019758192868
 20
41.01602998917731
 30
0.0
 10
21.00010254413846
 20
41.00692331540982
 30
0.0
 10
21.0000704251086
 20
41.00346166669234
 30
0.0
 10
21.00004220943864
 20
40.99999978311202
 30
0.0
  0
SPLINE
  5
A488
330
A47F
100
AcDbEntity
  8
0
100
AcDbSpline
210
0.0
220
0.0
230
1.0
 70
     8
 71
     3
 72
     8
 73
     4
 74
     0
 42
0.000000001
 43
0.0000000001
 40
0.0027244425367259
 40
0.0027244425367259
 40
0.0027244425367259
 40
0.0027244425367259
 40
0.0086712964380657
 40
0.0086712964380657
 40
0.0086712964380657
 40
0.0086712964380657
 10
21.00001376180657
 20
41.0020132860058
 30
0.0
 10
21.00001376180657
 20
41.00201328600591
 30
0.0
 10
21.0000035796907
 20
41.00037332398791
 30
0.0
 10
21.00000179638794
 20
40.99999999108393
 30
0.0
  0
SPLINE
  5
A489
330
A47F
100
AcDbEntity
  8
0
100
AcDbSpline
210
0.0
220
0.0
230
1.0
 70
     8
 71
     3
 72
     8
 73
     4
 74
     0
 42
0.000000001
 43
0.0000000001
 40
0.0
 40
0.0
 40
0.0
 40
0.0
 40
0.0009484845429753
 40
0.0009484845429753
 40
0.0009484845429753
 40
0.0009484845429753
 10
18.9995604049637
 20
41.00000098503779
 30
0.0
 10
18.99956427154474
 20
41.00275539287132
 30
0.0
 10
18.99956807790143
 20
41.00547480195553
 30
0.0
 10
18.99957175544642
 20
41.00814870132231
 30
0.0
  0
SPLINE
  5
A48A
330
A47F
100
AcDbEntity
  8
0
100
AcDbSpline
210
0.0
220
0.0
230
1.0
 70
     8
 71
     3
 72
    14
 73
    10
 74
     0
 42
0.000000001
 43
0.0000000001
 40
0.0
 40
0.0
 40
0.0
 40
0.0
 40
0.0050538733404344
 40
0.0050538733404344
 40
0.0076267643354259
 40
0.0076267643354259
 40
0.0099758051848966
 40
0.0099758051848966
 40
0.0117460251256472
 40
0.0117460251256472
 40
0.0117460251256472
 40
0.0117460251256472
 10
18.99970086423036
 20
40.99999537288795
 30
0.0
 10
18.99943696361558
 20
41.01668067544314
 30
0.0
 10
18.99916129986083
 20
41.03394686655616
 30
0.0
 10
18.99876192961032
 20
41.05896090327366
 30
0.0
 10
18.99862825754365
 20
41.06733867636695
 30
0.0
 10
18.99840269992593
 20
41.08149000767169
 30
0.0
 10
18.99830585206543
 20
41.08757028745394
 30
0.0
 10
18.9981673209701
 20
41.09624054980393
 30
0.0
 10
18.99811640302565
 20
41.09941639129915
 30
0.0
 10
18.99807359158646
 20
41.10207293149712
 30
0.0
  0
SPLINE
  5
A48B
330
A47F
100
AcDbEntity
  8
0
100
AcDbSpline
210
0.0
220
0.0
230
1.0
 70
     8
 71
     3
 72
    34
 73
    30
 74
     0
 42
0.000000001
 43
0.0000000001
 40
0.0019685686105911
 40
0.0019685686105911
 40
0.0019685686105911
 40
0.0019685686105911
 40
0.007429622243385
 40
0.007429622243385
 40
0.0161449102429063
 40
0.0161449102429063
 40
0.0215828018403852
 40
0.0215828018403852
 40
0.0244032812654005
 40
0.0244032812654005
 40
0.0264872651985962
 40
0.0264872651985962
 40
0.0292236717586778
 40
0.0292236717586778
 40
0.0316488028856192
 40
0.0316488028856192
 40
0.0348373577485318
 40
0.0348373577485318
 40
0.039936565326492
 40
0.039936565326492
 40
0.0496589687386548
 40
0.0496589687386548
 40
0.0742168542375515
 40
0.0742168542375515
 40
0.1473304254780896
 40
0.1473304254780896
 40
0.2287299912055348
 40
0.2287299912055348
 40
0.2664916832006428
 40
0.2664916832006428
 40
0.2664916832006428
 40
0.2664916832006428
 10
18.99993371685343
 20
41.00383927916118
 30
0.0
 10
18.99985869732478
 20
41.00814127621053
 30
0.0
 10
18.9997480930608
 20
41.014374444674
 30
0.0
 10
18.99939149886109
 20
41.03388637607971
 30
0.0
 10
18.99909597303285
 20
41.04957511802716
 30
0.0
 10
18.99852099969834
 20
41.07925634956012
 30
0.0
 10
18.99828147537146
 20
41.0914586078952
 30
0.0
 10
18.99788179486395
 20
41.11186497832431
 30
0.0
 10
18.99773462902102
 20
41.11938754992869
 30
0.0
 10
18.9974596502909
 20
41.13358375593488
 30
0.0
 10
18.997335317761
 20
41.14004598660502
 30
0.0
 10
18.9970417207961
 20
41.15551836001414
 30
0.0
 10
18.99686693817583
 20
41.16489645078165
 30
0.0
 10
18.99655660086806
 20
41.18203578078563
 30
0.0
 10
18.99641577946582
 20
41.1900235067765
 30
0.0
 10
18.99611288344008
 20
41.20773325395233
 30
0.0
 10
18.99595511782834
 20
41.2173752107759
 30
0.0
 10
18.99558173311745
 20
41.24123343365053
 30
0.0
 10
18.99538454159203
 20
41.25493749914932
 30
0.0
 10
18.99487987468835
 20
41.29285678022933
 30
0.0
 10
18.99462930976003
 20
41.31564505390958
 30
0.0
 10
18.99390946195795
 20
41.3934224814472
 30
0.0
 10
18.99367743831246
 20
41.44492696297397
 30
0.0
 10
18.9933588746776
 20
41.65930944470267
 30
0.0
 10
18.99486710641415
 20
41.84868058899827
 30
0.0
 10
18.99832016951765
 20
42.28402088511604
 30
0.0
 10
18.9995841774937
 20
42.5405114701439
 30
0.0
 10
18.99998891782112
 20
42.92846271683315
 30
0.0
 10
18.99999960634007
 20
43.05377457072718
 30
0.0
 10
18.99999421460054
 20
43.17922262379698
 30
0.0
  0
SPLINE
  5
A48C
330
A47F
100
AcDbEntity
  8
0
100
AcDbSpline
210
0.0
220
0.0
230
1.0
 70
     8
 71
     3
 72
    12
 73
     8
 74
     0
 42
0.000000001
 43
0.0000000001
 40
0.0
 40
0.0
 40
0.0
 40
0.0
 40
0.0029763424555176
 40
0.0029763424555176
 40
0.0058215424664935
 40
0.0058215424664935
 40
0.0072780894889449
 40
0.0072780894889449
 40
0.0072780894889449
 40
0.0072780894889449
 10
18.99994048878263
 20
40.99999986757256
 30
0.0
 10
18.99992879778515
 20
41.0066229951121
 30
0.0
 10
18.99991806075735
 20
41.01206399573699
 30
0.0
 10
18.99990163952722
 20
41.01957263230986
 30
0.0
 10
18.99989565396882
 20
41.02187984858296
 30
0.0
 10
18.99989113661332
 20
41.02353105169753
 30
0.0
 10
18.99989036107356
 20
41.02378586031818
 30
0.0
 10
18.99989036107365
 20
41.02378586028827
 30
0.0
  0
SPLINE
  5
A48D
330
A47F
100
AcDbEntity
  8
0
100
AcDbSpline
210
0.0
220
0.0
230
1.0
 70
     8
 71
     3
 72
     8
 73
     4
 74
     0
 42
0.000000001
 43
0.0000000001
 40
0.0
 40
0.0
 40
0.0
 40
0.0
 40
0.0004177425319669
 40
0.0004177425319669
 40
0.0004177425319669
 40
0.0004177425319669
 10
23.60608753399721
 20
43.56246533477958
 30
0.0
 10
23.60571539466342
 20
43.56217712127028
 30
0.0
 10
23.60533643704992
 20
43.56188368320106
 30
0.0
 10
23.60495482123337
 20
43.56158814978287
 30
0.0
  0
SPLINE
  5
A48E
330
A47F
100
AcDbEntity
  8
0
100
AcDbSpline
210
0.0
220
0.0
230
1.0
 70
     8
 71
     3
 72
     8
 73
     4
 74
     0
 42
0.000000001
 43
0.0000000001
 40
0.0
 40
0.0
 40
0.0
 40
0.0
 40
0.0006755746299018
 40
0.0006755746299018
 40
0.0006755746299018
 40
0.0006755746299018
 10
23.60610301841196
 20
43.56244730639217
 30
0.0
 10
23.60468198739005
 20
43.56130321893227
 30
0.0
 10
23.60319962826043
 20
43.56011111591047
 30
0.0
 10
23.6016712815152
 20
43.55888354744783
 30
0.0
  0
LINE
  5
A48F
330
A47F
100
AcDbEntity
  8
0
100
AcDbLine
 10
16.99999999999999
 20
-2.0
 30
0.0
 11
-16.99999999999998
 21
-2.0
 31
0.0
  0
LINE
  5
A490
330
A47F
100
AcDbEntity
  8
0
100
AcDbLine
 10
-16.99999999999998
 20
0.0
 30
0.0
 11
16.99999999999999
 21
0.0
 31
0.0
  0
LINE
  5
A491
330
A47F
100
AcDbEntity
  8
0
100
AcDbLine
 10
-22.9256608393643
 20
43.56250000000002
 30
0.0
 11
-21.00000000000001
 21
43.56250000000002
 31
0.0
  0
LINE
  5
A492
330
A47F
100
AcDbEntity
  8
0
100
AcDbLine
 10
-23.0
 20
43.56250000000002
 30
0.0
 11
-22.9256608393643
 21
43.56250000000002
 31
0.0
  0
LINE
  5
A493
330
A47F
100
AcDbEntity
  8
0
100
AcDbLine
 10
-23.55691948257185
 20
43.56250000000002
 30
0.0
 11
-23.0
 21
43.56250000000002
 31
0.0
  0
SPLINE
  5
A494
330
A47F
100
AcDbEntity
  8
0
100
AcDbSpline
210
0.0
220
0.0
230
1.0
 70
     8
 71
     3
 72
    14
 73
    10
 74
     0
 42
0.000000001
 43
0.0000000001
 40
0.0
 40
0.0
 40
0.0
 40
0.0
 40
0.3435149368874788
 40
0.3435149368874788
 40
0.3435149368874788
 40
0.7569946177387534
 40
0.7569946177387534
 40
0.7569946177387534
 40
0.9937967979152041
 40
0.9937967979152041
 40
0.9937967979152041
 40
0.9937967979152041
 10
-23.60606060606064
 20
43.56250000000004
 30
0.0
 10
-23.28490796720192
 20
43.30249636930969
 30
0.0
 10
-22.87246555816788
 20
43.07529402125808
 30
0.0
 10
-22.47647444983623
 20
42.84408179461647
 30
0.0
 10
-21.99983061426834
 20
42.56577786248789
 30
0.0
 10
-21.53729794753111
 20
42.27139780303414
 30
0.0
 10
-21.26242807104507
 20
41.85792703991809
 30
0.0
 10
-21.10500851929654
 20
41.62112996697966
 30
0.0
 10
-21.00518608292465
 20
41.37132384799715
 30
0.0
 10
-21.00019624080899
 20
41.02723640295216
 30
0.0
  0
SPLINE
  5
A495
330
A47F
100
AcDbEntity
  8
0
100
AcDbSpline
210
0.0
220
0.0
230
1.0
 70
     8
 71
     3
 72
    28
 73
    24
 74
     0
 42
0.000000001
 43
0.0000000001
 40
0.0
 40
0.0
 40
0.0
 40
0.0
 40
0.0636878538827355
 40
0.0636878538827355
 40
0.1457920993943412
 40
0.1457920993943412
 40
0.1850362544941216
 40
0.1850362544941216
 40
0.2227741672633907
 40
0.2227741672633907
 40
0.2337468550430224
 40
0.2337468550430224
 40
0.2362601387534229
 40
0.2362601387534229
 40
0.2394811913759686
 40
0.2394811913759686
 40
0.2427108729390578
 40
0.2427108729390578
 40
0.2491464062008287
 40
0.2491464062008287
 40
0.2562217735248038
 40
0.2562217735248038
 40
0.2645859115733033
 40
0.2645859115733033
 40
0.2645859115733033
 40
0.2645859115733033
 10
-18.99999421460053
 20
43.1792226237847
 30
0.0
 10
-19.00000330816338
 20
42.96764531218498
 30
0.0
 10
-18.99998014486976
 20
42.75529118906473
 30
0.0
 10
-18.99858426101174
 20
42.29592631476643
 30
0.0
 10
-18.99632747976503
 20
42.05190776204001
 30
0.0
 10
-18.9940710020558
 20
41.73316937022278
 30
0.0
 10
-18.99360143880991
 20
41.63649768456566
 30
0.0
 10
-18.99354040670064
 20
41.463126200439
 30
0.0
 10
-18.99379505388749
 20
41.38793997077905
 30
0.0
 10
-18.99515288061263
 20
41.27082611920834
 30
0.0
 10
-18.99554186228907
 20
41.24235215305644
 30
0.0
 10
-18.99622247623846
 20
41.20125922344864
 30
0.0
 10
-18.99635938624187
 20
41.19326218138442
 30
0.0
 10
-18.99668959390965
 20
41.17456674413957
 30
0.0
 10
-18.99689414019771
 20
41.16341396355333
 30
0.0
 10
-18.99729136170259
 20
41.14229649465816
 30
0.0
 10
-18.99748824587928
 20
41.13208485982356
 30
0.0
 10
-18.99801548393398
 20
41.10495641041696
 30
0.0
 10
-18.99830848495192
 20
41.09012914227673
 30
0.0
 10
-18.99888263203416
 20
41.06064745003881
 30
0.0
 10
-18.99914823007111
 20
41.04677295750197
 30
0.0
 10
-18.99962127254227
 20
41.02146915891674
 30
0.0
 10
-18.99981895767855
 20
41.01041582826768
 30
0.0
 10
-18.99993393154186
 20
41.00382264873676
 30
0.0
  0
SPLINE
  5
A496
330
A47F
100
AcDbEntity
  8
0
100
AcDbSpline
210
0.0
220
0.0
230
1.0
 70
     8
 71
     3
 72
     8
 73
     4
 74
     0
 42
0.000000001
 43
0.0000000001
 40
0.0207867187889661
 40
0.0207867187889661
 40
0.0207867187889661
 40
0.0207867187889661
 40
0.0217360469956037
 40
0.0217360469956037
 40
0.0217360469956037
 40
0.0217360469956037
 10
-18.99957173053925
 20
41.00814873947491
 30
0.0
 10
-18.99956805572001
 20
41.00547682196529
 30
0.0
 10
-18.99956427498401
 20
41.00275784287833
 30
0.0
 10
-18.99956040496369
 20
41.00000098503778
 30
0.0
  0
SPLINE
  5
A497
330
A47F
100
AcDbEntity
  8
0
100
AcDbSpline
210
0.0
220
0.0
230
1.0
 70
     8
 71
     3
 72
    18
 73
    14
 74
     0
 42
0.000000001
 43
0.0000000001
 40
0.0359684599389798
 40
0.0359684599389798
 40
0.0359684599389798
 40
0.0359684599389798
 40
0.0373929838899681
 40
0.0373929838899681
 40
0.0388269935506729
 40
0.0388269935506729
 40
0.0410736039284169
 40
0.0410736039284169
 40
0.0431426664496243
 40
0.0431426664496243
 40
0.0457467522129209
 40
0.0457467522129209
 40
0.0477385609918709
 40
0.0477385609918709
 40
0.0477385609918709
 40
0.0477385609918709
 10
-18.99807360884648
 20
41.1020714977753
 30
0.0
 10
-18.99810813523515
 20
41.09992906245617
 30
0.0
 10
-18.99814774201379
 20
41.09746141477161
 30
0.0
 10
-18.99823833678831
 20
41.09179802797988
 30
0.0
 10
-18.99828987694459
 20
41.08856810422397
 30
0.0
 10
-18.99843588963224
 20
41.07940951639651
 30
0.0
 10
-18.99854061020144
 20
41.07283557743329
 30
0.0
 10
-18.99875345111856
 20
41.05949166774627
 30
0.0
 10
-18.99886231648688
 20
41.05267342214673
 30
0.0
 10
-18.99910891239738
 20
41.03722803409105
 30
0.0
 10
-18.99924874565508
 20
41.0284669105777
 30
0.0
 10
-18.99949199068575
 20
41.01317843583547
 30
0.0
 10
-18.9995968569619
 20
41.00657130581509
 30
0.0
 10
-18.99970086423037
 20
40.99999537288796
 30
0.0
  0
SPLINE
  5
A498
330
A47F
100
AcDbEntity
  8
0
100
AcDbSpline
210
0.0
220
0.0
230
1.0
 70
     8
 71
     3
 72
    12
 73
     8
 74
     0
 42
0.000000001
 43
0.0000000001
 40
0.0136503298505509
 40
0.0136503298505509
 40
0.0136503298505509
 40
0.0136503298505509
 40
0.0164817609375025
 40
0.0164817609375025
 40
0.0184447936264495
 40
0.0184447936264495
 40
0.0209304227764786
 40
0.0209304227764786
 40
0.0209304227764786
 40
0.0209304227764786
 10
-18.99989036107366
 20
41.02378586028819
 30
0.0
 10
-18.99989036107355
 20
41.02378586032489
 30
0.0
 10
-18.99989338767386
 20
41.02279888730435
 30
0.0
 10
-18.99990289576357
 20
41.01893474683058
 30
0.0
 10
-18.99990804271213
 20
41.01671478076084
 30
0.0
 10
-18.99992165030604
 20
41.01024147858484
 30
0.0
 10
-18.99993072529454
 20
41.00553103178602
 30
0.0
 10
-18.99994048878263
 20
40.99999986757254
 30
0.0
  0
SPLINE
  5
A499
330
A47F
100
AcDbEntity
  8
0
100
AcDbSpline
210
0.0
220
0.0
230
1.0
 70
     8
 71
     3
 72
    16
 73
    12
 74
     0
 42
0.000000001
 43
0.0000000001
 40
0.0
 40
0.0
 40
0.0
 40
0.0
 40
0.0048244442126548
 40
0.0048244442126548
 40
0.0084630843222564
 40
0.0084630843222564
 40
0.0094797516755739
 40
0.0094797516755739
 40
0.0099661476306689
 40
0.0099661476306689
 40
0.0100234475201113
 40
0.0100234475201113
 40
0.0100234475201113
 40
0.0100234475201113
 10
-21.00004220943863
 20
40.99999978311197
 30
0.0
 10
-21.00015153770873
 20
41.01341366779723
 30
0.0
 10
-21.00032268289502
 20
41.02687088974819
 30
0.0
 10
-21.00070283181434
 20
41.04890363976001
 30
0.0
 10
-21.00090170502337
 20
41.05824000477692
 30
0.0
 10
-21.00111302174316
 20
41.06712796838728
 30
0.0
 10
-21.00115672904011
 20
41.068897246902
 30
0.0
 10
-21.00119777716926
 20
41.07053601913623
 30
0.0
 10
-21.00120726127526
 20
41.07091022574112
 30
0.0
 10
-21.00120931476639
 20
41.07099131985527
 30
0.0
 10
-21.0012094261383
 20
41.07099571663961
 30
0.0
 10
-21.00120942613576
 20
41.07099571653908
 30
0.0
  0
SPLINE
  5
A49A
330
A47F
100
AcDbEntity
  8
0
100
AcDbSpline
210
0.0
220
0.0
230
1.0
 70
     8
 71
     3
 72
    22
 73
    18
 74
     0
 42
0.000000001
 43
0.0000000001
 40
0.0
 40
0.0
 40
0.0
 40
0.0
 40
0.0032700682064415
 40
0.0032700682064415
 40
0.0073547932973577
 40
0.0073547932973577
 40
0.0134791415187894
 40
0.0134791415187894
 40
0.0266726320453827
 40
0.0266726320453827
 40
0.0338101748880529
 40
0.0338101748880529
 40
0.0369599670047505
 40
0.0369599670047505
 40
0.0386155295904254
 40
0.0386155295904254
 40
0.0391357702682462
 40
0.0391357702682462
 40
0.0391357702682462
 40
0.0391357702682462
 10
-21.00001270427947
 20
40.99999993960792
 30
0.0
 10
-21.00006057307142
 20
41.00503340100496
 30
0.0
 10
-21.00013333357406
 20
41.01178548981296
 30
0.0
 10
-21.00035309264678
 20
41.02820549334491
 30
0.0
 10
-21.00051469332569
 20
41.03822490984325
 30
0.0
 10
-21.00100171556278
 20
41.06300909058656
 30
0.0
 10
-21.00137876476974
 20
41.07796095012071
 30
0.0
 10
-21.00257919927827
 20
41.11791942284485
 30
0.0
 10
-21.00367209937822
 20
41.1466975119161
 30
0.0
 10
-21.00692042456881
 20
41.20237219794469
 30
0.0
 10
-21.00823585169186
 20
41.22096030779114
 30
0.0
 10
-21.00977334890105
 20
41.24041168322349
 30
0.0
 10
-21.01019616208952
 20
41.24542479753813
 30
0.0
 10
-21.01060625931356
 20
41.25017386212234
 30
0.0
 10
-21.01070574757303
 20
41.2512978962222
 30
0.0
 10
-21.0107561643651
 20
41.2518660806824
 30
0.0
 10
-21.01076237534426
 20
41.25193571309929
 30
0.0
 10
-21.01076237536221
 20
41.25193571330055
 30
0.0
  0
SPLINE
  5
A49B
330
A47F
100
AcDbEntity
  8
0
100
AcDbSpline
210
0.0
220
0.0
230
1.0
 70
     8
 71
     3
 72
     8
 73
     4
 74
     0
 42
0.000000001
 43
0.0000000001
 40
0.0
 40
0.0
 40
0.0
 40
0.0
 40
0.0059468539029417
 40
0.0059468539029417
 40
0.0059468539029417
 40
0.0059468539029417
 10
-21.00000179638793
 20
40.9999999910839
 30
0.0
 10
-21.00000357969069
 20
41.0003733239882
 30
0.0
 10
-21.00001376180657
 20
41.00201328600578
 30
0.0
 10
-21.00001376180657
 20
41.00201328600551
 30
0.0
  0
SPLINE
  5
A49C
330
A47F
100
AcDbEntity
  8
0
100
AcDbSpline
210
0.0
220
0.0
230
1.0
 70
     8
 71
     3
 72
     8
 73
     4
 74
     0
 42
0.000000001
 43
0.0000000001
 40
0.2816828611802771
 40
0.2816828611802771
 40
0.2816828611802771
 40
0.2816828611802771
 40
0.2823584862352959
 40
0.2823584862352959
 40
0.2823584862352959
 40
0.2823584862352959
 10
-23.60167185631254
 20
43.55888407234433
 30
0.0
 10
-23.60320047243607
 20
43.56011185717168
 30
0.0
 10
-23.60468188132387
 20
43.56130313353722
 30
0.0
 10
-23.60610301841199
 20
43.56244730639218
 30
0.0
  0
SPLINE
  5
A49D
330
A47F
100
AcDbEntity
  8
0
100
AcDbSpline
210
0.0
220
0.0
230
1.0
 70
     8
 71
     3
 72
     8
 73
     4
 74
     0
 42
0.000000001
 43
0.0000000001
 40
0.0184884793857493
 40
0.0184884793857493
 40
0.0184884793857493
 40
0.0184884793857493
 40
0.0189064975951404
 40
0.0189064975951404
 40
0.0189064975951404
 40
0.0189064975951404
 10
-23.60495614551888
 20
43.56158914302714
 30
0.0
 10
-23.60533752352619
 20
43.56188449227954
 30
0.0
 10
-23.60571514908055
 20
43.56217693107191
 30
0.0
 10
-23.60608753399721
 20
43.5624653347796
 30
0.0
  0
ARC
  5
A49E
330
A47F
100
AcDbEntity
  8
0
100
AcDbCircle
 10
-16.99999999999998
 20
2.0
 30
0.0
 40
4.000000000000001
100
AcDbArc
 50
180.0
 51
270.0
  0
ARC
  5
A49F
330
A47F
100
AcDbEntity
  8
0
100
AcDbCircle
 10
-16.99999999999998
 20
2.0
 30
0.0
 40
2.000000000000001
100
AcDbArc
 50
180.0
 51
270.0000000000001
  0
ARC
  5
A4A0
330
A47F
100
AcDbEntity
  8
0
100
AcDbCircle
 10
16.99999999999998
 20
2.0
 30
0.0
 40
4.000000000000001
100
AcDbArc
 50
269.9999999999999
 51
0.0
  0
LINE
  5
A4A1
330
A47F
100
AcDbEntity
  8
0
100
AcDbLine
 10
23.60606060606064
 20
43.56250000000002
 30
0.0
 11
60.50000000000006
 21
73.99999999999998
 31
0.0
  0
LINE
  5
A4A2
330
A47F
100
AcDbEntity
  8
0
100
AcDbLine
 10
18.99999999999999
 20
41.00000000000001
 30
0.0
 11
19.0
 21
73.99999999999998
 31
0.0
  0
LINE
  5
A4A3
330
A47F
100
AcDbEntity
  8
0
100
AcDbLine
 10
20.99999999999999
 20
41.00000000000001
 30
0.0
 11
18.99999999999999
 21
41.00000000000001
 31
0.0
  0
LINE
  5
A4A4
330
A47F
100
AcDbEntity
  8
0
100
AcDbLine
 10
21.0
 20
73.99999999999998
 30
0.0
 11
20.99999999999999
 21
41.00000000000001
 31
0.0
  0
LINE
  5
A4A5
330
A47F
100
AcDbEntity
  8
0
100
AcDbLine
 10
21.0
 20
73.99999999999998
 30
0.0
 11
19.0
 21
73.99999999999998
 31
0.0
  0
LINE
  5
A4A6
330
A47F
100
AcDbEntity
  8
0
100
AcDbLine
 10
19.0
 20
73.99999999999998
 30
0.0
 11
19.0
 21
201.0
 31
0.0
  0
LINE
  5
A4A7
330
A47F
100
AcDbEntity
  8
0
100
AcDbLine
 10
21.0
 20
201.0
 30
0.0
 11
21.0
 21
73.99999999999998
 31
0.0
  0
LINE
  5
A4A8
330
A47F
100
AcDbEntity
  8
0
100
AcDbLine
 10
19.0
 20
201.0
 30
0.0
 11
21.0
 21
201.0
 31
0.0
  0
LINE
  5
A4A9
330
A47F
100
AcDbEntity
  8
0
100
AcDbLine
 10
20.99999999999999
 20
41.00000000000001
 30
0.0
 11
20.99999999999999
 21
2.000000000000001
 31
0.0
  0
LINE
  5
A4AA
330
A47F
100
AcDbEntity
  8
0
100
AcDbLine
 10
18.99999999999998
 20
2.0
 30
0.0
 11
18.99999999999999
 21
41.00000000000001
 31
0.0
  0
ARC
  5
A4AB
330
A47F
100
AcDbEntity
  8
0
100
AcDbCircle
 10
16.99999999999998
 20
2.0
 30
0.0
 40
2.000000000000001
100
AcDbArc
 50
269.9999999999999
 51
0.0
  0
LINE
  5
A4AC
330
A47F
100
AcDbEntity
  8
0
100
AcDbLine
 10
22.99999999999999
 20
201.0
 30
0.0
 11
21.00000000000001
 21
201.0
 31
0.0
  0
LINE
  5
A4AD
330
A47F
100
AcDbEntity
  8
0
100
AcDbLine
 10
60.50000000000006
 20
73.99999999999998
 30
0.0
 11
60.5
 21
201.0
 31
0.0
  0
LINE
  5
A4AE
330
A47F
100
AcDbEntity
  8
0
100
AcDbLine
 10
60.5
 20
201.0
 30
0.0
 11
22.99999999999999
 21
201.0
 31
0.0
  0
CIRCLE
  5
A4AF
330
A47F
100
AcDbEntity
  8
0
100
AcDbCircle
 10
41.0
 20
181.0
 30
0.0
 40
6.5
  0
CIRCLE
  5
A4B0
330
A47F
100
AcDbEntity
  8
0
100
AcDbCircle
 10
52.00000000000001
 20
196.0
 30
0.0
 40
2.5
  0
LINE
  5
A4B1
330
A47F
100
AcDbEntity
  8
0
100
AcDbLine
 10
-60.50000000000006
 20
73.99999999999998
 30
0.0
 11
-23.60606060606064
 21
43.56250000000002
 31
0.0
  0
LINE
  5
A4B2
330
A47F
100
AcDbEntity
  8
0
100
AcDbLine
 10
-19.0
 20
73.99999999999998
 30
0.0
 11
-18.99999999999999
 21
41.00000000000001
 31
0.0
  0
LINE
  5
A4B3
330
A47F
100
AcDbEntity
  8
0
100
AcDbLine
 10
-21.0
 20
73.99999999999998
 30
0.0
 11
-19.0
 21
73.99999999999998
 31
0.0
  0
LINE
  5
A4B4
330
A47F
100
AcDbEntity
  8
0
100
AcDbLine
 10
-20.99999999999999
 20
41.00000000000001
 30
0.0
 11
-21.0
 21
73.99999999999998
 31
0.0
  0
LINE
  5
A4B5
330
A47F
100
AcDbEntity
  8
0
100
AcDbLine
 10
-18.99999999999999
 20
41.00000000000001
 30
0.0
 11
-20.99999999999999
 21
41.00000000000001
 31
0.0
  0
LINE
  5
A4B6
330
A47F
100
AcDbEntity
  8
0
100
AcDbLine
 10
-19.0
 20
201.0
 30
0.0
 11
-19.0
 21
73.99999999999998
 31
0.0
  0
LINE
  5
A4B7
330
A47F
100
AcDbEntity
  8
0
100
AcDbLine
 10
-21.0
 20
201.0
 30
0.0
 11
-19.0
 21
201.0
 31
0.0
  0
LINE
  5
A4B8
330
A47F
100
AcDbEntity
  8
0
100
AcDbLine
 10
-21.0
 20
73.99999999999998
 30
0.0
 11
-21.0
 21
201.0
 31
0.0
  0
CIRCLE
  5
A4B9
330
A47F
100
AcDbEntity
  8
0
100
AcDbCircle
 10
-41.0
 20
81.00000000000001
 30
0.0
 40
6.5
  0
CIRCLE
  5
A4BA
330
A47F
100
AcDbEntity
  8
0
100
AcDbCircle
 10
41.0
 20
81.00000000000001
 30
0.0
 40
6.5
  0
CIRCLE
  5
A4BB
330
A47F
100
AcDbEntity
  8
0
100
AcDbCircle
 10
-41.0
 20
181.0
 30
0.0
 40
6.5
  0
CIRCLE
  5
A4BC
330
A47F
100
AcDbEntity
  8
0
100
AcDbCircle
 10
-30.0
 20
66.00000000000001
 30
0.0
 40
2.5
  0
CIRCLE
  5
A4BD
330
A47F
100
AcDbEntity
  8
0
100
AcDbCircle
 10
-30.0
 20
86.00000000000001
 30
0.0
 40
2.5
  0
CIRCLE
  5
A4BE
330
A47F
100
AcDbEntity
  8
0
100
AcDbCircle
 10
-30.0
 20
106.0
 30
0.0
 40
2.5
  0
CIRCLE
  5
A4BF
330
A47F
100
AcDbEntity
  8
0
100
AcDbCircle
 10
-30.0
 20
126.0
 30
0.0
 40
2.5
  0
CIRCLE
  5
A4C0
330
A47F
100
AcDbEntity
  8
0
100
AcDbCircle
 10
-30.0
 20
146.0
 30
0.0
 40
2.5
  0
CIRCLE
  5
A4C1
330
A47F
100
AcDbEntity
  8
0
100
AcDbCircle
 10
-30.0
 20
166.0
 30
0.0
 40
2.5
  0
CIRCLE
  5
A4C2
330
A47F
100
AcDbEntity
  8
0
100
AcDbCircle
 10
30.0
 20
66.00000000000001
 30
0.0
 40
2.5
  0
CIRCLE
  5
A4C3
330
A47F
100
AcDbEntity
  8
0
100
AcDbCircle
 10
30.0
 20
86.00000000000001
 30
0.0
 40
2.5
  0
CIRCLE
  5
A4C4
330
A47F
100
AcDbEntity
  8
0
100
AcDbCircle
 10
30.0
 20
106.0
 30
0.0
 40
2.5
  0
CIRCLE
  5
A4C5
330
A47F
100
AcDbEntity
  8
0
100
AcDbCircle
 10
30.0
 20
126.0
 30
0.0
 40
2.5
  0
CIRCLE
  5
A4C6
330
A47F
100
AcDbEntity
  8
0
100
AcDbCircle
 10
30.0
 20
146.0
 30
0.0
 40
2.5
  0
CIRCLE
  5
A4C7
330
A47F
100
AcDbEntity
  8
0
100
AcDbCircle
 10
30.0
 20
166.0
 30
0.0
 40
2.5
  0
CIRCLE
  5
A4C8
330
A47F
100
AcDbEntity
  8
0
100
AcDbCircle
 10
-30.0
 20
186.0
 30
0.0
 40
2.5
  0
CIRCLE
  5
A4C9
330
A47F
100
AcDbEntity
  8
0
100
AcDbCircle
 10
30.0
 20
186.0
 30
0.0
 40
2.5
  0
CIRCLE
  5
A4CA
330
A47F
100
AcDbEntity
  8
0
100
AcDbCircle
 10
-52.00000000000001
 20
76.00000000000001
 30
0.0
 40
2.5
  0
CIRCLE
  5
A4CB
330
A47F
100
AcDbEntity
  8
0
100
AcDbCircle
 10
-52.00000000000001
 20
96.00000000000001
 30
0.0
 40
2.5
  0
CIRCLE
  5
A4CC
330
A47F
100
AcDbEntity
  8
0
100
AcDbCircle
 10
-52.00000000000001
 20
116.0
 30
0.0
 40
2.5
  0
CIRCLE
  5
A4CD
330
A47F
100
AcDbEntity
  8
0
100
AcDbCircle
 10
-52.00000000000001
 20
136.0
 30
0.0
 40
2.5
  0
CIRCLE
  5
A4CE
330
A47F
100
AcDbEntity
  8
0
100
AcDbCircle
 10
-52.00000000000001
 20
156.0
 30
0.0
 40
2.5
  0
CIRCLE
  5
A4CF
330
A47F
100
AcDbEntity
  8
0
100
AcDbCircle
 10
-52.00000000000001
 20
176.0
 30
0.0
 40
2.5
  0
CIRCLE
  5
A4D0
330
A47F
100
AcDbEntity
  8
0
100
AcDbCircle
 10
52.00000000000001
 20
76.00000000000001
 30
0.0
 40
2.5
  0
CIRCLE
  5
A4D1
330
A47F
100
AcDbEntity
  8
0
100
AcDbCircle
 10
52.00000000000001
 20
96.00000000000001
 30
0.0
 40
2.5
  0
CIRCLE
  5
A4D2
330
A47F
100
AcDbEntity
  8
0
100
AcDbCircle
 10
52.00000000000001
 20
116.0
 30
0.0
 40
2.5
  0
CIRCLE
  5
A4D3
330
A47F
100
AcDbEntity
  8
0
100
AcDbCircle
 10
52.00000000000001
 20
136.0
 30
0.0
 40
2.5
  0
CIRCLE
  5
A4D4
330
A47F
100
AcDbEntity
  8
0
100
AcDbCircle
 10
52.00000000000001
 20
156.0
 30
0.0
 40
2.5
  0
CIRCLE
  5
A4D5
330
A47F
100
AcDbEntity
  8
0
100
AcDbCircle
 10
52.00000000000001
 20
176.0
 30
0.0
 40
2.5
  0
CIRCLE
  5
A4D6
330
A47F
100
AcDbEntity
  8
0
100
AcDbCircle
 10
-52.00000000000001
 20
196.0
 30
0.0
 40
2.5
  0
LINE
  5
A4D7
330
A47F
100
AcDbEntity
  8
0
100
AcDbLine
 10
-60.5
 20
201.0
 30
0.0
 11
-22.99999999999999
 21
201.0
 31
0.0
  0
LINE
  5
A4D8
330
A47F
100
AcDbEntity
  8
0
100
AcDbLine
 10
-60.50000000000006
 20
73.99999999999998
 30
0.0
 11
-60.5
 21
201.0
 31
0.0
  0
LINE
  5
A4D9
330
A47F
100
AcDbEntity
  8
0
100
AcDbLine
 10
-18.99999999999998
 20
2.0
 30
0.0
 11
-18.99999999999999
 21
41.00000000000001
 31
0.0
  0
LINE
  5
A4DA
330
A47F
100
AcDbEntity
  8
0
100
AcDbLine
 10
-20.99999999999999
 20
41.00000000000001
 30
0.0
 11
-20.99999999999999
 21
2.000000000000001
 31
0.0
  0
LINE
  5
A4DB
330
A47F
100
AcDbEntity
  8
0
100
AcDbLine
 10
-22.99999999999999
 20
201.0
 30
0.0
 11
-21.00000000000001
 21
201.0
 31
0.0
  0
ENDBLK
  5
A481
330
A47F
100
AcDbEntity
  8
0
100
AcDbBlockEnd
  0
BLOCK
  5
A4DD
330
A4DC
100
AcDbEntity
  8
0
100
AcDbBlockBegin
  2
SAE440_38_2-Left
 70
     0
 10
0.0
 20
0.0
 30
0.0
  3
SAE440_38_2-Left
  1

  0
LINE
  5
A4DF
330
A4DC
100
AcDbEntity
  8
0
100
AcDbLine
 10
2.000000000000003
 20
-2.0
 30
0.0
 11
86.0
 21
-2.0
 31
0.0
  0
LINE
  5
A4E0
330
A4DC
100
AcDbEntity
  8
0
100
AcDbLine
 10
2.000000000000011
 20
2.000000000000004
 30
0.0
 11
2.000000000000003
 21
-1.999999999999999
 31
0.0
  0
LINE
  5
A4E1
330
A4DC
100
AcDbEntity
  8
0
100
AcDbLine
 10
86.0
 20
-2.0
 30
0.0
 11
86.0
 21
2.0
 31
0.0
  0
SPLINE
  5
A4E2
330
A4DC
100
AcDbEntity
  8
0
100
AcDbSpline
210
0.0
220
0.0
230
1.0
 70
     8
 71
     3
 72
    14
 73
    10
 74
     0
 42
0.000000001
 43
0.0000000001
 40
-0.4813026532993914
 40
-0.4813026532993914
 40
-0.4813026532993914
 40
-0.4813026532993914
 40
-0.3760960080944062
 40
-0.3760960080944062
 40
-0.3760960080944062
 40
-0.0765284972629388
 40
-0.0765284972629388
 40
-0.0765284972629388
 40
0.0
 40
0.0
 40
0.0
 40
0.0
 10
0.9454120927515063
 20
42.73176011522281
 30
0.0
 10
0.8408297879969135
 20
42.76867618608283
 30
0.0
 10
0.7371129357485096
 20
42.80054090483446
 30
0.0
 10
0.6388614064253991
 20
42.83423666321632
 30
0.0
 10
0.3590980319982248
 20
42.93018264119485
 30
0.0
 10
0.1217220476483994
 20
43.04001612968535
 30
0.0
 10
0.0342615816102574
 20
43.31443386957167
 30
0.0
 10
0.0119186445633197
 20
43.38453752399502
 30
0.0
 10
0.0000045452574097
 20
43.46769665104996
 30
0.0
 10
0.0000000001152119
 20
43.56250000004014
 30
0.0
  0
LINE
  5
A4E3
330
A4DC
100
AcDbEntity
  8
0
100
AcDbLine
 10
2.000000000000012
 20
43.56250000000002
 30
0.0
 11
2.001382055220175
 21
43.56250000000002
 31
0.0
  0
SPLINE
  5
A4E4
330
A4DC
100
AcDbEntity
  8
0
100
AcDbSpline
210
0.0
220
0.0
230
1.0
 70
     8
 71
     3
 72
    14
 73
    10
 74
     0
 42
0.000000001
 43
0.0000000001
 40
0.0
 40
0.0
 40
0.0
 40
0.0
 40
0.3435149368874788
 40
0.3435149368874788
 40
0.3435149368874788
 40
0.7569946177387534
 40
0.7569946177387534
 40
0.7569946177387534
 40
1.0
 40
1.0
 40
1.0
 40
1.0
 10
2.000000000000007
 20
43.56250000000004
 30
0.0
 10
2.000036879631394
 20
43.30249636930969
 30
0.0
 10
1.99683416707487
 20
43.07529402125808
 30
0.0
 10
1.998676128321987
 20
42.84408179461647
 30
0.0
 10
2.000893247482799
 20
42.56577786248789
 30
0.0
 10
2.001072402909466
 20
42.27139780303414
 30
0.0
 10
2.001124325805013
 20
41.85792703991809
 30
0.0
 10
2.001154841314395
 20
41.61492689868261
 30
0.0
 10
2.000250547668279
 20
41.3582272219072
 30
0.0
 10
1.999999999992472
 20
41.00000000165238
 30
0.0
  0
LINE
  5
A4E5
330
A4DC
100
AcDbEntity
  8
0
100
AcDbLine
 10
0.0
 20
43.56250000000002
 30
0.0
 11
2.000000000000013
 21
43.56250000000002
 31
0.0
  0
SPLINE
  5
A4E6
330
A4DC
100
AcDbEntity
  8
0
100
AcDbSpline
210
0.0
220
0.0
230
1.0
 70
     8
 71
     3
 72
    18
 73
    14
 74
     0
 42
0.000000001
 43
0.0000000001
 40
0.0
 40
0.0
 40
0.0
 40
0.0
 40
0.0045852970588004
 40
0.0045852970588004
 40
0.006540084252197
 40
0.006540084252197
 40
0.0081563837474048
 40
0.0081563837474048
 40
0.0096016091891434
 40
0.0096016091891434
 40
0.0108226894121671
 40
0.0108226894121671
 40
0.0118646463040336
 40
0.0118646463040336
 40
0.0118646463040336
 40
0.0118646463040336
 10
1.999557272916847
 20
40.99999849441626
 30
0.0
 10
1.999513512481314
 20
41.01475837640355
 30
0.0
 10
1.999424163707886
 20
41.02919075200438
 30
0.0
 10
1.999253402761381
 20
41.04675570001554
 30
0.0
 10
1.999196850516301
 20
41.05166987406635
 30
0.0
 10
1.999091149929581
 20
41.05972733083253
 30
0.0
 10
1.999042050576861
 20
41.06305924746794
 30
0.0
 10
1.998954621983187
 20
41.068519131815
 30
0.0
 10
1.998915397065287
 20
41.07075700162899
 30
0.0
 10
1.998855183922957
 20
41.07401363506576
 30
0.0
 10
1.998832157108736
 20
41.075177814104
 30
0.0
 10
1.99880397382226
 20
41.07656460255451
 30
0.0
 10
1.99879657275535
 20
41.07690723965684
 30
0.0
 10
1.998796572807139
 20
41.07690723725432
 30
0.0
  0
SPLINE
  5
A4E7
330
A4DC
100
AcDbEntity
  8
0
100
AcDbSpline
210
0.0
220
0.0
230
1.0
 70
     8
 71
     3
 72
    10
 73
     6
 74
     0
 42
0.000000001
 43
0.0000000001
 40
0.0052676618461563
 40
0.0052676618461563
 40
0.0052676618461563
 40
0.0052676618461563
 40
0.0058868978021697
 40
0.0058868978021697
 40
0.0081855527211137
 40
0.0081855527211137
 40
0.0081855527211137
 40
0.0081855527211137
 10
1.999414228066311
 20
41.02852502901298
 30
0.0
 10
1.999398483572483
 20
41.029218040763
 30
0.0
 10
1.999384018194616
 20
41.02984412926817
 30
0.0
 10
1.999322897808057
 20
41.03245947193642
 30
0.0
 10
1.999295499695618
 20
41.0335469265071
 30
0.0
 10
1.9992954997499
 20
41.03354692432436
 30
0.0
  0
SPLINE
  5
A4E8
330
A4DC
100
AcDbEntity
  8
0
100
AcDbSpline
210
0.0
220
0.0
230
1.0
 70
     8
 71
     3
 72
    32
 73
    28
 74
     0
 42
0.000000001
 43
0.0000000001
 40
0.0045473817560063
 40
0.0045473817560063
 40
0.0045473817560063
 40
0.0045473817560063
 40
0.005269739451217
 40
0.005269739451217
 40
0.0092354521582734
 40
0.0092354521582734
 40
0.0117315605956768
 40
0.0117315605956768
 40
0.0138523606556517
 40
0.0138523606556517
 40
0.0172611518196264
 40
0.0172611518196264
 40
0.0261321721592851
 40
0.0261321721592851
 40
0.0527623632730034
 40
0.0527623632730034
 40
0.0889482843534675
 40
0.0889482843534675
 40
0.1145384726793623
 40
0.1145384726793623
 40
0.1518181078234373
 40
0.1518181078234373
 40
0.1853167196208192
 40
0.1853167196208192
 40
0.2269370649034671
 40
0.2269370649034671
 40
0.2446335212387164
 40
0.2446335212387164
 40
0.2446335212387164
 40
0.2446335212387164
 10
1.999453047720117
 20
41.02279542166043
 30
0.0
 10
1.999422986252683
 20
41.02392487578137
 30
0.0
 10
1.999392437857896
 20
41.02505295134139
 30
0.0
 10
1.999189551837883
 20
41.03241745835031
 30
0.0
 10
1.999004120057939
 20
41.03875904542916
 30
0.0
 10
1.998515703046831
 20
41.05335128826182
 30
0.0
 10
1.998269373630684
 20
41.06029190088391
 30
0.0
 10
1.997729630222839
 20
41.07412658022659
 30
0.0
 10
1.997447670583463
 20
41.08090569227907
 30
0.0
 10
1.996652403146474
 20
41.09873068229924
 30
0.0
 10
1.996098018346793
 20
41.10998894829346
 30
0.0
 10
1.993900550894557
 20
41.15050913406507
 30
0.0
 10
1.991925809180122
 20
41.17997136492015
 30
0.0
 10
1.982426632316132
 20
41.29742876708736
 30
0.0
 10
1.971735199830099
 20
41.38490573329399
 30
0.0
 10
1.9361083820471
 20
41.58974235215987
 30
0.0
 10
1.907051220090736
 20
41.70804920292794
 30
0.0
 10
1.838871183884503
 20
41.90223815576289
 30
0.0
 10
1.80483418875797
 20
41.98109086046733
 30
0.0
 10
1.708090538562569
 20
42.16249453374517
 30
0.0
 10
1.637669278998485
 20
42.26126687689103
 30
0.0
 10
1.493722582740637
 20
42.41704852794207
 30
0.0
 10
1.420228718898047
 20
42.47927423012466
 30
0.0
 10
1.254517310917492
 20
42.59488639179718
 30
0.0
 10
1.160200334043746
 20
42.64438618787379
 30
0.0
 10
1.024260897466835
 20
42.70235777429376
 30
0.0
 10
0.9834047208457272
 20
42.71807338397155
 30
0.0
 10
0.9420912521224098
 20
42.73259712964042
 30
0.0
  0
LINE
  5
A4E9
330
A4DC
100
AcDbEntity
  8
0
100
AcDbLine
 10
2.000000000000011
 20
2.000000000000003
 30
0.0
 11
2.000000000000011
 21
41.00000000000001
 31
0.0
  0
LINE
  5
A4EA
330
A4DC
100
AcDbEntity
  8
0
100
AcDbLine
 10
2.000000000000001
 20
73.99999999999998
 30
0.0
 11
2.000000000000013
 21
43.56250000000002
 31
0.0
  0
LINE
  5
A4EB
330
A4DC
100
AcDbEntity
  8
0
100
AcDbLine
 10
0.0
 20
73.99999999999998
 30
0.0
 11
2.000000000000001
 21
73.99999999999998
 31
0.0
  0
LINE
  5
A4EC
330
A4DC
100
AcDbEntity
  8
0
100
AcDbLine
 10
0.0
 20
43.56250000000002
 30
0.0
 11
0.0
 21
73.99999999999998
 31
0.0
  0
LINE
  5
A4ED
330
A4DC
100
AcDbEntity
  8
0
100
AcDbLine
 10
86.00000000000003
 20
41.00000000000001
 30
0.0
 11
46.00000000000002
 21
73.99999999999998
 31
0.0
  0
LINE
  5
A4EE
330
A4DC
100
AcDbEntity
  8
0
100
AcDbLine
 10
46.00000000000002
 20
73.99999999999998
 30
0.0
 11
46.0
 21
201.0
 31
0.0
  0
LINE
  5
A4EF
330
A4DC
100
AcDbEntity
  8
0
100
AcDbLine
 10
2.000000000000001
 20
73.99999999999998
 30
0.0
 11
2.00000000000001
 21
201.0
 31
0.0
  0
LINE
  5
A4F0
330
A4DC
100
AcDbEntity
  8
0
100
AcDbLine
 10
86.00000000000003
 20
41.00000000000001
 30
0.0
 11
86.0
 21
2.000000000000001
 31
0.0
  0
LINE
  5
A4F1
330
A4DC
100
AcDbEntity
  8
0
100
AcDbLine
 10
4.000000000000003
 20
201.0
 30
0.0
 11
46.0
 21
201.0
 31
0.0
  0
LINE
  5
A4F2
330
A4DC
100
AcDbEntity
  8
0
100
AcDbLine
 10
0.0
 20
201.0
 30
0.0
 11
2.00000000000001
 21
201.0
 31
0.0
  0
LINE
  5
A4F3
330
A4DC
100
AcDbEntity
  8
0
100
AcDbLine
 10
0.0
 20
73.99999999999998
 30
0.0
 11
0.0
 21
201.0
 31
0.0
  0
LINE
  5
A4F4
330
A4DC
100
AcDbEntity
  8
0
100
AcDbLine
 10
2.000000000000007
 20
201.0
 30
0.0
 11
4.000000000000003
 21
201.0
 31
0.0
  0
CIRCLE
  5
A4F5
330
A4DC
100
AcDbEntity
  8
0
100
AcDbCircle
 10
38.49999999999999
 20
56.00000000000001
 30
0.0
 40
2.5
  0
CIRCLE
  5
A4F6
330
A4DC
100
AcDbEntity
  8
0
100
AcDbCircle
 10
38.49999999999999
 20
76.00000000000001
 30
0.0
 40
2.5
  0
CIRCLE
  5
A4F7
330
A4DC
100
AcDbEntity
  8
0
100
AcDbCircle
 10
38.49999999999999
 20
96.00000000000001
 30
0.0
 40
2.5
  0
CIRCLE
  5
A4F8
330
A4DC
100
AcDbEntity
  8
0
100
AcDbCircle
 10
38.49999999999999
 20
116.0
 30
0.0
 40
2.5
  0
CIRCLE
  5
A4F9
330
A4DC
100
AcDbEntity
  8
0
100
AcDbCircle
 10
38.49999999999999
 20
136.0
 30
0.0
 40
2.5
  0
CIRCLE
  5
A4FA
330
A4DC
100
AcDbEntity
  8
0
100
AcDbCircle
 10
38.49999999999999
 20
156.0
 30
0.0
 40
2.5
  0
CIRCLE
  5
A4FB
330
A4DC
100
AcDbEntity
  8
0
100
AcDbCircle
 10
38.49999999999999
 20
176.0
 30
0.0
 40
2.5
  0
CIRCLE
  5
A4FC
330
A4DC
100
AcDbEntity
  8
0
100
AcDbCircle
 10
38.49999999999999
 20
196.0
 30
0.0
 40
2.5
  0
SPLINE
  5
A4FD
330
A4DC
100
AcDbEntity
  8
0
100
AcDbSpline
210
0.0
220
0.0
230
1.0
 70
     8
 71
     3
 72
     8
 73
     4
 74
     0
 42
0.000000001
 43
0.0000000001
 40
0.0
 40
0.0
 40
0.0
 40
0.0
 40
0.0024158828172303
 40
0.0024158828172303
 40
0.0024158828172303
 40
0.0024158828172303
 10
1.999557272916847
 20
40.99999849441626
 30
0.0
 10
1.999534216595103
 20
41.00777512149629
 30
0.0
 10
1.99949921424135
 20
41.01546438923299
 30
0.0
 10
1.999453047720118
 20
41.02279542166039
 30
0.0
  0
ENDBLK
  5
A4DE
330
A4DC
100
AcDbEntity
  8
0
100
AcDbBlockEnd
  0
BLOCK
  5
A4FF
330
A4FE
100
AcDbEntity
  8
0
100
AcDbBlockBegin
  2
SAE440_38_2-Right
 70
     0
 10
0.0
 20
0.0
 30
0.0
  3
SAE440_38_2-Right
  1

  0
SPLINE
  5
A501
330
A4FE
100
AcDbEntity
  8
0
100
AcDbSpline
210
0.0
220
0.0
230
1.0
 70
     8
 71
     3
 72
    14
 73
    10
 74
     0
 42
0.000000001
 43
0.0000000001
 40
0.0
 40
0.0
 40
0.0
 40
0.0
 40
0.3435149368874788
 40
0.3435149368874788
 40
0.3435149368874788
 40
0.7569946177387534
 40
0.7569946177387534
 40
0.7569946177387534
 40
1.0
 40
1.0
 40
1.0
 40
1.0
 10
-2.000000000000007
 20
43.56250000000004
 30
0.0
 10
-2.000036879631394
 20
43.30249636930969
 30
0.0
 10
-1.99683416707487
 20
43.07529402125808
 30
0.0
 10
-1.998676128321987
 20
42.84408179461647
 30
0.0
 10
-2.000893247482799
 20
42.56577786248789
 30
0.0
 10
-2.001072402909466
 20
42.27139780303414
 30
0.0
 10
-2.001124325805013
 20
41.85792703991809
 30
0.0
 10
-2.001154841314395
 20
41.61492689868261
 30
0.0
 10
-2.000250547668279
 20
41.3582272219072
 30
0.0
 10
-1.999999999992472
 20
41.00000000165238
 30
0.0
  0
LINE
  5
A502
330
A4FE
100
AcDbEntity
  8
0
100
AcDbLine
 10
-2.001382055220175
 20
43.56250000000002
 30
0.0
 11
-2.000000000000011
 21
43.56250000000002
 31
0.0
  0
SPLINE
  5
A503
330
A4FE
100
AcDbEntity
  8
0
100
AcDbSpline
210
0.0
220
0.0
230
1.0
 70
     8
 71
     3
 72
    14
 73
    10
 74
     0
 42
0.000000001
 43
0.0000000001
 40
-0.4813026532994035
 40
-0.4813026532994035
 40
-0.4813026532994035
 40
-0.4813026532994035
 40
-0.3760960080944062
 40
-0.3760960080944062
 40
-0.3760960080944062
 40
-0.0765284972629388
 40
-0.0765284972629388
 40
-0.0765284972629388
 40
0.0
 40
0.0
 40
0.0
 40
0.0
 10
-0.9454120927515424
 20
42.7317601152228
 30
0.0
 10
-0.8408297879969371
 20
42.76867618608282
 30
0.0
 10
-0.7371129357485208
 20
42.80054090483446
 30
0.0
 10
-0.6388614064253991
 20
42.83423666321632
 30
0.0
 10
-0.3590980319982248
 20
42.93018264119485
 30
0.0
 10
-0.1217220476483994
 20
43.04001612968535
 30
0.0
 10
-0.0342615816102574
 20
43.31443386957167
 30
0.0
 10
-0.0119186445633197
 20
43.38453752399502
 30
0.0
 10
-0.0000045452574097
 20
43.46769665104996
 30
0.0
 10
-0.0000000001152119
 20
43.56250000004014
 30
0.0
  0
LINE
  5
A504
330
A4FE
100
AcDbEntity
  8
0
100
AcDbLine
 10
-2.000000000000013
 20
43.56250000000002
 30
0.0
 11
0.0
 21
43.56250000000002
 31
0.0
  0
SPLINE
  5
A505
330
A4FE
100
AcDbEntity
  8
0
100
AcDbSpline
210
0.0
220
0.0
230
1.0
 70
     8
 71
     3
 72
    16
 73
    12
 74
     0
 42
0.000000001
 43
0.0000000001
 40
0.0119734590531097
 40
0.0119734590531097
 40
0.0119734590531097
 40
0.0119734590531097
 40
0.013206010567969
 40
0.013206010567969
 40
0.0147875485937582
 40
0.0147875485937582
 40
0.0179851231652337
 40
0.0179851231652337
 40
0.0208164923306804
 40
0.0208164923306804
 40
0.0238392903318752
 40
0.0238392903318752
 40
0.0238392903318752
 40
0.0238392903318752
 10
-1.998796572807084
 20
41.07690723725695
 30
0.0
 10
-1.99879657280449
 20
41.07690723737731
 30
0.0
 10
-1.998806859808876
 20
41.07643140310741
 30
0.0
 10
-1.9988472287516
 20
41.07441930802626
 30
0.0
 10
-1.998882256899047
 20
41.07260732534856
 30
0.0
 10
-1.999004373873123
 20
41.06565815130429
 30
0.0
 10
-1.999108337846625
 20
41.0589140248674
 30
0.0
 10
-1.999281967769336
 20
41.0442966859221
 30
0.0
 10
-1.99935729464549
 20
41.03644011291986
 30
0.0
 10
-1.999480931971499
 20
41.01925573225783
 30
0.0
 10
-1.999528424413606
 20
41.00972875642476
 30
0.0
 10
-1.999557272916846
 20
40.99999849441624
 30
0.0
  0
SPLINE
  5
A506
330
A4FE
100
AcDbEntity
  8
0
100
AcDbSpline
210
0.0
220
0.0
230
1.0
 70
     8
 71
     3
 72
    10
 73
     6
 74
     0
 42
0.000000001
 43
0.0000000001
 40
0.0087021369197451
 40
0.0087021369197451
 40
0.0087021369197451
 40
0.0087021369197451
 40
0.0090037601850646
 40
0.0090037601850646
 40
0.0116230169564766
 40
0.0116230169564766
 40
0.0116230169564766
 40
0.0116230169564766
 10
-1.999295499749875
 20
41.03354692432538
 30
0.0
 10
-1.999295499750059
 20
41.03354692431801
 30
0.0
 10
-1.999295947093557
 20
41.03352894117825
 30
0.0
 10
-1.99930455796759
 20
41.03318120920266
 30
0.0
 10
-1.999347677322074
 20
41.03145433548885
 30
0.0
 10
-1.999414228066276
 20
41.02852502901466
 30
0.0
  0
SPLINE
  5
A507
330
A4FE
100
AcDbEntity
  8
0
100
AcDbSpline
210
0.0
220
0.0
230
1.0
 70
     8
 71
     3
 72
    28
 73
    24
 74
     0
 42
0.000000001
 43
0.0000000001
 40
0.0
 40
0.0
 40
0.0
 40
0.0
 40
0.0650016965074058
 40
0.0650016965074058
 40
0.1023228294596924
 40
0.1023228294596924
 40
0.141474732670197
 40
0.141474732670197
 40
0.1748987385442787
 40
0.1748987385442787
 40
0.2169239990958078
 40
0.2169239990958078
 40
0.2285779847230693
 40
0.2285779847230693
 40
0.2316609564765438
 40
0.2316609564765438
 40
0.2332824405369577
 40
0.2332824405369577
 40
0.2349101251805811
 40
0.2349101251805811
 40
0.2381878335667263
 40
0.2381878335667263
 40
0.2398272656798133
 40
0.2398272656798133
 40
0.2398272656798133
 40
0.2398272656798133
 10
-0.9420912521224405
 20
42.7325971296404
 30
0.0
 10
-1.093841721524142
 20
42.67924926777279
 30
0.0
 10
-1.242353898732176
 20
42.60988799342485
 30
0.0
 10
-1.46645177101103
 20
42.44171617371359
 30
0.0
 10
-1.547407943204159
 20
42.3659414611038
 30
0.0
 10
-1.695446554661587
 20
42.18241413825291
 30
0.0
 10
-1.763061289549841
 20
42.07040741116407
 30
0.0
 10
-1.860492149632822
 20
41.85077461309913
 30
0.0
 10
-1.895809632775628
 20
41.74321521029352
 30
0.0
 10
-1.955911122106726
 20
41.49956902553344
 30
0.0
 10
-1.976606287622233
 20
41.36174326036937
 30
0.0
 10
-1.991714435017654
 20
41.18425647526102
 30
0.0
 10
-1.99430485325765
 20
41.14540325142229
 30
0.0
 10
-1.996731630421685
 20
41.0970112992206
 30
0.0
 10
-1.997194385968789
 20
41.08687585468402
 30
0.0
 10
-1.997809801448605
 20
41.0720979047348
 30
0.0
 10
-1.998006434209484
 20
41.06710670101816
 30
0.0
 10
-1.998355889826798
 20
41.05779769262173
 30
0.0
 10
-1.998509836621878
 20
41.0534515349551
 30
0.0
 10
-1.998902086468662
 20
41.04191342961436
 30
0.0
 10
-1.99907818331719
 20
41.03610937895843
 30
0.0
 10
-1.999308026766872
 20
41.02813339135955
 30
0.0
 10
-1.999381849971076
 20
41.02547250047979
 30
0.0
 10
-1.999452958575247
 20
41.02280293713529
 30
0.0
  0
LINE
  5
A508
330
A4FE
100
AcDbEntity
  8
0
100
AcDbLine
 10
-2.000000000000003
 20
-2.0
 30
0.0
 11
-86.0
 21
-2.0
 31
0.0
  0
LINE
  5
A509
330
A4FE
100
AcDbEntity
  8
0
100
AcDbLine
 10
-2.000000000000011
 20
2.000000000000003
 30
0.0
 11
-2.000000000000011
 21
41.00000000000001
 31
0.0
  0
LINE
  5
A50A
330
A4FE
100
AcDbEntity
  8
0
100
AcDbLine
 10
-2.000000000000011
 20
2.000000000000004
 30
0.0
 11
-2.000000000000003
 21
-1.999999999999999
 31
0.0
  0
LINE
  5
A50B
330
A4FE
100
AcDbEntity
  8
0
100
AcDbLine
 10
-86.0
 20
-2.0
 30
0.0
 11
-86.0
 21
2.0
 31
0.0
  0
LINE
  5
A50C
330
A4FE
100
AcDbEntity
  8
0
100
AcDbLine
 10
0.0
 20
73.99999999999998
 30
0.0
 11
0.0
 21
43.56250000000002
 31
0.0
  0
LINE
  5
A50D
330
A4FE
100
AcDbEntity
  8
0
100
AcDbLine
 10
-2.000000000000001
 20
73.99999999999998
 30
0.0
 11
0.0
 21
73.99999999999998
 31
0.0
  0
LINE
  5
A50E
330
A4FE
100
AcDbEntity
  8
0
100
AcDbLine
 10
-2.000000000000013
 20
43.56250000000002
 30
0.0
 11
-2.000000000000001
 21
73.99999999999998
 31
0.0
  0
LINE
  5
A50F
330
A4FE
100
AcDbEntity
  8
0
100
AcDbLine
 10
0.0
 20
73.99999999999998
 30
0.0
 11
0.0
 21
201.0
 31
0.0
  0
CIRCLE
  5
A510
330
A4FE
100
AcDbEntity
  8
0
100
AcDbCircle
 10
-38.50000000000001
 20
186.0
 30
0.0
 40
2.5
  0
LINE
  5
A511
330
A4FE
100
AcDbEntity
  8
0
100
AcDbLine
 10
-46.00000000000002
 20
73.99999999999998
 30
0.0
 11
-86.00000000000003
 21
41.00000000000001
 31
0.0
  0
LINE
  5
A512
330
A4FE
100
AcDbEntity
  8
0
100
AcDbLine
 10
-46.0
 20
201.0
 30
0.0
 11
-46.00000000000002
 21
73.99999999999998
 31
0.0
  0
LINE
  5
A513
330
A4FE
100
AcDbEntity
  8
0
100
AcDbLine
 10
-86.00000000000003
 20
41.00000000000001
 30
0.0
 11
-86.0
 21
2.000000000000001
 31
0.0
  0
LINE
  5
A514
330
A4FE
100
AcDbEntity
  8
0
100
AcDbLine
 10
-4.000000000000003
 20
201.0
 30
0.0
 11
-46.0
 21
201.0
 31
0.0
  0
LINE
  5
A515
330
A4FE
100
AcDbEntity
  8
0
100
AcDbLine
 10
-2.000000000000007
 20
201.0
 30
0.0
 11
-4.000000000000003
 21
201.0
 31
0.0
  0
LINE
  5
A516
330
A4FE
100
AcDbEntity
  8
0
100
AcDbLine
 10
0.0
 20
201.0
 30
0.0
 11
-2.00000000000001
 21
201.0
 31
0.0
  0
LINE
  5
A517
330
A4FE
100
AcDbEntity
  8
0
100
AcDbLine
 10
-2.000000000000001
 20
73.99999999999998
 30
0.0
 11
-2.00000000000001
 21
201.0
 31
0.0
  0
CIRCLE
  5
A518
330
A4FE
100
AcDbEntity
  8
0
100
AcDbCircle
 10
-38.50000000000001
 20
66.00000000000001
 30
0.0
 40
2.5
  0
CIRCLE
  5
A519
330
A4FE
100
AcDbEntity
  8
0
100
AcDbCircle
 10
-38.50000000000001
 20
86.00000000000001
 30
0.0
 40
2.5
  0
CIRCLE
  5
A51A
330
A4FE
100
AcDbEntity
  8
0
100
AcDbCircle
 10
-38.50000000000001
 20
106.0
 30
0.0
 40
2.5
  0
CIRCLE
  5
A51B
330
A4FE
100
AcDbEntity
  8
0
100
AcDbCircle
 10
-38.50000000000001
 20
126.0
 30
0.0
 40
2.5
  0
CIRCLE
  5
A51C
330
A4FE
100
AcDbEntity
  8
0
100
AcDbCircle
 10
-38.50000000000001
 20
146.0
 30
0.0
 40
2.5
  0
CIRCLE
  5
A51D
330
A4FE
100
AcDbEntity
  8
0
100
AcDbCircle
 10
-38.50000000000001
 20
166.0
 30
0.0
 40
2.5
  0
SPLINE
  5
A51E
330
A4FE
100
AcDbEntity
  8
0
100
AcDbSpline
210
0.0
220
0.0
230
1.0
 70
     8
 71
     3
 72
     8
 73
     4
 74
     0
 42
0.000000001
 43
0.0000000001
 40
0.0214130046568704
 40
0.0214130046568704
 40
0.0214130046568704
 40
0.0214130046568704
 40
0.0238392903318752
 40
0.0238392903318752
 40
0.0238392903318752
 40
0.0238392903318752
 10
-1.999452958575248
 20
41.02280293713518
 30
0.0
 10
-1.999498950043996
 20
41.01548775082341
 30
0.0
 10
-1.999534117313948
 20
41.0078086078661
 30
0.0
 10
-1.999557272916846
 20
40.99999849441624
 30
0.0
  0
ENDBLK
  5
A500
330
A4FE
100
AcDbEntity
  8
0
100
AcDbBlockEnd
  0
BLOCK
  5
A520
330
A51F
100
AcDbEntity
  8
0
100
AcDbBlockBegin
  2
SAE440_38_2-Top
 70
     0
 10
0.0
 20
0.0
 30
0.0
  3
SAE440_38_2-Top
  1

  0
LINE
  5
A522
330
A51F
100
AcDbEntity
  8
0
100
AcDbLine
 10
19.00000000000001
 20
-2.000000000000007
 30
0.0
 11
19.00000000000001
 21
-2.070206720554806
 31
0.0
  0
SPLINE
  5
A523
330
A51F
100
AcDbEntity
  8
0
100
AcDbSpline
210
0.0
220
0.0
230
1.0
 70
     8
 71
     3
 72
    11
 73
     7
 74
     0
 42
0.000000001
 43
0.0000000001
 40
-1.0
 40
-1.0
 40
-1.0
 40
-1.0
 40
-0.7994286890709797
 40
-0.7994286890709797
 40
-0.7994286890709797
 40
-0.6533573777220613
 40
-0.6533573777220613
 40
-0.6533573777220613
 40
-0.6533573777220613
 10
19.00000000000002
 20
-2.0
 30
0.0
 10
18.99999961270331
 20
-1.999093543230859
 30
0.0
 10
19.12633150600901
 20
-1.91986389663246
 30
0.0
 10
19.33607694564265
 20
-1.790687786198669
 30
0.0
 10
19.48882955654613
 20
-1.696611899878645
 30
0.0
 10
19.68837056420855
 20
-1.577391377849602
 30
0.0
 10
19.9198271679067
 20
-1.445337717163222
 30
0.0
  0
SPLINE
  5
A524
330
A51F
100
AcDbEntity
  8
0
100
AcDbSpline
210
0.0
220
0.0
230
1.0
 70
     8
 71
     3
 72
    10
 73
     6
 74
     0
 42
0.000000001
 43
0.0000000001
 40
0.0
 40
0.0
 40
0.0
 40
0.0
 40
0.0670584163357394
 40
0.0670584163357394
 40
0.1015857294838482
 40
0.1015857294838482
 40
0.1015857294838482
 40
0.1015857294838482
 10
23.58980804090756
 20
-2.000030232669505
 30
0.0
 10
23.39154521943965
 20
-2.000297119480226
 30
0.0
 10
23.18834991665242
 20
-2.001422490698863
 30
0.0
 10
22.87453551177883
 20
-2.013511333000673
 30
0.0
 10
22.76446343884109
 20
-2.019552871732638
 30
0.0
 10
22.65274930209603
 20
-2.030278825407854
 30
0.0
  0
SPLINE
  5
A525
330
A51F
100
AcDbEntity
  8
0
100
AcDbSpline
210
0.0
220
0.0
230
1.0
 70
     8
 71
     3
 72
    10
 73
     6
 74
     0
 42
0.000000001
 43
0.0000000001
 40
0.0589313022132437
 40
0.0589313022132437
 40
0.0589313022132437
 40
0.0589313022132437
 40
0.0599779860016719
 40
0.0599779860016719
 40
0.0663268531257799
 40
0.0663268531257799
 40
0.0663268531257799
 40
0.0663268531257799
 10
21.00026149195244
 20
-3.967645940216889
 30
0.0
 10
21.00024336833499
 20
-3.969383514621217
 30
0.0
 10
21.00022834572189
 20
-3.970951905395496
 30
0.0
 10
21.00012589227677
 20
-3.981754123414975
 30
0.0
 10
21.00006999202753
 20
-3.989563038480365
 30
0.0
 10
21.0000253192067
 20
-4.000000108971985
 30
0.0
  0
SPLINE
  5
A526
330
A51F
100
AcDbEntity
  8
0
100
AcDbSpline
210
0.0
220
0.0
230
1.0
 70
     8
 71
     3
 72
     8
 73
     4
 74
     0
 42
0.000000001
 43
0.0000000001
 40
0.0
 40
0.0
 40
0.0
 40
0.0
 40
0.0059800771616621
 40
0.0059800771616621
 40
0.0059800771616621
 40
0.0059800771616621
 10
18.99999382588602
 20
-4.000000177395613
 30
0.0
 10
18.99999475257256
 20
-3.993750153332649
 30
0.0
 10
18.99999841835717
 20
-3.990576025317025
 30
0.0
 10
18.99999841835717
 20
-3.990576025318084
 30
0.0
  0
SPLINE
  5
A527
330
A51F
100
AcDbEntity
  8
0
100
AcDbSpline
210
0.0
220
0.0
230
1.0
 70
     8
 71
     3
 72
    32
 73
    28
 74
     0
 42
0.000000001
 43
0.0000000001
 40
0.0101706624258212
 40
0.0101706624258212
 40
0.0101706624258212
 40
0.0101706624258212
 40
0.0113032255309572
 40
0.0113032255309572
 40
0.011745278404146
 40
0.011745278404146
 40
0.0119672047229009
 40
0.0119672047229009
 40
0.0121912921644224
 40
0.0121912921644224
 40
0.0124134819854122
 40
0.0124134819854122
 40
0.0133139498722968
 40
0.0133139498722968
 40
0.0702384767151581
 40
0.0702384767151581
 40
0.1264928042156049
 40
0.1264928042156049
 40
0.1751103902730055
 40
0.1751103902730055
 40
0.1995338714334348
 40
0.1995338714334348
 40
0.2119024887872555
 40
0.2119024887872555
 40
0.2186275089590239
 40
0.2186275089590239
 40
0.2256406863407005
 40
0.2256406863407005
 40
0.2256406863407005
 40
0.2256406863407005
 10
18.99996698296282
 20
-3.998219693833059
 30
0.0
 10
18.99996230396802
 20
-3.997950186717627
 30
0.0
 10
18.99995706373871
 20
-3.997648669925111
 30
0.0
 10
18.99993617437842
 20
-3.99644398714877
 30
0.0
 10
18.99992863289324
 20
-3.996009045787516
 30
0.0
 10
18.99990996024133
 20
-3.994930244461011
 30
0.0
 10
18.99990224169836
 20
-3.994484085359153
 30
0.0
 10
18.99988342368342
 20
-3.993394994482317
 30
0.0
 10
18.99987196383026
 20
-3.992731120368424
 30
0.0
 10
18.99984791826681
 20
-3.991335979676867
 30
0.0
 10
18.99983512370556
 20
-3.990592620933745
 30
0.0
 10
18.99977100353374
 20
-3.986861524041534
 30
0.0
 10
18.99971951777049
 20
-3.983847087220492
 30
0.0
 10
18.99655718399972
 20
-3.797604678863473
 30
0.0
 10
18.99490018366927
 20
-3.631653695724686
 30
0.0
 10
18.99335584902117
 20
-3.291337628074681
 30
0.0
 10
18.99342839623576
 20
-3.120442079463826
 30
0.0
 10
18.99449004625803
 20
-2.794259167345516
 30
0.0
 10
18.99542030074796
 20
-2.640098188513853
 30
0.0
 10
18.99709326646284
 20
-2.415341538429392
 30
0.0
 10
18.99772096056292
 20
-2.339960385229148
 30
0.0
 10
18.99891863371583
 20
-2.227744996651159
 30
0.0
 10
18.99930009859678
 20
-2.190870753806552
 30
0.0
 10
18.99956422432441
 20
-2.14111012168233
 30
0.0
 10
18.99960422949336
 20
-2.124651421965599
 30
0.0
 10
18.99962106660052
 20
-2.094151962521566
 30
0.0
 10
18.99959685078056
 20
-2.07932011499411
 30
0.0
 10
18.99957591650147
 20
-2.070206720554806
 30
0.0
  0
SPLINE
  5
A528
330
A51F
100
AcDbEntity
  8
0
100
AcDbSpline
210
0.0
220
0.0
230
1.0
 70
     8
 71
     3
 72
    12
 73
     8
 74
     0
 42
0.000000001
 43
0.0000000001
 40
0.0
 40
0.0
 40
0.0
 40
0.0
 40
0.0073837082029906
 40
0.0073837082029906
 40
0.0094968776842533
 40
0.0094968776842533
 40
0.0106851798908914
 40
0.0106851798908914
 40
0.0106851798908914
 40
0.0106851798908914
 10
18.99996052260958
 20
-3.999985103458851
 30
0.0
 10
19.00000146855735
 20
-3.988676024702359
 30
0.0
 10
19.00005745707822
 20
-3.976740013368753
 30
0.0
 10
19.00011516119714
 20
-3.966761709177798
 30
0.0
 10
19.00012635319167
 20
-3.964941242456403
 30
0.0
 10
19.00013635879011
 20
-3.963322951725933
 30
0.0
 10
19.00013843235777
 20
-3.962989226452124
 30
0.0
 10
19.0001384322757
 20
-3.962989239777337
 30
0.0
  0
LINE
  5
A529
330
A51F
100
AcDbEntity
  8
0
100
AcDbLine
 10
-19.00000000000001
 20
-2.000000000000007
 30
0.0
 11
-19.00000000000001
 21
-2.070206720555137
 31
0.0
  0
SPLINE
  5
A52A
330
A51F
100
AcDbEntity
  8
0
100
AcDbSpline
210
0.0
220
0.0
230
1.0
 70
     8
 71
     3
 72
    11
 73
     7
 74
     0
 42
0.000000001
 43
0.0000000001
 40
-1.0
 40
-1.0
 40
-1.0
 40
-1.0
 40
-0.7994286890709797
 40
-0.7994286890709797
 40
-0.7994286890709797
 40
-0.6533573777220613
 40
-0.6533573777220613
 40
-0.6533573777220613
 40
-0.6533573777220613
 10
-19.00000000000002
 20
-2.0
 30
0.0
 10
-18.99999961270331
 20
-1.999093543230859
 30
0.0
 10
-19.12633150600901
 20
-1.91986389663246
 30
0.0
 10
-19.33607694564265
 20
-1.790687786198669
 30
0.0
 10
-19.48882955654613
 20
-1.696611899878645
 30
0.0
 10
-19.68837056420855
 20
-1.577391377849602
 30
0.0
 10
-19.9198271679067
 20
-1.445337717163222
 30
0.0
  0
SPLINE
  5
A52B
330
A51F
100
AcDbEntity
  8
0
100
AcDbSpline
210
0.0
220
0.0
230
1.0
 70
     8
 71
     3
 72
    40
 73
    36
 74
     0
 42
0.000000001
 43
0.0000000001
 40
0.0
 40
0.0
 40
0.0
 40
0.0
 40
0.0038186266478236
 40
0.0038186266478236
 40
0.0092110776936918
 40
0.0092110776936918
 40
0.0200768673690266
 40
0.0200768673690266
 40
0.0329596385200333
 40
0.0329596385200333
 40
0.0591156618638961
 40
0.0591156618638961
 40
0.1345512911899239
 40
0.1345512911899239
 40
0.1887209387784665
 40
0.1887209387784665
 40
0.202085154415901
 40
0.202085154415901
 40
0.2121094988081703
 40
0.2121094988081703
 40
0.2131843138610685
 40
0.2131843138610685
 40
0.213473276132604
 40
0.213473276132604
 40
0.213614014389212
 40
0.213614014389212
 40
0.2138060744887649
 40
0.2138060744887649
 40
0.2139967835420644
 40
0.2139967835420644
 40
0.2142712794882943
 40
0.2142712794882943
 40
0.2147767087608813
 40
0.2147767087608813
 40
0.2155036301866112
 40
0.2155036301866112
 40
0.2155036301866112
 40
0.2155036301866112
 10
-18.99957591650148
 20
-2.070206720555137
 30
0.0
 10
-18.99958731507186
 20
-2.075168900885715
 30
0.0
 10
-18.99959979183391
 20
-2.082042326087217
 30
0.0
 10
-18.9996177911247
 20
-2.100031816337341
 30
0.0
 10
-18.99961861325102
 20
-2.112003662995829
 30
0.0
 10
-18.99954447401441
 20
-2.150334542555208
 30
0.0
 10
-18.99937038822896
 20
-2.179691941744078
 30
0.0
 10
-18.9987241398648
 20
-2.24852097814323
 30
0.0
 10
-18.99825137188823
 20
-2.288793425838513
 30
0.0
 10
-18.99709519548154
 20
-2.409489027945488
 30
0.0
 10
-18.99652475675627
 20
-2.488728512884863
 30
0.0
 10
-18.99434480627616
 20
-2.804300082586126
 30
0.0
 10
-18.99335882245603
 20
-3.043030613763383
 30
0.0
 10
-18.99378394628408
 20
-3.435896882863951
 30
0.0
 10
-18.99460498116931
 20
-3.597144251133959
 30
0.0
 10
-18.99700405057314
 20
-3.802918999309318
 30
0.0
 10
-18.99754484524757
 20
-3.843894961950764
 30
0.0
 10
-18.99860495552655
 20
-3.915974045186604
 30
0.0
 10
-18.9990868803728
 20
-3.946478471208017
 30
0.0
 10
-18.99968731269847
 20
-3.981957763059427
 30
0.0
 10
-18.99974757085886
 20
-3.985493861398082
 30
0.0
 10
-18.99982559740056
 20
-3.990038891293844
 30
0.0
 10
-18.99984251351284
 20
-3.991022265534637
 30
0.0
 10
-18.99986580215453
 20
-3.99237366739483
 30
0.0
 10
-18.99987319604418
 20
-3.992802321620498
 30
0.0
 10
-18.99988921767703
 20
-3.993730480223722
 30
0.0
 10
-18.99989745334879
 20
-3.994207015711201
 30
0.0
 10
-18.99991109019741
 20
-3.994995570825824
 30
0.0
 10
-18.99991670937104
 20
-3.995320217876514
 30
0.0
 10
-18.99992825577616
 20
-3.995987049920735
 30
0.0
 10
-18.99993338665334
 20
-3.996283111087764
 30
0.0
 10
-18.99994545324335
 20
-3.996979191542118
 30
0.0
 10
-18.99995044558188
 20
-3.997266899605454
 30
0.0
 10
-18.99996028932988
 20
-3.997834160728919
 30
0.0
 10
-18.99996397668445
 20
-3.998046534117009
 30
0.0
 10
-18.99996698296289
 20
-3.998219693837137
 30
0.0
  0
SPLINE
  5
A52C
330
A51F
100
AcDbEntity
  8
0
100
AcDbSpline
210
0.0
220
0.0
230
1.0
 70
     8
 71
     3
 72
    14
 73
    10
 74
     0
 42
0.000000001
 43
0.0000000001
 40
0.0078284967046005
 40
0.0078284967046005
 40
0.0078284967046005
 40
0.0078284967046005
 40
0.0081754702636319
 40
0.0081754702636319
 40
0.0102323022395842
 40
0.0102323022395842
 40
0.0133243206052111
 40
0.0133243206052111
 40
0.0185174889370523
 40
0.0185174889370523
 40
0.0185174889370523
 40
0.0185174889370523
 10
-19.00013843227571
 20
-3.962989239774849
 30
0.0
 10
-19.00013843227571
 20
-3.962989239775427
 30
0.0
 10
-19.00013825702462
 20
-3.963017667627966
 30
0.0
 10
-19.00013591754614
 20
-3.963395596015301
 30
0.0
 10
-19.00012809275718
 20
-3.964642654744987
 30
0.0
 10
-19.0001016520787
 20
-3.969046452340437
 30
0.0
 10
-19.00007995556366
 20
-3.972835758834762
 30
0.0
 10
-19.00002328167428
 20
-3.983975793995085
 30
0.0
 10
-18.99998932103896
 20
-3.992031112314788
 30
0.0
 10
-18.99996052260958
 20
-3.99998510345885
 30
0.0
  0
SPLINE
  5
A52D
330
A51F
100
AcDbEntity
  8
0
100
AcDbSpline
210
0.0
220
0.0
230
1.0
 70
     8
 71
     3
 72
     8
 73
     4
 74
     0
 42
0.000000001
 43
0.0000000001
 40
0.0090983959654232
 40
0.0090983959654232
 40
0.0090983959654232
 40
0.0090983959654232
 40
0.0150664625475452
 40
0.0150664625475452
 40
0.0150664625475452
 40
0.0150664625475452
 10
-18.99999841835716
 20
-3.990576025318723
 30
0.0
 10
-18.99999841835717
 20
-3.990576025315515
 30
0.0
 10
-18.99999475071138
 20
-3.993762706082951
 30
0.0
 10
-18.99999382588602
 20
-4.000000177395615
 30
0.0
  0
SPLINE
  5
A52E
330
A51F
100
AcDbEntity
  8
0
100
AcDbSpline
210
0.0
220
0.0
230
1.0
 70
     8
 71
     3
 72
    10
 73
     6
 74
     0
 42
0.000000001
 43
0.0000000001
 40
0.0
 40
0.0
 40
0.0
 40
0.0
 40
0.0049906878235229
 40
0.0049906878235229
 40
0.0073950152495242
 40
0.0073950152495242
 40
0.0073950152495242
 40
0.0073950152495242
 10
-21.0000253192067
 20
-4.000000108971985
 30
0.0
 10
-21.0000604354091
 20
-3.991795785334302
 30
0.0
 10
-21.0001054380402
 20
-3.985044489010729
 30
0.0
 10
-21.00019029816884
 20
-3.974913319785835
 30
0.0
 10
-21.00022128444521
 20
-3.971546284387818
 30
0.0
 10
-21.00026242521121
 20
-3.967601975694067
 30
0.0
  0
SPLINE
  5
A52F
330
A51F
100
AcDbEntity
  8
0
100
AcDbSpline
210
0.0
220
0.0
230
1.0
 70
     8
 71
     3
 72
    12
 73
     8
 74
     0
 42
0.000000001
 43
0.0000000001
 40
0.100640725525938
 40
0.100640725525938
 40
0.100640725525938
 40
0.100640725525938
 40
0.1211256635472365
 40
0.1211256635472365
 40
0.17840641894911
 40
0.17840641894911
 40
0.2023979344808934
 40
0.2023979344808934
 40
0.2023979344808934
 40
0.2023979344808934
 10
-22.65225355624023
 20
-2.030463909734621
 30
0.0
 10
-22.71837693380883
 20
-2.024115238887537
 30
0.0
 10
-22.78376124664538
 20
-2.019390814224213
 30
0.0
 10
-23.02830126556593
 20
-2.005407957726653
 30
0.0
 10
-23.20098786193795
 20
-2.002606029119718
 30
0.0
 10
-23.44720089233771
 20
-2.000365144870609
 30
0.0
 10
-23.51887547463705
 20
-2.000125716866937
 30
0.0
 10
-23.58980804090594
 20
-2.000030232669507
 30
0.0
  0
LINE
  5
A530
330
A51F
100
AcDbEntity
  8
0
100
AcDbLine
 10
-19.0
 20
-2.000000000000007
 30
0.0
 11
-17.0
 21
-2.000000000000003
 31
0.0
  0
LINE
  5
A531
330
A51F
100
AcDbEntity
  8
0
100
AcDbLine
 10
-18.99999999999999
 20
-86.0
 30
0.0
 11
-16.99999999999998
 21
-86.0
 31
0.0
  0
LINE
  5
A532
330
A51F
100
AcDbEntity
  8
0
100
AcDbLine
 10
17.00000000000001
 20
-2.000000000000003
 30
0.0
 11
-17.00000000000001
 21
-2.000000000000003
 31
0.0
  0
LINE
  5
A533
330
A51F
100
AcDbEntity
  8
0
100
AcDbLine
 10
-16.99999999999998
 20
-86.0
 30
0.0
 11
16.99999999999999
 21
-86.0
 31
0.0
  0
CIRCLE
  5
A534
330
A51F
100
AcDbEntity
  8
0
100
AcDbCircle
 10
0.0
 20
-47.99999999999998
 30
0.0
 40
2.5
  0
CIRCLE
  5
A535
330
A51F
100
AcDbEntity
  8
0
100
AcDbCircle
 10
0.0
 20
-67.99999999999998
 30
0.0
 40
2.5
  0
LINE
  5
A536
330
A51F
100
AcDbEntity
  8
0
100
AcDbLine
 10
19.0
 20
-2.000000000000007
 30
0.0
 11
17.0
 21
-2.000000000000003
 31
0.0
  0
LINE
  5
A537
330
A51F
100
AcDbEntity
  8
0
100
AcDbLine
 10
22.99999999999999
 20
0.0
 30
0.0
 11
60.5
 21
0.0
 31
0.0
  0
ARC
  5
A538
330
A51F
100
AcDbEntity
  8
0
100
AcDbCircle
 10
23.0
 20
-4.000000000000004
 30
0.0
 40
3.999999999999999
100
AcDbArc
 50
90.00000000000012
 51
180.0
  0
LINE
  5
A539
330
A51F
100
AcDbEntity
  8
0
100
AcDbLine
 10
18.99999999999999
 20
-86.00000000000003
 30
0.0
 11
19.0
 21
-46.00000000000002
 31
0.0
  0
LINE
  5
A53A
330
A51F
100
AcDbEntity
  8
0
100
AcDbLine
 10
20.99999999999999
 20
-86.00000000000003
 30
0.0
 11
18.99999999999999
 21
-86.00000000000003
 31
0.0
  0
LINE
  5
A53B
330
A51F
100
AcDbEntity
  8
0
100
AcDbLine
 10
21.0
 20
-46.00000000000002
 30
0.0
 11
20.99999999999999
 21
-86.00000000000003
 31
0.0
  0
LINE
  5
A53C
330
A51F
100
AcDbEntity
  8
0
100
AcDbLine
 10
19.0
 20
-46.0
 30
0.0
 11
21.0
 21
-46.0
 31
0.0
  0
LINE
  5
A53D
330
A51F
100
AcDbEntity
  8
0
100
AcDbLine
 10
21.00000000000001
 20
-4.000000000000003
 30
0.0
 11
21.0
 21
-46.0
 31
0.0
  0
LINE
  5
A53E
330
A51F
100
AcDbEntity
  8
0
100
AcDbLine
 10
19.0
 20
-46.0
 30
0.0
 11
19.0
 21
-4.000000000000003
 31
0.0
  0
LINE
  5
A53F
330
A51F
100
AcDbEntity
  8
0
100
AcDbLine
 10
18.99999999999999
 20
-86.0
 30
0.0
 11
16.99999999999998
 21
-86.0
 31
0.0
  0
ARC
  5
A540
330
A51F
100
AcDbEntity
  8
0
100
AcDbCircle
 10
23.0
 20
-4.000000000000004
 30
0.0
 40
1.999999999999997
100
AcDbArc
 50
90.00000000000026
 51
180.0
  0
LINE
  5
A541
330
A51F
100
AcDbEntity
  8
0
100
AcDbLine
 10
60.5
 20
0.0
 30
0.0
 11
60.5
 21
-2.00000000000001
 31
0.0
  0
LINE
  5
A542
330
A51F
100
AcDbEntity
  8
0
100
AcDbLine
 10
60.5
 20
-2.00000000000001
 30
0.0
 11
22.99999999999999
 21
-2.000000000000006
 31
0.0
  0
LINE
  5
A543
330
A51F
100
AcDbEntity
  8
0
100
AcDbLine
 10
-60.5
 20
-2.00000000000001
 30
0.0
 11
-22.99999999999999
 21
-2.000000000000006
 31
0.0
  0
LINE
  5
A544
330
A51F
100
AcDbEntity
  8
0
100
AcDbLine
 10
-19.0
 20
-46.0
 30
0.0
 11
-19.0
 21
-4.000000000000003
 31
0.0
  0
LINE
  5
A545
330
A51F
100
AcDbEntity
  8
0
100
AcDbLine
 10
-21.00000000000001
 20
-4.000000000000003
 30
0.0
 11
-21.0
 21
-46.0
 31
0.0
  0
LINE
  5
A546
330
A51F
100
AcDbEntity
  8
0
100
AcDbLine
 10
-22.99999999999999
 20
0.0
 30
0.0
 11
-60.5
 21
0.0
 31
0.0
  0
LINE
  5
A547
330
A51F
100
AcDbEntity
  8
0
100
AcDbLine
 10
-60.5
 20
0.0
 30
0.0
 11
-60.5
 21
-2.00000000000001
 31
0.0
  0
ARC
  5
A548
330
A51F
100
AcDbEntity
  8
0
100
AcDbCircle
 10
-23.0
 20
-4.000000000000004
 30
0.0
 40
1.999999999999997
100
AcDbArc
 50
0.0
 51
89.99999999999975
  0
ARC
  5
A549
330
A51F
100
AcDbEntity
  8
0
100
AcDbCircle
 10
-23.0
 20
-4.000000000000004
 30
0.0
 40
3.999999999999999
100
AcDbArc
 50
0.0
 51
89.99999999999987
  0
LINE
  5
A54A
330
A51F
100
AcDbEntity
  8
0
100
AcDbLine
 10
-19.0
 20
-46.00000000000002
 30
0.0
 11
-18.99999999999999
 21
-86.00000000000003
 31
0.0
  0
LINE
  5
A54B
330
A51F
100
AcDbEntity
  8
0
100
AcDbLine
 10
-20.99999999999999
 20
-86.00000000000003
 30
0.0
 11
-21.0
 21
-46.00000000000002
 31
0.0
  0
LINE
  5
A54C
330
A51F
100
AcDbEntity
  8
0
100
AcDbLine
 10
-18.99999999999999
 20
-86.00000000000003
 30
0.0
 11
-20.99999999999999
 21
-86.00000000000003
 31
0.0
  0
LINE
  5
A54D
330
A51F
100
AcDbEntity
  8
0
100
AcDbLine
 10
-21.0
 20
-46.0
 30
0.0
 11
-19.0
 21
-46.0
 31
0.0
  0
ENDBLK
  5
A521
330
A51F
100
AcDbEntity
  8
0
100
AcDbBlockEnd
  0
BLOCK
  5
A54F
330
A54E
100
AcDbEntity
  8
0
100
AcDbBlockBegin
  2
SAE440_38_2-Bottom
 70
     0
 10
0.0
 20
0.0
 30
0.0
  3
SAE440_38_2-Bottom
  1

  0
SPLINE
  5
A551
330
A54E
100
AcDbEntity
  8
0
100
AcDbSpline
210
0.0
220
0.0
230
1.0
 70
     8
 71
     3
 72
    14
 73
    10
 74
     0
 42
0.000000001
 43
0.0000000001
 40
0.0
 40
0.0
 40
0.0
 40
0.0
 40
0.3435149368874788
 40
0.3435149368874788
 40
0.3435149368874788
 40
0.7569946177387534
 40
0.7569946177387534
 40
0.7569946177387534
 40
1.0
 40
1.0
 40
1.0
 40
1.0
 10
23.60606060606064
 20
2.000000000000007
 30
0.0
 10
23.28490796720192
 20
2.000036879631394
 30
0.0
 10
22.87246555816788
 20
1.99683416707487
 30
0.0
 10
22.47647444983623
 20
1.998676128321987
 30
0.0
 10
21.99983061426834
 20
2.000893247482799
 30
0.0
 10
21.53729794753111
 20
2.001072402909466
 30
0.0
 10
21.26242807104507
 20
2.001124325805013
 30
0.0
 10
21.10088480180853
 20
2.001154841314395
 30
0.0
 10
20.99999576705053
 20
2.000250547668279
 30
0.0
 10
20.99999999948833
 20
1.999999999992472
 30
0.0
  0
LINE
  5
A552
330
A54E
100
AcDbEntity
  8
0
100
AcDbLine
 10
23.58980804090597
 20
2.000000000000013
 30
0.0
 11
23.60606060606063
 21
2.000000000000013
 31
0.0
  0
ARC
  5
A553
330
A54E
100
AcDbEntity
  8
0
100
AcDbCircle
 10
23.0
 20
4.000000000000004
 30
0.0
 40
1.999999999999992
100
AcDbArc
 50
180.1766999790602
 51
259.9841446491064
  0
ARC
  5
A554
330
A54E
100
AcDbEntity
  8
0
100
AcDbCircle
 10
23.0
 20
4.000000000000004
 30
0.0
 40
3.999999999999994
100
AcDbArc
 50
219.6927749101261
 51
270.0
  0
LINE
  5
A555
330
A54E
100
AcDbEntity
  8
0
100
AcDbLine
 10
23.60606060606064
 20
0.0
 30
0.0
 11
23.00000000000001
 21
0.0
 31
0.0
  0
SPLINE
  5
A556
330
A54E
100
AcDbEntity
  8
0
100
AcDbSpline
210
0.0
220
0.0
230
1.0
 70
     8
 71
     3
 72
    17
 73
    13
 74
     0
 42
0.000000001
 43
0.0000000001
 40
-1.0
 40
-1.0
 40
-1.0
 40
-1.0
 40
-0.7994286890709797
 40
-0.7994286890709797
 40
-0.7994286890709797
 40
-0.3760960080944062
 40
-0.3760960080944062
 40
-0.3760960080944062
 40
-0.0765284972629388
 40
-0.0765284972629388
 40
-0.0765284972629388
 40
0.0
 40
0.0
 40
0.0
 40
0.0
 10
19.00000000000002
 20
2.0
 30
0.0
 10
18.99999961270331
 20
1.999093543230859
 30
0.0
 10
19.12633150600901
 20
1.91986389663246
 30
0.0
 10
19.33607694564265
 20
1.790687786198669
 30
0.0
 10
19.77877285699429
 20
1.518044261585047
 30
0.0
 10
20.61445008347113
 20
1.034207947866394
 30
0.0
 10
21.48107962104917
 20
0.6388614064253991
 30
0.0
 10
22.09434210951659
 20
0.3590980319982248
 30
0.0
 10
22.71765761688183
 20
0.1217220476483994
 30
0.0
 10
23.23393420696481
 20
0.0342615816102574
 30
0.0
 10
23.36582391523599
 20
0.0119186445633197
 30
0.0
 10
23.48832026105842
 20
0.0000045452574097
 30
0.0
 10
23.60606060611086
 20
0.0000000001152119
 30
0.0
  0
LINE
  5
A557
330
A54E
100
AcDbEntity
  8
0
100
AcDbLine
 10
23.60606060606063
 20
2.000000000000013
 30
0.0
 11
23.60606060606064
 21
0.0
 31
0.0
  0
SPLINE
  5
A558
330
A54E
100
AcDbEntity
  8
0
100
AcDbSpline
210
0.0
220
0.0
230
1.0
 70
     8
 71
     3
 72
    28
 73
    24
 74
     0
 42
0.000000001
 43
0.0000000001
 40
0.0690822590118544
 40
0.0690822590118544
 40
0.0690822590118544
 40
0.0690822590118544
 40
0.0695373376945772
 40
0.0695373376945772
 40
0.0705592775770486
 40
0.0705592775770486
 40
0.0715813611851581
 40
0.0715813611851581
 40
0.0725991042097792
 40
0.0725991042097792
 40
0.0746451822655013
 40
0.0746451822655013
 40
0.0787297326832359
 40
0.0787297326832359
 40
0.083865375438696
 40
0.083865375438696
 40
0.0955614324962305
 40
0.0955614324962305
 40
0.121125663548088
 40
0.121125663548088
 40
0.1784064189506747
 40
0.1784064189506747
 40
0.2023979344808916
 40
0.2023979344808916
 40
0.2023979344808916
 40
0.2023979344808916
 10
22.36371670695631
 20
2.070841470802629
 30
0.0
 10
22.36371670696427
 20
2.070841470801016
 30
0.0
 10
22.36380214744702
 20
2.07082414794452
 30
0.0
 10
22.36438361946093
 20
2.070706910031036
 30
0.0
 10
22.36528572235234
 20
2.070525432048941
 30
0.0
 10
22.36805655519081
 20
2.069975659406438
 30
0.0
 10
22.36994902274991
 20
2.069602926366238
 30
0.0
 10
22.37436619550598
 20
2.068744968898363
 30
0.0
 10
22.37691522268459
 20
2.068255027857598
 30
0.0
 10
22.38509412283291
 20
2.066704419210496
 30
0.0
 10
22.39131852210913
 20
2.06555221682949
 30
0.0
 10
22.41032146366851
 20
2.062130588047776
 30
0.0
 10
22.42381689207679
 20
2.059823029340077
 30
0.0
 10
22.45405151580804
 20
2.054909058545437
 30
0.0
 10
22.47106069529534
 20
2.052318623662979
 30
0.0
 10
22.52650619138931
 20
2.044365323487904
 30
0.0
 10
22.56492454356649
 20
2.03962514330644
 30
0.0
 10
22.68595330092434
 20
2.026494701270664
 30
0.0
 10
22.76778903115441
 20
2.02030410930826
 30
0.0
 10
23.02830126557606
 20
2.00540795772631
 30
0.0
 10
23.20098786195023
 20
2.002606029119488
 30
0.0
 10
23.44720089234716
 20
2.000365144870573
 30
0.0
 10
23.51887547464169
 20
2.000125716866931
 30
0.0
 10
23.58980804090597
 20
2.000030232669508
 30
0.0
  0
SPLINE
  5
A559
330
A54E
100
AcDbEntity
  8
0
100
AcDbSpline
210
0.0
220
0.0
230
1.0
 70
     8
 71
     3
 72
    30
 73
    26
 74
     0
 42
0.000000001
 43
0.0000000001
 40
0.0
 40
0.0
 40
0.0
 40
0.0
 40
0.0049906878398049
 40
0.0049906878398049
 40
0.0087372356258526
 40
0.0087372356258526
 40
0.0097952253601987
 40
0.0097952253601987
 40
0.0104899688948117
 40
0.0104899688948117
 40
0.0114835377096738
 40
0.0114835377096738
 40
0.0123917508546816
 40
0.0123917508546816
 40
0.0135259377210353
 40
0.0135259377210353
 40
0.0151743814212179
 40
0.0151743814212179
 40
0.017723327621582
 40
0.017723327621582
 40
0.0214777530497278
 40
0.0214777530497278
 40
0.026119806311112
 40
0.026119806311112
 40
0.0306018019069547
 40
0.0306018019069547
 40
0.0306018019069547
 40
0.0306018019069547
 10
21.0000253192067
 20
4.000000108971985
 30
0.0
 10
21.00006043540922
 20
3.991795785308381
 30
0.0
 10
21.00010543804047
 20
3.985044488968485
 30
0.0
 10
21.00020570057072
 20
3.973074478130947
 30
0.0
 10
21.00025216705401
 20
3.968020206694088
 30
0.0
 10
21.0003708276762
 20
3.958018886678304
 30
0.0
 10
21.00040161078035
 20
3.955539561099099
 30
0.0
 10
21.00046347754813
 20
3.950898298268072
 30
0.0
 10
21.0004911379573
 20
3.948899177628947
 30
0.0
 10
21.00056545829119
 20
3.943776693427084
 30
0.0
 10
21.00061636413451
 20
3.94046785936391
 30
0.0
 10
21.00072033178049
 20
3.934149188980697
 30
0.0
 10
21.0007737234653
 20
3.931079682766334
 30
0.0
 10
21.00089659630445
 20
3.924378859796014
 30
0.0
 10
21.00096786689233
 20
3.920734150207032
 30
0.0
 10
21.00114460639677
 20
3.912180966230438
 30
0.0
 10
21.00125249031129
 20
3.90736843783291
 30
0.0
 10
21.0015275570944
 20
3.895853857056342
 30
0.0
 10
21.0016974932709
 20
3.889446305906148
 30
0.0
 10
21.00210476729224
 20
3.875140054724912
 30
0.0
 10
21.00233985504871
 20
3.867834574838823
 30
0.0
 10
21.00278976726469
 20
3.854669012605568
 30
0.0
 10
21.00298851218306
 20
3.849467628775896
 30
0.0
 10
21.00322997975001
 20
3.843272573620398
 30
0.0
 10
21.00328099785301
 20
3.8420572512932
 30
0.0
 10
21.00328099785245
 20
3.84205725130699
 30
0.0
  0
SPLINE
  5
A55A
330
A54E
100
AcDbEntity
  8
0
100
AcDbSpline
210
0.0
220
0.0
230
1.0
 70
     8
 71
     3
 72
     8
 73
     4
 74
     0
 42
0.000000001
 43
0.0000000001
 40
0.0
 40
0.0
 40
0.0
 40
0.0
 40
0.0004151367474212
 40
0.0004151367474212
 40
0.0004151367474212
 40
0.0004151367474212
 10
21.00002109558383
 20
4.000000267145733
 30
0.0
 10
21.00001411393829
 20
3.999222903660872
 30
0.0
 10
21.00000714111356
 20
3.998428973616657
 30
0.0
 10
21.00000008478673
 20
3.997615301491159
 30
0.0
  0
CIRCLE
  5
A55B
330
A54E
100
AcDbEntity
  8
0
100
AcDbCircle
 10
0.0
 20
67.99999999999998
 30
0.0
 40
2.5
  0
CIRCLE
  5
A55C
330
A54E
100
AcDbEntity
  8
0
100
AcDbCircle
 10
0.0
 20
47.99999999999998
 30
0.0
 40
2.5
  0
LINE
  5
A55D
330
A54E
100
AcDbEntity
  8
0
100
AcDbLine
 10
17.00000000000001
 20
2.000000000000003
 30
0.0
 11
-17.00000000000001
 21
2.000000000000003
 31
0.0
  0
LINE
  5
A55E
330
A54E
100
AcDbEntity
  8
0
100
AcDbLine
 10
16.99999999999999
 20
86.0
 30
0.0
 11
-16.99999999999998
 21
86.0
 31
0.0
  0
SPLINE
  5
A55F
330
A54E
100
AcDbEntity
  8
0
100
AcDbSpline
210
0.0
220
0.0
230
1.0
 70
     8
 71
     3
 72
    17
 73
    13
 74
     0
 42
0.000000001
 43
0.0000000001
 40
-1.0
 40
-1.0
 40
-1.0
 40
-1.0
 40
-0.7994286890709797
 40
-0.7994286890709797
 40
-0.7994286890709797
 40
-0.3760960080944062
 40
-0.3760960080944062
 40
-0.3760960080944062
 40
-0.0765284972629388
 40
-0.0765284972629388
 40
-0.0765284972629388
 40
0.0
 40
0.0
 40
0.0
 40
0.0
 10
-19.00000000000002
 20
2.0
 30
0.0
 10
-18.99999961270331
 20
1.999093543230859
 30
0.0
 10
-19.12633150600901
 20
1.91986389663246
 30
0.0
 10
-19.33607694564265
 20
1.790687786198669
 30
0.0
 10
-19.77877285699429
 20
1.518044261585047
 30
0.0
 10
-20.61445008347113
 20
1.034207947866394
 30
0.0
 10
-21.48107962104917
 20
0.6388614064253991
 30
0.0
 10
-22.09434210951659
 20
0.3590980319982248
 30
0.0
 10
-22.71765761688183
 20
0.1217220476483994
 30
0.0
 10
-23.23393420696481
 20
0.0342615816102574
 30
0.0
 10
-23.36582391523599
 20
0.0119186445633197
 30
0.0
 10
-23.48832026105842
 20
0.0000045452574097
 30
0.0
 10
-23.60606060611086
 20
0.0000000001152119
 30
0.0
  0
LINE
  5
A560
330
A54E
100
AcDbEntity
  8
0
100
AcDbLine
 10
-23.00000000000001
 20
0.0
 30
0.0
 11
-23.60606060606064
 21
0.0
 31
0.0
  0
ARC
  5
A561
330
A54E
100
AcDbEntity
  8
0
100
AcDbCircle
 10
-23.0
 20
4.000000000000004
 30
0.0
 40
3.999999999999994
100
AcDbArc
 50
270.0
 51
320.3072250898738
  0
ARC
  5
A562
330
A54E
100
AcDbEntity
  8
0
100
AcDbCircle
 10
-23.0
 20
4.000000000000004
 30
0.0
 40
1.999999999999992
100
AcDbArc
 50
280.0158553508917
 51
359.8269243562821
  0
LINE
  5
A563
330
A54E
100
AcDbEntity
  8
0
100
AcDbLine
 10
-23.60606060606063
 20
2.000000000000013
 30
0.0
 11
-23.58980804090744
 21
2.000000000000013
 31
0.0
  0
SPLINE
  5
A564
330
A54E
100
AcDbEntity
  8
0
100
AcDbSpline
210
0.0
220
0.0
230
1.0
 70
     8
 71
     3
 72
    14
 73
    10
 74
     0
 42
0.000000001
 43
0.0000000001
 40
0.0
 40
0.0
 40
0.0
 40
0.0
 40
0.3435149368874788
 40
0.3435149368874788
 40
0.3435149368874788
 40
0.7569946177387534
 40
0.7569946177387534
 40
0.7569946177387534
 40
1.0
 40
1.0
 40
1.0
 40
1.0
 10
-23.60606060606064
 20
2.000000000000007
 30
0.0
 10
-23.28490796720192
 20
2.000036879631394
 30
0.0
 10
-22.87246555816788
 20
1.99683416707487
 30
0.0
 10
-22.47647444983623
 20
1.998676128321987
 30
0.0
 10
-21.99983061426834
 20
2.000893247482799
 30
0.0
 10
-21.53729794753111
 20
2.001072402909466
 30
0.0
 10
-21.26242807104507
 20
2.001124325805013
 30
0.0
 10
-21.10088480180853
 20
2.001154841314395
 30
0.0
 10
-20.99999576705053
 20
2.000250547668279
 30
0.0
 10
-20.99999999948833
 20
1.999999999992472
 30
0.0
  0
LINE
  5
A565
330
A54E
100
AcDbEntity
  8
0
100
AcDbLine
 10
-23.60606060606064
 20
0.0
 30
0.0
 11
-23.60606060606063
 21
2.000000000000013
 31
0.0
  0
SPLINE
  5
A566
330
A54E
100
AcDbEntity
  8
0
100
AcDbSpline
210
0.0
220
0.0
230
1.0
 70
     8
 71
     3
 72
    28
 73
    24
 74
     0
 42
0.000000001
 43
0.0000000001
 40
0.0357732034715224
 40
0.0357732034715224
 40
0.0357732034715224
 40
0.0357732034715224
 40
0.0390422753431106
 40
0.0390422753431106
 40
0.0452611505088604
 40
0.0452611505088604
 40
0.0483374926504932
 40
0.0483374926504932
 40
0.0514208782241922
 40
0.0514208782241922
 40
0.0529575420843428
 40
0.0529575420843428
 40
0.0545062597412738
 40
0.0545062597412738
 40
0.0552768639117627
 40
0.0552768639117627
 40
0.0560490423415074
 40
0.0560490423415074
 40
0.0568196217145985
 40
0.0568196217145985
 40
0.0599779859702555
 40
0.0599779859702555
 40
0.0663268531255108
 40
0.0663268531255108
 40
0.0663268531255108
 40
0.0663268531255108
 10
-21.00328099785246
 20
3.842057251306561
 30
0.0
 10
-21.00328099785081
 20
3.842057251346813
 30
0.0
 10
-21.00325370308908
 20
3.842715126895725
 30
0.0
 10
-21.00307566836451
 20
3.84719283820973
 30
0.0
 10
-21.00281926781273
 20
3.853659085169693
 30
0.0
 10
-21.00230490581414
 20
3.868952895750852
 30
0.0
 10
-21.00211373393604
 20
3.874953169561718
 30
0.0
 10
-21.00171824158285
 20
3.888620143764265
 30
0.0
 10
-21.0015112384764
 20
3.896381733562024
 30
0.0
 10
-21.00120926593398
 20
3.909288426011819
 30
0.0
 10
-21.00110914437529
 20
3.913838539608303
 30
0.0
 10
-21.00091412426671
 20
3.923413603966031
 30
0.0
 10
-21.00081699725909
 20
3.928569998292775
 30
0.0
 10
-21.00068438693444
 20
3.936297115657933
 30
0.0
 10
-21.00064189434578
 20
3.938896184405989
 30
0.0
 10
-21.00056372807928
 20
3.943909393583716
 30
0.0
 10
-21.00052749021197
 20
3.946359798678693
 30
0.0
 10
-21.00046356992284
 20
3.950879018844089
 30
0.0
 10
-21.00043532220142
 20
3.952983957032675
 30
0.0
 10
-21.00030935107338
 20
3.962745419353172
 30
0.0
 10
-21.00025759965475
 20
3.967867505849647
 30
0.0
 10
-21.00012589227717
 20
3.981754123346407
 30
0.0
 10
-21.00006999202776
 20
3.989563038429928
 30
0.0
 10
-21.0000253192067
 20
4.000000108971985
 30
0.0
  0
SPLINE
  5
A567
330
A54E
100
AcDbEntity
  8
0
100
AcDbSpline
210
0.0
220
0.0
230
1.0
 70
     8
 71
     3
 72
    24
 73
    20
 74
     0
 42
0.000000001
 43
0.0000000001
 40
0.0
 40
0.0
 40
0.0
 40
0.0
 40
0.0670584163343928
 40
0.0670584163343928
 40
0.1176569868740573
 40
0.1176569868740573
 40
0.1255739067615225
 40
0.1255739067615225
 40
0.127547448101002
 40
0.127547448101002
 40
0.1295305934659758
 40
0.1295305934659758
 40
0.1305201884191309
 40
0.1305201884191309
 40
0.1315137661362675
 40
0.1315137661362675
 40
0.1325098134385619
 40
0.1325098134385619
 40
0.1331618384284635
 40
0.1331618384284635
 40
0.1331618384284635
 40
0.1331618384284635
 10
-23.58980804090744
 20
2.000030232669505
 30
0.0
 10
-23.39154521944346
 20
2.00029711948022
 30
0.0
 10
-23.1883499166603
 20
2.001422490698868
 30
0.0
 10
-22.82488885276242
 20
2.015423834856124
 30
0.0
 10
-22.66175508011656
 20
2.025387294198101
 30
0.0
 10
-22.46909929782194
 20
2.052544208833495
 30
0.0
 10
-22.4425609395698
 20
2.056642800182737
 30
0.0
 10
-22.41059037092879
 20
2.062112997998329
 30
0.0
 10
-22.40425431199298
 20
2.06322447601823
 30
0.0
 10
-22.39196875179261
 20
2.065433787586653
 30
0.0
 10
-22.38592496629294
 20
2.066549999739528
 30
0.0
 10
-22.37787000899228
 20
2.068072834375604
 30
0.0
 10
-22.37533669915677
 20
2.068558170039469
 30
0.0
 10
-22.37086743207326
 20
2.069423429395266
 30
0.0
 10
-22.36890766957693
 20
2.069807990173251
 30
0.0
 10
-22.36590446872857
 20
2.070401936665176
 30
0.0
 10
-22.36484122725184
 20
2.07061502596232
 30
0.0
 10
-22.36389298436381
 20
2.070805715056441
 30
0.0
 10
-22.3637167148272
 20
2.070841469207501
 30
0.0
 10
-22.36371670695679
 20
2.070841470802536
 30
0.0
  0
LINE
  5
A568
330
A54E
100
AcDbEntity
  8
0
100
AcDbLine
 10
-21.00000000000001
 20
2.000000000000011
 30
0.0
 11
-17.0
 21
2.000000000000003
 31
0.0
  0
LINE
  5
A569
330
A54E
100
AcDbEntity
  8
0
100
AcDbLine
 10
-16.99999999999998
 20
86.0
 30
0.0
 11
-20.99999999999999
 21
86.0
 31
0.0
  0
LINE
  5
A56A
330
A54E
100
AcDbEntity
  8
0
100
AcDbLine
 10
-21.0
 20
2.000000000000011
 30
0.0
 11
-20.99999999999999
 21
86.0
 31
0.0
  0
LINE
  5
A56B
330
A54E
100
AcDbEntity
  8
0
100
AcDbLine
 10
21.00000000000001
 20
2.000000000000011
 30
0.0
 11
17.0
 21
2.000000000000003
 31
0.0
  0
LINE
  5
A56C
330
A54E
100
AcDbEntity
  8
0
100
AcDbLine
 10
21.0
 20
2.000000000000011
 30
0.0
 11
20.99999999999999
 21
86.0
 31
0.0
  0
LINE
  5
A56D
330
A54E
100
AcDbEntity
  8
0
100
AcDbLine
 10
16.99999999999998
 20
86.0
 30
0.0
 11
20.99999999999999
 21
86.0
 31
0.0
  0
LINE
  5
A56E
330
A54E
100
AcDbEntity
  8
0
100
AcDbLine
 10
60.50000000000006
 20
0.0
 30
0.0
 11
23.60606060606064
 21
0.0
 31
0.0
  0
LINE
  5
A56F
330
A54E
100
AcDbEntity
  8
0
100
AcDbLine
 10
60.50000000000006
 20
2.000000000000001
 30
0.0
 11
60.50000000000006
 21
0.0
 31
0.0
  0
LINE
  5
A570
330
A54E
100
AcDbEntity
  8
0
100
AcDbLine
 10
23.60606060606064
 20
2.000000000000013
 30
0.0
 11
60.50000000000006
 21
2.000000000000001
 31
0.0
  0
LINE
  5
A571
330
A54E
100
AcDbEntity
  8
0
100
AcDbLine
 10
-60.50000000000006
 20
2.000000000000001
 30
0.0
 11
-23.60606060606064
 21
2.000000000000013
 31
0.0
  0
LINE
  5
A572
330
A54E
100
AcDbEntity
  8
0
100
AcDbLine
 10
-60.50000000000006
 20
0.0
 30
0.0
 11
-60.50000000000006
 21
2.000000000000001
 31
0.0
  0
LINE
  5
A573
330
A54E
100
AcDbEntity
  8
0
100
AcDbLine
 10
-23.60606060606064
 20
0.0
 30
0.0
 11
-60.50000000000006
 21
0.0
 31
0.0
  0
ENDBLK
  5
A550
330
A54E
100
AcDbEntity
  8
0
100
AcDbBlockEnd
  0
BLOCK
  5
A575
330
A574
100
AcDbEntity
  8
0
100
AcDbBlockBegin
  2
SAE440_38_2-ISO
 70
     0
 10
0.0
 20
0.0
 30
0.0
  3
SAE440_38_2-ISO
  1

  0
LINE
  5
A577
330
A574
100
AcDbEntity
  8
0
100
AcDbLine
 10
43.61316156232958
 20
-39.7314076155326
 30
0.0
 11
42.19894800003941
 21
-40.54790419641244
 31
0.0
  0
SPLINE
  5
A578
330
A574
100
AcDbEntity
  8
0
100
AcDbSpline
210
0.0
220
0.0
230
1.0
 70
     8
 71
     3
 72
    14
 73
    10
 74
     0
 42
0.000000001
 43
0.0000000001
 40
0.0
 40
0.0
 40
0.0
 40
0.0
 40
0.3435149368874788
 40
0.3435149368874788
 40
0.3435149368874788
 40
0.7569946177387534
 40
0.7569946177387534
 40
0.7569946177387534
 40
1.0
 40
1.0
 40
1.0
 40
1.0
 10
45.4559246891411
 20
-38.70305491412687
 30
0.0
 10
45.2288094025707
 20
-38.78425202986877
 30
0.0
 10
44.93943323806073
 20
-38.80007555990267
 30
0.0
 10
44.65812277678132
 20
-38.82794883693918
 30
0.0
 10
44.3195169484472
 20
-38.86149915005734
 30
0.0
 10
43.99233028125992
 20
-38.91310443151212
 30
0.0
 10
43.79793121262118
 20
-39.13850793616785
 30
0.0
 10
43.68368129376537
 20
-39.27097941505436
 30
0.0
 10
43.61298140530998
 20
-39.43901687116512
 30
0.0
 10
43.61316156205602
 20
-39.7314076139236
 30
0.0
  0
LINE
  5
A579
330
A574
100
AcDbEntity
  8
0
100
AcDbLine
 10
45.42117666748705
 20
-38.68299313447111
 30
0.0
 11
45.45592468914109
 21
-38.70305491412688
 31
0.0
  0
LINE
  5
A57A
330
A574
100
AcDbEntity
  8
0
100
AcDbLine
 10
45.02737512478559
 20
-38.45563170778513
 30
0.0
 11
45.42117666748705
 21
-38.68299313447111
 31
0.0
  0
ELLIPSE
  5
A57B
330
A574
100
AcDbEntity
  8
0
100
AcDbEllipse
 10
43.6131615624125
 20
-39.27212828871285
 30
0.0
 11
1.999999999999992
 21
0.0000000000000002
 31
0.0
210
0.0
220
0.0
230
1.0
 40
0.5773502691896258
 41
0.7853981633974474
 42
0.8225763078179868
  0
ELLIPSE
  5
A57C
330
A574
100
AcDbEntity
  8
0
100
AcDbEllipse
 10
43.6131615624125
 20
-39.27212828871285
 30
0.0
 11
1.999999999999992
 21
-0.0000000000001157
 31
0.0
210
0.0
220
0.0
230
1.0
 40
0.5773502691896271
 41
0.822576307818216
 42
2.356194490192606
  0
LINE
  5
A57D
330
A574
100
AcDbEntity
  8
0
100
AcDbLine
 10
42.19894800003941
 20
-39.27874645071863
 30
0.0
 11
42.19894800003941
 21
-38.45563170778515
 31
0.0
  0
LINE
  5
A57E
330
A574
100
AcDbEntity
  8
0
100
AcDbLine
 10
42.19894800003941
 20
-40.54790419641244
 30
0.0
 11
42.19894800003941
 21
-39.27874645071863
 31
0.0
  0
ELLIPSE
  5
A57F
330
A574
100
AcDbEntity
  8
0
100
AcDbEllipse
 10
-17.90512840081711
 20
-93.21193366625079
 30
0.0
 11
-2.5
 21
0.0
 31
0.0
210
0.0
220
0.0
230
1.0
 40
0.5773502691896258
 41
4.425632428173151
 42
5.681921090500463
  0
LINE
  5
A580
330
A574
100
AcDbEntity
  8
0
100
AcDbLine
 10
-18.61223518200368
 20
-107.5006238324859
 30
0.0
 11
-42.65386574234629
 21
-93.62018195671465
 31
0.0
  0
LINE
  5
A581
330
A574
100
AcDbEntity
  8
0
100
AcDbLine
 10
-42.65386574234629
 20
-91.98718879485921
 30
0.0
 11
-18.61223518200368
 21
-105.8676306706305
 31
0.0
  0
ELLIPSE
  5
A582
330
A574
100
AcDbEntity
  8
0
100
AcDbEllipse
 10
-17.90512840081711
 20
-91.57894050439532
 30
0.0
 11
-2.5
 21
0.0000000000000001
 31
0.0
210
0.0
220
0.0
230
1.0
 40
0.5773502691896258
 41
4.425632428173149
 42
8.140738186186023
  0
LINE
  5
A583
330
A574
100
AcDbEntity
  8
0
100
AcDbLine
 10
43.6131615624125
 20
-71.57477427166604
 30
0.0
 11
43.6131615624125
 21
-39.73140761548472
 31
0.0
  0
ELLIPSE
  5
A584
330
A574
100
AcDbEntity
  8
0
100
AcDbEllipse
 10
40.78473443766632
 20
-69.94178110981059
 30
0.0
 11
1.999999999999997
 21
-3.464101615137756
 31
0.0
210
0.0
220
0.0
230
1.0
 40
0.5773502691896248
 41
0.0
 42
0.7853981633974457
  0
LINE
  5
A585
330
A574
100
AcDbEntity
  8
0
100
AcDbLine
 10
-18.61223518200368
 20
-105.8676306706305
 30
0.0
 11
-17.19802161963059
 21
-105.0511340897028
 31
0.0
  0
LINE
  5
A586
330
A574
100
AcDbEntity
  8
0
100
AcDbLine
 10
43.6131615624125
 20
-71.57477427166604
 30
0.0
 11
-15.7838080572575
 21
-105.8676306706305
 31
0.0
  0
ELLIPSE
  5
A587
330
A574
100
AcDbEntity
  8
0
100
AcDbEllipse
 10
-18.61223518200368
 20
-104.234637508775
 30
0.0
 11
2.0
 21
-3.464101615137755
 31
0.0
210
0.0
220
0.0
230
1.0
 40
0.5773502691896259
 41
5.497787143782137
 42
7.068583470577033
  0
LINE
  5
A588
330
A574
100
AcDbEntity
  8
0
100
AcDbLine
 10
71.54387941928118
 20
-28.91282791819239
 30
0.0
 11
72.95809298165427
 21
-28.09633133726466
 31
0.0
  0
LINE
  5
A589
330
A574
100
AcDbEntity
  8
0
100
AcDbLine
 10
45.4559246891411
 20
-38.70305491412688
 30
0.0
 11
71.54387941928118
 21
-28.91282791819239
 31
0.0
  0
ELLIPSE
  5
A58A
330
A574
100
AcDbEntity
  8
0
100
AcDbEllipse
 10
59.16951074851656
 20
67.22964448604741
 30
0.0
 11
-3.25
 21
5.629165124598853
 31
0.0
210
0.0
220
0.0
230
1.0
 40
0.5773502691896258
 41
0.2193254863005962
 42
2.922267167289195
  0
ELLIPSE
  5
A58B
330
A574
100
AcDbEntity
  8
0
100
AcDbEllipse
 10
66.94768534156859
 20
74.98636200486078
 30
0.0
 11
1.250000000000129
 21
-2.165063509461022
 31
0.0
210
0.0
220
0.0
230
1.0
 40
0.5773502691896259
 41
3.742856870268585
 42
5.681921090500106
  0
LINE
  5
A58C
330
A574
100
AcDbEntity
  8
0
100
AcDbLine
 10
46.44158868715869
 20
90.90804533295145
 30
0.0
 11
72.95809298165423
 21
75.59873444055657
 31
0.0
  0
LINE
  5
A58D
330
A574
100
AcDbEntity
  8
0
100
AcDbLine
 10
72.95809298165427
 20
-28.09633133726466
 30
0.0
 11
72.95809298165423
 21
75.59873444055657
 31
0.0
  0
ELLIPSE
  5
A58E
330
A574
100
AcDbEntity
  8
0
100
AcDbEllipse
 10
43.6131615624125
 20
89.27505217109599
 30
0.0
 11
3.999999999999999
 21
-0.0000000000002383
 31
0.0
210
0.0
220
0.0
230
1.0
 40
0.5773502691896259
 41
0.7853981633976952
 42
2.356194490192587
  0
ELLIPSE
  5
A58F
330
A574
100
AcDbEntity
  8
0
100
AcDbEllipse
 10
16.38955048673041
 20
64.5760305980323
 30
0.0
 11
1.249999999999871
 21
2.16506350946117
 31
0.0
210
0.0
220
0.0
230
1.0
 40
0.577350269189626
 41
3.742856870268582
 42
5.681921090500104
  0
ELLIPSE
  5
A590
330
A574
100
AcDbEntity
  8
0
100
AcDbEllipse
 10
17.80376404910351
 20
63.75953401710455
 30
0.0
 11
-1.25
 21
-2.165063509461096
 31
0.0
210
0.0
220
0.0
230
1.0
 40
0.577350269189626
 41
0.0
 42
6.283185307179586
  0
LINE
  5
A591
330
A574
100
AcDbEntity
  8
0
100
AcDbLine
 10
-17.19802161963062
 20
-73.2077674335215
 30
0.0
 11
11.08624962783129
 21
-29.93344864435203
 31
0.0
  0
LINE
  5
A592
330
A574
100
AcDbEntity
  8
0
100
AcDbLine
 10
-15.78380805725752
 20
-74.02426401444921
 30
0.0
 11
-17.19802161963062
 21
-73.2077674335215
 31
0.0
  0
LINE
  5
A593
330
A574
100
AcDbEntity
  8
0
100
AcDbLine
 10
12.50046319020439
 20
-30.74994522527976
 30
0.0
 11
-15.78380805725752
 21
-74.02426401444921
 31
0.0
  0
LINE
  5
A594
330
A574
100
AcDbEntity
  8
0
100
AcDbLine
 10
12.50046319020439
 20
-30.74994522527976
 30
0.0
 11
11.08624962783129
 21
-29.93344864435203
 31
0.0
  0
LINE
  5
A595
330
A574
100
AcDbEntity
  8
0
100
AcDbLine
 10
11.08624962783129
 20
-29.93344864435203
 30
0.0
 11
11.08624962783132
 21
73.7616171334692
 31
0.0
  0
LINE
  5
A596
330
A574
100
AcDbEntity
  8
0
100
AcDbLine
 10
12.50046319020442
 20
72.94512055254147
 30
0.0
 11
12.50046319020439
 21
-30.74994522527975
 31
0.0
  0
LINE
  5
A597
330
A574
100
AcDbEntity
  8
0
100
AcDbLine
 10
11.08624962783132
 20
73.7616171334692
 30
0.0
 11
12.50046319020442
 21
72.94512055254147
 31
0.0
  0
LINE
  5
A598
330
A574
100
AcDbEntity
  8
0
100
AcDbLine
 10
-15.78380805725752
 20
-74.02426401444921
 30
0.0
 11
-15.7838080572575
 21
-105.8676306706305
 31
0.0
  0
LINE
  5
A599
330
A574
100
AcDbEntity
  8
0
100
AcDbLine
 10
42.19894800003941
 20
-38.45563170778515
 30
0.0
 11
42.19894800003941
 21
90.09154875202369
 31
0.0
  0
LINE
  5
A59A
330
A574
100
AcDbEntity
  8
0
100
AcDbLine
 10
42.19894800003941
 20
90.09154875202371
 30
0.0
 11
12.50046319020442
 21
72.94512055254147
 31
0.0
  0
LINE
  5
A59B
330
A574
100
AcDbEntity
  8
0
100
AcDbLine
 10
11.08624962783132
 20
73.7616171334692
 30
0.0
 11
40.78473443766632
 21
90.90804533295143
 31
0.0
  0
LINE
  5
A59C
330
A574
100
AcDbEntity
  8
0
100
AcDbLine
 10
-17.19802161963059
 20
-105.0511340897028
 30
0.0
 11
-17.19802161963062
 21
-73.2077674335215
 31
0.0
  0
LINE
  5
A59D
330
A574
100
AcDbEntity
  8
0
100
AcDbLine
 10
-18.61223518200368
 20
-105.8676306706305
 30
0.0
 11
-18.61223518200368
 21
-107.5006238324859
 31
0.0
  0
LINE
  5
A59E
330
A574
100
AcDbEntity
  8
0
100
AcDbLine
 10
-17.19802161963059
 20
-105.0511340897028
 30
0.0
 11
-15.7838080572575
 21
-105.8676306706305
 31
0.0
  0
ELLIPSE
  5
A59F
330
A574
100
AcDbEntity
  8
0
100
AcDbEllipse
 10
-18.61223518200368
 20
-104.234637508775
 30
0.0
 11
1.000000000000001
 21
-1.732050807568878
 31
0.0
210
0.0
220
0.0
230
1.0
 40
0.5773502691896259
 41
5.49778714378214
 42
7.068583470577038
  0
LINE
  5
A5A0
330
A574
100
AcDbEntity
  8
0
100
AcDbLine
 10
45.02737512478559
 20
-38.45563170778513
 30
0.0
 11
45.02737512478559
 21
90.09154875202371
 31
0.0
  0
ELLIPSE
  5
A5A1
330
A574
100
AcDbEntity
  8
0
100
AcDbEllipse
 10
43.6131615624125
 20
89.27505217109599
 30
0.0
 11
-1.999999999999997
 21
-0.0000000000001195
 31
0.0
210
0.0
220
0.0
230
1.0
 40
0.5773502691896258
 41
3.926990816987013
 42
5.497787143781904
  0
LINE
  5
A5A2
330
A574
100
AcDbEntity
  8
0
100
AcDbLine
 10
72.95809298165423
 20
75.59873444055657
 30
0.0
 11
71.54387941928113
 21
74.78223785962883
 31
0.0
  0
LINE
  5
A5A3
330
A574
100
AcDbEntity
  8
0
100
AcDbLine
 10
71.54387941928118
 20
-28.91282791819239
 30
0.0
 11
71.54387941928113
 21
74.78223785962883
 31
0.0
  0
LINE
  5
A5A4
330
A574
100
AcDbEntity
  8
0
100
AcDbLine
 10
42.19894800003941
 20
90.09154875202371
 30
0.0
 11
40.78473443766632
 21
90.90804533295143
 31
0.0
  0
LINE
  5
A5A5
330
A574
100
AcDbEntity
  8
0
100
AcDbLine
 10
45.02737512478559
 20
90.09154875202371
 30
0.0
 11
46.44158868715869
 21
90.90804533295145
 31
0.0
  0
LINE
  5
A5A6
330
A574
100
AcDbEntity
  8
0
100
AcDbLine
 10
71.54387941928113
 20
74.78223785962883
 30
0.0
 11
45.02737512478559
 21
90.09154875202371
 31
0.0
  0
ELLIPSE
  5
A5A7
330
A574
100
AcDbEntity
  8
0
100
AcDbEllipse
 10
57.75529718614343
 20
66.41314790511967
 30
0.0
 11
-3.250000000000003
 21
5.629165124598854
 31
0.0
210
0.0
220
0.0
230
1.0
 40
0.5773502691896258
 41
0.0
 42
6.283185307179586
  0
ELLIPSE
  5
A5A8
330
A574
100
AcDbEntity
  8
0
100
AcDbEllipse
 10
65.53347177919547
 20
74.16986542393305
 30
0.0
 11
-1.25
 21
2.165063509461096
 31
0.0
210
0.0
220
0.0
230
1.0
 40
0.5773502691896259
 41
0.0
 42
6.283185307179586
  0
LINE
  5
A5A9
330
A574
100
AcDbEntity
  8
0
100
AcDbLine
 10
-16.61223518200369
 20
-107.6987391239128
 30
0.0
 11
42.78473443766631
 21
-73.40588272494835
 31
0.0
  0
LINE
  5
A5AA
330
A574
100
AcDbEntity
  8
0
100
AcDbLine
 10
-17.19802161963061
 20
-77.29025033816012
 30
0.0
 11
-42.65386574234629
 21
-91.98718879485921
 31
0.0
  0
ELLIPSE
  5
A5AB
330
A574
100
AcDbEntity
  8
0
100
AcDbEllipse
 10
-42.65386574234629
 20
-90.35419563300374
 30
0.0
 11
2.000000000000206
 21
-3.464101615137636
 31
0.0
210
0.0
220
0.0
230
1.0
 40
0.5773502691896259
 41
3.926990816987004
 42
5.497787143781897
  0
LINE
  5
A5AC
330
A574
100
AcDbEntity
  8
0
100
AcDbLine
 10
-44.06807930471938
 20
-89.537699052076
 30
0.0
 11
-17.19802161963061
 21
-74.02426401444924
 31
0.0
  0
LINE
  5
A5AD
330
A574
100
AcDbEntity
  8
0
100
AcDbLine
 10
-45.48229286709247
 20
-88.72120247114828
 30
0.0
 11
-44.06807930471938
 21
-89.537699052076
 31
0.0
  0
LINE
  5
A5AE
330
A574
100
AcDbEntity
  8
0
100
AcDbLine
 10
-42.65386574234629
 20
-93.62018195671465
 30
0.0
 11
-42.65386574234629
 21
-91.98718879485921
 31
0.0
  0
ELLIPSE
  5
A5AF
330
A574
100
AcDbEntity
  8
0
100
AcDbEllipse
 10
-42.65386574234629
 20
-90.35419563300374
 30
0.0
 11
1.000000000000104
 21
-1.732050807568819
 31
0.0
210
0.0
220
0.0
230
1.0
 40
0.5773502691896257
 41
3.926990816986998
 42
5.497787143781903
  0
ELLIPSE
  5
A5B0
330
A574
100
AcDbEntity
  8
0
100
AcDbEllipse
 10
59.16951074851656
 20
-14.4200136067252
 30
0.0
 11
-3.25
 21
5.62916512459885
 31
0.0
210
0.0
220
0.0
230
1.0
 40
0.577350269189626
 41
0.2193254863005949
 42
2.922267167289194
  0
ELLIPSE
  5
A5B1
330
A574
100
AcDbEntity
  8
0
100
AcDbEllipse
 10
57.75529718614343
 20
-15.23651018765294
 30
0.0
 11
-3.250000000000003
 21
5.629165124598854
 31
0.0
210
0.0
220
0.0
230
1.0
 40
0.5773502691896258
 41
0.0
 42
6.283185307179586
  0
ELLIPSE
  5
A5B2
330
A574
100
AcDbEntity
  8
0
100
AcDbEllipse
 10
51.39133615546453
 20
-22.17673112553861
 30
0.0
 11
1.250000000000129
 21
-2.165063509461022
 31
0.0
210
0.0
220
0.0
230
1.0
 40
0.5773502691896259
 41
3.742856870268591
 42
5.681921090500106
  0
ELLIPSE
  5
A5B3
330
A574
100
AcDbEntity
  8
0
100
AcDbEllipse
 10
51.39133615546453
 20
-5.846799506984083
 30
0.0
 11
1.250000000000129
 21
-2.165063509461022
 31
0.0
210
0.0
220
0.0
230
1.0
 40
0.5773502691896259
 41
3.742856870268589
 42
5.681921090500106
  0
ELLIPSE
  5
A5B4
330
A574
100
AcDbEntity
  8
0
100
AcDbEllipse
 10
51.39133615546453
 20
10.48313211157044
 30
0.0
 11
1.250000000000129
 21
-2.165063509461022
 31
0.0
210
0.0
220
0.0
230
1.0
 40
0.5773502691896259
 41
3.742856870268589
 42
5.681921090500106
  0
ELLIPSE
  5
A5B5
330
A574
100
AcDbEntity
  8
0
100
AcDbEllipse
 10
51.39133615546453
 20
26.81306373012495
 30
0.0
 11
1.250000000000129
 21
-2.165063509461022
 31
0.0
210
0.0
220
0.0
230
1.0
 40
0.5773502691896259
 41
3.742856870268587
 42
5.681921090500106
  0
ELLIPSE
  5
A5B6
330
A574
100
AcDbEntity
  8
0
100
AcDbEllipse
 10
51.39133615546453
 20
43.14299534867948
 30
0.0
 11
1.250000000000129
 21
-2.165063509461022
 31
0.0
210
0.0
220
0.0
230
1.0
 40
0.5773502691896259
 41
3.742856870268585
 42
5.681921090500106
  0
ELLIPSE
  5
A5B7
330
A574
100
AcDbEntity
  8
0
100
AcDbEllipse
 10
51.39133615546453
 20
59.472926967234
 30
0.0
 11
1.250000000000129
 21
-2.165063509461022
 31
0.0
210
0.0
220
0.0
230
1.0
 40
0.5773502691896259
 41
3.742856870268585
 42
5.681921090500106
  0
ELLIPSE
  5
A5B8
330
A574
100
AcDbEntity
  8
0
100
AcDbEllipse
 10
49.97712259309141
 20
-22.99322770646635
 30
0.0
 11
-1.25
 21
2.165063509461096
 31
0.0
210
0.0
220
0.0
230
1.0
 40
0.5773502691896259
 41
0.0
 42
6.283185307179586
  0
ELLIPSE
  5
A5B9
330
A574
100
AcDbEntity
  8
0
100
AcDbEllipse
 10
49.97712259309141
 20
-6.66329608791182
 30
0.0
 11
-1.25
 21
2.165063509461096
 31
0.0
210
0.0
220
0.0
230
1.0
 40
0.5773502691896259
 41
0.0
 42
6.283185307179586
  0
ELLIPSE
  5
A5BA
330
A574
100
AcDbEntity
  8
0
100
AcDbEllipse
 10
49.97712259309141
 20
9.666635530642704
 30
0.0
 11
-1.25
 21
2.165063509461096
 31
0.0
210
0.0
220
0.0
230
1.0
 40
0.5773502691896259
 41
0.0
 42
6.283185307179586
  0
ELLIPSE
  5
A5BB
330
A574
100
AcDbEntity
  8
0
100
AcDbEllipse
 10
49.97712259309141
 20
25.99656714919721
 30
0.0
 11
-1.25
 21
2.165063509461096
 31
0.0
210
0.0
220
0.0
230
1.0
 40
0.5773502691896259
 41
0.0
 42
6.283185307179586
  0
ELLIPSE
  5
A5BC
330
A574
100
AcDbEntity
  8
0
100
AcDbEllipse
 10
49.97712259309141
 20
42.32649876775173
 30
0.0
 11
-1.25
 21
2.165063509461096
 31
0.0
210
0.0
220
0.0
230
1.0
 40
0.5773502691896259
 41
0.0
 42
6.283185307179586
  0
ELLIPSE
  5
A5BD
330
A574
100
AcDbEntity
  8
0
100
AcDbEllipse
 10
49.97712259309141
 20
58.65643038630626
 30
0.0
 11
-1.25
 21
2.165063509461096
 31
0.0
210
0.0
220
0.0
230
1.0
 40
0.5773502691896259
 41
0.0
 42
6.283185307179586
  0
ELLIPSE
  5
A5BE
330
A574
100
AcDbEntity
  8
0
100
AcDbEllipse
 10
51.39133615546453
 20
75.80285858578853
 30
0.0
 11
1.250000000000129
 21
-2.165063509461022
 31
0.0
210
0.0
220
0.0
230
1.0
 40
0.5773502691896259
 41
3.742856870268585
 42
5.681921090500106
  0
ELLIPSE
  5
A5BF
330
A574
100
AcDbEntity
  8
0
100
AcDbEllipse
 10
49.97712259309141
 20
74.98636200486078
 30
0.0
 11
-1.25
 21
2.165063509461096
 31
0.0
210
0.0
220
0.0
230
1.0
 40
0.5773502691896259
 41
0.0
 42
6.283185307179586
  0
ELLIPSE
  5
A5C0
330
A574
100
AcDbEntity
  8
0
100
AcDbEllipse
 10
66.94768534156859
 20
-22.99322770646633
 30
0.0
 11
1.250000000000129
 21
-2.165063509461021
 31
0.0
210
0.0
220
0.0
230
1.0
 40
0.5773502691896259
 41
3.742856870268591
 42
5.681921090500106
  0
ELLIPSE
  5
A5C1
330
A574
100
AcDbEntity
  8
0
100
AcDbEllipse
 10
66.94768534156859
 20
-6.663296087911803
 30
0.0
 11
1.250000000000129
 21
-2.165063509461022
 31
0.0
210
0.0
220
0.0
230
1.0
 40
0.5773502691896259
 41
3.742856870268589
 42
5.681921090500106
  0
ELLIPSE
  5
A5C2
330
A574
100
AcDbEntity
  8
0
100
AcDbEllipse
 10
66.94768534156859
 20
9.666635530642722
 30
0.0
 11
1.250000000000129
 21
-2.165063509461022
 31
0.0
210
0.0
220
0.0
230
1.0
 40
0.5773502691896259
 41
3.742856870268589
 42
5.681921090500106
  0
ELLIPSE
  5
A5C3
330
A574
100
AcDbEntity
  8
0
100
AcDbEllipse
 10
66.94768534156859
 20
25.99656714919723
 30
0.0
 11
1.250000000000129
 21
-2.165063509461022
 31
0.0
210
0.0
220
0.0
230
1.0
 40
0.5773502691896259
 41
3.742856870268592
 42
5.681921090500106
  0
ELLIPSE
  5
A5C4
330
A574
100
AcDbEntity
  8
0
100
AcDbEllipse
 10
66.94768534156859
 20
42.32649876775176
 30
0.0
 11
1.250000000000129
 21
-2.165063509461022
 31
0.0
210
0.0
220
0.0
230
1.0
 40
0.5773502691896259
 41
3.742856870268585
 42
5.681921090500106
  0
ELLIPSE
  5
A5C5
330
A574
100
AcDbEntity
  8
0
100
AcDbEllipse
 10
66.94768534156859
 20
58.65643038630628
 30
0.0
 11
1.250000000000129
 21
-2.165063509461022
 31
0.0
210
0.0
220
0.0
230
1.0
 40
0.5773502691896259
 41
3.742856870268585
 42
5.681921090500106
  0
ELLIPSE
  5
A5C6
330
A574
100
AcDbEntity
  8
0
100
AcDbEllipse
 10
-8.005633464205494
 20
100.2977560136203
 30
0.0
 11
1.25
 21
-2.165063509461096
 31
0.0
210
0.0
220
0.0
230
1.0
 40
0.5773502691896259
 41
0.0
 42
6.283185307179586
  0
ELLIPSE
  5
A5C7
330
A574
100
AcDbEntity
  8
0
100
AcDbEllipse
 10
-6.59141990183238
 20
101.114252594548
 30
0.0
 11
1.25000000000013
 21
-2.165063509461022
 31
0.0
210
0.0
220
0.0
230
1.0
 40
0.5773502691896259
 41
3.742856870268589
 42
5.68192109050011
  0
ELLIPSE
  5
A5C8
330
A574
100
AcDbEntity
  8
0
100
AcDbEllipse
 10
65.53347177919547
 20
-23.80972428739406
 30
0.0
 11
-1.25
 21
2.165063509461096
 31
0.0
210
0.0
220
0.0
230
1.0
 40
0.5773502691896259
 41
0.0
 42
6.283185307179586
  0
ELLIPSE
  5
A5C9
330
A574
100
AcDbEntity
  8
0
100
AcDbEllipse
 10
65.53347177919547
 20
-7.479792668839539
 30
0.0
 11
-1.25
 21
2.165063509461096
 31
0.0
210
0.0
220
0.0
230
1.0
 40
0.5773502691896259
 41
0.0
 42
6.283185307179586
  0
ELLIPSE
  5
A5CA
330
A574
100
AcDbEntity
  8
0
100
AcDbEllipse
 10
65.53347177919547
 20
8.850138949714985
 30
0.0
 11
-1.25
 21
2.165063509461096
 31
0.0
210
0.0
220
0.0
230
1.0
 40
0.5773502691896259
 41
0.0
 42
6.283185307179586
  0
ELLIPSE
  5
A5CB
330
A574
100
AcDbEntity
  8
0
100
AcDbEllipse
 10
65.53347177919547
 20
25.18007056826949
 30
0.0
 11
-1.25
 21
2.165063509461096
 31
0.0
210
0.0
220
0.0
230
1.0
 40
0.5773502691896259
 41
0.0
 42
6.283185307179586
  0
ELLIPSE
  5
A5CC
330
A574
100
AcDbEntity
  8
0
100
AcDbEllipse
 10
65.53347177919547
 20
41.51000218682401
 30
0.0
 11
-1.25
 21
2.165063509461096
 31
0.0
210
0.0
220
0.0
230
1.0
 40
0.5773502691896259
 41
0.0
 42
6.283185307179586
  0
ELLIPSE
  5
A5CD
330
A574
100
AcDbEntity
  8
0
100
AcDbEllipse
 10
65.53347177919547
 20
57.83993380537854
 30
0.0
 11
-1.25
 21
2.165063509461096
 31
0.0
210
0.0
220
0.0
230
1.0
 40
0.5773502691896259
 41
0.0
 42
6.283185307179586
  0
ELLIPSE
  5
A5CE
330
A574
100
AcDbEntity
  8
0
100
AcDbEllipse
 10
-0.2274588711534653
 20
99.88950772315645
 30
0.0
 11
-3.250000000000004
 21
5.629165124598849
 31
0.0
210
0.0
220
0.0
230
1.0
 40
0.5773502691896258
 41
4.712388980384693
 42
7.853981633974483
  0
ELLIPSE
  5
A5CF
330
A574
100
AcDbEntity
  8
0
100
AcDbEllipse
 10
1.186754691219649
 20
100.7060043040842
 30
0.0
 11
-3.25
 21
5.629165124598853
 31
0.0
210
0.0
220
0.0
230
1.0
 40
0.5773502691896255
 41
0.219325486300594
 42
1.570796326794897
  0
ELLIPSE
  5
A5D0
330
A574
100
AcDbEntity
  8
0
100
AcDbEllipse
 10
-8.005633464205494
 20
116.6276876321748
 30
0.0
 11
1.25
 21
-2.165063509461096
 31
0.0
210
0.0
220
0.0
230
1.0
 40
0.5773502691896259
 41
0.0
 42
6.283185307179586
  0
ELLIPSE
  5
A5D1
330
A574
100
AcDbEntity
  8
0
100
AcDbEllipse
 10
-6.59141990183238
 20
117.4441842131025
 30
0.0
 11
1.25000000000013
 21
-2.165063509461022
 31
0.0
210
0.0
220
0.0
230
1.0
 40
0.5773502691896259
 41
3.742856870268589
 42
5.68192109050011
  0
LINE
  5
A5D2
330
A574
100
AcDbEntity
  8
0
100
AcDbLine
 10
12.5004631902044
 20
107.2379769515059
 30
0.0
 11
12.50046319020441
 21
108.8709701133614
 31
0.0
  0
ELLIPSE
  5
A5D3
330
A574
100
AcDbEntity
  8
0
100
AcDbEllipse
 10
11.08624962783131
 20
108.0544735324337
 30
0.0
 11
1.999999999999997
 21
-0.0000000000000002
 31
0.0
210
0.0
220
0.0
230
1.0
 40
0.5773502691896258
 41
5.497787143782141
 42
7.068583470577028
  0
LINE
  5
A5D4
330
A574
100
AcDbEntity
  8
0
100
AcDbLine
 10
13.9146767525775
 20
106.4214803705782
 30
0.0
 11
13.9146767525775
 21
75.39461029532464
 31
0.0
  0
ELLIPSE
  5
A5D5
330
A574
100
AcDbEntity
  8
0
100
AcDbEllipse
 10
11.08624962783131
 20
108.0544735324337
 30
0.0
 11
3.999999999999999
 21
-0.0000000000000003
 31
0.0
210
0.0
220
0.0
230
1.0
 40
0.5773502691896258
 41
5.497787143782137
 42
7.068583470577028
  0
LINE
  5
A5D6
330
A574
100
AcDbEntity
  8
0
100
AcDbLine
 10
12.50046319020441
 20
108.8709701133614
 30
0.0
 11
13.91467675257751
 21
109.6874666942891
 31
0.0
  0
LINE
  5
A5D7
330
A574
100
AcDbEntity
  8
0
100
AcDbLine
 10
12.5004631902044
 20
107.2379769515059
 30
0.0
 11
13.9146767525775
 21
106.4214803705782
 31
0.0
  0
LINE
  5
A5D8
330
A574
100
AcDbEntity
  8
0
100
AcDbLine
 10
15.0862496278313
 20
76.07101821022768
 30
0.0
 11
15.0862496278313
 21
108.0544735324337
 31
0.0
  0
LINE
  5
A5D9
330
A574
100
AcDbEntity
  8
0
100
AcDbLine
 10
-14.01604110429112
 20
124.1802810057563
 30
0.0
 11
12.50046319020441
 21
108.8709701133614
 31
0.0
  0
LINE
  5
A5DA
330
A574
100
AcDbEntity
  8
0
100
AcDbLine
 10
-14.01604110429116
 20
91.9286660591111
 30
0.0
 11
-14.01604110429112
 21
124.1802810057563
 31
0.0
  0
LINE
  5
A5DB
330
A574
100
AcDbEntity
  8
0
100
AcDbLine
 10
-44.06807930471938
 20
-89.537699052076
 30
0.0
 11
-44.0680793047194
 21
-57.69433239589471
 31
0.0
  0
LINE
  5
A5DC
330
A574
100
AcDbEntity
  8
0
100
AcDbLine
 10
-15.78380805725748
 20
89.27505217109599
 30
0.0
 11
13.9146767525775
 21
106.4214803705782
 31
0.0
  0
LINE
  5
A5DD
330
A574
100
AcDbEntity
  8
0
100
AcDbLine
 10
-45.48229286709251
 20
-56.87783581496697
 30
0.0
 11
-45.48229286709247
 21
-88.72120247114828
 31
0.0
  0
LINE
  5
A5DE
330
A574
100
AcDbEntity
  8
0
100
AcDbLine
 10
12.5004631902044
 20
107.2379769515059
 30
0.0
 11
-17.19802161963057
 21
90.09154875202371
 31
0.0
  0
LINE
  5
A5DF
330
A574
100
AcDbEntity
  8
0
100
AcDbLine
 10
13.91467675257751
 20
109.6874666942891
 30
0.0
 11
-12.60182754191802
 21
124.996777586684
 31
0.0
  0
LINE
  5
A5E0
330
A574
100
AcDbEntity
  8
0
100
AcDbLine
 10
-12.60182754191802
 20
124.996777586684
 30
0.0
 11
-14.01604110429112
 21
124.1802810057563
 31
0.0
  0
ELLIPSE
  5
A5E1
330
A574
100
AcDbEntity
  8
0
100
AcDbEllipse
 10
16.38955048673041
 20
-33.40355911329485
 30
0.0
 11
1.249999999999871
 21
2.16506350946117
 31
0.0
210
0.0
220
0.0
230
1.0
 40
0.577350269189626
 41
3.742856870268582
 42
5.681921090500121
  0
ELLIPSE
  5
A5E2
330
A574
100
AcDbEntity
  8
0
100
AcDbEllipse
 10
17.80376404910351
 20
-34.22005569422257
 30
0.0
 11
-1.25
 21
-2.165063509461096
 31
0.0
210
0.0
220
0.0
230
1.0
 40
0.577350269189626
 41
0.0
 42
6.283185307179586
  0
ELLIPSE
  5
A5E3
330
A574
100
AcDbEntity
  8
0
100
AcDbEllipse
 10
16.38955048673041
 20
-17.07362749474032
 30
0.0
 11
1.249999999999871
 21
2.16506350946117
 31
0.0
210
0.0
220
0.0
230
1.0
 40
0.577350269189626
 41
3.742856870268582
 42
5.681921090500121
  0
ELLIPSE
  5
A5E4
330
A574
100
AcDbEntity
  8
0
100
AcDbEllipse
 10
17.80376404910351
 20
-17.89012407566804
 30
0.0
 11
-1.25
 21
-2.165063509461096
 31
0.0
210
0.0
220
0.0
230
1.0
 40
0.577350269189626
 41
0.0
 42
6.283185307179586
  0
ELLIPSE
  5
A5E5
330
A574
100
AcDbEntity
  8
0
100
AcDbEllipse
 10
16.38955048673041
 20
-0.7436958761857948
 30
0.0
 11
1.249999999999871
 21
2.16506350946117
 31
0.0
210
0.0
220
0.0
230
1.0
 40
0.577350269189626
 41
3.742856870268582
 42
5.681921090500118
  0
ELLIPSE
  5
A5E6
330
A574
100
AcDbEntity
  8
0
100
AcDbEllipse
 10
17.80376404910351
 20
-1.560192457113522
 30
0.0
 11
-1.25
 21
-2.165063509461096
 31
0.0
210
0.0
220
0.0
230
1.0
 40
0.577350269189626
 41
0.0
 42
6.283185307179586
  0
ELLIPSE
  5
A5E7
330
A574
100
AcDbEntity
  8
0
100
AcDbEllipse
 10
16.38955048673041
 20
15.58623574236871
 30
0.0
 11
1.249999999999871
 21
2.16506350946117
 31
0.0
210
0.0
220
0.0
230
1.0
 40
0.577350269189626
 41
3.742856870268582
 42
5.681921090500121
  0
ELLIPSE
  5
A5E8
330
A574
100
AcDbEntity
  8
0
100
AcDbEllipse
 10
17.80376404910351
 20
14.76973916144098
 30
0.0
 11
-1.25
 21
-2.165063509461096
 31
0.0
210
0.0
220
0.0
230
1.0
 40
0.577350269189626
 41
0.0
 42
6.283185307179586
  0
ELLIPSE
  5
A5E9
330
A574
100
AcDbEntity
  8
0
100
AcDbEllipse
 10
16.38955048673041
 20
31.91616736092325
 30
0.0
 11
1.249999999999871
 21
2.16506350946117
 31
0.0
210
0.0
220
0.0
230
1.0
 40
0.577350269189626
 41
3.742856870268582
 42
5.681921090500121
  0
ELLIPSE
  5
A5EA
330
A574
100
AcDbEntity
  8
0
100
AcDbEllipse
 10
17.80376404910351
 20
31.09967077999551
 30
0.0
 11
-1.25
 21
-2.165063509461096
 31
0.0
210
0.0
220
0.0
230
1.0
 40
0.577350269189626
 41
0.0
 42
6.283185307179586
  0
ELLIPSE
  5
A5EB
330
A574
100
AcDbEntity
  8
0
100
AcDbEllipse
 10
16.38955048673041
 20
48.24609897947777
 30
0.0
 11
1.249999999999871
 21
2.16506350946117
 31
0.0
210
0.0
220
0.0
230
1.0
 40
0.577350269189626
 41
3.742856870268582
 42
5.681921090500104
  0
ELLIPSE
  5
A5EC
330
A574
100
AcDbEntity
  8
0
100
AcDbEllipse
 10
17.80376404910351
 20
47.42960239855003
 30
0.0
 11
-1.25
 21
-2.165063509461096
 31
0.0
210
0.0
220
0.0
230
1.0
 40
0.577350269189626
 41
0.0
 42
6.283185307179586
  0
ELLIPSE
  5
A5ED
330
A574
100
AcDbEntity
  8
0
100
AcDbEllipse
 10
-11.89472076073147
 20
-25.23859330401756
 30
0.0
 11
1.249999999999871
 21
2.165063509461171
 31
0.0
210
0.0
220
0.0
230
1.0
 40
0.5773502691896259
 41
3.742856870268582
 42
5.681921090500117
  0
ELLIPSE
  5
A5EE
330
A574
100
AcDbEntity
  8
0
100
AcDbEllipse
 10
-10.48050719835837
 20
-26.05508988494529
 30
0.0
 11
1.249999999999999
 21
2.165063509461097
 31
0.0
210
0.0
220
0.0
230
0.9999999999999998
 40
0.5773502691896258
 41
0.0
 42
6.283185307179586
  0
ELLIPSE
  5
A5EF
330
A574
100
AcDbEntity
  8
0
100
AcDbEllipse
 10
-11.89472076073147
 20
-8.908661685463048
 30
0.0
 11
1.249999999999871
 21
2.165063509461171
 31
0.0
210
0.0
220
0.0
230
1.0
 40
0.5773502691896259
 41
3.742856870268582
 42
5.681921090500116
  0
ELLIPSE
  5
A5F0
330
A574
100
AcDbEntity
  8
0
100
AcDbEllipse
 10
-10.48050719835837
 20
-9.725158266390776
 30
0.0
 11
1.249999999999999
 21
2.165063509461097
 31
0.0
210
0.0
220
0.0
230
0.9999999999999998
 40
0.5773502691896258
 41
0.0
 42
6.283185307179586
  0
ELLIPSE
  5
A5F1
330
A574
100
AcDbEntity
  8
0
100
AcDbEllipse
 10
-11.89472076073147
 20
7.421269933091476
 30
0.0
 11
1.249999999999871
 21
2.165063509461171
 31
0.0
210
0.0
220
0.0
230
1.0
 40
0.5773502691896259
 41
3.742856870268582
 42
5.681921090500121
  0
ELLIPSE
  5
A5F2
330
A574
100
AcDbEntity
  8
0
100
AcDbEllipse
 10
-10.48050719835837
 20
6.604773352163748
 30
0.0
 11
1.249999999999999
 21
2.165063509461097
 31
0.0
210
0.0
220
0.0
230
0.9999999999999998
 40
0.5773502691896258
 41
0.0
 42
6.283185307179586
  0
ELLIPSE
  5
A5F3
330
A574
100
AcDbEntity
  8
0
100
AcDbEllipse
 10
-11.89472076073147
 20
23.751201551646
 30
0.0
 11
1.249999999999871
 21
2.165063509461171
 31
0.0
210
0.0
220
0.0
230
1.0
 40
0.5773502691896259
 41
3.742856870268582
 42
5.681921090500121
  0
ELLIPSE
  5
A5F4
330
A574
100
AcDbEntity
  8
0
100
AcDbEllipse
 10
-10.48050719835837
 20
22.93470497071828
 30
0.0
 11
1.249999999999999
 21
2.165063509461097
 31
0.0
210
0.0
220
0.0
230
0.9999999999999998
 40
0.5773502691896258
 41
0.0
 42
6.283185307179586
  0
ELLIPSE
  5
A5F5
330
A574
100
AcDbEntity
  8
0
100
AcDbEllipse
 10
-11.89472076073147
 20
40.0811331702005
 30
0.0
 11
1.249999999999871
 21
2.165063509461171
 31
0.0
210
0.0
220
0.0
230
1.0
 40
0.5773502691896259
 41
3.742856870268582
 42
5.681921090500118
  0
ELLIPSE
  5
A5F6
330
A574
100
AcDbEntity
  8
0
100
AcDbEllipse
 10
-10.48050719835837
 20
39.26463658927279
 30
0.0
 11
1.249999999999999
 21
2.165063509461097
 31
0.0
210
0.0
220
0.0
230
0.9999999999999998
 40
0.5773502691896258
 41
0.0
 42
6.283185307179586
  0
ELLIPSE
  5
A5F7
330
A574
100
AcDbEntity
  8
0
100
AcDbEllipse
 10
-11.89472076073147
 20
56.41106478875503
 30
0.0
 11
1.249999999999871
 21
2.165063509461171
 31
0.0
210
0.0
220
0.0
230
1.0
 40
0.5773502691896259
 41
3.742856870268582
 42
5.681921090500118
  0
ELLIPSE
  5
A5F8
330
A574
100
AcDbEntity
  8
0
100
AcDbEllipse
 10
-10.48050719835837
 20
55.59456820782731
 30
0.0
 11
1.249999999999999
 21
2.165063509461097
 31
0.0
210
0.0
220
0.0
230
0.9999999999999998
 40
0.5773502691896258
 41
0.0
 42
6.283185307179586
  0
ELLIPSE
  5
A5F9
330
A574
100
AcDbEntity
  8
0
100
AcDbEllipse
 10
-11.89472076073147
 20
72.74099640730955
 30
0.0
 11
1.249999999999871
 21
2.165063509461171
 31
0.0
210
0.0
220
0.0
230
1.0
 40
0.5773502691896259
 41
3.742856870268582
 42
5.681921090500104
  0
ELLIPSE
  5
A5FA
330
A574
100
AcDbEntity
  8
0
100
AcDbEllipse
 10
-10.48050719835837
 20
71.92449982638184
 30
0.0
 11
1.249999999999999
 21
2.165063509461097
 31
0.0
210
0.0
220
0.0
230
0.9999999999999998
 40
0.5773502691896258
 41
0.0
 42
6.283185307179586
  0
ELLIPSE
  5
A5FB
330
A574
100
AcDbEntity
  8
0
100
AcDbEllipse
 10
-11.89472076073147
 20
89.07092802586406
 30
0.0
 11
1.249999999999871
 21
2.165063509461171
 31
0.0
210
0.0
220
0.0
230
1.0
 40
0.5773502691896259
 41
3.742856870268582
 42
5.681921090500104
  0
ELLIPSE
  5
A5FC
330
A574
100
AcDbEntity
  8
0
100
AcDbEllipse
 10
-10.48050719835837
 20
88.25443144493634
 30
0.0
 11
1.249999999999999
 21
2.165063509461097
 31
0.0
210
0.0
220
0.0
230
0.9999999999999998
 40
0.5773502691896258
 41
0.0
 42
6.283185307179586
  0
LINE
  5
A5FD
330
A574
100
AcDbEntity
  8
0
100
AcDbLine
 10
-15.7838080572575
 20
-14.42001360672524
 30
0.0
 11
-44.0680793047194
 21
-57.69433239589471
 31
0.0
  0
LINE
  5
A5FE
330
A574
100
AcDbEntity
  8
0
100
AcDbLine
 10
-17.1980216196306
 20
-13.60351702579751
 30
0.0
 11
-15.7838080572575
 21
-14.42001360672524
 31
0.0
  0
LINE
  5
A5FF
330
A574
100
AcDbEntity
  8
0
100
AcDbLine
 10
-45.48229286709251
 20
-56.87783581496697
 30
0.0
 11
-17.1980216196306
 21
-13.60351702579751
 31
0.0
  0
LINE
  5
A600
330
A574
100
AcDbEntity
  8
0
100
AcDbLine
 10
-44.0680793047194
 20
-57.69433239589471
 30
0.0
 11
-45.48229286709251
 21
-56.87783581496697
 31
0.0
  0
LINE
  5
A601
330
A574
100
AcDbEntity
  8
0
100
AcDbLine
 10
-15.78380805725748
 20
89.27505217109599
 30
0.0
 11
-15.7838080572575
 21
-14.42001360672524
 31
0.0
  0
LINE
  5
A602
330
A574
100
AcDbEntity
  8
0
100
AcDbLine
 10
-17.19802161963057
 20
90.09154875202371
 30
0.0
 11
-15.78380805725748
 21
89.27505217109599
 31
0.0
  0
LINE
  5
A603
330
A574
100
AcDbEntity
  8
0
100
AcDbLine
 10
-17.1980216196306
 20
-13.60351702579751
 30
0.0
 11
-17.19802161963057
 21
90.09154875202369
 31
0.0
  0
ENDBLK
  5
A576
330
A574
100
AcDbEntity
  8
0
100
AcDbBlockEnd
  0
ENDSEC
  0
SECTION
  2
ENTITIES
  0
INSERT
  5
A604
330
1F
100
AcDbEntity
  8
0
100
AcDbBlockReference
  2
SAE440_38_2-Front
 10
0.0
 20
0.0
 30
0.0
  0
INSERT
  5
A605
330
1F
100
AcDbEntity
  8
0
100
AcDbBlockReference
  2
SAE440_38_2-Left
 10
121.4
 20
0.0
 30
0.0
  0
INSERT
  5
A606
330
1F
100
AcDbEntity
  8
0
100
AcDbBlockReference
  2
SAE440_38_2-Right
 10
-121.4
 20
0.0
 30
0.0
  0
INSERT
  5
A607
330
1F
100
AcDbEntity
  8
0
100
AcDbBlockReference
  2
SAE440_38_2-Top
 10
0.0
 20
-62.9
 30
0.0
  0
INSERT
  5
A608
330
1F
100
AcDbEntity
  8
0
100
AcDbBlockReference
  2
SAE440_38_2-Bottom
 10
0.0
 20
261.9
 30
0.0
  0
INSERT
  5
A609
330
1F
100
AcDbEntity
  8
0
100
AcDbBlockReference
  2
SAE440_38_2-ISO
 10
166.8822928670926
 20
-187.896777586684
 30
0.0
  0
MTEXT
  5
A60A
330
1F
100
AcDbEntity
  8
0
100
AcDbMText
 10
0.0
 20
-209.8
 30
0.0
 40
15.17500000000001
 41
0.0
 71
     5
 72
     5
  1
SAE440/38/2
 73
     1
 44
1.0
1001
ACAD
1000
MTEXTBEGIN
1070
    73
1070
     1
1070
    44
1040
1.0
1070
    74
1070
     0
1000
MTEXTEND
  0
ENDSEC
  0
SECTION
  2
OBJECTS
  0
DICTIONARY
  5
C
330
0
100
AcDbDictionary
281
     1
  3
ACAD_CIP_PREVIOUS_PRODUCT_INFO
350
216
  3
ACAD_COLOR
350
6B
  3
ACAD_DETAILVIEWSTYLE
350
21B
  3
ACAD_GROUP
350
D
  3
ACAD_LAYOUT
350
1A
  3
ACAD_MATERIAL
350
6A
  3
ACAD_MLEADERSTYLE
350
12D
  3
ACAD_MLINESTYLE
350
17
  3
ACAD_PLOTSETTINGS
350
19
  3
ACAD_PLOTSTYLENAME
350
E
  3
ACAD_SCALELIST
350
10C
  3
ACAD_SECTIONVIEWSTYLE
350
219
  3
ACAD_TABLESTYLE
350
7E
  3
ACAD_VISUALSTYLE
350
EF
  3
ACDB_RECOMPOSE_DATA
350
A70B
  3
AcDbVariableDictionary
350
5E
  3
DWGPROPS
350
A70C
  0
DICTIONARY
  5
A65B
330
8
100
AcDbDictionary
280
     1
281
     1
  0
DICTIONARY
  5
1FF
330
2
100
AcDbDictionary
280
     1
281
     1
  3
ACAD_LAYERSTATES
360
200
  0
DICTIONARY
  5
13C
330
10
100
AcDbDictionary
280
     1
281
     1
  0
DICTIONARY
  5
1CE
330
1F
100
AcDbDictionary
280
     1
281
     1
  3
ACAD_LAYOUTSELFREF
360
A663
  0
DICTIONARY
  5
A60E
330
D2
100
AcDbDictionary
280
     1
281
     1
  3
ACAD_LAYOUTSELFREF
360
A66C
  0
DICTIONARY
  5
A610
330
D6
100
AcDbDictionary
280
     1
281
     1
  3
ACAD_LAYOUTSELFREF
360
A66F
  0
XRECORD
  5
216
102
{ACAD_REACTORS
330
C
102
}
330
C
100
AcDbXrecord
280
     1
300
ACD
300
2021
300
87393ACD_2021_0F
  0
DICTIONARY
  5
6B
102
{ACAD_REACTORS
330
C
102
}
330
C
100
AcDbDictionary
281
     1
  0
DICTIONARY
  5
21B
102
{ACAD_REACTORS
330
C
102
}
330
C
100
AcDbDictionary
281
     1
  3
Metric50
350
21C
  0
DICTIONARY
  5
D
102
{ACAD_REACTORS
330
C
102
}
330
C
100
AcDbDictionary
281
     1
  0
DICTIONARY
  5
1A
102
{ACAD_REACTORS
330
C
102
}
330
C
100
AcDbDictionary
281
     1
  3
Layout1
350
D3
  3
Layout2
350
D7
  3
Model
350
22
  0
DICTIONARY
  5
6A
102
{ACAD_REACTORS
330
C
102
}
330
C
100
AcDbDictionary
281
     1
  3
ByBlock
350
ED
  3
ByLayer
350
EC
  3
Global
350
EE
  0
DICTIONARY
  5
12D
102
{ACAD_REACTORS
330
C
102
}
330
C
100
AcDbDictionary
281
     1
  3
Standard
350
12E
  0
DICTIONARY
  5
17
102
{ACAD_REACTORS
330
C
102
}
330
C
100
AcDbDictionary
281
     1
  3
Standard
350
18
  0
DICTIONARY
  5
19
102
{ACAD_REACTORS
330
C
102
}
330
C
100
AcDbDictionary
281
     1
  0
ACDBDICTIONARYWDFLT
  5
E
102
{ACAD_REACTORS
330
C
102
}
330
C
100
AcDbDictionary
281
     1
  3
Normal
350
F
100
AcDbDictionaryWithDefault
340
F
  0
DICTIONARY
  5
10C
102
{ACAD_REACTORS
330
C
102
}
330
C
100
AcDbDictionary
281
     1
  3
A0
350
10D
  3
A1
350
1BE
  3
A2
350
1BF
  3
A3
350
1C0
  3
A4
350
1C1
  3
A5
350
1C2
  3
A6
350
1C3
  3
A7
350
1C4
  3
A8
350
1C5
  3
A9
350
1C6
  3
B0
350
1C7
  3
B1
350
1C8
  3
B2
350
1C9
  3
B3
350
1CA
  3
B4
350
1CB
  3
B5
350
1CC
  3
B6
350
1CD
  0
DICTIONARY
  5
219
102
{ACAD_REACTORS
330
C
102
}
330
C
100
AcDbDictionary
281
     1
  3
Metric50
350
21A
  0
DICTIONARY
  5
7E
102
{ACAD_REACTORS
330
C
102
}
330
C
100
AcDbDictionary
281
     1
  3
Standard
350
7F
  0
DICTIONARY
  5
EF
102
{ACAD_REACTORS
330
C
102
}
330
C
100
AcDbDictionary
281
     1
  3
2dWireframe
350
F5
  3
Basic
350
F4
  3
Brighten
350
FB
  3
ColorChange
350
FF
  3
Conceptual
350
F8
  3
Dim
350
FA
  3
EdgeColorOff
350
1E6
  3
Facepattern
350
FE
  3
Flat
350
F0
  3
FlatWithEdges
350
F1
  3
Gouraud
350
F2
  3
GouraudWithEdges
350
F3
  3
Hidden
350
F7
  3
JitterOff
350
1E4
  3
Linepattern
350
FD
  3
OverhangOff
350
1E5
  3
Realistic
350
F9
  3
Shaded
350
1F3
  3
Shaded with edges
350
1F2
  3
Shades of Gray
350
1EF
  3
Sketchy
350
1F0
  3
Thicken
350
FC
  3
Wireframe
350
F6
  3
X-Ray
350
1F1
  0
XRECORD
  5
A70B
102
{ACAD_REACTORS
330
C
102
}
330
C
100
AcDbXrecord
280
     1
 90
        1
330
7F
  0
DICTIONARY
  5
5E
102
{ACAD_REACTORS
330
C
102
}
330
C
100
AcDbDictionary
281
     1
  3
CANNOSCALE
350
146
  3
CENTEREXE
350
259
  3
CENTERLTYPEFILE
350
25A
  3
CMLEADERSTYLE
350
145
  3
CTABLESTYLE
350
84
  3
CVIEWDETAILSTYLE
350
227
  3
CVIEWSECTIONSTYLE
350
228
  3
DIMASSOC
350
5F
  3
HIDETEXT
350
63
  3
INDEXCTL
350
A6B8
  3
LAYEREVAL
350
1AE
  3
LAYERNOTIFY
350
1AF
  3
LIGHTINGUNITS
350
A6B6
  3
MSLTSCALE
350
A6B5
  3
PSOLHEIGHT
350
A708
  3
PSOLWIDTH
350
A707
  3
SORTENTS
350
A6B7
  3
XCLIPFRAME
350
A709
  0
XRECORD
  5
A70C
102
{ACAD_REACTORS
330
C
102
}
330
C
100
AcDbXrecord
280
     1
  1
DWGPROPS COOKIE
  2

  3

  4

  6

  7

  8
truole
  9

300
=
301
=
302
=
303
=
304
=
305
=
306
=
307
=
308
=
309
=
 40
0.0078587962962963
 41
2460398.356956019
 42
2460398.375416667
  1

 90
        0
  0
DICTIONARY
  5
200
102
{ACAD_REACTORS
330
1FF
102
}
330
1FF
100
AcDbDictionary
281
     1
  0
XRECORD
  5
A663
102
{ACAD_REACTORS
330
1CE
102
}
330
1CE
100
AcDbXrecord
280
     1
340
1F
  0
XRECORD
  5
A66C
102
{ACAD_REACTORS
330
A60E
102
}
330
A60E
100
AcDbXrecord
280
     1
340
D2
  0
XRECORD
  5
A66F
102
{ACAD_REACTORS
330
A610
102
}
330
A610
100
AcDbXrecord
280
     1
340
D6
  0
ACDBDETAILVIEWSTYLE
  5
21C
102
{ACAD_XDICTIONARY
360
A74B
102
}
102
{ACAD_REACTORS
330
21B
102
}
330
21B
100
AcDbModelDocViewStyle
 70
     0
  3
Metric50
290
     0
100
AcDbDetailViewStyle
 70
     0
 71
     0
 90
        3
 71
     1
340
11
 40
5.0
340
0
 40
5.0
300

 40
0.0
280
     1
 71
     2
340
16
 90
       25
 71
     3
340
11
 40
5.0
 90
        0
 40
15.0
 90
        1
300
%<\AcVar ViewDetailId>% (%<\AcVar ViewScale \f "%sn">%)
 71
     4
340
16
 90
       25
340
16
 90
       25
280
     0
  0
LAYOUT
  5
D3
102
{ACAD_XDICTIONARY
360
A710
102
}
102
{ACAD_REACTORS
330
1A
102
}
330
1A
100
AcDbPlotSettings
  1

  2
C:\Documents and Settings\basas\Application Data\Autodesk\AutoCAD 2005\R16.1\enu\plotters\Default Windows System Printer.pc3
  4

  6

 40
0.0
 41
0.0
 42
0.0
 43
0.0
 44
0.0
 45
0.0
 46
0.0
 47
0.0
 48
0.0
 49
0.0
140
0.0
141
0.0
142
1.0
143
1.0
 70
   688
 72
     0
 73
     0
 74
     5
  7

 75
    16
147
1.0
148
0.0
149
0.0
100
AcDbLayout
  1
Layout1
 70
     1
 71
     1
 10
0.0
 20
0.0
 11
12.0
 21
9.0
 12
0.0
 22
0.0
 32
0.0
 14
0.0
 24
0.0
 34
0.0
 15
0.0
 25
0.0
 35
0.0
146
0.0
 13
0.0
 23
0.0
 33
0.0
 16
1.0
 26
0.0
 36
0.0
 17
0.0
 27
1.0
 37
0.0
 76
     0
330
D2
  0
LAYOUT
  5
D7
102
{ACAD_XDICTIONARY
360
A712
102
}
102
{ACAD_REACTORS
330
1A
102
}
330
1A
100
AcDbPlotSettings
  1

  2
C:\Documents and Settings\basas\Application Data\Autodesk\AutoCAD 2005\R16.1\enu\plotters\Default Windows System Printer.pc3
  4

  6

 40
0.0
 41
0.0
 42
0.0
 43
0.0
 44
0.0
 45
0.0
 46
0.0
 47
0.0
 48
0.0
 49
0.0
140
0.0
141
0.0
142
1.0
143
1.0
 70
   688
 72
     0
 73
     0
 74
     5
  7

 75
    16
147
1.0
148
0.0
149
0.0
100
AcDbLayout
  1
Layout2
 70
     1
 71
     2
 10
0.0
 20
0.0
 11
12.0
 21
9.0
 12
0.0
 22
0.0
 32
0.0
 14
0.0
 24
0.0
 34
0.0
 15
0.0
 25
0.0
 35
0.0
146
0.0
 13
0.0
 23
0.0
 33
0.0
 16
1.0
 26
0.0
 36
0.0
 17
0.0
 27
1.0
 37
0.0
 76
     0
330
D6
  0
LAYOUT
  5
22
102
{ACAD_XDICTIONARY
360
A70D
102
}
102
{ACAD_REACTORS
330
1A
102
}
330
1A
100
AcDbPlotSettings
  1

  2
none_device
  4
ISO_A4_(210.00_x_297.00_MM)
  6

 40
7.5
 41
20.0
 42
7.5
 43
20.0
 44
210.0
 45
297.0
 46
11.54999923706054
 47
-13.65000009536743
 48
0.0
 49
0.0
140
0.0
141
0.0
142
1.0
143
8.704084754739808
 70
 11952
 72
     1
 73
     0
 74
     0
  7

 75
     0
147
0.1148885871608098
148
0.0
149
0.0
100
AcDbLayout
  1
Model
 70
     1
 71
     0
 10
0.0
 20
0.0
 11
12.0
 21
9.0
 12
0.0
 22
0.0
 32
0.0
 14
0.0
 24
0.0
 34
0.0
 15
0.0
 25
0.0
 35
0.0
146
0.0
 13
0.0
 23
0.0
 33
0.0
 16
1.0
 26
0.0
 36
0.0
 17
0.0
 27
1.0
 37
0.0
 76
     0
330
1F
331
EA
1001
ACAD_PSEXT
1000
None
1000
None
1000
Not applicable
1000
The layout will not be plotted unless a new plotter configuration name is selected.
1070
     0
  0
MATERIAL
  5
ED
102
{ACAD_XDICTIONARY
360
1F9
102
}
102
{ACAD_REACTORS
330
6A
102
}
330
6A
100
AcDbMaterial
  1
ByBlock
  0
MATERIAL
  5
EC
102
{ACAD_XDICTIONARY
360
1F7
102
}
102
{ACAD_REACTORS
330
6A
102
}
330
6A
100
AcDbMaterial
  1
ByLayer
  0
MATERIAL
  5
EE
102
{ACAD_XDICTIONARY
360
173
102
}
102
{ACAD_REACTORS
330
6A
102
}
330
6A
100
AcDbMaterial
  1
Global
 43
0.0007999999797903
 43
0.0
 43
0.0
 43
0.0
 43
0.0
 43
0.0007999999797903
 43
0.0
 43
0.0
 43
0.0
 43
0.0
 43
1.0
 43
0.0
 43
0.0
 43
0.0
 43
0.0
 43
1.0
 49
0.0007999999797903
 49
0.0
 49
0.0
 49
0.0
 49
0.0
 49
0.0007999999797903
 49
0.0
 49
0.0
 49
0.0
 49
0.0
 49
1.0
 49
0.0
 49
0.0
 49
0.0
 49
0.0
 49
1.0
142
0.0007999999797903
142
0.0
142
0.0
142
0.0
142
0.0
142
0.0007999999797903
142
0.0
142
0.0
142
0.0
142
0.0
142
1.0
142
0.0
142
0.0
142
0.0
142
0.0
142
1.0
144
0.0007999999797903
144
0.0
144
0.0
144
0.0
144
0.0
144
0.0007999999797903
144
0.0
144
0.0
144
0.0
144
0.0
144
1.0
144
0.0
144
0.0
144
0.0
144
0.0
144
1.0
1001
ACAD
1070
    -1
1070
     3
1070
     0
1000

1071
        0
1070
     0
  0
MLEADERSTYLE
  5
12E
102
{ACAD_XDICTIONARY
360
A737
102
}
102
{ACAD_REACTORS
330
12D
102
}
330
12D
100
AcDbMLeaderStyle
170
     2
171
     1
172
     0
 90
        2
 40
0.0
 41
0.0
173
     1
 91
-1056964608
340
14
 92
       -2
290
     1
 42
2.0
291
     1
 43
8.0
  3
Standard
 44
4.0
300

342
11
174
     1
178
     1
175
     1
176
     0
 93
-1056964608
 45
4.0
292
     0
297
     0
 46
4.0
 94
-1056964608
 47
1.0
 49
1.0
140
1.0
293
     1
141
0.0
294
     1
177
     0
142
1.0
295
     0
296
     0
143
3.75
1001
ACAD_MLEADERVER
1070
     2
  0
MLINESTYLE
  5
18
102
{ACAD_REACTORS
330
17
102
}
330
17
100
AcDbMlineStyle
  2
STANDARD
 70
     0
  3

 62
   256
 51
90.0
 52
90.0
 71
     2
 49
0.5
 62
   256
  6
BYLAYER
 49
-0.5
 62
   256
  6
BYLAYER
  0
ACDBPLACEHOLDER
  5
F
102
{ACAD_REACTORS
330
E
102
}
330
E
  0
SCALE
  5
10D
102
{ACAD_REACTORS
330
10C
102
}
330
10C
100
AcDbScale
 70
     0
300
1:1
140
1.0
141
1.0
290
     1
  0
SCALE
  5
1BE
102
{ACAD_REACTORS
330
10C
102
}
330
10C
100
AcDbScale
 70
     0
300
1:2
140
1.0
141
2.0
290
     0
  0
SCALE
  5
1BF
102
{ACAD_REACTORS
330
10C
102
}
330
10C
100
AcDbScale
 70
     0
300
1:4
140
1.0
141
4.0
290
     0
  0
SCALE
  5
1C0
102
{ACAD_REACTORS
330
10C
102
}
330
10C
100
AcDbScale
 70
     0
300
1:5
140
1.0
141
5.0
290
     0
  0
SCALE
  5
1C1
102
{ACAD_REACTORS
330
10C
102
}
330
10C
100
AcDbScale
 70
     0
300
1:8
140
1.0
141
8.0
290
     0
  0
SCALE
  5
1C2
102
{ACAD_REACTORS
330
10C
102
}
330
10C
100
AcDbScale
 70
     0
300
1:10
140
1.0
141
10.0
290
     0
  0
SCALE
  5
1C3
102
{ACAD_REACTORS
330
10C
102
}
330
10C
100
AcDbScale
 70
     0
300
1:16
140
1.0
141
16.0
290
     0
  0
SCALE
  5
1C4
102
{ACAD_REACTORS
330
10C
102
}
330
10C
100
AcDbScale
 70
     0
300
1:20
140
1.0
141
20.0
290
     0
  0
SCALE
  5
1C5
102
{ACAD_REACTORS
330
10C
102
}
330
10C
100
AcDbScale
 70
     0
300
1:30
140
1.0
141
30.0
290
     0
  0
SCALE
  5
1C6
102
{ACAD_REACTORS
330
10C
102
}
330
10C
100
AcDbScale
 70
     0
300
1:40
140
1.0
141
40.0
290
     0
  0
SCALE
  5
1C7
102
{ACAD_REACTORS
330
10C
102
}
330
10C
100
AcDbScale
 70
     0
300
1:50
140
1.0
141
50.0
290
     0
  0
SCALE
  5
1C8
102
{ACAD_REACTORS
330
10C
102
}
330
10C
100
AcDbScale
 70
     0
300
1:100
140
1.0
141
100.0
290
     0
  0
SCALE
  5
1C9
102
{ACAD_REACTORS
330
10C
102
}
330
10C
100
AcDbScale
 70
     0
300
2:1
140
2.0
141
1.0
290
     0
  0
SCALE
  5
1CA
102
{ACAD_REACTORS
330
10C
102
}
330
10C
100
AcDbScale
 70
     0
300
4:1
140
4.0
141
1.0
290
     0
  0
SCALE
  5
1CB
102
{ACAD_REACTORS
330
10C
102
}
330
10C
100
AcDbScale
 70
     0
300
8:1
140
8.0
141
1.0
290
     0
  0
SCALE
  5
1CC
102
{ACAD_REACTORS
330
10C
102
}
330
10C
100
AcDbScale
 70
     0
300
10:1
140
10.0
141
1.0
290
     0
  0
SCALE
  5
1CD
102
{ACAD_REACTORS
330
10C
102
}
330
10C
100
AcDbScale
 70
     0
300
100:1
140
100.0
141
1.0
290
     0
  0
ACDBSECTIONVIEWSTYLE
  5
21A
102
{ACAD_XDICTIONARY
360
A749
102
}
102
{ACAD_REACTORS
330
219
102
}
330
219
100
AcDbModelDocViewStyle
 70
     0
  3
Metric50
290
     0
100
AcDbSectionViewStyle
 70
     0
 71
     0
 90
      102
 71
     1
340
11
 40
5.0
340
0
340
0
 40
5.0
300
I, O, Q, S, X, Z
 40
10.0
 90
        0
 40
2.5
 90
        0
 71
     2
340
16
 90
       25
340
16
 90
       50
 40
5.0
 40
2.5
 40
5.0
 71
     3
340
11
 40
5.0
 90
        0
 40
15.0
 90
        1
300
%<\AcVar ViewSectionStartId>%-%<\AcVar ViewSectionEndId>% (%<\AcVar ViewScale \f "%sn">%)
 71
     4
300
ANSI31
 40
1.0
 90
        0
290
     0
290
     0
 90
        6
 40
0.0
 40
1.570796326794896
 40
0.2617993877991494
 40
1.308996938995747
 40
-0.2617993877991494
 40
1.832595714594046
  0
TABLESTYLE
  5
7F
102
{ACAD_XDICTIONARY
360
162
102
}
102
{ACAD_REACTORS
330
7E
102
}
330
7E
100
AcDbTableStyle
  3
Standard
 70
     0
 71
     0
 40
1.5
 41
1.5
280
     0
281
     0
  7
Standard
140
4.5
170
     2
 62
     0
 63
     7
283
     0
274
    -2
284
     1
 64
     0
275
    -2
285
     1
 65
     0
276
    -2
286
     1
 66
     0
277
    -2
287
     1
 67
     0
278
    -2
288
     1
 68
     0
279
    -2
289
     1
 69
     0
  7
Standard
140
6.0
170
     5
 62
     0
 63
     7
283
     0
274
    -2
284
     1
 64
     0
275
    -2
285
     1
 65
     0
276
    -2
286
     1
 66
     0
277
    -2
287
     1
 67
     0
278
    -2
288
     1
 68
     0
279
    -2
289
     1
 69
     0
  7
Standard
140
4.5
170
     5
 62
     0
 63
     7
283
     0
274
    -2
284
     1
 64
     0
275
    -2
285
     1
 65
     0
276
    -2
286
     1
 66
     0
277
    -2
287
     1
 67
     0
278
    -2
288
     1
 68
     0
279
    -2
289
     1
 69
     0
  0
VISUALSTYLE
  5
F5
102
{ACAD_XDICTIONARY
360
A721
102
}
102
{ACAD_REACTORS
330
EF
102
}
330
EF
100
AcDbVisualStyle
  2
2dWireframe
 70
     4
 71
     0
 72
     2
 73
     1
 90
        0
 40
-0.6
 41
-30.0
 62
     5
 63
     7
 74
     1
 91
        4
 64
     7
 65
   257
 75
     1
175
     1
 42
1.0
 92
        0
 66
   257
 43
1.0
 76
     1
 77
     6
 78
     2
 67
     7
 79
     5
170
     0
171
     0
290
     0
174
     0
 93
        1
 44
0.0
173
     0
291
     0
 45
0.0
1001
ACAD
1000
AcDbSavedByObjectVersion
1070
     0
  0
VISUALSTYLE
  5
F4
102
{ACAD_XDICTIONARY
360
A71F
102
}
102
{ACAD_REACTORS
330
EF
102
}
330
EF
100
AcDbVisualStyle
  2
Basic
 70
     7
 71
     1
 72
     0
 73
     1
 90
        0
 40
-0.6
 41
-30.0
 62
     5
 63
     7
 74
     0
 91
        4
 64
     7
 65
   257
 75
     1
175
     1
 42
1.0
 92
        8
 66
     7
 43
1.0
 76
     1
 77
     6
 78
     2
 67
     7
 79
     5
170
     0
171
     0
290
     0
174
     0
 93
        1
 44
0.0
173
     0
291
     1
 45
0.0
1001
ACAD
1000
AcDbSavedByObjectVersion
1070
     0
  0
VISUALSTYLE
  5
FB
102
{ACAD_XDICTIONARY
360
A72D
102
}
102
{ACAD_REACTORS
330
EF
102
}
330
EF
100
AcDbVisualStyle
  2
Brighten
 70
    12
 71
     2
 72
     2
 73
     1
 90
        0
 40
-0.6
 41
-30.0
 62
     5
 63
     7
 74
     1
 91
        4
 64
     7
 65
   257
 75
     1
175
     1
 42
1.0
 92
        8
 66
     7
 43
1.0
 76
     1
 77
     6
 78
     2
 67
     7
 79
     5
170
     0
171
     0
290
     0
174
     0
 93
        1
 44
50.0
173
     0
291
     1
 45
0.0
1001
ACAD
1000
AcDbSavedByObjectVersion
1070
     0
  0
VISUALSTYLE
  5
FF
102
{ACAD_XDICTIONARY
360
A735
102
}
102
{ACAD_REACTORS
330
EF
102
}
330
EF
100
AcDbVisualStyle
  2
ColorChange
 70
    16
 71
     2
 72
     2
 73
     3
 90
        0
 40
-0.6
 41
-30.0
 62
     5
 63
     8
 74
     1
 91
        4
 64
     7
 65
   257
 75
     1
175
     1
 42
1.0
 92
        8
 66
     8
 43
1.0
 76
     1
 77
     6
 78
     2
 67
     7
 79
     5
170
     0
171
     0
290
     0
174
     0
 93
        1
 44
0.0
173
     0
291
     1
 45
0.0
1001
ACAD
1000
AcDbSavedByObjectVersion
1070
     0
  0
VISUALSTYLE
  5
F8
102
{ACAD_XDICTIONARY
360
A727
102
}
102
{ACAD_REACTORS
330
EF
102
}
330
EF
100
AcDbVisualStyle
  2
Conceptual
 70
     9
 71
     3
 72
     2
 73
     1
 90
        0
 40
-0.6
 41
-30.0
 62
     5
 63
     7
 74
     2
 91
        2
 64
     7
 65
   257
 75
     1
175
     1
 42
40.0
 92
        8
 66
     7
 43
1.0
 76
     1
 77
     6
 78
     2
 67
     7
 79
     3
170
     0
171
     0
290
     0
174
     0
 93
        1
 44
0.0
173
     0
291
     0
 45
0.0
1001
ACAD
1000
AcDbSavedByObjectVersion
1070
     0
  0
VISUALSTYLE
  5
FA
102
{ACAD_XDICTIONARY
360
A72B
102
}
102
{ACAD_REACTORS
330
EF
102
}
330
EF
100
AcDbVisualStyle
  2
Dim
 70
    11
 71
     2
 72
     2
 73
     1
 90
        0
 40
-0.6
 41
-30.0
 62
     5
 63
     7
 74
     1
 91
        4
 64
     7
 65
   257
 75
     1
175
     1
 42
1.0
 92
        8
 66
     7
 43
1.0
 76
     1
 77
     6
 78
     2
 67
     7
 79
     5
170
     0
171
     0
290
     0
174
     0
 93
        1
 44
-50.0
173
     0
291
     1
 45
0.0
1001
ACAD
1000
AcDbSavedByObjectVersion
1070
     0
  0
VISUALSTYLE
  5
1E6
102
{ACAD_XDICTIONARY
360
A73D
102
}
102
{ACAD_REACTORS
330
EF
102
}
330
EF
100
AcDbVisualStyle
  2
EdgeColorOff
 70
    22
 71
     2
 72
     2
 73
     0
 90
        0
 40
-0.6
 41
-30.0
 62
     5
 63
     7
 74
     1
 91
        4
 64
     7
 65
   257
 75
     1
175
     1
 42
1.0
 92
        8
 66
     7
 43
1.0
 76
     1
 77
     6
 78
     2
 67
     7
 79
     5
170
     0
171
     0
290
     0
174
     0
 93
        1
 44
0.0
173
     0
291
     1
 45
0.0
1001
ACAD
1000
AcDbSavedByObjectVersion
1070
     0
  0
VISUALSTYLE
  5
FE
102
{ACAD_XDICTIONARY
360
A733
102
}
102
{ACAD_REACTORS
330
EF
102
}
330
EF
100
AcDbVisualStyle
  2
Facepattern
 70
    15
 71
     2
 72
     2
 73
     1
 90
        0
 40
-0.6
 41
-30.0
 62
     5
 63
     7
 74
     1
 91
        4
 64
     7
 65
   257
 75
     1
175
     1
 42
1.0
 92
        8
 66
     7
 43
1.0
 76
     1
 77
     6
 78
     2
 67
     7
 79
     5
170
     0
171
     0
290
     0
174
     0
 93
        1
 44
0.0
173
     0
291
     1
 45
0.0
1001
ACAD
1000
AcDbSavedByObjectVersion
1070
     0
  0
VISUALSTYLE
  5
F0
102
{ACAD_XDICTIONARY
360
A717
102
}
102
{ACAD_REACTORS
330
EF
102
}
330
EF
100
AcDbVisualStyle
  2
Flat
 70
     0
 71
     2
 72
     1
 73
     1
 90
        2
 40
-0.6
 41
30.0
 62
     5
 63
     7
 74
     0
 91
        0
 64
     7
 65
   257
 75
     1
175
     1
 42
1.0
 92
        8
 66
     7
 43
1.0
 76
     1
 77
     6
 78
     2
 67
     7
 79
     5
170
     0
171
     0
290
     0
174
     0
 93
       13
 44
0.0
173
     0
291
     1
 45
0.0
1001
ACAD
1000
AcDbSavedByObjectVersion
1070
     0
  0
VISUALSTYLE
  5
F1
102
{ACAD_XDICTIONARY
360
A719
102
}
102
{ACAD_REACTORS
330
EF
102
}
330
EF
100
AcDbVisualStyle
  2
FlatWithEdges
 70
     1
 71
     2
 72
     1
 73
     1
 90
        2
 40
-0.6
 41
30.0
 62
     5
 63
     7
 74
     1
 91
        0
 64
     7
 65
   257
 75
     1
175
     1
 42
1.0
 92
        0
 66
   257
 43
1.0
 76
     1
 77
     6
 78
     2
 67
     7
 79
     5
170
     0
171
     0
290
     0
174
     0
 93
       13
 44
0.0
173
     0
291
     1
 45
0.0
1001
ACAD
1000
AcDbSavedByObjectVersion
1070
     0
  0
VISUALSTYLE
  5
F2
102
{ACAD_XDICTIONARY
360
A71B
102
}
102
{ACAD_REACTORS
330
EF
102
}
330
EF
100
AcDbVisualStyle
  2
Gouraud
 70
     2
 71
     2
 72
     2
 73
     1
 90
        2
 40
-0.6
 41
30.0
 62
     5
 63
     7
 74
     0
 91
        0
 64
     7
 65
   257
 75
     1
175
     1
 42
1.0
 92
        0
 66
     7
 43
1.0
 76
     1
 77
     6
 78
     2
 67
     7
 79
     5
170
     0
171
     0
290
     0
174
     0
 93
       13
 44
0.0
173
     0
291
     1
 45
0.0
1001
ACAD
1000
AcDbSavedByObjectVersion
1070
     0
  0
VISUALSTYLE
  5
F3
102
{ACAD_XDICTIONARY
360
A71D
102
}
102
{ACAD_REACTORS
330
EF
102
}
330
EF
100
AcDbVisualStyle
  2
GouraudWithEdges
 70
     3
 71
     2
 72
     2
 73
     1
 90
        2
 40
-0.6
 41
30.0
 62
     5
 63
     7
 74
     1
 91
        0
 64
     7
 65
   257
 75
     1
175
     1
 42
1.0
 92
        0
 66
   257
 43
1.0
 76
     1
 77
     6
 78
     2
 67
     7
 79
     5
170
     0
171
     0
290
     0
174
     0
 93
       13
 44
0.0
173
     0
291
     1
 45
0.0
1001
ACAD
1000
AcDbSavedByObjectVersion
1070
     0
  0
VISUALSTYLE
  5
F7
102
{ACAD_XDICTIONARY
360
A725
102
}
102
{ACAD_REACTORS
330
EF
102
}
330
EF
100
AcDbVisualStyle
  2
Hidden
 70
     6
 71
     1
 72
     2
 73
     2
 90
        0
 40
-0.6
 41
-30.0
 62
     5
 63
     7
 74
     2
 91
        2
 64
     7
 65
   257
 75
     2
175
     1
 42
40.0
 92
        0
 66
   257
 43
1.0
 76
     1
 77
     6
 78
     2
 67
     7
 79
     3
170
     0
171
     0
290
     0
174
     0
 93
        1
 44
0.0
173
     0
291
     0
 45
0.0
1001
ACAD
1000
AcDbSavedByObjectVersion
1070
     0
  0
VISUALSTYLE
  5
1E4
102
{ACAD_XDICTIONARY
360
A739
102
}
102
{ACAD_REACTORS
330
EF
102
}
330
EF
100
AcDbVisualStyle
  2
JitterOff
 70
    20
 71
     2
 72
     2
 73
     0
 90
        0
 40
-0.6
 41
-30.0
 62
     5
 63
     7
 74
     1
 91
        4
 64
     7
 65
   257
 75
     1
175
     1
 42
1.0
 92
       10
 66
     7
 43
1.0
 76
     1
 77
     6
 78
     2
 67
     7
 79
     5
170
     0
171
     0
290
     0
174
     0
 93
        1
 44
0.0
173
     0
291
     1
 45
0.0
1001
ACAD
1000
AcDbSavedByObjectVersion
1070
     0
  0
VISUALSTYLE
  5
FD
102
{ACAD_XDICTIONARY
360
A731
102
}
102
{ACAD_REACTORS
330
EF
102
}
330
EF
100
AcDbVisualStyle
  2
Linepattern
 70
    14
 71
     2
 72
     2
 73
     1
 90
        0
 40
-0.6
 41
-30.0
 62
     5
 63
     7
 74
     1
 91
        4
 64
     7
 65
   257
 75
     7
175
     7
 42
1.0
 92
        8
 66
     7
 43
1.0
 76
     1
 77
     6
 78
     2
 67
     7
 79
     5
170
     0
171
     0
290
     0
174
     0
 93
        1
 44
0.0
173
     0
291
     1
 45
0.0
1001
ACAD
1000
AcDbSavedByObjectVersion
1070
     0
  0
VISUALSTYLE
  5
1E5
102
{ACAD_XDICTIONARY
360
A73B
102
}
102
{ACAD_REACTORS
330
EF
102
}
330
EF
100
AcDbVisualStyle
  2
OverhangOff
 70
    21
 71
     2
 72
     2
 73
     0
 90
        0
 40
-0.6
 41
-30.0
 62
     5
 63
     7
 74
     1
 91
        4
 64
     7
 65
   257
 75
     1
175
     1
 42
1.0
 92
        9
 66
     7
 43
1.0
 76
     1
 77
     6
 78
     2
 67
     7
 79
     5
170
     0
171
     0
290
     0
174
     0
 93
        1
 44
0.0
173
     0
291
     1
 45
0.0
1001
ACAD
1000
AcDbSavedByObjectVersion
1070
     0
  0
VISUALSTYLE
  5
F9
102
{ACAD_XDICTIONARY
360
A729
102
}
102
{ACAD_REACTORS
330
EF
102
}
330
EF
100
AcDbVisualStyle
  2
Realistic
 70
     8
 71
     2
 72
     2
 73
     0
 90
        2
 40
-0.6
 41
30.0
 62
     5
 63
     7
 74
     0
 91
        0
 64
     7
 65
   257
 75
     1
175
     1
 42
1.0
 92
        8
 66
   257
 43
1.0
 76
     1
 77
     6
 78
     2
 67
     7
 79
     3
170
     0
171
     0
290
     0
174
     0
 93
       13
 44
0.0
173
     0
291
     0
 45
0.0
1001
ACAD
1000
AcDbSavedByObjectVersion
1070
     0
  0
VISUALSTYLE
  5
1F3
102
{ACAD_XDICTIONARY
360
A747
102
}
102
{ACAD_REACTORS
330
EF
102
}
330
EF
100
AcDbVisualStyle
  2
Shaded
 70
    27
 71
     2
 72
     2
 73
     1
 90
        2
 40
-0.6
 41
30.0
 62
     5
 63
     7
 74
     0
 91
        4
 64
     7
 65
   257
 75
     1
175
     1
 42
1.0
 92
        8
 66
   257
 43
1.0
 76
     1
 77
     6
 78
     2
 67
     8
 79
     3
170
     0
171
     0
290
     0
174
     0
 93
        5
 44
0.0
173
     0
291
     0
 45
0.0
1001
ACAD
1000
AcDbSavedByObjectVersion
1070
     0
  0
VISUALSTYLE
  5
1F2
102
{ACAD_XDICTIONARY
360
A745
102
}
102
{ACAD_REACTORS
330
EF
102
}
330
EF
100
AcDbVisualStyle
  2
Shaded with edges
 70
    26
 71
     2
 72
     2
 73
     1
 90
        2
 40
-0.6
 41
30.0
 62
     5
 63
     7
 74
     1
 91
        2
 64
     7
 65
   257
 75
     2
175
     1
 42
1.0
 92
        8
 66
   257
 43
1.0
 76
     1
 77
     6
 78
     2
 67
     7
 79
     3
170
     0
171
     0
290
     0
174
     0
 93
        5
 44
0.0
173
     0
291
     0
 45
0.0
1001
ACAD
1000
AcDbSavedByObjectVersion
1070
     0
  0
VISUALSTYLE
  5
1EF
102
{ACAD_XDICTIONARY
360
A73F
102
}
102
{ACAD_REACTORS
330
EF
102
}
330
EF
100
AcDbVisualStyle
  2
Shades of Gray
 70
    23
 71
     2
 72
     2
 73
     3
 90
        0
 40
-0.6
 41
-30.0
 62
     5
 63
     7
 74
     2
 91
        2
 64
     7
 65
     7
 75
     1
175
     1
 42
40.0
 92
        8
 66
     7
 43
1.0
 76
     1
 77
     6
 78
     2
 67
     7
 79
     3
170
     0
171
     0
290
     0
174
     0
 93
        1
 44
0.0
173
     0
291
     0
 45
0.0
1001
ACAD
1000
AcDbSavedByObjectVersion
1070
     0
  0
VISUALSTYLE
  5
1F0
102
{ACAD_XDICTIONARY
360
A741
102
}
102
{ACAD_REACTORS
330
EF
102
}
330
EF
100
AcDbVisualStyle
  2
Sketchy
 70
    24
 71
     1
 72
     2
 73
     2
 90
        0
 40
-0.6
 41
-30.0
 62
     5
 63
     7
 74
     2
 91
        2
 64
     7
 65
     7
 75
     1
175
     1
 42
40.0
 92
       11
 66
     7
 43
1.0
 76
     1
 77
     6
 78
     2
 67
     7
 79
     6
170
     0
171
     0
290
     0
174
     0
 93
        1
 44
0.0
173
     0
291
     0
 45
0.0
1001
ACAD
1000
AcDbSavedByObjectVersion
1070
     0
  0
VISUALSTYLE
  5
FC
102
{ACAD_XDICTIONARY
360
A72F
102
}
102
{ACAD_REACTORS
330
EF
102
}
330
EF
100
AcDbVisualStyle
  2
Thicken
 70
    13
 71
     2
 72
     2
 73
     1
 90
        0
 40
-0.6
 41
-30.0
 62
     5
 63
     7
 74
     1
 91
        4
 64
     7
 65
   257
 75
     1
175
     1
 42
1.0
 92
       12
 66
     7
 43
1.0
 76
     1
 77
     6
 78
     2
 67
     7
 79
     5
170
     0
171
     0
290
     0
174
     0
 93
        1
 44
0.0
173
     0
291
     1
 45
0.0
1001
ACAD
1000
AcDbSavedByObjectVersion
1070
     0
  0
VISUALSTYLE
  5
F6
102
{ACAD_XDICTIONARY
360
A723
102
}
102
{ACAD_REACTORS
330
EF
102
}
330
EF
100
AcDbVisualStyle
  2
Wireframe
 70
     5
 71
     0
 72
     2
 73
     0
 90
        0
 40
-0.6
 41
-30.0
 62
     5
 63
     7
 74
     1
 91
        4
 64
     7
 65
   257
 75
     1
175
     1
 42
1.0
 92
        0
 66
   257
 43
1.0
 76
     1
 77
     6
 78
     2
 67
     7
 79
     3
170
     0
171
     0
290
     0
174
     0
 93
        1
 44
0.0
173
     0
291
     0
 45
0.0
1001
ACAD
1000
AcDbSavedByObjectVersion
1070
     0
  0
VISUALSTYLE
  5
1F1
102
{ACAD_XDICTIONARY
360
A743
102
}
102
{ACAD_REACTORS
330
EF
102
}
330
EF
100
AcDbVisualStyle
  2
X-Ray
 70
    25
 71
     2
 72
     2
 73
     1
 90
        1
 40
0.5
 41
-30.0
 62
     5
 63
     7
 74
     1
 91
        0
 64
     7
 65
   257
 75
     1
175
     1
 42
1.0
 92
        8
 66
     7
 43
1.0
 76
     1
 77
     6
 78
     2
 67
     7
 79
     3
170
     0
171
     0
290
     0
174
     0
 93
       13
 44
0.0
173
     0
291
     0
 45
0.0
1001
ACAD
1000
AcDbSavedByObjectVersion
1070
     0
  0
DICTIONARYVAR
  5
146
102
{ACAD_REACTORS
330
5E
102
}
330
5E
100
DictionaryVariables
280
     0
  1
1:1
  0
DICTIONARYVAR
  5
259
102
{ACAD_REACTORS
330
5E
102
}
330
5E
100
DictionaryVariables
280
     0
  1
3.500000
  0
DICTIONARYVAR
  5
25A
102
{ACAD_REACTORS
330
5E
102
}
330
5E
100
DictionaryVariables
280
     0
  1
acadiso.lin
  0
DICTIONARYVAR
  5
145
102
{ACAD_REACTORS
330
5E
102
}
330
5E
100
DictionaryVariables
280
     0
  1
STANDARD
  0
DICTIONARYVAR
  5
84
102
{ACAD_REACTORS
330
5E
102
}
330
5E
100
DictionaryVariables
280
     0
  1
STANDARD
  0
DICTIONARYVAR
  5
227
102
{ACAD_REACTORS
330
5E
102
}
330
5E
100
DictionaryVariables
280
     0
  1
Metric50
  0
DICTIONARYVAR
  5
228
102
{ACAD_REACTORS
330
5E
102
}
330
5E
100
DictionaryVariables
280
     0
  1
Metric50
  0
DICTIONARYVAR
  5
5F
102
{ACAD_REACTORS
330
5E
102
}
330
5E
100
DictionaryVariables
280
     0
  1
2
  0
DICTIONARYVAR
  5
63
102
{ACAD_REACTORS
330
5E
102
}
330
5E
100
DictionaryVariables
280
     0
  1
1
  0
DICTIONARYVAR
  5
A6B8
102
{ACAD_REACTORS
330
5E
102
}
330
5E
100
DictionaryVariables
280
     0
  1
0
  0
DICTIONARYVAR
  5
1AE
102
{ACAD_REACTORS
330
5E
102
}
330
5E
100
DictionaryVariables
280
     0
  1
0
  0
DICTIONARYVAR
  5
1AF
102
{ACAD_REACTORS
330
5E
102
}
330
5E
100
DictionaryVariables
280
     0
  1
0
  0
DICTIONARYVAR
  5
A6B6
102
{ACAD_REACTORS
330
5E
102
}
330
5E
100
DictionaryVariables
280
     0
  1
2
  0
DICTIONARYVAR
  5
A6B5
102
{ACAD_REACTORS
330
5E
102
}
330
5E
100
DictionaryVariables
280
     0
  1
1
  0
DICTIONARYVAR
  5
A708
102
{ACAD_REACTORS
330
5E
102
}
330
5E
100
DictionaryVariables
280
     0
  1
80.000000
  0
DICTIONARYVAR
  5
A707
102
{ACAD_REACTORS
330
5E
102
}
330
5E
100
DictionaryVariables
280
     0
  1
5.000000
  0
DICTIONARYVAR
  5
A6B7
102
{ACAD_REACTORS
330
5E
102
}
330
5E
100
DictionaryVariables
280
     0
  1
127
  0
DICTIONARYVAR
  5
A709
102
{ACAD_REACTORS
330
5E
102
}
330
5E
100
DictionaryVariables
280
     0
  1
2
  0
DICTIONARY
  5
A74B
330
21C
100
AcDbDictionary
280
     1
281
     1
  3
ACAD_XREC_ROUNDTRIP
360
A74C
  0
DICTIONARY
  5
A710
330
D3
100
AcDbDictionary
280
     1
281
     1
  3
ACAD_XREC_ROUNDTRIP
360
A711
  0
DICTIONARY
  5
A712
330
D7
100
AcDbDictionary
280
     1
281
     1
  3
ACAD_XREC_ROUNDTRIP
360
A713
  0
DICTIONARY
  5
A70D
330
22
100
AcDbDictionary
280
     1
281
     1
  3
ACAD_XREC_ROUNDTRIP
360
A70E
  0
DICTIONARY
  5
1F9
330
ED
100
AcDbDictionary
280
     1
281
     1
  3
ACAD_XREC_ROUNDTRIP
360
A715
  3
FBXASSET
360
1FA
  0
DICTIONARY
  5
1F7
330
EC
100
AcDbDictionary
280
     1
281
     1
  3
ACAD_XREC_ROUNDTRIP
360
A714
  3
FBXASSET
360
1F8
  0
DICTIONARY
  5
173
330
EE
100
AcDbDictionary
280
     1
281
     1
  3
ACAD_XREC_ROUNDTRIP
360
A716
  3
BUMPTILE
360
175
  3
DIFFUSETILE
360
174
  3
FBXASSET
360
1FB
  3
OPACITYTILE
360
176
  3
REFLECTIONTILE
360
177
  0
DICTIONARY
  5
A737
330
12E
100
AcDbDictionary
280
     1
281
     1
  3
ACAD_XREC_ROUNDTRIP
360
A738
  0
DICTIONARY
  5
A749
330
21A
100
AcDbDictionary
280
     1
281
     1
  3
ACAD_XREC_ROUNDTRIP
360
A74A
  0
DICTIONARY
  5
162
330
7F
100
AcDbDictionary
280
     1
281
     1
  3
ACAD_ROUNDTRIP_2008_TABLESTYLE_CELLSTYLEMAP
360
A70A
  3
ACAD_XREC_ROUNDTRIP
360
A70F
  0
DICTIONARY
  5
A721
330
F5
100
AcDbDictionary
280
     1
281
     1
  3
ACAD_XREC_ROUNDTRIP
360
A722
  0
DICTIONARY
  5
A71F
330
F4
100
AcDbDictionary
280
     1
281
     1
  3
ACAD_XREC_ROUNDTRIP
360
A720
  0
DICTIONARY
  5
A72D
330
FB
100
AcDbDictionary
280
     1
281
     1
  3
ACAD_XREC_ROUNDTRIP
360
A72E
  0
DICTIONARY
  5
A735
330
FF
100
AcDbDictionary
280
     1
281
     1
  3
ACAD_XREC_ROUNDTRIP
360
A736
  0
DICTIONARY
  5
A727
330
F8
100
AcDbDictionary
280
     1
281
     1
  3
ACAD_XREC_ROUNDTRIP
360
A728
  0
DICTIONARY
  5
A72B
330
FA
100
AcDbDictionary
280
     1
281
     1
  3
ACAD_XREC_ROUNDTRIP
360
A72C
  0
DICTIONARY
  5
A73D
330
1E6
100
AcDbDictionary
280
     1
281
     1
  3
ACAD_XREC_ROUNDTRIP
360
A73E
  0
DICTIONARY
  5
A733
330
FE
100
AcDbDictionary
280
     1
281
     1
  3
ACAD_XREC_ROUNDTRIP
360
A734
  0
DICTIONARY
  5
A717
330
F0
100
AcDbDictionary
280
     1
281
     1
  3
ACAD_XREC_ROUNDTRIP
360
A718
  0
DICTIONARY
  5
A719
330
F1
100
AcDbDictionary
280
     1
281
     1
  3
ACAD_XREC_ROUNDTRIP
360
A71A
  0
DICTIONARY
  5
A71B
330
F2
100
AcDbDictionary
280
     1
281
     1
  3
ACAD_XREC_ROUNDTRIP
360
A71C
  0
DICTIONARY
  5
A71D
330
F3
100
AcDbDictionary
280
     1
281
     1
  3
ACAD_XREC_ROUNDTRIP
360
A71E
  0
DICTIONARY
  5
A725
330
F7
100
AcDbDictionary
280
     1
281
     1
  3
ACAD_XREC_ROUNDTRIP
360
A726
  0
DICTIONARY
  5
A739
330
1E4
100
AcDbDictionary
280
     1
281
     1
  3
ACAD_XREC_ROUNDTRIP
360
A73A
  0
DICTIONARY
  5
A731
330
FD
100
AcDbDictionary
280
     1
281
     1
  3
ACAD_XREC_ROUNDTRIP
360
A732
  0
DICTIONARY
  5
A73B
330
1E5
100
AcDbDictionary
280
     1
281
     1
  3
ACAD_XREC_ROUNDTRIP
360
A73C
  0
DICTIONARY
  5
A729
330
F9
100
AcDbDictionary
280
     1
281
     1
  3
ACAD_XREC_ROUNDTRIP
360
A72A
  0
DICTIONARY
  5
A747
330
1F3
100
AcDbDictionary
280
     1
281
     1
  3
ACAD_XREC_ROUNDTRIP
360
A748
  0
DICTIONARY
  5
A745
330
1F2
100
AcDbDictionary
280
     1
281
     1
  3
ACAD_XREC_ROUNDTRIP
360
A746
  0
DICTIONARY
  5
A73F
330
1EF
100
AcDbDictionary
280
     1
281
     1
  3
ACAD_XREC_ROUNDTRIP
360
A740
  0
DICTIONARY
  5
A741
330
1F0
100
AcDbDictionary
280
     1
281
     1
  3
ACAD_XREC_ROUNDTRIP
360
A742
  0
DICTIONARY
  5
A72F
330
FC
100
AcDbDictionary
280
     1
281
     1
  3
ACAD_XREC_ROUNDTRIP
360
A730
  0
DICTIONARY
  5
A723
330
F6
100
AcDbDictionary
280
     1
281
     1
  3
ACAD_XREC_ROUNDTRIP
360
A724
  0
DICTIONARY
  5
A743
330
1F1
100
AcDbDictionary
280
     1
281
     1
  3
ACAD_XREC_ROUNDTRIP
360
A744
  0
XRECORD
  5
A74C
102
{ACAD_REACTORS
330
A74B
102
}
330
A74B
100
AcDbXrecord
280
     1
102
DISPLAYNAME
  1
Metric50
102
FLAGS
 90
        0
  0
XRECORD
  5
A711
102
{ACAD_REACTORS
330
A710
102
}
330
A710
100
AcDbXrecord
280
     1
102
SHADEPLOT
 70
     0
102
SHADEPLOTRESLEVEL
 70
     2
102
SHADEPLOTCUSTOMDPI
 70
   300
  0
XRECORD
  5
A713
102
{ACAD_REACTORS
330
A712
102
}
330
A712
100
AcDbXrecord
280
     1
102
SHADEPLOT
 70
     0
102
SHADEPLOTRESLEVEL
 70
     2
102
SHADEPLOTCUSTOMDPI
 70
   300
  0
XRECORD
  5
A70E
102
{ACAD_REACTORS
330
A70D
102
}
330
A70D
100
AcDbXrecord
280
     1
102
SHADEPLOT
 70
     0
102
SHADEPLOTRESLEVEL
 70
     2
102
SHADEPLOTCUSTOMDPI
 70
   300
  0
XRECORD
  5
A715
102
{ACAD_REACTORS
330
1F9
102
}
330
1F9
100
AcDbXrecord
280
     1
102
MATERIAL
148
0.0
149
0.0
149
0.0
 93
        0
 94
       63
282
     0
 72
     1
 77
     1
171
     1
175
     1
179
     1
273
     0
  0
XRECORD
  5
1FA
102
{ACAD_REACTORS
330
1F9
102
}
330
1F9
100
AcDbXrecord
280
     1
 70
     1
 90
429727718
  1
D62C5603-E3A1-4AEA-B7FB-FE5D8D0755AF
310
504B03040A0000080000CC70623B3DEE336E79000000790000001B0000006175746F6465736B2D64657369676E2D7061636B6167652E786D6C3C3F786D6C2076657273696F6E3D22312E302220656E636F64696E673D227574662D3822203F3E3C666F726D6174733E3C666F726D61743E687474703A2F2F736368656D612E
310
6175746F6465736B2E636F6D2F64657369676E2D7061636B6167652F323030393C2F666F726D61743E3C2F666F726D6174733E504B0304140006080800CC70623BD486FD9CA0000000F4000000130000005B436F6E74656E745F54797065735D2E786D6C7D8EC10E82300C865F65E91D8A1E8C310C0EEA1BF002731658846E
310
D98AC1B77784ABF1D8FE5FBFBF75BBCE937A534CCEB38643598122B6FEE978D0B0485F9C41B54DDD7D022595594E1A469170414C76A4D9A4D207E29CF43ECE46F218070CC6BECC4078ACAA135ACF422C856C0E68EA1BF5669944DDD7BCDE7B1F8E415D77AECB980613C2E4AC91FC167A2B244592486606FC29C8FD7F045B9A
310
EF7053A7E60B504B0304140006080800CC70623B853B8169EB0000007C01000008000000636F72652E786D6C8D90416EC3201045AF62CDB6C206821CC7C244919D9CA01740401C94182C03558F5F9C3852BBEB6A467FFE9B197D7EFC9E1EC5975982F5AE035262288C535E5B377690E21535501C055FBC8FBF6C503839990E
310
5619041F179FE64D52DE45E362569DD7661365082642A11EB9E920A89B99642953CC8E702F67A9EE7234257977194EC9EAE275C4EABCCF5EAD5940D4AC6F0E35A568B8F43562CD7046CD199FD07E60174276A7BE677B5EADB0E0D14EEFFB6A31321A0D82627C4084204C3F096B71DD52F6819B16635EADF63F509AF53FA164
310
5DDCD1EDDD17164090FCC8732078B56691CB33A85CD7DCC40F504B0304140006080800CC70623B55019EA25F0000007C00000007000000636E782E786D6C4DCB3B0E80201045D1AD90E915ED2CF8AC45050C11660C8261F98AB1B07AC9C97D42D718D865D3E909258CFD00CCE24AC6E326A164D74DC0B4128928FF32603847
310
2BA13128B1252AC747C6BAB984FC68F0B87FE8960A5C09FE86CFB69FBA01504B0304140006080800CC70623BDBABAAF470010000D40300000C0000006662782F636F72652E786D6CC553D16E823014FD95A6AF4B694182CC941A83FA05FB810A9511A125A5257EFE2E82712ECEB8A7F100CD39F7F69E734AF9FADC366850B6
310
AF8DCE7018308C942E4C59EB2AC3DE1D498AD15A706B8CFB56869196ADCAF00863C12B6B7C374385D14E6907A836A59A41D9F7CA615434B0C8705F7CAA5606D23BA8E84F41278B93AC54100640439DE0BDB320004D43C63716C7C399D30917DCFBBA9CD9BA8469F5B156168B24CED3F7248AC8769F27244EB73B92EED8862C
310
B7F13E0C179B3C8F979C8ECD82BBBABDAA2BAC924E9558448CBD9330242CFA08E3154B5651FCC6D215639C8EE5774DBE2B5F6CF2B5768B68963BB5F5588420E442FC700B1139D4CB01F450C1E918227C2E09DF070D8140C84E1E9AAB8F1340832A9CB13130A5F1376A908D57309505ECF2A0DF179C4E9D30F5B239B87E3823
310
7A79C6F31DE1A8A5AEC08474B03C7837EAE4938639B44E5932B833D2C6B6B279CDC613877FA26EE21F4A2A4C63EC7F29A2F301D1F9F7A0E37D145F504B0304140006080800CC70623B9C113CC27E0000009D0000000B0000006662782F636E782E786D6C4DCCDF0A83201C86E15B91DFB94BFB330DD428C8FB886521330DA7
310
6397BF1A1DECE883878F57749FCDA1B7892F1BBC047A23808C7F84D9FA55424E0BE6803A256208E9EF06C84F9B91703228B1C690F78B66B34CD9A5439DF5CF0BFBF65E35BCA1B8D6A5C6F540381E886698B5741C695F9503EBA150A2F8958E3DC3EA0B504B0304140006080800CC70623B7DF2F77C2A010000120200003100
310
00006662782F41393633353835312D344632462D344230382D423046372D3739314545314133324237412F636F72652E786D6C8D51DB8EC22014FC15C2939B0D2DB4B45643319AE817EC0F6041255A68B86CFCFC856D4D76DF7CE190393373060EDB3DC707F856CE6B6B7A480A0C81328395DA5C7B18C3057510EC3873D686
310
3F34088C18550F330C39BB3A1BA7051AAC09CA84841A2BD5020AEF55806078A44B0FFD7053A328440C89E1EFC52486BBB8AA8214A99D789CF9E05200300FC927E4FB4D5B375D43103D5527440FB843077C5AA3F5861C8F645F5787F59E95B390B318B55CE45AA638FAA2957BD7248B390B7A7CC51F9C124149C82B8C378810
310
84AB2F42B7B8DD56F413775B8C5999E9FF4471926F8AA236A1AE96B8B3CC434E5839373893369E1FAF30EA395917409EB7F26AF8801C171837A4A6AC9C89E9F9C9B1A58BA30FD6A5EF5DDDCF894B9AD9B6A59C957943A9FCAE2FD5BC4DFE03504B0304140006080800CC70623BAD7543B64E01000033030000300000006662
310
782F41393633353835312D344632462D344230382D423046372D3739314545314133324237412F636E782E786D6CD593CD6EC32010845F0571AD6CE3D48AD20813A9873E410FBD12D82434182C7EAAE6EDBB2424CD25871E7B41D6EC30B3FA84F9E67BB2E40B4234DE8DB46F1925E094D7C6ED479AD3AE5951B2113C789FEE
310
6C943839C1488B4C05DF079FE72A69D8C96C13AAD6B8631503449F83828872B949AC57D26200B826A308D316B4064D6E46FCDA41C05550DC9E483A00797BFD207EFB092A45DE9514C1BBD22178396BD39D891265658C238DEA00936C654E5E433CB65A26D9F6EDB5EBC14EBF49A45CB856E66048291F6939A9A81BB5C89177
310
38143CA680F4AA299D66A042CEB3354A2684DC9D8D178FE0D9B8B41CAAD720F880EE7EF93C0C18769E099ECC04D5A102C8049A8A05632F4DDF376CF1DE0F6BB65C2F8627B65A33C6BB62177CEBBDAD973006829F89F22E814B54F4BC2BE347F8AA8F681390B50FA73F804400B5F542E796F19FF974E7F78DB802FE05E20750
310
4B0304140006080800CC70623BE75B7789680500003C100000340000006662782F41393633353835312D344632462D344230382D423046372D3739314545314133324237412F6F626A656374732E786D6CAD575B8F9B3818FD2B887D06C22499CB8AA1CA655245D5B455A356FB305264C061D8018C6C3393D95FBFC7600890
310
A4CD5EF210B0B1BFEBF98E3F7B1FF6596ABC522E1296DF9BAE3D320D9A872C4AF2F8DE2CE5CEBA358D0FBEC719939D65A691938CDE9B6ADAF4BD98B3B2D05311DD91329583D9D5FC0F438434A7A611A644887B5384CF34233629258BA878B12322891DEFF6B66BD70BFB62634E8AE781D082709A4B588AF91C528CDA28B73F
310
1C998EEF39EABBEFA97FBD6A7C7E9553F9D3D79FE442923C3C523610337627CB87ABE99D359D4CC6D6E4FACAB5E6ABF9D2726FC6A3C5F56271377BB88362213924694B38DD99FE47C48627A1E7D49F5A8BB5E1A74C0A599ED3B0F21F1E56366B89112D681E218F0915D0D6F17AD41FBA2A369DCF6335D62ABBD39779D5DDD1
310
11D4D8DE3CBB96B2E04FB8202E41051754A1AA8E8F76B4C6DFE810B580B1547F4B84911149794252234D024EF8BBE963A95AE27B3D310A9D5C215C7960FAEE415ED75694C6AFB17BCACA5D99A60A9AA65F217B0BFC53292ACB92BF283FAD0D3621576592CB5BED907C2FA8E9DF794E35E97BEA31BED21FEB401ABB94C44839
310
DCACBF0E1C5DA8DA5B2F4DFFD32AD86F543D9E565E7056502E157C00AD2671CD534549AB752FCA9CDA00677A313F04E51B22FF19E57B300579E3C97EB29F682D92935CEC18CF901B7B54FD8C51F362B56FC72FE0B3C1EAE335EDCCBF5AEC39ADB17DC238973F804BA5E6F6BFE7AF1FB32E523BE9F3BD571418E3631DCA4D48
310
5250CF639223210A9446CA30052EDF057BD35F8329C1ECD84552BF0DC8D18BE7BCE23BFE6BD960AB4A7DE79923A103BEBD80F911CBAA2C60DB19B01CF164A5583B772EE6D3FFA56666CBCDA74DC97724A48F9A58967497E489C4D979006FD7A05E227A1EBDD0F737C623387A9C844D3709995625106D157315F8B8392CD4E0
310
A0B9A720C4BE9829CEF37EA1E13111214D53925356365ADA634861B52519DD27A00AEB808EAF0628E6F435519D446F45CF2C9CF5214F0A15B2F6D06B79DA3EE3CBF7F56780D2F4E7EF73A0F5E5B02A38D07DC852C6B7C1FBB6664213E0C39E3EBA7FF4E1AD23EA2829407C85E586727488B751B2DB9502BC7B228A3FD68B6E
310
A65A22397E690AA8D158D7E404EC8CDA235CC3B7D1898680131CEC2CDF2638C65196279577750F15884AEE19F94199155B92B13297978469D4F8D358DF0AEF7631E28DC8F0D9F437D5D39A83B2231A1D52D543813A824EF8D44BCFF2FA6A31BD1E8DAD87F1CCB526B3879935BF59CDADD5C37479BB1CDD4CA7B3556B516589
310
EF352754B706114D9C885EC9131DE6EFEB43D99AFE2391C2F958179413D7CFEF6B1B6DB1E7600F00DE6E5C67454A339A4BA2E0FBA85ED26F045D454F463DBFCE484C2F90F2E5E3666003662ED8F755951A7D1BECD5B30B550B2785C8E7320B7292A4838DDA71BBC863ED7613CAF659337A3354231D4FF4A182A54904C2898C
310
98B28C4AD0CE056CCF332A80986E571EE9DBC305BB5FEB7E509220A58D25CF042D712A806AC0AD0C657FDEF80D2D9CEAA2EE4D1C76F60BFE74219A06527D6F82DF6412526107381E55E353090704D085B52408A8913C4ED159D79BDA71BB4BC506F4831350EB6F975CD22D69BF7AC49B91A2C0A9DDA3D5CA36AD20FC478E37
310
E61844E2352865EBCB61A275A65283CAAA9DD27703B4102F5AF51EF5F573B75CBB5AD38BC845F7A49F82A0966A49C2E3EA5EA0ECD326CD965F1DB402C6FA8B51A4658C5C5E2EC9E214602E55810345408596591009A82E7E7FFACA19EEA299B14A0081A705CB3296EBC14CDF658DCD336EA6D1136881AAEB87B81AB9EE53D5
310
F5EB8BC8362082DA24122F98680A4E7930C01A0079749CEA14382A0783E5EBA5A10F8C098456A03D6A4AEB6BB881E2513747552A5DB22C7EDAF83BD5528081A365F7FF06504B0304140006080000CC70623B000000000000000000000000350000006662782F41393633353835312D344632462D344230382D423046372D37
310
39314545314133324237412F76657274696365732E62696E504B0304140006080800CC70623BF270F1330600000004000000360000006662782F41393633353835312D344632462D344230382D423046372D3739314545314133324237412F747269616E676C65732E62696E636660600000504B0304140006080000CC7062
310
3B000000000000000000000000370000006662782F41393633353835312D344632462D344230382D423046372D3739314545314133324237412F617474726962757465732E62696E504B0304140006080800CC70623B08DA0BD19000000041010000360000006662782F41393633353835312D344632462D344230382D4230
310
46372D3739314545314133324237412F6469726563746F72792E786D6C858F410AC3201045AF22B36F53E9A60B35CBEEBAE80D244E44489C6234F4F835464A48035D0DF398FF9F8AF63D0E6CC63039F212F8F9020C7D47C6792B21C5FE7403D62A1188E2E60C98D7234A5830286103A55745067B9D86B8A3CF9C7F90C11DE6
310
07FB144396D7B6A82D282E9A152AD114D5EF2CB866EEE831B8EEA07A7BB5A8D7D61A2BAAEB7FD5F70921FF497D00504B0304140006080800CC70623BEDD1DC58FD000000A00100003B0000006662782F41393633353835312D344632462D344230382D423046372D3739314545314133324237412F7265736F75726365732F
310
636F72652E786D6C8D504B6E833010BD0A9A6D65B00922041947112427E8052C33A156828DFCA97AFC9A40A576D7CDCCE87D344F8F9FBFE667F689CE6B6B3A6039850C8DB2A336530731DC4903D95970676DF82583CCC8193B5861107C72362E3BA4AC096842428D1D7107A5F7182053CF7474E0D507CE32973124857FE48B
310
540F3961CEF244279DE03EB81420DB9EAC1384436FA353E879B1B182C7A8C75DA3C7F453DF353A1075D537A7BA6464B8F535A99AE14A9A2BBD90E350DD183B5CFABE3AF262350B1EF4FC9351399401471025A527C218A1E53BAB5A5AB765F5469B96525EACF23FA6B88CFF34456DC2A1DCE36E360F82A5202F42F062ED2BAD
310
579969AFDD8A6F504B010214000A0000080000CC70623B3DEE336E79000000790000001B00000000000000000000000000000000006175746F6465736B2D64657369676E2D7061636B6167652E786D6C504B01021400140006080800CC70623BD486FD9CA0000000F40000001300000000000000000000000000B20000005B
310
436F6E74656E745F54797065735D2E786D6C504B01021400140006080800CC70623B853B8169EB0000007C010000080000000000000000000000000083010000636F72652E786D6C504B01021400140006080800CC70623B55019EA25F0000007C000000070000000000000000000000000094020000636E782E786D6C504B
310
01021400140006080800CC70623BDBABAAF470010000D40300000C00000000000000000000000000180300006662782F636F72652E786D6C504B01021400140006080800CC70623B9C113CC27E0000009D0000000B00000000000000000000000000B20400006662782F636E782E786D6C504B01021400140006080800CC70
310
623B7DF2F77C2A010000120200003100000000000000000000000000590500006662782F41393633353835312D344632462D344230382D423046372D3739314545314133324237412F636F72652E786D6C504B01021400140006080800CC70623BAD7543B64E010000330300003000000000000000000000000000D2060000
310
6662782F41393633353835312D344632462D344230382D423046372D3739314545314133324237412F636E782E786D6C504B01021400140006080800CC70623BE75B7789680500003C10000034000000000000000000000000006E0800006662782F41393633353835312D344632462D344230382D423046372D3739314545
310
314133324237412F6F626A656374732E786D6C504B01021400140006080000CC70623B0000000000000000000000003500000000000000000000000000280E00006662782F41393633353835312D344632462D344230382D423046372D3739314545314133324237412F76657274696365732E62696E504B01021400140006
310
080800CC70623BF270F133060000000400000036000000000000000000000000007B0E00006662782F41393633353835312D344632462D344230382D423046372D3739314545314133324237412F747269616E676C65732E62696E504B01021400140006080000CC70623B0000000000000000000000003700000000000000
310
000000000000D50E00006662782F41393633353835312D344632462D344230382D423046372D3739314545314133324237412F617474726962757465732E62696E504B01021400140006080800CC70623B08DA0BD1900000004101000036000000000000000000000000002A0F00006662782F41393633353835312D344632
310
462D344230382D423046372D3739314545314133324237412F6469726563746F72792E786D6C504B01021400140006080800CC70623BEDD1DC58FD000000A00100003B000000000000000000000000000E1000006662782F41393633353835312D344632462D344230382D423046372D3739314545314133324237412F7265
310
736F75726365732F636F72652E786D6C504B0506000000000E000E0080040000641100000000
  0
XRECORD
  5
A714
102
{ACAD_REACTORS
330
1F7
102
}
330
1F7
100
AcDbXrecord
280
     1
102
MATERIAL
148
0.0
149
0.0
149
0.0
 93
        0
 94
       63
282
     0
 72
     1
 77
     1
171
     1
175
     1
179
     1
273
     0
  0
XRECORD
  5
1F8
102
{ACAD_REACTORS
330
1F7
102
}
330
1F7
100
AcDbXrecord
280
     1
 70
     1
 90
429727718
  1
30362254-06B7-45E0-A893-8CFA70E3D6BC
310
504B03040A0000080000CC70623B3DEE336E79000000790000001B0000006175746F6465736B2D64657369676E2D7061636B6167652E786D6C3C3F786D6C2076657273696F6E3D22312E302220656E636F64696E673D227574662D3822203F3E3C666F726D6174733E3C666F726D61743E687474703A2F2F736368656D612E
310
6175746F6465736B2E636F6D2F64657369676E2D7061636B6167652F323030393C2F666F726D61743E3C2F666F726D6174733E504B0304140006080800CC70623BD486FD9CA0000000F4000000130000005B436F6E74656E745F54797065735D2E786D6C7D8EC10E82300C865F65E91D8A1E8C310C0EEA1BF002731658846E
310
D98AC1B77784ABF1D8FE5FBFBF75BBCE937A534CCEB38643598122B6FEE978D0B0485F9C41B54DDD7D022595594E1A469170414C76A4D9A4D207E29CF43ECE46F218070CC6BECC4078ACAA135ACF422C856C0E68EA1BF5669944DDD7BCDE7B1F8E415D77AECB980613C2E4AC91FC167A2B244592486606FC29C8FD7F045B9A
310
EF7053A7E60B504B0304140006080800CC70623B1EC5D7A3EB0000007C01000008000000636F72652E786D6C8D90416EC3201045AF82665B6103C6756C6122AB4D4ED00B204C5C94182C03558F5F9C3852BBEB6A467FFE9B197D71FC9E6FE8CBACC17AD7032D0820E3B41FAD9B7A48F1820F808E52ACDEC75F36404ECDA687
310
4D0629A6D5A76597B477D1B89855E747B38B2A041301E95B6E7A08FAD3CCAA50296647B8168BD2573599823EBB0CA76447F43862C7BCCF5EAC59410E4DDD9C7973C2755553CCCFA4C603E3040F1565ED3B1FDE4E432BCA0D9622DAF9795FAF464533826484B498524CD807E51D79ED187F21878E10516EF63F505AC67F42C9
310
BA58B1FDDD071640D2FCC87D2045B96591CB3DA85CB7DCE40F504B0304140006080800CC70623B55019EA25F0000007C00000007000000636E782E786D6C4DCB3B0E80201045D1AD90E915ED2CF8AC45050C11660C8261F98AB1B07AC9C97D42D718D865D3E909258CFD00CCE24AC6E326A164D74DC0B4128928FF32603847
310
2BA13128B1252AC747C6BAB984FC68F0B87FE8960A5C09FE86CFB69FBA01504B0304140006080800CC70623B8C9102E971010000D40300000C0000006662782F636F72652E786D6CC5535B6E833010BC8AE5DF0A6C08340F1947A84D4ED00B38C6A128602363A31CBFCB234A53A551FA553EC09AD9F5CE8C31DB9E9B1AF5CA
310
7695D1198E428A91D2D214952E33ECDD315861B4E5CC1AE3BE9561A445A3323CC098B3D21ADFCE9034DA29ED00D5A6503328BA4E398C640D8B0C77F253352214DE4145770A5B214FA2546114020D759C75CE8200340D19DE981F0F6746269C33EFAB6266AB02A655C74A59CCF365BADC27CB5D902ED22848F6340DF238A141
310
BE88E2F57B92BFEDF23523433367AE6A2EEAA455C2A902F398D2751045018D3FA264435F3771F242571B4A1919CA6F9A7C5B3CD9E42BED16F12C776AEB308F40C848FC700B1139D4891EF410CEC810227CC6846F8386402064270EF5C5C709A05E49676C024C61FC95EA45ED154CA5211D1FF4FB8291A913A68E9B83EBBB33
310
E2A7673CDE118E5AE8124C0807CB8377834E366998436B950D7A7746DAD846D4CFD978E0F04FD455FC5D49D2D4C6FE9722321F10997F0F32DC47FE05504B0304140006080800CC70623BFFEA85907E0000009D0000000B0000006662782F636E782E786D6C4DCCD10A83201886E15B91FFDC95D95A811AB6F23E625948A6C3
310
E9D8E5AF46073BFAE0E1E365ED67B3E8ADC3CB78C7815C7240DA3DFC64DCC221C519D7805AC182F7F1EF06C88D9BE6703008B6049F9E274D7A1E938DBB5AE3D6131B2589BA0D3D965551E0B2EA732C9B9A624AAEB41E3A557677029960D9AFB4EF11165F504B0304140006080800CC70623B4FEEA4082C0100001202000031
310
0000006662782F39464131463745442D413632322D343644302D413938332D3331353338454246344243312F636F72652E786D6C8D515B6EC32010BC0AE2AB55850DD871ED0813254D72825EC00192A2C460F1A872FC42ED48ED5F7E00CDCECCCEB26C731F6FE05B39AFADE921293004CA082BB5B9F43086336A21D870E6AC
310
0D7F68109861543DCC30E4ECE26C9C164858139409093556AA051CBC570102714B8F1E7AF1A5C6A11862480C7F2DA6415C878B2A4891CA89C7990F2E050073937C42DE1DB7E4F87ED8A36D4329AA9B3D46DBAEAD504556557BD81DEBDD0761E52CE42C462D17B996298E3E6BE59E35C962CE821E1FF18553435012728A7187
310
0841987E927A8D9B35ADDF70BBC6989599FE4F1427F9A4286A132ABAC49D651EF234CD5CE04CDA78BA3DC2A8FB645D00B9DF8B57E215725C60BCA2A463E54C4CE327C7A65E1C7DB02E7DEFCBF594B864C5CA6CDBD49C957943E9FA5D5FBAF336F90F504B0304140006080800CC70623BAD7543B64E01000033030000300000
310
006662782F39464131463745442D413632322D343644302D413938332D3331353338454246344243312F636E782E786D6CD593CD6EC32010845F0571AD6CE3D48AD20813A9873E410FBD12D82434182C7EAAE6EDBB2424CD25871E7B41D6EC30B3FA84F9E67BB2E40B4234DE8DB46F1925E094D7C6ED479AD3AE5951B2113C
310
789FEE6C943839C1488B4C05DF079FE72A69D8C96C13AAD6B8631503449F83828872B949AC57D26200B826A308D316B4064D6E46FCDA41C05550DC9E483A00797BFD207EFB092A45DE9514C1BBD22178396BD39D891265658C238DEA00936C654E5E433CB65A26D9F6EDB5EBC14EBF49A45CB856E66048291F6939A9A81BB5
310
C8917738143CA680F4AA299D66A042CEB3354A2684DC9D8D178FE0D9B8B41CAAD720F880EE7EF93C0C18769E099ECC04D5A102C8049A8A05632F4DDF376CF1DE0F6BB65C2F8627B65A33C6BB62177CEBBDAD973006829F89F22E814B54F4BC2BE347F8AA8F681390B50FA73F804400B5F542E796F19FF974E7F78DB802FE05
310
E207504B0304140006080800CC70623B16AB87BA640500003C100000340000006662782F39464131463745442D413632322D343644302D413938332D3331353338454246344243312F6F626A656374732E786D6CAD575B6FA33818FD2B887DE6924B3BED8A326A92B68A663B534DD4D13E548A0C38942D60649B369D5FBFC7
310
600890A493BDE42160637FD7F31D7FF63E6FB3D478A55C242CBF3247B66B1A340F5994E4F19559CA8D75611A9F7D8F33263BCB4C232719BD32D5B4E97B316765A1A722BA21652A07B3B7B33F0D11D29C9A46981221AE4C113ED38CD8A4942CA2E2C58E882476BCD9DA23BB5ED8171B73523C0F841684D35CC252CCE79062D4
310
468DFA43D7747CCF51DF7D4FFDEB5593E3AB9CCA9FBEFE241792E4E19EB28198C968BAB8199F5D5A67D3E9C49A9E8F47D6EC76B6B0469F26EEFC7C3EBFBCBEB98462213924694B38DD98FE1D62C393D073EA4FADC5DAF04326852CCF6958F90F0F2B9BB5C48816348F90C7840A68EB78EDF68723159BCEE7891A6B95DDE9D3
310
BCEAEEE8086A6C6F9E5D4B59F0175C10A7A0820BAA5055C7473B5AE3CFDD452D602CD5DF12616444529E90D448938013FE6EFA58AA96F85E4F8C42275708571E98FE6827AF6B2B4AE3D7D83D64E5A64C53054DD3AF90BD06FEA9149565C94FCA0F6B834DC85599E4F2423B24DF0B6AFA979E534DFA9E7A4CC6FA631D486393
310
921829879BF5D781A373557BCB85E97FB90DB62B558F8795179C15944B051F40AB495CF35451D26A4727654E6D8033BD98EF82F21D91FF8AF2DD9982BCF1643BDD4EB516C9492E368C67C88DED563FC36D5EACF66DFF057C3658BDBFA69DF9578B3DA735B64F18C7F20770A9D45CFCF7FCF563D6456A277DBEF78A02637CA2
310
43B90A490AEAB94F72244481D24819A6C0E59B606BFA4B3025981DBB48EAB701D97BF19C577CC77F2D1B6C55A9EF3C732474C0B727303F625995056C3B02963D9EAC146BE78EC5FCEC7FA999EBC5EACBAAE41B12D27B4D2C0BBA49F244E2ECDC81B76B502F113D8F5EE8FB1BE3111CDD4FC2AA9B844CAB1288B68AB90A7CDC
310
1C166AB0D3DC5310625FCC14E779BFD0709F8890A629C9292B1B2DED31A4B0DA928CEE135085754027E3018A397D4D5427D15BD1330B677DC8934285AC3DF45A9EB68FF8F2B8FC0A509AFEECFD0FF2DE25CC6047F7214B195F07EFEB9A094D800F7BFAE8FED187B78EA8A3A400F115961BCAD1215E47C966530AF0EE8128FE
310
58CEBB996A8964FFA529A046635D9353B0336A8F700DDF46271A024E70B0B37C9DE01847591E54DED53D54202AB947E4076556AC49C6CA5C9E1226B7F1A7B1BE15DEED62C41B91E1B3E9AFAAA735036547343A925075041DF0A9979E893B391F8FCFA6967B3EFB644DCF6E5CEBFAE272625DCC6FAF3FB93793C5F90CE1EF57
310
407342756B10D1C489E8953CD1617E5CEECAD6F4EF8914CE5D5D504E5C3F1F9736DA62CFC11E00BCDDB8CC8A9466349744C1F75EBDA4DF09BA8A9E8C7A7E9991989E20E5DBDD6A6003664ED8F7A04A8DBE0DF6EAD9B9AA858342E47399053949D2C146EDB85DE4B176BB0965FBAC19BD19AA918E27FA50C1D22402E144464C
310
59462568E704B6E71915404CB72B8FF4EDE184DDAF753F284990D2C6926782963815403548A70C657FDEF80D2D9CEAA2AE4C1C76F60BFE74219A06527D6582DF6412526107381E55E353090704D085B52408D0933C4ED159D79BDA71BB4BC506F4831350EB6F979CD22D69BF7AC49B91A2C0A9DDA3D5CA36AD20FC478E37E6
310
1844E2352865EBCB6EA275A652E3836BE04EFB400BF1A2556F515F1FBB35B2AB35BD889C744FFA1004B5544B121E57F70215746DD2F5E2C1412B602CBF19455AC6C8E5E9922C4E01E65215385004546899059180EAFCF7A707CE7017CD8CDB0410789AB32C63B91E5CEBBBACB17AC6CD347A022D5075FD106377347AAABA7E
310
7D11590744509B44E205134DC1290F06580320F78E537D3D73540E06CB970B431F185308AD40BBD794D6D77003C5A36E8EAA54BA64597CD8F83BD552A080A365F7FF06504B0304140006080000CC70623B000000000000000000000000350000006662782F39464131463745442D413632322D343644302D413938332D3331
310
353338454246344243312F76657274696365732E62696E504B0304140006080800CC70623BF270F1330600000004000000360000006662782F39464131463745442D413632322D343644302D413938332D3331353338454246344243312F747269616E676C65732E62696E636660600000504B0304140006080000CC70623B
310
000000000000000000000000370000006662782F39464131463745442D413632322D343644302D413938332D3331353338454246344243312F617474726962757465732E62696E504B0304140006080800CC70623B08DA0BD19000000041010000360000006662782F39464131463745442D413632322D343644302D413938
310
332D3331353338454246344243312F6469726563746F72792E786D6C858F410AC3201045AF22B36F53E9A60B35CBEEBAE80D244E44489C6234F4F835464A48035D0DF398FF9F8AF63D0E6CC63039F212F8F9020C7D47C6792B21C5FE7403D62A1188E2E60C98D7234A5830286103A55745067B9D86B8A3CF9C7F90C11DE607
310
FB144396D7B6A82D282E9A152AD114D5EF2CB866EEE831B8EEA07A7BB5A8D7D61A2BAAEB7FD5F70921FF497D00504B0304140006080800CC70623B0D6EF93BFE000000A00100003B0000006662782F39464131463745442D413632322D343644302D413938332D3331353338454246344243312F7265736F75726365732F63
310
6F72652E786D6C8D50596E833010BD0A9ADFCA60B334011947A8694ED00B586642AC041B79A97AFC9A40A5F6AF3F33A3B7689E1E3F7DCD8FEC139DD7D6F4C0720A191A65476DA61E62B892236427C19DB5E1970C322367EC618541F0C9D9B8EC90B226A009093576C41D94DE63804C3DD2D18357379C652E63480A7FCF17A9
310
EE72C29CE5894E3AC17D702940B63D59270887DE46A7D0F36263058F518FBB468FE9A7BE6A7420864373B8D4873369AA8691FA421B3294352543C5CAF65C0F6FEF43CB8BD52C78D0F34F46E550061C419494B6843142CB0F5677F4B52BEB177AEC28E5C52AFF638ACBF84F53D42654E51E77B379102C05791282176B5F693D
310
CB4C7BED567C03504B010214000A0000080000CC70623B3DEE336E79000000790000001B00000000000000000000000000000000006175746F6465736B2D64657369676E2D7061636B6167652E786D6C504B01021400140006080800CC70623BD486FD9CA0000000F40000001300000000000000000000000000B20000005B
310
436F6E74656E745F54797065735D2E786D6C504B01021400140006080800CC70623B1EC5D7A3EB0000007C010000080000000000000000000000000083010000636F72652E786D6C504B01021400140006080800CC70623B55019EA25F0000007C000000070000000000000000000000000094020000636E782E786D6C504B
310
01021400140006080800CC70623B8C9102E971010000D40300000C00000000000000000000000000180300006662782F636F72652E786D6C504B01021400140006080800CC70623BFFEA85907E0000009D0000000B00000000000000000000000000B30400006662782F636E782E786D6C504B01021400140006080800CC70
310
623B4FEEA4082C0100001202000031000000000000000000000000005A0500006662782F39464131463745442D413632322D343644302D413938332D3331353338454246344243312F636F72652E786D6C504B01021400140006080800CC70623BAD7543B64E010000330300003000000000000000000000000000D5060000
310
6662782F39464131463745442D413632322D343644302D413938332D3331353338454246344243312F636E782E786D6C504B01021400140006080800CC70623B16AB87BA640500003C1000003400000000000000000000000000710800006662782F39464131463745442D413632322D343644302D413938332D3331353338
310
454246344243312F6F626A656374732E786D6C504B01021400140006080000CC70623B0000000000000000000000003500000000000000000000000000270E00006662782F39464131463745442D413632322D343644302D413938332D3331353338454246344243312F76657274696365732E62696E504B01021400140006
310
080800CC70623BF270F133060000000400000036000000000000000000000000007A0E00006662782F39464131463745442D413632322D343644302D413938332D3331353338454246344243312F747269616E676C65732E62696E504B01021400140006080000CC70623B0000000000000000000000003700000000000000
310
000000000000D40E00006662782F39464131463745442D413632322D343644302D413938332D3331353338454246344243312F617474726962757465732E62696E504B01021400140006080800CC70623B08DA0BD190000000410100003600000000000000000000000000290F00006662782F39464131463745442D413632
310
322D343644302D413938332D3331353338454246344243312F6469726563746F72792E786D6C504B01021400140006080800CC70623B0D6EF93BFE000000A00100003B000000000000000000000000000D1000006662782F39464131463745442D413632322D343644302D413938332D3331353338454246344243312F7265
310
736F75726365732F636F72652E786D6C504B0506000000000E000E0080040000641100000000
  0
XRECORD
  5
A716
102
{ACAD_REACTORS
330
173
102
}
330
173
100
AcDbXrecord
280
     1
102
MATERIAL
148
0.0
149
0.0
149
0.0
 93
        0
 94
       63
282
     0
 72
     1
 77
     1
171
     1
175
     1
179
     1
273
     0
  0
XRECORD
  5
175
102
{ACAD_REACTORS
330
173
102
}
330
173
100
AcDbXrecord
280
     1
270
     1
271
     1
  0
XRECORD
  5
174
102
{ACAD_REACTORS
330
173
102
}
330
173
100
AcDbXrecord
280
     1
270
     1
271
     1
  0
XRECORD
  5
1FB
102
{ACAD_REACTORS
330
173
102
}
330
173
100
AcDbXrecord
280
     1
 70
     0
 90
1673772943
  1
ECE7A1D2-D628-4531-984C-D00F80459256
310
504B03040A0000080000CC70623B3DEE336E79000000790000001B0000006175746F6465736B2D64657369676E2D7061636B6167652E786D6C3C3F786D6C2076657273696F6E3D22312E302220656E636F64696E673D227574662D3822203F3E3C666F726D6174733E3C666F726D61743E687474703A2F2F736368656D612E
310
6175746F6465736B2E636F6D2F64657369676E2D7061636B6167652F323030393C2F666F726D61743E3C2F666F726D6174733E504B0304140006080800CC70623BD486FD9CA0000000F4000000130000005B436F6E74656E745F54797065735D2E786D6C7D8EC10E82300C865F65E91D8A1E8C310C0EEA1BF002731658846E
310
D98AC1B77784ABF1D8FE5FBFBF75BBCE937A534CCEB38643598122B6FEE978D0B0485F9C41B54DDD7D022595594E1A469170414C76A4D9A4D207E29CF43ECE46F218070CC6BECC4078ACAA135ACF422C856C0E68EA1BF5669944DDD7BCDE7B1F8E415D77AECB980613C2E4AC91FC167A2B244592486606FC29C8FD7F045B9A
310
EF7053A7E60B504B0304140006080800CC70623BD9DDAED0EC0000007C01000008000000636F72652E786D6C8D90416EC3201045AF82665B61836D9CD8C2444DD39CA01740405C94182C03558F5F9C3852BBEB6A467FFE9B197D7EF89E6EE8CB2CC17A37002D0820E394D7D68D03A478C17B4007C117EFE32F1B20272733C0
310
2A83E0E3E2D3BC49CABB685CCCAAF3DA6CA20CC14440EA969B0182FA34932C648AD911AEC52CD5558EA6A0CF2EC329598D1E47ACCEFBECC59A050463A7EA5833865FEBDD0E37353BE3EE8DBDE3F6786A48D375FBF6CC78B9C282473B3DEFABC5C86834888A900E538A49F5419B9EB47DD5BC907D4F082F57FB1F28CDFA9F50
310
B22ED6D5F6EE030B20687EE43E10BC5CB3C8E51E54AE6B6EE207504B0304140006080800CC70623B55019EA25F0000007C00000007000000636E782E786D6C4DCB3B0E80201045D1AD90E915ED2CF8AC45050C11660C8261F98AB1B07AC9C97D42D718D865D3E909258CFD00CCE24AC6E326A164D74DC0B4128928FF326038
310
472BA13128B1252AC747C6BAB984FC68F0B87FE8960A5C09FE86CFB69FBA01504B0304140006080800CC70623BA24EB22D72010000D40300000C0000006662782F636F72652E786D6CC5535B6E833010BC8AE5DF0A6C5E49888CA3A6694ED00B38E05014B091B1518EDFE511A5A9D228FD2A1F60CDEC7A67C6986DCE4D8D7A
310
69BA4AAB0C073EC548AA5C17952A33ECECD15B61B4E1CC686DBF9561A44423333CC098B3D268D7CE50AE9595CA02AA74216750749DB418E5352C32DCE59FB211BE70162ABA93DF8AFC244AE9073ED050C759670D0840D390E18DF9F1706664C23973AE2A66B62A605A75ACA4C13C4976E1364A12EF355A2EBD384AF65EFA96
310
BC7B8BED2EA6719AAE16FB8491A199335B351775B991C2CA02F390D2D40B028F861F41BCA68B7518BFD0D59A524686F29B26D7164F36B94AD9289CE54E6D1DE6010819891F6E21228B3AD1831EC219194284CF98F06DD01008846CC5A1BEF83801D4CBDC6A1303536877A57A513B0953A94FC707FDBE6064EA84A9E3E6E0FA
310
EE8CF0E9198F7784A316AA0413C2C2F2E0ECA0934D1AE6D05A69BCDE9E91D2A611F573361E38FC1375157F5752AE6B6DFE4B11990F88CCBF0719EE23FF02504B0304140006080800CC70623B408A7D3B7C0000009D0000000B0000006662782F636E782E786D6C4DCCD10A83201886E15B91FFDC552A92A0064DBC8F581632
310
D3703A76F9ABD1C18E3E78F878E5F0D9027ABBFCF2292AE86E2D20171F69F6715550CB827B40839639A5F2770314A7CD293819B45C73AAFB45B35BA61ACAA1C1C7E7855C58C15BC331339661262CC762340413D68D77DA5B42298546CBE6573AF60CEB2F504B0304140006080800CC70623B449FB9BD290100001202000031
310
0000006662782F36394639363044362D344446342D343946362D394244322D3234314243333846323333332F636F72652E786D6C8D515B6EC32010BC0AE22B55850D98B871848994463E412FE002495162B07854397EA176A4F62F3F2C9A9D991D587EB84F37F0AD7D30CEF6905418026DA553C65E7A98E219ED203808EE9D
310
8B7F6810D871D23D2C3014FCE25D9A57483A1BB58D19B54EE9151C43D0110279CB971E06F9A5A7B11A53CC8C70ADE6515EC78BAE4895DB992778883E0700CB907242D17643D7E2538BD869608875438BBAE38922CAC8F1BDD90DB4691A5E2F42C153326A951B95E398B3D1FE599322163C9AE9115F7A3D46ADA0A018778810
310
84E907617BDCEE297BC5BB3DC6BC2EF47FA234AB2745C9D8D8D035EE220B50105E2F0DC1954B9FB747187D9F9D8FA0CCDB042D5FA0C015C65B42DF78BD10F3F3B363CB56C7109DCFDFBBB97E662ED92EB62D13BC2E1BCAE5777DB9966D8A1F504B0304140006080800CC70623BAD7543B64E01000033030000300000006662
310
782F36394639363044362D344446342D343946362D394244322D3234314243333846323333332F636E782E786D6CD593CD6EC32010845F0571AD6CE3D48AD20813A9873E410FBD12D82434182C7EAAE6EDBB2424CD25871E7B41D6EC30B3FA84F9E67BB2E40B4234DE8DB46F1925E094D7C6ED479AD3AE5951B2113C789FEE
310
6C943839C1488B4C05DF079FE72A69D8C96C13AAD6B8631503449F83828872B949AC57D26200B826A308D316B4064D6E46FCDA41C05550DC9E483A00797BFD207EFB092A45DE9514C1BBD22178396BD39D891265658C238DEA00936C654E5E433CB65A26D9F6EDB5EBC14EBF49A45CB856E66048291F6939A9A81BB5C89177
310
38143CA680F4AA299D66A042CEB3354A2684DC9D8D178FE0D9B8B41CAAD720F880EE7EF93C0C18769E099ECC04D5A102C8049A8A05632F4DDF376CF1DE0F6BB65C2F8627B65A33C6BB62177CEBBDAD973006829F89F22E814B54F4BC2BE347F8AA8F681390B50FA73F804400B5F542E796F19FF974E7F78DB802FE05E20750
310
4B0304140006080800CC70623B8D05915C650500003B100000340000006662782F36394639363044362D344446342D343946362D394244322D3234314243333846323333332F6F626A656374732E786D6CAD575B6FA33814FE2B887D06429276DA1565D4266D158D3A339A6846FB502932E050B66023DB74D2FDF5FB190C01
310
9276B2973C046C8ECFF53B17071F77456EBD502133CEAE6CDF9DD81665314F32965ED995DA3A17B6F5310C04E7AA47665B8C14F4CAD6DB7618A48257A5D94AE89654B91AEDDEDDFC61C998326A5B714EA4BCB265FC440BE2924AF184CA6737218AB8E976E7FA6E4338649B0A523E8D98964450A6A029F619B8588D52FE7039
310
B1BD30F0F4F730D0FF866AF6369557DB33949F31A9088B0F848DD8CCFCF9F2767A76E99CCDE733677E3EF59D9BBB9BA5E37F984D16E78BC5E5F5ED25044B25C0C96822E8D60EEFE11B91C581D77CEA34368A1F5329E68CD1B8B61F16D63A1B8E092D294B10C78C4A48EB593D192E7DED9BDEE7995E1B91FDEDD3ACEA9FE831
310
6A756F9F7D4D79F4274C90A7A04248AA51D5F8C718DAE06FB2F75AC4796EBE65D22A88A22223B995679120E2D50E41AA49C260C046A35368846B0BECD0DFF3EBEB8AD4F835768F69B9ADF25C43D30E6B646F807FAA64AD59F61715C7A54127C4AACA98BA3006A9D792DAE165E0D59B61A01FB3A9F9D838D2DAE62445C86166
310
F37564E842E7DE6A69879FEEA2DD5AE7E371E1A5E025154AC307D06A03D73EB5978C58FFA4C8E9033066E0F3BD53BEC1F39F91BE7B55103791EDE6BBB991A2046172CB4581D8B893FA674DDA17A77B3B7C413D1B511FD2743BFF8A38F03A658705E3ADF8015C3A3417FF3D7E439FF591DA0B5F18BC20C1B8981957AE6392A3
310
F43C640C01D1A0B4728E2DD4F26DB4B3C3152A252A3B4E913CEC1C72F012782FF88EFF8637AA552DBEF76408E8A8DE9E50F9E1CB3A2DA0DB1B6039A893B56063DC5B3E3FFB5F72E67AB9FEB4AEC496C4F4C1149625DD662C53E89D7BF0F6151A046260D1337DFDC94502430F83B0EE07A130A224BCAD7DAE1D9FB6CD422FF6
310
920702629C4BB9AE79C12F243C6432A6794E18E5552BA56B431AAB5D91317302B2B071E86C3A42B1A02F999E24061403B5D0EB639195DA655DD3EBEAB4FB862DDF579F014AD0E73C22F99E28DA57FB98E75C6CA2D74D53086D600F4786E0FE3144B771A8A7B900F03594DB8A633CBC49B2EDB69228BB479CF863B5E807AAAB
310
23872F6DFEB4129B949CA33823F58830E86D65621E10047D9DB34D862E8EAC3C2ABC2F7B2C40D67CDFE01F5545B92105AF983AC54D93D69E56FB8E797F88913F898A9FEC705D3F9D1B54EC8426FB500D40A03BD0119B06E1B95DDC7EB8F6975367793EBD70E66733DFB9BC982F9CE564727731999F5D4ECFCE3B8D6A4DC2A0
310
6D50FD148437D110834A64C6CDDF57FBACB5C307A2A477DFE4939736CFEF2B175371E0E10CF0DD1D5C15654E0BCA14D1E87DD02FF93782A162C0A3D95F1524A52770F972BF1EE9809D13CE7DD599467F8ECE9ADD85CE85A34CD45355448C64F9E8A031DC2D596ACC6E5DD93D9B82DE2EF5CAF81363A8E47996A0DE24564A79
310
4115AACE09C55E14540231FDA13C319787134EBF34E3A022514E5B4D9E0826E25C02D5805B15ABE1BEF51B26383D445DD9E875EE33FE4C22DA16427D65A3BCA92CA6D28DD01DF5DC53330704308475351050232CCD31583787BA75774AFB06E5070DD0C8EF484E19968C5D83BA5B90B244D31E54D55A372320FE4786B7EA58
310
44E135AA5467CB7EA333A61683CC6A8C3257034C10CF46F40EF9F5BE59BE5BD30C3C72D235E95D10345C1D45445A5F0BB47E46A5EBE5570F9380B5FA629579952296A773720405982B9DE04011506178964401AA8BDF1FBF0A8EAB6861DD6580C0E38217056766716DAEB2D6FA0917D3E4116581EADB879C4E7CFFB11EFACD
310
3D641311495D92C8676CB409A72D18610D803CE8A626049E8EC1887CB5B44CC39883690DDA8399B4B9855B481E7D71D4A9D22F96E5BB73BF5793020C02137BF837504B0304140006080000CC70623B000000000000000000000000350000006662782F36394639363044362D344446342D343946362D394244322D32343142
310
43333846323333332F76657274696365732E62696E504B0304140006080800CC70623BF270F1330600000004000000360000006662782F36394639363044362D344446342D343946362D394244322D3234314243333846323333332F747269616E676C65732E62696E636660600000504B0304140006080000CC70623B0000
310
00000000000000000000370000006662782F36394639363044362D344446342D343946362D394244322D3234314243333846323333332F617474726962757465732E62696E504B0304140006080800CC70623B08DA0BD19000000041010000360000006662782F36394639363044362D344446342D343946362D394244322D
310
3234314243333846323333332F6469726563746F72792E786D6C858F410AC3201045AF22B36F53E9A60B35CBEEBAE80D244E44489C6234F4F835464A48035D0DF398FF9F8AF63D0E6CC63039F212F8F9020C7D47C6792B21C5FE7403D62A1188E2E60C98D7234A5830286103A55745067B9D86B8A3CF9C7F90C11DE607FB14
310
4396D7B6A82D282E9A152AD114D5EF2CB866EEE831B8EEA07A7BB5A8D7D61A2BAAEB7FD5F70921FF497D00504B0304140006080800CC70623BCA768048FE000000A00100003B0000006662782F36394639363044362D344446342D343946362D394244322D3234314243333846323333332F7265736F75726365732F636F72
310
652E786D6C8D50596E833010BD0A9ADFCA60D600328E9AA639412F609909B1126CE4A5EAF16B0295DABFFECC8CDEA2797AECF8353F924FB44E193D409E5248504B332A3D0D10FC95B4901C39B3C6F85F3248B49871801506CE266BC2B243D2688FDA47549B11775038871E12F988C7004EDE7016A9083E2ADC3D5D84BC8B09
310
D33C8D74D471E6BC8D0192EDC93A815B742658898E651BCB59086ADC356A8C3FD555A1055ED7E7E254D615792D0F075295F585746FF53B694EE78A565DD736979A65AB9933AFE69F8CD2A2F038022F28ED489E135A7CE4554F9BBEA85E68DB53CAB255FEC71496F19FA6A0B42F8B3DEE6673C0F318E4497096AD7DC5F52C33
310
EEB55BFE0D504B010214000A0000080000CC70623B3DEE336E79000000790000001B00000000000000000000000000000000006175746F6465736B2D64657369676E2D7061636B6167652E786D6C504B01021400140006080800CC70623BD486FD9CA0000000F40000001300000000000000000000000000B20000005B436F
310
6E74656E745F54797065735D2E786D6C504B01021400140006080800CC70623BD9DDAED0EC0000007C010000080000000000000000000000000083010000636F72652E786D6C504B01021400140006080800CC70623B55019EA25F0000007C000000070000000000000000000000000095020000636E782E786D6C504B0102
310
1400140006080800CC70623BA24EB22D72010000D40300000C00000000000000000000000000190300006662782F636F72652E786D6C504B01021400140006080800CC70623B408A7D3B7C0000009D0000000B00000000000000000000000000B50400006662782F636E782E786D6C504B01021400140006080800CC70623B
310
449FB9BD290100001202000031000000000000000000000000005A0500006662782F36394639363044362D344446342D343946362D394244322D3234314243333846323333332F636F72652E786D6C504B01021400140006080800CC70623BAD7543B64E010000330300003000000000000000000000000000D20600006662
310
782F36394639363044362D344446342D343946362D394244322D3234314243333846323333332F636E782E786D6C504B01021400140006080800CC70623B8D05915C650500003B10000034000000000000000000000000006E0800006662782F36394639363044362D344446342D343946362D394244322D32343142433338
310
46323333332F6F626A656374732E786D6C504B01021400140006080000CC70623B0000000000000000000000003500000000000000000000000000250E00006662782F36394639363044362D344446342D343946362D394244322D3234314243333846323333332F76657274696365732E62696E504B010214001400060808
310
00CC70623BF270F13306000000040000003600000000000000000000000000780E00006662782F36394639363044362D344446342D343946362D394244322D3234314243333846323333332F747269616E676C65732E62696E504B01021400140006080000CC70623B00000000000000000000000037000000000000000000
310
00000000D20E00006662782F36394639363044362D344446342D343946362D394244322D3234314243333846323333332F617474726962757465732E62696E504B01021400140006080800CC70623B08DA0BD190000000410100003600000000000000000000000000270F00006662782F36394639363044362D344446342D
310
343946362D394244322D3234314243333846323333332F6469726563746F72792E786D6C504B01021400140006080800CC70623BCA768048FE000000A00100003B000000000000000000000000000B1000006662782F36394639363044362D344446342D343946362D394244322D3234314243333846323333332F7265736F
310
75726365732F636F72652E786D6C504B0506000000000E000E0080040000621100000000
  0
XRECORD
  5
176
102
{ACAD_REACTORS
330
173
102
}
330
173
100
AcDbXrecord
280
     1
270
     1
271
     1
  0
XRECORD
  5
177
102
{ACAD_REACTORS
330
173
102
}
330
173
100
AcDbXrecord
280
     1
270
     1
271
     1
  0
XRECORD
  5
A738
102
{ACAD_REACTORS
330
A737
102
}
330
A737
100
AcDbXrecord
280
     1
102
ACAD_ROUNDTRIP_2012_MLEADER_STYLE
298
     1
  0
XRECORD
  5
A74A
102
{ACAD_REACTORS
330
A749
102
}
330
A749
100
AcDbXrecord
280
     1
102
DISPLAYNAME
  1
Metric50
102
FLAGS
 90
        0
  0
CELLSTYLEMAP
  5
A70A
102
{ACAD_REACTORS
330
162
102
}
330
162
100
AcDbCellStyleMap
 90
        3
300
CELLSTYLE
  1
TABLEFORMAT_BEGIN
 90
        5
170
     1
 91
        0
 92
    32768
 62
   257
 93
        1
300
CONTENTFORMAT
  1
CONTENTFORMAT_BEGIN
 90
        0
 91
        0
 92
      512
 93
        0
300

 40
0.0
140
1.0
 94
        5
 62
     0
340
11
144
6.0
309
CONTENTFORMAT_END
171
     1
301
MARGIN
  1
CELLMARGIN_BEGIN
 40
1.5
 40
1.5
 40
1.5
 40
1.5
 40
4.5
 40
4.5
309
CELLMARGIN_END
 94
        6
 95
        1
302
GRIDFORMAT
  1
GRIDFORMAT_BEGIN
 90
        0
 91
        1
 62
     0
 92
       -2
340
14
 93
        0
 40
1.125
309
GRIDFORMAT_END
 95
        2
302
GRIDFORMAT
  1
GRIDFORMAT_BEGIN
 90
        0
 91
        1
 62
     0
 92
       -2
340
14
 93
        0
 40
1.125
309
GRIDFORMAT_END
 95
        4
302
GRIDFORMAT
  1
GRIDFORMAT_BEGIN
 90
        0
 91
        1
 62
     0
 92
       -2
340
14
 93
        0
 40
1.125
309
GRIDFORMAT_END
 95
        8
302
GRIDFORMAT
  1
GRIDFORMAT_BEGIN
 90
        0
 91
        1
 62
     0
 92
       -2
340
14
 93
        0
 40
1.125
309
GRIDFORMAT_END
 95
       16
302
GRIDFORMAT
  1
GRIDFORMAT_BEGIN
 90
        0
 91
        1
 62
     0
 92
       -2
340
14
 93
        0
 40
1.125
309
GRIDFORMAT_END
 95
       32
302
GRIDFORMAT
  1
GRIDFORMAT_BEGIN
 90
        0
 91
        1
 62
     0
 92
       -2
340
14
 93
        0
 40
1.125
309
GRIDFORMAT_END
309
TABLEFORMAT_END
  1
CELLSTYLE_BEGIN
 90
        1
 91
        1
300
_TITLE
309
CELLSTYLE_END
300
CELLSTYLE
  1
TABLEFORMAT_BEGIN
 90
        5
170
     1
 91
        0
 92
        0
 62
   257
 93
        1
300
CONTENTFORMAT
  1
CONTENTFORMAT_BEGIN
 90
        0
 91
        0
 92
      512
 93
        0
300

 40
0.0
140
1.0
 94
        5
 62
     0
340
11
144
4.5
309
CONTENTFORMAT_END
171
     1
301
MARGIN
  1
CELLMARGIN_BEGIN
 40
1.5
 40
1.5
 40
1.5
 40
1.5
 40
4.5
 40
4.5
309
CELLMARGIN_END
 94
        6
 95
        1
302
GRIDFORMAT
  1
GRIDFORMAT_BEGIN
 90
        0
 91
        1
 62
     0
 92
       -2
340
14
 93
        0
 40
1.125
309
GRIDFORMAT_END
 95
        2
302
GRIDFORMAT
  1
GRIDFORMAT_BEGIN
 90
        0
 91
        1
 62
     0
 92
       -2
340
14
 93
        0
 40
1.125
309
GRIDFORMAT_END
 95
        4
302
GRIDFORMAT
  1
GRIDFORMAT_BEGIN
 90
        0
 91
        1
 62
     0
 92
       -2
340
14
 93
        0
 40
1.125
309
GRIDFORMAT_END
 95
        8
302
GRIDFORMAT
  1
GRIDFORMAT_BEGIN
 90
        0
 91
        1
 62
     0
 92
       -2
340
14
 93
        0
 40
1.125
309
GRIDFORMAT_END
 95
       16
302
GRIDFORMAT
  1
GRIDFORMAT_BEGIN
 90
        0
 91
        1
 62
     0
 92
       -2
340
14
 93
        0
 40
1.125
309
GRIDFORMAT_END
 95
       32
302
GRIDFORMAT
  1
GRIDFORMAT_BEGIN
 90
        0
 91
        1
 62
     0
 92
       -2
340
14
 93
        0
 40
1.125
309
GRIDFORMAT_END
309
TABLEFORMAT_END
  1
CELLSTYLE_BEGIN
 90
        2
 91
        1
300
_HEADER
309
CELLSTYLE_END
300
CELLSTYLE
  1
TABLEFORMAT_BEGIN
 90
        5
170
     1
 91
        0
 92
        0
 62
   257
 93
        1
300
CONTENTFORMAT
  1
CONTENTFORMAT_BEGIN
 90
        0
 91
        0
 92
      512
 93
        0
300

 40
0.0
140
1.0
 94
        2
 62
     0
340
11
144
4.5
309
CONTENTFORMAT_END
171
     1
301
MARGIN
  1
CELLMARGIN_BEGIN
 40
1.5
 40
1.5
 40
1.5
 40
1.5
 40
4.5
 40
4.5
309
CELLMARGIN_END
 94
        6
 95
        1
302
GRIDFORMAT
  1
GRIDFORMAT_BEGIN
 90
        0
 91
        1
 62
     0
 92
       -2
340
14
 93
        0
 40
1.125
309
GRIDFORMAT_END
 95
        2
302
GRIDFORMAT
  1
GRIDFORMAT_BEGIN
 90
        0
 91
        1
 62
     0
 92
       -2
340
14
 93
        0
 40
1.125
309
GRIDFORMAT_END
 95
        4
302
GRIDFORMAT
  1
GRIDFORMAT_BEGIN
 90
        0
 91
        1
 62
     0
 92
       -2
340
14
 93
        0
 40
1.125
309
GRIDFORMAT_END
 95
        8
302
GRIDFORMAT
  1
GRIDFORMAT_BEGIN
 90
        0
 91
        1
 62
     0
 92
       -2
340
14
 93
        0
 40
1.125
309
GRIDFORMAT_END
 95
       16
302
GRIDFORMAT
  1
GRIDFORMAT_BEGIN
 90
        0
 91
        1
 62
     0
 92
       -2
340
14
 93
        0
 40
1.125
309
GRIDFORMAT_END
 95
       32
302
GRIDFORMAT
  1
GRIDFORMAT_BEGIN
 90
        0
 91
        1
 62
     0
 92
       -2
340
14
 93
        0
 40
1.125
309
GRIDFORMAT_END
309
TABLEFORMAT_END
  1
CELLSTYLE_BEGIN
 90
        3
 91
        2
300
_DATA
309
CELLSTYLE_END
  0
XRECORD
  5
A70F
102
{ACAD_REACTORS
330
162
102
}
330
162
100
AcDbXrecord
280
     1
102
ACAD_ROUNDTRIP_PRE2007_TABLESTYLE
 90
      512
 91
        0
  1

 92
      512
 93
        0
  2

 94
      512
 95
        0
  3

  0
XRECORD
  5
A722
102
{ACAD_REACTORS
330
A721
102
}
330
A721
100
AcDbXrecord
280
     1
102
RTVSPost2010Prop28
280
     1
102
RTVSPost2010PropOp28
 70
     1
102
RTVSPost2010Prop29
280
     1
102
RTVSPost2010PropOp29
 70
     1
102
RTVSPost2010Prop30
280
     0
102
RTVSPost2010PropOp30
 70
     1
102
RTVSPost2010Prop31
280
     0
102
RTVSPost2010PropOp31
 70
     1
102
RTVSPost2010Prop32
280
     0
102
RTVSPost2010PropOp32
 70
     1
102
RTVSPost2010Prop33
280
     0
102
RTVSPost2010PropOp33
 70
     1
102
RTVSPost2010Prop34
280
     0
102
RTVSPost2010PropOp34
 70
     1
102
RTVSPost2010Prop35
280
     0
102
RTVSPost2010PropOp35
 70
     1
102
RTVSPost2010Prop36
280
     0
102
RTVSPost2010PropOp36
 70
     1
102
RTVSPost2010Prop37
 90
       50
102
RTVSPost2010PropOp37
 70
     1
102
RTVSPost2010Prop38
140
0.0
102
RTVSPost2010PropOp38
 70
     1
102
RTVSPost2010Prop39
140
1.0
102
RTVSPost2010PropOp39
 70
     1
102
RTVSPost2010Prop40
 90
        0
102
RTVSPost2010PropOp40
 70
     1
102
RTVSPost2010Prop41ColorIndex
 90
       18
102
RTVSPost2010Prop41ColorRGB
 90
        0
102
RTVSPost2010PropOp41
 70
     1
102
RTVSPost2010Prop42
 90
       50
102
RTVSPost2010PropOp42
 70
     1
102
RTVSPost2010Prop43
 90
        3
102
RTVSPost2010PropOp43
 70
     1
102
RTVSPost2010Prop44ColorIndex
 90
        5
102
RTVSPost2010Prop44ColorRGB
 90
      255
102
RTVSPost2010PropOp44
 70
     1
102
RTVSPost2010Prop45
280
     0
102
RTVSPost2010PropOp45
 70
     1
102
RTVSPost2010Prop46
 90
       50
102
RTVSPost2010PropOp46
 70
     1
102
RTVSPost2010Prop47
 90
       50
102
RTVSPost2010PropOp47
 70
     1
102
RTVSPost2010Prop48
 90
       50
102
RTVSPost2010PropOp48
 70
     1
102
RTVSPost2010Prop49
280
     0
102
RTVSPost2010PropOp49
 70
     1
102
RTVSPost2010Prop50
 90
       50
102
RTVSPost2010PropOp50
 70
     1
102
RTVSPost2010Prop51ColorIndex
 90
      256
102
RTVSPost2010Prop51ColorRGB
 90
-16777216
102
RTVSPost2010PropOp51
 70
     0
102
RTVSPost2010Prop52
140
1.0
102
RTVSPost2010PropOp52
 70
     0
102
RTVSPost2010Prop53
 90
        2
102
RTVSPost2010PropOp53
 70
     1
102
RTVSPost2010Prop54
  1
strokes_ogs.tif
102
RTVSPost2010PropOp54
 70
     1
102
RTVSPost2010Prop55
280
     0
102
RTVSPost2010PropOp55
 70
     1
102
RTVSPost2010Prop56
140
1.0
102
RTVSPost2010PropOp56
 70
     1
102
RTVSPost2010Prop57
140
1.0
102
RTVSPost2010PropOp57
 70
     1
102
RTVSPropertyOp0
 70
     1
102
RTVSPropertyOp1
 70
     1
102
RTVSPropertyOp2
 70
     1
102
RTVSPropertyOp3
 70
     1
102
RTVSPropertyOp4
 70
     1
102
RTVSPropertyOp5
 70
     1
102
RTVSPropertyOp6
 70
     1
102
RTVSPropertyOp7
 70
     1
102
RTVSPropertyOp8
 70
     1
102
RTVSPropertyOp9
 70
     1
102
RTVSPropertyOp10
 70
     1
102
RTVSPropertyOp11
 70
     1
102
RTVSPropertyOp12
 70
     1
102
RTVSPropertyOp13
 70
     1
102
RTVSPropertyOp14
 70
     1
102
RTVSPropertyOp15
 70
     1
102
RTVSPropertyOp16
 70
     1
102
RTVSPropertyOp17
 70
     1
102
RTVSPropertyOp18
 70
     1
102
RTVSPropertyOp19
 70
     1
102
RTVSPropertyOp20
 70
     1
102
RTVSPropertyOp21
 70
     1
102
RTVSPropertyOp22
 70
     1
102
RTVSPropertyOp23
 70
     1
102
RTVSPropertyOp24
 70
     1
102
RTVSPropertyOp25
 70
     1
102
RTVSPropertyOp26
 70
     1
102
RTVSPropertyOp27
 70
     1
102
RTVSPropertyOp28
 70
     1
102
RTVSPropertyOp29
 70
     1
102
RTVSPropertyOp30
 70
     1
102
RTVSPropertyOp31
 70
     1
102
RTVSPropertyOp32
 70
     1
102
RTVSPropertyOp33
 70
     1
102
RTVSPropertyOp34
 70
     1
102
RTVSPropertyOp35
 70
     1
102
RTVSPropertyOp36
 70
     1
102
RTVSPropertyOp37
 70
     1
102
RTVSPropertyOp38
 70
     1
102
RTVSPropertyOp39
 70
     1
102
RTVSPropertyOp40
 70
     1
102
RTVSPropertyOp41
 70
     1
102
RTVSPropertyOp42
 70
     1
102
RTVSPropertyOp43
 70
     1
102
RTVSPropertyOp44
 70
     1
102
RTVSPropertyOp45
 70
     1
102
RTVSPropertyOp46
 70
     1
102
RTVSPropertyOp47
 70
     1
102
RTVSPropertyOp48
 70
     1
102
RTVSPropertyOp49
 70
     1
102
RTVSPropertyOp50
 70
     1
102
RTVSPropertyOp51
 70
     0
102
RTVSPropertyOp52
 70
     0
102
RTVSPropertyOp53
 70
     1
102
RTVSPropertyOp54
 70
     1
102
RTVSPropertyOp55
 70
     1
102
RTVSPropertyOp56
 70
     1
102
RTVSPropertyOp57
 70
     1
102
RTVSPropertyOp58
 70
     1
102
RTVSPropertyOp59
 70
     1
102
RTVSPropertyOp60
 70
     1
102
RTVSPropertyOp61
 70
     1
102
RTVSPropertyOp62
 70
     1
  0
XRECORD
  5
A720
102
{ACAD_REACTORS
330
A71F
102
}
330
A71F
100
AcDbXrecord
280
     1
102
RTVSPost2010Prop28
280
     0
102
RTVSPost2010PropOp28
 70
     1
102
RTVSPost2010Prop29
280
     1
102
RTVSPost2010PropOp29
 70
     1
102
RTVSPost2010Prop30
280
     1
102
RTVSPost2010PropOp30
 70
     1
102
RTVSPost2010Prop31
280
     0
102
RTVSPost2010PropOp31
 70
     1
102
RTVSPost2010Prop32
280
     0
102
RTVSPost2010PropOp32
 70
     1
102
RTVSPost2010Prop33
280
     0
102
RTVSPost2010PropOp33
 70
     1
102
RTVSPost2010Prop34
280
     0
102
RTVSPost2010PropOp34
 70
     1
102
RTVSPost2010Prop35
280
     0
102
RTVSPost2010PropOp35
 70
     1
102
RTVSPost2010Prop36
280
     0
102
RTVSPost2010PropOp36
 70
     1
102
RTVSPost2010Prop37
 90
       50
102
RTVSPost2010PropOp37
 70
     1
102
RTVSPost2010Prop38
140
0.0
102
RTVSPost2010PropOp38
 70
     1
102
RTVSPost2010Prop39
140
1.0
102
RTVSPost2010PropOp39
 70
     1
102
RTVSPost2010Prop40
 90
        0
102
RTVSPost2010PropOp40
 70
     1
102
RTVSPost2010Prop41ColorIndex
 90
       18
102
RTVSPost2010Prop41ColorRGB
 90
        0
102
RTVSPost2010PropOp41
 70
     1
102
RTVSPost2010Prop42
 90
       50
102
RTVSPost2010PropOp42
 70
     1
102
RTVSPost2010Prop43
 90
        3
102
RTVSPost2010PropOp43
 70
     1
102
RTVSPost2010Prop44ColorIndex
 90
        5
102
RTVSPost2010Prop44ColorRGB
 90
      255
102
RTVSPost2010PropOp44
 70
     1
102
RTVSPost2010Prop45
280
     0
102
RTVSPost2010PropOp45
 70
     1
102
RTVSPost2010Prop46
 90
       50
102
RTVSPost2010PropOp46
 70
     1
102
RTVSPost2010Prop47
 90
       50
102
RTVSPost2010PropOp47
 70
     1
102
RTVSPost2010Prop48
 90
       50
102
RTVSPost2010PropOp48
 70
     1
102
RTVSPost2010Prop49
280
     0
102
RTVSPost2010PropOp49
 70
     1
102
RTVSPost2010Prop50
 90
       50
102
RTVSPost2010PropOp50
 70
     1
102
RTVSPost2010Prop51ColorIndex
 90
      256
102
RTVSPost2010Prop51ColorRGB
 90
-16777216
102
RTVSPost2010PropOp51
 70
     0
102
RTVSPost2010Prop52
140
1.0
102
RTVSPost2010PropOp52
 70
     0
102
RTVSPost2010Prop53
 90
        2
102
RTVSPost2010PropOp53
 70
     1
102
RTVSPost2010Prop54
  1
strokes_ogs.tif
102
RTVSPost2010PropOp54
 70
     1
102
RTVSPost2010Prop55
280
     0
102
RTVSPost2010PropOp55
 70
     1
102
RTVSPost2010Prop56
140
1.0
102
RTVSPost2010PropOp56
 70
     1
102
RTVSPost2010Prop57
140
1.0
102
RTVSPost2010PropOp57
 70
     1
102
RTVSPropertyOp0
 70
     1
102
RTVSPropertyOp1
 70
     1
102
RTVSPropertyOp2
 70
     1
102
RTVSPropertyOp3
 70
     1
102
RTVSPropertyOp4
 70
     1
102
RTVSPropertyOp5
 70
     1
102
RTVSPropertyOp6
 70
     1
102
RTVSPropertyOp7
 70
     1
102
RTVSPropertyOp8
 70
     1
102
RTVSPropertyOp9
 70
     1
102
RTVSPropertyOp10
 70
     1
102
RTVSPropertyOp11
 70
     1
102
RTVSPropertyOp12
 70
     1
102
RTVSPropertyOp13
 70
     1
102
RTVSPropertyOp14
 70
     1
102
RTVSPropertyOp15
 70
     1
102
RTVSPropertyOp16
 70
     1
102
RTVSPropertyOp17
 70
     1
102
RTVSPropertyOp18
 70
     1
102
RTVSPropertyOp19
 70
     1
102
RTVSPropertyOp20
 70
     1
102
RTVSPropertyOp21
 70
     1
102
RTVSPropertyOp22
 70
     1
102
RTVSPropertyOp23
 70
     1
102
RTVSPropertyOp24
 70
     1
102
RTVSPropertyOp25
 70
     1
102
RTVSPropertyOp26
 70
     1
102
RTVSPropertyOp27
 70
     1
102
RTVSPropertyOp28
 70
     1
102
RTVSPropertyOp29
 70
     1
102
RTVSPropertyOp30
 70
     1
102
RTVSPropertyOp31
 70
     1
102
RTVSPropertyOp32
 70
     1
102
RTVSPropertyOp33
 70
     1
102
RTVSPropertyOp34
 70
     1
102
RTVSPropertyOp35
 70
     1
102
RTVSPropertyOp36
 70
     1
102
RTVSPropertyOp37
 70
     1
102
RTVSPropertyOp38
 70
     1
102
RTVSPropertyOp39
 70
     1
102
RTVSPropertyOp40
 70
     1
102
RTVSPropertyOp41
 70
     1
102
RTVSPropertyOp42
 70
     1
102
RTVSPropertyOp43
 70
     1
102
RTVSPropertyOp44
 70
     1
102
RTVSPropertyOp45
 70
     1
102
RTVSPropertyOp46
 70
     1
102
RTVSPropertyOp47
 70
     1
102
RTVSPropertyOp48
 70
     1
102
RTVSPropertyOp49
 70
     1
102
RTVSPropertyOp50
 70
     1
102
RTVSPropertyOp51
 70
     0
102
RTVSPropertyOp52
 70
     0
102
RTVSPropertyOp53
 70
     1
102
RTVSPropertyOp54
 70
     1
102
RTVSPropertyOp55
 70
     1
102
RTVSPropertyOp56
 70
     1
102
RTVSPropertyOp57
 70
     1
102
RTVSPropertyOp58
 70
     1
102
RTVSPropertyOp59
 70
     1
102
RTVSPropertyOp60
 70
     1
102
RTVSPropertyOp61
 70
     1
102
RTVSPropertyOp62
 70
     1
  0
XRECORD
  5
A72E
102
{ACAD_REACTORS
330
A72D
102
}
330
A72D
100
AcDbXrecord
280
     1
102
RTVSPost2010Prop28
280
     0
102
RTVSPost2010PropOp28
 70
     1
102
RTVSPost2010Prop29
280
     1
102
RTVSPost2010PropOp29
 70
     1
102
RTVSPost2010Prop30
280
     1
102
RTVSPost2010PropOp30
 70
     1
102
RTVSPost2010Prop31
280
     0
102
RTVSPost2010PropOp31
 70
     1
102
RTVSPost2010Prop32
280
     0
102
RTVSPost2010PropOp32
 70
     1
102
RTVSPost2010Prop33
280
     0
102
RTVSPost2010PropOp33
 70
     1
102
RTVSPost2010Prop34
280
     0
102
RTVSPost2010PropOp34
 70
     1
102
RTVSPost2010Prop35
280
     0
102
RTVSPost2010PropOp35
 70
     1
102
RTVSPost2010Prop36
280
     0
102
RTVSPost2010PropOp36
 70
     1
102
RTVSPost2010Prop37
 90
       50
102
RTVSPost2010PropOp37
 70
     1
102
RTVSPost2010Prop38
140
0.0
102
RTVSPost2010PropOp38
 70
     1
102
RTVSPost2010Prop39
140
1.0
102
RTVSPost2010PropOp39
 70
     1
102
RTVSPost2010Prop40
 90
        0
102
RTVSPost2010PropOp40
 70
     1
102
RTVSPost2010Prop41ColorIndex
 90
       18
102
RTVSPost2010Prop41ColorRGB
 90
        0
102
RTVSPost2010PropOp41
 70
     1
102
RTVSPost2010Prop42
 90
       50
102
RTVSPost2010PropOp42
 70
     1
102
RTVSPost2010Prop43
 90
        3
102
RTVSPost2010PropOp43
 70
     1
102
RTVSPost2010Prop44ColorIndex
 90
        5
102
RTVSPost2010Prop44ColorRGB
 90
      255
102
RTVSPost2010PropOp44
 70
     1
102
RTVSPost2010Prop45
280
     0
102
RTVSPost2010PropOp45
 70
     1
102
RTVSPost2010Prop46
 90
       50
102
RTVSPost2010PropOp46
 70
     1
102
RTVSPost2010Prop47
 90
       50
102
RTVSPost2010PropOp47
 70
     1
102
RTVSPost2010Prop48
 90
       50
102
RTVSPost2010PropOp48
 70
     1
102
RTVSPost2010Prop49
280
     0
102
RTVSPost2010PropOp49
 70
     1
102
RTVSPost2010Prop50
 90
       50
102
RTVSPost2010PropOp50
 70
     1
102
RTVSPost2010Prop51ColorIndex
 90
      256
102
RTVSPost2010Prop51ColorRGB
 90
-16777216
102
RTVSPost2010PropOp51
 70
     0
102
RTVSPost2010Prop52
140
1.0
102
RTVSPost2010PropOp52
 70
     0
102
RTVSPost2010Prop53
 90
        2
102
RTVSPost2010PropOp53
 70
     1
102
RTVSPost2010Prop54
  1
strokes_ogs.tif
102
RTVSPost2010PropOp54
 70
     1
102
RTVSPost2010Prop55
280
     0
102
RTVSPost2010PropOp55
 70
     1
102
RTVSPost2010Prop56
140
1.0
102
RTVSPost2010PropOp56
 70
     1
102
RTVSPost2010Prop57
140
1.0
102
RTVSPost2010PropOp57
 70
     1
102
RTVSPropertyOp0
 70
     1
102
RTVSPropertyOp1
 70
     1
102
RTVSPropertyOp2
 70
     1
102
RTVSPropertyOp3
 70
     1
102
RTVSPropertyOp4
 70
     1
102
RTVSPropertyOp5
 70
     1
102
RTVSPropertyOp6
 70
     1
102
RTVSPropertyOp7
 70
     1
102
RTVSPropertyOp8
 70
     1
102
RTVSPropertyOp9
 70
     1
102
RTVSPropertyOp10
 70
     1
102
RTVSPropertyOp11
 70
     1
102
RTVSPropertyOp12
 70
     1
102
RTVSPropertyOp13
 70
     1
102
RTVSPropertyOp14
 70
     1
102
RTVSPropertyOp15
 70
     1
102
RTVSPropertyOp16
 70
     1
102
RTVSPropertyOp17
 70
     1
102
RTVSPropertyOp18
 70
     1
102
RTVSPropertyOp19
 70
     1
102
RTVSPropertyOp20
 70
     1
102
RTVSPropertyOp21
 70
     1
102
RTVSPropertyOp22
 70
     1
102
RTVSPropertyOp23
 70
     1
102
RTVSPropertyOp24
 70
     1
102
RTVSPropertyOp25
 70
     1
102
RTVSPropertyOp26
 70
     1
102
RTVSPropertyOp27
 70
     1
102
RTVSPropertyOp28
 70
     1
102
RTVSPropertyOp29
 70
     1
102
RTVSPropertyOp30
 70
     1
102
RTVSPropertyOp31
 70
     1
102
RTVSPropertyOp32
 70
     1
102
RTVSPropertyOp33
 70
     1
102
RTVSPropertyOp34
 70
     1
102
RTVSPropertyOp35
 70
     1
102
RTVSPropertyOp36
 70
     1
102
RTVSPropertyOp37
 70
     1
102
RTVSPropertyOp38
 70
     1
102
RTVSPropertyOp39
 70
     1
102
RTVSPropertyOp40
 70
     1
102
RTVSPropertyOp41
 70
     1
102
RTVSPropertyOp42
 70
     1
102
RTVSPropertyOp43
 70
     1
102
RTVSPropertyOp44
 70
     1
102
RTVSPropertyOp45
 70
     1
102
RTVSPropertyOp46
 70
     1
102
RTVSPropertyOp47
 70
     1
102
RTVSPropertyOp48
 70
     1
102
RTVSPropertyOp49
 70
     1
102
RTVSPropertyOp50
 70
     1
102
RTVSPropertyOp51
 70
     0
102
RTVSPropertyOp52
 70
     0
102
RTVSPropertyOp53
 70
     1
102
RTVSPropertyOp54
 70
     1
102
RTVSPropertyOp55
 70
     1
102
RTVSPropertyOp56
 70
     1
102
RTVSPropertyOp57
 70
     1
102
RTVSPropertyOp58
 70
     1
102
RTVSPropertyOp59
 70
     1
102
RTVSPropertyOp60
 70
     1
102
RTVSPropertyOp61
 70
     1
102
RTVSPropertyOp62
 70
     1
  0
XRECORD
  5
A736
102
{ACAD_REACTORS
330
A735
102
}
330
A735
100
AcDbXrecord
280
     1
102
RTVSPost2010Prop28
280
     0
102
RTVSPost2010PropOp28
 70
     1
102
RTVSPost2010Prop29
280
     1
102
RTVSPost2010PropOp29
 70
     1
102
RTVSPost2010Prop30
280
     1
102
RTVSPost2010PropOp30
 70
     1
102
RTVSPost2010Prop31
280
     0
102
RTVSPost2010PropOp31
 70
     1
102
RTVSPost2010Prop32
280
     0
102
RTVSPost2010PropOp32
 70
     1
102
RTVSPost2010Prop33
280
     0
102
RTVSPost2010PropOp33
 70
     1
102
RTVSPost2010Prop34
280
     0
102
RTVSPost2010PropOp34
 70
     1
102
RTVSPost2010Prop35
280
     0
102
RTVSPost2010PropOp35
 70
     1
102
RTVSPost2010Prop36
280
     0
102
RTVSPost2010PropOp36
 70
     1
102
RTVSPost2010Prop37
 90
       50
102
RTVSPost2010PropOp37
 70
     1
102
RTVSPost2010Prop38
140
0.0
102
RTVSPost2010PropOp38
 70
     1
102
RTVSPost2010Prop39
140
1.0
102
RTVSPost2010PropOp39
 70
     1
102
RTVSPost2010Prop40
 90
        0
102
RTVSPost2010PropOp40
 70
     1
102
RTVSPost2010Prop41ColorIndex
 90
       18
102
RTVSPost2010Prop41ColorRGB
 90
        0
102
RTVSPost2010PropOp41
 70
     1
102
RTVSPost2010Prop42
 90
       50
102
RTVSPost2010PropOp42
 70
     1
102
RTVSPost2010Prop43
 90
        3
102
RTVSPost2010PropOp43
 70
     1
102
RTVSPost2010Prop44ColorIndex
 90
        5
102
RTVSPost2010Prop44ColorRGB
 90
      255
102
RTVSPost2010PropOp44
 70
     1
102
RTVSPost2010Prop45
280
     0
102
RTVSPost2010PropOp45
 70
     1
102
RTVSPost2010Prop46
 90
       50
102
RTVSPost2010PropOp46
 70
     1
102
RTVSPost2010Prop47
 90
       50
102
RTVSPost2010PropOp47
 70
     1
102
RTVSPost2010Prop48
 90
       50
102
RTVSPost2010PropOp48
 70
     1
102
RTVSPost2010Prop49
280
     0
102
RTVSPost2010PropOp49
 70
     1
102
RTVSPost2010Prop50
 90
       50
102
RTVSPost2010PropOp50
 70
     1
102
RTVSPost2010Prop51ColorIndex
 90
      256
102
RTVSPost2010Prop51ColorRGB
 90
-16777216
102
RTVSPost2010PropOp51
 70
     0
102
RTVSPost2010Prop52
140
1.0
102
RTVSPost2010PropOp52
 70
     0
102
RTVSPost2010Prop53
 90
        2
102
RTVSPost2010PropOp53
 70
     1
102
RTVSPost2010Prop54
  1
strokes_ogs.tif
102
RTVSPost2010PropOp54
 70
     1
102
RTVSPost2010Prop55
280
     0
102
RTVSPost2010PropOp55
 70
     1
102
RTVSPost2010Prop56
140
1.0
102
RTVSPost2010PropOp56
 70
     1
102
RTVSPost2010Prop57
140
1.0
102
RTVSPost2010PropOp57
 70
     1
102
RTVSPropertyOp0
 70
     1
102
RTVSPropertyOp1
 70
     1
102
RTVSPropertyOp2
 70
     1
102
RTVSPropertyOp3
 70
     1
102
RTVSPropertyOp4
 70
     1
102
RTVSPropertyOp5
 70
     1
102
RTVSPropertyOp6
 70
     1
102
RTVSPropertyOp7
 70
     1
102
RTVSPropertyOp8
 70
     1
102
RTVSPropertyOp9
 70
     1
102
RTVSPropertyOp10
 70
     1
102
RTVSPropertyOp11
 70
     1
102
RTVSPropertyOp12
 70
     1
102
RTVSPropertyOp13
 70
     1
102
RTVSPropertyOp14
 70
     1
102
RTVSPropertyOp15
 70
     1
102
RTVSPropertyOp16
 70
     1
102
RTVSPropertyOp17
 70
     1
102
RTVSPropertyOp18
 70
     1
102
RTVSPropertyOp19
 70
     1
102
RTVSPropertyOp20
 70
     1
102
RTVSPropertyOp21
 70
     1
102
RTVSPropertyOp22
 70
     1
102
RTVSPropertyOp23
 70
     1
102
RTVSPropertyOp24
 70
     1
102
RTVSPropertyOp25
 70
     1
102
RTVSPropertyOp26
 70
     1
102
RTVSPropertyOp27
 70
     1
102
RTVSPropertyOp28
 70
     1
102
RTVSPropertyOp29
 70
     1
102
RTVSPropertyOp30
 70
     1
102
RTVSPropertyOp31
 70
     1
102
RTVSPropertyOp32
 70
     1
102
RTVSPropertyOp33
 70
     1
102
RTVSPropertyOp34
 70
     1
102
RTVSPropertyOp35
 70
     1
102
RTVSPropertyOp36
 70
     1
102
RTVSPropertyOp37
 70
     1
102
RTVSPropertyOp38
 70
     1
102
RTVSPropertyOp39
 70
     1
102
RTVSPropertyOp40
 70
     1
102
RTVSPropertyOp41
 70
     1
102
RTVSPropertyOp42
 70
     1
102
RTVSPropertyOp43
 70
     1
102
RTVSPropertyOp44
 70
     1
102
RTVSPropertyOp45
 70
     1
102
RTVSPropertyOp46
 70
     1
102
RTVSPropertyOp47
 70
     1
102
RTVSPropertyOp48
 70
     1
102
RTVSPropertyOp49
 70
     1
102
RTVSPropertyOp50
 70
     1
102
RTVSPropertyOp51
 70
     0
102
RTVSPropertyOp52
 70
     0
102
RTVSPropertyOp53
 70
     1
102
RTVSPropertyOp54
 70
     1
102
RTVSPropertyOp55
 70
     1
102
RTVSPropertyOp56
 70
     1
102
RTVSPropertyOp57
 70
     1
102
RTVSPropertyOp58
 70
     1
102
RTVSPropertyOp59
 70
     1
102
RTVSPropertyOp60
 70
     1
102
RTVSPropertyOp61
 70
     1
102
RTVSPropertyOp62
 70
     1
  0
XRECORD
  5
A728
102
{ACAD_REACTORS
330
A727
102
}
330
A727
100
AcDbXrecord
280
     1
102
RTVSPost2010Prop28
280
     0
102
RTVSPost2010PropOp28
 70
     1
102
RTVSPost2010Prop29
280
     1
102
RTVSPost2010PropOp29
 70
     1
102
RTVSPost2010Prop30
280
     1
102
RTVSPost2010PropOp30
 70
     1
102
RTVSPost2010Prop31
280
     0
102
RTVSPost2010PropOp31
 70
     1
102
RTVSPost2010Prop32
280
     0
102
RTVSPost2010PropOp32
 70
     1
102
RTVSPost2010Prop33
280
     0
102
RTVSPost2010PropOp33
 70
     1
102
RTVSPost2010Prop34
280
     0
102
RTVSPost2010PropOp34
 70
     1
102
RTVSPost2010Prop35
280
     0
102
RTVSPost2010PropOp35
 70
     1
102
RTVSPost2010Prop36
280
     0
102
RTVSPost2010PropOp36
 70
     1
102
RTVSPost2010Prop37
 90
       50
102
RTVSPost2010PropOp37
 70
     1
102
RTVSPost2010Prop38
140
0.0
102
RTVSPost2010PropOp38
 70
     1
102
RTVSPost2010Prop39
140
1.0
102
RTVSPost2010PropOp39
 70
     1
102
RTVSPost2010Prop40
 90
        0
102
RTVSPost2010PropOp40
 70
     1
102
RTVSPost2010Prop41ColorIndex
 90
       18
102
RTVSPost2010Prop41ColorRGB
 90
        0
102
RTVSPost2010PropOp41
 70
     1
102
RTVSPost2010Prop42
 90
       50
102
RTVSPost2010PropOp42
 70
     1
102
RTVSPost2010Prop43
 90
        3
102
RTVSPost2010PropOp43
 70
     1
102
RTVSPost2010Prop44ColorIndex
 90
        5
102
RTVSPost2010Prop44ColorRGB
 90
      255
102
RTVSPost2010PropOp44
 70
     1
102
RTVSPost2010Prop45
280
     0
102
RTVSPost2010PropOp45
 70
     1
102
RTVSPost2010Prop46
 90
       50
102
RTVSPost2010PropOp46
 70
     1
102
RTVSPost2010Prop47
 90
       50
102
RTVSPost2010PropOp47
 70
     1
102
RTVSPost2010Prop48
 90
       50
102
RTVSPost2010PropOp48
 70
     1
102
RTVSPost2010Prop49
280
     0
102
RTVSPost2010PropOp49
 70
     1
102
RTVSPost2010Prop50
 90
       50
102
RTVSPost2010PropOp50
 70
     1
102
RTVSPost2010Prop51ColorIndex
 90
      256
102
RTVSPost2010Prop51ColorRGB
 90
-16777216
102
RTVSPost2010PropOp51
 70
     0
102
RTVSPost2010Prop52
140
1.0
102
RTVSPost2010PropOp52
 70
     0
102
RTVSPost2010Prop53
 90
        2
102
RTVSPost2010PropOp53
 70
     1
102
RTVSPost2010Prop54
  1
strokes_ogs.tif
102
RTVSPost2010PropOp54
 70
     1
102
RTVSPost2010Prop55
280
     0
102
RTVSPost2010PropOp55
 70
     1
102
RTVSPost2010Prop56
140
1.0
102
RTVSPost2010PropOp56
 70
     1
102
RTVSPost2010Prop57
140
1.0
102
RTVSPost2010PropOp57
 70
     1
102
RTVSPropertyOp0
 70
     1
102
RTVSPropertyOp1
 70
     1
102
RTVSPropertyOp2
 70
     1
102
RTVSPropertyOp3
 70
     1
102
RTVSPropertyOp4
 70
     1
102
RTVSPropertyOp5
 70
     1
102
RTVSPropertyOp6
 70
     1
102
RTVSPropertyOp7
 70
     1
102
RTVSPropertyOp8
 70
     1
102
RTVSPropertyOp9
 70
     1
102
RTVSPropertyOp10
 70
     1
102
RTVSPropertyOp11
 70
     1
102
RTVSPropertyOp12
 70
     1
102
RTVSPropertyOp13
 70
     1
102
RTVSPropertyOp14
 70
     1
102
RTVSPropertyOp15
 70
     1
102
RTVSPropertyOp16
 70
     1
102
RTVSPropertyOp17
 70
     1
102
RTVSPropertyOp18
 70
     1
102
RTVSPropertyOp19
 70
     1
102
RTVSPropertyOp20
 70
     1
102
RTVSPropertyOp21
 70
     1
102
RTVSPropertyOp22
 70
     1
102
RTVSPropertyOp23
 70
     1
102
RTVSPropertyOp24
 70
     1
102
RTVSPropertyOp25
 70
     1
102
RTVSPropertyOp26
 70
     1
102
RTVSPropertyOp27
 70
     1
102
RTVSPropertyOp28
 70
     1
102
RTVSPropertyOp29
 70
     1
102
RTVSPropertyOp30
 70
     1
102
RTVSPropertyOp31
 70
     1
102
RTVSPropertyOp32
 70
     1
102
RTVSPropertyOp33
 70
     1
102
RTVSPropertyOp34
 70
     1
102
RTVSPropertyOp35
 70
     1
102
RTVSPropertyOp36
 70
     1
102
RTVSPropertyOp37
 70
     1
102
RTVSPropertyOp38
 70
     1
102
RTVSPropertyOp39
 70
     1
102
RTVSPropertyOp40
 70
     1
102
RTVSPropertyOp41
 70
     1
102
RTVSPropertyOp42
 70
     1
102
RTVSPropertyOp43
 70
     1
102
RTVSPropertyOp44
 70
     1
102
RTVSPropertyOp45
 70
     1
102
RTVSPropertyOp46
 70
     1
102
RTVSPropertyOp47
 70
     1
102
RTVSPropertyOp48
 70
     1
102
RTVSPropertyOp49
 70
     1
102
RTVSPropertyOp50
 70
     1
102
RTVSPropertyOp51
 70
     0
102
RTVSPropertyOp52
 70
     0
102
RTVSPropertyOp53
 70
     1
102
RTVSPropertyOp54
 70
     1
102
RTVSPropertyOp55
 70
     1
102
RTVSPropertyOp56
 70
     1
102
RTVSPropertyOp57
 70
     1
102
RTVSPropertyOp58
 70
     1
102
RTVSPropertyOp59
 70
     1
102
RTVSPropertyOp60
 70
     1
102
RTVSPropertyOp61
 70
     1
102
RTVSPropertyOp62
 70
     1
  0
XRECORD
  5
A72C
102
{ACAD_REACTORS
330
A72B
102
}
330
A72B
100
AcDbXrecord
280
     1
102
RTVSPost2010Prop28
280
     0
102
RTVSPost2010PropOp28
 70
     1
102
RTVSPost2010Prop29
280
     1
102
RTVSPost2010PropOp29
 70
     1
102
RTVSPost2010Prop30
280
     1
102
RTVSPost2010PropOp30
 70
     1
102
RTVSPost2010Prop31
280
     0
102
RTVSPost2010PropOp31
 70
     1
102
RTVSPost2010Prop32
280
     0
102
RTVSPost2010PropOp32
 70
     1
102
RTVSPost2010Prop33
280
     0
102
RTVSPost2010PropOp33
 70
     1
102
RTVSPost2010Prop34
280
     0
102
RTVSPost2010PropOp34
 70
     1
102
RTVSPost2010Prop35
280
     0
102
RTVSPost2010PropOp35
 70
     1
102
RTVSPost2010Prop36
280
     0
102
RTVSPost2010PropOp36
 70
     1
102
RTVSPost2010Prop37
 90
       50
102
RTVSPost2010PropOp37
 70
     1
102
RTVSPost2010Prop38
140
0.0
102
RTVSPost2010PropOp38
 70
     1
102
RTVSPost2010Prop39
140
1.0
102
RTVSPost2010PropOp39
 70
     1
102
RTVSPost2010Prop40
 90
        0
102
RTVSPost2010PropOp40
 70
     1
102
RTVSPost2010Prop41ColorIndex
 90
       18
102
RTVSPost2010Prop41ColorRGB
 90
        0
102
RTVSPost2010PropOp41
 70
     1
102
RTVSPost2010Prop42
 90
       50
102
RTVSPost2010PropOp42
 70
     1
102
RTVSPost2010Prop43
 90
        3
102
RTVSPost2010PropOp43
 70
     1
102
RTVSPost2010Prop44ColorIndex
 90
        5
102
RTVSPost2010Prop44ColorRGB
 90
      255
102
RTVSPost2010PropOp44
 70
     1
102
RTVSPost2010Prop45
280
     0
102
RTVSPost2010PropOp45
 70
     1
102
RTVSPost2010Prop46
 90
       50
102
RTVSPost2010PropOp46
 70
     1
102
RTVSPost2010Prop47
 90
       50
102
RTVSPost2010PropOp47
 70
     1
102
RTVSPost2010Prop48
 90
       50
102
RTVSPost2010PropOp48
 70
     1
102
RTVSPost2010Prop49
280
     0
102
RTVSPost2010PropOp49
 70
     1
102
RTVSPost2010Prop50
 90
       50
102
RTVSPost2010PropOp50
 70
     1
102
RTVSPost2010Prop51ColorIndex
 90
      256
102
RTVSPost2010Prop51ColorRGB
 90
-16777216
102
RTVSPost2010PropOp51
 70
     0
102
RTVSPost2010Prop52
140
1.0
102
RTVSPost2010PropOp52
 70
     0
102
RTVSPost2010Prop53
 90
        2
102
RTVSPost2010PropOp53
 70
     1
102
RTVSPost2010Prop54
  1
strokes_ogs.tif
102
RTVSPost2010PropOp54
 70
     1
102
RTVSPost2010Prop55
280
     0
102
RTVSPost2010PropOp55
 70
     1
102
RTVSPost2010Prop56
140
1.0
102
RTVSPost2010PropOp56
 70
     1
102
RTVSPost2010Prop57
140
1.0
102
RTVSPost2010PropOp57
 70
     1
102
RTVSPropertyOp0
 70
     1
102
RTVSPropertyOp1
 70
     1
102
RTVSPropertyOp2
 70
     1
102
RTVSPropertyOp3
 70
     1
102
RTVSPropertyOp4
 70
     1
102
RTVSPropertyOp5
 70
     1
102
RTVSPropertyOp6
 70
     1
102
RTVSPropertyOp7
 70
     1
102
RTVSPropertyOp8
 70
     1
102
RTVSPropertyOp9
 70
     1
102
RTVSPropertyOp10
 70
     1
102
RTVSPropertyOp11
 70
     1
102
RTVSPropertyOp12
 70
     1
102
RTVSPropertyOp13
 70
     1
102
RTVSPropertyOp14
 70
     1
102
RTVSPropertyOp15
 70
     1
102
RTVSPropertyOp16
 70
     1
102
RTVSPropertyOp17
 70
     1
102
RTVSPropertyOp18
 70
     1
102
RTVSPropertyOp19
 70
     1
102
RTVSPropertyOp20
 70
     1
102
RTVSPropertyOp21
 70
     1
102
RTVSPropertyOp22
 70
     1
102
RTVSPropertyOp23
 70
     1
102
RTVSPropertyOp24
 70
     1
102
RTVSPropertyOp25
 70
     1
102
RTVSPropertyOp26
 70
     1
102
RTVSPropertyOp27
 70
     1
102
RTVSPropertyOp28
 70
     1
102
RTVSPropertyOp29
 70
     1
102
RTVSPropertyOp30
 70
     1
102
RTVSPropertyOp31
 70
     1
102
RTVSPropertyOp32
 70
     1
102
RTVSPropertyOp33
 70
     1
102
RTVSPropertyOp34
 70
     1
102
RTVSPropertyOp35
 70
     1
102
RTVSPropertyOp36
 70
     1
102
RTVSPropertyOp37
 70
     1
102
RTVSPropertyOp38
 70
     1
102
RTVSPropertyOp39
 70
     1
102
RTVSPropertyOp40
 70
     1
102
RTVSPropertyOp41
 70
     1
102
RTVSPropertyOp42
 70
     1
102
RTVSPropertyOp43
 70
     1
102
RTVSPropertyOp44
 70
     1
102
RTVSPropertyOp45
 70
     1
102
RTVSPropertyOp46
 70
     1
102
RTVSPropertyOp47
 70
     1
102
RTVSPropertyOp48
 70
     1
102
RTVSPropertyOp49
 70
     1
102
RTVSPropertyOp50
 70
     1
102
RTVSPropertyOp51
 70
     0
102
RTVSPropertyOp52
 70
     0
102
RTVSPropertyOp53
 70
     1
102
RTVSPropertyOp54
 70
     1
102
RTVSPropertyOp55
 70
     1
102
RTVSPropertyOp56
 70
     1
102
RTVSPropertyOp57
 70
     1
102
RTVSPropertyOp58
 70
     1
102
RTVSPropertyOp59
 70
     1
102
RTVSPropertyOp60
 70
     1
102
RTVSPropertyOp61
 70
     1
102
RTVSPropertyOp62
 70
     1
  0
XRECORD
  5
A73E
102
{ACAD_REACTORS
330
A73D
102
}
330
A73D
100
AcDbXrecord
280
     1
102
RTVSPost2010Prop28
280
     0
102
RTVSPost2010PropOp28
 70
     1
102
RTVSPost2010Prop29
280
     1
102
RTVSPost2010PropOp29
 70
     1
102
RTVSPost2010Prop30
280
     1
102
RTVSPost2010PropOp30
 70
     1
102
RTVSPost2010Prop31
280
     0
102
RTVSPost2010PropOp31
 70
     1
102
RTVSPost2010Prop32
280
     0
102
RTVSPost2010PropOp32
 70
     1
102
RTVSPost2010Prop33
280
     0
102
RTVSPost2010PropOp33
 70
     1
102
RTVSPost2010Prop34
280
     0
102
RTVSPost2010PropOp34
 70
     1
102
RTVSPost2010Prop35
280
     0
102
RTVSPost2010PropOp35
 70
     1
102
RTVSPost2010Prop36
280
     0
102
RTVSPost2010PropOp36
 70
     1
102
RTVSPost2010Prop37
 90
       50
102
RTVSPost2010PropOp37
 70
     1
102
RTVSPost2010Prop38
140
0.0
102
RTVSPost2010PropOp38
 70
     1
102
RTVSPost2010Prop39
140
1.0
102
RTVSPost2010PropOp39
 70
     1
102
RTVSPost2010Prop40
 90
        0
102
RTVSPost2010PropOp40
 70
     1
102
RTVSPost2010Prop41ColorIndex
 90
       18
102
RTVSPost2010Prop41ColorRGB
 90
        0
102
RTVSPost2010PropOp41
 70
     1
102
RTVSPost2010Prop42
 90
       50
102
RTVSPost2010PropOp42
 70
     1
102
RTVSPost2010Prop43
 90
        3
102
RTVSPost2010PropOp43
 70
     1
102
RTVSPost2010Prop44ColorIndex
 90
        5
102
RTVSPost2010Prop44ColorRGB
 90
      255
102
RTVSPost2010PropOp44
 70
     1
102
RTVSPost2010Prop45
280
     0
102
RTVSPost2010PropOp45
 70
     1
102
RTVSPost2010Prop46
 90
       50
102
RTVSPost2010PropOp46
 70
     1
102
RTVSPost2010Prop47
 90
       50
102
RTVSPost2010PropOp47
 70
     1
102
RTVSPost2010Prop48
 90
       50
102
RTVSPost2010PropOp48
 70
     1
102
RTVSPost2010Prop49
280
     0
102
RTVSPost2010PropOp49
 70
     1
102
RTVSPost2010Prop50
 90
       50
102
RTVSPost2010PropOp50
 70
     1
102
RTVSPost2010Prop51ColorIndex
 90
      256
102
RTVSPost2010Prop51ColorRGB
 90
-16777216
102
RTVSPost2010PropOp51
 70
     0
102
RTVSPost2010Prop52
140
1.0
102
RTVSPost2010PropOp52
 70
     0
102
RTVSPost2010Prop53
 90
        2
102
RTVSPost2010PropOp53
 70
     1
102
RTVSPost2010Prop54
  1
strokes_ogs.tif
102
RTVSPost2010PropOp54
 70
     1
102
RTVSPost2010Prop55
280
     0
102
RTVSPost2010PropOp55
 70
     1
102
RTVSPost2010Prop56
140
1.0
102
RTVSPost2010PropOp56
 70
     1
102
RTVSPost2010Prop57
140
1.0
102
RTVSPost2010PropOp57
 70
     1
102
RTVSPropertyOp0
 70
     0
102
RTVSPropertyOp1
 70
     0
102
RTVSPropertyOp2
 70
     0
102
RTVSPropertyOp3
 70
     0
102
RTVSPropertyOp4
 70
     0
102
RTVSPropertyOp5
 70
     0
102
RTVSPropertyOp6
 70
     0
102
RTVSPropertyOp7
 70
     0
102
RTVSPropertyOp8
 70
     0
102
RTVSPropertyOp9
 70
     0
102
RTVSPropertyOp10
 70
     0
102
RTVSPropertyOp11
 70
     0
102
RTVSPropertyOp12
 70
     0
102
RTVSPropertyOp13
 70
     0
102
RTVSPropertyOp14
 70
     2
102
RTVSPropertyOp15
 70
     0
102
RTVSPropertyOp16
 70
     0
102
RTVSPropertyOp17
 70
     0
102
RTVSPropertyOp18
 70
     0
102
RTVSPropertyOp19
 70
     0
102
RTVSPropertyOp20
 70
     0
102
RTVSPropertyOp21
 70
     0
102
RTVSPropertyOp22
 70
     0
102
RTVSPropertyOp23
 70
     0
102
RTVSPropertyOp24
 70
     0
102
RTVSPropertyOp25
 70
     0
102
RTVSPropertyOp26
 70
     0
102
RTVSPropertyOp27
 70
     0
102
RTVSPropertyOp28
 70
     1
102
RTVSPropertyOp29
 70
     1
102
RTVSPropertyOp30
 70
     1
102
RTVSPropertyOp31
 70
     1
102
RTVSPropertyOp32
 70
     1
102
RTVSPropertyOp33
 70
     1
102
RTVSPropertyOp34
 70
     1
102
RTVSPropertyOp35
 70
     1
102
RTVSPropertyOp36
 70
     1
102
RTVSPropertyOp37
 70
     1
102
RTVSPropertyOp38
 70
     1
102
RTVSPropertyOp39
 70
     1
102
RTVSPropertyOp40
 70
     1
102
RTVSPropertyOp41
 70
     1
102
RTVSPropertyOp42
 70
     1
102
RTVSPropertyOp43
 70
     1
102
RTVSPropertyOp44
 70
     1
102
RTVSPropertyOp45
 70
     1
102
RTVSPropertyOp46
 70
     1
102
RTVSPropertyOp47
 70
     1
102
RTVSPropertyOp48
 70
     1
102
RTVSPropertyOp49
 70
     1
102
RTVSPropertyOp50
 70
     1
102
RTVSPropertyOp51
 70
     0
102
RTVSPropertyOp52
 70
     0
102
RTVSPropertyOp53
 70
     1
102
RTVSPropertyOp54
 70
     1
102
RTVSPropertyOp55
 70
     1
102
RTVSPropertyOp56
 70
     1
102
RTVSPropertyOp57
 70
     1
102
RTVSPropertyOp58
 70
     1
102
RTVSPropertyOp59
 70
     1
102
RTVSPropertyOp60
 70
     1
102
RTVSPropertyOp61
 70
     1
102
RTVSPropertyOp62
 70
     1
  0
XRECORD
  5
A734
102
{ACAD_REACTORS
330
A733
102
}
330
A733
100
AcDbXrecord
280
     1
102
RTVSPost2010Prop28
280
     0
102
RTVSPost2010PropOp28
 70
     1
102
RTVSPost2010Prop29
280
     1
102
RTVSPost2010PropOp29
 70
     1
102
RTVSPost2010Prop30
280
     1
102
RTVSPost2010PropOp30
 70
     1
102
RTVSPost2010Prop31
280
     0
102
RTVSPost2010PropOp31
 70
     1
102
RTVSPost2010Prop32
280
     0
102
RTVSPost2010PropOp32
 70
     1
102
RTVSPost2010Prop33
280
     0
102
RTVSPost2010PropOp33
 70
     1
102
RTVSPost2010Prop34
280
     0
102
RTVSPost2010PropOp34
 70
     1
102
RTVSPost2010Prop35
280
     0
102
RTVSPost2010PropOp35
 70
     1
102
RTVSPost2010Prop36
280
     0
102
RTVSPost2010PropOp36
 70
     1
102
RTVSPost2010Prop37
 90
       50
102
RTVSPost2010PropOp37
 70
     1
102
RTVSPost2010Prop38
140
0.0
102
RTVSPost2010PropOp38
 70
     1
102
RTVSPost2010Prop39
140
1.0
102
RTVSPost2010PropOp39
 70
     1
102
RTVSPost2010Prop40
 90
        0
102
RTVSPost2010PropOp40
 70
     1
102
RTVSPost2010Prop41ColorIndex
 90
       18
102
RTVSPost2010Prop41ColorRGB
 90
        0
102
RTVSPost2010PropOp41
 70
     1
102
RTVSPost2010Prop42
 90
       50
102
RTVSPost2010PropOp42
 70
     1
102
RTVSPost2010Prop43
 90
        3
102
RTVSPost2010PropOp43
 70
     1
102
RTVSPost2010Prop44ColorIndex
 90
        5
102
RTVSPost2010Prop44ColorRGB
 90
      255
102
RTVSPost2010PropOp44
 70
     1
102
RTVSPost2010Prop45
280
     0
102
RTVSPost2010PropOp45
 70
     1
102
RTVSPost2010Prop46
 90
       50
102
RTVSPost2010PropOp46
 70
     1
102
RTVSPost2010Prop47
 90
       50
102
RTVSPost2010PropOp47
 70
     1
102
RTVSPost2010Prop48
 90
       50
102
RTVSPost2010PropOp48
 70
     1
102
RTVSPost2010Prop49
280
     0
102
RTVSPost2010PropOp49
 70
     1
102
RTVSPost2010Prop50
 90
       50
102
RTVSPost2010PropOp50
 70
     1
102
RTVSPost2010Prop51ColorIndex
 90
      256
102
RTVSPost2010Prop51ColorRGB
 90
-16777216
102
RTVSPost2010PropOp51
 70
     0
102
RTVSPost2010Prop52
140
1.0
102
RTVSPost2010PropOp52
 70
     0
102
RTVSPost2010Prop53
 90
        2
102
RTVSPost2010PropOp53
 70
     1
102
RTVSPost2010Prop54
  1
strokes_ogs.tif
102
RTVSPost2010PropOp54
 70
     1
102
RTVSPost2010Prop55
280
     0
102
RTVSPost2010PropOp55
 70
     1
102
RTVSPost2010Prop56
140
1.0
102
RTVSPost2010PropOp56
 70
     1
102
RTVSPost2010Prop57
140
1.0
102
RTVSPost2010PropOp57
 70
     1
102
RTVSPropertyOp0
 70
     1
102
RTVSPropertyOp1
 70
     1
102
RTVSPropertyOp2
 70
     1
102
RTVSPropertyOp3
 70
     1
102
RTVSPropertyOp4
 70
     1
102
RTVSPropertyOp5
 70
     1
102
RTVSPropertyOp6
 70
     1
102
RTVSPropertyOp7
 70
     1
102
RTVSPropertyOp8
 70
     1
102
RTVSPropertyOp9
 70
     1
102
RTVSPropertyOp10
 70
     1
102
RTVSPropertyOp11
 70
     1
102
RTVSPropertyOp12
 70
     1
102
RTVSPropertyOp13
 70
     1
102
RTVSPropertyOp14
 70
     1
102
RTVSPropertyOp15
 70
     1
102
RTVSPropertyOp16
 70
     1
102
RTVSPropertyOp17
 70
     1
102
RTVSPropertyOp18
 70
     1
102
RTVSPropertyOp19
 70
     1
102
RTVSPropertyOp20
 70
     1
102
RTVSPropertyOp21
 70
     1
102
RTVSPropertyOp22
 70
     1
102
RTVSPropertyOp23
 70
     1
102
RTVSPropertyOp24
 70
     1
102
RTVSPropertyOp25
 70
     1
102
RTVSPropertyOp26
 70
     1
102
RTVSPropertyOp27
 70
     1
102
RTVSPropertyOp28
 70
     1
102
RTVSPropertyOp29
 70
     1
102
RTVSPropertyOp30
 70
     1
102
RTVSPropertyOp31
 70
     1
102
RTVSPropertyOp32
 70
     1
102
RTVSPropertyOp33
 70
     1
102
RTVSPropertyOp34
 70
     1
102
RTVSPropertyOp35
 70
     1
102
RTVSPropertyOp36
 70
     1
102
RTVSPropertyOp37
 70
     1
102
RTVSPropertyOp38
 70
     1
102
RTVSPropertyOp39
 70
     1
102
RTVSPropertyOp40
 70
     1
102
RTVSPropertyOp41
 70
     1
102
RTVSPropertyOp42
 70
     1
102
RTVSPropertyOp43
 70
     1
102
RTVSPropertyOp44
 70
     1
102
RTVSPropertyOp45
 70
     1
102
RTVSPropertyOp46
 70
     1
102
RTVSPropertyOp47
 70
     1
102
RTVSPropertyOp48
 70
     1
102
RTVSPropertyOp49
 70
     1
102
RTVSPropertyOp50
 70
     1
102
RTVSPropertyOp51
 70
     0
102
RTVSPropertyOp52
 70
     0
102
RTVSPropertyOp53
 70
     1
102
RTVSPropertyOp54
 70
     1
102
RTVSPropertyOp55
 70
     1
102
RTVSPropertyOp56
 70
     1
102
RTVSPropertyOp57
 70
     1
102
RTVSPropertyOp58
 70
     1
102
RTVSPropertyOp59
 70
     1
102
RTVSPropertyOp60
 70
     1
102
RTVSPropertyOp61
 70
     1
102
RTVSPropertyOp62
 70
     1
  0
XRECORD
  5
A718
102
{ACAD_REACTORS
330
A717
102
}
330
A717
100
AcDbXrecord
280
     1
102
RTVSPost2010Prop28
280
     0
102
RTVSPost2010PropOp28
 70
     1
102
RTVSPost2010Prop29
280
     1
102
RTVSPost2010PropOp29
 70
     1
102
RTVSPost2010Prop30
280
     1
102
RTVSPost2010PropOp30
 70
     1
102
RTVSPost2010Prop31
280
     0
102
RTVSPost2010PropOp31
 70
     1
102
RTVSPost2010Prop32
280
     0
102
RTVSPost2010PropOp32
 70
     1
102
RTVSPost2010Prop33
280
     0
102
RTVSPost2010PropOp33
 70
     1
102
RTVSPost2010Prop34
280
     0
102
RTVSPost2010PropOp34
 70
     1
102
RTVSPost2010Prop35
280
     0
102
RTVSPost2010PropOp35
 70
     1
102
RTVSPost2010Prop36
280
     0
102
RTVSPost2010PropOp36
 70
     1
102
RTVSPost2010Prop37
 90
       50
102
RTVSPost2010PropOp37
 70
     1
102
RTVSPost2010Prop38
140
0.0
102
RTVSPost2010PropOp38
 70
     1
102
RTVSPost2010Prop39
140
1.0
102
RTVSPost2010PropOp39
 70
     1
102
RTVSPost2010Prop40
 90
        0
102
RTVSPost2010PropOp40
 70
     1
102
RTVSPost2010Prop41ColorIndex
 90
       18
102
RTVSPost2010Prop41ColorRGB
 90
        0
102
RTVSPost2010PropOp41
 70
     1
102
RTVSPost2010Prop42
 90
       50
102
RTVSPost2010PropOp42
 70
     1
102
RTVSPost2010Prop43
 90
        3
102
RTVSPost2010PropOp43
 70
     1
102
RTVSPost2010Prop44ColorIndex
 90
        5
102
RTVSPost2010Prop44ColorRGB
 90
      255
102
RTVSPost2010PropOp44
 70
     1
102
RTVSPost2010Prop45
280
     0
102
RTVSPost2010PropOp45
 70
     1
102
RTVSPost2010Prop46
 90
       50
102
RTVSPost2010PropOp46
 70
     1
102
RTVSPost2010Prop47
 90
       50
102
RTVSPost2010PropOp47
 70
     1
102
RTVSPost2010Prop48
 90
       50
102
RTVSPost2010PropOp48
 70
     1
102
RTVSPost2010Prop49
280
     0
102
RTVSPost2010PropOp49
 70
     1
102
RTVSPost2010Prop50
 90
       50
102
RTVSPost2010PropOp50
 70
     1
102
RTVSPost2010Prop51ColorIndex
 90
      256
102
RTVSPost2010Prop51ColorRGB
 90
-16777216
102
RTVSPost2010PropOp51
 70
     0
102
RTVSPost2010Prop52
140
1.0
102
RTVSPost2010PropOp52
 70
     0
102
RTVSPost2010Prop53
 90
        2
102
RTVSPost2010PropOp53
 70
     1
102
RTVSPost2010Prop54
  1
strokes_ogs.tif
102
RTVSPost2010PropOp54
 70
     1
102
RTVSPost2010Prop55
280
     0
102
RTVSPost2010PropOp55
 70
     1
102
RTVSPost2010Prop56
140
1.0
102
RTVSPost2010PropOp56
 70
     1
102
RTVSPost2010Prop57
140
1.0
102
RTVSPost2010PropOp57
 70
     1
102
RTVSPropertyOp0
 70
     1
102
RTVSPropertyOp1
 70
     1
102
RTVSPropertyOp2
 70
     1
102
RTVSPropertyOp3
 70
     1
102
RTVSPropertyOp4
 70
     1
102
RTVSPropertyOp5
 70
     1
102
RTVSPropertyOp6
 70
     1
102
RTVSPropertyOp7
 70
     1
102
RTVSPropertyOp8
 70
     1
102
RTVSPropertyOp9
 70
     1
102
RTVSPropertyOp10
 70
     1
102
RTVSPropertyOp11
 70
     1
102
RTVSPropertyOp12
 70
     1
102
RTVSPropertyOp13
 70
     1
102
RTVSPropertyOp14
 70
     1
102
RTVSPropertyOp15
 70
     1
102
RTVSPropertyOp16
 70
     1
102
RTVSPropertyOp17
 70
     1
102
RTVSPropertyOp18
 70
     1
102
RTVSPropertyOp19
 70
     1
102
RTVSPropertyOp20
 70
     1
102
RTVSPropertyOp21
 70
     1
102
RTVSPropertyOp22
 70
     1
102
RTVSPropertyOp23
 70
     1
102
RTVSPropertyOp24
 70
     1
102
RTVSPropertyOp25
 70
     1
102
RTVSPropertyOp26
 70
     1
102
RTVSPropertyOp27
 70
     1
102
RTVSPropertyOp28
 70
     1
102
RTVSPropertyOp29
 70
     1
102
RTVSPropertyOp30
 70
     1
102
RTVSPropertyOp31
 70
     1
102
RTVSPropertyOp32
 70
     1
102
RTVSPropertyOp33
 70
     1
102
RTVSPropertyOp34
 70
     1
102
RTVSPropertyOp35
 70
     1
102
RTVSPropertyOp36
 70
     1
102
RTVSPropertyOp37
 70
     1
102
RTVSPropertyOp38
 70
     1
102
RTVSPropertyOp39
 70
     1
102
RTVSPropertyOp40
 70
     1
102
RTVSPropertyOp41
 70
     1
102
RTVSPropertyOp42
 70
     1
102
RTVSPropertyOp43
 70
     1
102
RTVSPropertyOp44
 70
     1
102
RTVSPropertyOp45
 70
     1
102
RTVSPropertyOp46
 70
     1
102
RTVSPropertyOp47
 70
     1
102
RTVSPropertyOp48
 70
     1
102
RTVSPropertyOp49
 70
     1
102
RTVSPropertyOp50
 70
     1
102
RTVSPropertyOp51
 70
     0
102
RTVSPropertyOp52
 70
     0
102
RTVSPropertyOp53
 70
     1
102
RTVSPropertyOp54
 70
     1
102
RTVSPropertyOp55
 70
     1
102
RTVSPropertyOp56
 70
     1
102
RTVSPropertyOp57
 70
     1
102
RTVSPropertyOp58
 70
     1
102
RTVSPropertyOp59
 70
     1
102
RTVSPropertyOp60
 70
     1
102
RTVSPropertyOp61
 70
     1
102
RTVSPropertyOp62
 70
     1
  0
XRECORD
  5
A71A
102
{ACAD_REACTORS
330
A719
102
}
330
A719
100
AcDbXrecord
280
     1
102
RTVSPost2010Prop28
280
     0
102
RTVSPost2010PropOp28
 70
     1
102
RTVSPost2010Prop29
280
     1
102
RTVSPost2010PropOp29
 70
     1
102
RTVSPost2010Prop30
280
     1
102
RTVSPost2010PropOp30
 70
     1
102
RTVSPost2010Prop31
280
     0
102
RTVSPost2010PropOp31
 70
     1
102
RTVSPost2010Prop32
280
     0
102
RTVSPost2010PropOp32
 70
     1
102
RTVSPost2010Prop33
280
     0
102
RTVSPost2010PropOp33
 70
     1
102
RTVSPost2010Prop34
280
     0
102
RTVSPost2010PropOp34
 70
     1
102
RTVSPost2010Prop35
280
     0
102
RTVSPost2010PropOp35
 70
     1
102
RTVSPost2010Prop36
280
     0
102
RTVSPost2010PropOp36
 70
     1
102
RTVSPost2010Prop37
 90
       50
102
RTVSPost2010PropOp37
 70
     1
102
RTVSPost2010Prop38
140
0.0
102
RTVSPost2010PropOp38
 70
     1
102
RTVSPost2010Prop39
140
1.0
102
RTVSPost2010PropOp39
 70
     1
102
RTVSPost2010Prop40
 90
        0
102
RTVSPost2010PropOp40
 70
     1
102
RTVSPost2010Prop41ColorIndex
 90
       18
102
RTVSPost2010Prop41ColorRGB
 90
        0
102
RTVSPost2010PropOp41
 70
     1
102
RTVSPost2010Prop42
 90
       50
102
RTVSPost2010PropOp42
 70
     1
102
RTVSPost2010Prop43
 90
        3
102
RTVSPost2010PropOp43
 70
     1
102
RTVSPost2010Prop44ColorIndex
 90
        5
102
RTVSPost2010Prop44ColorRGB
 90
      255
102
RTVSPost2010PropOp44
 70
     1
102
RTVSPost2010Prop45
280
     0
102
RTVSPost2010PropOp45
 70
     1
102
RTVSPost2010Prop46
 90
       50
102
RTVSPost2010PropOp46
 70
     1
102
RTVSPost2010Prop47
 90
       50
102
RTVSPost2010PropOp47
 70
     1
102
RTVSPost2010Prop48
 90
       50
102
RTVSPost2010PropOp48
 70
     1
102
RTVSPost2010Prop49
280
     0
102
RTVSPost2010PropOp49
 70
     1
102
RTVSPost2010Prop50
 90
       50
102
RTVSPost2010PropOp50
 70
     1
102
RTVSPost2010Prop51ColorIndex
 90
      256
102
RTVSPost2010Prop51ColorRGB
 90
-16777216
102
RTVSPost2010PropOp51
 70
     0
102
RTVSPost2010Prop52
140
1.0
102
RTVSPost2010PropOp52
 70
     0
102
RTVSPost2010Prop53
 90
        2
102
RTVSPost2010PropOp53
 70
     1
102
RTVSPost2010Prop54
  1
strokes_ogs.tif
102
RTVSPost2010PropOp54
 70
     1
102
RTVSPost2010Prop55
280
     0
102
RTVSPost2010PropOp55
 70
     1
102
RTVSPost2010Prop56
140
1.0
102
RTVSPost2010PropOp56
 70
     1
102
RTVSPost2010Prop57
140
1.0
102
RTVSPost2010PropOp57
 70
     1
102
RTVSPropertyOp0
 70
     1
102
RTVSPropertyOp1
 70
     1
102
RTVSPropertyOp2
 70
     1
102
RTVSPropertyOp3
 70
     1
102
RTVSPropertyOp4
 70
     1
102
RTVSPropertyOp5
 70
     1
102
RTVSPropertyOp6
 70
     1
102
RTVSPropertyOp7
 70
     1
102
RTVSPropertyOp8
 70
     1
102
RTVSPropertyOp9
 70
     1
102
RTVSPropertyOp10
 70
     1
102
RTVSPropertyOp11
 70
     1
102
RTVSPropertyOp12
 70
     1
102
RTVSPropertyOp13
 70
     1
102
RTVSPropertyOp14
 70
     1
102
RTVSPropertyOp15
 70
     1
102
RTVSPropertyOp16
 70
     1
102
RTVSPropertyOp17
 70
     1
102
RTVSPropertyOp18
 70
     1
102
RTVSPropertyOp19
 70
     1
102
RTVSPropertyOp20
 70
     1
102
RTVSPropertyOp21
 70
     1
102
RTVSPropertyOp22
 70
     1
102
RTVSPropertyOp23
 70
     1
102
RTVSPropertyOp24
 70
     1
102
RTVSPropertyOp25
 70
     1
102
RTVSPropertyOp26
 70
     1
102
RTVSPropertyOp27
 70
     1
102
RTVSPropertyOp28
 70
     1
102
RTVSPropertyOp29
 70
     1
102
RTVSPropertyOp30
 70
     1
102
RTVSPropertyOp31
 70
     1
102
RTVSPropertyOp32
 70
     1
102
RTVSPropertyOp33
 70
     1
102
RTVSPropertyOp34
 70
     1
102
RTVSPropertyOp35
 70
     1
102
RTVSPropertyOp36
 70
     1
102
RTVSPropertyOp37
 70
     1
102
RTVSPropertyOp38
 70
     1
102
RTVSPropertyOp39
 70
     1
102
RTVSPropertyOp40
 70
     1
102
RTVSPropertyOp41
 70
     1
102
RTVSPropertyOp42
 70
     1
102
RTVSPropertyOp43
 70
     1
102
RTVSPropertyOp44
 70
     1
102
RTVSPropertyOp45
 70
     1
102
RTVSPropertyOp46
 70
     1
102
RTVSPropertyOp47
 70
     1
102
RTVSPropertyOp48
 70
     1
102
RTVSPropertyOp49
 70
     1
102
RTVSPropertyOp50
 70
     1
102
RTVSPropertyOp51
 70
     0
102
RTVSPropertyOp52
 70
     0
102
RTVSPropertyOp53
 70
     1
102
RTVSPropertyOp54
 70
     1
102
RTVSPropertyOp55
 70
     1
102
RTVSPropertyOp56
 70
     1
102
RTVSPropertyOp57
 70
     1
102
RTVSPropertyOp58
 70
     1
102
RTVSPropertyOp59
 70
     1
102
RTVSPropertyOp60
 70
     1
102
RTVSPropertyOp61
 70
     1
102
RTVSPropertyOp62
 70
     1
  0
XRECORD
  5
A71C
102
{ACAD_REACTORS
330
A71B
102
}
330
A71B
100
AcDbXrecord
280
     1
102
RTVSPost2010Prop28
280
     0
102
RTVSPost2010PropOp28
 70
     1
102
RTVSPost2010Prop29
280
     1
102
RTVSPost2010PropOp29
 70
     1
102
RTVSPost2010Prop30
280
     1
102
RTVSPost2010PropOp30
 70
     1
102
RTVSPost2010Prop31
280
     0
102
RTVSPost2010PropOp31
 70
     1
102
RTVSPost2010Prop32
280
     0
102
RTVSPost2010PropOp32
 70
     1
102
RTVSPost2010Prop33
280
     0
102
RTVSPost2010PropOp33
 70
     1
102
RTVSPost2010Prop34
280
     0
102
RTVSPost2010PropOp34
 70
     1
102
RTVSPost2010Prop35
280
     0
102
RTVSPost2010PropOp35
 70
     1
102
RTVSPost2010Prop36
280
     0
102
RTVSPost2010PropOp36
 70
     1
102
RTVSPost2010Prop37
 90
       50
102
RTVSPost2010PropOp37
 70
     1
102
RTVSPost2010Prop38
140
0.0
102
RTVSPost2010PropOp38
 70
     1
102
RTVSPost2010Prop39
140
1.0
102
RTVSPost2010PropOp39
 70
     1
102
RTVSPost2010Prop40
 90
        0
102
RTVSPost2010PropOp40
 70
     1
102
RTVSPost2010Prop41ColorIndex
 90
       18
102
RTVSPost2010Prop41ColorRGB
 90
        0
102
RTVSPost2010PropOp41
 70
     1
102
RTVSPost2010Prop42
 90
       50
102
RTVSPost2010PropOp42
 70
     1
102
RTVSPost2010Prop43
 90
        3
102
RTVSPost2010PropOp43
 70
     1
102
RTVSPost2010Prop44ColorIndex
 90
        5
102
RTVSPost2010Prop44ColorRGB
 90
      255
102
RTVSPost2010PropOp44
 70
     1
102
RTVSPost2010Prop45
280
     0
102
RTVSPost2010PropOp45
 70
     1
102
RTVSPost2010Prop46
 90
       50
102
RTVSPost2010PropOp46
 70
     1
102
RTVSPost2010Prop47
 90
       50
102
RTVSPost2010PropOp47
 70
     1
102
RTVSPost2010Prop48
 90
       50
102
RTVSPost2010PropOp48
 70
     1
102
RTVSPost2010Prop49
280
     0
102
RTVSPost2010PropOp49
 70
     1
102
RTVSPost2010Prop50
 90
       50
102
RTVSPost2010PropOp50
 70
     1
102
RTVSPost2010Prop51ColorIndex
 90
      256
102
RTVSPost2010Prop51ColorRGB
 90
-16777216
102
RTVSPost2010PropOp51
 70
     0
102
RTVSPost2010Prop52
140
1.0
102
RTVSPost2010PropOp52
 70
     0
102
RTVSPost2010Prop53
 90
        2
102
RTVSPost2010PropOp53
 70
     1
102
RTVSPost2010Prop54
  1
strokes_ogs.tif
102
RTVSPost2010PropOp54
 70
     1
102
RTVSPost2010Prop55
280
     0
102
RTVSPost2010PropOp55
 70
     1
102
RTVSPost2010Prop56
140
1.0
102
RTVSPost2010PropOp56
 70
     1
102
RTVSPost2010Prop57
140
1.0
102
RTVSPost2010PropOp57
 70
     1
102
RTVSPropertyOp0
 70
     1
102
RTVSPropertyOp1
 70
     1
102
RTVSPropertyOp2
 70
     1
102
RTVSPropertyOp3
 70
     1
102
RTVSPropertyOp4
 70
     1
102
RTVSPropertyOp5
 70
     1
102
RTVSPropertyOp6
 70
     1
102
RTVSPropertyOp7
 70
     1
102
RTVSPropertyOp8
 70
     1
102
RTVSPropertyOp9
 70
     1
102
RTVSPropertyOp10
 70
     1
102
RTVSPropertyOp11
 70
     1
102
RTVSPropertyOp12
 70
     1
102
RTVSPropertyOp13
 70
     1
102
RTVSPropertyOp14
 70
     1
102
RTVSPropertyOp15
 70
     1
102
RTVSPropertyOp16
 70
     1
102
RTVSPropertyOp17
 70
     1
102
RTVSPropertyOp18
 70
     1
102
RTVSPropertyOp19
 70
     1
102
RTVSPropertyOp20
 70
     1
102
RTVSPropertyOp21
 70
     1
102
RTVSPropertyOp22
 70
     1
102
RTVSPropertyOp23
 70
     1
102
RTVSPropertyOp24
 70
     1
102
RTVSPropertyOp25
 70
     1
102
RTVSPropertyOp26
 70
     1
102
RTVSPropertyOp27
 70
     1
102
RTVSPropertyOp28
 70
     1
102
RTVSPropertyOp29
 70
     1
102
RTVSPropertyOp30
 70
     1
102
RTVSPropertyOp31
 70
     1
102
RTVSPropertyOp32
 70
     1
102
RTVSPropertyOp33
 70
     1
102
RTVSPropertyOp34
 70
     1
102
RTVSPropertyOp35
 70
     1
102
RTVSPropertyOp36
 70
     1
102
RTVSPropertyOp37
 70
     1
102
RTVSPropertyOp38
 70
     1
102
RTVSPropertyOp39
 70
     1
102
RTVSPropertyOp40
 70
     1
102
RTVSPropertyOp41
 70
     1
102
RTVSPropertyOp42
 70
     1
102
RTVSPropertyOp43
 70
     1
102
RTVSPropertyOp44
 70
     1
102
RTVSPropertyOp45
 70
     1
102
RTVSPropertyOp46
 70
     1
102
RTVSPropertyOp47
 70
     1
102
RTVSPropertyOp48
 70
     1
102
RTVSPropertyOp49
 70
     1
102
RTVSPropertyOp50
 70
     1
102
RTVSPropertyOp51
 70
     0
102
RTVSPropertyOp52
 70
     0
102
RTVSPropertyOp53
 70
     1
102
RTVSPropertyOp54
 70
     1
102
RTVSPropertyOp55
 70
     1
102
RTVSPropertyOp56
 70
     1
102
RTVSPropertyOp57
 70
     1
102
RTVSPropertyOp58
 70
     1
102
RTVSPropertyOp59
 70
     1
102
RTVSPropertyOp60
 70
     1
102
RTVSPropertyOp61
 70
     1
102
RTVSPropertyOp62
 70
     1
  0
XRECORD
  5
A71E
102
{ACAD_REACTORS
330
A71D
102
}
330
A71D
100
AcDbXrecord
280
     1
102
RTVSPost2010Prop28
280
     0
102
RTVSPost2010PropOp28
 70
     1
102
RTVSPost2010Prop29
280
     1
102
RTVSPost2010PropOp29
 70
     1
102
RTVSPost2010Prop30
280
     1
102
RTVSPost2010PropOp30
 70
     1
102
RTVSPost2010Prop31
280
     0
102
RTVSPost2010PropOp31
 70
     1
102
RTVSPost2010Prop32
280
     0
102
RTVSPost2010PropOp32
 70
     1
102
RTVSPost2010Prop33
280
     0
102
RTVSPost2010PropOp33
 70
     1
102
RTVSPost2010Prop34
280
     0
102
RTVSPost2010PropOp34
 70
     1
102
RTVSPost2010Prop35
280
     0
102
RTVSPost2010PropOp35
 70
     1
102
RTVSPost2010Prop36
280
     0
102
RTVSPost2010PropOp36
 70
     1
102
RTVSPost2010Prop37
 90
       50
102
RTVSPost2010PropOp37
 70
     1
102
RTVSPost2010Prop38
140
0.0
102
RTVSPost2010PropOp38
 70
     1
102
RTVSPost2010Prop39
140
1.0
102
RTVSPost2010PropOp39
 70
     1
102
RTVSPost2010Prop40
 90
        0
102
RTVSPost2010PropOp40
 70
     1
102
RTVSPost2010Prop41ColorIndex
 90
       18
102
RTVSPost2010Prop41ColorRGB
 90
        0
102
RTVSPost2010PropOp41
 70
     1
102
RTVSPost2010Prop42
 90
       50
102
RTVSPost2010PropOp42
 70
     1
102
RTVSPost2010Prop43
 90
        3
102
RTVSPost2010PropOp43
 70
     1
102
RTVSPost2010Prop44ColorIndex
 90
        5
102
RTVSPost2010Prop44ColorRGB
 90
      255
102
RTVSPost2010PropOp44
 70
     1
102
RTVSPost2010Prop45
280
     0
102
RTVSPost2010PropOp45
 70
     1
102
RTVSPost2010Prop46
 90
       50
102
RTVSPost2010PropOp46
 70
     1
102
RTVSPost2010Prop47
 90
       50
102
RTVSPost2010PropOp47
 70
     1
102
RTVSPost2010Prop48
 90
       50
102
RTVSPost2010PropOp48
 70
     1
102
RTVSPost2010Prop49
280
     0
102
RTVSPost2010PropOp49
 70
     1
102
RTVSPost2010Prop50
 90
       50
102
RTVSPost2010PropOp50
 70
     1
102
RTVSPost2010Prop51ColorIndex
 90
      256
102
RTVSPost2010Prop51ColorRGB
 90
-16777216
102
RTVSPost2010PropOp51
 70
     0
102
RTVSPost2010Prop52
140
1.0
102
RTVSPost2010PropOp52
 70
     0
102
RTVSPost2010Prop53
 90
        2
102
RTVSPost2010PropOp53
 70
     1
102
RTVSPost2010Prop54
  1
strokes_ogs.tif
102
RTVSPost2010PropOp54
 70
     1
102
RTVSPost2010Prop55
280
     0
102
RTVSPost2010PropOp55
 70
     1
102
RTVSPost2010Prop56
140
1.0
102
RTVSPost2010PropOp56
 70
     1
102
RTVSPost2010Prop57
140
1.0
102
RTVSPost2010PropOp57
 70
     1
102
RTVSPropertyOp0
 70
     1
102
RTVSPropertyOp1
 70
     1
102
RTVSPropertyOp2
 70
     1
102
RTVSPropertyOp3
 70
     1
102
RTVSPropertyOp4
 70
     1
102
RTVSPropertyOp5
 70
     1
102
RTVSPropertyOp6
 70
     1
102
RTVSPropertyOp7
 70
     1
102
RTVSPropertyOp8
 70
     1
102
RTVSPropertyOp9
 70
     1
102
RTVSPropertyOp10
 70
     1
102
RTVSPropertyOp11
 70
     1
102
RTVSPropertyOp12
 70
     1
102
RTVSPropertyOp13
 70
     1
102
RTVSPropertyOp14
 70
     1
102
RTVSPropertyOp15
 70
     1
102
RTVSPropertyOp16
 70
     1
102
RTVSPropertyOp17
 70
     1
102
RTVSPropertyOp18
 70
     1
102
RTVSPropertyOp19
 70
     1
102
RTVSPropertyOp20
 70
     1
102
RTVSPropertyOp21
 70
     1
102
RTVSPropertyOp22
 70
     1
102
RTVSPropertyOp23
 70
     1
102
RTVSPropertyOp24
 70
     1
102
RTVSPropertyOp25
 70
     1
102
RTVSPropertyOp26
 70
     1
102
RTVSPropertyOp27
 70
     1
102
RTVSPropertyOp28
 70
     1
102
RTVSPropertyOp29
 70
     1
102
RTVSPropertyOp30
 70
     1
102
RTVSPropertyOp31
 70
     1
102
RTVSPropertyOp32
 70
     1
102
RTVSPropertyOp33
 70
     1
102
RTVSPropertyOp34
 70
     1
102
RTVSPropertyOp35
 70
     1
102
RTVSPropertyOp36
 70
     1
102
RTVSPropertyOp37
 70
     1
102
RTVSPropertyOp38
 70
     1
102
RTVSPropertyOp39
 70
     1
102
RTVSPropertyOp40
 70
     1
102
RTVSPropertyOp41
 70
     1
102
RTVSPropertyOp42
 70
     1
102
RTVSPropertyOp43
 70
     1
102
RTVSPropertyOp44
 70
     1
102
RTVSPropertyOp45
 70
     1
102
RTVSPropertyOp46
 70
     1
102
RTVSPropertyOp47
 70
     1
102
RTVSPropertyOp48
 70
     1
102
RTVSPropertyOp49
 70
     1
102
RTVSPropertyOp50
 70
     1
102
RTVSPropertyOp51
 70
     0
102
RTVSPropertyOp52
 70
     0
102
RTVSPropertyOp53
 70
     1
102
RTVSPropertyOp54
 70
     1
102
RTVSPropertyOp55
 70
     1
102
RTVSPropertyOp56
 70
     1
102
RTVSPropertyOp57
 70
     1
102
RTVSPropertyOp58
 70
     1
102
RTVSPropertyOp59
 70
     1
102
RTVSPropertyOp60
 70
     1
102
RTVSPropertyOp61
 70
     1
102
RTVSPropertyOp62
 70
     1
  0
XRECORD
  5
A726
102
{ACAD_REACTORS
330
A725
102
}
330
A725
100
AcDbXrecord
280
     1
102
RTVSPost2010Prop28
280
     0
102
RTVSPost2010PropOp28
 70
     1
102
RTVSPost2010Prop29
280
     1
102
RTVSPost2010PropOp29
 70
     1
102
RTVSPost2010Prop30
280
     1
102
RTVSPost2010PropOp30
 70
     1
102
RTVSPost2010Prop31
280
     0
102
RTVSPost2010PropOp31
 70
     1
102
RTVSPost2010Prop32
280
     0
102
RTVSPost2010PropOp32
 70
     1
102
RTVSPost2010Prop33
280
     0
102
RTVSPost2010PropOp33
 70
     1
102
RTVSPost2010Prop34
280
     0
102
RTVSPost2010PropOp34
 70
     1
102
RTVSPost2010Prop35
280
     0
102
RTVSPost2010PropOp35
 70
     1
102
RTVSPost2010Prop36
280
     0
102
RTVSPost2010PropOp36
 70
     1
102
RTVSPost2010Prop37
 90
       50
102
RTVSPost2010PropOp37
 70
     1
102
RTVSPost2010Prop38
140
0.0
102
RTVSPost2010PropOp38
 70
     1
102
RTVSPost2010Prop39
140
1.0
102
RTVSPost2010PropOp39
 70
     1
102
RTVSPost2010Prop40
 90
        0
102
RTVSPost2010PropOp40
 70
     1
102
RTVSPost2010Prop41ColorIndex
 90
       18
102
RTVSPost2010Prop41ColorRGB
 90
        0
102
RTVSPost2010PropOp41
 70
     1
102
RTVSPost2010Prop42
 90
       50
102
RTVSPost2010PropOp42
 70
     1
102
RTVSPost2010Prop43
 90
        3
102
RTVSPost2010PropOp43
 70
     1
102
RTVSPost2010Prop44ColorIndex
 90
        5
102
RTVSPost2010Prop44ColorRGB
 90
      255
102
RTVSPost2010PropOp44
 70
     1
102
RTVSPost2010Prop45
280
     0
102
RTVSPost2010PropOp45
 70
     1
102
RTVSPost2010Prop46
 90
       50
102
RTVSPost2010PropOp46
 70
     1
102
RTVSPost2010Prop47
 90
       50
102
RTVSPost2010PropOp47
 70
     1
102
RTVSPost2010Prop48
 90
       50
102
RTVSPost2010PropOp48
 70
     1
102
RTVSPost2010Prop49
280
     0
102
RTVSPost2010PropOp49
 70
     1
102
RTVSPost2010Prop50
 90
       50
102
RTVSPost2010PropOp50
 70
     1
102
RTVSPost2010Prop51ColorIndex
 90
      256
102
RTVSPost2010Prop51ColorRGB
 90
-16777216
102
RTVSPost2010PropOp51
 70
     0
102
RTVSPost2010Prop52
140
1.0
102
RTVSPost2010PropOp52
 70
     0
102
RTVSPost2010Prop53
 90
        2
102
RTVSPost2010PropOp53
 70
     1
102
RTVSPost2010Prop54
  1
strokes_ogs.tif
102
RTVSPost2010PropOp54
 70
     1
102
RTVSPost2010Prop55
280
     0
102
RTVSPost2010PropOp55
 70
     1
102
RTVSPost2010Prop56
140
1.0
102
RTVSPost2010PropOp56
 70
     1
102
RTVSPost2010Prop57
140
1.0
102
RTVSPost2010PropOp57
 70
     1
102
RTVSPropertyOp0
 70
     1
102
RTVSPropertyOp1
 70
     1
102
RTVSPropertyOp2
 70
     1
102
RTVSPropertyOp3
 70
     1
102
RTVSPropertyOp4
 70
     1
102
RTVSPropertyOp5
 70
     1
102
RTVSPropertyOp6
 70
     1
102
RTVSPropertyOp7
 70
     1
102
RTVSPropertyOp8
 70
     1
102
RTVSPropertyOp9
 70
     1
102
RTVSPropertyOp10
 70
     1
102
RTVSPropertyOp11
 70
     1
102
RTVSPropertyOp12
 70
     1
102
RTVSPropertyOp13
 70
     1
102
RTVSPropertyOp14
 70
     1
102
RTVSPropertyOp15
 70
     1
102
RTVSPropertyOp16
 70
     1
102
RTVSPropertyOp17
 70
     1
102
RTVSPropertyOp18
 70
     1
102
RTVSPropertyOp19
 70
     1
102
RTVSPropertyOp20
 70
     1
102
RTVSPropertyOp21
 70
     1
102
RTVSPropertyOp22
 70
     1
102
RTVSPropertyOp23
 70
     1
102
RTVSPropertyOp24
 70
     1
102
RTVSPropertyOp25
 70
     1
102
RTVSPropertyOp26
 70
     1
102
RTVSPropertyOp27
 70
     1
102
RTVSPropertyOp28
 70
     1
102
RTVSPropertyOp29
 70
     1
102
RTVSPropertyOp30
 70
     1
102
RTVSPropertyOp31
 70
     1
102
RTVSPropertyOp32
 70
     1
102
RTVSPropertyOp33
 70
     1
102
RTVSPropertyOp34
 70
     1
102
RTVSPropertyOp35
 70
     1
102
RTVSPropertyOp36
 70
     1
102
RTVSPropertyOp37
 70
     1
102
RTVSPropertyOp38
 70
     1
102
RTVSPropertyOp39
 70
     1
102
RTVSPropertyOp40
 70
     1
102
RTVSPropertyOp41
 70
     1
102
RTVSPropertyOp42
 70
     1
102
RTVSPropertyOp43
 70
     1
102
RTVSPropertyOp44
 70
     1
102
RTVSPropertyOp45
 70
     1
102
RTVSPropertyOp46
 70
     1
102
RTVSPropertyOp47
 70
     1
102
RTVSPropertyOp48
 70
     1
102
RTVSPropertyOp49
 70
     1
102
RTVSPropertyOp50
 70
     1
102
RTVSPropertyOp51
 70
     0
102
RTVSPropertyOp52
 70
     0
102
RTVSPropertyOp53
 70
     1
102
RTVSPropertyOp54
 70
     1
102
RTVSPropertyOp55
 70
     1
102
RTVSPropertyOp56
 70
     1
102
RTVSPropertyOp57
 70
     1
102
RTVSPropertyOp58
 70
     1
102
RTVSPropertyOp59
 70
     1
102
RTVSPropertyOp60
 70
     1
102
RTVSPropertyOp61
 70
     1
102
RTVSPropertyOp62
 70
     1
  0
XRECORD
  5
A73A
102
{ACAD_REACTORS
330
A739
102
}
330
A739
100
AcDbXrecord
280
     1
102
RTVSPost2010Prop28
280
     0
102
RTVSPost2010PropOp28
 70
     1
102
RTVSPost2010Prop29
280
     1
102
RTVSPost2010PropOp29
 70
     1
102
RTVSPost2010Prop30
280
     1
102
RTVSPost2010PropOp30
 70
     1
102
RTVSPost2010Prop31
280
     0
102
RTVSPost2010PropOp31
 70
     1
102
RTVSPost2010Prop32
280
     0
102
RTVSPost2010PropOp32
 70
     1
102
RTVSPost2010Prop33
280
     0
102
RTVSPost2010PropOp33
 70
     1
102
RTVSPost2010Prop34
280
     0
102
RTVSPost2010PropOp34
 70
     1
102
RTVSPost2010Prop35
280
     0
102
RTVSPost2010PropOp35
 70
     1
102
RTVSPost2010Prop36
280
     0
102
RTVSPost2010PropOp36
 70
     1
102
RTVSPost2010Prop37
 90
       50
102
RTVSPost2010PropOp37
 70
     1
102
RTVSPost2010Prop38
140
0.0
102
RTVSPost2010PropOp38
 70
     1
102
RTVSPost2010Prop39
140
1.0
102
RTVSPost2010PropOp39
 70
     1
102
RTVSPost2010Prop40
 90
        0
102
RTVSPost2010PropOp40
 70
     1
102
RTVSPost2010Prop41ColorIndex
 90
       18
102
RTVSPost2010Prop41ColorRGB
 90
        0
102
RTVSPost2010PropOp41
 70
     1
102
RTVSPost2010Prop42
 90
       50
102
RTVSPost2010PropOp42
 70
     1
102
RTVSPost2010Prop43
 90
        3
102
RTVSPost2010PropOp43
 70
     1
102
RTVSPost2010Prop44ColorIndex
 90
        5
102
RTVSPost2010Prop44ColorRGB
 90
      255
102
RTVSPost2010PropOp44
 70
     1
102
RTVSPost2010Prop45
280
     0
102
RTVSPost2010PropOp45
 70
     1
102
RTVSPost2010Prop46
 90
       50
102
RTVSPost2010PropOp46
 70
     1
102
RTVSPost2010Prop47
 90
       50
102
RTVSPost2010PropOp47
 70
     1
102
RTVSPost2010Prop48
 90
       50
102
RTVSPost2010PropOp48
 70
     1
102
RTVSPost2010Prop49
280
     0
102
RTVSPost2010PropOp49
 70
     1
102
RTVSPost2010Prop50
 90
       50
102
RTVSPost2010PropOp50
 70
     1
102
RTVSPost2010Prop51ColorIndex
 90
      256
102
RTVSPost2010Prop51ColorRGB
 90
-16777216
102
RTVSPost2010PropOp51
 70
     0
102
RTVSPost2010Prop52
140
1.0
102
RTVSPost2010PropOp52
 70
     0
102
RTVSPost2010Prop53
 90
        2
102
RTVSPost2010PropOp53
 70
     1
102
RTVSPost2010Prop54
  1
strokes_ogs.tif
102
RTVSPost2010PropOp54
 70
     1
102
RTVSPost2010Prop55
280
     0
102
RTVSPost2010PropOp55
 70
     1
102
RTVSPost2010Prop56
140
1.0
102
RTVSPost2010PropOp56
 70
     1
102
RTVSPost2010Prop57
140
1.0
102
RTVSPost2010PropOp57
 70
     1
102
RTVSPropertyOp0
 70
     0
102
RTVSPropertyOp1
 70
     0
102
RTVSPropertyOp2
 70
     0
102
RTVSPropertyOp3
 70
     0
102
RTVSPropertyOp4
 70
     0
102
RTVSPropertyOp5
 70
     0
102
RTVSPropertyOp6
 70
     0
102
RTVSPropertyOp7
 70
     0
102
RTVSPropertyOp8
 70
     0
102
RTVSPropertyOp9
 70
     0
102
RTVSPropertyOp10
 70
     0
102
RTVSPropertyOp11
 70
     0
102
RTVSPropertyOp12
 70
     0
102
RTVSPropertyOp13
 70
     0
102
RTVSPropertyOp14
 70
     2
102
RTVSPropertyOp15
 70
     0
102
RTVSPropertyOp16
 70
     0
102
RTVSPropertyOp17
 70
     0
102
RTVSPropertyOp18
 70
     0
102
RTVSPropertyOp19
 70
     0
102
RTVSPropertyOp20
 70
     0
102
RTVSPropertyOp21
 70
     0
102
RTVSPropertyOp22
 70
     0
102
RTVSPropertyOp23
 70
     0
102
RTVSPropertyOp24
 70
     0
102
RTVSPropertyOp25
 70
     0
102
RTVSPropertyOp26
 70
     0
102
RTVSPropertyOp27
 70
     0
102
RTVSPropertyOp28
 70
     1
102
RTVSPropertyOp29
 70
     1
102
RTVSPropertyOp30
 70
     1
102
RTVSPropertyOp31
 70
     1
102
RTVSPropertyOp32
 70
     1
102
RTVSPropertyOp33
 70
     1
102
RTVSPropertyOp34
 70
     1
102
RTVSPropertyOp35
 70
     1
102
RTVSPropertyOp36
 70
     1
102
RTVSPropertyOp37
 70
     1
102
RTVSPropertyOp38
 70
     1
102
RTVSPropertyOp39
 70
     1
102
RTVSPropertyOp40
 70
     1
102
RTVSPropertyOp41
 70
     1
102
RTVSPropertyOp42
 70
     1
102
RTVSPropertyOp43
 70
     1
102
RTVSPropertyOp44
 70
     1
102
RTVSPropertyOp45
 70
     1
102
RTVSPropertyOp46
 70
     1
102
RTVSPropertyOp47
 70
     1
102
RTVSPropertyOp48
 70
     1
102
RTVSPropertyOp49
 70
     1
102
RTVSPropertyOp50
 70
     1
102
RTVSPropertyOp51
 70
     0
102
RTVSPropertyOp52
 70
     0
102
RTVSPropertyOp53
 70
     1
102
RTVSPropertyOp54
 70
     1
102
RTVSPropertyOp55
 70
     1
102
RTVSPropertyOp56
 70
     1
102
RTVSPropertyOp57
 70
     1
102
RTVSPropertyOp58
 70
     1
102
RTVSPropertyOp59
 70
     1
102
RTVSPropertyOp60
 70
     1
102
RTVSPropertyOp61
 70
     1
102
RTVSPropertyOp62
 70
     1
  0
XRECORD
  5
A732
102
{ACAD_REACTORS
330
A731
102
}
330
A731
100
AcDbXrecord
280
     1
102
RTVSPost2010Prop28
280
     0
102
RTVSPost2010PropOp28
 70
     1
102
RTVSPost2010Prop29
280
     1
102
RTVSPost2010PropOp29
 70
     1
102
RTVSPost2010Prop30
280
     1
102
RTVSPost2010PropOp30
 70
     1
102
RTVSPost2010Prop31
280
     0
102
RTVSPost2010PropOp31
 70
     1
102
RTVSPost2010Prop32
280
     0
102
RTVSPost2010PropOp32
 70
     1
102
RTVSPost2010Prop33
280
     0
102
RTVSPost2010PropOp33
 70
     1
102
RTVSPost2010Prop34
280
     0
102
RTVSPost2010PropOp34
 70
     1
102
RTVSPost2010Prop35
280
     0
102
RTVSPost2010PropOp35
 70
     1
102
RTVSPost2010Prop36
280
     0
102
RTVSPost2010PropOp36
 70
     1
102
RTVSPost2010Prop37
 90
       50
102
RTVSPost2010PropOp37
 70
     1
102
RTVSPost2010Prop38
140
0.0
102
RTVSPost2010PropOp38
 70
     1
102
RTVSPost2010Prop39
140
1.0
102
RTVSPost2010PropOp39
 70
     1
102
RTVSPost2010Prop40
 90
        0
102
RTVSPost2010PropOp40
 70
     1
102
RTVSPost2010Prop41ColorIndex
 90
       18
102
RTVSPost2010Prop41ColorRGB
 90
        0
102
RTVSPost2010PropOp41
 70
     1
102
RTVSPost2010Prop42
 90
       50
102
RTVSPost2010PropOp42
 70
     1
102
RTVSPost2010Prop43
 90
        3
102
RTVSPost2010PropOp43
 70
     1
102
RTVSPost2010Prop44ColorIndex
 90
        5
102
RTVSPost2010Prop44ColorRGB
 90
      255
102
RTVSPost2010PropOp44
 70
     1
102
RTVSPost2010Prop45
280
     0
102
RTVSPost2010PropOp45
 70
     1
102
RTVSPost2010Prop46
 90
       50
102
RTVSPost2010PropOp46
 70
     1
102
RTVSPost2010Prop47
 90
       50
102
RTVSPost2010PropOp47
 70
     1
102
RTVSPost2010Prop48
 90
       50
102
RTVSPost2010PropOp48
 70
     1
102
RTVSPost2010Prop49
280
     0
102
RTVSPost2010PropOp49
 70
     1
102
RTVSPost2010Prop50
 90
       50
102
RTVSPost2010PropOp50
 70
     1
102
RTVSPost2010Prop51ColorIndex
 90
      256
102
RTVSPost2010Prop51ColorRGB
 90
-16777216
102
RTVSPost2010PropOp51
 70
     0
102
RTVSPost2010Prop52
140
1.0
102
RTVSPost2010PropOp52
 70
     0
102
RTVSPost2010Prop53
 90
        2
102
RTVSPost2010PropOp53
 70
     1
102
RTVSPost2010Prop54
  1
strokes_ogs.tif
102
RTVSPost2010PropOp54
 70
     1
102
RTVSPost2010Prop55
280
     0
102
RTVSPost2010PropOp55
 70
     1
102
RTVSPost2010Prop56
140
1.0
102
RTVSPost2010PropOp56
 70
     1
102
RTVSPost2010Prop57
140
1.0
102
RTVSPost2010PropOp57
 70
     1
102
RTVSPropertyOp0
 70
     1
102
RTVSPropertyOp1
 70
     1
102
RTVSPropertyOp2
 70
     1
102
RTVSPropertyOp3
 70
     1
102
RTVSPropertyOp4
 70
     1
102
RTVSPropertyOp5
 70
     1
102
RTVSPropertyOp6
 70
     1
102
RTVSPropertyOp7
 70
     1
102
RTVSPropertyOp8
 70
     1
102
RTVSPropertyOp9
 70
     1
102
RTVSPropertyOp10
 70
     1
102
RTVSPropertyOp11
 70
     1
102
RTVSPropertyOp12
 70
     1
102
RTVSPropertyOp13
 70
     1
102
RTVSPropertyOp14
 70
     1
102
RTVSPropertyOp15
 70
     1
102
RTVSPropertyOp16
 70
     1
102
RTVSPropertyOp17
 70
     1
102
RTVSPropertyOp18
 70
     1
102
RTVSPropertyOp19
 70
     1
102
RTVSPropertyOp20
 70
     1
102
RTVSPropertyOp21
 70
     1
102
RTVSPropertyOp22
 70
     1
102
RTVSPropertyOp23
 70
     1
102
RTVSPropertyOp24
 70
     1
102
RTVSPropertyOp25
 70
     1
102
RTVSPropertyOp26
 70
     1
102
RTVSPropertyOp27
 70
     1
102
RTVSPropertyOp28
 70
     1
102
RTVSPropertyOp29
 70
     1
102
RTVSPropertyOp30
 70
     1
102
RTVSPropertyOp31
 70
     1
102
RTVSPropertyOp32
 70
     1
102
RTVSPropertyOp33
 70
     1
102
RTVSPropertyOp34
 70
     1
102
RTVSPropertyOp35
 70
     1
102
RTVSPropertyOp36
 70
     1
102
RTVSPropertyOp37
 70
     1
102
RTVSPropertyOp38
 70
     1
102
RTVSPropertyOp39
 70
     1
102
RTVSPropertyOp40
 70
     1
102
RTVSPropertyOp41
 70
     1
102
RTVSPropertyOp42
 70
     1
102
RTVSPropertyOp43
 70
     1
102
RTVSPropertyOp44
 70
     1
102
RTVSPropertyOp45
 70
     1
102
RTVSPropertyOp46
 70
     1
102
RTVSPropertyOp47
 70
     1
102
RTVSPropertyOp48
 70
     1
102
RTVSPropertyOp49
 70
     1
102
RTVSPropertyOp50
 70
     1
102
RTVSPropertyOp51
 70
     0
102
RTVSPropertyOp52
 70
     0
102
RTVSPropertyOp53
 70
     1
102
RTVSPropertyOp54
 70
     1
102
RTVSPropertyOp55
 70
     1
102
RTVSPropertyOp56
 70
     1
102
RTVSPropertyOp57
 70
     1
102
RTVSPropertyOp58
 70
     1
102
RTVSPropertyOp59
 70
     1
102
RTVSPropertyOp60
 70
     1
102
RTVSPropertyOp61
 70
     1
102
RTVSPropertyOp62
 70
     1
  0
XRECORD
  5
A73C
102
{ACAD_REACTORS
330
A73B
102
}
330
A73B
100
AcDbXrecord
280
     1
102
RTVSPost2010Prop28
280
     0
102
RTVSPost2010PropOp28
 70
     1
102
RTVSPost2010Prop29
280
     1
102
RTVSPost2010PropOp29
 70
     1
102
RTVSPost2010Prop30
280
     1
102
RTVSPost2010PropOp30
 70
     1
102
RTVSPost2010Prop31
280
     0
102
RTVSPost2010PropOp31
 70
     1
102
RTVSPost2010Prop32
280
     0
102
RTVSPost2010PropOp32
 70
     1
102
RTVSPost2010Prop33
280
     0
102
RTVSPost2010PropOp33
 70
     1
102
RTVSPost2010Prop34
280
     0
102
RTVSPost2010PropOp34
 70
     1
102
RTVSPost2010Prop35
280
     0
102
RTVSPost2010PropOp35
 70
     1
102
RTVSPost2010Prop36
280
     0
102
RTVSPost2010PropOp36
 70
     1
102
RTVSPost2010Prop37
 90
       50
102
RTVSPost2010PropOp37
 70
     1
102
RTVSPost2010Prop38
140
0.0
102
RTVSPost2010PropOp38
 70
     1
102
RTVSPost2010Prop39
140
1.0
102
RTVSPost2010PropOp39
 70
     1
102
RTVSPost2010Prop40
 90
        0
102
RTVSPost2010PropOp40
 70
     1
102
RTVSPost2010Prop41ColorIndex
 90
       18
102
RTVSPost2010Prop41ColorRGB
 90
        0
102
RTVSPost2010PropOp41
 70
     1
102
RTVSPost2010Prop42
 90
       50
102
RTVSPost2010PropOp42
 70
     1
102
RTVSPost2010Prop43
 90
        3
102
RTVSPost2010PropOp43
 70
     1
102
RTVSPost2010Prop44ColorIndex
 90
        5
102
RTVSPost2010Prop44ColorRGB
 90
      255
102
RTVSPost2010PropOp44
 70
     1
102
RTVSPost2010Prop45
280
     0
102
RTVSPost2010PropOp45
 70
     1
102
RTVSPost2010Prop46
 90
       50
102
RTVSPost2010PropOp46
 70
     1
102
RTVSPost2010Prop47
 90
       50
102
RTVSPost2010PropOp47
 70
     1
102
RTVSPost2010Prop48
 90
       50
102
RTVSPost2010PropOp48
 70
     1
102
RTVSPost2010Prop49
280
     0
102
RTVSPost2010PropOp49
 70
     1
102
RTVSPost2010Prop50
 90
       50
102
RTVSPost2010PropOp50
 70
     1
102
RTVSPost2010Prop51ColorIndex
 90
      256
102
RTVSPost2010Prop51ColorRGB
 90
-16777216
102
RTVSPost2010PropOp51
 70
     0
102
RTVSPost2010Prop52
140
1.0
102
RTVSPost2010PropOp52
 70
     0
102
RTVSPost2010Prop53
 90
        2
102
RTVSPost2010PropOp53
 70
     1
102
RTVSPost2010Prop54
  1
strokes_ogs.tif
102
RTVSPost2010PropOp54
 70
     1
102
RTVSPost2010Prop55
280
     0
102
RTVSPost2010PropOp55
 70
     1
102
RTVSPost2010Prop56
140
1.0
102
RTVSPost2010PropOp56
 70
     1
102
RTVSPost2010Prop57
140
1.0
102
RTVSPost2010PropOp57
 70
     1
102
RTVSPropertyOp0
 70
     0
102
RTVSPropertyOp1
 70
     0
102
RTVSPropertyOp2
 70
     0
102
RTVSPropertyOp3
 70
     0
102
RTVSPropertyOp4
 70
     0
102
RTVSPropertyOp5
 70
     0
102
RTVSPropertyOp6
 70
     0
102
RTVSPropertyOp7
 70
     0
102
RTVSPropertyOp8
 70
     0
102
RTVSPropertyOp9
 70
     0
102
RTVSPropertyOp10
 70
     0
102
RTVSPropertyOp11
 70
     0
102
RTVSPropertyOp12
 70
     0
102
RTVSPropertyOp13
 70
     0
102
RTVSPropertyOp14
 70
     2
102
RTVSPropertyOp15
 70
     0
102
RTVSPropertyOp16
 70
     0
102
RTVSPropertyOp17
 70
     0
102
RTVSPropertyOp18
 70
     0
102
RTVSPropertyOp19
 70
     0
102
RTVSPropertyOp20
 70
     0
102
RTVSPropertyOp21
 70
     0
102
RTVSPropertyOp22
 70
     0
102
RTVSPropertyOp23
 70
     0
102
RTVSPropertyOp24
 70
     0
102
RTVSPropertyOp25
 70
     0
102
RTVSPropertyOp26
 70
     0
102
RTVSPropertyOp27
 70
     0
102
RTVSPropertyOp28
 70
     1
102
RTVSPropertyOp29
 70
     1
102
RTVSPropertyOp30
 70
     1
102
RTVSPropertyOp31
 70
     1
102
RTVSPropertyOp32
 70
     1
102
RTVSPropertyOp33
 70
     1
102
RTVSPropertyOp34
 70
     1
102
RTVSPropertyOp35
 70
     1
102
RTVSPropertyOp36
 70
     1
102
RTVSPropertyOp37
 70
     1
102
RTVSPropertyOp38
 70
     1
102
RTVSPropertyOp39
 70
     1
102
RTVSPropertyOp40
 70
     1
102
RTVSPropertyOp41
 70
     1
102
RTVSPropertyOp42
 70
     1
102
RTVSPropertyOp43
 70
     1
102
RTVSPropertyOp44
 70
     1
102
RTVSPropertyOp45
 70
     1
102
RTVSPropertyOp46
 70
     1
102
RTVSPropertyOp47
 70
     1
102
RTVSPropertyOp48
 70
     1
102
RTVSPropertyOp49
 70
     1
102
RTVSPropertyOp50
 70
     1
102
RTVSPropertyOp51
 70
     0
102
RTVSPropertyOp52
 70
     0
102
RTVSPropertyOp53
 70
     1
102
RTVSPropertyOp54
 70
     1
102
RTVSPropertyOp55
 70
     1
102
RTVSPropertyOp56
 70
     1
102
RTVSPropertyOp57
 70
     1
102
RTVSPropertyOp58
 70
     1
102
RTVSPropertyOp59
 70
     1
102
RTVSPropertyOp60
 70
     1
102
RTVSPropertyOp61
 70
     1
102
RTVSPropertyOp62
 70
     1
  0
XRECORD
  5
A72A
102
{ACAD_REACTORS
330
A729
102
}
330
A729
100
AcDbXrecord
280
     1
102
RTVSPost2010Prop28
280
     0
102
RTVSPost2010PropOp28
 70
     1
102
RTVSPost2010Prop29
280
     1
102
RTVSPost2010PropOp29
 70
     1
102
RTVSPost2010Prop30
280
     1
102
RTVSPost2010PropOp30
 70
     1
102
RTVSPost2010Prop31
280
     0
102
RTVSPost2010PropOp31
 70
     1
102
RTVSPost2010Prop32
280
     0
102
RTVSPost2010PropOp32
 70
     1
102
RTVSPost2010Prop33
280
     0
102
RTVSPost2010PropOp33
 70
     1
102
RTVSPost2010Prop34
280
     0
102
RTVSPost2010PropOp34
 70
     1
102
RTVSPost2010Prop35
280
     0
102
RTVSPost2010PropOp35
 70
     1
102
RTVSPost2010Prop36
280
     0
102
RTVSPost2010PropOp36
 70
     1
102
RTVSPost2010Prop37
 90
       50
102
RTVSPost2010PropOp37
 70
     1
102
RTVSPost2010Prop38
140
0.0
102
RTVSPost2010PropOp38
 70
     1
102
RTVSPost2010Prop39
140
1.0
102
RTVSPost2010PropOp39
 70
     1
102
RTVSPost2010Prop40
 90
        0
102
RTVSPost2010PropOp40
 70
     1
102
RTVSPost2010Prop41ColorIndex
 90
       18
102
RTVSPost2010Prop41ColorRGB
 90
        0
102
RTVSPost2010PropOp41
 70
     1
102
RTVSPost2010Prop42
 90
       50
102
RTVSPost2010PropOp42
 70
     1
102
RTVSPost2010Prop43
 90
        3
102
RTVSPost2010PropOp43
 70
     1
102
RTVSPost2010Prop44ColorIndex
 90
        5
102
RTVSPost2010Prop44ColorRGB
 90
      255
102
RTVSPost2010PropOp44
 70
     1
102
RTVSPost2010Prop45
280
     0
102
RTVSPost2010PropOp45
 70
     1
102
RTVSPost2010Prop46
 90
       50
102
RTVSPost2010PropOp46
 70
     1
102
RTVSPost2010Prop47
 90
       50
102
RTVSPost2010PropOp47
 70
     1
102
RTVSPost2010Prop48
 90
       50
102
RTVSPost2010PropOp48
 70
     1
102
RTVSPost2010Prop49
280
     0
102
RTVSPost2010PropOp49
 70
     1
102
RTVSPost2010Prop50
 90
       50
102
RTVSPost2010PropOp50
 70
     1
102
RTVSPost2010Prop51ColorIndex
 90
      256
102
RTVSPost2010Prop51ColorRGB
 90
-16777216
102
RTVSPost2010PropOp51
 70
     0
102
RTVSPost2010Prop52
140
1.0
102
RTVSPost2010PropOp52
 70
     0
102
RTVSPost2010Prop53
 90
        2
102
RTVSPost2010PropOp53
 70
     1
102
RTVSPost2010Prop54
  1
strokes_ogs.tif
102
RTVSPost2010PropOp54
 70
     1
102
RTVSPost2010Prop55
280
     0
102
RTVSPost2010PropOp55
 70
     1
102
RTVSPost2010Prop56
140
1.0
102
RTVSPost2010PropOp56
 70
     1
102
RTVSPost2010Prop57
140
1.0
102
RTVSPost2010PropOp57
 70
     1
102
RTVSPropertyOp0
 70
     1
102
RTVSPropertyOp1
 70
     1
102
RTVSPropertyOp2
 70
     1
102
RTVSPropertyOp3
 70
     1
102
RTVSPropertyOp4
 70
     1
102
RTVSPropertyOp5
 70
     1
102
RTVSPropertyOp6
 70
     1
102
RTVSPropertyOp7
 70
     1
102
RTVSPropertyOp8
 70
     1
102
RTVSPropertyOp9
 70
     1
102
RTVSPropertyOp10
 70
     1
102
RTVSPropertyOp11
 70
     1
102
RTVSPropertyOp12
 70
     1
102
RTVSPropertyOp13
 70
     1
102
RTVSPropertyOp14
 70
     1
102
RTVSPropertyOp15
 70
     1
102
RTVSPropertyOp16
 70
     1
102
RTVSPropertyOp17
 70
     1
102
RTVSPropertyOp18
 70
     1
102
RTVSPropertyOp19
 70
     1
102
RTVSPropertyOp20
 70
     1
102
RTVSPropertyOp21
 70
     1
102
RTVSPropertyOp22
 70
     1
102
RTVSPropertyOp23
 70
     1
102
RTVSPropertyOp24
 70
     1
102
RTVSPropertyOp25
 70
     1
102
RTVSPropertyOp26
 70
     1
102
RTVSPropertyOp27
 70
     1
102
RTVSPropertyOp28
 70
     1
102
RTVSPropertyOp29
 70
     1
102
RTVSPropertyOp30
 70
     1
102
RTVSPropertyOp31
 70
     1
102
RTVSPropertyOp32
 70
     1
102
RTVSPropertyOp33
 70
     1
102
RTVSPropertyOp34
 70
     1
102
RTVSPropertyOp35
 70
     1
102
RTVSPropertyOp36
 70
     1
102
RTVSPropertyOp37
 70
     1
102
RTVSPropertyOp38
 70
     1
102
RTVSPropertyOp39
 70
     1
102
RTVSPropertyOp40
 70
     1
102
RTVSPropertyOp41
 70
     1
102
RTVSPropertyOp42
 70
     1
102
RTVSPropertyOp43
 70
     1
102
RTVSPropertyOp44
 70
     1
102
RTVSPropertyOp45
 70
     1
102
RTVSPropertyOp46
 70
     1
102
RTVSPropertyOp47
 70
     1
102
RTVSPropertyOp48
 70
     1
102
RTVSPropertyOp49
 70
     1
102
RTVSPropertyOp50
 70
     1
102
RTVSPropertyOp51
 70
     0
102
RTVSPropertyOp52
 70
     0
102
RTVSPropertyOp53
 70
     1
102
RTVSPropertyOp54
 70
     1
102
RTVSPropertyOp55
 70
     1
102
RTVSPropertyOp56
 70
     1
102
RTVSPropertyOp57
 70
     1
102
RTVSPropertyOp58
 70
     1
102
RTVSPropertyOp59
 70
     1
102
RTVSPropertyOp60
 70
     1
102
RTVSPropertyOp61
 70
     1
102
RTVSPropertyOp62
 70
     1
  0
XRECORD
  5
A748
102
{ACAD_REACTORS
330
A747
102
}
330
A747
100
AcDbXrecord
280
     1
102
RTVSPost2010Prop28
280
     0
102
RTVSPost2010PropOp28
 70
     1
102
RTVSPost2010Prop29
280
     1
102
RTVSPost2010PropOp29
 70
     1
102
RTVSPost2010Prop30
280
     1
102
RTVSPost2010PropOp30
 70
     1
102
RTVSPost2010Prop31
280
     0
102
RTVSPost2010PropOp31
 70
     1
102
RTVSPost2010Prop32
280
     0
102
RTVSPost2010PropOp32
 70
     1
102
RTVSPost2010Prop33
280
     0
102
RTVSPost2010PropOp33
 70
     1
102
RTVSPost2010Prop34
280
     0
102
RTVSPost2010PropOp34
 70
     1
102
RTVSPost2010Prop35
280
     0
102
RTVSPost2010PropOp35
 70
     1
102
RTVSPost2010Prop36
280
     0
102
RTVSPost2010PropOp36
 70
     1
102
RTVSPost2010Prop37
 90
       50
102
RTVSPost2010PropOp37
 70
     1
102
RTVSPost2010Prop38
140
0.0
102
RTVSPost2010PropOp38
 70
     1
102
RTVSPost2010Prop39
140
1.0
102
RTVSPost2010PropOp39
 70
     1
102
RTVSPost2010Prop40
 90
        0
102
RTVSPost2010PropOp40
 70
     1
102
RTVSPost2010Prop41ColorIndex
 90
       18
102
RTVSPost2010Prop41ColorRGB
 90
        0
102
RTVSPost2010PropOp41
 70
     1
102
RTVSPost2010Prop42
 90
       50
102
RTVSPost2010PropOp42
 70
     1
102
RTVSPost2010Prop43
 90
        3
102
RTVSPost2010PropOp43
 70
     1
102
RTVSPost2010Prop44ColorIndex
 90
        5
102
RTVSPost2010Prop44ColorRGB
 90
      255
102
RTVSPost2010PropOp44
 70
     1
102
RTVSPost2010Prop45
280
     0
102
RTVSPost2010PropOp45
 70
     1
102
RTVSPost2010Prop46
 90
       50
102
RTVSPost2010PropOp46
 70
     1
102
RTVSPost2010Prop47
 90
       50
102
RTVSPost2010PropOp47
 70
     1
102
RTVSPost2010Prop48
 90
       50
102
RTVSPost2010PropOp48
 70
     1
102
RTVSPost2010Prop49
280
     0
102
RTVSPost2010PropOp49
 70
     1
102
RTVSPost2010Prop50
 90
       50
102
RTVSPost2010PropOp50
 70
     1
102
RTVSPost2010Prop51ColorIndex
 90
      256
102
RTVSPost2010Prop51ColorRGB
 90
-16777216
102
RTVSPost2010PropOp51
 70
     0
102
RTVSPost2010Prop52
140
1.0
102
RTVSPost2010PropOp52
 70
     0
102
RTVSPost2010Prop53
 90
        2
102
RTVSPost2010PropOp53
 70
     1
102
RTVSPost2010Prop54
  1
strokes_ogs.tif
102
RTVSPost2010PropOp54
 70
     1
102
RTVSPost2010Prop55
280
     0
102
RTVSPost2010PropOp55
 70
     1
102
RTVSPost2010Prop56
140
1.0
102
RTVSPost2010PropOp56
 70
     1
102
RTVSPost2010Prop57
140
1.0
102
RTVSPost2010PropOp57
 70
     1
102
RTVSPropertyOp0
 70
     1
102
RTVSPropertyOp1
 70
     1
102
RTVSPropertyOp2
 70
     1
102
RTVSPropertyOp3
 70
     1
102
RTVSPropertyOp4
 70
     1
102
RTVSPropertyOp5
 70
     1
102
RTVSPropertyOp6
 70
     1
102
RTVSPropertyOp7
 70
     1
102
RTVSPropertyOp8
 70
     1
102
RTVSPropertyOp9
 70
     1
102
RTVSPropertyOp10
 70
     1
102
RTVSPropertyOp11
 70
     1
102
RTVSPropertyOp12
 70
     1
102
RTVSPropertyOp13
 70
     1
102
RTVSPropertyOp14
 70
     1
102
RTVSPropertyOp15
 70
     1
102
RTVSPropertyOp16
 70
     1
102
RTVSPropertyOp17
 70
     1
102
RTVSPropertyOp18
 70
     1
102
RTVSPropertyOp19
 70
     1
102
RTVSPropertyOp20
 70
     1
102
RTVSPropertyOp21
 70
     1
102
RTVSPropertyOp22
 70
     1
102
RTVSPropertyOp23
 70
     1
102
RTVSPropertyOp24
 70
     1
102
RTVSPropertyOp25
 70
     1
102
RTVSPropertyOp26
 70
     1
102
RTVSPropertyOp27
 70
     1
102
RTVSPropertyOp28
 70
     1
102
RTVSPropertyOp29
 70
     1
102
RTVSPropertyOp30
 70
     1
102
RTVSPropertyOp31
 70
     1
102
RTVSPropertyOp32
 70
     1
102
RTVSPropertyOp33
 70
     1
102
RTVSPropertyOp34
 70
     1
102
RTVSPropertyOp35
 70
     1
102
RTVSPropertyOp36
 70
     1
102
RTVSPropertyOp37
 70
     1
102
RTVSPropertyOp38
 70
     1
102
RTVSPropertyOp39
 70
     1
102
RTVSPropertyOp40
 70
     1
102
RTVSPropertyOp41
 70
     1
102
RTVSPropertyOp42
 70
     1
102
RTVSPropertyOp43
 70
     1
102
RTVSPropertyOp44
 70
     1
102
RTVSPropertyOp45
 70
     1
102
RTVSPropertyOp46
 70
     1
102
RTVSPropertyOp47
 70
     1
102
RTVSPropertyOp48
 70
     1
102
RTVSPropertyOp49
 70
     1
102
RTVSPropertyOp50
 70
     1
102
RTVSPropertyOp51
 70
     0
102
RTVSPropertyOp52
 70
     0
102
RTVSPropertyOp53
 70
     1
102
RTVSPropertyOp54
 70
     1
102
RTVSPropertyOp55
 70
     1
102
RTVSPropertyOp56
 70
     1
102
RTVSPropertyOp57
 70
     1
102
RTVSPropertyOp58
 70
     1
102
RTVSPropertyOp59
 70
     1
102
RTVSPropertyOp60
 70
     1
102
RTVSPropertyOp61
 70
     1
102
RTVSPropertyOp62
 70
     1
  0
XRECORD
  5
A746
102
{ACAD_REACTORS
330
A745
102
}
330
A745
100
AcDbXrecord
280
     1
102
RTVSPost2010Prop28
280
     0
102
RTVSPost2010PropOp28
 70
     1
102
RTVSPost2010Prop29
280
     1
102
RTVSPost2010PropOp29
 70
     1
102
RTVSPost2010Prop30
280
     1
102
RTVSPost2010PropOp30
 70
     1
102
RTVSPost2010Prop31
280
     0
102
RTVSPost2010PropOp31
 70
     1
102
RTVSPost2010Prop32
280
     0
102
RTVSPost2010PropOp32
 70
     1
102
RTVSPost2010Prop33
280
     0
102
RTVSPost2010PropOp33
 70
     1
102
RTVSPost2010Prop34
280
     0
102
RTVSPost2010PropOp34
 70
     1
102
RTVSPost2010Prop35
280
     0
102
RTVSPost2010PropOp35
 70
     1
102
RTVSPost2010Prop36
280
     0
102
RTVSPost2010PropOp36
 70
     1
102
RTVSPost2010Prop37
 90
       50
102
RTVSPost2010PropOp37
 70
     1
102
RTVSPost2010Prop38
140
0.0
102
RTVSPost2010PropOp38
 70
     1
102
RTVSPost2010Prop39
140
1.0
102
RTVSPost2010PropOp39
 70
     1
102
RTVSPost2010Prop40
 90
        0
102
RTVSPost2010PropOp40
 70
     1
102
RTVSPost2010Prop41ColorIndex
 90
       18
102
RTVSPost2010Prop41ColorRGB
 90
        0
102
RTVSPost2010PropOp41
 70
     1
102
RTVSPost2010Prop42
 90
       50
102
RTVSPost2010PropOp42
 70
     1
102
RTVSPost2010Prop43
 90
        3
102
RTVSPost2010PropOp43
 70
     1
102
RTVSPost2010Prop44ColorIndex
 90
        5
102
RTVSPost2010Prop44ColorRGB
 90
      255
102
RTVSPost2010PropOp44
 70
     1
102
RTVSPost2010Prop45
280
     0
102
RTVSPost2010PropOp45
 70
     1
102
RTVSPost2010Prop46
 90
       50
102
RTVSPost2010PropOp46
 70
     1
102
RTVSPost2010Prop47
 90
       50
102
RTVSPost2010PropOp47
 70
     1
102
RTVSPost2010Prop48
 90
       50
102
RTVSPost2010PropOp48
 70
     1
102
RTVSPost2010Prop49
280
     0
102
RTVSPost2010PropOp49
 70
     1
102
RTVSPost2010Prop50
 90
       50
102
RTVSPost2010PropOp50
 70
     1
102
RTVSPost2010Prop51ColorIndex
 90
      256
102
RTVSPost2010Prop51ColorRGB
 90
-16777216
102
RTVSPost2010PropOp51
 70
     0
102
RTVSPost2010Prop52
140
1.0
102
RTVSPost2010PropOp52
 70
     0
102
RTVSPost2010Prop53
 90
        2
102
RTVSPost2010PropOp53
 70
     1
102
RTVSPost2010Prop54
  1
strokes_ogs.tif
102
RTVSPost2010PropOp54
 70
     1
102
RTVSPost2010Prop55
280
     0
102
RTVSPost2010PropOp55
 70
     1
102
RTVSPost2010Prop56
140
1.0
102
RTVSPost2010PropOp56
 70
     1
102
RTVSPost2010Prop57
140
1.0
102
RTVSPost2010PropOp57
 70
     1
102
RTVSPropertyOp0
 70
     1
102
RTVSPropertyOp1
 70
     1
102
RTVSPropertyOp2
 70
     1
102
RTVSPropertyOp3
 70
     1
102
RTVSPropertyOp4
 70
     1
102
RTVSPropertyOp5
 70
     1
102
RTVSPropertyOp6
 70
     1
102
RTVSPropertyOp7
 70
     1
102
RTVSPropertyOp8
 70
     1
102
RTVSPropertyOp9
 70
     1
102
RTVSPropertyOp10
 70
     1
102
RTVSPropertyOp11
 70
     1
102
RTVSPropertyOp12
 70
     1
102
RTVSPropertyOp13
 70
     1
102
RTVSPropertyOp14
 70
     1
102
RTVSPropertyOp15
 70
     1
102
RTVSPropertyOp16
 70
     1
102
RTVSPropertyOp17
 70
     1
102
RTVSPropertyOp18
 70
     1
102
RTVSPropertyOp19
 70
     1
102
RTVSPropertyOp20
 70
     1
102
RTVSPropertyOp21
 70
     1
102
RTVSPropertyOp22
 70
     1
102
RTVSPropertyOp23
 70
     1
102
RTVSPropertyOp24
 70
     1
102
RTVSPropertyOp25
 70
     1
102
RTVSPropertyOp26
 70
     1
102
RTVSPropertyOp27
 70
     1
102
RTVSPropertyOp28
 70
     1
102
RTVSPropertyOp29
 70
     1
102
RTVSPropertyOp30
 70
     1
102
RTVSPropertyOp31
 70
     1
102
RTVSPropertyOp32
 70
     1
102
RTVSPropertyOp33
 70
     1
102
RTVSPropertyOp34
 70
     1
102
RTVSPropertyOp35
 70
     1
102
RTVSPropertyOp36
 70
     1
102
RTVSPropertyOp37
 70
     1
102
RTVSPropertyOp38
 70
     1
102
RTVSPropertyOp39
 70
     1
102
RTVSPropertyOp40
 70
     1
102
RTVSPropertyOp41
 70
     1
102
RTVSPropertyOp42
 70
     1
102
RTVSPropertyOp43
 70
     1
102
RTVSPropertyOp44
 70
     1
102
RTVSPropertyOp45
 70
     1
102
RTVSPropertyOp46
 70
     1
102
RTVSPropertyOp47
 70
     1
102
RTVSPropertyOp48
 70
     1
102
RTVSPropertyOp49
 70
     1
102
RTVSPropertyOp50
 70
     1
102
RTVSPropertyOp51
 70
     0
102
RTVSPropertyOp52
 70
     0
102
RTVSPropertyOp53
 70
     1
102
RTVSPropertyOp54
 70
     1
102
RTVSPropertyOp55
 70
     1
102
RTVSPropertyOp56
 70
     1
102
RTVSPropertyOp57
 70
     1
102
RTVSPropertyOp58
 70
     1
102
RTVSPropertyOp59
 70
     1
102
RTVSPropertyOp60
 70
     1
102
RTVSPropertyOp61
 70
     1
102
RTVSPropertyOp62
 70
     1
  0
XRECORD
  5
A740
102
{ACAD_REACTORS
330
A73F
102
}
330
A73F
100
AcDbXrecord
280
     1
102
RTVSPost2010Prop28
280
     0
102
RTVSPost2010PropOp28
 70
     1
102
RTVSPost2010Prop29
280
     1
102
RTVSPost2010PropOp29
 70
     1
102
RTVSPost2010Prop30
280
     1
102
RTVSPost2010PropOp30
 70
     1
102
RTVSPost2010Prop31
280
     0
102
RTVSPost2010PropOp31
 70
     1
102
RTVSPost2010Prop32
280
     0
102
RTVSPost2010PropOp32
 70
     1
102
RTVSPost2010Prop33
280
     0
102
RTVSPost2010PropOp33
 70
     1
102
RTVSPost2010Prop34
280
     0
102
RTVSPost2010PropOp34
 70
     1
102
RTVSPost2010Prop35
280
     0
102
RTVSPost2010PropOp35
 70
     1
102
RTVSPost2010Prop36
280
     0
102
RTVSPost2010PropOp36
 70
     1
102
RTVSPost2010Prop37
 90
       50
102
RTVSPost2010PropOp37
 70
     1
102
RTVSPost2010Prop38
140
0.0
102
RTVSPost2010PropOp38
 70
     1
102
RTVSPost2010Prop39
140
1.0
102
RTVSPost2010PropOp39
 70
     1
102
RTVSPost2010Prop40
 90
        0
102
RTVSPost2010PropOp40
 70
     1
102
RTVSPost2010Prop41ColorIndex
 90
       18
102
RTVSPost2010Prop41ColorRGB
 90
        0
102
RTVSPost2010PropOp41
 70
     1
102
RTVSPost2010Prop42
 90
       50
102
RTVSPost2010PropOp42
 70
     1
102
RTVSPost2010Prop43
 90
        3
102
RTVSPost2010PropOp43
 70
     1
102
RTVSPost2010Prop44ColorIndex
 90
        5
102
RTVSPost2010Prop44ColorRGB
 90
      255
102
RTVSPost2010PropOp44
 70
     1
102
RTVSPost2010Prop45
280
     0
102
RTVSPost2010PropOp45
 70
     1
102
RTVSPost2010Prop46
 90
       50
102
RTVSPost2010PropOp46
 70
     1
102
RTVSPost2010Prop47
 90
       50
102
RTVSPost2010PropOp47
 70
     1
102
RTVSPost2010Prop48
 90
       50
102
RTVSPost2010PropOp48
 70
     1
102
RTVSPost2010Prop49
280
     0
102
RTVSPost2010PropOp49
 70
     1
102
RTVSPost2010Prop50
 90
       50
102
RTVSPost2010PropOp50
 70
     1
102
RTVSPost2010Prop51ColorIndex
 90
      256
102
RTVSPost2010Prop51ColorRGB
 90
-16777216
102
RTVSPost2010PropOp51
 70
     0
102
RTVSPost2010Prop52
140
1.0
102
RTVSPost2010PropOp52
 70
     0
102
RTVSPost2010Prop53
 90
        2
102
RTVSPost2010PropOp53
 70
     1
102
RTVSPost2010Prop54
  1
strokes_ogs.tif
102
RTVSPost2010PropOp54
 70
     1
102
RTVSPost2010Prop55
280
     0
102
RTVSPost2010PropOp55
 70
     1
102
RTVSPost2010Prop56
140
1.0
102
RTVSPost2010PropOp56
 70
     1
102
RTVSPost2010Prop57
140
1.0
102
RTVSPost2010PropOp57
 70
     1
102
RTVSPropertyOp0
 70
     1
102
RTVSPropertyOp1
 70
     1
102
RTVSPropertyOp2
 70
     1
102
RTVSPropertyOp3
 70
     1
102
RTVSPropertyOp4
 70
     1
102
RTVSPropertyOp5
 70
     1
102
RTVSPropertyOp6
 70
     1
102
RTVSPropertyOp7
 70
     1
102
RTVSPropertyOp8
 70
     1
102
RTVSPropertyOp9
 70
     1
102
RTVSPropertyOp10
 70
     1
102
RTVSPropertyOp11
 70
     1
102
RTVSPropertyOp12
 70
     1
102
RTVSPropertyOp13
 70
     1
102
RTVSPropertyOp14
 70
     1
102
RTVSPropertyOp15
 70
     1
102
RTVSPropertyOp16
 70
     1
102
RTVSPropertyOp17
 70
     1
102
RTVSPropertyOp18
 70
     1
102
RTVSPropertyOp19
 70
     1
102
RTVSPropertyOp20
 70
     1
102
RTVSPropertyOp21
 70
     1
102
RTVSPropertyOp22
 70
     1
102
RTVSPropertyOp23
 70
     1
102
RTVSPropertyOp24
 70
     1
102
RTVSPropertyOp25
 70
     1
102
RTVSPropertyOp26
 70
     1
102
RTVSPropertyOp27
 70
     1
102
RTVSPropertyOp28
 70
     1
102
RTVSPropertyOp29
 70
     1
102
RTVSPropertyOp30
 70
     1
102
RTVSPropertyOp31
 70
     1
102
RTVSPropertyOp32
 70
     1
102
RTVSPropertyOp33
 70
     1
102
RTVSPropertyOp34
 70
     1
102
RTVSPropertyOp35
 70
     1
102
RTVSPropertyOp36
 70
     1
102
RTVSPropertyOp37
 70
     1
102
RTVSPropertyOp38
 70
     1
102
RTVSPropertyOp39
 70
     1
102
RTVSPropertyOp40
 70
     1
102
RTVSPropertyOp41
 70
     1
102
RTVSPropertyOp42
 70
     1
102
RTVSPropertyOp43
 70
     1
102
RTVSPropertyOp44
 70
     1
102
RTVSPropertyOp45
 70
     1
102
RTVSPropertyOp46
 70
     1
102
RTVSPropertyOp47
 70
     1
102
RTVSPropertyOp48
 70
     1
102
RTVSPropertyOp49
 70
     1
102
RTVSPropertyOp50
 70
     1
102
RTVSPropertyOp51
 70
     0
102
RTVSPropertyOp52
 70
     0
102
RTVSPropertyOp53
 70
     1
102
RTVSPropertyOp54
 70
     1
102
RTVSPropertyOp55
 70
     1
102
RTVSPropertyOp56
 70
     1
102
RTVSPropertyOp57
 70
     1
102
RTVSPropertyOp58
 70
     1
102
RTVSPropertyOp59
 70
     1
102
RTVSPropertyOp60
 70
     1
102
RTVSPropertyOp61
 70
     1
102
RTVSPropertyOp62
 70
     1
  0
XRECORD
  5
A742
102
{ACAD_REACTORS
330
A741
102
}
330
A741
100
AcDbXrecord
280
     1
102
RTVSPost2010Prop28
280
     0
102
RTVSPost2010PropOp28
 70
     1
102
RTVSPost2010Prop29
280
     1
102
RTVSPost2010PropOp29
 70
     1
102
RTVSPost2010Prop30
280
     1
102
RTVSPost2010PropOp30
 70
     1
102
RTVSPost2010Prop31
280
     0
102
RTVSPost2010PropOp31
 70
     1
102
RTVSPost2010Prop32
280
     0
102
RTVSPost2010PropOp32
 70
     1
102
RTVSPost2010Prop33
280
     0
102
RTVSPost2010PropOp33
 70
     1
102
RTVSPost2010Prop34
280
     0
102
RTVSPost2010PropOp34
 70
     1
102
RTVSPost2010Prop35
280
     0
102
RTVSPost2010PropOp35
 70
     1
102
RTVSPost2010Prop36
280
     0
102
RTVSPost2010PropOp36
 70
     1
102
RTVSPost2010Prop37
 90
       50
102
RTVSPost2010PropOp37
 70
     1
102
RTVSPost2010Prop38
140
0.0
102
RTVSPost2010PropOp38
 70
     1
102
RTVSPost2010Prop39
140
1.0
102
RTVSPost2010PropOp39
 70
     1
102
RTVSPost2010Prop40
 90
        0
102
RTVSPost2010PropOp40
 70
     1
102
RTVSPost2010Prop41ColorIndex
 90
       18
102
RTVSPost2010Prop41ColorRGB
 90
        0
102
RTVSPost2010PropOp41
 70
     1
102
RTVSPost2010Prop42
 90
       50
102
RTVSPost2010PropOp42
 70
     1
102
RTVSPost2010Prop43
 90
        3
102
RTVSPost2010PropOp43
 70
     1
102
RTVSPost2010Prop44ColorIndex
 90
        5
102
RTVSPost2010Prop44ColorRGB
 90
      255
102
RTVSPost2010PropOp44
 70
     1
102
RTVSPost2010Prop45
280
     0
102
RTVSPost2010PropOp45
 70
     1
102
RTVSPost2010Prop46
 90
       50
102
RTVSPost2010PropOp46
 70
     1
102
RTVSPost2010Prop47
 90
       50
102
RTVSPost2010PropOp47
 70
     1
102
RTVSPost2010Prop48
 90
       50
102
RTVSPost2010PropOp48
 70
     1
102
RTVSPost2010Prop49
280
     0
102
RTVSPost2010PropOp49
 70
     1
102
RTVSPost2010Prop50
 90
       50
102
RTVSPost2010PropOp50
 70
     1
102
RTVSPost2010Prop51ColorIndex
 90
      256
102
RTVSPost2010Prop51ColorRGB
 90
-16777216
102
RTVSPost2010PropOp51
 70
     0
102
RTVSPost2010Prop52
140
1.0
102
RTVSPost2010PropOp52
 70
     0
102
RTVSPost2010Prop53
 90
        2
102
RTVSPost2010PropOp53
 70
     1
102
RTVSPost2010Prop54
  1
strokes_ogs.tif
102
RTVSPost2010PropOp54
 70
     1
102
RTVSPost2010Prop55
280
     0
102
RTVSPost2010PropOp55
 70
     1
102
RTVSPost2010Prop56
140
1.0
102
RTVSPost2010PropOp56
 70
     1
102
RTVSPost2010Prop57
140
1.0
102
RTVSPost2010PropOp57
 70
     1
102
RTVSPropertyOp0
 70
     1
102
RTVSPropertyOp1
 70
     1
102
RTVSPropertyOp2
 70
     1
102
RTVSPropertyOp3
 70
     1
102
RTVSPropertyOp4
 70
     1
102
RTVSPropertyOp5
 70
     1
102
RTVSPropertyOp6
 70
     1
102
RTVSPropertyOp7
 70
     1
102
RTVSPropertyOp8
 70
     1
102
RTVSPropertyOp9
 70
     1
102
RTVSPropertyOp10
 70
     1
102
RTVSPropertyOp11
 70
     1
102
RTVSPropertyOp12
 70
     1
102
RTVSPropertyOp13
 70
     1
102
RTVSPropertyOp14
 70
     1
102
RTVSPropertyOp15
 70
     1
102
RTVSPropertyOp16
 70
     1
102
RTVSPropertyOp17
 70
     1
102
RTVSPropertyOp18
 70
     1
102
RTVSPropertyOp19
 70
     1
102
RTVSPropertyOp20
 70
     1
102
RTVSPropertyOp21
 70
     1
102
RTVSPropertyOp22
 70
     1
102
RTVSPropertyOp23
 70
     1
102
RTVSPropertyOp24
 70
     1
102
RTVSPropertyOp25
 70
     1
102
RTVSPropertyOp26
 70
     1
102
RTVSPropertyOp27
 70
     1
102
RTVSPropertyOp28
 70
     1
102
RTVSPropertyOp29
 70
     1
102
RTVSPropertyOp30
 70
     1
102
RTVSPropertyOp31
 70
     1
102
RTVSPropertyOp32
 70
     1
102
RTVSPropertyOp33
 70
     1
102
RTVSPropertyOp34
 70
     1
102
RTVSPropertyOp35
 70
     1
102
RTVSPropertyOp36
 70
     1
102
RTVSPropertyOp37
 70
     1
102
RTVSPropertyOp38
 70
     1
102
RTVSPropertyOp39
 70
     1
102
RTVSPropertyOp40
 70
     1
102
RTVSPropertyOp41
 70
     1
102
RTVSPropertyOp42
 70
     1
102
RTVSPropertyOp43
 70
     1
102
RTVSPropertyOp44
 70
     1
102
RTVSPropertyOp45
 70
     1
102
RTVSPropertyOp46
 70
     1
102
RTVSPropertyOp47
 70
     1
102
RTVSPropertyOp48
 70
     1
102
RTVSPropertyOp49
 70
     1
102
RTVSPropertyOp50
 70
     1
102
RTVSPropertyOp51
 70
     0
102
RTVSPropertyOp52
 70
     0
102
RTVSPropertyOp53
 70
     1
102
RTVSPropertyOp54
 70
     1
102
RTVSPropertyOp55
 70
     1
102
RTVSPropertyOp56
 70
     1
102
RTVSPropertyOp57
 70
     1
102
RTVSPropertyOp58
 70
     1
102
RTVSPropertyOp59
 70
     1
102
RTVSPropertyOp60
 70
     1
102
RTVSPropertyOp61
 70
     1
102
RTVSPropertyOp62
 70
     1
  0
XRECORD
  5
A730
102
{ACAD_REACTORS
330
A72F
102
}
330
A72F
100
AcDbXrecord
280
     1
102
RTVSPost2010Prop28
280
     0
102
RTVSPost2010PropOp28
 70
     1
102
RTVSPost2010Prop29
280
     1
102
RTVSPost2010PropOp29
 70
     1
102
RTVSPost2010Prop30
280
     1
102
RTVSPost2010PropOp30
 70
     1
102
RTVSPost2010Prop31
280
     0
102
RTVSPost2010PropOp31
 70
     1
102
RTVSPost2010Prop32
280
     0
102
RTVSPost2010PropOp32
 70
     1
102
RTVSPost2010Prop33
280
     0
102
RTVSPost2010PropOp33
 70
     1
102
RTVSPost2010Prop34
280
     0
102
RTVSPost2010PropOp34
 70
     1
102
RTVSPost2010Prop35
280
     0
102
RTVSPost2010PropOp35
 70
     1
102
RTVSPost2010Prop36
280
     0
102
RTVSPost2010PropOp36
 70
     1
102
RTVSPost2010Prop37
 90
       50
102
RTVSPost2010PropOp37
 70
     1
102
RTVSPost2010Prop38
140
0.0
102
RTVSPost2010PropOp38
 70
     1
102
RTVSPost2010Prop39
140
1.0
102
RTVSPost2010PropOp39
 70
     1
102
RTVSPost2010Prop40
 90
        0
102
RTVSPost2010PropOp40
 70
     1
102
RTVSPost2010Prop41ColorIndex
 90
       18
102
RTVSPost2010Prop41ColorRGB
 90
        0
102
RTVSPost2010PropOp41
 70
     1
102
RTVSPost2010Prop42
 90
       50
102
RTVSPost2010PropOp42
 70
     1
102
RTVSPost2010Prop43
 90
        3
102
RTVSPost2010PropOp43
 70
     1
102
RTVSPost2010Prop44ColorIndex
 90
        5
102
RTVSPost2010Prop44ColorRGB
 90
      255
102
RTVSPost2010PropOp44
 70
     1
102
RTVSPost2010Prop45
280
     0
102
RTVSPost2010PropOp45
 70
     1
102
RTVSPost2010Prop46
 90
       50
102
RTVSPost2010PropOp46
 70
     1
102
RTVSPost2010Prop47
 90
       50
102
RTVSPost2010PropOp47
 70
     1
102
RTVSPost2010Prop48
 90
       50
102
RTVSPost2010PropOp48
 70
     1
102
RTVSPost2010Prop49
280
     0
102
RTVSPost2010PropOp49
 70
     1
102
RTVSPost2010Prop50
 90
       50
102
RTVSPost2010PropOp50
 70
     1
102
RTVSPost2010Prop51ColorIndex
 90
      256
102
RTVSPost2010Prop51ColorRGB
 90
-16777216
102
RTVSPost2010PropOp51
 70
     0
102
RTVSPost2010Prop52
140
1.0
102
RTVSPost2010PropOp52
 70
     0
102
RTVSPost2010Prop53
 90
        2
102
RTVSPost2010PropOp53
 70
     1
102
RTVSPost2010Prop54
  1
strokes_ogs.tif
102
RTVSPost2010PropOp54
 70
     1
102
RTVSPost2010Prop55
280
     0
102
RTVSPost2010PropOp55
 70
     1
102
RTVSPost2010Prop56
140
1.0
102
RTVSPost2010PropOp56
 70
     1
102
RTVSPost2010Prop57
140
1.0
102
RTVSPost2010PropOp57
 70
     1
102
RTVSPropertyOp0
 70
     1
102
RTVSPropertyOp1
 70
     1
102
RTVSPropertyOp2
 70
     1
102
RTVSPropertyOp3
 70
     1
102
RTVSPropertyOp4
 70
     1
102
RTVSPropertyOp5
 70
     1
102
RTVSPropertyOp6
 70
     1
102
RTVSPropertyOp7
 70
     1
102
RTVSPropertyOp8
 70
     1
102
RTVSPropertyOp9
 70
     1
102
RTVSPropertyOp10
 70
     1
102
RTVSPropertyOp11
 70
     1
102
RTVSPropertyOp12
 70
     1
102
RTVSPropertyOp13
 70
     1
102
RTVSPropertyOp14
 70
     1
102
RTVSPropertyOp15
 70
     1
102
RTVSPropertyOp16
 70
     1
102
RTVSPropertyOp17
 70
     1
102
RTVSPropertyOp18
 70
     1
102
RTVSPropertyOp19
 70
     1
102
RTVSPropertyOp20
 70
     1
102
RTVSPropertyOp21
 70
     1
102
RTVSPropertyOp22
 70
     1
102
RTVSPropertyOp23
 70
     1
102
RTVSPropertyOp24
 70
     1
102
RTVSPropertyOp25
 70
     1
102
RTVSPropertyOp26
 70
     1
102
RTVSPropertyOp27
 70
     1
102
RTVSPropertyOp28
 70
     1
102
RTVSPropertyOp29
 70
     1
102
RTVSPropertyOp30
 70
     1
102
RTVSPropertyOp31
 70
     1
102
RTVSPropertyOp32
 70
     1
102
RTVSPropertyOp33
 70
     1
102
RTVSPropertyOp34
 70
     1
102
RTVSPropertyOp35
 70
     1
102
RTVSPropertyOp36
 70
     1
102
RTVSPropertyOp37
 70
     1
102
RTVSPropertyOp38
 70
     1
102
RTVSPropertyOp39
 70
     1
102
RTVSPropertyOp40
 70
     1
102
RTVSPropertyOp41
 70
     1
102
RTVSPropertyOp42
 70
     1
102
RTVSPropertyOp43
 70
     1
102
RTVSPropertyOp44
 70
     1
102
RTVSPropertyOp45
 70
     1
102
RTVSPropertyOp46
 70
     1
102
RTVSPropertyOp47
 70
     1
102
RTVSPropertyOp48
 70
     1
102
RTVSPropertyOp49
 70
     1
102
RTVSPropertyOp50
 70
     1
102
RTVSPropertyOp51
 70
     0
102
RTVSPropertyOp52
 70
     0
102
RTVSPropertyOp53
 70
     1
102
RTVSPropertyOp54
 70
     1
102
RTVSPropertyOp55
 70
     1
102
RTVSPropertyOp56
 70
     1
102
RTVSPropertyOp57
 70
     1
102
RTVSPropertyOp58
 70
     1
102
RTVSPropertyOp59
 70
     1
102
RTVSPropertyOp60
 70
     1
102
RTVSPropertyOp61
 70
     1
102
RTVSPropertyOp62
 70
     1
  0
XRECORD
  5
A724
102
{ACAD_REACTORS
330
A723
102
}
330
A723
100
AcDbXrecord
280
     1
102
RTVSPost2010Prop28
280
     0
102
RTVSPost2010PropOp28
 70
     1
102
RTVSPost2010Prop29
280
     1
102
RTVSPost2010PropOp29
 70
     1
102
RTVSPost2010Prop30
280
     1
102
RTVSPost2010PropOp30
 70
     1
102
RTVSPost2010Prop31
280
     0
102
RTVSPost2010PropOp31
 70
     1
102
RTVSPost2010Prop32
280
     0
102
RTVSPost2010PropOp32
 70
     1
102
RTVSPost2010Prop33
280
     0
102
RTVSPost2010PropOp33
 70
     1
102
RTVSPost2010Prop34
280
     0
102
RTVSPost2010PropOp34
 70
     1
102
RTVSPost2010Prop35
280
     0
102
RTVSPost2010PropOp35
 70
     1
102
RTVSPost2010Prop36
280
     0
102
RTVSPost2010PropOp36
 70
     1
102
RTVSPost2010Prop37
 90
       50
102
RTVSPost2010PropOp37
 70
     1
102
RTVSPost2010Prop38
140
0.0
102
RTVSPost2010PropOp38
 70
     1
102
RTVSPost2010Prop39
140
1.0
102
RTVSPost2010PropOp39
 70
     1
102
RTVSPost2010Prop40
 90
        0
102
RTVSPost2010PropOp40
 70
     1
102
RTVSPost2010Prop41ColorIndex
 90
       18
102
RTVSPost2010Prop41ColorRGB
 90
        0
102
RTVSPost2010PropOp41
 70
     1
102
RTVSPost2010Prop42
 90
       50
102
RTVSPost2010PropOp42
 70
     1
102
RTVSPost2010Prop43
 90
        3
102
RTVSPost2010PropOp43
 70
     1
102
RTVSPost2010Prop44ColorIndex
 90
        5
102
RTVSPost2010Prop44ColorRGB
 90
      255
102
RTVSPost2010PropOp44
 70
     1
102
RTVSPost2010Prop45
280
     0
102
RTVSPost2010PropOp45
 70
     1
102
RTVSPost2010Prop46
 90
       50
102
RTVSPost2010PropOp46
 70
     1
102
RTVSPost2010Prop47
 90
       50
102
RTVSPost2010PropOp47
 70
     1
102
RTVSPost2010Prop48
 90
       50
102
RTVSPost2010PropOp48
 70
     1
102
RTVSPost2010Prop49
280
     0
102
RTVSPost2010PropOp49
 70
     1
102
RTVSPost2010Prop50
 90
       50
102
RTVSPost2010PropOp50
 70
     1
102
RTVSPost2010Prop51ColorIndex
 90
      256
102
RTVSPost2010Prop51ColorRGB
 90
-16777216
102
RTVSPost2010PropOp51
 70
     0
102
RTVSPost2010Prop52
140
1.0
102
RTVSPost2010PropOp52
 70
     0
102
RTVSPost2010Prop53
 90
        2
102
RTVSPost2010PropOp53
 70
     1
102
RTVSPost2010Prop54
  1
strokes_ogs.tif
102
RTVSPost2010PropOp54
 70
     1
102
RTVSPost2010Prop55
280
     0
102
RTVSPost2010PropOp55
 70
     1
102
RTVSPost2010Prop56
140
1.0
102
RTVSPost2010PropOp56
 70
     1
102
RTVSPost2010Prop57
140
1.0
102
RTVSPost2010PropOp57
 70
     1
102
RTVSPropertyOp0
 70
     1
102
RTVSPropertyOp1
 70
     1
102
RTVSPropertyOp2
 70
     1
102
RTVSPropertyOp3
 70
     1
102
RTVSPropertyOp4
 70
     1
102
RTVSPropertyOp5
 70
     1
102
RTVSPropertyOp6
 70
     1
102
RTVSPropertyOp7
 70
     1
102
RTVSPropertyOp8
 70
     1
102
RTVSPropertyOp9
 70
     1
102
RTVSPropertyOp10
 70
     1
102
RTVSPropertyOp11
 70
     1
102
RTVSPropertyOp12
 70
     1
102
RTVSPropertyOp13
 70
     1
102
RTVSPropertyOp14
 70
     1
102
RTVSPropertyOp15
 70
     1
102
RTVSPropertyOp16
 70
     1
102
RTVSPropertyOp17
 70
     1
102
RTVSPropertyOp18
 70
     1
102
RTVSPropertyOp19
 70
     1
102
RTVSPropertyOp20
 70
     1
102
RTVSPropertyOp21
 70
     1
102
RTVSPropertyOp22
 70
     1
102
RTVSPropertyOp23
 70
     1
102
RTVSPropertyOp24
 70
     1
102
RTVSPropertyOp25
 70
     1
102
RTVSPropertyOp26
 70
     1
102
RTVSPropertyOp27
 70
     1
102
RTVSPropertyOp28
 70
     1
102
RTVSPropertyOp29
 70
     1
102
RTVSPropertyOp30
 70
     1
102
RTVSPropertyOp31
 70
     1
102
RTVSPropertyOp32
 70
     1
102
RTVSPropertyOp33
 70
     1
102
RTVSPropertyOp34
 70
     1
102
RTVSPropertyOp35
 70
     1
102
RTVSPropertyOp36
 70
     1
102
RTVSPropertyOp37
 70
     1
102
RTVSPropertyOp38
 70
     1
102
RTVSPropertyOp39
 70
     1
102
RTVSPropertyOp40
 70
     1
102
RTVSPropertyOp41
 70
     1
102
RTVSPropertyOp42
 70
     1
102
RTVSPropertyOp43
 70
     1
102
RTVSPropertyOp44
 70
     1
102
RTVSPropertyOp45
 70
     1
102
RTVSPropertyOp46
 70
     1
102
RTVSPropertyOp47
 70
     1
102
RTVSPropertyOp48
 70
     1
102
RTVSPropertyOp49
 70
     1
102
RTVSPropertyOp50
 70
     1
102
RTVSPropertyOp51
 70
     0
102
RTVSPropertyOp52
 70
     0
102
RTVSPropertyOp53
 70
     1
102
RTVSPropertyOp54
 70
     1
102
RTVSPropertyOp55
 70
     1
102
RTVSPropertyOp56
 70
     1
102
RTVSPropertyOp57
 70
     1
102
RTVSPropertyOp58
 70
     1
102
RTVSPropertyOp59
 70
     1
102
RTVSPropertyOp60
 70
     1
102
RTVSPropertyOp61
 70
     1
102
RTVSPropertyOp62
 70
     1
  0
XRECORD
  5
A744
102
{ACAD_REACTORS
330
A743
102
}
330
A743
100
AcDbXrecord
280
     1
102
RTVSPost2010Prop28
280
     0
102
RTVSPost2010PropOp28
 70
     1
102
RTVSPost2010Prop29
280
     1
102
RTVSPost2010PropOp29
 70
     1
102
RTVSPost2010Prop30
280
     1
102
RTVSPost2010PropOp30
 70
     1
102
RTVSPost2010Prop31
280
     0
102
RTVSPost2010PropOp31
 70
     1
102
RTVSPost2010Prop32
280
     0
102
RTVSPost2010PropOp32
 70
     1
102
RTVSPost2010Prop33
280
     0
102
RTVSPost2010PropOp33
 70
     1
102
RTVSPost2010Prop34
280
     0
102
RTVSPost2010PropOp34
 70
     1
102
RTVSPost2010Prop35
280
     0
102
RTVSPost2010PropOp35
 70
     1
102
RTVSPost2010Prop36
280
     0
102
RTVSPost2010PropOp36
 70
     1
102
RTVSPost2010Prop37
 90
       50
102
RTVSPost2010PropOp37
 70
     1
102
RTVSPost2010Prop38
140
0.0
102
RTVSPost2010PropOp38
 70
     1
102
RTVSPost2010Prop39
140
1.0
102
RTVSPost2010PropOp39
 70
     1
102
RTVSPost2010Prop40
 90
        0
102
RTVSPost2010PropOp40
 70
     1
102
RTVSPost2010Prop41ColorIndex
 90
       18
102
RTVSPost2010Prop41ColorRGB
 90
        0
102
RTVSPost2010PropOp41
 70
     1
102
RTVSPost2010Prop42
 90
       50
102
RTVSPost2010PropOp42
 70
     1
102
RTVSPost2010Prop43
 90
        3
102
RTVSPost2010PropOp43
 70
     1
102
RTVSPost2010Prop44ColorIndex
 90
        5
102
RTVSPost2010Prop44ColorRGB
 90
      255
102
RTVSPost2010PropOp44
 70
     1
102
RTVSPost2010Prop45
280
     0
102
RTVSPost2010PropOp45
 70
     1
102
RTVSPost2010Prop46
 90
       50
102
RTVSPost2010PropOp46
 70
     1
102
RTVSPost2010Prop47
 90
       50
102
RTVSPost2010PropOp47
 70
     1
102
RTVSPost2010Prop48
 90
       50
102
RTVSPost2010PropOp48
 70
     1
102
RTVSPost2010Prop49
280
     0
102
RTVSPost2010PropOp49
 70
     1
102
RTVSPost2010Prop50
 90
       50
102
RTVSPost2010PropOp50
 70
     1
102
RTVSPost2010Prop51ColorIndex
 90
      256
102
RTVSPost2010Prop51ColorRGB
 90
-16777216
102
RTVSPost2010PropOp51
 70
     0
102
RTVSPost2010Prop52
140
1.0
102
RTVSPost2010PropOp52
 70
     0
102
RTVSPost2010Prop53
 90
        2
102
RTVSPost2010PropOp53
 70
     1
102
RTVSPost2010Prop54
  1
strokes_ogs.tif
102
RTVSPost2010PropOp54
 70
     1
102
RTVSPost2010Prop55
280
     0
102
RTVSPost2010PropOp55
 70
     1
102
RTVSPost2010Prop56
140
1.0
102
RTVSPost2010PropOp56
 70
     1
102
RTVSPost2010Prop57
140
1.0
102
RTVSPost2010PropOp57
 70
     1
102
RTVSPropertyOp0
 70
     1
102
RTVSPropertyOp1
 70
     1
102
RTVSPropertyOp2
 70
     1
102
RTVSPropertyOp3
 70
     1
102
RTVSPropertyOp4
 70
     1
102
RTVSPropertyOp5
 70
     1
102
RTVSPropertyOp6
 70
     1
102
RTVSPropertyOp7
 70
     1
102
RTVSPropertyOp8
 70
     1
102
RTVSPropertyOp9
 70
     1
102
RTVSPropertyOp10
 70
     1
102
RTVSPropertyOp11
 70
     1
102
RTVSPropertyOp12
 70
     1
102
RTVSPropertyOp13
 70
     1
102
RTVSPropertyOp14
 70
     1
102
RTVSPropertyOp15
 70
     1
102
RTVSPropertyOp16
 70
     1
102
RTVSPropertyOp17
 70
     1
102
RTVSPropertyOp18
 70
     1
102
RTVSPropertyOp19
 70
     1
102
RTVSPropertyOp20
 70
     1
102
RTVSPropertyOp21
 70
     1
102
RTVSPropertyOp22
 70
     1
102
RTVSPropertyOp23
 70
     1
102
RTVSPropertyOp24
 70
     1
102
RTVSPropertyOp25
 70
     1
102
RTVSPropertyOp26
 70
     1
102
RTVSPropertyOp27
 70
     1
102
RTVSPropertyOp28
 70
     1
102
RTVSPropertyOp29
 70
     1
102
RTVSPropertyOp30
 70
     1
102
RTVSPropertyOp31
 70
     1
102
RTVSPropertyOp32
 70
     1
102
RTVSPropertyOp33
 70
     1
102
RTVSPropertyOp34
 70
     1
102
RTVSPropertyOp35
 70
     1
102
RTVSPropertyOp36
 70
     1
102
RTVSPropertyOp37
 70
     1
102
RTVSPropertyOp38
 70
     1
102
RTVSPropertyOp39
 70
     1
102
RTVSPropertyOp40
 70
     1
102
RTVSPropertyOp41
 70
     1
102
RTVSPropertyOp42
 70
     1
102
RTVSPropertyOp43
 70
     1
102
RTVSPropertyOp44
 70
     1
102
RTVSPropertyOp45
 70
     1
102
RTVSPropertyOp46
 70
     1
102
RTVSPropertyOp47
 70
     1
102
RTVSPropertyOp48
 70
     1
102
RTVSPropertyOp49
 70
     1
102
RTVSPropertyOp50
 70
     1
102
RTVSPropertyOp51
 70
     0
102
RTVSPropertyOp52
 70
     0
102
RTVSPropertyOp53
 70
     1
102
RTVSPropertyOp54
 70
     1
102
RTVSPropertyOp55
 70
     1
102
RTVSPropertyOp56
 70
     1
102
RTVSPropertyOp57
 70
     1
102
RTVSPropertyOp58
 70
     1
102
RTVSPropertyOp59
 70
     1
102
RTVSPropertyOp60
 70
     1
102
RTVSPropertyOp61
 70
     1
102
RTVSPropertyOp62
 70
     1
  0
ENDSEC
  0
EOF
